  0
SECTION
  2
HEADER
  9
$ACADVER
  1
AC1014
  9
$ACADMAINTVER
 70
     9
  9
$DWGCODEPAGE
  3
ANSI_932
  9
$INSBASE
 10
0.0
 20
0.0
 30
0.0
  9
$EXTMIN
 10
-0.2371206044185783
 20
-0.1087576640901489
 30
-0.0000000349181948
  9
$EXTMAX
 10
118.7722784592448
 20
214.5178978266483
 30
0.0000000814935747
  9
$LIMMIN
 10
0.0
 20
0.0
  9
$LIMMAX
 10
420.0
 20
297.0
  9
$ORTHOMODE
 70
     0
  9
$REGENMODE
 70
     1
  9
$FILLMODE
 70
     1
  9
$QTEXTMODE
 70
     0
  9
$MIRRTEXT
 70
     1
  9
$DRAGMODE
 70
     2
  9
$LTSCALE
 40
1.0
  9
$OSMODE
 70
    55
  9
$ATTMODE
 70
     1
  9
$TEXTSIZE
 40
2.5
  9
$TRACEWID
 40
1.0
  9
$TEXTSTYLE
  7
STANDARD
  9
$CLAYER
  8
0
  9
$CELTYPE
  6
BYLAYER
  9
$CECOLOR
 62
   256
  9
$CELTSCALE
 40
1.0
  9
$DELOBJ
 70
     1
  9
$DISPSILH
 70
     0
  9
$DIMSCALE
 40
1.0
  9
$DIMASZ
 40
2.5
  9
$DIMEXO
 40
0.625
  9
$DIMDLI
 40
3.75
  9
$DIMRND
 40
0.0
  9
$DIMDLE
 40
0.0
  9
$DIMEXE
 40
1.25
  9
$DIMTP
 40
0.0
  9
$DIMTM
 40
0.0
  9
$DIMTXT
 40
2.5
  9
$DIMCEN
 40
2.5
  9
$DIMTSZ
 40
0.0
  9
$DIMTOL
 70
     0
  9
$DIMLIM
 70
     0
  9
$DIMTIH
 70
     0
  9
$DIMTOH
 70
     0
  9
$DIMSE1
 70
     0
  9
$DIMSE2
 70
     0
  9
$DIMTAD
 70
     1
  9
$DIMZIN
 70
     8
  9
$DIMBLK
  1

  9
$DIMASO
 70
     1
  9
$DIMSHO
 70
     1
  9
$DIMPOST
  1

  9
$DIMAPOST
  1

  9
$DIMALT
 70
     0
  9
$DIMALTD
 70
     3
  9
$DIMALTF
 40
0.03937007874016
  9
$DIMLFAC
 40
1.0
  9
$DIMTOFL
 70
     1
  9
$DIMTVP
 40
0.0
  9
$DIMTIX
 70
     0
  9
$DIMSOXD
 70
     0
  9
$DIMSAH
 70
     0
  9
$DIMBLK1
  1

  9
$DIMBLK2
  1

  9
$DIMSTYLE
  2
ISO-25
  9
$DIMCLRD
 70
     0
  9
$DIMCLRE
 70
     0
  9
$DIMCLRT
 70
     0
  9
$DIMTFAC
 40
1.0
  9
$DIMGAP
 40
0.625
  9
$DIMJUST
 70
     0
  9
$DIMSD1
 70
     0
  9
$DIMSD2
 70
     0
  9
$DIMTOLJ
 70
     1
  9
$DIMTZIN
 70
     0
  9
$DIMALTZ
 70
     0
  9
$DIMALTTZ
 70
     0
  9
$DIMFIT
 70
     3
  9
$DIMUPT
 70
     0
  9
$DIMUNIT
 70
     2
  9
$DIMDEC
 70
     4
  9
$DIMTDEC
 70
     4
  9
$DIMALTU
 70
     2
  9
$DIMALTTD
 70
     2
  9
$DIMTXSTY
  7
STANDARD
  9
$DIMAUNIT
 70
     0
  9
$LUNITS
 70
     2
  9
$LUPREC
 70
     4
  9
$SKETCHINC
 40
1.0
  9
$FILLETRAD
 40
10.0
  9
$AUNITS
 70
     0
  9
$AUPREC
 70
     0
  9
$MENU
  1
.
  9
$ELEVATION
 40
0.0
  9
$PELEVATION
 40
0.0
  9
$THICKNESS
 40
0.0
  9
$LIMCHECK
 70
     0
  9
$BLIPMODE
 70
     0
  9
$CHAMFERA
 40
10.0
  9
$CHAMFERB
 40
10.0
  9
$CHAMFERC
 40
0.0
  9
$CHAMFERD
 40
0.0
  9
$SKPOLY
 70
     0
  9
$TDCREATE
 40
2453948.747263240
  9
$TDUPDATE
 40
2455040.696506655
  9
$TDINDWG
 40
0.0022703356
  9
$TDUSRTIMER
 40
0.0022701505
  9
$USRTIMER
 70
     1
  9
$ANGBASE
 50
0.0
  9
$ANGDIR
 70
     0
  9
$PDMODE
 70
     0
  9
$PDSIZE
 40
0.0
  9
$PLINEWID
 40
0.0
  9
$COORDS
 70
     0
  9
$SPLFRAME
 70
     0
  9
$SPLINETYPE
 70
     6
  9
$SPLINESEGS
 70
     8
  9
$ATTDIA
 70
     0
  9
$ATTREQ
 70
     1
  9
$HANDLING
 70
 22529
  9
$HANDSEED
  5
17E9
  9
$SURFTAB1
 70
     6
  9
$SURFTAB2
 70
     6
  9
$SURFTYPE
 70
     6
  9
$SURFU
 70
     6
  9
$SURFV
 70
     6
  9
$UCSNAME
  2

  9
$UCSORG
 10
0.0
 20
0.0
 30
0.0
  9
$UCSXDIR
 10
1.0
 20
0.0
 30
0.0
  9
$UCSYDIR
 10
0.0
 20
1.0
 30
0.0
  9
$PUCSNAME
  2

  9
$PUCSORG
 10
0.0
 20
0.0
 30
0.0
  9
$PUCSXDIR
 10
1.0
 20
0.0
 30
0.0
  9
$PUCSYDIR
 10
0.0
 20
1.0
 30
0.0
  9
$USERI1
 70
     0
  9
$USERI2
 70
     0
  9
$USERI3
 70
     0
  9
$USERI4
 70
     0
  9
$USERI5
 70
     0
  9
$USERR1
 40
0.0
  9
$USERR2
 40
0.0
  9
$USERR3
 40
0.0
  9
$USERR4
 40
0.0
  9
$USERR5
 40
0.0
  9
$WORLDVIEW
 70
     1
  9
$SHADEDGE
 70
     3
  9
$SHADEDIF
 70
    70
  9
$TILEMODE
 70
     1
  9
$MAXACTVP
 70
    64
  9
$PINSBASE
 10
0.0
 20
0.0
 30
0.0
  9
$PLIMCHECK
 70
     0
  9
$PEXTMIN
 10
1.000000000000000E+20
 20
1.000000000000000E+20
 30
1.000000000000000E+20
  9
$PEXTMAX
 10
-1.000000000000000E+20
 20
-1.000000000000000E+20
 30
-1.000000000000000E+20
  9
$PLIMMIN
 10
0.0
 20
0.0
  9
$PLIMMAX
 10
420.0
 20
297.0
  9
$UNITMODE
 70
     0
  9
$VISRETAIN
 70
     1
  9
$PLINEGEN
 70
     0
  9
$PSLTSCALE
 70
     1
  9
$TREEDEPTH
 70
  3020
  9
$PICKSTYLE
 70
     1
  9
$CMLSTYLE
  2
STANDARD
  9
$CMLJUST
 70
     0
  9
$CMLSCALE
 40
1.0
  9
$PROXYGRAPHICS
 70
     1
  9
$MEASUREMENT
 70
     0
  0
ENDSEC
  0
SECTION
  2
CLASSES
  0
CLASS
  1
ACDBDICTIONARYWDFLT
  2
AcDbDictionaryWithDefault
  3
AutoCAD 2000
 90
        0
280
     0
281
     0
  0
CLASS
  1
ACDBPLACEHOLDER
  2
AcDbPlaceHolder
  3
AutoCAD 2000
 90
        0
280
     0
281
     0
  0
CLASS
  1
LAYOUT
  2
AcDbLayout
  3
AutoCAD 2000
 90
        0
280
     0
281
     0
  0
CLASS
  1
DICTIONARYVAR
  2
AcDbDictionaryVar
  3
AutoCAD 2000
 90
        0
280
     0
281
     0
  0
CLASS
  1
LONG_TRANSACTION
  2
AcDbLongTransaction
  3
AutoCAD 2000
 90
        0
280
     0
281
     0
  0
CLASS
  1
LWPOLYLINE
  2
AcDbPolyline
  3
AutoCAD 2000
 90
        0
280
     0
281
     1
  0
CLASS
  1
HATCH
  2
AcDbHatch
  3
AutoCAD 2000
 90
        0
280
     0
281
     1
  0
CLASS
  1
XRECORD
  2
AcDbXrecord
  3
AutoCAD 2000
 90
        0
280
     0
281
     0
  0
ENDSEC
  0
SECTION
  2
TABLES
  0
TABLE
  2
VPORT
  5
A88
330
0
100
AcDbSymbolTable
 70
     2
  0
VPORT
  5
17C4
330
A88
100
AcDbSymbolTableRecord
100
AcDbViewportTableRecord
  2
*ACTIVE
 70
     0
 10
0.0
 20
0.0
 11
1.0
 21
1.0
 12
59.26757892741314
 22
107.204570081279
 13
0.0
 23
0.0
 14
10.0
 24
10.0
 15
10.0
 25
10.0
 16
0.0
 26
0.0
 36
1.0
 17
0.0
 27
0.0
 37
0.0
 40
216.2323411926641
 41
1.504369538077403
 42
50.0
 43
0.0
 44
0.0
 50
0.0
 51
0.0
 71
     0
 72
   100
 73
     1
 74
     3
 75
     0
 76
     0
 77
     0
 78
     0
  0
ENDTAB
  0
TABLE
  2
LTYPE
  5
A85
330
0
100
AcDbSymbolTable
 70
     2
  0
LTYPE
  5
A93
330
A85
100
AcDbSymbolTableRecord
100
AcDbLinetypeTableRecord
  2
BYBLOCK
 70
     0
  3

 72
    65
 73
     0
 40
0.0
  0
LTYPE
  5
A94
330
A85
100
AcDbSymbolTableRecord
100
AcDbLinetypeTableRecord
  2
BYLAYER
 70
     0
  3

 72
    65
 73
     0
 40
0.0
  0
LTYPE
  5
A95
330
A85
100
AcDbSymbolTableRecord
100
AcDbLinetypeTableRecord
  2
CONTINUOUS
 70
     0
  3
Solid line
 72
    65
 73
     0
 40
0.0
  0
LTYPE
  5
AA3
330
A85
100
AcDbSymbolTableRecord
100
AcDbLinetypeTableRecord
  2
DIVIDE
 70
     0
  3
__ . . __ . . __ . . __ . . __ . . __ . . __
 72
    65
 73
     6
 40
1.25
 49
0.0
 74
     0
 49
-0.25
 74
     0
 49
0.0
 74
     0
 49
-0.25
 74
     0
 49
0.0
 74
     0
 49
-0.25
 74
     0
  0
ENDTAB
  0
TABLE
  2
LAYER
  5
A82
102
{ACAD_XDICTIONARY
360
101D
102
}
330
0
100
AcDbSymbolTable
 70
     7
  0
LAYER
  5
A90
330
A82
100
AcDbSymbolTableRecord
100
AcDbLayerTableRecord
  2
0
 70
     0
 62
     7
  6
CONTINUOUS
  0
LAYER
  5
AA6
330
A82
100
AcDbSymbolTableRecord
100
AcDbLayerTableRecord
  2
DEFPOINTS
 70
     0
 62
     7
  6
CONTINUOUS
  0
LAYER
  5
AA8
330
A82
100
AcDbSymbolTableRecord
100
AcDbLayerTableRecord
  2
3_表示パネル
 70
     0
 62
     7
  6
DIVIDE
  0
LAYER
  5
101C
330
A82
100
AcDbSymbolTableRecord
100
AcDbLayerTableRecord
  2
2_カバ_
 70
     0
 62
     7
  6
DIVIDE
  0
ENDTAB
  0
TABLE
  2
STYLE
  5
A83
330
0
100
AcDbSymbolTable
 70
     1
  0
STYLE
  5
A91
330
A83
100
AcDbSymbolTableRecord
100
AcDbTextStyleTableRecord
  2
STANDARD
 70
     0
 40
0.0
 41
1.0
 50
0.0
 71
     0
 42
2.5
  3
txt
  4

  0
ENDTAB
  0
TABLE
  2
VIEW
  5
A86
330
0
100
AcDbSymbolTable
 70
     0
  0
ENDTAB
  0
TABLE
  2
UCS
  5
A87
330
0
100
AcDbSymbolTable
 70
     0
  0
ENDTAB
  0
TABLE
  2
APPID
  5
A89
330
0
100
AcDbSymbolTable
 70
     1
  0
APPID
  5
A92
330
A89
100
AcDbSymbolTableRecord
100
AcDbRegAppTableRecord
  2
ACAD
 70
     0
  0
ENDTAB
  0
TABLE
  2
DIMSTYLE
  5
A8A
330
0
100
AcDbSymbolTable
 70
     6
  0
DIMSTYLE
105
AA9
330
A8A
100
AcDbSymbolTableRecord
100
AcDbDimStyleTableRecord
  2
ISO-25
 70
     0
  3

  4

  5

  6

  7

 40
1.0
 41
2.5
 42
0.625
 43
3.75
 44
1.25
 45
0.0
 46
0.0
 47
0.0
 48
0.0
140
2.5
141
2.5
142
0.0
143
0.03937007874016
144
1.0
145
0.0
146
1.0
147
0.625
 71
     0
 72
     0
 73
     0
 74
     0
 75
     0
 76
     0
 77
     1
 78
     8
170
     0
171
     3
172
     1
173
     0
174
     0
175
     0
176
     0
177
     0
178
     0
270
     2
271
     4
272
     4
273
     2
274
     3
340
A91
275
     0
280
     0
281
     0
282
     0
283
     1
284
     8
285
     8
286
     8
287
     5
288
     0
  0
DIMSTYLE
105
AAA
330
A8A
100
AcDbSymbolTableRecord
100
AcDbDimStyleTableRecord
  2
STANDARD
 70
     0
  3

  4

  5

  6

  7

 40
1.0
 41
2.5
 42
0.625
 43
3.75
 44
1.25
 45
0.0
 46
0.0
 47
0.0
 48
0.0
140
2.5
141
2.5
142
0.0
143
0.0394
144
1.0
145
0.0
146
1.0
147
0.625
 71
     0
 72
     0
 73
     0
 74
     0
 75
     0
 76
     0
 77
     1
 78
     8
170
     0
171
     4
172
     1
173
     0
174
     0
175
     0
176
     0
177
     0
178
     0
270
     2
271
     4
272
     4
273
     2
274
     3
340
A91
275
     0
280
     0
281
     0
282
     0
283
     1
284
     8
285
     8
286
     8
287
     5
288
     0
  0
ENDTAB
  0
TABLE
  2
BLOCK_RECORD
  5
A81
330
0
100
AcDbSymbolTable
 70
    18
  0
BLOCK_RECORD
  5
A9E
102
{ACAD_XDICTIONARY
360
17E7
102
}
330
A81
100
AcDbSymbolTableRecord
100
AcDbBlockTableRecord
  2
*MODEL_SPACE
  0
BLOCK_RECORD
  5
A9A
102
{ACAD_XDICTIONARY
360
17E5
102
}
330
A81
100
AcDbSymbolTableRecord
100
AcDbBlockTableRecord
  2
*PAPER_SPACE
  0
ENDTAB
  0
ENDSEC
  0
SECTION
  2
BLOCKS
  0
BLOCK
  5
A9F
330
A9E
100
AcDbEntity
  8
0
100
AcDbBlockBegin
  2
*MODEL_SPACE
 70
     0
 10
0.0
 20
0.0
 30
0.0
  3
*MODEL_SPACE
  1

  0
ENDBLK
  5
AA0
330
A9E
100
AcDbEntity
  8
0
100
AcDbBlockEnd
  0
BLOCK
  5
A9B
330
A9A
100
AcDbEntity
 67
     1
  8
0
100
AcDbBlockBegin
  2
*PAPER_SPACE
 70
     0
 10
0.0
 20
0.0
 30
0.0
  3
*PAPER_SPACE
  1

  0
ENDBLK
  5
A9C
330
A9A
100
AcDbEntity
 67
     1
  8
0
100
AcDbBlockEnd
  0
ENDSEC
  0
SECTION
  2
ENTITIES
  0
LWPOLYLINE
  5
13EC
330
A9E
100
AcDbEntity
  8
0
100
AcDbPolyline
 90
        4
 70
     1
 43
0.0
 10
117.2645245795562
 20
181.3814893927037
 10
117.2645245795562
 20
212.3819073927033
 10
118.7645245795562
 20
212.3819073927033
 10
118.7645245795562
 20
181.3814893927037
  0
ARC
  5
13ED
330
A9E
100
AcDbEntity
  8
0
  6
CONTINUOUS
100
AcDbCircle
 10
155.6645245795568
 20
196.8816993927039
 30
0.0
 40
100.0
100
AcDbArc
 50
175.2671449999835
 51
184.7328559999832
  0
LINE
  5
13EE
330
A9E
100
AcDbEntity
  8
0
  6
CONTINUOUS
100
AcDbLine
 10
65.66452457955676
 20
190.8816993927039
 30
0.0
 11
65.66452457955676
 21
202.8816993927039
 31
0.0
  0
LINE
  5
13EF
330
A9E
100
AcDbEntity
  8
0
  6
CONTINUOUS
100
AcDbLine
 10
67.66452457955677
 20
202.8816993927039
 30
0.0
 11
67.66452457955677
 21
190.8816993927039
 31
0.0
  0
LINE
  5
13F0
330
A9E
100
AcDbEntity
  8
0
  6
CONTINUOUS
100
AcDbLine
 10
61.66452457955677
 20
190.8816993927039
 30
0.0
 11
61.66452457955677
 21
202.8816993927039
 31
0.0
  0
LINE
  5
13F1
330
A9E
100
AcDbEntity
  8
0
  6
CONTINUOUS
100
AcDbLine
 10
63.66452457955677
 20
202.8816993927039
 30
0.0
 11
63.66452457955677
 21
190.8816993927039
 31
0.0
  0
LINE
  5
13F2
330
A9E
100
AcDbEntity
  8
0
  6
CONTINUOUS
100
AcDbLine
 10
87.66452457955677
 20
202.8816983927035
 30
0.0
 11
87.66452457955677
 21
190.8816993927039
 31
0.0
  0
LINE
  5
13F3
330
A9E
100
AcDbEntity
  8
0
  6
CONTINUOUS
100
AcDbLine
 10
89.66452457955677
 20
190.8816993927039
 30
0.0
 11
89.66452457955677
 21
202.8816983927035
 31
0.0
  0
LINE
  5
13F4
330
A9E
100
AcDbEntity
  8
0
  6
CONTINUOUS
100
AcDbLine
 10
81.66452457955676
 20
190.8816993927039
 30
0.0
 11
81.66452457955676
 21
202.8816983927035
 31
0.0
  0
LINE
  5
13F5
330
A9E
100
AcDbEntity
  8
0
  6
CONTINUOUS
100
AcDbLine
 10
83.66452457955677
 20
202.8816983927035
 30
0.0
 11
83.66452457955677
 21
190.8816993927039
 31
0.0
  0
LINE
  5
13F6
330
A9E
100
AcDbEntity
  8
0
  6
CONTINUOUS
100
AcDbLine
 10
71.66452457955677
 20
202.8816993927039
 30
0.0
 11
71.66452457955677
 21
190.8816993927039
 31
0.0
  0
LINE
  5
13F7
330
A9E
100
AcDbEntity
  8
0
  6
CONTINUOUS
100
AcDbLine
 10
73.66452457955677
 20
190.8816993927039
 30
0.0
 11
73.66452457955677
 21
202.8816993927039
 31
0.0
  0
LINE
  5
13F8
330
A9E
100
AcDbEntity
  8
0
  6
CONTINUOUS
100
AcDbLine
 10
75.66452457955676
 20
202.8816993927039
 30
0.0
 11
75.66452457955676
 21
190.8816993927039
 31
0.0
  0
LINE
  5
13F9
330
A9E
100
AcDbEntity
  8
0
  6
CONTINUOUS
100
AcDbLine
 10
69.66452457955677
 20
190.8816993927039
 30
0.0
 11
69.66452457955677
 21
202.8816993927039
 31
0.0
  0
LINE
  5
13FA
330
A9E
100
AcDbEntity
  8
0
  6
CONTINUOUS
100
AcDbLine
 10
85.66452457955676
 20
190.8816993927039
 30
0.0
 11
85.66452457955676
 21
202.8816983927035
 31
0.0
  0
LINE
  5
13FB
330
A9E
100
AcDbEntity
  8
0
  6
CONTINUOUS
100
AcDbLine
 10
77.66452457955677
 20
190.8816993927039
 30
0.0
 11
77.66452457955677
 21
202.8816993927039
 31
0.0
  0
LINE
  5
13FC
330
A9E
100
AcDbEntity
  8
0
  6
CONTINUOUS
100
AcDbLine
 10
79.66452457955677
 20
202.8816993927039
 30
0.0
 11
79.66452457955677
 21
190.8816993927039
 31
0.0
  0
ARC
  5
13FD
330
A9E
100
AcDbEntity
  8
0
  6
CONTINUOUS
100
AcDbCircle
 10
150.6645245795568
 20
196.8816993927039
 30
0.0
 40
100.0
100
AcDbArc
 50
172.1606020000355
 51
187.8393999999904
  0
LINE
  5
13FE
330
A9E
100
AcDbEntity
  8
0
  6
CONTINUOUS
100
AcDbLine
 10
99.96452457955605
 20
199.4816983927039
 30
0.0
 11
99.96452457955605
 21
202.7816983927041
 31
0.0
  0
LINE
  5
13FF
330
A9E
100
AcDbEntity
  8
0
  6
CONTINUOUS
100
AcDbLine
 10
98.76452457955622
 20
199.4816983927039
 30
0.0
 11
98.76452457955622
 21
202.7816983927041
 31
0.0
  0
LINE
  5
1400
330
A9E
100
AcDbEntity
  8
0
  6
CONTINUOUS
100
AcDbLine
 10
101.3645245795565
 20
201.0816983927034
 30
0.0
 11
101.3645245795565
 21
202.7816983927041
 31
0.0
  0
LINE
  5
1401
330
A9E
100
AcDbEntity
  8
0
  6
CONTINUOUS
100
AcDbLine
 10
97.36452457955659
 20
201.0816983927034
 30
0.0
 11
97.36452457955659
 21
202.7816983927041
 31
0.0
  0
LINE
  5
1402
330
A9E
100
AcDbEntity
  8
0
  6
CONTINUOUS
100
AcDbLine
 10
91.66452457955676
 20
202.8816983927035
 30
0.0
 11
91.66452457955676
 21
190.8816993927039
 31
0.0
  0
LINE
  5
1403
330
A9E
100
AcDbEntity
  8
0
  6
CONTINUOUS
100
AcDbLine
 10
107.6645245795567
 20
202.8816993927039
 30
0.0
 11
107.6645245795567
 21
190.8816993927039
 31
0.0
  0
LINE
  5
1404
330
A9E
100
AcDbEntity
  8
0
  6
CONTINUOUS
100
AcDbLine
 10
109.6645245795567
 20
190.8816993927039
 30
0.0
 11
109.6645245795567
 21
202.8816993927039
 31
0.0
  0
LINE
  5
1405
330
A9E
100
AcDbEntity
  8
0
  6
CONTINUOUS
100
AcDbLine
 10
111.6645245795567
 20
202.8816993927039
 30
0.0
 11
111.6645245795567
 21
190.8816993927039
 31
0.0
  0
LINE
  5
1406
330
A9E
100
AcDbEntity
  8
0
  6
CONTINUOUS
100
AcDbLine
 10
106.6645245795567
 20
202.8816983927035
 30
0.0
 11
106.6645245795567
 21
193.9816983927039
 31
0.0
  0
LINE
  5
1407
330
A9E
100
AcDbEntity
  8
0
  6
CONTINUOUS
100
AcDbLine
 10
117.2645245795562
 20
212.3816983927035
 30
0.0
 11
117.2645245795562
 21
181.3816983927035
 31
0.0
  0
LINE
  5
1408
330
A9E
100
AcDbEntity
  8
0
  6
CONTINUOUS
100
AcDbLine
 10
52.57434257955686
 20
3.004656592492665
 30
0.0
 11
117.2645245795562
 21
2.007823592492513
 31
0.0
  0
LINE
  5
1409
330
A9E
100
AcDbEntity
  8
0
  6
CONTINUOUS
100
AcDbLine
 10
52.57434257955686
 20
32.01098959249293
 30
0.0
 11
117.2645245795562
 21
33.00782359249251
 31
0.0
  0
LINE
  5
140A
330
A9E
100
AcDbEntity
  8
0
  6
CONTINUOUS
100
AcDbLine
 10
57.80448657955606
 20
0.9238265924927873
 30
0.0
 11
117.7568205795565
 21
-0.0000004075077413
 31
0.0
  0
LINE
  5
140B
330
A9E
100
AcDbEntity
  8
0
  6
CONTINUOUS
100
AcDbLine
 10
57.80448657955606
 20
34.09182059249224
 30
0.0
 11
117.7568205795565
 21
35.01564659249243
 31
0.0
  0
LINE
  5
140C
330
A9E
100
AcDbEntity
  8
0
  6
CONTINUOUS
100
AcDbLine
 10
57.96786657955601
 20
27.59356659249215
 30
0.0
 11
117.2645245795562
 21
28.50728859249239
 31
0.0
  0
LINE
  5
140D
330
A9E
100
AcDbEntity
  8
0
  6
CONTINUOUS
100
AcDbLine
 10
57.96786557955659
 20
7.422080592492875
 30
0.0
 11
117.2645245795562
 21
6.508357592493211
 31
0.0
  0
LINE
  5
140E
330
A9E
100
AcDbEntity
  8
0
  6
CONTINUOUS
100
AcDbLine
 10
52.57434257955686
 20
182.378532392704
 30
0.0
 11
117.2645245795562
 21
181.3816983927035
 31
0.0
  0
LINE
  5
140F
330
A9E
100
AcDbEntity
  8
0
  6
CONTINUOUS
100
AcDbLine
 10
57.80448657955606
 20
180.2977013927038
 30
0.0
 11
117.7568205795565
 21
179.3738753927036
 31
0.0
  0
LINE
  5
1410
330
A9E
100
AcDbEntity
  8
0
  6
CONTINUOUS
100
AcDbLine
 10
57.96786657955601
 20
186.7959553927039
 30
0.0
 11
117.2645245795562
 21
185.8822333927037
 31
0.0
  0
LINE
  5
1411
330
A9E
100
AcDbEntity
  8
0
  6
CONTINUOUS
100
AcDbLine
 10
117.2645245795562
 20
54.65858587374021
 30
0.0
 11
51.64164557955666
 21
56.1603768737408
 31
0.0
  0
LINE
  5
1412
330
A9E
100
AcDbEntity
  8
0
  6
CONTINUOUS
100
AcDbLine
 10
117.241645579557
 20
59.66041887374046
 30
0.0
 11
57.79701457955673
 21
61.02081887374095
 31
0.0
  0
LINE
  5
1413
330
A9E
100
AcDbEntity
  8
0
  6
CONTINUOUS
100
AcDbLine
 10
117.2645245795562
 20
159.1585858737402
 30
0.0
 11
51.64164557955666
 21
157.6567948737405
 31
0.0
  0
LINE
  5
1414
330
A9E
100
AcDbEntity
  8
0
  6
CONTINUOUS
100
AcDbLine
 10
117.241645579557
 20
154.1567528737408
 30
0.0
 11
57.79701457955673
 21
152.7963528737403
 31
0.0
  0
LINE
  5
1415
330
A9E
100
AcDbEntity
  8
3_表示パネル
  6
CONTINUOUS
100
AcDbLine
 10
13.1156469780806
 20
80.10858587374327
 30
0.0
 11
13.11564697808066
 21
91.40858587374344
 31
0.0
  0
LINE
  5
1416
330
A9E
100
AcDbEntity
  8
0
100
AcDbLine
 10
14.84339755901015
 20
90.3839151975294
 30
0.0
 11
14.84339755900956
 21
88.08391519752921
 31
0.0
  0
LINE
  5
1417
330
A9E
100
AcDbEntity
  8
0
100
AcDbLine
 10
22.29339755901037
 20
88.3839151975275
 30
0.0
 11
22.29339755901088
 21
90.3839151975275
 31
0.0
  0
LINE
  5
1418
330
A9E
100
AcDbEntity
  8
0
100
AcDbLine
 10
21.09339755900884
 20
85.38391519752781
 30
0.0
 11
21.09339755901004
 21
89.98391519752727
 31
0.0
  0
LINE
  5
1419
330
A9E
100
AcDbEntity
  8
0
100
AcDbLine
 10
15.29339755901017
 20
87.5839151975291
 30
0.0
 11
15.29339755901074
 21
89.78391519752983
 31
0.0
  0
LINE
  5
141A
330
A9E
100
AcDbEntity
  8
0
100
AcDbLine
 10
23.21564697809748
 20
145.3085858737418
 30
0.0
 11
23.21564697807602
 21
62.00858587374191
 31
0.0
  0
LINE
  5
141B
330
A9E
100
AcDbEntity
  8
0
100
AcDbLine
 10
22.29339755902506
 20
145.3085858737421
 30
0.0
 11
22.29339755900355
 21
62.00858587374213
 31
0.0
  0
LINE
  5
141C
330
A9E
100
AcDbEntity
  8
0
  6
CONTINUOUS
100
AcDbLine
 10
29.91564697810025
 20
153.3085858737411
 30
0.0
 11
29.91564697807615
 21
59.00858587374099
 31
0.0
  0
LINE
  5
141D
330
A9E
100
AcDbEntity
  8
0
  6
CONTINUOUS
100
AcDbLine
 10
5.115646978100073
 20
153.3085858737475
 30
0.0
 11
5.115646978075972
 21
59.00858587374734
 31
0.0
  0
LINE
  5
141E
330
A9E
100
AcDbEntity
  8
0
  6
CONTINUOUS
100
AcDbLine
 10
3.025646978100638
 20
155.9053628737477
 30
0.0
 11
3.025646978075144
 21
56.41180987374756
 31
0.0
  0
LINE
  5
141F
330
A9E
100
AcDbEntity
  8
0
  6
CONTINUOUS
100
AcDbLine
 10
-0.0000000219243645
 20
59.88700987374818
 30
0.0
 11
-0.0000000219006893
 21
152.4301618737483
 31
0.0
  0
LINE
  5
1420
330
A9E
100
AcDbEntity
  8
0
  6
CONTINUOUS
100
AcDbLine
 10
32.00564697810111
 20
155.9053628737403
 30
0.0
 11
32.00564697807561
 21
56.41180987374013
 31
0.0
  0
LINE
  5
1421
330
A9E
100
AcDbEntity
  8
0
  6
CONTINUOUS
100
AcDbLine
 10
35.03129397807597
 20
59.88700987373923
 30
0.0
 11
35.03129397809965
 21
152.4301618737393
 31
0.0
  0
LINE
  5
1422
330
A9E
100
AcDbEntity
  8
0
  6
CONTINUOUS
100
AcDbLine
 10
5.015646978075579
 20
58.908585873747
 30
0.0
 11
5.015646978099738
 21
153.4085858737469
 31
0.0
  0
LINE
  5
1423
330
A9E
100
AcDbEntity
  8
0
  6
CONTINUOUS
100
AcDbLine
 10
30.01564697807558
 20
58.90858587374061
 30
0.0
 11
30.01564697809973
 21
153.4085858737405
 31
0.0
  0
LINE
  5
1424
330
A9E
100
AcDbEntity
  8
0
  6
CONTINUOUS
100
AcDbLine
 10
0.9468219780997628
 20
151.0239918737478
 30
0.0
 11
0.9468219780767981
 21
61.2931808737485
 31
0.0
  0
LINE
  5
1425
330
A9E
100
AcDbEntity
  8
0
  6
CONTINUOUS
100
AcDbLine
 10
34.08447197809943
 20
151.0239918737394
 30
0.0
 11
34.08447197807646
 21
61.29318087374
 31
0.0
  0
LINE
  5
1426
330
A9E
100
AcDbEntity
  8
0
  6
CONTINUOUS
100
AcDbLine
 10
51.44885057955673
 20
155.1585858737402
 30
0.0
 11
51.44885057955673
 21
58.6585858737402
 31
0.0
  0
LINE
  5
1427
330
A9E
100
AcDbEntity
  8
0
  6
CONTINUOUS
100
AcDbLine
 10
50.96452457955604
 20
155.1585858737402
 30
0.0
 11
50.96452457955604
 21
58.6585858737402
 31
0.0
  0
LINE
  5
1428
330
A9E
100
AcDbEntity
  8
0
  6
CONTINUOUS
100
AcDbLine
 10
56.81989357955683
 20
62.02055687374047
 30
0.0
 11
56.81989357955683
 21
151.7966138737405
 31
0.0
  0
LINE
  5
1429
330
A9E
100
AcDbEntity
  8
0
  6
CONTINUOUS
100
AcDbLine
 10
51.71989357955647
 20
156.6812088737409
 30
0.0
 11
51.71989357955647
 21
57.13596287374127
 31
0.0
  0
LINE
  5
142A
330
A9E
100
AcDbEntity
  8
0
  6
CONTINUOUS
100
AcDbLine
 10
3.0156469780743
 20
53.90858587374751
 30
0.0
 11
6.516180978074089
 21
53.9085858737466
 31
0.0
  0
LINE
  5
142B
330
A9E
100
AcDbEntity
  8
0
  6
CONTINUOUS
100
AcDbLine
 10
6.115646978075716
 20
58.00858587374708
 30
0.0
 11
28.9156469780759
 21
58.00858587374126
 31
0.0
  0
ARC
  5
142C
330
A9E
100
AcDbEntity
  8
0
  6
CONTINUOUS
100
AcDbCircle
 10
17.5156469769617
 20
-4291.163969126254
 30
0.0
 40
4346.596707999999
100
AcDbArc
 50
89.82221899995115
 51
90.17778099996743
  0
LINE
  5
142D
330
A9E
100
AcDbEntity
  8
0
  6
CONTINUOUS
100
AcDbLine
 10
6.015646978075324
 20
57.90858587374675
 30
0.0
 11
29.01564697807532
 21
57.90858587374086
 31
0.0
  0
LINE
  5
142E
330
A9E
100
AcDbEntity
  8
0
  6
CONTINUOUS
100
AcDbLine
 10
3.515647978072848
 20
46.90858587374736
 30
0.0
 11
13.51564697807251
 21
46.90858587374481
 31
0.0
  0
ARC
  5
142F
330
A9E
100
AcDbEntity
  8
0
  6
CONTINUOUS
100
AcDbCircle
 10
1.946821978076769
 20
61.29318087374824
 30
0.0
 40
1.0
100
AcDbArc
 50
179.9999999999853
 51
269.9999999999853
  0
ARC
  5
1430
330
A9E
100
AcDbEntity
  8
0
  6
CONTINUOUS
100
AcDbCircle
 10
6.115646978075943
 20
59.00858587374703
 30
0.0
 40
1.0
100
AcDbArc
 50
179.9999999999853
 51
269.9999999999853
  0
ARC
  5
1431
330
A9E
100
AcDbEntity
  8
0
  6
CONTINUOUS
100
AcDbCircle
 10
6.015646978075551
 20
58.90858587374669
 30
0.0
 40
1.0
100
AcDbArc
 50
179.9999999999853
 51
269.9999999999853
  0
LINE
  5
1432
330
A9E
100
AcDbEntity
  8
0
  6
CONTINUOUS
100
AcDbLine
 10
2.015646978075551
 20
58.88700987374767
 30
0.0
 11
2.94705897807583
 21
60.29318087374798
 31
0.0
  0
ARC
  5
1433
330
A9E
100
AcDbEntity
  8
0
  6
CONTINUOUS
100
AcDbCircle
 10
0.999999978075607
 20
59.88700987374793
 30
0.0
 40
1.0
100
AcDbArc
 50
179.9999999999853
 51
269.9999999999853
  0
LINE
  5
1434
330
A9E
100
AcDbEntity
  8
0
  6
CONTINUOUS
100
AcDbLine
 10
2.015646978075551
 20
58.88700987374767
 30
0.0
 11
0.9999999780753796
 21
58.88700987374793
 31
0.0
  0
LINE
  5
1435
330
A9E
100
AcDbEntity
  8
0
  6
CONTINUOUS
100
AcDbLine
 10
1.946821978076542
 20
60.29318087374824
 30
0.0
 11
2.94705897807583
 21
60.29318087374798
 31
0.0
  0
ARC
  5
1436
330
A9E
100
AcDbEntity
  8
0
  6
CONTINUOUS
100
AcDbCircle
 10
4.025646978075116
 20
56.4118098737473
 30
0.0
 40
1.0
100
AcDbArc
 50
179.9999999999853
 51
270.1777809999674
  0
ARC
  5
1437
330
A9E
100
AcDbEntity
  8
0
  6
CONTINUOUS
100
AcDbCircle
 10
3.015646978074528
 20
54.90858587374751
 30
0.0
 40
1.0
100
AcDbArc
 50
179.9999999999853
 51
269.9999999999853
  0
LINE
  5
1438
330
A9E
100
AcDbEntity
  8
0
  6
CONTINUOUS
100
AcDbLine
 10
2.015646978074556
 20
54.90858587374777
 30
0.0
 11
2.015646978075551
 21
58.88700987374767
 31
0.0
  0
ARC
  5
1439
330
A9E
100
AcDbEntity
  8
0
  6
CONTINUOUS
100
AcDbCircle
 10
3.515647978073189
 20
48.40858587374737
 30
0.0
 40
1.5
100
AcDbArc
 50
179.9999999999853
 51
269.9999999999853
  0
LINE
  5
143A
330
A9E
100
AcDbEntity
  8
0
  6
CONTINUOUS
100
AcDbLine
 10
2.015647978073218
 20
48.40858587374777
 30
0.0
 11
2.015647978074895
 21
54.90858587374777
 31
0.0
  0
LINE
  5
143B
330
A9E
100
AcDbEntity
  8
0
  6
CONTINUOUS
100
AcDbLine
 10
56.81989357955683
 20
33.09193859249217
 30
0.0
 11
56.81989357955683
 21
32.07641059249226
 31
0.0
  0
ARC
  5
143C
330
A9E
100
AcDbEntity
  8
0
  6
CONTINUOUS
100
AcDbCircle
 10
150.6645245795567
 20
17.5078225924922
 30
0.0
 40
100.0
100
AcDbArc
 50
172.1606000000095
 51
187.8393979999644
  0
ARC
  5
143D
330
A9E
100
AcDbEntity
  8
0
  6
CONTINUOUS
100
AcDbCircle
 10
150.6645245795567
 20
17.5078225924922
 30
0.0
 40
100.0
100
AcDbArc
 50
187.8398260000145
 51
188.3314879999838
  0
LINE
  5
143E
330
A9E
100
AcDbEntity
  8
0
  6
CONTINUOUS
100
AcDbLine
 10
51.71989357955647
 20
3.017823592492732
 30
0.0
 11
52.57434257955686
 21
3.004656592492665
 31
0.0
  0
ARC
  5
143F
330
A9E
100
AcDbEntity
  8
0
  6
CONTINUOUS
100
AcDbCircle
 10
52.58975057955615
 20
4.004537592492482
 30
0.0
 40
1.0
100
AcDbArc
 50
187.8393979999644
 51
269.1171789999794
  0
LINE
  5
1440
330
A9E
100
AcDbEntity
  8
0
  6
CONTINUOUS
100
AcDbLine
 10
56.81989357955683
 20
1.923707592492519
 30
0.0
 11
56.81989357955683
 21
2.939235592492423
 31
0.0
  0
ARC
  5
1441
330
A9E
100
AcDbEntity
  8
0
  6
CONTINUOUS
100
AcDbCircle
 10
57.81989357955684
 20
1.923707592492604
 30
0.0
 40
1.0
100
AcDbArc
 50
180.0
 51
269.1171789999794
  0
LINE
  5
1442
330
A9E
100
AcDbEntity
  8
0
  6
CONTINUOUS
100
AcDbLine
 10
71.66452457955677
 20
23.50782259249217
 30
0.0
 11
69.66452457955677
 21
23.50782259249217
 31
0.0
  0
LINE
  5
1443
330
A9E
100
AcDbEntity
  8
0
  6
CONTINUOUS
100
AcDbLine
 10
69.66452457955677
 20
11.50782259249217
 30
0.0
 11
71.66452457955677
 21
11.50782259249217
 31
0.0
  0
LINE
  5
1444
330
A9E
100
AcDbEntity
  8
0
  6
CONTINUOUS
100
AcDbLine
 10
65.66452457955676
 20
23.50782259249217
 30
0.0
 11
65.66452457955676
 21
11.50782259249217
 31
0.0
  0
LINE
  5
1445
330
A9E
100
AcDbEntity
  8
0
  6
CONTINUOUS
100
AcDbLine
 10
67.66452457955677
 20
11.50782259249217
 30
0.0
 11
67.66452457955677
 21
23.50782259249217
 31
0.0
  0
LINE
  5
1446
330
A9E
100
AcDbEntity
  8
0
  6
CONTINUOUS
100
AcDbLine
 10
61.66452457955677
 20
23.50782259249217
 30
0.0
 11
61.66452457955677
 21
11.50782259249217
 31
0.0
  0
LINE
  5
1447
330
A9E
100
AcDbEntity
  8
0
  6
CONTINUOUS
100
AcDbLine
 10
63.66452457955677
 20
11.50782259249217
 30
0.0
 11
63.66452457955677
 21
23.50782259249217
 31
0.0
  0
LINE
  5
1448
330
A9E
100
AcDbEntity
  8
0
  6
CONTINUOUS
100
AcDbLine
 10
69.66452457955677
 20
23.50782259249217
 30
0.0
 11
69.66452457955677
 21
11.50782259249217
 31
0.0
  0
ARC
  5
1449
330
A9E
100
AcDbEntity
  8
0
  6
CONTINUOUS
100
AcDbCircle
 10
155.6645245795567
 20
17.5078225924922
 30
0.0
 40
100.0
100
AcDbArc
 50
175.2671440000167
 51
184.7328550000164
  0
ARC
  5
144A
330
A9E
100
AcDbEntity
  8
0
  6
CONTINUOUS
100
AcDbCircle
 10
57.99868057955666
 20
9.421842592492424
 30
0.0
 40
2.0
100
AcDbArc
 50
184.7328550000164
 51
269.1171789999794
  0
LINE
  5
144B
330
A9E
100
AcDbEntity
  8
0
  6
CONTINUOUS
100
AcDbLine
 10
65.66452457955676
 20
11.50782259249217
 30
0.0
 11
67.66452457955677
 21
11.50782259249217
 31
0.0
  0
LINE
  5
144C
330
A9E
100
AcDbEntity
  8
0
  6
CONTINUOUS
100
AcDbLine
 10
61.66452457955677
 20
11.50782259249217
 30
0.0
 11
63.66452457955677
 21
11.50782259249217
 31
0.0
  0
ARC
  5
144D
330
A9E
100
AcDbEntity
  8
2_カバ_
  6
CONTINUOUS
 62
     7
100
AcDbCircle
 10
150.6645245795567
 20
17.5078225924922
 30
0.0
 40
100.0
100
AcDbArc
 50
171.6685109999918
 51
172.1601729999681
  0
LINE
  5
144E
330
A9E
100
AcDbEntity
  8
2_カバ_
  6
CONTINUOUS
 62
     7
100
AcDbLine
 10
51.71989357955647
 20
31.99782359249229
 30
0.0
 11
52.57434257955686
 21
32.01098959249293
 31
0.0
  0
ARC
  5
144F
330
A9E
100
AcDbEntity
  8
2_カバ_
  6
CONTINUOUS
 62
   140
100
AcDbCircle
 10
52.58975057955615
 20
31.01110859249328
 30
0.0
 40
1.0
100
AcDbArc
 50
90.88282099996837
 51
172.1606000000095
  0
ARC
  5
1450
330
A9E
100
AcDbEntity
  8
0
  6
CONTINUOUS
100
AcDbCircle
 10
57.99868157955609
 20
25.59380359249243
 30
0.0
 40
2.0
100
AcDbArc
 50
90.88282099996837
 51
175.2671440000167
  0
LINE
  5
1451
330
A9E
100
AcDbEntity
  8
0
  6
CONTINUOUS
100
AcDbLine
 10
67.66452457955677
 20
23.50782259249217
 30
0.0
 11
65.66452457955676
 21
23.50782259249217
 31
0.0
  0
LINE
  5
1452
330
A9E
100
AcDbEntity
  8
0
  6
CONTINUOUS
100
AcDbLine
 10
63.66452457955677
 20
23.50782259249217
 30
0.0
 11
61.66452457955677
 21
23.50782259249217
 31
0.0
  0
LINE
  5
1453
330
A9E
100
AcDbEntity
  8
0
  6
CONTINUOUS
100
AcDbLine
 10
87.66452457955677
 20
11.50782259249217
 30
0.0
 11
87.66452457955677
 21
23.50782259249217
 31
0.0
  0
LINE
  5
1454
330
A9E
100
AcDbEntity
  8
0
  6
CONTINUOUS
100
AcDbLine
 10
89.66452457955677
 20
23.50782259249217
 30
0.0
 11
89.66452457955677
 21
11.50782259249217
 31
0.0
  0
LINE
  5
1455
330
A9E
100
AcDbEntity
  8
0
  6
CONTINUOUS
100
AcDbLine
 10
81.66452457955676
 20
23.50782259249217
 30
0.0
 11
81.66452457955676
 21
11.50782259249217
 31
0.0
  0
LINE
  5
1456
330
A9E
100
AcDbEntity
  8
0
  6
CONTINUOUS
100
AcDbLine
 10
83.66452457955677
 20
11.50782259249217
 30
0.0
 11
83.66452457955677
 21
23.50782259249217
 31
0.0
  0
LINE
  5
1457
330
A9E
100
AcDbEntity
  8
0
  6
CONTINUOUS
100
AcDbLine
 10
71.66452457955677
 20
11.50782259249217
 30
0.0
 11
71.66452457955677
 21
23.50782259249217
 31
0.0
  0
LINE
  5
1458
330
A9E
100
AcDbEntity
  8
0
  6
CONTINUOUS
100
AcDbLine
 10
73.66452457955677
 20
23.50782259249217
 30
0.0
 11
73.66452457955677
 21
11.50782259249217
 31
0.0
  0
LINE
  5
1459
330
A9E
100
AcDbEntity
  8
0
  6
CONTINUOUS
100
AcDbLine
 10
75.66452457955676
 20
11.50782259249217
 30
0.0
 11
75.66452457955676
 21
23.50782259249217
 31
0.0
  0
LINE
  5
145A
330
A9E
100
AcDbEntity
  8
0
  6
CONTINUOUS
100
AcDbLine
 10
85.66452457955676
 20
23.50782259249217
 30
0.0
 11
85.66452457955676
 21
11.50782259249217
 31
0.0
  0
LINE
  5
145B
330
A9E
100
AcDbEntity
  8
0
  6
CONTINUOUS
100
AcDbLine
 10
77.66452457955677
 20
23.50782259249217
 30
0.0
 11
77.66452457955677
 21
11.50782259249217
 31
0.0
  0
LINE
  5
145C
330
A9E
100
AcDbEntity
  8
0
  6
CONTINUOUS
100
AcDbLine
 10
79.66452457955677
 20
11.50782259249217
 30
0.0
 11
79.66452457955677
 21
23.50782259249217
 31
0.0
  0
LINE
  5
145D
330
A9E
100
AcDbEntity
  8
0
  6
CONTINUOUS
100
AcDbLine
 10
91.66452457955676
 20
11.50782259249217
 30
0.0
 11
91.66452457955676
 21
23.50782259249217
 31
0.0
  0
LINE
  5
145E
330
A9E
100
AcDbEntity
  8
0
  6
CONTINUOUS
100
AcDbLine
 10
81.66452457955676
 20
11.50782259249217
 30
0.0
 11
83.66452457955677
 21
11.50782259249217
 31
0.0
  0
LINE
  5
145F
330
A9E
100
AcDbEntity
  8
0
  6
CONTINUOUS
100
AcDbLine
 10
73.66452457955677
 20
11.50782259249217
 30
0.0
 11
75.66452457955676
 21
11.50782259249217
 31
0.0
  0
LINE
  5
1460
330
A9E
100
AcDbEntity
  8
0
  6
CONTINUOUS
100
AcDbLine
 10
77.66452457955677
 20
11.50782259249217
 30
0.0
 11
79.66452457955677
 21
11.50782259249217
 31
0.0
  0
LINE
  5
1461
330
A9E
100
AcDbEntity
  8
0
  6
CONTINUOUS
100
AcDbLine
 10
85.66452457955676
 20
11.50782259249217
 30
0.0
 11
87.66452457955677
 21
11.50782259249217
 31
0.0
  0
LINE
  5
1462
330
A9E
100
AcDbEntity
  8
0
  6
CONTINUOUS
100
AcDbLine
 10
89.66452457955677
 20
11.50782259249217
 30
0.0
 11
91.66452457955676
 21
11.50782259249217
 31
0.0
  0
LINE
  5
1463
330
A9E
100
AcDbEntity
  8
0
  6
CONTINUOUS
100
AcDbLine
 10
83.66452457955677
 20
23.50782259249217
 30
0.0
 11
81.66452457955676
 21
23.50782259249217
 31
0.0
  0
LINE
  5
1464
330
A9E
100
AcDbEntity
  8
0
  6
CONTINUOUS
100
AcDbLine
 10
75.66452457955676
 20
23.50782259249217
 30
0.0
 11
73.66452457955677
 21
23.50782259249217
 31
0.0
  0
LINE
  5
1465
330
A9E
100
AcDbEntity
  8
0
  6
CONTINUOUS
100
AcDbLine
 10
79.66452457955677
 20
23.50782259249217
 30
0.0
 11
77.66452457955677
 21
23.50782259249217
 31
0.0
  0
LINE
  5
1466
330
A9E
100
AcDbEntity
  8
0
  6
CONTINUOUS
100
AcDbLine
 10
87.66452457955677
 20
23.50782259249217
 30
0.0
 11
85.66452457955676
 21
23.50782259249217
 31
0.0
  0
LINE
  5
1467
330
A9E
100
AcDbEntity
  8
0
  6
CONTINUOUS
100
AcDbLine
 10
91.66452457955676
 20
23.50782259249217
 30
0.0
 11
89.66452457955677
 21
23.50782259249217
 31
0.0
  0
ARC
  5
1468
330
A9E
100
AcDbEntity
  8
0
  6
CONTINUOUS
100
AcDbCircle
 10
33.08447197807643
 20
61.2931808737402
 30
0.0
 40
1.0
100
AcDbArc
 50
269.9999999999853
 51
359.9999999999853
  0
LINE
  5
1469
330
A9E
100
AcDbEntity
  8
0
  6
CONTINUOUS
100
AcDbLine
 10
28.51511297807451
 20
53.90858587374097
 30
0.0
 11
27.87016797807473
 21
54.86642487374175
 31
0.0
  0
ARC
  5
146A
330
A9E
100
AcDbEntity
  8
0
  6
CONTINUOUS
100
AcDbCircle
 10
27.04067897807482
 20
54.30790287374165
 30
0.0
 40
1.0
100
AcDbArc
 50
33.95369699997557
 51
89.87475900000161
  0
LINE
  5
146B
330
A9E
100
AcDbEntity
  8
0
  6
CONTINUOUS
100
AcDbLine
 10
21.51564697807251
 20
46.90858587374276
 30
0.0
 11
31.51564597807308
 21
46.9085858737402
 31
0.0
  0
LINE
  5
146C
330
A9E
100
AcDbEntity
  8
0
100
AcDbLine
 10
15.0156469780733
 20
50.15858587374373
 30
0.0
 11
20.0156469780733
 21
50.15858587374373
 31
0.0
  0
ARC
  5
146D
330
A9E
100
AcDbEntity
  8
0
  6
CONTINUOUS
100
AcDbCircle
 10
17.5156469780733
 20
50.15858587374373
 30
0.0
 40
2.5
100
AcDbArc
 50
359.9999999999853
 51
179.9999999999853
  0
ARC
  5
146E
330
A9E
100
AcDbEntity
  8
0
  6
CONTINUOUS
100
AcDbCircle
 10
17.5156469769586
 20
-4303.250862126254
 30
0.0
 40
4358.569174999999
100
AcDbArc
 50
89.87475900000161
 51
90.12524099996904
  0
LINE
  5
146F
330
A9E
100
AcDbEntity
  8
0
  6
CONTINUOUS
100
AcDbLine
 10
27.83996897807495
 20
54.90884787374165
 30
0.0
 11
7.191325978074502
 21
54.90884787374691
 31
0.0
  0
ARC
  5
1470
330
A9E
100
AcDbEntity
  8
0
  6
CONTINUOUS
100
AcDbCircle
 10
7.990615978074231
 20
54.30790287374652
 30
0.0
 40
1.0
100
AcDbArc
 50
90.12524099996904
 51
146.046302999995
  0
LINE
  5
1471
330
A9E
100
AcDbEntity
  8
0
  6
CONTINUOUS
100
AcDbLine
 10
6.516180978074089
 20
53.9085858737466
 30
0.0
 11
7.161125978074323
 21
54.86642487374706
 31
0.0
  0
ARC
  5
1472
330
A9E
100
AcDbEntity
  8
0
  6
CONTINUOUS
100
AcDbCircle
 10
13.51564697807285
 20
48.40858587374476
 30
0.0
 40
1.5
100
AcDbArc
 50
269.9999999999853
 51
359.9999999999853
  0
LINE
  5
1473
330
A9E
100
AcDbEntity
  8
0
  6
CONTINUOUS
100
AcDbLine
 10
15.01564697807333
 20
50.15858587374444
 30
0.0
 11
15.01564697807288
 21
48.40858587374444
 31
0.0
  0
LINE
  5
1474
330
A9E
100
AcDbEntity
  8
0
100
AcDbLine
 10
17.5156469780733
 20
47.65858587374373
 30
0.0
 11
17.5156469780733
 21
52.65858587374373
 31
0.0
  0
ARC
  5
1475
330
A9E
100
AcDbEntity
  8
0
  6
CONTINUOUS
100
AcDbCircle
 10
21.51564697807285
 20
48.4085858737427
 30
0.0
 40
1.5
100
AcDbArc
 50
179.9999999999853
 51
269.9999999999853
  0
LINE
  5
1476
330
A9E
100
AcDbEntity
  8
0
  6
CONTINUOUS
100
AcDbLine
 10
20.01564697807333
 20
50.15858587374316
 30
0.0
 11
20.01564697807288
 21
48.40858587374317
 31
0.0
  0
LINE
  5
1477
330
A9E
100
AcDbEntity
  8
0
  6
CONTINUOUS
100
AcDbLine
 10
33.01564797807589
 20
58.88700887374032
 30
0.0
 11
32.08423497807601
 21
60.29318087374051
 31
0.0
  0
LINE
  5
1478
330
A9E
100
AcDbEntity
  8
0
  6
CONTINUOUS
100
AcDbLine
 10
33.01564697807555
 20
58.88700987373974
 30
0.0
 11
34.03129397807572
 21
58.88700987373948
 31
0.0
  0
ARC
  5
1479
330
A9E
100
AcDbEntity
  8
0
  6
CONTINUOUS
100
AcDbCircle
 10
34.03129397807595
 20
59.88700987373943
 30
0.0
 40
1.0
100
AcDbArc
 50
269.9999999999853
 51
359.9999999999853
  0
LINE
  5
147A
330
A9E
100
AcDbEntity
  8
0
  6
CONTINUOUS
100
AcDbLine
 10
33.08447197807621
 20
60.29318087374026
 30
0.0
 11
32.08423497807601
 21
60.29318087374051
 31
0.0
  0
ARC
  5
147B
330
A9E
100
AcDbEntity
  8
0
  6
CONTINUOUS
100
AcDbCircle
 10
32.01564697807453
 20
54.90858587374003
 30
0.0
 40
1.0
100
AcDbArc
 50
269.9999999999853
 51
359.9999999999853
  0
LINE
  5
147C
330
A9E
100
AcDbEntity
  8
0
  6
CONTINUOUS
100
AcDbLine
 10
33.01564697807455
 20
54.90858587373984
 30
0.0
 11
33.01564697807555
 21
58.88700987373974
 31
0.0
  0
LINE
  5
147D
330
A9E
100
AcDbEntity
  8
0
  6
CONTINUOUS
100
AcDbLine
 10
33.01564597807345
 20
48.40858587373984
 30
0.0
 11
33.01564597807512
 21
54.90858587373984
 31
0.0
  0
ARC
  5
147E
330
A9E
100
AcDbEntity
  8
0
  6
CONTINUOUS
100
AcDbCircle
 10
28.91564697807612
 20
59.0085858737412
 30
0.0
 40
1.0
100
AcDbArc
 50
269.9999999999853
 51
359.9999999999853
  0
ARC
  5
147F
330
A9E
100
AcDbEntity
  8
0
  6
CONTINUOUS
100
AcDbCircle
 10
29.01564697807555
 20
58.9085858737408
 30
0.0
 40
1.0
100
AcDbArc
 50
269.9999999999853
 51
359.9999999999853
  0
ARC
  5
1480
330
A9E
100
AcDbEntity
  8
0
  6
CONTINUOUS
100
AcDbCircle
 10
31.51564597807342
 20
48.40858587374015
 30
0.0
 40
1.5
100
AcDbArc
 50
269.9999999999853
 51
359.9999999999853
  0
ARC
  5
1481
330
A9E
100
AcDbEntity
  8
0
  6
CONTINUOUS
100
AcDbCircle
 10
31.00564697807559
 20
56.41180987374034
 30
0.0
 40
1.0
100
AcDbArc
 50
269.8222190000032
 51
359.9999999999853
  0
LINE
  5
1482
330
A9E
100
AcDbEntity
  8
0
  6
CONTINUOUS
100
AcDbLine
 10
28.51511297807451
 20
53.90858587374097
 30
0.0
 11
32.0156469780743
 21
53.90858587374009
 31
0.0
  0
LINE
  5
1483
330
A9E
100
AcDbEntity
  8
0
100
AcDbLine
 10
11.615646978076
 20
62.00858587374489
 30
0.0
 11
11.61564697808049
 21
79.50858587374489
 31
0.0
  0
LINE
  5
1484
330
A9E
100
AcDbEntity
  8
0
100
AcDbLine
 10
12.29339755900378
 20
62.79393604180697
 30
0.0
 11
12.29339755900807
 21
79.53393604180675
 31
0.0
  0
LINE
  5
1485
330
A9E
100
AcDbEntity
  8
0
100
AcDbLine
 10
21.29339755900415
 20
64.29393604180467
 30
0.0
 11
21.29339755900807
 21
79.53393604180445
 31
0.0
  0
LINE
  5
1486
330
A9E
100
AcDbEntity
  8
0
100
AcDbLine
 10
14.38752721223065
 20
68.10393604180595
 30
0.0
 11
14.3875272122336
 21
79.53393604180624
 31
0.0
  0
LINE
  5
1487
330
A9E
100
AcDbEntity
  8
0
  6
CONTINUOUS
100
AcDbLine
 10
11.61564697808356
 20
80.10858587374327
 30
0.0
 11
11.615646978076
 21
62.00858587374489
 31
0.0
  0
LINE
  5
1488
330
A9E
100
AcDbEntity
  8
0
100
AcDbLine
 10
22.29339755900676
 20
74.45393604180427
 30
0.0
 11
12.29339755900676
 21
74.45393604180683
 31
0.0
  0
LINE
  5
1489
330
A9E
100
AcDbEntity
  8
0
100
AcDbLine
 10
12.29339755900676
 20
74.45393604180683
 30
0.0
 11
22.29339755900676
 21
74.45393604180427
 31
0.0
  0
LINE
  5
148A
330
A9E
100
AcDbEntity
  8
0
100
AcDbLine
 10
22.29339755900676
 20
74.45393604180427
 30
0.0
 11
12.29339755900676
 21
74.45393604180683
 31
0.0
  0
LINE
  5
148B
330
A9E
100
AcDbEntity
  8
0
100
AcDbLine
 10
12.29339755900676
 20
74.45393604180683
 30
0.0
 11
22.29339755900676
 21
74.45393604180427
 31
0.0
  0
LINE
  5
148C
330
A9E
100
AcDbEntity
  8
0
100
AcDbLine
 10
16.89738272508228
 20
68.30433905830062
 30
0.0
 11
18.33184578305852
 21
68.30433905830026
 31
0.0
  0
LINE
  5
148D
330
A9E
100
AcDbEntity
  8
0
100
AcDbLine
 10
16.89738272508219
 20
67.90353302530997
 30
0.0
 11
18.33184578305844
 21
67.90353302530959
 31
0.0
  0
LINE
  5
148E
330
A9E
100
AcDbEntity
  8
0
100
AcDbLine
 10
16.89738272508293
 20
70.84433905830059
 30
0.0
 11
18.33184578305917
 21
70.84433905830022
 31
0.0
  0
LINE
  5
148F
330
A9E
100
AcDbEntity
  8
0
100
AcDbLine
 10
15.33184578305929
 20
71.26600674303006
 30
0.0
 11
18.33184578305929
 21
71.26600674302929
 31
0.0
  0
LINE
  5
1490
330
A9E
100
AcDbEntity
  8
0
100
AcDbLine
 10
16.89738272508282
 20
70.44353302530993
 30
0.0
 11
18.33184578305906
 21
70.44353302530956
 31
0.0
  0
LINE
  5
1491
330
A9E
100
AcDbEntity
  8
0
100
AcDbLine
 10
15.33184578305895
 20
69.96600674302988
 30
0.0
 11
18.33184578305895
 21
69.96600674302911
 31
0.0
  0
LINE
  5
1492
330
A9E
100
AcDbEntity
  8
0
100
AcDbLine
 10
15.33184578305863
 20
68.7260067430301
 30
0.0
 11
18.33184578305863
 21
68.72600674302933
 31
0.0
  0
LINE
  5
1493
330
A9E
100
AcDbEntity
  8
0
100
AcDbLine
 10
15.3318457830596
 20
72.50600674302984
 30
0.0
 11
18.3318457830596
 21
72.50600674302908
 31
0.0
  0
LINE
  5
1494
330
A9E
100
AcDbEntity
  8
0
100
AcDbLine
 10
15.33184578305994
 20
73.80600674303003
 30
0.0
 11
18.33184578305994
 21
73.80600674302925
 31
0.0
  0
LINE
  5
1495
330
A9E
100
AcDbEntity
  8
0
100
AcDbLine
 10
16.89738272508358
 20
73.38433905830055
 30
0.0
 11
18.33184578305983
 21
73.38433905830019
 31
0.0
  0
LINE
  5
1496
330
A9E
100
AcDbEntity
  8
0
100
AcDbLine
 10
16.89738272508347
 20
72.9835330253099
 30
0.0
 11
18.33184578305972
 21
72.98353302530952
 31
0.0
  0
LINE
  5
1497
330
A9E
100
AcDbEntity
  8
0
100
AcDbLine
 10
15.33184578305764
 20
64.88600674302995
 30
0.0
 11
18.33184578305764
 21
64.88600674302919
 31
0.0
  0
LINE
  5
1498
330
A9E
100
AcDbEntity
  8
0
100
AcDbLine
 10
16.89738272508154
 20
65.36353302531001
 30
0.0
 11
18.33184578305778
 21
65.36353302530963
 31
0.0
  0
LINE
  5
1499
330
A9E
100
AcDbEntity
  8
0
100
AcDbLine
 10
16.89738272508162
 20
65.76433905830066
 30
0.0
 11
18.33184578305787
 21
65.76433905830029
 31
0.0
  0
LINE
  5
149A
330
A9E
100
AcDbEntity
  8
0
100
AcDbLine
 10
15.33184578305798
 20
66.18600674303014
 30
0.0
 11
18.33184578305798
 21
66.18600674302936
 31
0.0
  0
LINE
  5
149B
330
A9E
100
AcDbEntity
  8
0
100
AcDbLine
 10
15.3318457830583
 20
67.42600674302991
 30
0.0
 11
18.3318457830583
 21
67.42600674302915
 31
0.0
  0
LINE
  5
149C
330
A9E
100
AcDbEntity
  8
0
100
AcDbLine
 10
11.615646978076
 20
62.00858587374489
 30
0.0
 11
23.21564697807602
 21
62.00858587374191
 31
0.0
  0
LINE
  5
149D
330
A9E
100
AcDbEntity
  8
0
100
AcDbLine
 10
12.29339755900378
 20
62.79393604180697
 30
0.0
 11
22.29339755900377
 21
62.79393604180441
 31
0.0
  0
LINE
  5
149E
330
A9E
100
AcDbEntity
  8
0
100
AcDbLine
 10
22.29339755900415
 20
64.29393604180441
 30
0.0
 11
12.29339755900414
 21
64.29393604180697
 31
0.0
  0
LINE
  5
149F
330
A9E
100
AcDbEntity
  8
0
100
AcDbLine
 10
12.29339755900414
 20
64.29393604180697
 30
0.0
 11
22.29339755900415
 21
64.29393604180441
 31
0.0
  0
LINE
  5
14A0
330
A9E
100
AcDbEntity
  8
0
100
AcDbLine
 10
12.2933975590048
 20
66.83393604180603
 30
0.0
 11
22.2933975590048
 21
66.83393604180347
 31
0.0
  0
LINE
  5
14A1
330
A9E
100
AcDbEntity
  8
0
100
AcDbLine
 10
22.2933975590048
 20
66.83393604180347
 30
0.0
 11
12.2933975590048
 21
66.83393604180603
 31
0.0
  0
LINE
  5
14A2
330
A9E
100
AcDbEntity
  8
0
100
AcDbLine
 10
12.2933975590061
 20
71.91393604180777
 30
0.0
 11
22.2933975590061
 21
71.91393604180522
 31
0.0
  0
LINE
  5
14A3
330
A9E
100
AcDbEntity
  8
0
100
AcDbLine
 10
22.2933975590061
 20
71.91393604180522
 30
0.0
 11
12.2933975590061
 21
71.91393604180777
 31
0.0
  0
LINE
  5
14A4
330
A9E
100
AcDbEntity
  8
0
100
AcDbLine
 10
22.2933975590061
 20
71.9139360418043
 30
0.0
 11
12.2933975590061
 21
71.91393604180686
 31
0.0
  0
LINE
  5
14A5
330
A9E
100
AcDbEntity
  8
0
100
AcDbLine
 10
12.2933975590061
 20
71.91393604180686
 30
0.0
 11
22.2933975590061
 21
71.9139360418043
 31
0.0
  0
LINE
  5
14A6
330
A9E
100
AcDbEntity
  8
0
100
AcDbLine
 10
12.2933975590061
 20
71.91393604180595
 30
0.0
 11
22.2933975590061
 21
71.9139360418034
 31
0.0
  0
LINE
  5
14A7
330
A9E
100
AcDbEntity
  8
0
100
AcDbLine
 10
22.2933975590061
 20
71.9139360418034
 30
0.0
 11
12.2933975590061
 21
71.91393604180595
 31
0.0
  0
LINE
  5
14A8
330
A9E
100
AcDbEntity
  8
0
100
AcDbLine
 10
12.29339755900545
 20
69.3739360418069
 30
0.0
 11
22.29339755900545
 21
69.37393604180434
 31
0.0
  0
LINE
  5
14A9
330
A9E
100
AcDbEntity
  8
0
100
AcDbLine
 10
22.29339755900545
 20
69.37393604180434
 30
0.0
 11
12.29339755900545
 21
69.3739360418069
 31
0.0
  0
LINE
  5
14AA
330
A9E
100
AcDbEntity
  8
0
100
AcDbLine
 10
22.2933975590061
 20
71.9139360418043
 30
0.0
 11
12.2933975590061
 21
71.91393604180686
 31
0.0
  0
LINE
  5
14AB
330
A9E
100
AcDbEntity
  8
0
100
AcDbLine
 10
12.2933975590061
 20
71.91393604180686
 30
0.0
 11
22.2933975590061
 21
71.9139360418043
 31
0.0
  0
LINE
  5
14AC
330
A9E
100
AcDbEntity
  8
0
100
AcDbLine
 10
12.29339755900676
 20
74.45393604180683
 30
0.0
 11
13.79339755900676
 21
74.45393604180646
 31
0.0
  0
LINE
  5
14AD
330
A9E
100
AcDbEntity
  8
0
100
AcDbLine
 10
13.79339755900676
 20
74.45393604180646
 30
0.0
 11
12.29339755900676
 21
74.45393604180683
 31
0.0
  0
LINE
  5
14AE
330
A9E
100
AcDbEntity
  8
0
100
AcDbLine
 10
12.2933975590061
 20
71.91393604180686
 30
0.0
 11
13.79339755900611
 21
71.9139360418065
 31
0.0
  0
LINE
  5
14AF
330
A9E
100
AcDbEntity
  8
0
100
AcDbLine
 10
13.79339755900611
 20
71.9139360418065
 30
0.0
 11
12.2933975590061
 21
71.91393604180686
 31
0.0
  0
LINE
  5
14B0
330
A9E
100
AcDbEntity
  8
0
100
AcDbLine
 10
13.79339755900611
 20
71.91393604180558
 30
0.0
 11
12.2933975590061
 21
71.91393604180595
 31
0.0
  0
LINE
  5
14B1
330
A9E
100
AcDbEntity
  8
0
100
AcDbLine
 10
12.2933975590061
 20
71.91393604180595
 30
0.0
 11
13.79339755900611
 21
71.91393604180558
 31
0.0
  0
LINE
  5
14B2
330
A9E
100
AcDbEntity
  8
0
100
AcDbLine
 10
14.38752721222968
 20
64.29393604180646
 30
0.0
 11
14.38752721223065
 21
68.10393604180595
 31
0.0
  0
LINE
  5
14B3
330
A9E
100
AcDbEntity
  8
0
100
AcDbLine
 10
15.33184578305994
 20
73.80600674303003
 30
0.0
 11
15.3318457830596
 21
72.50600674302984
 31
0.0
  0
ARC
  5
14B4
330
A9E
100
AcDbEntity
  8
0
100
AcDbCircle
 10
16.33613411706818
 20
73.35853302531003
 30
0.0
 40
0.6750000000000079
100
AcDbArc
 50
213.7489885958852
 51
326.2510114040854
  0
LINE
  5
14B5
330
A9E
100
AcDbEntity
  8
0
100
AcDbLine
 10
15.559397586295
 20
67.9035330253103
 30
0.0
 11
15.55939758629509
 21
68.30433905830097
 31
0.0
  0
ARC
  5
14B6
330
A9E
100
AcDbEntity
  8
0
100
AcDbCircle
 10
16.33613411706679
 20
67.92933905830077
 30
0.0
 40
0.5624999999999976
100
AcDbArc
 50
41.81031489578301
 51
138.1896851041869
  0
ARC
  5
14B7
330
A9E
100
AcDbEntity
  8
0
100
AcDbCircle
 10
16.33613411706679
 20
67.92933905830077
 30
0.0
 40
0.6750000000000079
100
AcDbArc
 50
33.74898859588525
 51
146.2510114040854
  0
LINE
  5
14B8
330
A9E
100
AcDbEntity
  8
0
100
AcDbLine
 10
15.55939758629509
 20
68.30433905830097
 30
0.0
 11
15.91687137128545
 21
68.30433905830088
 31
0.0
  0
LINE
  5
14B9
330
A9E
100
AcDbEntity
  8
0
100
AcDbLine
 10
15.559397586295
 20
67.9035330253103
 30
0.0
 11
15.91687137128536
 21
67.90353302531022
 31
0.0
  0
ARC
  5
14BA
330
A9E
100
AcDbEntity
  8
0
100
AcDbCircle
 10
16.33613411706687
 20
68.27853302531011
 30
0.0
 40
0.6750000000000079
100
AcDbArc
 50
213.7489885958852
 51
326.2510114040854
  0
ARC
  5
14BB
330
A9E
100
AcDbEntity
  8
0
100
AcDbCircle
 10
16.33613411706687
 20
68.27853302531011
 30
0.0
 40
0.5624999999999976
100
AcDbArc
 50
221.810314895783
 51
318.1896851041857
  0
LINE
  5
14BC
330
A9E
100
AcDbEntity
  8
0
100
AcDbLine
 10
15.55939758629574
 20
70.84433905830093
 30
0.0
 11
15.9168713712861
 21
70.84433905830085
 31
0.0
  0
ARC
  5
14BD
330
A9E
100
AcDbEntity
  8
0
100
AcDbCircle
 10
16.33613411706744
 20
70.46933905830073
 30
0.0
 40
0.6750000000000079
100
AcDbArc
 50
33.74898859588525
 51
146.2510114040854
  0
ARC
  5
14BE
330
A9E
100
AcDbEntity
  8
0
100
AcDbCircle
 10
16.33613411706744
 20
70.46933905830073
 30
0.0
 40
0.5624999999999976
100
AcDbArc
 50
41.81031489578301
 51
138.1896851041869
  0
ARC
  5
14BF
330
A9E
100
AcDbEntity
  8
0
100
AcDbCircle
 10
16.33613411706753
 20
70.81853302531007
 30
0.0
 40
0.6750000000000079
100
AcDbArc
 50
213.7489885958852
 51
326.2510114040854
  0
ARC
  5
14C0
330
A9E
100
AcDbEntity
  8
0
100
AcDbCircle
 10
16.33613411706753
 20
70.81853302531007
 30
0.0
 40
0.5624999999999976
100
AcDbArc
 50
221.810314895783
 51
318.1896851041857
  0
LINE
  5
14C1
330
A9E
100
AcDbEntity
  8
0
100
AcDbLine
 10
15.55939758629563
 20
70.44353302531027
 30
0.0
 11
15.91687137128599
 21
70.44353302531018
 31
0.0
  0
LINE
  5
14C2
330
A9E
100
AcDbEntity
  8
0
100
AcDbLine
 10
15.55939758629563
 20
70.44353302531027
 30
0.0
 11
15.55939758629574
 21
70.84433905830093
 31
0.0
  0
LINE
  5
14C3
330
A9E
100
AcDbEntity
  8
0
100
AcDbLine
 10
15.33184578305929
 20
71.26600674303006
 30
0.0
 11
15.33184578305895
 21
69.96600674302988
 31
0.0
  0
ARC
  5
14C4
330
A9E
100
AcDbEntity
  8
0
100
AcDbCircle
 10
16.33613411706818
 20
73.35853302531003
 30
0.0
 40
0.5624999999999976
100
AcDbArc
 50
221.810314895783
 51
318.1896851041857
  0
ARC
  5
14C5
330
A9E
100
AcDbEntity
  8
0
100
AcDbCircle
 10
16.33613411706809
 20
73.0093390583007
 30
0.0
 40
0.5624999999999976
100
AcDbArc
 50
41.81031489578301
 51
138.1896851041869
  0
ARC
  5
14C6
330
A9E
100
AcDbEntity
  8
0
100
AcDbCircle
 10
16.33613411706809
 20
73.0093390583007
 30
0.0
 40
0.6750000000000079
100
AcDbArc
 50
33.74898859588525
 51
146.2510114040854
  0
LINE
  5
14C7
330
A9E
100
AcDbEntity
  8
0
100
AcDbLine
 10
15.55939758629639
 20
73.3843390583009
 30
0.0
 11
15.91687137128675
 21
73.38433905830081
 31
0.0
  0
LINE
  5
14C8
330
A9E
100
AcDbEntity
  8
0
100
AcDbLine
 10
15.55939758629628
 20
72.98353302531023
 30
0.0
 11
15.91687137128664
 21
72.98353302531015
 31
0.0
  0
LINE
  5
14C9
330
A9E
100
AcDbEntity
  8
0
100
AcDbLine
 10
15.55939758629628
 20
72.98353302531023
 30
0.0
 11
15.55939758629639
 21
73.3843390583009
 31
0.0
  0
LINE
  5
14CA
330
A9E
100
AcDbEntity
  8
0
100
AcDbLine
 10
15.33184578305798
 20
66.18600674303014
 30
0.0
 11
15.33184578305764
 21
64.88600674302995
 31
0.0
  0
LINE
  5
14CB
330
A9E
100
AcDbEntity
  8
0
100
AcDbLine
 10
15.55939758629435
 20
65.36353302531034
 30
0.0
 11
15.55939758629443
 21
65.764339058301
 31
0.0
  0
ARC
  5
14CC
330
A9E
100
AcDbEntity
  8
0
100
AcDbCircle
 10
16.33613411706622
 20
65.73853302531015
 30
0.0
 40
0.6750000000000079
100
AcDbArc
 50
213.7489885958852
 51
326.2510114040854
  0
ARC
  5
14CD
330
A9E
100
AcDbEntity
  8
0
100
AcDbCircle
 10
16.33613411706622
 20
65.73853302531015
 30
0.0
 40
0.5624999999999976
100
AcDbArc
 50
221.810314895783
 51
318.1896851041857
  0
LINE
  5
14CE
330
A9E
100
AcDbEntity
  8
0
100
AcDbLine
 10
15.55939758629435
 20
65.36353302531034
 30
0.0
 11
15.91687137128471
 21
65.36353302531026
 31
0.0
  0
ARC
  5
14CF
330
A9E
100
AcDbEntity
  8
0
100
AcDbCircle
 10
16.33613411706613
 20
65.38933905830081
 30
0.0
 40
0.6750000000000079
100
AcDbArc
 50
33.74898859588525
 51
146.2510114040854
  0
ARC
  5
14D0
330
A9E
100
AcDbEntity
  8
0
100
AcDbCircle
 10
16.33613411706613
 20
65.38933905830081
 30
0.0
 40
0.5624999999999976
100
AcDbArc
 50
41.81031489578301
 51
138.1896851041869
  0
LINE
  5
14D1
330
A9E
100
AcDbEntity
  8
0
100
AcDbLine
 10
15.55939758629443
 20
65.764339058301
 30
0.0
 11
15.91687137128479
 21
65.76433905830092
 31
0.0
  0
LINE
  5
14D2
330
A9E
100
AcDbEntity
  8
0
100
AcDbLine
 10
15.33184578305863
 20
68.7260067430301
 30
0.0
 11
15.3318457830583
 21
67.42600674302991
 31
0.0
  0
LINE
  5
14D3
330
A9E
100
AcDbEntity
  8
0
100
AcDbLine
 10
18.09339755900603
 20
74.45393604180535
 30
0.0
 11
22.29339755900676
 21
74.45393604180427
 31
0.0
  0
LINE
  5
14D4
330
A9E
100
AcDbEntity
  8
0
100
AcDbLine
 10
21.0201942311823
 20
74.18393604180417
 30
0.0
 11
21.02019423118179
 21
72.18393604180417
 31
0.0
  0
LINE
  5
14D5
330
A9E
100
AcDbEntity
  8
0
100
AcDbLine
 10
19.02019423118179
 20
72.18393604180469
 30
0.0
 11
19.0201942311823
 21
74.18393604180469
 31
0.0
  0
LINE
  5
14D6
330
A9E
100
AcDbEntity
  8
0
100
AcDbLine
 10
20.70457390431042
 20
73.85754670733593
 30
0.0
 11
20.70457390431008
 21
72.50092829900393
 31
0.0
  0
LINE
  5
14D7
330
A9E
100
AcDbEntity
  8
0
100
AcDbLine
 10
19.30803703164608
 20
72.50092829900427
 30
0.0
 11
19.30803703164642
 21
73.85754670733627
 31
0.0
  0
LINE
  5
14D8
330
A9E
100
AcDbEntity
  8
0
100
AcDbLine
 10
18.3318457830596
 20
72.50600674302908
 30
0.0
 11
18.33184578305994
 21
73.80600674302925
 31
0.0
  0
LINE
  5
14D9
330
A9E
100
AcDbEntity
  8
0
100
AcDbLine
 10
18.09339755900538
 20
71.91393604180539
 30
0.0
 11
22.2933975590061
 21
71.9139360418043
 31
0.0
  0
LINE
  5
14DA
330
A9E
100
AcDbEntity
  8
0
100
AcDbLine
 10
18.09339755900538
 20
71.91393604180447
 30
0.0
 11
22.2933975590061
 21
71.9139360418034
 31
0.0
  0
LINE
  5
14DB
330
A9E
100
AcDbEntity
  8
0
100
AcDbLine
 10
18.33184578305838
 20
67.72893604180493
 30
0.0
 11
18.33184578305858
 21
68.47893604180493
 31
0.0
  0
LINE
  5
14DC
330
A9E
100
AcDbEntity
  8
0
100
AcDbLine
 10
19.30803703164511
 20
68.77754670733634
 30
0.0
 11
20.70457390430911
 21
68.777546707336
 31
0.0
  0
LINE
  5
14DD
330
A9E
100
AcDbEntity
  8
0
100
AcDbLine
 10
20.70457390430942
 20
69.96092829900397
 30
0.0
 11
19.30803703164542
 21
69.96092829900431
 31
0.0
  0
LINE
  5
14DE
330
A9E
100
AcDbEntity
  8
0
100
AcDbLine
 10
19.30803703164576
 20
71.31754670733631
 30
0.0
 11
20.70457390430977
 21
71.31754670733596
 31
0.0
  0
LINE
  5
14DF
330
A9E
100
AcDbEntity
  8
0
100
AcDbLine
 10
20.70457390431008
 20
72.50092829900393
 30
0.0
 11
19.30803703164608
 21
72.50092829900427
 31
0.0
  0
LINE
  5
14E0
330
A9E
100
AcDbEntity
  8
0
100
AcDbLine
 10
19.02019423118164
 20
71.64393604180472
 30
0.0
 11
21.02019423118164
 21
71.64393604180421
 31
0.0
  0
LINE
  5
14E1
330
A9E
100
AcDbEntity
  8
0
100
AcDbLine
 10
21.02019423118179
 20
72.18393604180417
 30
0.0
 11
19.02019423118179
 21
72.18393604180469
 31
0.0
  0
LINE
  5
14E2
330
A9E
100
AcDbEntity
  8
0
100
AcDbLine
 10
21.02019423118113
 20
69.64393604180421
 30
0.0
 11
19.02019423118113
 21
69.64393604180472
 31
0.0
  0
LINE
  5
14E3
330
A9E
100
AcDbEntity
  8
0
100
AcDbLine
 10
19.02019423118099
 20
69.10393604180476
 30
0.0
 11
21.02019423118099
 21
69.10393604180424
 31
0.0
  0
LINE
  5
14E4
330
A9E
100
AcDbEntity
  8
0
100
AcDbLine
 10
21.02019423118164
 20
71.64393604180421
 30
0.0
 11
21.02019423118113
 21
69.64393604180421
 31
0.0
  0
LINE
  5
14E5
330
A9E
100
AcDbEntity
  8
0
100
AcDbLine
 10
20.70457390430977
 20
71.31754670733596
 30
0.0
 11
20.70457390430942
 21
69.96092829900397
 31
0.0
  0
LINE
  5
14E6
330
A9E
100
AcDbEntity
  8
0
100
AcDbLine
 10
19.02019423118113
 20
69.64393604180472
 30
0.0
 11
19.02019423118164
 21
71.64393604180472
 31
0.0
  0
LINE
  5
14E7
330
A9E
100
AcDbEntity
  8
0
100
AcDbLine
 10
19.30803703164542
 20
69.96092829900431
 30
0.0
 11
19.30803703164576
 21
71.31754670733631
 31
0.0
  0
LINE
  5
14E8
330
A9E
100
AcDbEntity
  8
0
100
AcDbLine
 10
18.33184578305903
 20
70.26893604180489
 30
0.0
 11
18.33184578305923
 21
71.01893604180489
 31
0.0
  0
LINE
  5
14E9
330
A9E
100
AcDbEntity
  8
0
100
AcDbLine
 10
18.33184578305895
 20
69.96600674302911
 30
0.0
 11
18.33184578305929
 21
71.26600674302929
 31
0.0
  0
LINE
  5
14EA
330
A9E
100
AcDbEntity
  8
0
100
AcDbLine
 10
19.30803703164642
 20
73.85754670733627
 30
0.0
 11
20.70457390431042
 21
73.85754670733593
 31
0.0
  0
LINE
  5
14EB
330
A9E
100
AcDbEntity
  8
0
100
AcDbLine
 10
18.33184578305969
 20
72.80893604180485
 30
0.0
 11
18.33184578305986
 21
73.55893604180486
 31
0.0
  0
LINE
  5
14EC
330
A9E
100
AcDbEntity
  8
0
100
AcDbLine
 10
19.0201942311823
 20
74.18393604180469
 30
0.0
 11
21.0201942311823
 21
74.18393604180417
 31
0.0
  0
LINE
  5
14ED
330
A9E
100
AcDbEntity
  8
0
100
AcDbLine
 10
20.70457390430849
 20
66.23754670733603
 30
0.0
 11
20.70457390430811
 21
64.88092829900404
 31
0.0
  0
LINE
  5
14EE
330
A9E
100
AcDbEntity
  8
0
100
AcDbLine
 10
19.30803703164412
 20
64.88092829900438
 30
0.0
 11
19.30803703164448
 21
66.23754670733638
 31
0.0
  0
LINE
  5
14EF
330
A9E
100
AcDbEntity
  8
0
100
AcDbLine
 10
18.33184578305764
 20
64.88600674302919
 30
0.0
 11
18.33184578305798
 21
66.18600674302936
 31
0.0
  0
LINE
  5
14F0
330
A9E
100
AcDbEntity
  8
0
100
AcDbLine
 10
19.02019423117985
 20
64.5639360418048
 30
0.0
 11
19.02019423118036
 21
66.56393604180479
 31
0.0
  0
LINE
  5
14F1
330
A9E
100
AcDbEntity
  8
0
100
AcDbLine
 10
21.02019423118036
 20
66.56393604180428
 30
0.0
 11
21.02019423117985
 21
64.56393604180428
 31
0.0
  0
LINE
  5
14F2
330
A9E
100
AcDbEntity
  8
0
100
AcDbLine
 10
18.33184578305773
 20
65.18893604180497
 30
0.0
 11
18.33184578305792
 21
65.93893604180497
 31
0.0
  0
LINE
  5
14F3
330
A9E
100
AcDbEntity
  8
0
100
AcDbLine
 10
20.70457390430811
 20
64.88092829900404
 30
0.0
 11
19.30803703164412
 21
64.88092829900438
 31
0.0
  0
LINE
  5
14F4
330
A9E
100
AcDbEntity
  8
0
100
AcDbLine
 10
21.02019423117985
 20
64.56393604180428
 30
0.0
 11
19.02019423117985
 21
64.5639360418048
 31
0.0
  0
LINE
  5
14F5
330
A9E
100
AcDbEntity
  8
0
100
AcDbLine
 10
20.70457390430877
 20
67.420928299004
 30
0.0
 11
19.30803703164477
 21
67.42092829900435
 31
0.0
  0
LINE
  5
14F6
330
A9E
100
AcDbEntity
  8
0
100
AcDbLine
 10
19.30803703164448
 20
66.23754670733638
 30
0.0
 11
20.70457390430849
 21
66.23754670733603
 31
0.0
  0
LINE
  5
14F7
330
A9E
100
AcDbEntity
  8
0
100
AcDbLine
 10
21.02019423118048
 20
67.10393604180424
 30
0.0
 11
19.02019423118048
 21
67.10393604180476
 31
0.0
  0
LINE
  5
14F8
330
A9E
100
AcDbEntity
  8
0
100
AcDbLine
 10
19.02019423118036
 20
66.56393604180479
 30
0.0
 11
21.02019423118036
 21
66.56393604180428
 31
0.0
  0
LINE
  5
14F9
330
A9E
100
AcDbEntity
  8
0
100
AcDbLine
 10
22.29339755900369
 20
62.52186534057947
 30
0.0
 11
22.2933975590061
 21
71.94186534057954
 31
0.0
  0
LINE
  5
14FA
330
A9E
100
AcDbEntity
  8
0
100
AcDbLine
 10
20.70457390430911
 20
68.777546707336
 30
0.0
 11
20.70457390430877
 21
67.420928299004
 31
0.0
  0
LINE
  5
14FB
330
A9E
100
AcDbEntity
  8
0
100
AcDbLine
 10
21.02019423118099
 20
69.10393604180424
 30
0.0
 11
21.02019423118048
 21
67.10393604180424
 31
0.0
  0
LINE
  5
14FC
330
A9E
100
AcDbEntity
  8
0
100
AcDbLine
 10
19.30803703164477
 20
67.42092829900435
 30
0.0
 11
19.30803703164511
 21
68.77754670733634
 31
0.0
  0
LINE
  5
14FD
330
A9E
100
AcDbEntity
  8
0
100
AcDbLine
 10
19.02019423118048
 20
67.10393604180476
 30
0.0
 11
19.02019423118099
 21
69.10393604180476
 31
0.0
  0
LINE
  5
14FE
330
A9E
100
AcDbEntity
  8
0
100
AcDbLine
 10
18.3318457830583
 20
67.42600674302915
 30
0.0
 11
18.33184578305863
 21
68.72600674302933
 31
0.0
  0
LINE
  5
14FF
330
A9E
100
AcDbEntity
  8
0
100
AcDbLine
 10
15.33184578306028
 20
75.04600674303071
 30
0.0
 11
18.33184578306028
 21
75.04600674302995
 31
0.0
  0
LINE
  5
1500
330
A9E
100
AcDbEntity
  8
0
100
AcDbLine
 10
16.89738272508415
 20
75.52353302530986
 30
0.0
 11
18.3318457830604
 21
75.52353302530949
 31
0.0
  0
LINE
  5
1501
330
A9E
100
AcDbEntity
  8
0
100
AcDbLine
 10
15.33184578306062
 20
76.34600674302999
 30
0.0
 11
18.33184578306062
 21
76.34600674302922
 31
0.0
  0
LINE
  5
1502
330
A9E
100
AcDbEntity
  8
0
100
AcDbLine
 10
16.89738272508427
 20
75.92433905830143
 30
0.0
 11
18.33184578306051
 21
75.92433905830105
 31
0.0
  0
LINE
  5
1503
330
A9E
100
AcDbEntity
  8
0
100
AcDbLine
 10
16.89738272508481
 20
78.06353302530983
 30
0.0
 11
18.33184578306105
 21
78.06353302530945
 31
0.0
  0
LINE
  5
1504
330
A9E
100
AcDbEntity
  8
0
100
AcDbLine
 10
16.89738272508492
 20
78.46433905830139
 30
0.0
 11
18.33184578306116
 21
78.46433905830102
 31
0.0
  0
LINE
  5
1505
330
A9E
100
AcDbEntity
  8
0
100
AcDbLine
 10
15.33184578306094
 20
77.58600674303067
 30
0.0
 11
18.33184578306094
 21
77.58600674302991
 31
0.0
  0
LINE
  5
1506
330
A9E
100
AcDbEntity
  8
0
100
AcDbLine
 10
15.33184578306125
 20
78.88600674303086
 30
0.0
 11
18.33184578306125
 21
78.8860067430301
 31
0.0
  0
LINE
  5
1507
330
A9E
100
AcDbEntity
  8
0
100
AcDbLine
 10
21.09339755900768
 20
80.78391519752836
 30
0.0
 11
16.09339755900768
 21
80.78391519752964
 31
0.0
  0
LINE
  5
1508
330
A9E
100
AcDbEntity
  8
0
100
AcDbLine
 10
12.29339755900807
 20
79.53393604180675
 30
0.0
 11
22.29339755900807
 21
79.53393604180419
 31
0.0
  0
LINE
  5
1509
330
A9E
100
AcDbEntity
  8
0
100
AcDbLine
 10
22.29339755900807
 20
79.53393604180419
 30
0.0
 11
12.29339755900807
 21
79.53393604180675
 31
0.0
  0
LINE
  5
150A
330
A9E
100
AcDbEntity
  8
0
100
AcDbLine
 10
12.29339755900741
 20
76.99393604180679
 30
0.0
 11
22.29339755900741
 21
76.99393604180423
 31
0.0
  0
LINE
  5
150B
330
A9E
100
AcDbEntity
  8
0
100
AcDbLine
 10
22.29339755900741
 20
76.99393604180423
 30
0.0
 11
12.29339755900741
 21
76.99393604180679
 31
0.0
  0
LINE
  5
150C
330
A9E
100
AcDbEntity
  8
0
100
AcDbLine
 10
22.29339755900741
 20
76.99393604180423
 30
0.0
 11
12.29339755900741
 21
76.99393604180679
 31
0.0
  0
LINE
  5
150D
330
A9E
100
AcDbEntity
  8
0
100
AcDbLine
 10
12.29339755900741
 20
76.99393604180679
 30
0.0
 11
22.29339755900741
 21
76.99393604180423
 31
0.0
  0
LINE
  5
150E
330
A9E
100
AcDbEntity
  8
0
100
AcDbLine
 10
14.84339755900757
 20
80.3839151975294
 30
0.0
 11
21.7933975590083
 21
80.38391519752764
 31
0.0
  0
LINE
  5
150F
330
A9E
100
AcDbEntity
  8
3_表示パネル
  6
CONTINUOUS
100
AcDbLine
 10
13.1156469780806
 20
80.10858587374327
 30
0.0
 11
11.61564697808066
 21
80.10858587374327
 31
0.0
  0
LINE
  5
1510
330
A9E
100
AcDbEntity
  8
0
100
AcDbLine
 10
14.84339755900956
 20
88.08391519752921
 30
0.0
 11
13.79339755901028
 21
88.0839151975295
 31
0.0
  0
LINE
  5
1511
330
A9E
100
AcDbEntity
  8
0
100
AcDbLine
 10
13.79339755900889
 20
82.68391519752986
 30
0.0
 11
14.84339755900816
 21
82.68391519752958
 31
0.0
  0
LINE
  5
1512
330
A9E
100
AcDbEntity
  8
0
100
AcDbLine
 10
14.49339755900794
 20
83.28391519753006
 30
0.0
 11
14.49339755900905
 21
87.48391519752898
 31
0.0
  0
LINE
  5
1513
330
A9E
100
AcDbEntity
  8
0
100
AcDbLine
 10
12.29339755900741
 20
76.99393604180679
 30
0.0
 11
13.79339755900741
 21
76.99393604180642
 31
0.0
  0
LINE
  5
1514
330
A9E
100
AcDbEntity
  8
0
100
AcDbLine
 10
13.79339755900741
 20
76.99393604180642
 30
0.0
 11
12.29339755900741
 21
76.99393604180679
 31
0.0
  0
LINE
  5
1515
330
A9E
100
AcDbEntity
  8
0
100
AcDbLine
 10
13.79339755900807
 20
79.53393604180639
 30
0.0
 11
12.29339755900807
 21
79.53393604180675
 31
0.0
  0
LINE
  5
1516
330
A9E
100
AcDbEntity
  8
0
100
AcDbLine
 10
12.29339755900807
 20
79.53393604180675
 30
0.0
 11
13.79339755900807
 21
79.53393604180639
 31
0.0
  0
LINE
  5
1517
330
A9E
100
AcDbEntity
  8
0
100
AcDbLine
 10
14.84339755900816
 20
82.68391519752958
 30
0.0
 11
14.84339755900757
 21
80.3839151975294
 31
0.0
  0
LINE
  5
1518
330
A9E
100
AcDbEntity
  8
0
100
AcDbLine
 10
15.29339755900901
 20
83.18391519752948
 30
0.0
 11
15.49339755900791
 21
83.18391519752944
 31
0.0
  0
LINE
  5
1519
330
A9E
100
AcDbEntity
  8
0
100
AcDbLine
 10
15.49339755900791
 20
83.18391519752944
 30
0.0
 11
15.49339755900794
 21
83.28391519752981
 31
0.0
  0
LINE
  5
151A
330
A9E
100
AcDbEntity
  8
0
100
AcDbLine
 10
15.49339755900905
 20
87.48391519752871
 30
0.0
 11
15.49339755900908
 21
87.58391519752908
 31
0.0
  0
LINE
  5
151B
330
A9E
100
AcDbEntity
  8
0
100
AcDbLine
 10
15.49339755900908
 20
87.58391519752908
 30
0.0
 11
15.29339755901017
 21
87.5839151975291
 31
0.0
  0
LINE
  5
151C
330
A9E
100
AcDbEntity
  8
0
100
AcDbLine
 10
15.33184578306062
 20
76.34600674302999
 30
0.0
 11
15.33184578306028
 21
75.04600674303071
 31
0.0
  0
LINE
  5
151D
330
A9E
100
AcDbEntity
  8
0
100
AcDbLine
 10
15.55939758629696
 20
75.5235330253102
 30
0.0
 11
15.55939758629708
 21
75.92433905830176
 31
0.0
  0
LINE
  5
151E
330
A9E
100
AcDbEntity
  8
0
100
AcDbLine
 10
15.55939758629696
 20
75.5235330253102
 30
0.0
 11
15.91687137128732
 21
75.52353302531011
 31
0.0
  0
ARC
  5
151F
330
A9E
100
AcDbEntity
  8
0
100
AcDbCircle
 10
16.33613411706889
 20
75.89853302531
 30
0.0
 40
0.5624999999999976
100
AcDbArc
 50
221.810314895783
 51
318.1896851041857
  0
ARC
  5
1520
330
A9E
100
AcDbEntity
  8
0
100
AcDbCircle
 10
16.33613411706889
 20
75.89853302531
 30
0.0
 40
0.6750000000000079
100
AcDbArc
 50
213.7489885958852
 51
326.2510114040854
  0
ARC
  5
1521
330
A9E
100
AcDbEntity
  8
0
100
AcDbCircle
 10
16.33613411706875
 20
75.54933905830157
 30
0.0
 40
0.5624999999999976
100
AcDbArc
 50
41.81031489578301
 51
138.1896851041869
  0
ARC
  5
1522
330
A9E
100
AcDbEntity
  8
0
100
AcDbCircle
 10
16.33613411706875
 20
75.54933905830157
 30
0.0
 40
0.6750000000000079
100
AcDbArc
 50
33.74898859588525
 51
146.2510114040854
  0
LINE
  5
1523
330
A9E
100
AcDbEntity
  8
0
100
AcDbLine
 10
15.55939758629708
 20
75.92433905830176
 30
0.0
 11
15.91687137128744
 21
75.92433905830168
 31
0.0
  0
LINE
  5
1524
330
A9E
100
AcDbEntity
  8
0
100
AcDbLine
 10
15.55939758629762
 20
78.06353302531016
 30
0.0
 11
15.55939758629773
 21
78.46433905830173
 31
0.0
  0
ARC
  5
1525
330
A9E
100
AcDbEntity
  8
0
100
AcDbCircle
 10
16.33613411706952
 20
78.43853302530996
 30
0.0
 40
0.6750000000000079
100
AcDbArc
 50
213.7489885958852
 51
326.2510114040854
  0
ARC
  5
1526
330
A9E
100
AcDbEntity
  8
0
100
AcDbCircle
 10
16.33613411706952
 20
78.43853302530996
 30
0.0
 40
0.5624999999999976
100
AcDbArc
 50
221.810314895783
 51
318.1896851041857
  0
LINE
  5
1527
330
A9E
100
AcDbEntity
  8
0
100
AcDbLine
 10
15.55939758629762
 20
78.06353302531016
 30
0.0
 11
15.91687137128798
 21
78.06353302531007
 31
0.0
  0
LINE
  5
1528
330
A9E
100
AcDbEntity
  8
0
100
AcDbLine
 10
15.33184578306125
 20
78.88600674303086
 30
0.0
 11
15.33184578306094
 21
77.58600674303067
 31
0.0
  0
LINE
  5
1529
330
A9E
100
AcDbEntity
  8
0
100
AcDbLine
 10
15.55939758629773
 20
78.46433905830173
 30
0.0
 11
15.91687137128809
 21
78.46433905830164
 31
0.0
  0
ARC
  5
152A
330
A9E
100
AcDbEntity
  8
0
100
AcDbCircle
 10
16.33613411706943
 20
78.08933905830153
 30
0.0
 40
0.6750000000000079
100
AcDbArc
 50
33.74898859588525
 51
146.2510114040854
  0
ARC
  5
152B
330
A9E
100
AcDbEntity
  8
0
100
AcDbCircle
 10
16.33613411706943
 20
78.08933905830153
 30
0.0
 40
0.5624999999999976
100
AcDbArc
 50
41.81031489578301
 51
138.1896851041869
  0
LINE
  5
152C
330
A9E
100
AcDbEntity
  8
0
100
AcDbLine
 10
16.09339755900768
 20
80.78391519752964
 30
0.0
 11
16.09339755900771
 21
80.98391519752855
 31
0.0
  0
LINE
  5
152D
330
A9E
100
AcDbEntity
  8
0
100
AcDbLine
 10
16.09339755900771
 20
80.98391519752855
 30
0.0
 11
15.29339755900844
 21
80.98391519752874
 31
0.0
  0
LINE
  5
152E
330
A9E
100
AcDbEntity
  8
0
100
AcDbLine
 10
15.29339755900844
 20
80.98391519752874
 30
0.0
 11
15.29339755900901
 21
83.18391519752948
 31
0.0
  0
LINE
  5
152F
330
A9E
100
AcDbEntity
  8
0
100
AcDbLine
 10
15.49339755900794
 20
83.28391519752981
 30
0.0
 11
14.49339755900794
 21
83.28391519753006
 31
0.0
  0
LINE
  5
1530
330
A9E
100
AcDbEntity
  8
0
100
AcDbLine
 10
14.49339755900905
 20
87.48391519752898
 30
0.0
 11
15.49339755900905
 21
87.48391519752871
 31
0.0
  0
LINE
  5
1531
330
A9E
100
AcDbEntity
  8
0
100
AcDbLine
 10
13.79339755901028
 20
88.0839151975295
 30
0.0
 11
13.79339755900889
 21
82.68391519752986
 31
0.0
  0
LINE
  5
1532
330
A9E
100
AcDbEntity
  8
0
100
AcDbLine
 10
21.79339755901037
 20
88.38391519752764
 30
0.0
 11
22.29339755901037
 21
88.3839151975275
 31
0.0
  0
LINE
  5
1533
330
A9E
100
AcDbEntity
  8
0
100
AcDbLine
 10
22.2933975590088
 20
82.38391519752751
 30
0.0
 11
21.79339755900881
 21
82.38391519752765
 31
0.0
  0
CIRCLE
  5
1534
330
A9E
100
AcDbEntity
  8
0
100
AcDbCircle
 10
18.31839755900856
 20
82.88391519752853
 30
0.0
 40
0.32
  0
CIRCLE
  5
1535
330
A9E
100
AcDbEntity
  8
0
100
AcDbCircle
 10
18.31839755900921
 20
85.38391519752853
 30
0.0
 40
0.32
  0
LINE
  5
1536
330
A9E
100
AcDbEntity
  8
0
100
AcDbLine
 10
18.09339755900734
 20
79.53393604180527
 30
0.0
 11
22.29339755900807
 21
79.53393604180419
 31
0.0
  0
LINE
  5
1537
330
A9E
100
AcDbEntity
  8
0
100
AcDbLine
 10
18.09339755900668
 20
76.99393604180531
 30
0.0
 11
22.29339755900741
 21
76.99393604180423
 31
0.0
  0
LINE
  5
1538
330
A9E
100
AcDbEntity
  8
0
100
AcDbLine
 10
20.70457390431076
 20
75.0409282990048
 30
0.0
 11
19.30803703164676
 21
75.04092829900514
 31
0.0
  0
LINE
  5
1539
330
A9E
100
AcDbEntity
  8
0
100
AcDbLine
 10
19.3080370316471
 20
76.39754670733714
 30
0.0
 11
20.7045739043111
 21
76.3975467073368
 31
0.0
  0
LINE
  5
153A
330
A9E
100
AcDbEntity
  8
0
100
AcDbLine
 10
21.02019423118247
 20
74.72393604180505
 30
0.0
 11
19.02019423118247
 21
74.72393604180556
 31
0.0
  0
LINE
  5
153B
330
A9E
100
AcDbEntity
  8
0
100
AcDbLine
 10
19.02019423118298
 20
76.72393604180555
 30
0.0
 11
21.02019423118298
 21
76.72393604180505
 31
0.0
  0
LINE
  5
153C
330
A9E
100
AcDbEntity
  8
0
100
AcDbLine
 10
20.7045739043111
 20
76.3975467073368
 30
0.0
 11
20.70457390431076
 21
75.0409282990048
 31
0.0
  0
LINE
  5
153D
330
A9E
100
AcDbEntity
  8
0
100
AcDbLine
 10
21.02019423118298
 20
76.72393604180505
 30
0.0
 11
21.02019423118247
 21
74.72393604180505
 31
0.0
  0
LINE
  5
153E
330
A9E
100
AcDbEntity
  8
0
100
AcDbLine
 10
19.30803703164676
 20
75.04092829900514
 30
0.0
 11
19.3080370316471
 21
76.39754670733714
 31
0.0
  0
LINE
  5
153F
330
A9E
100
AcDbEntity
  8
0
100
AcDbLine
 10
19.02019423118247
 20
74.72393604180556
 30
0.0
 11
19.02019423118298
 21
76.72393604180555
 31
0.0
  0
LINE
  5
1540
330
A9E
100
AcDbEntity
  8
0
100
AcDbLine
 10
18.33184578306028
 20
75.04600674302995
 30
0.0
 11
18.33184578306062
 21
76.34600674302922
 31
0.0
  0
LINE
  5
1541
330
A9E
100
AcDbEntity
  8
0
100
AcDbLine
 10
18.33184578306037
 20
75.34893604180573
 30
0.0
 11
18.33184578306054
 21
76.09893604180573
 31
0.0
  0
LINE
  5
1542
330
A9E
100
AcDbEntity
  8
0
100
AcDbLine
 10
20.70457390431141
 20
77.58092829900476
 30
0.0
 11
19.30803703164741
 21
77.58092829900511
 31
0.0
  0
LINE
  5
1543
330
A9E
100
AcDbEntity
  8
0
100
AcDbLine
 10
19.30803703164775
 20
78.9375467073371
 30
0.0
 11
20.70457390431176
 21
78.93754670733676
 31
0.0
  0
LINE
  5
1544
330
A9E
100
AcDbEntity
  8
0
100
AcDbLine
 10
21.02019423118312
 20
77.26393604180501
 30
0.0
 11
19.02019423118312
 21
77.26393604180552
 31
0.0
  0
LINE
  5
1545
330
A9E
100
AcDbEntity
  8
0
100
AcDbLine
 10
19.02019423118363
 20
79.26393604180552
 30
0.0
 11
21.02019423118363
 21
79.26393604180501
 31
0.0
  0
LINE
  5
1546
330
A9E
100
AcDbEntity
  8
0
100
AcDbLine
 10
20.70457390431176
 20
78.93754670733676
 30
0.0
 11
20.70457390431141
 21
77.58092829900476
 31
0.0
  0
LINE
  5
1547
330
A9E
100
AcDbEntity
  8
0
100
AcDbLine
 10
21.02019423118363
 20
79.26393604180501
 30
0.0
 11
21.02019423118312
 21
77.26393604180501
 31
0.0
  0
LINE
  5
1548
330
A9E
100
AcDbEntity
  8
0
100
AcDbLine
 10
19.30803703164741
 20
77.58092829900511
 30
0.0
 11
19.30803703164775
 21
78.9375467073371
 31
0.0
  0
LINE
  5
1549
330
A9E
100
AcDbEntity
  8
0
100
AcDbLine
 10
18.331845783061
 20
77.88893604180569
 30
0.0
 11
18.33184578306119
 21
78.63893604180569
 31
0.0
  0
LINE
  5
154A
330
A9E
100
AcDbEntity
  8
0
100
AcDbLine
 10
18.33184578306094
 20
77.58600674302991
 30
0.0
 11
18.33184578306125
 21
78.8860067430301
 31
0.0
  0
LINE
  5
154B
330
A9E
100
AcDbEntity
  8
0
100
AcDbLine
 10
19.02019423118312
 20
77.26393604180552
 30
0.0
 11
19.02019423118363
 21
79.26393604180552
 31
0.0
  0
LINE
  5
154C
330
A9E
100
AcDbEntity
  8
0
100
AcDbLine
 10
21.7933975590083
 20
80.38391519752764
 30
0.0
 11
22.29339755900829
 21
80.3839151975275
 31
0.0
  0
LINE
  5
154D
330
A9E
100
AcDbEntity
  8
0
100
AcDbLine
 10
21.09339755900884
 20
85.38391519752781
 30
0.0
 11
21.09339755900768
 21
80.78391519752836
 31
0.0
  0
LINE
  5
154E
330
A9E
100
AcDbEntity
  8
0
100
AcDbLine
 10
22.29339755900829
 20
80.3839151975275
 30
0.0
 11
22.2933975590088
 21
82.38391519752751
 31
0.0
  0
LINE
  5
154F
330
A9E
100
AcDbEntity
  8
0
100
AcDbLine
 10
21.79339755900881
 20
82.38391519752765
 30
0.0
 11
21.79339755901037
 21
88.38391519752764
 31
0.0
  0
CIRCLE
  5
1550
330
A9E
100
AcDbEntity
  8
0
100
AcDbCircle
 10
18.31839755900984
 20
87.88391519752853
 30
0.0
 40
0.32
  0
ARC
  5
1551
330
A9E
100
AcDbEntity
  8
0
  6
CONTINUOUS
100
AcDbCircle
 10
57.81989357955684
 20
33.09193859249225
 30
0.0
 40
1.0
100
AcDbArc
 50
90.88282099996837
 51
180.0
  0
LINE
  5
1552
330
A9E
100
AcDbEntity
  8
0
  6
CONTINUOUS
100
AcDbLine
 10
51.44885057955673
 20
58.6585858737402
 30
0.0
 11
50.66452457955676
 21
58.6585858737402
 31
0.0
  0
LINE
  5
1553
330
A9E
100
AcDbEntity
  8
0
  6
CONTINUOUS
100
AcDbLine
 10
50.66452457955676
 20
57.16011487374124
 30
0.0
 11
50.66452457955676
 21
58.6585858737402
 31
0.0
  0
ARC
  5
1554
330
A9E
100
AcDbEntity
  8
0
  6
CONTINUOUS
100
AcDbCircle
 10
52.71989357955646
 20
57.13596287374127
 30
0.0
 40
1.0
100
AcDbArc
 50
180.0
 51
268.6890049999997
  0
LINE
  5
1555
330
A9E
100
AcDbEntity
  8
0
  6
CONTINUOUS
100
AcDbLine
 10
51.71989357955647
 20
57.13596287374127
 30
0.0
 11
51.71989357955647
 21
56.1585858737402
 31
0.0
  0
ARC
  5
1556
330
A9E
100
AcDbEntity
  8
0
  6
CONTINUOUS
100
AcDbCircle
 10
51.66452457955677
 20
57.16011487374124
 30
0.0
 40
1.0
100
AcDbArc
 50
180.0
 51
268.6890049999997
  0
ARC
  5
1557
330
A9E
100
AcDbEntity
  8
0
  6
CONTINUOUS
100
AcDbCircle
 10
57.81989357955684
 20
62.02055687374047
 30
0.0
 40
1.0
100
AcDbArc
 50
180.0
 51
268.6890049999997
  0
LINE
  5
1558
330
A9E
100
AcDbEntity
  8
0
  6
CONTINUOUS
100
AcDbLine
 10
3.515647978103544
 20
166.9085858737473
 30
0.0
 11
31.51564597810377
 21
166.9085858737402
 31
0.0
  0
LINE
  5
1559
330
A9E
100
AcDbEntity
  8
0
  6
CONTINUOUS
100
AcDbLine
 10
3.015646978101045
 20
158.4085858737474
 30
0.0
 11
6.516180978100834
 21
158.4085858737465
 31
0.0
  0
LINE
  5
155A
330
A9E
100
AcDbEntity
  8
0
  6
CONTINUOUS
100
AcDbLine
 10
6.115646978100329
 20
154.3085858737472
 30
0.0
 11
28.91564697810051
 21
154.3085858737413
 31
0.0
  0
ARC
  5
155B
330
A9E
100
AcDbEntity
  8
0
  6
CONTINUOUS
100
AcDbCircle
 10
17.51564697921352
 20
4503.481141873745
 30
0.0
 40
4346.596707999999
100
AcDbArc
 50
269.8222190000032
 51
270.1777809999674
  0
LINE
  5
155C
330
A9E
100
AcDbEntity
  8
0
  6
CONTINUOUS
100
AcDbLine
 10
6.015646978099994
 20
154.4085858737466
 30
0.0
 11
29.01564697809999
 21
154.4085858737408
 31
0.0
  0
LINE
  5
155D
330
A9E
100
AcDbEntity
  8
0
  6
CONTINUOUS
100
AcDbLine
 10
2.015647978101128
 20
157.4085858737477
 30
0.0
 11
2.015647978103146
 21
165.4085858737477
 31
0.0
  0
ARC
  5
155E
330
A9E
100
AcDbEntity
  8
0
  6
CONTINUOUS
100
AcDbCircle
 10
6.115646978100045
 20
153.3085858737471
 30
0.0
 40
1.0
100
AcDbArc
 50
89.99999999998534
 51
179.9999999999853
  0
ARC
  5
155F
330
A9E
100
AcDbEntity
  8
0
  6
CONTINUOUS
100
AcDbCircle
 10
6.015646978099709
 20
153.4085858737465
 30
0.0
 40
1.0
100
AcDbArc
 50
89.99999999998534
 51
179.9999999999853
  0
ARC
  5
1560
330
A9E
100
AcDbEntity
  8
0
  6
CONTINUOUS
100
AcDbCircle
 10
4.025646978100581
 20
155.9053628737473
 30
0.0
 40
1.0
100
AcDbArc
 50
89.82221899995115
 51
179.9999999999853
  0
LINE
  5
1561
330
A9E
100
AcDbEntity
  8
0
  6
CONTINUOUS
100
AcDbLine
 10
2.015646978100789
 20
157.4085858737477
 30
0.0
 11
2.015646978099738
 21
153.4301618737478
 31
0.0
  0
LINE
  5
1562
330
A9E
100
AcDbEntity
  8
0
  6
CONTINUOUS
100
AcDbLine
 10
2.015646978099738
 20
153.4301618737478
 30
0.0
 11
0.9999999780995665
 21
153.430161873748
 31
0.0
  0
ARC
  5
1563
330
A9E
100
AcDbEntity
  8
0
  6
CONTINUOUS
100
AcDbCircle
 10
3.015646978100733
 20
157.4085858737473
 30
0.0
 40
1.0
100
AcDbArc
 50
89.99999999998534
 51
179.9999999999853
  0
LINE
  5
1564
330
A9E
100
AcDbEntity
  8
0
  6
CONTINUOUS
100
AcDbLine
 10
1.946821978100018
 20
152.0239918737476
 30
0.0
 11
2.947058978099306
 21
152.0239918737473
 31
0.0
  0
ARC
  5
1565
330
A9E
100
AcDbEntity
  8
0
  6
CONTINUOUS
100
AcDbCircle
 10
1.946821978099734
 20
151.0239918737475
 30
0.0
 40
1.0
100
AcDbArc
 50
89.99999999998534
 51
179.9999999999853
  0
LINE
  5
1566
330
A9E
100
AcDbEntity
  8
0
  6
CONTINUOUS
100
AcDbLine
 10
2.015646978099738
 20
153.4301618737478
 30
0.0
 11
2.947058978099306
 21
152.0239918737473
 31
0.0
  0
LINE
  5
1567
330
A9E
100
AcDbEntity
  8
0
  6
CONTINUOUS
100
AcDbLine
 10
2.015646978099738
 20
153.4301618737478
 30
0.0
 11
2.947058978099306
 21
152.0239918737473
 31
0.0
  0
ARC
  5
1568
330
A9E
100
AcDbEntity
  8
0
  6
CONTINUOUS
100
AcDbCircle
 10
0.9999999780992823
 20
152.4301618737479
 30
0.0
 40
1.0
100
AcDbArc
 50
89.99999999998534
 51
179.9999999999853
  0
ARC
  5
1569
330
A9E
100
AcDbEntity
  8
0
  6
CONTINUOUS
100
AcDbCircle
 10
3.515647978103118
 20
165.4085858737472
 30
0.0
 40
1.5
100
AcDbArc
 50
89.99999999998534
 51
179.9999999999853
  0
LINE
  5
156A
330
A9E
100
AcDbEntity
  8
0
100
AcDbLine
 10
8.815646978097504
 20
145.3085858737456
 30
0.0
 11
8.815646978088665
 21
111.1085858737455
 31
0.0
  0
LINE
  5
156B
330
A9E
100
AcDbEntity
  8
0
  6
CONTINUOUS
100
AcDbLine
 10
15.138060559015
 20
116.3428867737051
 30
0.0
 11
15.13806055901537
 21
117.8108417737051
 31
0.0
  0
LINE
  5
156C
330
A9E
100
AcDbEntity
  8
0
  6
CONTINUOUS
100
AcDbLine
 10
15.13806055901508
 20
116.7805857737051
 30
0.0
 11
15.13806055901525
 21
117.3733147737051
 31
0.0
  0
LINE
  5
156D
330
A9E
100
AcDbEntity
  8
0
  6
CONTINUOUS
100
AcDbLine
 10
14.15706955901524
 20
117.3733147737053
 30
0.0
 11
14.15706955901507
 21
116.7805857737054
 31
0.0
  0
LINE
  5
156E
330
A9E
100
AcDbEntity
  8
0
  6
CONTINUOUS
100
AcDbLine
 10
13.77604255901533
 20
117.8108417737055
 30
0.0
 11
13.77604255901496
 21
116.3428867737054
 31
0.0
  0
LINE
  5
156F
330
A9E
100
AcDbEntity
  8
0
  6
CONTINUOUS
100
AcDbLine
 10
15.5547445590152
 20
117.253425773705
 30
0.0
 11
15.5547445590148
 21
115.891234773705
 31
0.0
  0
LINE
  5
1570
330
A9E
100
AcDbEntity
  8
0
  6
CONTINUOUS
100
AcDbLine
 10
17.02270055901482
 20
115.8912347737046
 30
0.0
 11
17.02270055901522
 21
117.2534257737046
 31
0.0
  0
LINE
  5
1571
330
A9E
100
AcDbEntity
  8
0
  6
CONTINUOUS
100
AcDbLine
 10
15.99209955901523
 20
117.2534257737049
 30
0.0
 11
15.99209955901497
 21
116.2722617737049
 31
0.0
  0
LINE
  5
1572
330
A9E
100
AcDbEntity
  8
0
  6
CONTINUOUS
100
AcDbLine
 10
16.58482855901499
 20
116.2722617737048
 30
0.0
 11
16.58482855901524
 21
117.2534257737047
 31
0.0
  0
CIRCLE
  5
1573
330
A9E
100
AcDbEntity
  8
0
100
AcDbCircle
 10
15.8933975590167
 20
118.8836447737041
 30
0.0
 40
5.029838999999999
  0
CIRCLE
  5
1574
330
A9E
100
AcDbEntity
  8
0
100
AcDbCircle
 10
15.8933975590167
 20
118.8836447737041
 30
0.0
 40
5.029838999999999
  0
LINE
  5
1575
330
A9E
100
AcDbEntity
  8
0
100
AcDbLine
 10
9.493397559017097
 20
125.8839151975299
 30
0.0
 11
9.493397559013487
 21
111.8839151975299
 31
0.0
  0
CIRCLE
  5
1576
330
A9E
100
AcDbEntity
  8
0
100
AcDbCircle
 10
15.89313955901667
 20
118.8836447737041
 30
0.0
 40
4.448566
  0
CIRCLE
  5
1577
330
A9E
100
AcDbEntity
  8
0
100
AcDbCircle
 10
15.89313955901667
 20
118.8836447737041
 30
0.0
 40
4.448566
  0
LINE
  5
1578
330
A9E
100
AcDbEntity
  8
0
100
AcDbLine
 10
16.61564697808356
 20
91.40858587374347
 30
0.0
 11
16.61564697808862
 21
111.1085858737435
 31
0.0
  0
LINE
  5
1579
330
A9E
100
AcDbEntity
  8
0
100
AcDbLine
 10
17.29339755901622
 20
111.1339151975278
 30
0.0
 11
17.29339755901111
 21
91.23391519752823
 31
0.0
  0
LINE
  5
157A
330
A9E
100
AcDbEntity
  8
0
100
AcDbLine
 10
16.09339755901004
 20
89.98391519752855
 30
0.0
 11
17.59339755901004
 21
89.98391519752818
 31
0.0
  0
LINE
  5
157B
330
A9E
100
AcDbEntity
  8
0
100
AcDbLine
 10
21.79339755901088
 20
90.38391519752764
 30
0.0
 11
14.84339755901015
 21
90.3839151975294
 31
0.0
  0
LINE
  5
157C
330
A9E
100
AcDbEntity
  8
3_表示パネル
  6
CONTINUOUS
100
AcDbLine
 10
13.11564697808066
 20
91.40858587374344
 30
0.0
 11
16.61564697808066
 21
91.40858587374344
 31
0.0
  0
LINE
  5
157D
330
A9E
100
AcDbEntity
  8
0
100
AcDbLine
 10
15.29339755901074
 20
89.78391519752983
 30
0.0
 11
16.09339755901001
 21
89.78391519752964
 31
0.0
  0
LINE
  5
157E
330
A9E
100
AcDbEntity
  8
0
100
AcDbLine
 10
16.09339755901001
 20
89.78391519752964
 30
0.0
 11
16.09339755901001
 21
89.88391519752909
 31
0.0
  0
LINE
  5
157F
330
A9E
100
AcDbEntity
  8
0
100
AcDbLine
 10
16.09339755901001
 20
89.88391519752909
 30
0.0
 11
16.09339755901004
 21
89.98391519752855
 31
0.0
  0
LINE
  5
1580
330
A9E
100
AcDbEntity
  8
0
  6
CONTINUOUS
100
AcDbLine
 10
13.11564697808066
 20
91.40858587374344
 30
0.0
 11
16.61564697808356
 21
91.40858587374347
 31
0.0
  0
LINE
  5
1581
330
A9E
100
AcDbEntity
  8
0
100
AcDbLine
 10
20.54339755901204
 20
94.93391519752723
 30
0.0
 11
21.04339755901205
 21
94.93391519752711
 31
0.0
  0
LINE
  5
1582
330
A9E
100
AcDbEntity
  8
0
100
AcDbLine
 10
20.54339755901216
 20
95.43391519752722
 30
0.0
 11
21.04339755901216
 21
95.43391519752711
 31
0.0
  0
LINE
  5
1583
330
A9E
100
AcDbEntity
  8
0
100
AcDbLine
 10
21.04339755901205
 20
94.93391519752711
 30
0.0
 11
21.04339755901216
 21
95.43391519752711
 31
0.0
  0
LINE
  5
1584
330
A9E
100
AcDbEntity
  8
0
100
AcDbLine
 10
20.70339755901199
 20
95.27396719376964
 30
0.0
 11
20.79339755901213
 21
95.27396719376961
 31
0.0
  0
LINE
  5
1585
330
A9E
100
AcDbEntity
  8
0
100
AcDbLine
 10
20.88339755901228
 20
95.27396719376957
 30
0.0
 11
20.79339755901213
 21
95.27396719376961
 31
0.0
  0
LINE
  5
1586
330
A9E
100
AcDbEntity
  8
0
100
AcDbLine
 10
20.70339755901193
 20
95.09386320128475
 30
0.0
 11
20.79339755901207
 21
95.09386320128474
 31
0.0
  0
LINE
  5
1587
330
A9E
100
AcDbEntity
  8
0
100
AcDbLine
 10
20.70339755901193
 20
95.09386320128475
 30
0.0
 11
20.79339755901207
 21
95.09386320128474
 31
0.0
  0
LINE
  5
1588
330
A9E
100
AcDbEntity
  8
0
100
AcDbLine
 10
20.88339755901222
 20
95.0938632012847
 30
0.0
 11
20.79339755901207
 21
95.09386320128474
 31
0.0
  0
LINE
  5
1589
330
A9E
100
AcDbEntity
  8
0
100
AcDbLine
 10
20.88339755901222
 20
95.0938632012847
 30
0.0
 11
20.79339755901207
 21
95.09386320128474
 31
0.0
  0
LINE
  5
158A
330
A9E
100
AcDbEntity
  8
0
100
AcDbLine
 10
20.70339755901199
 20
95.27396719376964
 30
0.0
 11
20.70339755901193
 21
95.09386320128475
 31
0.0
  0
LINE
  5
158B
330
A9E
100
AcDbEntity
  8
0
100
AcDbLine
 10
20.88339755901228
 20
95.27396719376957
 30
0.0
 11
20.88339755901222
 21
95.0938632012847
 31
0.0
  0
LINE
  5
158C
330
A9E
100
AcDbEntity
  8
0
100
AcDbLine
 10
19.04339755901204
 20
94.93391519752762
 30
0.0
 11
19.04339755901216
 21
95.43391519752763
 31
0.0
  0
LINE
  5
158D
330
A9E
100
AcDbEntity
  8
0
100
AcDbLine
 10
18.88339755901228
 20
95.27396719377009
 30
0.0
 11
18.79339755901213
 21
95.27396719377012
 31
0.0
  0
LINE
  5
158E
330
A9E
100
AcDbEntity
  8
0
100
AcDbLine
 10
18.70339755901198
 20
95.27396719377014
 30
0.0
 11
18.79339755901213
 21
95.27396719377012
 31
0.0
  0
LINE
  5
158F
330
A9E
100
AcDbEntity
  8
0
100
AcDbLine
 10
18.88339755901222
 20
95.09386320128522
 30
0.0
 11
18.79339755901207
 21
95.09386320128525
 31
0.0
  0
LINE
  5
1590
330
A9E
100
AcDbEntity
  8
0
100
AcDbLine
 10
18.88339755901222
 20
95.09386320128522
 30
0.0
 11
18.79339755901207
 21
95.09386320128525
 31
0.0
  0
LINE
  5
1591
330
A9E
100
AcDbEntity
  8
0
100
AcDbLine
 10
18.70339755901193
 20
95.09386320128527
 30
0.0
 11
18.79339755901207
 21
95.09386320128525
 31
0.0
  0
LINE
  5
1592
330
A9E
100
AcDbEntity
  8
0
100
AcDbLine
 10
18.70339755901193
 20
95.09386320128527
 30
0.0
 11
18.79339755901207
 21
95.09386320128525
 31
0.0
  0
LINE
  5
1593
330
A9E
100
AcDbEntity
  8
0
100
AcDbLine
 10
18.88339755901228
 20
95.27396719377009
 30
0.0
 11
18.88339755901222
 21
95.09386320128522
 31
0.0
  0
LINE
  5
1594
330
A9E
100
AcDbEntity
  8
0
100
AcDbLine
 10
18.70339755901198
 20
95.27396719377014
 30
0.0
 11
18.70339755901193
 21
95.09386320128527
 31
0.0
  0
LINE
  5
1595
330
A9E
100
AcDbEntity
  8
0
100
AcDbLine
 10
18.54339755901216
 20
95.43391519752773
 30
0.0
 11
18.54339755901205
 21
94.93391519752774
 31
0.0
  0
LINE
  5
1596
330
A9E
100
AcDbEntity
  8
0
100
AcDbLine
 10
18.54339755901205
 20
94.93391519752774
 30
0.0
 11
19.04339755901204
 21
94.93391519752762
 31
0.0
  0
LINE
  5
1597
330
A9E
100
AcDbEntity
  8
0
100
AcDbLine
 10
18.54339755901216
 20
95.43391519752773
 30
0.0
 11
19.04339755901216
 21
95.43391519752763
 31
0.0
  0
LINE
  5
1598
330
A9E
100
AcDbEntity
  8
0
100
AcDbLine
 10
20.54339755901216
 20
95.43391519752722
 30
0.0
 11
20.54339755901204
 21
94.93391519752723
 31
0.0
  0
LINE
  5
1599
330
A9E
100
AcDbEntity
  8
0
100
AcDbLine
 10
20.54339755901267
 20
97.43391519752719
 30
0.0
 11
21.04339755901267
 21
97.43391519752709
 31
0.0
  0
LINE
  5
159A
330
A9E
100
AcDbEntity
  8
0
100
AcDbLine
 10
20.54339755901256
 20
96.9339151975272
 30
0.0
 11
21.04339755901256
 21
96.93391519752708
 31
0.0
  0
LINE
  5
159B
330
A9E
100
AcDbEntity
  8
0
100
AcDbLine
 10
20.88339755901279
 20
97.27396719376958
 30
0.0
 11
20.88339755901273
 21
97.09386320128471
 31
0.0
  0
LINE
  5
159C
330
A9E
100
AcDbEntity
  8
0
100
AcDbLine
 10
20.88339755901273
 20
97.09386320128471
 30
0.0
 11
20.79339755901258
 21
97.09386320128476
 31
0.0
  0
LINE
  5
159D
330
A9E
100
AcDbEntity
  8
0
100
AcDbLine
 10
20.88339755901273
 20
97.09386320128471
 30
0.0
 11
20.79339755901258
 21
97.09386320128476
 31
0.0
  0
LINE
  5
159E
330
A9E
100
AcDbEntity
  8
0
100
AcDbLine
 10
20.88339755901279
 20
97.27396719376958
 30
0.0
 11
20.79339755901264
 21
97.27396719376963
 31
0.0
  0
LINE
  5
159F
330
A9E
100
AcDbEntity
  8
0
100
AcDbLine
 10
20.7033975590125
 20
97.27396719376963
 30
0.0
 11
20.79339755901264
 21
97.27396719376963
 31
0.0
  0
LINE
  5
15A0
330
A9E
100
AcDbEntity
  8
0
100
AcDbLine
 10
20.70339755901244
 20
97.09386320128476
 30
0.0
 11
20.79339755901258
 21
97.09386320128476
 31
0.0
  0
LINE
  5
15A1
330
A9E
100
AcDbEntity
  8
0
100
AcDbLine
 10
20.70339755901244
 20
97.09386320128476
 30
0.0
 11
20.79339755901258
 21
97.09386320128476
 31
0.0
  0
LINE
  5
15A2
330
A9E
100
AcDbEntity
  8
0
100
AcDbLine
 10
20.7033975590125
 20
97.27396719376963
 30
0.0
 11
20.70339755901244
 21
97.09386320128476
 31
0.0
  0
LINE
  5
15A3
330
A9E
100
AcDbEntity
  8
0
100
AcDbLine
 10
21.04339755901256
 20
96.93391519752708
 30
0.0
 11
21.04339755901267
 21
97.43391519752709
 31
0.0
  0
LINE
  5
15A4
330
A9E
100
AcDbEntity
  8
0
100
AcDbLine
 10
18.70339755901244
 20
97.09386320128528
 30
0.0
 11
18.79339755901258
 21
97.09386320128523
 31
0.0
  0
LINE
  5
15A5
330
A9E
100
AcDbEntity
  8
0
100
AcDbLine
 10
18.70339755901244
 20
97.09386320128528
 30
0.0
 11
18.79339755901258
 21
97.09386320128523
 31
0.0
  0
LINE
  5
15A6
330
A9E
100
AcDbEntity
  8
0
100
AcDbLine
 10
18.7033975590125
 20
97.27396719377015
 30
0.0
 11
18.79339755901264
 21
97.2739671937701
 31
0.0
  0
LINE
  5
15A7
330
A9E
100
AcDbEntity
  8
0
100
AcDbLine
 10
18.88339755901279
 20
97.2739671937701
 30
0.0
 11
18.79339755901264
 21
97.2739671937701
 31
0.0
  0
LINE
  5
15A8
330
A9E
100
AcDbEntity
  8
0
100
AcDbLine
 10
18.88339755901273
 20
97.09386320128523
 30
0.0
 11
18.79339755901258
 21
97.09386320128523
 31
0.0
  0
LINE
  5
15A9
330
A9E
100
AcDbEntity
  8
0
100
AcDbLine
 10
18.88339755901273
 20
97.09386320128523
 30
0.0
 11
18.79339755901258
 21
97.09386320128523
 31
0.0
  0
LINE
  5
15AA
330
A9E
100
AcDbEntity
  8
0
100
AcDbLine
 10
18.88339755901279
 20
97.2739671937701
 30
0.0
 11
18.88339755901273
 21
97.09386320128523
 31
0.0
  0
LINE
  5
15AB
330
A9E
100
AcDbEntity
  8
0
100
AcDbLine
 10
19.04339755901256
 20
96.93391519752765
 30
0.0
 11
19.04339755901267
 21
97.43391519752766
 31
0.0
  0
LINE
  5
15AC
330
A9E
100
AcDbEntity
  8
0
100
AcDbLine
 10
18.7033975590125
 20
97.27396719377015
 30
0.0
 11
18.70339755901244
 21
97.09386320128528
 31
0.0
  0
LINE
  5
15AD
330
A9E
100
AcDbEntity
  8
0
100
AcDbLine
 10
18.54339755901267
 20
97.43391519752776
 30
0.0
 11
18.54339755901256
 21
96.93391519752777
 31
0.0
  0
LINE
  5
15AE
330
A9E
100
AcDbEntity
  8
0
100
AcDbLine
 10
18.54339755901256
 20
96.93391519752777
 30
0.0
 11
19.04339755901256
 21
96.93391519752765
 31
0.0
  0
LINE
  5
15AF
330
A9E
100
AcDbEntity
  8
0
100
AcDbLine
 10
18.54339755901267
 20
97.43391519752776
 30
0.0
 11
19.04339755901267
 21
97.43391519752766
 31
0.0
  0
LINE
  5
15B0
330
A9E
100
AcDbEntity
  8
0
100
AcDbLine
 10
20.54339755901267
 20
97.43391519752719
 30
0.0
 11
20.54339755901256
 21
96.9339151975272
 31
0.0
  0
LINE
  5
15B1
330
A9E
100
AcDbEntity
  8
0
100
AcDbLine
 10
20.54339755901307
 20
98.9339151975272
 30
0.0
 11
21.04339755901307
 21
98.93391519752709
 31
0.0
  0
LINE
  5
15B2
330
A9E
100
AcDbEntity
  8
0
100
AcDbLine
 10
20.54339755901318
 20
99.4339151975272
 30
0.0
 11
21.04339755901318
 21
99.43391519752708
 31
0.0
  0
LINE
  5
15B3
330
A9E
100
AcDbEntity
  8
0
100
AcDbLine
 10
20.8833975590133
 20
99.27396719376957
 30
0.0
 11
20.88339755901324
 21
99.0938632012847
 31
0.0
  0
LINE
  5
15B4
330
A9E
100
AcDbEntity
  8
0
100
AcDbLine
 10
20.88339755901324
 20
99.0938632012847
 30
0.0
 11
20.7933975590131
 21
99.09386320128476
 31
0.0
  0
LINE
  5
15B5
330
A9E
100
AcDbEntity
  8
0
100
AcDbLine
 10
20.88339755901324
 20
99.0938632012847
 30
0.0
 11
20.7933975590131
 21
99.09386320128476
 31
0.0
  0
LINE
  5
15B6
330
A9E
100
AcDbEntity
  8
0
100
AcDbLine
 10
20.8833975590133
 20
99.27396719376957
 30
0.0
 11
20.79339755901315
 21
99.27396719376964
 31
0.0
  0
LINE
  5
15B7
330
A9E
100
AcDbEntity
  8
0
100
AcDbLine
 10
20.70339755901301
 20
99.27396719376964
 30
0.0
 11
20.79339755901315
 21
99.27396719376964
 31
0.0
  0
LINE
  5
15B8
330
A9E
100
AcDbEntity
  8
0
100
AcDbLine
 10
20.70339755901295
 20
99.09386320128476
 30
0.0
 11
20.7933975590131
 21
99.09386320128476
 31
0.0
  0
LINE
  5
15B9
330
A9E
100
AcDbEntity
  8
0
100
AcDbLine
 10
20.70339755901295
 20
99.09386320128476
 30
0.0
 11
20.7933975590131
 21
99.09386320128476
 31
0.0
  0
LINE
  5
15BA
330
A9E
100
AcDbEntity
  8
0
100
AcDbLine
 10
20.70339755901301
 20
99.27396719376964
 30
0.0
 11
20.70339755901295
 21
99.09386320128476
 31
0.0
  0
LINE
  5
15BB
330
A9E
100
AcDbEntity
  8
0
100
AcDbLine
 10
21.04339755901307
 20
98.93391519752709
 30
0.0
 11
21.04339755901318
 21
99.43391519752708
 31
0.0
  0
LINE
  5
15BC
330
A9E
100
AcDbEntity
  8
0
100
AcDbLine
 10
19.04339755901307
 20
98.93391519752766
 30
0.0
 11
19.04339755901318
 21
99.43391519752765
 31
0.0
  0
LINE
  5
15BD
330
A9E
100
AcDbEntity
  8
0
100
AcDbLine
 10
18.70339755901301
 20
99.27396719377014
 30
0.0
 11
18.70339755901295
 21
99.09386320128527
 31
0.0
  0
LINE
  5
15BE
330
A9E
100
AcDbEntity
  8
0
100
AcDbLine
 10
18.70339755901295
 20
99.09386320128527
 30
0.0
 11
18.7933975590131
 21
99.09386320128522
 31
0.0
  0
LINE
  5
15BF
330
A9E
100
AcDbEntity
  8
0
100
AcDbLine
 10
18.70339755901295
 20
99.09386320128527
 30
0.0
 11
18.7933975590131
 21
99.09386320128522
 31
0.0
  0
LINE
  5
15C0
330
A9E
100
AcDbEntity
  8
0
100
AcDbLine
 10
18.70339755901301
 20
99.27396719377014
 30
0.0
 11
18.79339755901315
 21
99.27396719377009
 31
0.0
  0
LINE
  5
15C1
330
A9E
100
AcDbEntity
  8
0
100
AcDbLine
 10
18.8833975590133
 20
99.27396719377009
 30
0.0
 11
18.79339755901315
 21
99.27396719377009
 31
0.0
  0
LINE
  5
15C2
330
A9E
100
AcDbEntity
  8
0
100
AcDbLine
 10
18.88339755901324
 20
99.09386320128522
 30
0.0
 11
18.7933975590131
 21
99.09386320128522
 31
0.0
  0
LINE
  5
15C3
330
A9E
100
AcDbEntity
  8
0
100
AcDbLine
 10
18.88339755901324
 20
99.09386320128522
 30
0.0
 11
18.7933975590131
 21
99.09386320128522
 31
0.0
  0
LINE
  5
15C4
330
A9E
100
AcDbEntity
  8
0
100
AcDbLine
 10
18.8833975590133
 20
99.27396719377009
 30
0.0
 11
18.88339755901324
 21
99.09386320128522
 31
0.0
  0
LINE
  5
15C5
330
A9E
100
AcDbEntity
  8
0
100
AcDbLine
 10
18.54339755901318
 20
99.43391519752777
 30
0.0
 11
18.54339755901307
 21
98.93391519752777
 31
0.0
  0
LINE
  5
15C6
330
A9E
100
AcDbEntity
  8
0
100
AcDbLine
 10
18.54339755901318
 20
99.43391519752777
 30
0.0
 11
19.04339755901318
 21
99.43391519752765
 31
0.0
  0
LINE
  5
15C7
330
A9E
100
AcDbEntity
  8
0
100
AcDbLine
 10
18.54339755901307
 20
98.93391519752777
 30
0.0
 11
19.04339755901307
 21
98.93391519752766
 31
0.0
  0
LINE
  5
15C8
330
A9E
100
AcDbEntity
  8
0
100
AcDbLine
 10
20.54339755901318
 20
99.4339151975272
 30
0.0
 11
20.54339755901307
 21
98.9339151975272
 31
0.0
  0
LINE
  5
15C9
330
A9E
100
AcDbEntity
  8
0
100
AcDbLine
 10
20.54339755901358
 20
100.9339151975271
 30
0.0
 11
21.04339755901358
 21
100.933915197527
 31
0.0
  0
LINE
  5
15CA
330
A9E
100
AcDbEntity
  8
0
100
AcDbLine
 10
20.5433975590137
 20
101.4339151975272
 30
0.0
 11
21.04339755901369
 21
101.433915197527
 31
0.0
  0
LINE
  5
15CB
330
A9E
100
AcDbEntity
  8
0
100
AcDbLine
 10
21.04339755901358
 20
100.933915197527
 30
0.0
 11
21.04339755901369
 21
101.433915197527
 31
0.0
  0
LINE
  5
15CC
330
A9E
100
AcDbEntity
  8
0
100
AcDbLine
 10
20.88339755901381
 20
101.2739671937695
 30
0.0
 11
20.88339755901376
 21
101.0938632012847
 31
0.0
  0
LINE
  5
15CD
330
A9E
100
AcDbEntity
  8
0
100
AcDbLine
 10
20.88339755901376
 20
101.0938632012847
 30
0.0
 11
20.79339755901361
 21
101.0938632012847
 31
0.0
  0
LINE
  5
15CE
330
A9E
100
AcDbEntity
  8
0
100
AcDbLine
 10
20.88339755901376
 20
101.0938632012847
 30
0.0
 11
20.79339755901361
 21
101.0938632012847
 31
0.0
  0
LINE
  5
15CF
330
A9E
100
AcDbEntity
  8
0
100
AcDbLine
 10
20.88339755901381
 20
101.2739671937695
 30
0.0
 11
20.79339755901366
 21
101.2739671937696
 31
0.0
  0
LINE
  5
15D0
330
A9E
100
AcDbEntity
  8
0
100
AcDbLine
 10
20.70339755901352
 20
101.2739671937696
 30
0.0
 11
20.79339755901366
 21
101.2739671937696
 31
0.0
  0
LINE
  5
15D1
330
A9E
100
AcDbEntity
  8
0
100
AcDbLine
 10
20.70339755901347
 20
101.0938632012847
 30
0.0
 11
20.79339755901361
 21
101.0938632012847
 31
0.0
  0
LINE
  5
15D2
330
A9E
100
AcDbEntity
  8
0
100
AcDbLine
 10
20.70339755901347
 20
101.0938632012847
 30
0.0
 11
20.79339755901361
 21
101.0938632012847
 31
0.0
  0
LINE
  5
15D3
330
A9E
100
AcDbEntity
  8
0
100
AcDbLine
 10
20.70339755901352
 20
101.2739671937696
 30
0.0
 11
20.70339755901347
 21
101.0938632012847
 31
0.0
  0
LINE
  5
15D4
330
A9E
100
AcDbEntity
  8
0
100
AcDbLine
 10
19.04339755901358
 20
100.9339151975276
 30
0.0
 11
19.04339755901369
 21
101.4339151975276
 31
0.0
  0
LINE
  5
15D5
330
A9E
100
AcDbEntity
  8
0
100
AcDbLine
 10
18.54339755901369
 20
101.4339151975277
 30
0.0
 11
18.54339755901358
 21
100.9339151975277
 31
0.0
  0
LINE
  5
15D6
330
A9E
100
AcDbEntity
  8
0
100
AcDbLine
 10
20.5433975590137
 20
101.4339151975272
 30
0.0
 11
20.54339755901358
 21
100.9339151975271
 31
0.0
  0
LINE
  5
15D7
330
A9E
100
AcDbEntity
  8
0
100
AcDbLine
 10
18.70339755901352
 20
101.2739671937701
 30
0.0
 11
18.70339755901346
 21
101.0938632012852
 31
0.0
  0
LINE
  5
15D8
330
A9E
100
AcDbEntity
  8
0
100
AcDbLine
 10
18.70339755901346
 20
101.0938632012852
 30
0.0
 11
18.79339755901361
 21
101.0938632012852
 31
0.0
  0
LINE
  5
15D9
330
A9E
100
AcDbEntity
  8
0
100
AcDbLine
 10
18.70339755901346
 20
101.0938632012852
 30
0.0
 11
18.79339755901361
 21
101.0938632012852
 31
0.0
  0
LINE
  5
15DA
330
A9E
100
AcDbEntity
  8
0
100
AcDbLine
 10
18.70339755901352
 20
101.2739671937701
 30
0.0
 11
18.79339755901367
 21
101.27396719377
 31
0.0
  0
LINE
  5
15DB
330
A9E
100
AcDbEntity
  8
0
100
AcDbLine
 10
18.88339755901381
 20
101.27396719377
 30
0.0
 11
18.79339755901367
 21
101.27396719377
 31
0.0
  0
LINE
  5
15DC
330
A9E
100
AcDbEntity
  8
0
100
AcDbLine
 10
18.88339755901375
 20
101.0938632012852
 30
0.0
 11
18.79339755901361
 21
101.0938632012852
 31
0.0
  0
LINE
  5
15DD
330
A9E
100
AcDbEntity
  8
0
100
AcDbLine
 10
18.88339755901375
 20
101.0938632012852
 30
0.0
 11
18.79339755901361
 21
101.0938632012852
 31
0.0
  0
LINE
  5
15DE
330
A9E
100
AcDbEntity
  8
0
100
AcDbLine
 10
18.88339755901381
 20
101.27396719377
 30
0.0
 11
18.88339755901375
 21
101.0938632012852
 31
0.0
  0
LINE
  5
15DF
330
A9E
100
AcDbEntity
  8
0
100
AcDbLine
 10
18.54339755901358
 20
100.9339151975277
 30
0.0
 11
19.04339755901358
 21
100.9339151975276
 31
0.0
  0
LINE
  5
15E0
330
A9E
100
AcDbEntity
  8
0
100
AcDbLine
 10
18.54339755901369
 20
101.4339151975277
 30
0.0
 11
19.04339755901369
 21
101.4339151975276
 31
0.0
  0
LINE
  5
15E1
330
A9E
100
AcDbEntity
  8
0
100
AcDbLine
 10
17.29339755901111
 20
91.23391519752823
 30
0.0
 11
22.29339755901111
 21
91.23391519752695
 31
0.0
  0
LINE
  5
15E2
330
A9E
100
AcDbEntity
  8
0
100
AcDbLine
 10
22.29339755901088
 20
90.3839151975275
 30
0.0
 11
21.79339755901088
 21
90.38391519752764
 31
0.0
  0
LINE
  5
15E3
330
A9E
100
AcDbEntity
  8
0
100
AcDbLine
 10
17.59339755901004
 20
89.98391519752818
 30
0.0
 11
17.59339755901015
 21
90.38391519752872
 31
0.0
  0
LINE
  5
15E4
330
A9E
100
AcDbEntity
  8
0
100
AcDbLine
 10
19.09339755901004
 20
89.98391519752777
 30
0.0
 11
19.09339755901015
 21
90.38391519752833
 31
0.0
  0
LINE
  5
15E5
330
A9E
100
AcDbEntity
  8
0
100
AcDbLine
 10
21.09339755901004
 20
89.98391519752727
 30
0.0
 11
19.09339755901004
 21
89.98391519752777
 31
0.0
  0
LINE
  5
15E6
330
A9E
100
AcDbEntity
  8
0
100
AcDbLine
 10
20.54339755901165
 20
93.43391519752723
 30
0.0
 11
21.04339755901165
 21
93.43391519752712
 31
0.0
  0
LINE
  5
15E7
330
A9E
100
AcDbEntity
  8
0
100
AcDbLine
 10
20.54339755901153
 20
92.93391519752722
 30
0.0
 11
21.04339755901154
 21
92.93391519752711
 31
0.0
  0
LINE
  5
15E8
330
A9E
100
AcDbEntity
  8
0
100
AcDbLine
 10
20.88339755901177
 20
93.27396719376958
 30
0.0
 11
20.79339755901162
 21
93.27396719376961
 31
0.0
  0
LINE
  5
15E9
330
A9E
100
AcDbEntity
  8
0
100
AcDbLine
 10
20.70339755901148
 20
93.27396719376963
 30
0.0
 11
20.79339755901162
 21
93.27396719376961
 31
0.0
  0
LINE
  5
15EA
330
A9E
100
AcDbEntity
  8
0
100
AcDbLine
 10
20.88339755901171
 20
93.09386320128471
 30
0.0
 11
20.79339755901156
 21
93.09386320128473
 31
0.0
  0
LINE
  5
15EB
330
A9E
100
AcDbEntity
  8
0
100
AcDbLine
 10
20.88339755901171
 20
93.09386320128471
 30
0.0
 11
20.79339755901156
 21
93.09386320128473
 31
0.0
  0
LINE
  5
15EC
330
A9E
100
AcDbEntity
  8
0
100
AcDbLine
 10
20.70339755901142
 20
93.09386320128476
 30
0.0
 11
20.79339755901156
 21
93.09386320128473
 31
0.0
  0
LINE
  5
15ED
330
A9E
100
AcDbEntity
  8
0
100
AcDbLine
 10
20.70339755901142
 20
93.09386320128476
 30
0.0
 11
20.79339755901156
 21
93.09386320128473
 31
0.0
  0
LINE
  5
15EE
330
A9E
100
AcDbEntity
  8
0
100
AcDbLine
 10
20.88339755901177
 20
93.27396719376958
 30
0.0
 11
20.88339755901171
 21
93.09386320128471
 31
0.0
  0
LINE
  5
15EF
330
A9E
100
AcDbEntity
  8
0
100
AcDbLine
 10
20.70339755901148
 20
93.27396719376963
 30
0.0
 11
20.70339755901142
 21
93.09386320128476
 31
0.0
  0
LINE
  5
15F0
330
A9E
100
AcDbEntity
  8
0
100
AcDbLine
 10
21.04339755901154
 20
92.93391519752711
 30
0.0
 11
21.04339755901165
 21
93.43391519752712
 31
0.0
  0
LINE
  5
15F1
330
A9E
100
AcDbEntity
  8
0
100
AcDbLine
 10
18.70339755901147
 20
93.27396719377015
 30
0.0
 11
18.79339755901162
 21
93.27396719377011
 31
0.0
  0
LINE
  5
15F2
330
A9E
100
AcDbEntity
  8
0
100
AcDbLine
 10
18.88339755901176
 20
93.27396719377009
 30
0.0
 11
18.79339755901162
 21
93.27396719377011
 31
0.0
  0
LINE
  5
15F3
330
A9E
100
AcDbEntity
  8
0
100
AcDbLine
 10
18.70339755901142
 20
93.09386320128528
 30
0.0
 11
18.79339755901156
 21
93.09386320128524
 31
0.0
  0
LINE
  5
15F4
330
A9E
100
AcDbEntity
  8
0
100
AcDbLine
 10
18.70339755901142
 20
93.09386320128528
 30
0.0
 11
18.79339755901156
 21
93.09386320128524
 31
0.0
  0
LINE
  5
15F5
330
A9E
100
AcDbEntity
  8
0
100
AcDbLine
 10
18.88339755901171
 20
93.09386320128522
 30
0.0
 11
18.79339755901156
 21
93.09386320128524
 31
0.0
  0
LINE
  5
15F6
330
A9E
100
AcDbEntity
  8
0
100
AcDbLine
 10
18.88339755901171
 20
93.09386320128522
 30
0.0
 11
18.79339755901156
 21
93.09386320128524
 31
0.0
  0
LINE
  5
15F7
330
A9E
100
AcDbEntity
  8
0
100
AcDbLine
 10
18.70339755901147
 20
93.27396719377015
 30
0.0
 11
18.70339755901142
 21
93.09386320128528
 31
0.0
  0
LINE
  5
15F8
330
A9E
100
AcDbEntity
  8
0
100
AcDbLine
 10
18.88339755901176
 20
93.27396719377009
 30
0.0
 11
18.88339755901171
 21
93.09386320128522
 31
0.0
  0
LINE
  5
15F9
330
A9E
100
AcDbEntity
  8
0
100
AcDbLine
 10
19.04339755901153
 20
92.93391519752763
 30
0.0
 11
19.04339755901165
 21
93.43391519752762
 31
0.0
  0
LINE
  5
15FA
330
A9E
100
AcDbEntity
  8
0
100
AcDbLine
 10
18.54339755901165
 20
93.43391519752774
 30
0.0
 11
18.54339755901153
 21
92.93391519752773
 31
0.0
  0
LINE
  5
15FB
330
A9E
100
AcDbEntity
  8
0
100
AcDbLine
 10
18.54339755901165
 20
93.43391519752774
 30
0.0
 11
19.04339755901165
 21
93.43391519752762
 31
0.0
  0
LINE
  5
15FC
330
A9E
100
AcDbEntity
  8
0
100
AcDbLine
 10
18.54339755901153
 20
92.93391519752773
 30
0.0
 11
19.04339755901153
 21
92.93391519752763
 31
0.0
  0
LINE
  5
15FD
330
A9E
100
AcDbEntity
  8
0
100
AcDbLine
 10
20.54339755901165
 20
93.43391519752723
 30
0.0
 11
20.54339755901153
 21
92.93391519752722
 31
0.0
  0
LINE
  5
15FE
330
A9E
100
AcDbEntity
  8
0
100
AcDbLine
 10
9.493397559013487
 20
111.8839151975299
 30
0.0
 11
22.29339755901457
 21
111.8839151975265
 31
0.0
  0
LINE
  5
15FF
330
A9E
100
AcDbEntity
  8
0
  6
CONTINUOUS
100
AcDbLine
 10
13.77604255901496
 20
116.3428867737054
 30
0.0
 11
15.138060559015
 21
116.3428867737051
 31
0.0
  0
LINE
  5
1600
330
A9E
100
AcDbEntity
  8
0
100
AcDbLine
 10
13.77638655901586
 20
116.3428867737055
 30
0.0
 11
14.15741455901573
 21
116.7805857737055
 31
0.0
  0
LINE
  5
1601
330
A9E
100
AcDbEntity
  8
0
  6
CONTINUOUS
100
AcDbLine
 10
14.15706955901507
 20
116.7805857737054
 30
0.0
 11
15.13806055901508
 21
116.7805857737051
 31
0.0
  0
LINE
  5
1602
330
A9E
100
AcDbEntity
  8
0
100
AcDbLine
 10
15.55474455901526
 20
115.8912347737053
 30
0.0
 11
15.99209955901542
 21
116.2722617737046
 31
0.0
  0
LINE
  5
1603
330
A9E
100
AcDbEntity
  8
0
100
AcDbLine
 10
17.02270055901567
 20
115.8912347737049
 30
0.0
 11
16.58482855901539
 21
116.2722617737044
 31
0.0
  0
LINE
  5
1604
330
A9E
100
AcDbEntity
  8
0
  6
CONTINUOUS
100
AcDbLine
 10
15.5547445590148
 20
115.891234773705
 30
0.0
 11
17.02270055901482
 21
115.8912347737046
 31
0.0
  0
LINE
  5
1605
330
A9E
100
AcDbEntity
  8
0
  6
CONTINUOUS
100
AcDbLine
 10
15.99209955901497
 20
116.2722617737049
 30
0.0
 11
16.58482855901499
 21
116.2722617737048
 31
0.0
  0
LINE
  5
1606
330
A9E
100
AcDbEntity
  8
0
100
AcDbLine
 10
8.815646978088665
 20
111.1085858737455
 30
0.0
 11
16.61564697808862
 21
111.1085858737435
 31
0.0
  0
LINE
  5
1607
330
A9E
100
AcDbEntity
  8
0
100
AcDbLine
 10
19.04339755901565
 20
108.9339151975276
 30
0.0
 11
19.04339755901577
 21
109.4339151975276
 31
0.0
  0
LINE
  5
1608
330
A9E
100
AcDbEntity
  8
0
100
AcDbLine
 10
18.54339755901577
 20
109.4339151975277
 30
0.0
 11
18.54339755901565
 21
108.9339151975277
 31
0.0
  0
LINE
  5
1609
330
A9E
100
AcDbEntity
  8
0
100
AcDbLine
 10
21.04339755901566
 20
108.933915197527
 30
0.0
 11
21.04339755901577
 21
109.433915197527
 31
0.0
  0
LINE
  5
160A
330
A9E
100
AcDbEntity
  8
0
100
AcDbLine
 10
20.54339755901577
 20
109.4339151975272
 30
0.0
 11
20.54339755901565
 21
108.9339151975271
 31
0.0
  0
LINE
  5
160B
330
A9E
100
AcDbEntity
  8
0
100
AcDbLine
 10
20.54339755901565
 20
108.9339151975271
 30
0.0
 11
21.04339755901566
 21
108.933915197527
 31
0.0
  0
LINE
  5
160C
330
A9E
100
AcDbEntity
  8
0
100
AcDbLine
 10
18.54339755901565
 20
108.9339151975277
 30
0.0
 11
19.04339755901565
 21
108.9339151975276
 31
0.0
  0
LINE
  5
160D
330
A9E
100
AcDbEntity
  8
0
 48
0.1
100
AcDbLine
 10
17.29339755901622
 20
111.1339151975278
 30
0.0
 11
22.29339755901623
 21
111.1339151975265
 31
0.0
  0
LINE
  5
160E
330
A9E
100
AcDbEntity
  8
0
100
AcDbLine
 10
20.54339755901577
 20
109.4339151975272
 30
0.0
 11
21.04339755901577
 21
109.433915197527
 31
0.0
  0
LINE
  5
160F
330
A9E
100
AcDbEntity
  8
0
100
AcDbLine
 10
20.88339755901589
 20
109.2739671937695
 30
0.0
 11
20.88339755901583
 21
109.0938632012847
 31
0.0
  0
LINE
  5
1610
330
A9E
100
AcDbEntity
  8
0
100
AcDbLine
 10
20.88339755901583
 20
109.0938632012847
 30
0.0
 11
20.79339755901568
 21
109.0938632012847
 31
0.0
  0
LINE
  5
1611
330
A9E
100
AcDbEntity
  8
0
100
AcDbLine
 10
20.88339755901583
 20
109.0938632012847
 30
0.0
 11
20.79339755901568
 21
109.0938632012847
 31
0.0
  0
LINE
  5
1612
330
A9E
100
AcDbEntity
  8
0
100
AcDbLine
 10
20.88339755901589
 20
109.2739671937695
 30
0.0
 11
20.79339755901574
 21
109.2739671937696
 31
0.0
  0
LINE
  5
1613
330
A9E
100
AcDbEntity
  8
0
100
AcDbLine
 10
20.7033975590156
 20
109.2739671937696
 30
0.0
 11
20.79339755901574
 21
109.2739671937696
 31
0.0
  0
LINE
  5
1614
330
A9E
100
AcDbEntity
  8
0
100
AcDbLine
 10
20.70339755901554
 20
109.0938632012847
 30
0.0
 11
20.79339755901568
 21
109.0938632012847
 31
0.0
  0
LINE
  5
1615
330
A9E
100
AcDbEntity
  8
0
100
AcDbLine
 10
20.70339755901554
 20
109.0938632012847
 30
0.0
 11
20.79339755901568
 21
109.0938632012847
 31
0.0
  0
LINE
  5
1616
330
A9E
100
AcDbEntity
  8
0
100
AcDbLine
 10
20.7033975590156
 20
109.2739671937696
 30
0.0
 11
20.70339755901554
 21
109.0938632012847
 31
0.0
  0
LINE
  5
1617
330
A9E
100
AcDbEntity
  8
0
100
AcDbLine
 10
18.70339755901559
 20
109.2739671937701
 30
0.0
 11
18.70339755901554
 21
109.0938632012852
 31
0.0
  0
LINE
  5
1618
330
A9E
100
AcDbEntity
  8
0
100
AcDbLine
 10
18.70339755901554
 20
109.0938632012852
 30
0.0
 11
18.79339755901568
 21
109.0938632012852
 31
0.0
  0
LINE
  5
1619
330
A9E
100
AcDbEntity
  8
0
100
AcDbLine
 10
18.70339755901554
 20
109.0938632012852
 30
0.0
 11
18.79339755901568
 21
109.0938632012852
 31
0.0
  0
LINE
  5
161A
330
A9E
100
AcDbEntity
  8
0
100
AcDbLine
 10
18.70339755901559
 20
109.2739671937701
 30
0.0
 11
18.79339755901574
 21
109.27396719377
 31
0.0
  0
LINE
  5
161B
330
A9E
100
AcDbEntity
  8
0
100
AcDbLine
 10
18.88339755901589
 20
109.27396719377
 30
0.0
 11
18.79339755901574
 21
109.27396719377
 31
0.0
  0
LINE
  5
161C
330
A9E
100
AcDbEntity
  8
0
100
AcDbLine
 10
18.88339755901583
 20
109.0938632012852
 30
0.0
 11
18.79339755901568
 21
109.0938632012852
 31
0.0
  0
LINE
  5
161D
330
A9E
100
AcDbEntity
  8
0
100
AcDbLine
 10
18.88339755901583
 20
109.0938632012852
 30
0.0
 11
18.79339755901568
 21
109.0938632012852
 31
0.0
  0
LINE
  5
161E
330
A9E
100
AcDbEntity
  8
0
100
AcDbLine
 10
18.88339755901589
 20
109.27396719377
 30
0.0
 11
18.88339755901583
 21
109.0938632012852
 31
0.0
  0
LINE
  5
161F
330
A9E
100
AcDbEntity
  8
0
100
AcDbLine
 10
18.54339755901577
 20
109.4339151975277
 30
0.0
 11
19.04339755901577
 21
109.4339151975276
 31
0.0
  0
LINE
  5
1620
330
A9E
100
AcDbEntity
  8
0
100
AcDbLine
 10
20.54339755901463
 20
104.9339151975271
 30
0.0
 11
21.04339755901463
 21
104.933915197527
 31
0.0
  0
LINE
  5
1621
330
A9E
100
AcDbEntity
  8
0
100
AcDbLine
 10
20.54339755901474
 20
105.4339151975272
 30
0.0
 11
21.04339755901475
 21
105.433915197527
 31
0.0
  0
LINE
  5
1622
330
A9E
100
AcDbEntity
  8
0
100
AcDbLine
 10
20.54339755901409
 20
102.9339151975271
 30
0.0
 11
21.04339755901409
 21
102.933915197527
 31
0.0
  0
LINE
  5
1623
330
A9E
100
AcDbEntity
  8
0
100
AcDbLine
 10
20.54339755901421
 20
103.4339151975272
 30
0.0
 11
21.0433975590142
 21
103.433915197527
 31
0.0
  0
LINE
  5
1624
330
A9E
100
AcDbEntity
  8
0
100
AcDbLine
 10
20.88339755901432
 20
103.2739671937695
 30
0.0
 11
20.88339755901427
 21
103.0938632012847
 31
0.0
  0
LINE
  5
1625
330
A9E
100
AcDbEntity
  8
0
100
AcDbLine
 10
20.88339755901427
 20
103.0938632012847
 30
0.0
 11
20.79339755901412
 21
103.0938632012847
 31
0.0
  0
LINE
  5
1626
330
A9E
100
AcDbEntity
  8
0
100
AcDbLine
 10
20.88339755901427
 20
103.0938632012847
 30
0.0
 11
20.79339755901412
 21
103.0938632012847
 31
0.0
  0
LINE
  5
1627
330
A9E
100
AcDbEntity
  8
0
100
AcDbLine
 10
20.88339755901432
 20
103.2739671937695
 30
0.0
 11
20.79339755901418
 21
103.2739671937696
 31
0.0
  0
LINE
  5
1628
330
A9E
100
AcDbEntity
  8
0
100
AcDbLine
 10
20.70339755901403
 20
103.2739671937696
 30
0.0
 11
20.79339755901418
 21
103.2739671937696
 31
0.0
  0
LINE
  5
1629
330
A9E
100
AcDbEntity
  8
0
100
AcDbLine
 10
20.70339755901398
 20
103.0938632012847
 30
0.0
 11
20.79339755901412
 21
103.0938632012847
 31
0.0
  0
LINE
  5
162A
330
A9E
100
AcDbEntity
  8
0
100
AcDbLine
 10
20.70339755901398
 20
103.0938632012847
 30
0.0
 11
20.79339755901412
 21
103.0938632012847
 31
0.0
  0
LINE
  5
162B
330
A9E
100
AcDbEntity
  8
0
100
AcDbLine
 10
20.70339755901403
 20
103.2739671937696
 30
0.0
 11
20.70339755901398
 21
103.0938632012847
 31
0.0
  0
LINE
  5
162C
330
A9E
100
AcDbEntity
  8
0
100
AcDbLine
 10
21.04339755901409
 20
102.933915197527
 30
0.0
 11
21.0433975590142
 21
103.433915197527
 31
0.0
  0
LINE
  5
162D
330
A9E
100
AcDbEntity
  8
0
100
AcDbLine
 10
21.04339755901463
 20
104.933915197527
 30
0.0
 11
21.04339755901475
 21
105.433915197527
 31
0.0
  0
LINE
  5
162E
330
A9E
100
AcDbEntity
  8
0
100
AcDbLine
 10
20.70339755901451
 20
105.0938632012847
 30
0.0
 11
20.79339755901466
 21
105.0938632012847
 31
0.0
  0
LINE
  5
162F
330
A9E
100
AcDbEntity
  8
0
100
AcDbLine
 10
20.70339755901451
 20
105.0938632012847
 30
0.0
 11
20.79339755901466
 21
105.0938632012847
 31
0.0
  0
LINE
  5
1630
330
A9E
100
AcDbEntity
  8
0
100
AcDbLine
 10
20.8833975590148
 20
105.0938632012847
 30
0.0
 11
20.79339755901466
 21
105.0938632012847
 31
0.0
  0
LINE
  5
1631
330
A9E
100
AcDbEntity
  8
0
100
AcDbLine
 10
20.8833975590148
 20
105.0938632012847
 30
0.0
 11
20.79339755901466
 21
105.0938632012847
 31
0.0
  0
LINE
  5
1632
330
A9E
100
AcDbEntity
  8
0
100
AcDbLine
 10
20.70339755901457
 20
105.2739671937696
 30
0.0
 11
20.79339755901472
 21
105.2739671937696
 31
0.0
  0
LINE
  5
1633
330
A9E
100
AcDbEntity
  8
0
100
AcDbLine
 10
20.88339755901486
 20
105.2739671937695
 30
0.0
 11
20.79339755901472
 21
105.2739671937696
 31
0.0
  0
LINE
  5
1634
330
A9E
100
AcDbEntity
  8
0
100
AcDbLine
 10
20.70339755901457
 20
105.2739671937696
 30
0.0
 11
20.70339755901451
 21
105.0938632012847
 31
0.0
  0
LINE
  5
1635
330
A9E
100
AcDbEntity
  8
0
100
AcDbLine
 10
20.88339755901486
 20
105.2739671937695
 30
0.0
 11
20.8833975590148
 21
105.0938632012847
 31
0.0
  0
LINE
  5
1636
330
A9E
100
AcDbEntity
  8
0
100
AcDbLine
 10
19.04339755901409
 20
102.9339151975276
 30
0.0
 11
19.0433975590142
 21
103.4339151975276
 31
0.0
  0
LINE
  5
1637
330
A9E
100
AcDbEntity
  8
0
100
AcDbLine
 10
18.70339755901403
 20
103.2739671937701
 30
0.0
 11
18.70339755901397
 21
103.0938632012852
 31
0.0
  0
LINE
  5
1638
330
A9E
100
AcDbEntity
  8
0
100
AcDbLine
 10
18.70339755901397
 20
103.0938632012852
 30
0.0
 11
18.79339755901412
 21
103.0938632012852
 31
0.0
  0
LINE
  5
1639
330
A9E
100
AcDbEntity
  8
0
100
AcDbLine
 10
18.70339755901397
 20
103.0938632012852
 30
0.0
 11
18.79339755901412
 21
103.0938632012852
 31
0.0
  0
LINE
  5
163A
330
A9E
100
AcDbEntity
  8
0
100
AcDbLine
 10
18.70339755901403
 20
103.2739671937701
 30
0.0
 11
18.79339755901418
 21
103.27396719377
 31
0.0
  0
LINE
  5
163B
330
A9E
100
AcDbEntity
  8
0
100
AcDbLine
 10
18.88339755901432
 20
103.27396719377
 30
0.0
 11
18.79339755901418
 21
103.27396719377
 31
0.0
  0
LINE
  5
163C
330
A9E
100
AcDbEntity
  8
0
100
AcDbLine
 10
18.88339755901426
 20
103.0938632012852
 30
0.0
 11
18.79339755901412
 21
103.0938632012852
 31
0.0
  0
LINE
  5
163D
330
A9E
100
AcDbEntity
  8
0
100
AcDbLine
 10
18.88339755901426
 20
103.0938632012852
 30
0.0
 11
18.79339755901412
 21
103.0938632012852
 31
0.0
  0
LINE
  5
163E
330
A9E
100
AcDbEntity
  8
0
100
AcDbLine
 10
18.88339755901432
 20
103.27396719377
 30
0.0
 11
18.88339755901426
 21
103.0938632012852
 31
0.0
  0
LINE
  5
163F
330
A9E
100
AcDbEntity
  8
0
100
AcDbLine
 10
18.5433975590142
 20
103.4339151975277
 30
0.0
 11
18.54339755901409
 21
102.9339151975277
 31
0.0
  0
LINE
  5
1640
330
A9E
100
AcDbEntity
  8
0
100
AcDbLine
 10
18.5433975590142
 20
103.4339151975277
 30
0.0
 11
19.0433975590142
 21
103.4339151975276
 31
0.0
  0
LINE
  5
1641
330
A9E
100
AcDbEntity
  8
0
100
AcDbLine
 10
18.54339755901409
 20
102.9339151975277
 30
0.0
 11
19.04339755901409
 21
102.9339151975276
 31
0.0
  0
LINE
  5
1642
330
A9E
100
AcDbEntity
  8
0
100
AcDbLine
 10
20.54339755901421
 20
103.4339151975272
 30
0.0
 11
20.54339755901409
 21
102.9339151975271
 31
0.0
  0
LINE
  5
1643
330
A9E
100
AcDbEntity
  8
0
100
AcDbLine
 10
19.04339755901463
 20
104.9339151975276
 30
0.0
 11
19.04339755901474
 21
105.4339151975276
 31
0.0
  0
LINE
  5
1644
330
A9E
100
AcDbEntity
  8
0
100
AcDbLine
 10
18.54339755901475
 20
105.4339151975277
 30
0.0
 11
18.54339755901463
 21
104.9339151975277
 31
0.0
  0
LINE
  5
1645
330
A9E
100
AcDbEntity
  8
0
100
AcDbLine
 10
18.88339755901481
 20
105.0938632012852
 30
0.0
 11
18.79339755901466
 21
105.0938632012852
 31
0.0
  0
LINE
  5
1646
330
A9E
100
AcDbEntity
  8
0
100
AcDbLine
 10
18.88339755901481
 20
105.0938632012852
 30
0.0
 11
18.79339755901466
 21
105.0938632012852
 31
0.0
  0
LINE
  5
1647
330
A9E
100
AcDbEntity
  8
0
100
AcDbLine
 10
18.70339755901452
 20
105.0938632012852
 30
0.0
 11
18.79339755901466
 21
105.0938632012852
 31
0.0
  0
LINE
  5
1648
330
A9E
100
AcDbEntity
  8
0
100
AcDbLine
 10
18.70339755901452
 20
105.0938632012852
 30
0.0
 11
18.79339755901466
 21
105.0938632012852
 31
0.0
  0
LINE
  5
1649
330
A9E
100
AcDbEntity
  8
0
100
AcDbLine
 10
18.88339755901486
 20
105.27396719377
 30
0.0
 11
18.79339755901472
 21
105.27396719377
 31
0.0
  0
LINE
  5
164A
330
A9E
100
AcDbEntity
  8
0
100
AcDbLine
 10
18.70339755901457
 20
105.2739671937701
 30
0.0
 11
18.79339755901472
 21
105.27396719377
 31
0.0
  0
LINE
  5
164B
330
A9E
100
AcDbEntity
  8
0
100
AcDbLine
 10
18.88339755901486
 20
105.27396719377
 30
0.0
 11
18.88339755901481
 21
105.0938632012852
 31
0.0
  0
LINE
  5
164C
330
A9E
100
AcDbEntity
  8
0
100
AcDbLine
 10
18.70339755901457
 20
105.2739671937701
 30
0.0
 11
18.70339755901452
 21
105.0938632012852
 31
0.0
  0
LINE
  5
164D
330
A9E
100
AcDbEntity
  8
0
100
AcDbLine
 10
18.54339755901463
 20
104.9339151975277
 30
0.0
 11
19.04339755901463
 21
104.9339151975276
 31
0.0
  0
LINE
  5
164E
330
A9E
100
AcDbEntity
  8
0
100
AcDbLine
 10
18.54339755901475
 20
105.4339151975277
 30
0.0
 11
19.04339755901474
 21
105.4339151975276
 31
0.0
  0
LINE
  5
164F
330
A9E
100
AcDbEntity
  8
0
100
AcDbLine
 10
20.54339755901474
 20
105.4339151975272
 30
0.0
 11
20.54339755901463
 21
104.9339151975271
 31
0.0
  0
LINE
  5
1650
330
A9E
100
AcDbEntity
  8
0
100
AcDbLine
 10
20.54339755901514
 20
106.9339151975271
 30
0.0
 11
21.04339755901514
 21
106.933915197527
 31
0.0
  0
LINE
  5
1651
330
A9E
100
AcDbEntity
  8
0
100
AcDbLine
 10
20.54339755901526
 20
107.4339151975272
 30
0.0
 11
21.04339755901526
 21
107.433915197527
 31
0.0
  0
LINE
  5
1652
330
A9E
100
AcDbEntity
  8
0
100
AcDbLine
 10
21.04339755901514
 20
106.933915197527
 30
0.0
 11
21.04339755901526
 21
107.433915197527
 31
0.0
  0
LINE
  5
1653
330
A9E
100
AcDbEntity
  8
0
100
AcDbLine
 10
20.70339755901503
 20
107.0938632012847
 30
0.0
 11
20.79339755901517
 21
107.0938632012847
 31
0.0
  0
LINE
  5
1654
330
A9E
100
AcDbEntity
  8
0
100
AcDbLine
 10
20.70339755901503
 20
107.0938632012847
 30
0.0
 11
20.79339755901517
 21
107.0938632012847
 31
0.0
  0
LINE
  5
1655
330
A9E
100
AcDbEntity
  8
0
100
AcDbLine
 10
20.88339755901532
 20
107.0938632012847
 30
0.0
 11
20.79339755901517
 21
107.0938632012847
 31
0.0
  0
LINE
  5
1656
330
A9E
100
AcDbEntity
  8
0
100
AcDbLine
 10
20.88339755901532
 20
107.0938632012847
 30
0.0
 11
20.79339755901517
 21
107.0938632012847
 31
0.0
  0
LINE
  5
1657
330
A9E
100
AcDbEntity
  8
0
100
AcDbLine
 10
20.70339755901508
 20
107.2739671937696
 30
0.0
 11
20.79339755901523
 21
107.2739671937696
 31
0.0
  0
LINE
  5
1658
330
A9E
100
AcDbEntity
  8
0
100
AcDbLine
 10
20.88339755901537
 20
107.2739671937695
 30
0.0
 11
20.79339755901523
 21
107.2739671937696
 31
0.0
  0
LINE
  5
1659
330
A9E
100
AcDbEntity
  8
0
100
AcDbLine
 10
20.70339755901508
 20
107.2739671937696
 30
0.0
 11
20.70339755901503
 21
107.0938632012847
 31
0.0
  0
LINE
  5
165A
330
A9E
100
AcDbEntity
  8
0
100
AcDbLine
 10
20.88339755901537
 20
107.2739671937695
 30
0.0
 11
20.88339755901532
 21
107.0938632012847
 31
0.0
  0
LINE
  5
165B
330
A9E
100
AcDbEntity
  8
0
100
AcDbLine
 10
19.04339755901514
 20
106.9339151975276
 30
0.0
 11
19.04339755901526
 21
107.4339151975276
 31
0.0
  0
LINE
  5
165C
330
A9E
100
AcDbEntity
  8
0
100
AcDbLine
 10
18.54339755901526
 20
107.4339151975277
 30
0.0
 11
18.54339755901514
 21
106.9339151975277
 31
0.0
  0
LINE
  5
165D
330
A9E
100
AcDbEntity
  8
0
100
AcDbLine
 10
18.88339755901532
 20
107.0938632012852
 30
0.0
 11
18.79339755901517
 21
107.0938632012852
 31
0.0
  0
LINE
  5
165E
330
A9E
100
AcDbEntity
  8
0
100
AcDbLine
 10
18.88339755901532
 20
107.0938632012852
 30
0.0
 11
18.79339755901517
 21
107.0938632012852
 31
0.0
  0
LINE
  5
165F
330
A9E
100
AcDbEntity
  8
0
100
AcDbLine
 10
18.70339755901503
 20
107.0938632012852
 30
0.0
 11
18.79339755901517
 21
107.0938632012852
 31
0.0
  0
LINE
  5
1660
330
A9E
100
AcDbEntity
  8
0
100
AcDbLine
 10
18.70339755901503
 20
107.0938632012852
 30
0.0
 11
18.79339755901517
 21
107.0938632012852
 31
0.0
  0
LINE
  5
1661
330
A9E
100
AcDbEntity
  8
0
100
AcDbLine
 10
18.88339755901538
 20
107.27396719377
 30
0.0
 11
18.79339755901523
 21
107.27396719377
 31
0.0
  0
LINE
  5
1662
330
A9E
100
AcDbEntity
  8
0
100
AcDbLine
 10
18.70339755901508
 20
107.2739671937701
 30
0.0
 11
18.79339755901523
 21
107.27396719377
 31
0.0
  0
LINE
  5
1663
330
A9E
100
AcDbEntity
  8
0
100
AcDbLine
 10
18.88339755901538
 20
107.27396719377
 30
0.0
 11
18.88339755901532
 21
107.0938632012852
 31
0.0
  0
LINE
  5
1664
330
A9E
100
AcDbEntity
  8
0
100
AcDbLine
 10
18.70339755901508
 20
107.2739671937701
 30
0.0
 11
18.70339755901503
 21
107.0938632012852
 31
0.0
  0
LINE
  5
1665
330
A9E
100
AcDbEntity
  8
0
100
AcDbLine
 10
18.54339755901514
 20
106.9339151975277
 30
0.0
 11
19.04339755901514
 21
106.9339151975276
 31
0.0
  0
LINE
  5
1666
330
A9E
100
AcDbEntity
  8
0
100
AcDbLine
 10
18.54339755901526
 20
107.4339151975277
 30
0.0
 11
19.04339755901526
 21
107.4339151975276
 31
0.0
  0
LINE
  5
1667
330
A9E
100
AcDbEntity
  8
0
100
AcDbLine
 10
20.54339755901526
 20
107.4339151975272
 30
0.0
 11
20.54339755901514
 21
106.9339151975271
 31
0.0
  0
LINE
  5
1668
330
A9E
100
AcDbEntity
  8
0
  6
BYBLOCK
100
AcDbLine
 10
15.04339755902464
 20
130.7618794010879
 30
0.0
 11
15.04339755902464
 21
131.3618794010883
 31
0.0
  0
LINE
  5
1669
330
A9E
100
AcDbEntity
  8
0
  6
BYBLOCK
100
AcDbLine
 10
14.44339755902427
 20
130.7618794010879
 30
0.0
 11
14.44339755902427
 21
131.3618794010883
 31
0.0
  0
LINE
  5
166A
330
A9E
100
AcDbEntity
  8
0
  6
BYBLOCK
100
AcDbLine
 10
20.04339755902464
 20
130.7618794010879
 30
0.0
 11
20.04339755902464
 21
131.3618794010883
 31
0.0
  0
LINE
  5
166B
330
A9E
100
AcDbEntity
  8
0
  6
BYBLOCK
100
AcDbLine
 10
19.44339755902427
 20
130.7618794010879
 30
0.0
 11
19.44339755902427
 21
131.3618794010883
 31
0.0
  0
LINE
  5
166C
330
A9E
100
AcDbEntity
  8
0
  6
BYBLOCK
100
AcDbLine
 10
10.79339755902464
 20
128.3618794010881
 30
0.0
 11
10.79339755902464
 21
133.0624165403579
 31
0.0
  0
LINE
  5
166D
330
A9E
100
AcDbEntity
  8
0
  6
BYBLOCK
100
AcDbLine
 10
11.59339755902755
 20
133.0624165403579
 30
0.0
 11
11.59339755902391
 21
129.1618794010883
 31
0.0
  0
LINE
  5
166E
330
A9E
100
AcDbEntity
  8
0
  6
BYBLOCK
100
AcDbLine
 10
10.79339755902464
 20
128.3618794010881
 30
0.0
 11
22.29339755902464
 21
128.3618794010881
 31
0.0
  0
LINE
  5
166F
330
A9E
100
AcDbEntity
  8
0
  6
BYBLOCK
100
AcDbLine
 10
11.59339755902391
 20
129.1618794010883
 30
0.0
 11
22.29339755902464
 21
129.1618794010883
 31
0.0
  0
LINE
  5
1670
330
A9E
100
AcDbEntity
  8
0
100
AcDbLine
 10
9.493397559017097
 20
125.8839151975299
 30
0.0
 11
22.29339755901818
 21
125.8839151975265
 31
0.0
  0
LINE
  5
1671
330
A9E
100
AcDbEntity
  8
0
  6
BYBLOCK
100
AcDbLine
 10
13.46256868751032
 20
129.1618794010883
 30
0.0
 11
13.46256868751032
 21
128.3618794010881
 31
0.0
  0
LINE
  5
1672
330
A9E
100
AcDbEntity
  8
0
  6
BYBLOCK
100
AcDbLine
 10
14.44339755902427
 20
130.7618794010879
 30
0.0
 11
15.04339755902464
 21
130.7618794010879
 31
0.0
  0
LINE
  5
1673
330
A9E
100
AcDbEntity
  8
0
  6
CONTINUOUS
100
AcDbLine
 10
13.7760425590159
 20
120.0268997737054
 30
0.0
 11
15.13806055901594
 21
120.0268997737051
 31
0.0
  0
LINE
  5
1674
330
A9E
100
AcDbEntity
  8
0
  6
CONTINUOUS
100
AcDbLine
 10
15.13806055901631
 20
121.4948547737051
 30
0.0
 11
13.77604255901627
 21
121.4948547737055
 31
0.0
  0
LINE
  5
1675
330
A9E
100
AcDbEntity
  8
0
  6
CONTINUOUS
100
AcDbLine
 10
15.13806055901537
 20
117.8108417737051
 30
0.0
 11
13.77604255901533
 21
117.8108417737055
 31
0.0
  0
LINE
  5
1676
330
A9E
100
AcDbEntity
  8
0
  6
CONTINUOUS
100
AcDbLine
 10
13.77604255901542
 20
118.1846347737054
 30
0.0
 11
15.13806055901545
 21
118.1846347737051
 31
0.0
  0
LINE
  5
1677
330
A9E
100
AcDbEntity
  8
0
  6
CONTINUOUS
100
AcDbLine
 10
15.13806055901582
 20
119.6525897737051
 30
0.0
 11
13.77604255901579
 21
119.6525897737055
 31
0.0
  0
LINE
  5
1678
330
A9E
100
AcDbEntity
  8
0
100
AcDbLine
 10
13.77638655901631
 20
118.1846347737044
 30
0.0
 11
14.15741455901621
 21
118.6225067737048
 31
0.0
  0
LINE
  5
1679
330
A9E
100
AcDbEntity
  8
0
100
AcDbLine
 10
13.77638655901623
 20
117.8108417737055
 30
0.0
 11
14.1574145590159
 21
117.3733147737054
 31
0.0
  0
LINE
  5
167A
330
A9E
100
AcDbEntity
  8
0
100
AcDbLine
 10
13.77638655901717
 20
121.4945097737052
 30
0.0
 11
14.15741455901684
 21
121.0569827737051
 31
0.0
  0
LINE
  5
167B
330
A9E
100
AcDbEntity
  8
0
100
AcDbLine
 10
13.77638655901679
 20
120.0268997737055
 30
0.0
 11
14.1574145590167
 21
120.4644267737055
 31
0.0
  0
LINE
  5
167C
330
A9E
100
AcDbEntity
  8
0
100
AcDbLine
 10
13.77638655901668
 20
119.6525897737044
 30
0.0
 11
14.15741455901636
 21
119.2152347737044
 31
0.0
  0
LINE
  5
167D
330
A9E
100
AcDbEntity
  8
0
  6
CONTINUOUS
100
AcDbLine
 10
14.15706955901555
 20
118.6225067737053
 30
0.0
 11
15.13806055901557
 21
118.6225067737051
 31
0.0
  0
LINE
  5
167E
330
A9E
100
AcDbEntity
  8
0
  6
CONTINUOUS
100
AcDbLine
 10
15.13806055901571
 20
119.2152347737051
 30
0.0
 11
14.15706955901569
 21
119.2152347737054
 31
0.0
  0
LINE
  5
167F
330
A9E
100
AcDbEntity
  8
0
  6
CONTINUOUS
100
AcDbLine
 10
15.13806055901525
 20
117.3733147737051
 30
0.0
 11
14.15706955901524
 21
117.3733147737053
 31
0.0
  0
LINE
  5
1680
330
A9E
100
AcDbEntity
  8
0
  6
CONTINUOUS
100
AcDbLine
 10
14.15706955901603
 20
120.4644267737054
 30
0.0
 11
15.13806055901605
 21
120.4644267737051
 31
0.0
  0
LINE
  5
1681
330
A9E
100
AcDbEntity
  8
0
  6
CONTINUOUS
100
AcDbLine
 10
15.13806055901619
 20
121.0569827737051
 30
0.0
 11
14.15706955901617
 21
121.0569827737053
 31
0.0
  0
LINE
  5
1682
330
A9E
100
AcDbEntity
  8
0
  6
CONTINUOUS
100
AcDbLine
 10
15.13806055901557
 20
118.6225067737051
 30
0.0
 11
15.13806055901571
 21
119.2152347737051
 31
0.0
  0
LINE
  5
1683
330
A9E
100
AcDbEntity
  8
0
  6
CONTINUOUS
100
AcDbLine
 10
15.13806055901545
 20
118.1846347737051
 30
0.0
 11
15.13806055901582
 21
119.6525897737051
 31
0.0
  0
LINE
  5
1684
330
A9E
100
AcDbEntity
  8
0
  6
CONTINUOUS
100
AcDbLine
 10
15.13806055901594
 20
120.0268997737051
 30
0.0
 11
15.13806055901631
 21
121.4948547737051
 31
0.0
  0
LINE
  5
1685
330
A9E
100
AcDbEntity
  8
0
  6
CONTINUOUS
100
AcDbLine
 10
15.13806055901605
 20
120.4644267737051
 30
0.0
 11
15.13806055901619
 21
121.0569827737051
 31
0.0
  0
LINE
  5
1686
330
A9E
100
AcDbEntity
  8
0
  6
CONTINUOUS
100
AcDbLine
 10
14.15706955901569
 20
119.2152347737054
 30
0.0
 11
14.15706955901555
 21
118.6225067737053
 31
0.0
  0
LINE
  5
1687
330
A9E
100
AcDbEntity
  8
0
  6
CONTINUOUS
100
AcDbLine
 10
14.15706955901617
 20
121.0569827737053
 30
0.0
 11
14.15706955901603
 21
120.4644267737054
 31
0.0
  0
LINE
  5
1688
330
A9E
100
AcDbEntity
  8
0
  6
CONTINUOUS
100
AcDbLine
 10
13.77604255901579
 20
119.6525897737055
 30
0.0
 11
13.77604255901542
 21
118.1846347737054
 31
0.0
  0
LINE
  5
1689
330
A9E
100
AcDbEntity
  8
0
  6
CONTINUOUS
100
AcDbLine
 10
11.23562855901548
 20
118.1494947737061
 30
0.0
 11
13.1550635590155
 21
118.1494947737056
 31
0.0
  0
LINE
  5
168A
330
A9E
100
AcDbEntity
  8
0
  6
CONTINUOUS
100
AcDbLine
 10
11.23562855901585
 20
119.6172777737061
 30
0.0
 11
11.23562855901548
 21
118.1494947737061
 31
0.0
  0
LINE
  5
168B
330
A9E
100
AcDbEntity
  8
0
  6
CONTINUOUS
100
AcDbLine
 10
13.15506355901587
 20
119.6172777737056
 30
0.0
 11
11.23562855901585
 21
119.6172777737061
 31
0.0
  0
LINE
  5
168C
330
A9E
100
AcDbEntity
  8
0
  6
CONTINUOUS
100
AcDbLine
 10
13.1550635590155
 20
118.1494947737056
 30
0.0
 11
13.15506355901587
 21
119.6172777737056
 31
0.0
  0
LINE
  5
168D
330
A9E
100
AcDbEntity
  8
0
  6
CONTINUOUS
100
AcDbLine
 10
11.23562855901548
 20
118.1494947737061
 30
0.0
 11
13.1550635590155
 21
118.1494947737056
 31
0.0
  0
LINE
  5
168E
330
A9E
100
AcDbEntity
  8
0
  6
CONTINUOUS
100
AcDbLine
 10
11.23562855901585
 20
119.6172777737061
 30
0.0
 11
11.23562855901548
 21
118.1494947737061
 31
0.0
  0
LINE
  5
168F
330
A9E
100
AcDbEntity
  8
0
  6
CONTINUOUS
100
AcDbLine
 10
13.15506355901587
 20
119.6172777737056
 30
0.0
 11
11.23562855901585
 21
119.6172777737061
 31
0.0
  0
LINE
  5
1690
330
A9E
100
AcDbEntity
  8
0
  6
CONTINUOUS
100
AcDbLine
 10
13.1550635590155
 20
118.1494947737056
 30
0.0
 11
13.15506355901587
 21
119.6172777737056
 31
0.0
  0
LINE
  5
1691
330
A9E
100
AcDbEntity
  8
0
  6
CONTINUOUS
100
AcDbLine
 10
13.77604255901627
 20
121.4948547737055
 30
0.0
 11
13.7760425590159
 21
120.0268997737054
 31
0.0
  0
LINE
  5
1692
330
A9E
100
AcDbEntity
  8
0
  6
CONTINUOUS
100
AcDbLine
 10
15.55474455901588
 20
119.977462773705
 30
0.0
 11
15.55474455901554
 21
118.615443773705
 31
0.0
  0
LINE
  5
1693
330
A9E
100
AcDbEntity
  8
0
  6
CONTINUOUS
100
AcDbLine
 10
17.02270055901556
 20
118.6154437737046
 30
0.0
 11
17.0227005590159
 21
119.9774627737047
 31
0.0
  0
LINE
  5
1694
330
A9E
100
AcDbEntity
  8
0
100
AcDbLine
 10
15.55474455901634
 20
119.9774627737054
 30
0.0
 11
15.99209955901628
 21
119.5960907737036
 31
0.0
  0
LINE
  5
1695
330
A9E
100
AcDbEntity
  8
0
100
AcDbLine
 10
17.02270055901675
 20
119.977462773705
 30
0.0
 11
16.58517355901662
 21
119.5960907737035
 31
0.0
  0
LINE
  5
1696
330
A9E
100
AcDbEntity
  8
0
  6
CONTINUOUS
100
AcDbLine
 10
15.99261655901557
 20
118.6154437737049
 30
0.0
 11
16.58517355901557
 21
118.6154437737047
 31
0.0
  0
LINE
  5
1697
330
A9E
100
AcDbEntity
  8
0
  6
CONTINUOUS
100
AcDbLine
 10
15.99261655901583
 20
119.5964347737049
 30
0.0
 11
15.99261655901557
 21
118.6154437737049
 31
0.0
  0
LINE
  5
1698
330
A9E
100
AcDbEntity
  8
0
  6
CONTINUOUS
100
AcDbLine
 10
16.58517355901582
 20
119.5964347737048
 30
0.0
 11
15.99261655901583
 21
119.5964347737049
 31
0.0
  0
LINE
  5
1699
330
A9E
100
AcDbEntity
  8
0
  6
CONTINUOUS
100
AcDbLine
 10
16.58517355901557
 20
118.6154437737047
 30
0.0
 11
16.58517355901582
 21
119.5964347737048
 31
0.0
  0
LINE
  5
169A
330
A9E
100
AcDbEntity
  8
0
  6
CONTINUOUS
100
AcDbLine
 10
16.58482855901524
 20
117.2534257737047
 30
0.0
 11
15.99209955901523
 21
117.2534257737049
 31
0.0
  0
LINE
  5
169B
330
A9E
100
AcDbEntity
  8
0
  6
CONTINUOUS
100
AcDbLine
 10
15.55474455901554
 20
118.615443773705
 30
0.0
 11
17.02270055901556
 21
118.6154437737046
 31
0.0
  0
LINE
  5
169C
330
A9E
100
AcDbEntity
  8
0
  6
CONTINUOUS
100
AcDbLine
 10
17.02270055901522
 20
117.2534257737046
 30
0.0
 11
15.5547445590152
 21
117.253425773705
 31
0.0
  0
LINE
  5
169D
330
A9E
100
AcDbEntity
  8
0
  6
CONTINUOUS
100
AcDbLine
 10
15.99261655901602
 20
120.4361767737049
 30
0.0
 11
16.58517355901602
 21
120.4361767737047
 31
0.0
  0
LINE
  5
169E
330
A9E
100
AcDbEntity
  8
0
  6
CONTINUOUS
100
AcDbLine
 10
15.99261655901628
 20
121.4171677737049
 30
0.0
 11
15.99261655901602
 21
120.4361767737049
 31
0.0
  0
LINE
  5
169F
330
A9E
100
AcDbEntity
  8
0
  6
CONTINUOUS
100
AcDbLine
 10
16.58517355901628
 20
121.4171677737048
 30
0.0
 11
15.99261655901628
 21
121.4171677737049
 31
0.0
  0
LINE
  5
16A0
330
A9E
100
AcDbEntity
  8
0
  6
CONTINUOUS
100
AcDbLine
 10
16.58517355901602
 20
120.4361767737047
 30
0.0
 11
16.58517355901628
 21
121.4171677737048
 31
0.0
  0
LINE
  5
16A1
330
A9E
100
AcDbEntity
  8
0
  6
CONTINUOUS
100
AcDbLine
 10
15.554744559016
 20
120.436176773705
 30
0.0
 11
17.02270055901601
 21
120.4361767737046
 31
0.0
  0
LINE
  5
16A2
330
A9E
100
AcDbEntity
  8
0
  6
CONTINUOUS
100
AcDbLine
 10
15.55474455901637
 20
121.798195773705
 30
0.0
 11
15.554744559016
 21
120.436176773705
 31
0.0
  0
LINE
  5
16A3
330
A9E
100
AcDbEntity
  8
0
  6
CONTINUOUS
100
AcDbLine
 10
17.02270055901638
 20
121.7981957737047
 30
0.0
 11
15.55474455901637
 21
121.798195773705
 31
0.0
  0
LINE
  5
16A4
330
A9E
100
AcDbEntity
  8
0
  6
CONTINUOUS
100
AcDbLine
 10
17.02270055901601
 20
120.4361767737046
 30
0.0
 11
17.02270055901638
 21
121.7981957737047
 31
0.0
  0
LINE
  5
16A5
330
A9E
100
AcDbEntity
  8
0
  6
CONTINUOUS
100
AcDbLine
 10
17.0227005590159
 20
119.9774627737047
 30
0.0
 11
15.55474455901588
 21
119.977462773705
 31
0.0
  0
LINE
  5
16A6
330
A9E
100
AcDbEntity
  8
0
100
AcDbLine
 10
17.02270055901723
 20
121.7981957737036
 30
0.0
 11
16.58517355901707
 21
121.4168237737039
 31
0.0
  0
LINE
  5
16A7
330
A9E
100
AcDbEntity
  8
0
100
AcDbLine
 10
15.55474455901682
 20
121.798195773704
 30
0.0
 11
15.99209955901673
 21
121.4168237737041
 31
0.0
  0
LINE
  5
16A8
330
A9E
100
AcDbEntity
  8
0
  6
BYBLOCK
100
AcDbLine
 10
19.44339755902427
 20
130.7618794010879
 30
0.0
 11
20.04339755902464
 21
130.7618794010879
 31
0.0
  0
LINE
  5
16A9
330
A9E
100
AcDbEntity
  8
0
  6
CONTINUOUS
100
AcDbLine
 10
18.33493755901597
 20
120.0904617737043
 30
0.0
 11
18.33493755901571
 21
119.1092987737043
 31
0.0
  0
LINE
  5
16AA
330
A9E
100
AcDbEntity
  8
0
  6
CONTINUOUS
100
AcDbLine
 10
17.74238055901571
 20
119.1092987737045
 30
0.0
 11
17.74238055901597
 21
120.0904617737044
 31
0.0
  0
LINE
  5
16AB
330
A9E
100
AcDbEntity
  8
0
  6
CONTINUOUS
100
AcDbLine
 10
18.77280855901605
 20
120.4714887737042
 30
0.0
 11
18.77280855901568
 21
119.1092987737042
 31
0.0
  0
LINE
  5
16AC
330
A9E
100
AcDbEntity
  8
0
  6
CONTINUOUS
100
AcDbLine
 10
17.30485355901572
 20
119.1092987737046
 30
0.0
 11
17.30485355901609
 21
120.4714887737045
 31
0.0
  0
LINE
  5
16AD
330
A9E
100
AcDbEntity
  8
0
  6
CONTINUOUS
100
AcDbLine
 10
18.33493755901571
 20
119.1092987737043
 30
0.0
 11
17.74238055901571
 21
119.1092987737045
 31
0.0
  0
LINE
  5
16AE
330
A9E
100
AcDbEntity
  8
0
  6
CONTINUOUS
100
AcDbLine
 10
18.77280855901568
 20
119.1092987737042
 30
0.0
 11
17.30485355901572
 21
119.1092987737046
 31
0.0
  0
LINE
  5
16AF
330
A9E
100
AcDbEntity
  8
0
  6
CONTINUOUS
100
AcDbLine
 10
17.30485355901527
 20
117.2816747737045
 30
0.0
 11
18.77280855901523
 21
117.2816747737041
 31
0.0
  0
LINE
  5
16B0
330
A9E
100
AcDbEntity
  8
0
  6
CONTINUOUS
100
AcDbLine
 10
17.30485355901561
 20
118.6436937737046
 30
0.0
 11
17.30485355901527
 21
117.2816747737045
 31
0.0
  0
LINE
  5
16B1
330
A9E
100
AcDbEntity
  8
0
  6
CONTINUOUS
100
AcDbLine
 10
18.77280855901557
 20
118.6436937737042
 30
0.0
 11
17.30485355901561
 21
118.6436937737046
 31
0.0
  0
LINE
  5
16B2
330
A9E
100
AcDbEntity
  8
0
  6
CONTINUOUS
100
AcDbLine
 10
18.77280855901523
 20
117.2816747737041
 30
0.0
 11
18.77280855901557
 21
118.6436937737042
 31
0.0
  0
LINE
  5
16B3
330
A9E
100
AcDbEntity
  8
0
  6
CONTINUOUS
100
AcDbLine
 10
17.74238055901534
 20
117.6625307737044
 30
0.0
 11
18.33493755901534
 21
117.6625307737043
 31
0.0
  0
LINE
  5
16B4
330
A9E
100
AcDbEntity
  8
0
  6
CONTINUOUS
100
AcDbLine
 10
17.7423805590156
 20
118.6436937737045
 30
0.0
 11
17.74238055901534
 21
117.6625307737044
 31
0.0
  0
LINE
  5
16B5
330
A9E
100
AcDbEntity
  8
0
  6
CONTINUOUS
100
AcDbLine
 10
18.3349375590156
 20
118.6436937737044
 30
0.0
 11
17.7423805590156
 21
118.6436937737045
 31
0.0
  0
LINE
  5
16B6
330
A9E
100
AcDbEntity
  8
0
  6
CONTINUOUS
100
AcDbLine
 10
18.33493755901534
 20
117.6625307737043
 30
0.0
 11
18.3349375590156
 21
118.6436937737044
 31
0.0
  0
LINE
  5
16B7
330
A9E
100
AcDbEntity
  8
0
100
AcDbLine
 10
18.77280855901625
 20
117.2816747737036
 30
0.0
 11
18.33493755901625
 21
117.6625307737035
 31
0.0
  0
LINE
  5
16B8
330
A9E
100
AcDbEntity
  8
0
100
AcDbLine
 10
17.30485355901618
 20
117.281674773704
 30
0.0
 11
17.74238055901631
 21
117.6625307737037
 31
0.0
  0
LINE
  5
16B9
330
A9E
100
AcDbEntity
  8
0
  6
CONTINUOUS
100
AcDbLine
 10
17.74238055901597
 20
120.0904617737044
 30
0.0
 11
18.33493755901597
 21
120.0904617737043
 31
0.0
  0
LINE
  5
16BA
330
A9E
100
AcDbEntity
  8
0
  6
CONTINUOUS
100
AcDbLine
 10
17.30485355901609
 20
120.4714887737045
 30
0.0
 11
18.77280855901605
 21
120.4714887737042
 31
0.0
  0
LINE
  5
16BB
330
A9E
100
AcDbEntity
  8
0
100
AcDbLine
 10
18.77280855901707
 20
120.471488773703
 30
0.0
 11
18.33493755901687
 21
120.0904617737037
 31
0.0
  0
LINE
  5
16BC
330
A9E
100
AcDbEntity
  8
0
100
AcDbLine
 10
17.304853559017
 20
120.4714887737034
 30
0.0
 11
17.74238055901693
 21
120.0904617737039
 31
0.0
  0
LINE
  5
16BD
330
A9E
100
AcDbEntity
  8
0
  6
BYBLOCK
100
AcDbLine
 10
10.79339755902464
 20
143.7618794010881
 30
0.0
 11
22.29339755902464
 21
143.7618794010881
 31
0.0
  0
LINE
  5
16BE
330
A9E
100
AcDbEntity
  8
0
  6
BYBLOCK
100
AcDbLine
 10
11.59339755902391
 20
142.9618794010879
 30
0.0
 11
22.29339755902464
 21
142.9618794010879
 31
0.0
  0
LINE
  5
16BF
330
A9E
100
AcDbEntity
  8
0
  6
BYBLOCK
100
AcDbLine
 10
15.04339755902464
 20
132.7618794010879
 30
0.0
 11
15.04339755902464
 21
133.3618794010883
 31
0.0
  0
LINE
  5
16C0
330
A9E
100
AcDbEntity
  8
0
  6
BYBLOCK
100
AcDbLine
 10
14.44339755902427
 20
132.7618794010879
 30
0.0
 11
15.04339755902464
 21
132.7618794010879
 31
0.0
  0
LINE
  5
16C1
330
A9E
100
AcDbEntity
  8
0
  6
BYBLOCK
100
AcDbLine
 10
14.44339755902427
 20
133.3618794010883
 30
0.0
 11
15.04339755902464
 21
133.3618794010883
 31
0.0
  0
LINE
  5
16C2
330
A9E
100
AcDbEntity
  8
0
  6
BYBLOCK
100
AcDbLine
 10
14.44339755902427
 20
132.7618794010879
 30
0.0
 11
14.44339755902427
 21
133.3618794010883
 31
0.0
  0
LINE
  5
16C3
330
A9E
100
AcDbEntity
  8
0
  6
BYBLOCK
100
AcDbLine
 10
14.44339755902427
 20
134.7618794010879
 30
0.0
 11
15.04339755902464
 21
134.7618794010879
 31
0.0
  0
LINE
  5
16C4
330
A9E
100
AcDbEntity
  8
0
  6
BYBLOCK
100
AcDbLine
 10
15.04339755902464
 20
140.7618794010879
 30
0.0
 11
15.04339755902464
 21
141.3618794010883
 31
0.0
  0
LINE
  5
16C5
330
A9E
100
AcDbEntity
  8
0
  6
BYBLOCK
100
AcDbLine
 10
14.44339755902427
 20
140.7618794010879
 30
0.0
 11
15.04339755902464
 21
140.7618794010879
 31
0.0
  0
LINE
  5
16C6
330
A9E
100
AcDbEntity
  8
0
  6
BYBLOCK
100
AcDbLine
 10
14.44339755902427
 20
141.3618794010883
 30
0.0
 11
15.04339755902464
 21
141.3618794010883
 31
0.0
  0
LINE
  5
16C7
330
A9E
100
AcDbEntity
  8
0
  6
BYBLOCK
100
AcDbLine
 10
14.44339755902427
 20
140.7618794010879
 30
0.0
 11
14.44339755902427
 21
141.3618794010883
 31
0.0
  0
LINE
  5
16C8
330
A9E
100
AcDbEntity
  8
0
  6
BYBLOCK
100
AcDbLine
 10
15.04339755902464
 20
138.7618794010879
 30
0.0
 11
15.04339755902464
 21
139.3618794010883
 31
0.0
  0
LINE
  5
16C9
330
A9E
100
AcDbEntity
  8
0
  6
BYBLOCK
100
AcDbLine
 10
14.44339755902427
 20
138.7618794010879
 30
0.0
 11
15.04339755902464
 21
138.7618794010879
 31
0.0
  0
LINE
  5
16CA
330
A9E
100
AcDbEntity
  8
0
  6
BYBLOCK
100
AcDbLine
 10
14.44339755902427
 20
139.3618794010883
 30
0.0
 11
15.04339755902464
 21
139.3618794010883
 31
0.0
  0
LINE
  5
16CB
330
A9E
100
AcDbEntity
  8
0
  6
BYBLOCK
100
AcDbLine
 10
14.44339755902427
 20
138.7618794010879
 30
0.0
 11
14.44339755902427
 21
139.3618794010883
 31
0.0
  0
LINE
  5
16CC
330
A9E
100
AcDbEntity
  8
0
  6
BYBLOCK
100
AcDbLine
 10
15.04339755902464
 20
136.7618794010879
 30
0.0
 11
15.04339755902464
 21
137.3618794010883
 31
0.0
  0
LINE
  5
16CD
330
A9E
100
AcDbEntity
  8
0
  6
BYBLOCK
100
AcDbLine
 10
14.44339755902427
 20
136.7618794010879
 30
0.0
 11
15.04339755902464
 21
136.7618794010879
 31
0.0
  0
LINE
  5
16CE
330
A9E
100
AcDbEntity
  8
0
  6
BYBLOCK
100
AcDbLine
 10
14.44339755902427
 20
137.3618794010883
 30
0.0
 11
15.04339755902464
 21
137.3618794010883
 31
0.0
  0
LINE
  5
16CF
330
A9E
100
AcDbEntity
  8
0
  6
BYBLOCK
100
AcDbLine
 10
14.44339755902427
 20
136.7618794010879
 30
0.0
 11
14.44339755902427
 21
137.3618794010883
 31
0.0
  0
LINE
  5
16D0
330
A9E
100
AcDbEntity
  8
0
  6
BYBLOCK
100
AcDbLine
 10
14.44339755902427
 20
135.3618794010883
 30
0.0
 11
15.04339755902464
 21
135.3618794010883
 31
0.0
  0
LINE
  5
16D1
330
A9E
100
AcDbEntity
  8
0
  6
BYBLOCK
100
AcDbLine
 10
13.46256868751032
 20
143.7618794010881
 30
0.0
 11
13.46256868751032
 21
142.9618794010888
 31
0.0
  0
LINE
  5
16D2
330
A9E
100
AcDbEntity
  8
0
  6
BYBLOCK
100
AcDbLine
 10
15.04339755902464
 20
134.7618794010879
 30
0.0
 11
15.04339755902464
 21
135.3618794010883
 31
0.0
  0
LINE
  5
16D3
330
A9E
100
AcDbEntity
  8
0
  6
BYBLOCK
100
AcDbLine
 10
14.44339755902427
 20
134.7618794010879
 30
0.0
 11
14.44339755902427
 21
135.3618794010883
 31
0.0
  0
LINE
  5
16D4
330
A9E
100
AcDbEntity
  8
0
  6
BYBLOCK
100
AcDbLine
 10
10.59339755902755
 20
133.0624165403579
 30
0.0
 11
10.59339755902755
 21
136.0624165403579
 31
0.0
  0
LINE
  5
16D5
330
A9E
100
AcDbEntity
  8
0
  6
BYBLOCK
100
AcDbLine
 10
11.09339755902755
 20
134.0624165403579
 30
0.0
 11
11.09339755902755
 21
136.0624165403579
 31
0.0
  0
LINE
  5
16D6
330
A9E
100
AcDbEntity
  8
0
  6
BYBLOCK
100
AcDbLine
 10
12.59339755902755
 20
134.0624165403579
 30
0.0
 11
12.59339755902755
 21
133.0624165403579
 31
0.0
  0
LINE
  5
16D7
330
A9E
100
AcDbEntity
  8
0
  6
BYBLOCK
100
AcDbLine
 10
12.59339755902755
 20
134.0624165403579
 30
0.0
 11
11.09339755902755
 21
134.0624165403579
 31
0.0
  0
LINE
  5
16D8
330
A9E
100
AcDbEntity
  8
0
  6
BYBLOCK
100
AcDbLine
 10
12.59339755902755
 20
133.0624165403579
 30
0.0
 11
10.59339755902755
 21
133.0624165403579
 31
0.0
  0
LINE
  5
16D9
330
A9E
100
AcDbEntity
  8
0
  6
BYBLOCK
100
AcDbLine
 10
10.79339755902464
 20
143.7618794010881
 30
0.0
 11
10.79339755902464
 21
139.5624165403579
 31
0.0
  0
LINE
  5
16DA
330
A9E
100
AcDbEntity
  8
0
  6
BYBLOCK
100
AcDbLine
 10
11.59339755902755
 20
139.5624165403579
 30
0.0
 11
11.59339755902391
 21
142.9618794010879
 31
0.0
  0
LINE
  5
16DB
330
A9E
100
AcDbEntity
  8
0
  6
BYBLOCK
100
AcDbLine
 10
12.59339755902755
 20
138.5624165403579
 30
0.0
 11
12.59339755902755
 21
139.5624165403579
 31
0.0
  0
LINE
  5
16DC
330
A9E
100
AcDbEntity
  8
0
  6
BYBLOCK
100
AcDbLine
 10
12.59339755902755
 20
139.5624165403579
 30
0.0
 11
10.59339755902755
 21
139.5624165403579
 31
0.0
  0
LINE
  5
16DD
330
A9E
100
AcDbEntity
  8
0
  6
BYBLOCK
100
AcDbLine
 10
10.59339755902755
 20
139.5624165403579
 30
0.0
 11
10.59339755902755
 21
136.062416540357
 31
0.0
  0
LINE
  5
16DE
330
A9E
100
AcDbEntity
  8
0
  6
BYBLOCK
100
AcDbLine
 10
11.09339755902755
 20
138.5624165403579
 30
0.0
 11
11.09339755902755
 21
136.062416540357
 31
0.0
  0
LINE
  5
16DF
330
A9E
100
AcDbEntity
  8
0
  6
BYBLOCK
100
AcDbLine
 10
11.34339755902755
 20
136.062416540357
 30
0.0
 11
11.34339755902755
 21
137.062416540357
 31
0.0
  0
LINE
  5
16E0
330
A9E
100
AcDbEntity
  8
0
  6
BYBLOCK
100
AcDbLine
 10
11.34339755902755
 20
137.062416540357
 30
0.0
 11
11.09339755902755
 21
137.062416540357
 31
0.0
  0
LINE
  5
16E1
330
A9E
100
AcDbEntity
  8
0
  6
BYBLOCK
100
AcDbLine
 10
12.59339755902755
 20
138.5624165403579
 30
0.0
 11
11.09339755902755
 21
138.5624165403579
 31
0.0
  0
LINE
  5
16E2
330
A9E
100
AcDbEntity
  8
0
  6
BYBLOCK
100
AcDbLine
 10
11.34339755902755
 20
135.0624165403579
 30
0.0
 11
11.09339755902755
 21
135.0624165403569
 31
0.0
  0
LINE
  5
16E3
330
A9E
100
AcDbEntity
  8
0
  6
BYBLOCK
100
AcDbLine
 10
11.34339755902755
 20
136.0624165403579
 30
0.0
 11
11.34339755902755
 21
135.0624165403579
 31
0.0
  0
LINE
  5
16E4
330
A9E
100
AcDbEntity
  8
0
  6
BYBLOCK
100
AcDbLine
 10
14.44339755902427
 20
131.3618794010883
 30
0.0
 11
15.04339755902464
 21
131.3618794010883
 31
0.0
  0
LINE
  5
16E5
330
A9E
100
AcDbEntity
  8
0
  6
BYBLOCK
100
AcDbLine
 10
20.04339755902464
 20
132.7618794010879
 30
0.0
 11
20.04339755902464
 21
133.3618794010883
 31
0.0
  0
LINE
  5
16E6
330
A9E
100
AcDbEntity
  8
0
  6
BYBLOCK
100
AcDbLine
 10
19.44339755902427
 20
132.7618794010879
 30
0.0
 11
20.04339755902464
 21
132.7618794010879
 31
0.0
  0
LINE
  5
16E7
330
A9E
100
AcDbEntity
  8
0
  6
BYBLOCK
100
AcDbLine
 10
19.44339755902427
 20
133.3618794010883
 30
0.0
 11
20.04339755902464
 21
133.3618794010883
 31
0.0
  0
LINE
  5
16E8
330
A9E
100
AcDbEntity
  8
0
  6
BYBLOCK
100
AcDbLine
 10
19.44339755902427
 20
132.7618794010879
 30
0.0
 11
19.44339755902427
 21
133.3618794010883
 31
0.0
  0
LINE
  5
16E9
330
A9E
100
AcDbEntity
  8
0
  6
BYBLOCK
100
AcDbLine
 10
19.44339755902427
 20
134.7618794010879
 30
0.0
 11
20.04339755902464
 21
134.7618794010879
 31
0.0
  0
LINE
  5
16EA
330
A9E
100
AcDbEntity
  8
0
  6
BYBLOCK
100
AcDbLine
 10
19.44339755902427
 20
135.3618794010883
 30
0.0
 11
20.04339755902464
 21
135.3618794010883
 31
0.0
  0
LINE
  5
16EB
330
A9E
100
AcDbEntity
  8
0
  6
BYBLOCK
100
AcDbLine
 10
20.04339755902464
 20
136.7618794010879
 30
0.0
 11
20.04339755902464
 21
137.3618794010883
 31
0.0
  0
LINE
  5
16EC
330
A9E
100
AcDbEntity
  8
0
  6
BYBLOCK
100
AcDbLine
 10
19.44339755902427
 20
136.7618794010879
 30
0.0
 11
20.04339755902464
 21
136.7618794010879
 31
0.0
  0
LINE
  5
16ED
330
A9E
100
AcDbEntity
  8
0
  6
BYBLOCK
100
AcDbLine
 10
19.44339755902427
 20
137.3618794010883
 30
0.0
 11
20.04339755902464
 21
137.3618794010883
 31
0.0
  0
LINE
  5
16EE
330
A9E
100
AcDbEntity
  8
0
  6
BYBLOCK
100
AcDbLine
 10
19.44339755902427
 20
136.7618794010879
 30
0.0
 11
19.44339755902427
 21
137.3618794010883
 31
0.0
  0
LINE
  5
16EF
330
A9E
100
AcDbEntity
  8
0
  6
BYBLOCK
100
AcDbLine
 10
20.04339755902464
 20
138.7618794010879
 30
0.0
 11
20.04339755902464
 21
139.3618794010883
 31
0.0
  0
LINE
  5
16F0
330
A9E
100
AcDbEntity
  8
0
  6
BYBLOCK
100
AcDbLine
 10
19.44339755902427
 20
138.7618794010879
 30
0.0
 11
20.04339755902464
 21
138.7618794010879
 31
0.0
  0
LINE
  5
16F1
330
A9E
100
AcDbEntity
  8
0
  6
BYBLOCK
100
AcDbLine
 10
19.44339755902427
 20
139.3618794010883
 30
0.0
 11
20.04339755902464
 21
139.3618794010883
 31
0.0
  0
LINE
  5
16F2
330
A9E
100
AcDbEntity
  8
0
  6
BYBLOCK
100
AcDbLine
 10
19.44339755902427
 20
138.7618794010879
 30
0.0
 11
19.44339755902427
 21
139.3618794010883
 31
0.0
  0
LINE
  5
16F3
330
A9E
100
AcDbEntity
  8
0
  6
BYBLOCK
100
AcDbLine
 10
20.04339755902464
 20
140.7618794010879
 30
0.0
 11
20.04339755902464
 21
141.3618794010883
 31
0.0
  0
LINE
  5
16F4
330
A9E
100
AcDbEntity
  8
0
  6
BYBLOCK
100
AcDbLine
 10
19.44339755902427
 20
140.7618794010879
 30
0.0
 11
20.04339755902464
 21
140.7618794010879
 31
0.0
  0
LINE
  5
16F5
330
A9E
100
AcDbEntity
  8
0
  6
BYBLOCK
100
AcDbLine
 10
19.44339755902427
 20
141.3618794010883
 30
0.0
 11
20.04339755902464
 21
141.3618794010883
 31
0.0
  0
LINE
  5
16F6
330
A9E
100
AcDbEntity
  8
0
  6
BYBLOCK
100
AcDbLine
 10
19.44339755902427
 20
140.7618794010879
 30
0.0
 11
19.44339755902427
 21
141.3618794010883
 31
0.0
  0
LINE
  5
16F7
330
A9E
100
AcDbEntity
  8
0
  6
BYBLOCK
100
AcDbLine
 10
20.04339755902464
 20
134.7618794010879
 30
0.0
 11
20.04339755902464
 21
135.3618794010883
 31
0.0
  0
LINE
  5
16F8
330
A9E
100
AcDbEntity
  8
0
  6
BYBLOCK
100
AcDbLine
 10
19.44339755902427
 20
134.7618794010879
 30
0.0
 11
19.44339755902427
 21
135.3618794010883
 31
0.0
  0
LINE
  5
16F9
330
A9E
100
AcDbEntity
  8
0
  6
BYBLOCK
100
AcDbLine
 10
19.44339755902427
 20
131.3618794010883
 30
0.0
 11
20.04339755902464
 21
131.3618794010883
 31
0.0
  0
ARC
  5
16FA
330
A9E
100
AcDbEntity
  8
0
  6
CONTINUOUS
100
AcDbCircle
 10
27.04067897810137
 20
158.0092698737412
 30
0.0
 40
1.0
100
AcDbArc
 50
270.1252410000212
 51
326.046302999995
  0
LINE
  5
16FB
330
A9E
100
AcDbEntity
  8
0
  6
CONTINUOUS
100
AcDbLine
 10
28.51511297810125
 20
158.4085858737409
 30
0.0
 11
27.87016797810102
 21
157.4507468737414
 31
0.0
  0
LINE
  5
16FC
330
A9E
100
AcDbEntity
  8
0
100
AcDbLine
 10
23.21564697809748
 20
145.3085858737418
 30
0.0
 11
8.815646978097504
 21
145.3085858737456
 31
0.0
  0
ARC
  5
16FD
330
A9E
100
AcDbEntity
  8
0
  6
CONTINUOUS
100
AcDbCircle
 10
17.51564697921662
 20
4515.568034873745
 30
0.0
 40
4358.569174999999
100
AcDbArc
 50
269.8747589999495
 51
270.1252410000212
  0
LINE
  5
16FE
330
A9E
100
AcDbEntity
  8
0
  6
CONTINUOUS
100
AcDbLine
 10
7.191325978100735
 20
157.4083248737462
 30
0.0
 11
27.83996897810118
 21
157.4083248737409
 31
0.0
  0
ARC
  5
16FF
330
A9E
100
AcDbEntity
  8
0
  6
CONTINUOUS
100
AcDbCircle
 10
7.990615978100777
 20
158.0092698737461
 30
0.0
 40
1.0
100
AcDbArc
 50
213.9536969999756
 51
269.8747589999495
  0
LINE
  5
1700
330
A9E
100
AcDbEntity
  8
0
  6
CONTINUOUS
100
AcDbLine
 10
6.516180978100834
 20
158.4085858737465
 30
0.0
 11
7.161125978100614
 21
157.4507468737467
 31
0.0
  0
LINE
  5
1701
330
A9E
100
AcDbEntity
  8
0
  6
CONTINUOUS
100
AcDbLine
 10
23.51564697809789
 20
146.2085858737422
 30
0.0
 11
21.31564697809784
 21
146.2085858737427
 31
0.0
  0
LINE
  5
1702
330
A9E
100
AcDbEntity
  8
0
  6
CONTINUOUS
100
AcDbLine
 10
23.51564697809874
 20
149.5085858737423
 30
0.0
 11
21.31564697809869
 21
149.5085858737429
 31
0.0
  0
LINE
  5
1703
330
A9E
100
AcDbEntity
  8
0
  6
CONTINUOUS
100
AcDbLine
 10
23.51564697809874
 20
149.5085858737423
 30
0.0
 11
23.51564697809789
 21
146.2085858737422
 31
0.0
  0
LINE
  5
1704
330
A9E
100
AcDbEntity
  8
0
  6
CONTINUOUS
100
AcDbLine
 10
21.31564697809784
 20
146.2085858737427
 30
0.0
 11
21.31564697809869
 21
149.5085858737429
 31
0.0
  0
LINE
  5
1705
330
A9E
100
AcDbEntity
  8
0
100
AcDbLine
 10
23.21564697809844
 20
149.1085858737421
 30
0.0
 11
23.21564697809779
 21
146.5085858737426
 31
0.0
  0
LINE
  5
1706
330
A9E
100
AcDbEntity
  8
0
100
AcDbLine
 10
23.51564697809871
 20
149.4085858737422
 30
0.0
 11
23.51564697809789
 21
146.2085858737424
 31
0.0
  0
LINE
  5
1707
330
A9E
100
AcDbEntity
  8
0
100
AcDbLine
 10
21.61564697809834
 20
146.508585873743
 30
0.0
 11
21.61564697809899
 21
149.1085858737425
 31
0.0
  0
LINE
  5
1708
330
A9E
100
AcDbEntity
  8
0
100
AcDbLine
 10
21.31564697809807
 20
146.208585873743
 30
0.0
 11
21.31564697809889
 21
149.4085858737428
 31
0.0
  0
LINE
  5
1709
330
A9E
100
AcDbEntity
  8
0
100
AcDbLine
 10
23.21564697809779
 20
146.5085858737426
 30
0.0
 11
21.61564697809834
 21
146.508585873743
 31
0.0
  0
LINE
  5
170A
330
A9E
100
AcDbEntity
  8
0
100
AcDbLine
 10
23.51564697809789
 20
146.2085858737424
 30
0.0
 11
21.31564697809807
 21
146.208585873743
 31
0.0
  0
LINE
  5
170B
330
A9E
100
AcDbEntity
  8
0
100
AcDbLine
 10
23.51564697809789
 20
146.2085858737424
 30
0.0
 11
21.31564697809807
 21
146.208585873743
 31
0.0
  0
LINE
  5
170C
330
A9E
100
AcDbEntity
  8
0
100
AcDbLine
 10
23.21564697809844
 20
149.1085858737421
 30
0.0
 11
21.61564697809899
 21
149.1085858737425
 31
0.0
  0
LINE
  5
170D
330
A9E
100
AcDbEntity
  8
0
100
AcDbLine
 10
15.01564697810195
 20
162.1585858737436
 30
0.0
 11
20.01564697810195
 21
162.1585858737436
 31
0.0
  0
CIRCLE
  5
170E
330
A9E
100
AcDbEntity
  8
0
  6
CONTINUOUS
100
AcDbCircle
 10
17.51564697810195
 20
162.1585858737436
 30
0.0
 40
2.5
  0
LINE
  5
170F
330
A9E
100
AcDbEntity
  8
0
100
AcDbLine
 10
17.51564697810195
 20
159.6585858737436
 30
0.0
 11
17.51564697810195
 21
164.6585858737436
 31
0.0
  0
LINE
  5
1710
330
A9E
100
AcDbEntity
  8
0
  6
CONTINUOUS
100
AcDbLine
 10
33.01564597810136
 20
157.4085858737397
 30
0.0
 11
33.01564597810338
 21
165.4085858737398
 31
0.0
  0
LINE
  5
1711
330
A9E
100
AcDbEntity
  8
0
  6
CONTINUOUS
100
AcDbLine
 10
33.01564697810078
 20
157.4085858737397
 30
0.0
 11
33.01564697809974
 21
153.4301618737399
 31
0.0
  0
LINE
  5
1712
330
A9E
100
AcDbEntity
  8
0
  6
CONTINUOUS
100
AcDbLine
 10
33.01564697809974
 20
153.4301618737399
 30
0.0
 11
34.03129397809991
 21
153.4301618737396
 31
0.0
  0
ARC
  5
1713
330
A9E
100
AcDbEntity
  8
0
  6
CONTINUOUS
100
AcDbCircle
 10
32.01564697810073
 20
157.4085858737399
 30
0.0
 40
1.0
100
AcDbArc
 50
359.9999999999853
 51
89.99999999998534
  0
ARC
  5
1714
330
A9E
100
AcDbEntity
  8
0
  6
CONTINUOUS
100
AcDbCircle
 10
33.0844719780994
 20
151.0239918737395
 30
0.0
 40
1.0
100
AcDbArc
 50
359.9999999999853
 51
89.99999999998534
  0
LINE
  5
1715
330
A9E
100
AcDbEntity
  8
0
  6
CONTINUOUS
100
AcDbLine
 10
33.08447197809968
 20
152.0239918737397
 30
0.0
 11
32.08423497809949
 21
152.0239918737399
 31
0.0
  0
LINE
  5
1716
330
A9E
100
AcDbEntity
  8
0
  6
CONTINUOUS
100
AcDbLine
 10
33.01564697809974
 20
153.4301618737399
 30
0.0
 11
32.08423497809949
 21
152.0239918737399
 31
0.0
  0
LINE
  5
1717
330
A9E
100
AcDbEntity
  8
0
  6
CONTINUOUS
100
AcDbLine
 10
33.01564697809974
 20
153.4301618737399
 30
0.0
 11
32.08423497809949
 21
152.0239918737399
 31
0.0
  0
ARC
  5
1718
330
A9E
100
AcDbEntity
  8
0
  6
CONTINUOUS
100
AcDbCircle
 10
34.03129397809962
 20
152.4301618737395
 30
0.0
 40
1.0
100
AcDbArc
 50
359.9999999999853
 51
89.99999899999044
  0
ARC
  5
1719
330
A9E
100
AcDbEntity
  8
0
  6
CONTINUOUS
100
AcDbCircle
 10
28.91564697810022
 20
153.3085858737412
 30
0.0
 40
1.0
100
AcDbArc
 50
359.9999999999853
 51
89.99999999998534
  0
ARC
  5
171A
330
A9E
100
AcDbEntity
  8
0
  6
CONTINUOUS
100
AcDbCircle
 10
29.01564697809971
 20
153.4085858737407
 30
0.0
 40
1.0
100
AcDbArc
 50
359.9999999999853
 51
89.99999999998534
  0
ARC
  5
171B
330
A9E
100
AcDbEntity
  8
0
  6
CONTINUOUS
100
AcDbCircle
 10
31.00564697810105
 20
155.9053628737405
 30
0.0
 40
1.0
100
AcDbArc
 50
359.9999999999853
 51
90.17778099996743
  0
LINE
  5
171C
330
A9E
100
AcDbEntity
  8
0
  6
CONTINUOUS
100
AcDbLine
 10
28.51511297810125
 20
158.4085858737409
 30
0.0
 11
32.01564697810104
 21
158.40858587374
 31
0.0
  0
ARC
  5
171D
330
A9E
100
AcDbEntity
  8
0
  6
CONTINUOUS
100
AcDbCircle
 10
31.51564597810335
 20
165.40858587374
 30
0.0
 40
1.5
100
AcDbArc
 50
359.9999999999853
 51
89.99999999998534
  0
LINE
  5
171E
330
A9E
100
AcDbEntity
  8
0
  6
CONTINUOUS
100
AcDbLine
 10
51.44885057955673
 20
155.1585858737402
 30
0.0
 11
50.66452457955676
 21
155.1585858737402
 31
0.0
  0
LINE
  5
171F
330
A9E
100
AcDbEntity
  8
0
  6
CONTINUOUS
100
AcDbLine
 10
50.66452457955676
 20
156.657056873741
 30
0.0
 11
50.66452457955676
 21
155.1585858737402
 31
0.0
  0
LINE
  5
1720
330
A9E
100
AcDbEntity
  8
0
  6
CONTINUOUS
100
AcDbLine
 10
51.71989357955647
 20
157.6585858737402
 30
0.0
 11
51.71989357955647
 21
156.6812088737409
 31
0.0
  0
ARC
  5
1721
330
A9E
100
AcDbEntity
  8
0
  6
CONTINUOUS
100
AcDbCircle
 10
52.71989357955646
 20
156.6812088737409
 30
0.0
 40
1.0
100
AcDbArc
 50
91.31099500000026
 51
180.0
  0
ARC
  5
1722
330
A9E
100
AcDbEntity
  8
0
  6
CONTINUOUS
100
AcDbCircle
 10
51.66452457955677
 20
156.657056873741
 30
0.0
 40
1.0
100
AcDbArc
 50
91.31099500000026
 51
180.0
  0
ARC
  5
1723
330
A9E
100
AcDbEntity
  8
0
  6
CONTINUOUS
100
AcDbCircle
 10
57.81989357955684
 20
151.7966138737405
 30
0.0
 40
1.0
100
AcDbArc
 50
91.31099500000026
 51
180.0
  0
LINE
  5
1724
330
A9E
100
AcDbEntity
  8
0
  6
CONTINUOUS
100
AcDbLine
 10
71.66452457955677
 20
190.8816993927039
 30
0.0
 11
69.66452457955677
 21
190.8816993927039
 31
0.0
  0
ARC
  5
1725
330
A9E
100
AcDbEntity
  8
0
  6
CONTINUOUS
100
AcDbCircle
 10
57.99868157955614
 20
188.7957183927038
 30
0.0
 40
2.0
100
AcDbArc
 50
184.7328559999832
 51
269.1171789999794
  0
ARC
  5
1726
330
A9E
100
AcDbEntity
  8
2_カバ_
  6
CONTINUOUS
 62
     7
100
AcDbCircle
 10
150.6645245795568
 20
196.8816993927039
 30
0.0
 40
100.0
100
AcDbArc
 50
187.8398270000318
 51
188.3314890000078
  0
LINE
  5
1727
330
A9E
100
AcDbEntity
  8
2_カバ_
  6
CONTINUOUS
 62
     7
100
AcDbLine
 10
51.71989357955647
 20
182.3916983927038
 30
0.0
 11
52.57434257955686
 21
182.378532392704
 31
0.0
  0
ARC
  5
1728
330
A9E
100
AcDbEntity
  8
0
  6
CONTINUOUS
100
AcDbCircle
 10
52.58975057955621
 20
183.3784133927039
 30
0.0
 40
1.0
100
AcDbArc
 50
187.8393999999904
 51
269.1171789999794
  0
ARC
  5
1729
330
A9E
100
AcDbEntity
  8
0
  6
CONTINUOUS
100
AcDbCircle
 10
57.81989357955689
 20
181.297583392704
 30
0.0
 40
1.0
100
AcDbArc
 50
180.0
 51
269.1171789999794
  0
LINE
  5
172A
330
A9E
100
AcDbEntity
  8
0
  6
CONTINUOUS
100
AcDbLine
 10
56.81989357955683
 20
181.2975833927039
 30
0.0
 11
56.81989357955683
 21
182.3131113927038
 31
0.0
  0
LINE
  5
172B
330
A9E
100
AcDbEntity
  8
0
  6
CONTINUOUS
100
AcDbLine
 10
67.66452457955677
 20
190.8816993927039
 30
0.0
 11
65.66452457955676
 21
190.8816993927039
 31
0.0
  0
LINE
  5
172C
330
A9E
100
AcDbEntity
  8
0
  6
CONTINUOUS
100
AcDbLine
 10
63.66452457955677
 20
190.8816993927039
 30
0.0
 11
61.66452457955677
 21
190.8816993927039
 31
0.0
  0
LINE
  5
172D
330
A9E
100
AcDbEntity
  8
0
  6
CONTINUOUS
100
AcDbLine
 10
83.66452457955677
 20
190.8816993927039
 30
0.0
 11
81.66452457955676
 21
190.8816993927039
 31
0.0
  0
LINE
  5
172E
330
A9E
100
AcDbEntity
  8
0
  6
CONTINUOUS
100
AcDbLine
 10
75.66452457955676
 20
190.8816993927039
 30
0.0
 11
73.66452457955677
 21
190.8816993927039
 31
0.0
  0
LINE
  5
172F
330
A9E
100
AcDbEntity
  8
0
  6
CONTINUOUS
100
AcDbLine
 10
79.66452457955677
 20
190.8816993927039
 30
0.0
 11
77.66452457955677
 21
190.8816993927039
 31
0.0
  0
LINE
  5
1730
330
A9E
100
AcDbEntity
  8
0
  6
CONTINUOUS
100
AcDbLine
 10
87.66452457955677
 20
190.8816993927039
 30
0.0
 11
85.66452457955676
 21
190.8816993927039
 31
0.0
  0
LINE
  5
1731
330
A9E
100
AcDbEntity
  8
0
  6
CONTINUOUS
100
AcDbLine
 10
91.66452457955676
 20
190.8816993927039
 30
0.0
 11
89.66452457955677
 21
190.8816993927039
 31
0.0
  0
LINE
  5
1732
330
A9E
100
AcDbEntity
  8
0
100
AcDbLine
 10
118.7645245795562
 20
46.9085858737393
 30
0.0
 11
118.7645245795562
 21
166.9085858737402
 31
0.0
  0
LINE
  5
1733
330
A9E
100
AcDbEntity
  8
0
  6
CONTINUOUS
100
AcDbLine
 10
118.2645245795562
 20
60.6601568737409
 30
0.0
 11
118.2645245795562
 21
153.1570148737404
 31
0.0
  0
LWPOLYLINE
  5
1734
330
A9E
100
AcDbEntity
  8
0
100
AcDbPolyline
 90
        4
 70
     1
 43
0.0
 10
117.2645245795562
 20
2.0076145924927
 10
117.2645245795562
 20
33.00803259249232
 10
118.7645245795562
 20
33.00803259249232
 10
118.7645245795562
 20
2.0076145924927
  0
LINE
  5
1735
330
A9E
100
AcDbEntity
  8
0
100
AcDbLine
 10
117.2645245795562
 20
2.0076145924927
 30
0.0
 11
117.2645245795562
 21
33.00803259249232
 31
0.0
  0
LINE
  5
1736
330
A9E
100
AcDbEntity
  8
0
  6
CONTINUOUS
100
AcDbLine
 10
117.2645245795562
 20
2.007823592492513
 30
0.0
 11
117.2645245795562
 21
33.00782359249251
 31
0.0
  0
LINE
  5
1737
330
A9E
100
AcDbEntity
  8
0
  6
CONTINUOUS
100
AcDbLine
 10
117.2645245795562
 20
2.007823592492513
 30
0.0
 11
118.2645245795562
 21
2.007823592492513
 31
0.0
  0
LINE
  5
1738
330
A9E
100
AcDbEntity
  8
0
  6
CONTINUOUS
100
AcDbLine
 10
118.2645245795562
 20
2.007823592492513
 30
0.0
 11
118.2645245795562
 21
0.499940592492294
 31
0.0
  0
ARC
  5
1739
330
A9E
100
AcDbEntity
  8
0
  6
CONTINUOUS
100
AcDbCircle
 10
117.7645245795562
 20
0.4999405924923224
 30
0.0
 40
0.5
100
AcDbArc
 50
269.1171789999794
 51
0.0
  0
LINE
  5
173A
330
A9E
100
AcDbEntity
  8
0
  6
CONTINUOUS
100
AcDbLine
 10
96.66452457955678
 20
17.50782259249217
 30
0.0
 11
96.66452457955678
 21
23.50782259249217
 31
0.0
  0
LINE
  5
173B
330
A9E
100
AcDbEntity
  8
0
  6
CONTINUOUS
100
AcDbLine
 10
100.9145245795567
 20
19.00782259249217
 30
0.0
 11
100.9145245795567
 21
17.50782259249217
 31
0.0
  0
LINE
  5
173C
330
A9E
100
AcDbEntity
  8
0
  6
CONTINUOUS
100
AcDbLine
 10
102.4145245795567
 20
19.00782259249217
 30
0.0
 11
102.4145245795567
 21
17.50782259249217
 31
0.0
  0
LINE
  5
173D
330
A9E
100
AcDbEntity
  8
0
  6
CONTINUOUS
100
AcDbLine
 10
106.6645245795567
 20
23.50782259249217
 30
0.0
 11
106.6645245795567
 21
17.50782259249217
 31
0.0
  0
LINE
  5
173E
330
A9E
100
AcDbEntity
  8
0
  6
CONTINUOUS
100
AcDbLine
 10
95.66452457955676
 20
11.50782259249217
 30
0.0
 11
95.66452457955676
 21
23.50782259249217
 31
0.0
  0
LINE
  5
173F
330
A9E
100
AcDbEntity
  8
0
  6
CONTINUOUS
100
AcDbLine
 10
109.6645245795567
 20
23.50782259249217
 30
0.0
 11
109.6645245795567
 21
11.50782259249217
 31
0.0
  0
LINE
  5
1740
330
A9E
100
AcDbEntity
  8
0
  6
CONTINUOUS
100
AcDbLine
 10
111.6645245795567
 20
11.50782259249217
 30
0.0
 11
111.6645245795567
 21
23.50782259249217
 31
0.0
  0
LINE
  5
1741
330
A9E
100
AcDbEntity
  8
0
  6
CONTINUOUS
100
AcDbLine
 10
93.66452457955677
 20
23.50782259249217
 30
0.0
 11
93.66452457955677
 21
11.50782259249217
 31
0.0
  0
LINE
  5
1742
330
A9E
100
AcDbEntity
  8
0
  6
CONTINUOUS
100
AcDbLine
 10
106.6645245795567
 20
17.50782259249217
 30
0.0
 11
96.66452457955678
 21
17.50782259249217
 31
0.0
  0
LINE
  5
1743
330
A9E
100
AcDbEntity
  8
0
  6
CONTINUOUS
100
AcDbLine
 10
101.6645245795567
 20
11.50782259249217
 30
0.0
 11
103.6645245795567
 21
11.50782259249217
 31
0.0
  0
LINE
  5
1744
330
A9E
100
AcDbEntity
  8
0
  6
CONTINUOUS
100
AcDbLine
 10
101.6645245795567
 20
16.00782259249217
 30
0.0
 11
103.6645245795567
 21
16.00782259249217
 31
0.0
  0
LINE
  5
1745
330
A9E
100
AcDbEntity
  8
0
  6
CONTINUOUS
100
AcDbLine
 10
93.66452457955677
 20
11.50782259249217
 30
0.0
 11
95.66452457955676
 21
11.50782259249217
 31
0.0
  0
LINE
  5
1746
330
A9E
100
AcDbEntity
  8
0
  6
CONTINUOUS
100
AcDbLine
 10
97.66452457955677
 20
16.00782259249217
 30
0.0
 11
99.66452457955677
 21
16.00782259249217
 31
0.0
  0
LINE
  5
1747
330
A9E
100
AcDbEntity
  8
0
  6
CONTINUOUS
100
AcDbLine
 10
97.66452457955677
 20
11.50782259249217
 30
0.0
 11
99.66452457955677
 21
11.50782259249217
 31
0.0
  0
LINE
  5
1748
330
A9E
100
AcDbEntity
  8
0
  6
CONTINUOUS
100
AcDbLine
 10
97.66452457955677
 20
16.00782259249217
 30
0.0
 11
97.66452457955677
 21
11.50782259249217
 31
0.0
  0
LINE
  5
1749
330
A9E
100
AcDbEntity
  8
0
  6
CONTINUOUS
100
AcDbLine
 10
99.66452457955677
 20
11.50782259249217
 30
0.0
 11
99.66452457955677
 21
16.00782259249217
 31
0.0
  0
LINE
  5
174A
330
A9E
100
AcDbEntity
  8
0
  6
CONTINUOUS
100
AcDbLine
 10
101.6645245795567
 20
16.00782259249217
 30
0.0
 11
101.6645245795567
 21
11.50782259249217
 31
0.0
  0
LINE
  5
174B
330
A9E
100
AcDbEntity
  8
0
  6
CONTINUOUS
100
AcDbLine
 10
105.6645245795567
 20
16.00782259249217
 30
0.0
 11
107.6645245795567
 21
16.00782259249217
 31
0.0
  0
LINE
  5
174C
330
A9E
100
AcDbEntity
  8
0
  6
CONTINUOUS
100
AcDbLine
 10
105.6645245795567
 20
11.50782259249217
 30
0.0
 11
107.6645245795567
 21
11.50782259249217
 31
0.0
  0
LINE
  5
174D
330
A9E
100
AcDbEntity
  8
0
  6
CONTINUOUS
100
AcDbLine
 10
105.6645245795567
 20
16.00782259249217
 30
0.0
 11
105.6645245795567
 21
11.50782259249217
 31
0.0
  0
LINE
  5
174E
330
A9E
100
AcDbEntity
  8
0
  6
CONTINUOUS
100
AcDbLine
 10
107.6645245795567
 20
11.50782259249217
 30
0.0
 11
107.6645245795567
 21
16.00782259249217
 31
0.0
  0
LINE
  5
174F
330
A9E
100
AcDbEntity
  8
0
  6
CONTINUOUS
100
AcDbLine
 10
103.6645245795567
 20
11.50782259249217
 30
0.0
 11
103.6645245795567
 21
16.00782259249217
 31
0.0
  0
LINE
  5
1750
330
A9E
100
AcDbEntity
  8
0
  6
CONTINUOUS
100
AcDbLine
 10
109.6645245795567
 20
11.50782259249217
 30
0.0
 11
111.6645245795567
 21
11.50782259249217
 31
0.0
  0
LINE
  5
1751
330
A9E
100
AcDbEntity
  8
0
  6
CONTINUOUS
100
AcDbLine
 10
96.66452457955678
 20
23.50782259249217
 30
0.0
 11
106.6645245795567
 21
23.50782259249217
 31
0.0
  0
LINE
  5
1752
330
A9E
100
AcDbEntity
  8
0
  6
CONTINUOUS
100
AcDbLine
 10
104.6645245795567
 20
19.00782259249217
 30
0.0
 11
98.66452457955677
 21
19.00782259249217
 31
0.0
  0
LINE
  5
1753
330
A9E
100
AcDbEntity
  8
0
  6
CONTINUOUS
100
AcDbLine
 10
98.66452457955677
 20
22.00782259249217
 30
0.0
 11
104.6645245795567
 21
22.00782259249217
 31
0.0
  0
LINE
  5
1754
330
A9E
100
AcDbEntity
  8
0
  6
CONTINUOUS
100
AcDbLine
 10
93.66452457955677
 20
23.50782259249217
 30
0.0
 11
95.66452457955676
 21
23.50782259249217
 31
0.0
  0
ARC
  5
1755
330
A9E
100
AcDbEntity
  8
0
  6
CONTINUOUS
100
AcDbCircle
 10
98.66452457955677
 20
21.5078225924922
 30
0.0
 40
0.5
100
AcDbArc
 50
90.0
 51
180.0
  0
LINE
  5
1756
330
A9E
100
AcDbEntity
  8
0
  6
CONTINUOUS
100
AcDbLine
 10
100.9145245795567
 20
23.50782259249217
 30
0.0
 11
100.9145245795567
 21
22.00782259249217
 31
0.0
  0
LINE
  5
1757
330
A9E
100
AcDbEntity
  8
0
  6
CONTINUOUS
100
AcDbLine
 10
102.4145245795567
 20
23.50782259249217
 30
0.0
 11
102.4145245795567
 21
22.00782259249217
 31
0.0
  0
ARC
  5
1758
330
A9E
100
AcDbEntity
  8
0
  6
CONTINUOUS
100
AcDbCircle
 10
98.66452457955677
 20
19.5078225924922
 30
0.0
 40
0.5
100
AcDbArc
 50
180.0
 51
270.0
  0
LINE
  5
1759
330
A9E
100
AcDbEntity
  8
0
  6
CONTINUOUS
100
AcDbLine
 10
98.16452457955676
 20
19.50782259249217
 30
0.0
 11
98.16452457955676
 21
21.50782259249217
 31
0.0
  0
ARC
  5
175A
330
A9E
100
AcDbEntity
  8
0
  6
CONTINUOUS
100
AcDbCircle
 10
104.6645245795567
 20
21.5078225924922
 30
0.0
 40
0.5
100
AcDbArc
 50
0.0
 51
90.0
  0
ARC
  5
175B
330
A9E
100
AcDbEntity
  8
0
  6
CONTINUOUS
100
AcDbCircle
 10
104.6645245795567
 20
19.5078225924922
 30
0.0
 40
0.5
100
AcDbArc
 50
270.0
 51
0.0
  0
LINE
  5
175C
330
A9E
100
AcDbEntity
  8
0
  6
CONTINUOUS
100
AcDbLine
 10
105.1645245795567
 20
21.50782259249217
 30
0.0
 11
105.1645245795567
 21
19.50782259249217
 31
0.0
  0
LINE
  5
175D
330
A9E
100
AcDbEntity
  8
0
  6
CONTINUOUS
100
AcDbLine
 10
111.6645245795567
 20
23.50782259249217
 30
0.0
 11
109.6645245795567
 21
23.50782259249217
 31
0.0
  0
LINE
  5
175E
330
A9E
100
AcDbEntity
  8
0
100
AcDbLine
 10
117.2645245795562
 20
15.00782359249251
 30
0.0
 11
118.7645245795562
 21
15.00782359249251
 31
0.0
  0
LINE
  5
175F
330
A9E
100
AcDbEntity
  8
0
100
AcDbLine
 10
117.2645245795562
 20
13.50782359249251
 30
0.0
 11
118.7645245795562
 21
13.50782359249251
 31
0.0
  0
LINE
  5
1760
330
A9E
100
AcDbEntity
  8
0
100
AcDbLine
 10
117.2645245795562
 20
20.00782359249251
 30
0.0
 11
118.7645245795562
 21
20.00782359249251
 31
0.0
  0
LINE
  5
1761
330
A9E
100
AcDbEntity
  8
0
100
AcDbLine
 10
117.2645245795562
 20
21.50782359249251
 30
0.0
 11
118.7645245795562
 21
21.50782359249251
 31
0.0
  0
ARC
  5
1762
330
A9E
100
AcDbEntity
  8
0
  6
CONTINUOUS
100
AcDbCircle
 10
117.2645245795562
 20
60.6601568737409
 30
0.0
 40
1.0
100
AcDbArc
 50
268.6890049999997
 51
0.0
  0
LINE
  5
1763
330
A9E
100
AcDbEntity
  8
0
  6
CONTINUOUS
100
AcDbLine
 10
118.2645245795562
 20
33.00782359249251
 30
0.0
 11
117.2645245795562
 21
33.00782359249251
 31
0.0
  0
LINE
  5
1764
330
A9E
100
AcDbEntity
  8
0
  6
CONTINUOUS
100
AcDbLine
 10
118.2645245795562
 20
33.00782359249251
 30
0.0
 11
118.2645245795562
 21
34.51570559249239
 31
0.0
  0
ARC
  5
1765
330
A9E
100
AcDbEntity
  8
0
  6
CONTINUOUS
100
AcDbCircle
 10
117.7645245795562
 20
34.51570559249248
 30
0.0
 40
0.5
100
AcDbArc
 50
0.0
 51
90.88282099996837
  0
LINE
  5
1766
330
A9E
100
AcDbEntity
  8
0
100
AcDbLine
 10
117.2708975795563
 20
47.90858587373929
 30
0.0
 11
117.2645245795562
 21
47.91495887373855
 31
0.0
  0
LINE
  5
1767
330
A9E
100
AcDbEntity
  8
0
100
AcDbLine
 10
118.7645245795562
 20
46.9085858737393
 30
0.0
 11
117.2645245795562
 21
46.9085858737393
 31
0.0
  0
LINE
  5
1768
330
A9E
100
AcDbEntity
  8
0
100
AcDbLine
 10
117.2645245795562
 20
46.9085858737393
 30
0.0
 11
117.2645245795562
 21
58.91043787373871
 31
0.0
  0
LINE
  5
1769
330
A9E
100
AcDbEntity
  8
0
  6
CONTINUOUS
100
AcDbLine
 10
117.2645245795562
 20
54.65858587374021
 30
0.0
 11
117.2645245795562
 21
59.65990987374095
 31
0.0
  0
ARC
  5
176A
330
A9E
100
AcDbEntity
  8
0
  6
CONTINUOUS
100
AcDbCircle
 10
112.777024579556
 20
103.4085858737401
 30
0.0
 40
0.8125
100
AcDbArc
 50
120.5102370000202
 51
239.4897629999788
  0
LINE
  5
176B
330
A9E
100
AcDbEntity
  8
0
  6
CONTINUOUS
100
AcDbLine
 10
110.2645245795562
 20
111.9085858737402
 30
0.0
 11
110.2645245795562
 21
101.9085858737402
 31
0.0
  0
LINE
  5
176C
330
A9E
100
AcDbEntity
  8
0
  6
CONTINUOUS
100
AcDbLine
 10
112.3645245795565
 20
111.9085858737402
 30
0.0
 11
112.3645245795565
 21
101.9085858737402
 31
0.0
  0
LINE
  5
176D
330
A9E
100
AcDbEntity
  8
0
  6
CONTINUOUS
100
AcDbLine
 10
112.3645245795565
 20
101.9085858737402
 30
0.0
 11
110.2645245795562
 21
101.9085858737402
 31
0.0
  0
LINE
  5
176E
330
A9E
100
AcDbEntity
  8
0
  6
CONTINUOUS
100
AcDbLine
 10
110.2645245795562
 20
111.9085858737402
 30
0.0
 11
112.3645245795565
 21
111.9085858737402
 31
0.0
  0
ARC
  5
176F
330
A9E
100
AcDbEntity
  8
0
  6
CONTINUOUS
100
AcDbCircle
 10
112.777024579556
 20
110.4085858737402
 30
0.0
 40
0.8125
100
AcDbArc
 50
120.5102370000202
 51
239.4897629999788
  0
LINE
  5
1770
330
A9E
100
AcDbEntity
  8
0
100
AcDbLine
 10
117.2645245795562
 20
154.1570148737404
 30
0.0
 11
117.2645245795562
 21
166.9085858737402
 31
0.0
  0
ARC
  5
1771
330
A9E
100
AcDbEntity
  8
0
  6
CONTINUOUS
100
AcDbCircle
 10
117.2645245795562
 20
153.1570148737404
 30
0.0
 40
1.0
100
AcDbArc
 50
0.0
 51
91.31099500000026
  0
LINE
  5
1772
330
A9E
100
AcDbEntity
  8
0
  6
CONTINUOUS
100
AcDbLine
 10
117.2645245795562
 20
159.1585858737402
 30
0.0
 11
117.2645245795562
 21
154.1572958737409
 31
0.0
  0
LINE
  5
1773
330
A9E
100
AcDbEntity
  8
0
100
AcDbLine
 10
118.7645245795562
 20
166.9085858737402
 30
0.0
 11
117.2645245795562
 21
166.9085858737402
 31
0.0
  0
ARC
  5
1774
330
A9E
100
AcDbEntity
  8
0
  6
CONTINUOUS
100
AcDbCircle
 10
102.8645245795567
 20
198.9816983927039
 30
0.0
 40
0.5
100
AcDbArc
 50
0.0
 51
90.0
  0
ARC
  5
1775
330
A9E
100
AcDbEntity
  8
0
  6
CONTINUOUS
100
AcDbCircle
 10
102.8645245795567
 20
197.9816983927039
 30
0.0
 40
0.5
100
AcDbArc
 50
270.0
 51
0.0
  0
LINE
  5
1776
330
A9E
100
AcDbEntity
  8
0
  6
CONTINUOUS
100
AcDbLine
 10
101.3645245795565
 20
201.0816983927034
 30
0.0
 11
104.2645245795562
 21
201.0816983927034
 31
0.0
  0
LINE
  5
1777
330
A9E
100
AcDbEntity
  8
0
  6
CONTINUOUS
100
AcDbLine
 10
94.46452457955604
 20
195.7816983927041
 30
0.0
 11
104.2645245795562
 21
195.7816983927041
 31
0.0
  0
LINE
  5
1778
330
A9E
100
AcDbEntity
  8
0
  6
CONTINUOUS
100
AcDbLine
 10
101.6645245795567
 20
190.8816993927039
 30
0.0
 11
103.6645245795567
 21
190.8816993927039
 31
0.0
  0
LINE
  5
1779
330
A9E
100
AcDbEntity
  8
0
  6
CONTINUOUS
100
AcDbLine
 10
101.6645245795567
 20
193.9816983927039
 30
0.0
 11
103.6645245795567
 21
193.9816983927039
 31
0.0
  0
ARC
  5
177A
330
A9E
100
AcDbEntity
  8
0
  6
CONTINUOUS
100
AcDbCircle
 10
95.86452457955671
 20
198.9816983927039
 30
0.0
 40
0.5
100
AcDbArc
 50
90.0
 51
180.0
  0
LINE
  5
177B
330
A9E
100
AcDbEntity
  8
0
  6
CONTINUOUS
100
AcDbLine
 10
94.46452457955604
 20
200.5566983927037
 30
0.0
 11
94.46452457955604
 21
201.0816983927034
 31
0.0
  0
LINE
  5
177C
330
A9E
100
AcDbEntity
  8
0
  6
CONTINUOUS
100
AcDbLine
 10
93.21452457955604
 20
200.5566983927037
 30
0.0
 11
94.46452457955604
 21
200.5566983927037
 31
0.0
  0
ARC
  5
177D
330
A9E
100
AcDbEntity
  8
0
  6
CONTINUOUS
100
AcDbCircle
 10
95.86452457955671
 20
197.9816983927039
 30
0.0
 40
0.5
100
AcDbArc
 50
180.0
 51
270.0
  0
LINE
  5
177E
330
A9E
100
AcDbEntity
  8
0
  6
CONTINUOUS
100
AcDbLine
 10
93.21452457955604
 20
196.4066983927041
 30
0.0
 11
94.46452457955604
 21
196.4066983927041
 31
0.0
  0
LINE
  5
177F
330
A9E
100
AcDbEntity
  8
0
  6
CONTINUOUS
100
AcDbLine
 10
94.46452457955604
 20
195.7816983927041
 30
0.0
 11
94.46452457955604
 21
196.4066983927041
 31
0.0
  0
LINE
  5
1780
330
A9E
100
AcDbEntity
  8
0
  6
CONTINUOUS
100
AcDbLine
 10
95.36452457955659
 20
197.9816983927039
 30
0.0
 11
95.36452457955659
 21
198.9816983927039
 31
0.0
  0
LINE
  5
1781
330
A9E
100
AcDbEntity
  8
0
  6
CONTINUOUS
100
AcDbLine
 10
93.21452457955604
 20
196.4066983927041
 30
0.0
 11
93.21452457955604
 21
200.5566983927037
 31
0.0
  0
LINE
  5
1782
330
A9E
100
AcDbEntity
  8
0
  6
CONTINUOUS
100
AcDbLine
 10
98.76452457955622
 20
195.7816983927041
 30
0.0
 11
98.76452457955622
 21
197.4816983927039
 31
0.0
  0
LINE
  5
1783
330
A9E
100
AcDbEntity
  8
0
  6
CONTINUOUS
100
AcDbLine
 10
99.96452457955605
 20
195.7816983927041
 30
0.0
 11
99.96452457955605
 21
197.4816983927039
 31
0.0
  0
LINE
  5
1784
330
A9E
100
AcDbEntity
  8
0
  6
CONTINUOUS
100
AcDbLine
 10
94.46452457955604
 20
201.0816983927034
 30
0.0
 11
97.36452457955659
 21
201.0816983927034
 31
0.0
  0
LINE
  5
1785
330
A9E
100
AcDbEntity
  8
0
  6
CONTINUOUS
100
AcDbLine
 10
95.86452457955658
 20
197.4816983927039
 30
0.0
 11
102.8645245795565
 21
197.4816983927039
 31
0.0
  0
LINE
  5
1786
330
A9E
100
AcDbEntity
  8
0
  6
CONTINUOUS
100
AcDbLine
 10
95.86452457955658
 20
199.4816983927039
 30
0.0
 11
102.8645245795565
 21
199.4816983927039
 31
0.0
  0
LINE
  5
1787
330
A9E
100
AcDbEntity
  8
0
  6
CONTINUOUS
100
AcDbLine
 10
95.66452457955676
 20
190.8816993927039
 30
0.0
 11
95.66452457955676
 21
193.9816983927039
 31
0.0
  0
LINE
  5
1788
330
A9E
100
AcDbEntity
  8
0
  6
CONTINUOUS
100
AcDbLine
 10
93.66452457955677
 20
190.8816993927039
 30
0.0
 11
93.66452457955677
 21
193.9816983927039
 31
0.0
  0
LINE
  5
1789
330
A9E
100
AcDbEntity
  8
0
  6
CONTINUOUS
100
AcDbLine
 10
93.66452457955677
 20
190.8816993927039
 30
0.0
 11
95.66452457955676
 21
190.8816993927039
 31
0.0
  0
LINE
  5
178A
330
A9E
100
AcDbEntity
  8
0
  6
CONTINUOUS
100
AcDbLine
 10
93.66452457955677
 20
193.9816983927039
 30
0.0
 11
95.66452457955676
 21
193.9816983927039
 31
0.0
  0
LINE
  5
178B
330
A9E
100
AcDbEntity
  8
0
  6
CONTINUOUS
100
AcDbLine
 10
97.66452457955677
 20
190.8816993927039
 30
0.0
 11
97.66452457955677
 21
193.9816983927039
 31
0.0
  0
LINE
  5
178C
330
A9E
100
AcDbEntity
  8
0
  6
CONTINUOUS
100
AcDbLine
 10
99.66452457955677
 20
190.8816993927039
 30
0.0
 11
99.66452457955677
 21
193.9816983927039
 31
0.0
  0
LINE
  5
178D
330
A9E
100
AcDbEntity
  8
0
  6
CONTINUOUS
100
AcDbLine
 10
101.6645245795567
 20
190.8816993927039
 30
0.0
 11
101.6645245795567
 21
193.9816983927039
 31
0.0
  0
LINE
  5
178E
330
A9E
100
AcDbEntity
  8
0
  6
CONTINUOUS
100
AcDbLine
 10
97.66452457955677
 20
190.8816993927039
 30
0.0
 11
99.66452457955677
 21
190.8816993927039
 31
0.0
  0
LINE
  5
178F
330
A9E
100
AcDbEntity
  8
0
  6
CONTINUOUS
100
AcDbLine
 10
97.66452457955677
 20
193.9816983927039
 30
0.0
 11
99.66452457955677
 21
193.9816983927039
 31
0.0
  0
LINE
  5
1790
330
A9E
100
AcDbEntity
  8
0
  6
CONTINUOUS
100
AcDbLine
 10
104.2645245795562
 20
200.5566983927037
 30
0.0
 11
104.2645245795562
 21
201.0816983927034
 31
0.0
  0
LINE
  5
1791
330
A9E
100
AcDbEntity
  8
0
  6
CONTINUOUS
100
AcDbLine
 10
104.2645245795562
 20
200.5566983927037
 30
0.0
 11
105.5145245795562
 21
200.5566983927037
 31
0.0
  0
LINE
  5
1792
330
A9E
100
AcDbEntity
  8
0
  6
CONTINUOUS
100
AcDbLine
 10
104.2645245795562
 20
195.7816983927041
 30
0.0
 11
104.2645245795562
 21
196.4066983927041
 31
0.0
  0
LINE
  5
1793
330
A9E
100
AcDbEntity
  8
0
  6
CONTINUOUS
100
AcDbLine
 10
104.2645245795562
 20
196.4066983927041
 30
0.0
 11
105.5145245795562
 21
196.4066983927041
 31
0.0
  0
LINE
  5
1794
330
A9E
100
AcDbEntity
  8
0
  6
CONTINUOUS
100
AcDbLine
 10
103.3645245795565
 20
197.9816983927039
 30
0.0
 11
103.3645245795565
 21
198.9816983927039
 31
0.0
  0
LINE
  5
1795
330
A9E
100
AcDbEntity
  8
0
  6
CONTINUOUS
100
AcDbLine
 10
105.5145245795562
 20
196.4066983927041
 30
0.0
 11
105.5145245795562
 21
200.5566983927037
 31
0.0
  0
LINE
  5
1796
330
A9E
100
AcDbEntity
  8
0
  6
CONTINUOUS
100
AcDbLine
 10
107.6645245795567
 20
190.8816993927039
 30
0.0
 11
105.6645245795567
 21
190.8816993927039
 31
0.0
  0
LINE
  5
1797
330
A9E
100
AcDbEntity
  8
0
  6
CONTINUOUS
100
AcDbLine
 10
105.6645245795567
 20
190.8816993927039
 30
0.0
 11
105.6645245795567
 21
193.9816983927039
 31
0.0
  0
LINE
  5
1798
330
A9E
100
AcDbEntity
  8
0
  6
CONTINUOUS
100
AcDbLine
 10
103.6645245795567
 20
190.8816993927039
 30
0.0
 11
103.6645245795567
 21
193.9816983927039
 31
0.0
  0
LINE
  5
1799
330
A9E
100
AcDbEntity
  8
0
  6
CONTINUOUS
100
AcDbLine
 10
106.6645245795567
 20
193.9816983927039
 30
0.0
 11
105.6645245795567
 21
193.9816983927039
 31
0.0
  0
LINE
  5
179A
330
A9E
100
AcDbEntity
  8
0
  6
CONTINUOUS
100
AcDbLine
 10
111.6645245795567
 20
190.8816993927039
 30
0.0
 11
109.6645245795567
 21
190.8816993927039
 31
0.0
  0
LINE
  5
179B
330
A9E
100
AcDbEntity
  8
0
  6
CONTINUOUS
100
AcDbLine
 10
118.2645245795562
 20
181.3816983927035
 30
0.0
 11
117.2645245795562
 21
181.3816983927035
 31
0.0
  0
LINE
  5
179C
330
A9E
100
AcDbEntity
  8
0
  6
CONTINUOUS
100
AcDbLine
 10
118.2645245795562
 20
181.3816983927035
 30
0.0
 11
118.2645245795562
 21
179.8738163927037
 31
0.0
  0
ARC
  5
179D
330
A9E
100
AcDbEntity
  8
0
  6
CONTINUOUS
100
AcDbCircle
 10
117.7645245795562
 20
179.8738163927037
 30
0.0
 40
0.5
100
AcDbArc
 50
269.1171789999794
 51
0.0
  0
LINE
  5
179E
330
A9E
100
AcDbEntity
  8
0
  6
CONTINUOUS
100
AcDbLine
 10
52.57434257955686
 20
211.3848653927034
 30
0.0
 11
117.2645245795562
 21
212.3816983927035
 31
0.0
  0
LINE
  5
179F
330
A9E
100
AcDbEntity
  8
0
  6
CONTINUOUS
100
AcDbLine
 10
57.80448657955606
 20
213.4656953927042
 30
0.0
 11
117.7568205795565
 21
214.3895223927038
 31
0.0
  0
LINE
  5
17A0
330
A9E
100
AcDbEntity
  8
0
  6
CONTINUOUS
100
AcDbLine
 10
57.96786557955659
 20
206.9674413927041
 30
0.0
 11
117.2645245795562
 21
207.8811643927037
 31
0.0
  0
LINE
  5
17A1
330
A9E
100
AcDbEntity
  8
0
  6
CONTINUOUS
100
AcDbLine
 10
69.66452457955677
 20
202.8816993927039
 30
0.0
 11
71.66452457955677
 21
202.8816993927039
 31
0.0
  0
ARC
  5
17A2
330
A9E
100
AcDbEntity
  8
2_カバ_
  6
CONTINUOUS
 62
     7
100
AcDbCircle
 10
150.6645245795568
 20
196.8816993927039
 30
0.0
 40
100.0
100
AcDbArc
 50
171.6685120000161
 51
172.1601739999854
  0
LINE
  5
17A3
330
A9E
100
AcDbEntity
  8
2_カバ_
  6
CONTINUOUS
 62
     7
100
AcDbLine
 10
51.71989357955647
 20
211.3716983927042
 30
0.0
 11
52.57434257955686
 21
211.3848653927034
 31
0.0
  0
ARC
  5
17A4
330
A9E
100
AcDbEntity
  8
0
  6
CONTINUOUS
100
AcDbCircle
 10
52.58975057955627
 20
210.3849843927038
 30
0.0
 40
1.0
100
AcDbArc
 50
90.88282099996837
 51
172.1606020000355
  0
LINE
  5
17A5
330
A9E
100
AcDbEntity
  8
0
  6
CONTINUOUS
100
AcDbLine
 10
56.81989357955683
 20
212.4658143927035
 30
0.0
 11
56.81989357955683
 21
211.4502863927036
 31
0.0
  0
ARC
  5
17A6
330
A9E
100
AcDbEntity
  8
0
  6
CONTINUOUS
100
AcDbCircle
 10
57.81989357955689
 20
212.4658143927037
 30
0.0
 40
1.0
100
AcDbArc
 50
90.88282099996837
 51
180.0
  0
ARC
  5
17A7
330
A9E
100
AcDbEntity
  8
0
  6
CONTINUOUS
100
AcDbCircle
 10
57.99868057955672
 20
204.9676793927038
 30
0.0
 40
2.0
100
AcDbArc
 50
90.88282099996837
 51
175.2671449999835
  0
LINE
  5
17A8
330
A9E
100
AcDbEntity
  8
0
  6
CONTINUOUS
100
AcDbLine
 10
65.66452457955676
 20
202.8816993927039
 30
0.0
 11
67.66452457955677
 21
202.8816993927039
 31
0.0
  0
LINE
  5
17A9
330
A9E
100
AcDbEntity
  8
0
  6
CONTINUOUS
100
AcDbLine
 10
61.66452457955677
 20
202.8816993927039
 30
0.0
 11
63.66452457955677
 21
202.8816993927039
 31
0.0
  0
LINE
  5
17AA
330
A9E
100
AcDbEntity
  8
0
  6
CONTINUOUS
100
AcDbLine
 10
83.66452457955677
 20
202.8816983927035
 30
0.0
 11
81.66452457955676
 21
202.8816983927035
 31
0.0
  0
LINE
  5
17AB
330
A9E
100
AcDbEntity
  8
0
  6
CONTINUOUS
100
AcDbLine
 10
73.66452457955677
 20
202.8816993927039
 30
0.0
 11
75.66452457955676
 21
202.8816993927039
 31
0.0
  0
LINE
  5
17AC
330
A9E
100
AcDbEntity
  8
0
  6
CONTINUOUS
100
AcDbLine
 10
77.66452457955677
 20
202.8816993927039
 30
0.0
 11
79.66452457955677
 21
202.8816993927039
 31
0.0
  0
LINE
  5
17AD
330
A9E
100
AcDbEntity
  8
0
  6
CONTINUOUS
100
AcDbLine
 10
87.66452457955677
 20
202.8816983927035
 30
0.0
 11
85.66452457955676
 21
202.8816983927035
 31
0.0
  0
LINE
  5
17AE
330
A9E
100
AcDbEntity
  8
0
  6
CONTINUOUS
100
AcDbLine
 10
91.66452457955676
 20
202.8816983927035
 30
0.0
 11
89.66452457955677
 21
202.8816983927035
 31
0.0
  0
LINE
  5
17AF
330
A9E
100
AcDbEntity
  8
0
  6
CONTINUOUS
100
AcDbLine
 10
97.36452457955659
 20
202.7816983927041
 30
0.0
 11
101.3645245795565
 21
202.7816983927041
 31
0.0
  0
LINE
  5
17B0
330
A9E
100
AcDbEntity
  8
0
  6
CONTINUOUS
100
AcDbLine
 10
106.6645245795567
 20
202.8816993927039
 30
0.0
 11
107.6645245795567
 21
202.8816993927039
 31
0.0
  0
LINE
  5
17B1
330
A9E
100
AcDbEntity
  8
0
  6
CONTINUOUS
100
AcDbLine
 10
109.6645245795567
 20
202.8816993927039
 30
0.0
 11
111.6645245795567
 21
202.8816993927039
 31
0.0
  0
LINE
  5
17B2
330
A9E
100
AcDbEntity
  8
0
  6
CONTINUOUS
100
AcDbLine
 10
117.2645245795562
 20
212.3816983927035
 30
0.0
 11
118.2645245795562
 21
212.3816983927035
 31
0.0
  0
LINE
  5
17B3
330
A9E
100
AcDbEntity
  8
0
  6
CONTINUOUS
100
AcDbLine
 10
118.2645245795562
 20
212.3816983927035
 30
0.0
 11
118.2645245795562
 21
213.8895813927037
 31
0.0
  0
ARC
  5
17B4
330
A9E
100
AcDbEntity
  8
0
  6
CONTINUOUS
100
AcDbCircle
 10
117.7645245795563
 20
213.8895813927037
 30
0.0
 40
0.5
100
AcDbArc
 50
0.0
 51
90.88282099996837
  0
ENDSEC
  0
SECTION
  2
OBJECTS
  0
DICTIONARY
  5
A8C
330
0
100
AcDbDictionary
  3
ACAD_GROUP
350
A8D
  3
ACAD_LAYOUT
350
A99
  3
ACAD_MLINESTYLE
350
A96
  3
ACAD_PLOTSETTINGS
350
A98
  3
ACAD_PLOTSTYLENAME
350
A8E
  3
ACDBHEADERROUNDTRIPXREC
350
17C5
  3
ACDBVARIABLEDICTIONARY
350
17C2
  0
DICTIONARY
  5
101D
330
A82
100
AcDbDictionary
280
     1
  3
ACAD_LAYERSTATES
360
101E
  0
DICTIONARY
  5
17E7
330
A9E
100
AcDbDictionary
280
     1
  3
ACAD_LAYOUTSELFREF
360
17E8
  0
DICTIONARY
  5
17E5
330
A9A
100
AcDbDictionary
280
     1
  3
ACAD_LAYOUTSELFREF
360
17E6
  0
DICTIONARY
  5
A8D
102
{ACAD_REACTORS
330
A8C
102
}
330
A8C
100
AcDbDictionary
  0
DICTIONARY
  5
A99
102
{ACAD_REACTORS
330
A8C
102
}
330
A8C
100
AcDbDictionary
  0
DICTIONARY
  5
A96
102
{ACAD_REACTORS
330
A8C
102
}
330
A8C
100
AcDbDictionary
  3
STANDARD
350
A97
  0
DICTIONARY
  5
A98
102
{ACAD_REACTORS
330
A8C
102
}
330
A8C
100
AcDbDictionary
  0
ACDBDICTIONARYWDFLT
  5
A8E
102
{ACAD_REACTORS
330
A8C
102
}
330
A8C
100
AcDbDictionary
281
     1
  3
Normal
350
A8F
100
AcDbDictionaryWithDefault
340
A8F
  0
DICTIONARY
  5
17C5
102
{ACAD_REACTORS
330
A8C
102
}
330
A8C
100
AcDbDictionary
  3
CEPSNTYPE
350
17CF
  3
FINGERPRINTGUID
350
17D0
  3
HYPERLINKBASE
350
17C8
  3
INSUNITS
350
17CE
  3
LAYOUTDICT
350
17CA
  3
LWETCUNION
350
17CD
  3
PLOTSETDICT
350
17CB
  3
PLOTSTYLNAMDICT
350
17CC
  3
PSVPSCALE
350
17D2
  3
PUCSBASE
350
17D5
  3
PUCSORGBACK
350
17DB
  3
PUCSORGBOTTOM
350
17D7
  3
PUCSORGFRONT
350
17DA
  3
PUCSORGLEFT
350
17D8
  3
PUCSORGRIGHT
350
17D9
  3
PUCSORGTOP
350
17D6
  3
PUCSORTHOREF
350
17D3
  3
PUCSORTHOVIEW
350
17D4
  3
STYLESHEET
350
17C9
  3
TSTACKALIGN
350
17C6
  3
TSTACKSIZE
350
17C7
  3
UCSBASE
350
17DE
  3
UCSORGBACK
350
17E4
  3
UCSORGBOTTOM
350
17E0
  3
UCSORGFRONT
350
17E3
  3
UCSORGLEFT
350
17E1
  3
UCSORGRIGHT
350
17E2
  3
UCSORGTOP
350
17DF
  3
UCSORTHOREF
350
17DC
  3
UCSORTHOVIEW
350
17DD
  3
VERSIONGUID
350
17D1
  0
DICTIONARY
  5
17C2
102
{ACAD_REACTORS
330
A8C
102
}
330
A8C
100
AcDbDictionary
  3
DIMASSOC
350
17C3
  0
DICTIONARY
  5
101E
102
{ACAD_REACTORS
330
101D
102
}
330
101D
100
AcDbDictionary
  0
XRECORD
  5
17E8
102
{ACAD_REACTORS
330
17E7
102
}
330
17E7
100
AcDbXrecord
340
A9E
  0
XRECORD
  5
17E6
102
{ACAD_REACTORS
330
17E5
102
}
330
17E5
100
AcDbXrecord
340
A9A
  0
MLINESTYLE
  5
A97
102
{ACAD_REACTORS
330
A96
102
}
330
A96
100
AcDbMlineStyle
  2
STANDARD
 70
     0
  3

 62
   256
 51
90.0
 52
90.0
 71
     2
 49
0.5
 62
   256
  6
BYLAYER
 49
-0.5
 62
   256
  6
BYLAYER
  0
ACDBPLACEHOLDER
  5
A8F
102
{ACAD_REACTORS
330
A8E
102
}
330
A8E
100
AcDbPlaceHolder
280
     0
  0
XRECORD
  5
17CF
102
{ACAD_REACTORS
330
17C5
102
}
330
17C5
100
AcDbXrecord
 90
        0
  0
XRECORD
  5
17D0
102
{ACAD_REACTORS
330
17C5
102
}
330
17C5
100
AcDbXrecord
  1
{8E1E849A-816D-4D51-B587-DF129F76AA47}
  0
XRECORD
  5
17C8
102
{ACAD_REACTORS
330
17C5
102
}
330
17C5
100
AcDbXrecord
  1

  0
XRECORD
  5
17CE
102
{ACAD_REACTORS
330
17C5
102
}
330
17C5
100
AcDbXrecord
 90
        0
  0
XRECORD
  5
17CA
102
{ACAD_REACTORS
330
17C5
102
}
330
17C5
100
AcDbXrecord
340
A99
  0
XRECORD
  5
17CD
102
{ACAD_REACTORS
330
17C5
102
}
330
17C5
100
AcDbXrecord
 90
    10781
  0
XRECORD
  5
17CB
102
{ACAD_REACTORS
330
17C5
102
}
330
17C5
100
AcDbXrecord
340
A98
  0
XRECORD
  5
17CC
102
{ACAD_REACTORS
330
17C5
102
}
330
17C5
100
AcDbXrecord
340
A8E
  0
XRECORD
  5
17D2
102
{ACAD_REACTORS
330
17C5
102
}
330
17C5
100
AcDbXrecord
 40
0.0
  0
XRECORD
  5
17D5
102
{ACAD_REACTORS
330
17C5
102
}
330
17C5
100
AcDbXrecord
340
0
  0
XRECORD
  5
17DB
102
{ACAD_REACTORS
330
17C5
102
}
330
17C5
100
AcDbXrecord
 10
0.0
 20
0.0
 30
0.0
  0
XRECORD
  5
17D7
102
{ACAD_REACTORS
330
17C5
102
}
330
17C5
100
AcDbXrecord
 10
0.0
 20
0.0
 30
0.0
  0
XRECORD
  5
17DA
102
{ACAD_REACTORS
330
17C5
102
}
330
17C5
100
AcDbXrecord
 10
0.0
 20
0.0
 30
0.0
  0
XRECORD
  5
17D8
102
{ACAD_REACTORS
330
17C5
102
}
330
17C5
100
AcDbXrecord
 10
0.0
 20
0.0
 30
0.0
  0
XRECORD
  5
17D9
102
{ACAD_REACTORS
330
17C5
102
}
330
17C5
100
AcDbXrecord
 10
0.0
 20
0.0
 30
0.0
  0
XRECORD
  5
17D6
102
{ACAD_REACTORS
330
17C5
102
}
330
17C5
100
AcDbXrecord
 10
0.0
 20
0.0
 30
0.0
  0
XRECORD
  5
17D3
102
{ACAD_REACTORS
330
17C5
102
}
330
17C5
100
AcDbXrecord
340
0
  0
XRECORD
  5
17D4
102
{ACAD_REACTORS
330
17C5
102
}
330
17C5
100
AcDbXrecord
 70
     0
  0
XRECORD
  5
17C9
102
{ACAD_REACTORS
330
17C5
102
}
330
17C5
100
AcDbXrecord
  1

  0
XRECORD
  5
17C6
102
{ACAD_REACTORS
330
17C5
102
}
330
17C5
100
AcDbXrecord
 90
        1
  0
XRECORD
  5
17C7
102
{ACAD_REACTORS
330
17C5
102
}
330
17C5
100
AcDbXrecord
 90
       70
  0
XRECORD
  5
17DE
102
{ACAD_REACTORS
330
17C5
102
}
330
17C5
100
AcDbXrecord
340
0
  0
XRECORD
  5
17E4
102
{ACAD_REACTORS
330
17C5
102
}
330
17C5
100
AcDbXrecord
 10
0.0
 20
0.0
 30
0.0
  0
XRECORD
  5
17E0
102
{ACAD_REACTORS
330
17C5
102
}
330
17C5
100
AcDbXrecord
 10
0.0
 20
0.0
 30
0.0
  0
XRECORD
  5
17E3
102
{ACAD_REACTORS
330
17C5
102
}
330
17C5
100
AcDbXrecord
 10
0.0
 20
0.0
 30
0.0
  0
XRECORD
  5
17E1
102
{ACAD_REACTORS
330
17C5
102
}
330
17C5
100
AcDbXrecord
 10
0.0
 20
0.0
 30
0.0
  0
XRECORD
  5
17E2
102
{ACAD_REACTORS
330
17C5
102
}
330
17C5
100
AcDbXrecord
 10
0.0
 20
0.0
 30
0.0
  0
XRECORD
  5
17DF
102
{ACAD_REACTORS
330
17C5
102
}
330
17C5
100
AcDbXrecord
 10
0.0
 20
0.0
 30
0.0
  0
XRECORD
  5
17DC
102
{ACAD_REACTORS
330
17C5
102
}
330
17C5
100
AcDbXrecord
340
0
  0
XRECORD
  5
17DD
102
{ACAD_REACTORS
330
17C5
102
}
330
17C5
100
AcDbXrecord
 70
     0
  0
XRECORD
  5
17D1
102
{ACAD_REACTORS
330
17C5
102
}
330
17C5
100
AcDbXrecord
  1
{6569A593-8859-41AC-B656-F526186A39BC}
  0
DICTIONARYVAR
  5
17C3
102
{ACAD_REACTORS
330
17C2
102
}
330
17C2
100
DictionaryVariables
280
     0
  1
1
  0
ENDSEC
  0
EOF
