  0
SECTION
  2
HEADER
  9
$ACADVER
  1
AC1014
  9
$ACADMAINTVER
 70
     9
  9
$DWGCODEPAGE
  3
ANSI_932
  9
$INSBASE
 10
0.0
 20
0.0
 30
0.0
  9
$EXTMIN
 10
0.0000013795338418
 20
-0.0000007231215023
 30
0.0
  9
$EXTMAX
 10
336.948565928047
 20
438.8181798768007
 30
6.483974233579615E+99
  9
$LIMMIN
 10
0.0
 20
0.0
  9
$LIMMAX
 10
420.0
 20
297.0
  9
$ORTHOMODE
 70
     0
  9
$REGENMODE
 70
     1
  9
$FILLMODE
 70
     1
  9
$QTEXTMODE
 70
     0
  9
$MIRRTEXT
 70
     1
  9
$DRAGMODE
 70
     2
  9
$LTSCALE
 40
1.0
  9
$OSMODE
 70
    55
  9
$ATTMODE
 70
     1
  9
$TEXTSIZE
 40
2.5
  9
$TRACEWID
 40
1.0
  9
$TEXTSTYLE
  7
STANDARD
  9
$CLAYER
  8
0
  9
$CELTYPE
  6
BYLAYER
  9
$CECOLOR
 62
   256
  9
$CELTSCALE
 40
1.0
  9
$DELOBJ
 70
     1
  9
$DISPSILH
 70
     0
  9
$DIMSCALE
 40
1.0
  9
$DIMASZ
 40
2.5
  9
$DIMEXO
 40
0.625
  9
$DIMDLI
 40
3.75
  9
$DIMRND
 40
0.0
  9
$DIMDLE
 40
0.0
  9
$DIMEXE
 40
1.25
  9
$DIMTP
 40
0.0
  9
$DIMTM
 40
0.0
  9
$DIMTXT
 40
2.5
  9
$DIMCEN
 40
2.5
  9
$DIMTSZ
 40
0.0
  9
$DIMTOL
 70
     0
  9
$DIMLIM
 70
     0
  9
$DIMTIH
 70
     0
  9
$DIMTOH
 70
     0
  9
$DIMSE1
 70
     0
  9
$DIMSE2
 70
     0
  9
$DIMTAD
 70
     1
  9
$DIMZIN
 70
     8
  9
$DIMBLK
  1

  9
$DIMASO
 70
     1
  9
$DIMSHO
 70
     1
  9
$DIMPOST
  1

  9
$DIMAPOST
  1

  9
$DIMALT
 70
     0
  9
$DIMALTD
 70
     3
  9
$DIMALTF
 40
0.03937007874016
  9
$DIMLFAC
 40
1.0
  9
$DIMTOFL
 70
     1
  9
$DIMTVP
 40
0.0
  9
$DIMTIX
 70
     0
  9
$DIMSOXD
 70
     0
  9
$DIMSAH
 70
     0
  9
$DIMBLK1
  1

  9
$DIMBLK2
  1

  9
$DIMSTYLE
  2
ISO-25
  9
$DIMCLRD
 70
     0
  9
$DIMCLRE
 70
     0
  9
$DIMCLRT
 70
     0
  9
$DIMTFAC
 40
1.0
  9
$DIMGAP
 40
0.625
  9
$DIMJUST
 70
     0
  9
$DIMSD1
 70
     0
  9
$DIMSD2
 70
     0
  9
$DIMTOLJ
 70
     0
  9
$DIMTZIN
 70
     8
  9
$DIMALTZ
 70
     0
  9
$DIMALTTZ
 70
     0
  9
$DIMFIT
 70
     3
  9
$DIMUPT
 70
     0
  9
$DIMUNIT
 70
     2
  9
$DIMDEC
 70
     2
  9
$DIMTDEC
 70
     2
  9
$DIMALTU
 70
     2
  9
$DIMALTTD
 70
     3
  9
$DIMTXSTY
  7
STANDARD
  9
$DIMAUNIT
 70
     0
  9
$LUNITS
 70
     2
  9
$LUPREC
 70
     4
  9
$SKETCHINC
 40
1.0
  9
$FILLETRAD
 40
10.0
  9
$AUNITS
 70
     0
  9
$AUPREC
 70
     0
  9
$MENU
  1
.
  9
$ELEVATION
 40
0.0
  9
$PELEVATION
 40
0.0
  9
$THICKNESS
 40
0.0
  9
$LIMCHECK
 70
     0
  9
$BLIPMODE
 70
     0
  9
$CHAMFERA
 40
10.0
  9
$CHAMFERB
 40
10.0
  9
$CHAMFERC
 40
20.0
  9
$CHAMFERD
 40
0.0
  9
$SKPOLY
 70
     0
  9
$TDCREATE
 40
2455006.418269699
  9
$TDUPDATE
 40
2455006.446652002
  9
$TDINDWG
 40
0.0025797569
  9
$TDUSRTIMER
 40
0.0025797569
  9
$USRTIMER
 70
     1
  9
$ANGBASE
 50
0.0
  9
$ANGDIR
 70
     0
  9
$PDMODE
 70
     0
  9
$PDSIZE
 40
0.0
  9
$PLINEWID
 40
0.0
  9
$COORDS
 70
     0
  9
$SPLFRAME
 70
     0
  9
$SPLINETYPE
 70
     6
  9
$SPLINESEGS
 70
     8
  9
$ATTDIA
 70
     0
  9
$ATTREQ
 70
     1
  9
$HANDLING
 70
 22529
  9
$HANDSEED
  5
BA6
  9
$SURFTAB1
 70
     6
  9
$SURFTAB2
 70
     6
  9
$SURFTYPE
 70
     6
  9
$SURFU
 70
     6
  9
$SURFV
 70
     6
  9
$UCSNAME
  2

  9
$UCSORG
 10
0.0
 20
0.0
 30
0.0
  9
$UCSXDIR
 10
1.0
 20
0.0
 30
0.0
  9
$UCSYDIR
 10
0.0
 20
1.0
 30
0.0
  9
$PUCSNAME
  2

  9
$PUCSORG
 10
0.0
 20
0.0
 30
0.0
  9
$PUCSXDIR
 10
1.0
 20
0.0
 30
0.0
  9
$PUCSYDIR
 10
0.0
 20
1.0
 30
0.0
  9
$USERI1
 70
     0
  9
$USERI2
 70
     0
  9
$USERI3
 70
     0
  9
$USERI4
 70
     0
  9
$USERI5
 70
     0
  9
$USERR1
 40
0.0
  9
$USERR2
 40
0.0
  9
$USERR3
 40
0.0
  9
$USERR4
 40
0.0
  9
$USERR5
 40
0.0
  9
$WORLDVIEW
 70
     1
  9
$SHADEDGE
 70
     3
  9
$SHADEDIF
 70
    70
  9
$TILEMODE
 70
     1
  9
$MAXACTVP
 70
    64
  9
$PINSBASE
 10
0.0
 20
0.0
 30
0.0
  9
$PLIMCHECK
 70
     0
  9
$PEXTMIN
 10
1.000000000000000E+20
 20
1.000000000000000E+20
 30
1.000000000000000E+20
  9
$PEXTMAX
 10
-1.000000000000000E+20
 20
-1.000000000000000E+20
 30
-1.000000000000000E+20
  9
$PLIMMIN
 10
0.0
 20
0.0
  9
$PLIMMAX
 10
420.0
 20
297.0
  9
$UNITMODE
 70
     0
  9
$VISRETAIN
 70
     1
  9
$PLINEGEN
 70
     0
  9
$PSLTSCALE
 70
     1
  9
$TREEDEPTH
 70
  3020
  9
$PICKSTYLE
 70
     1
  9
$CMLSTYLE
  2
STANDARD
  9
$CMLJUST
 70
     0
  9
$CMLSCALE
 40
20.0
  9
$PROXYGRAPHICS
 70
     1
  9
$MEASUREMENT
 70
     1
  0
ENDSEC
  0
SECTION
  2
CLASSES
  0
CLASS
  1
ACDBDICTIONARYWDFLT
  2
AcDbDictionaryWithDefault
  3
AutoCAD 2000
 90
        0
280
     0
281
     0
  0
CLASS
  1
ACDBPLACEHOLDER
  2
AcDbPlaceHolder
  3
AutoCAD 2000
 90
        0
280
     0
281
     0
  0
CLASS
  1
LAYOUT
  2
AcDbLayout
  3
AutoCAD 2000
 90
        0
280
     0
281
     0
  0
CLASS
  1
DIMASSOC
  2
AcDbDimAssoc
  3
"AcDbDimAssoc|Product Desc:     AcDim ARX App For Dimension|Company:          Autodesk, Inc.|WEB Address:      www.autodesk.com"
 90
        0
280
     0
281
     0
  0
CLASS
  1
DICTIONARYVAR
  2
AcDbDictionaryVar
  3
AutoCAD 2000
 90
        0
280
     0
281
     0
  0
CLASS
  1
LONG_TRANSACTION
  2
AcDbLongTransaction
  3
AutoCAD 2000
 90
        0
280
     0
281
     0
  0
CLASS
  1
LWPOLYLINE
  2
AcDbPolyline
  3
AutoCAD 2000
 90
        0
280
     0
281
     1
  0
CLASS
  1
HATCH
  2
AcDbHatch
  3
AutoCAD 2000
 90
        0
280
     0
281
     1
  0
CLASS
  1
XRECORD
  2
AcDbXrecord
  3
AutoCAD 2000
 90
        0
280
     0
281
     0
  0
CLASS
  1
LONG_TRANSACTION
  2
AcDbLongTransaction
  3
AutoCAD 2000
 90
        0
280
     0
281
     0
  0
CLASS
  1
LWPOLYLINE
  2
AcDbPolyline
  3
AutoCAD 2000
 90
        0
280
     0
281
     1
  0
CLASS
  1
HATCH
  2
AcDbHatch
  3
AutoCAD 2000
 90
        0
280
     0
281
     1
  0
CLASS
  1
XRECORD
  2
AcDbXrecord
  3
AutoCAD 2000
 90
        0
280
     0
281
     0
  0
ENDSEC
  0
SECTION
  2
TABLES
  0
TABLE
  2
VPORT
  5
8
330
0
100
AcDbSymbolTable
 70
     2
  0
VPORT
  5
B83
330
8
100
AcDbSymbolTableRecord
100
AcDbViewportTableRecord
  2
*ACTIVE
 70
     0
 10
0.0
 20
0.0
 11
1.0
 21
1.0
 12
168.4742836537903
 22
219.4090895768396
 13
0.0
 23
0.0
 14
10.0
 24
10.0
 15
10.0
 25
10.0
 16
0.0
 26
0.0
 36
1.0
 17
0.0
 27
0.0
 37
0.0
 40
442.1011096318418
 41
1.504369538077403
 42
50.0
 43
0.0
 44
0.0
 50
0.0
 51
0.0
 71
     0
 72
   100
 73
     1
 74
     3
 75
     0
 76
     0
 77
     0
 78
     0
  0
ENDTAB
  0
TABLE
  2
LTYPE
  5
5
330
0
100
AcDbSymbolTable
 70
     3
  0
LTYPE
  5
14
330
5
100
AcDbSymbolTableRecord
100
AcDbLinetypeTableRecord
  2
BYBLOCK
 70
     0
  3

 72
    65
 73
     0
 40
0.0
  0
LTYPE
  5
15
330
5
100
AcDbSymbolTableRecord
100
AcDbLinetypeTableRecord
  2
BYLAYER
 70
     0
  3

 72
    65
 73
     0
 40
0.0
  0
LTYPE
  5
16
330
5
100
AcDbSymbolTableRecord
100
AcDbLinetypeTableRecord
  2
CONTINUOUS
 70
     0
  3
Solid line
 72
    65
 73
     0
 40
0.0
  0
LTYPE
  5
211
330
5
100
AcDbSymbolTableRecord
100
AcDbLinetypeTableRecord
  2
CENTER
 70
     0
  3
____ _ ____ _ ____ _ ____ _ ____ _ ____ _ ____
 72
    65
 73
     4
 40
2.0
 49
1.25
 74
     0
 49
-0.25
 74
     0
 49
0.25
 74
     0
 49
-0.25
 74
     0
  0
LTYPE
  5
212
330
5
100
AcDbSymbolTableRecord
100
AcDbLinetypeTableRecord
  2
DIVIDE
 70
     0
  3
__ . . __ . . __ . . __ . . __ . . __ . . __
 72
    65
 73
     6
 40
1.25
 49
0.0
 74
     0
 49
-0.25
 74
     0
 49
0.0
 74
     0
 49
-0.25
 74
     0
 49
0.0
 74
     0
 49
-0.25
 74
     0
  0
ENDTAB
  0
TABLE
  2
LAYER
  5
2
102
{ACAD_XDICTIONARY
360
220
102
}
330
0
100
AcDbSymbolTable
 70
     6
  0
LAYER
  5
10
330
2
100
AcDbSymbolTableRecord
100
AcDbLayerTableRecord
  2
0
 70
     0
 62
     7
  6
CONTINUOUS
  0
LAYER
  5
213
330
2
100
AcDbSymbolTableRecord
100
AcDbLayerTableRecord
  2
外枠
 70
     0
 62
     7
  6
CONTINUOUS
  0
LAYER
  5
216
330
2
100
AcDbSymbolTableRecord
100
AcDbLayerTableRecord
  2
DEFPOINTS
 70
     0
 62
     7
  6
CONTINUOUS
  0
LAYER
  5
217
330
2
100
AcDbSymbolTableRecord
100
AcDbLayerTableRecord
  2
CLASS1
 70
     0
 62
     7
  6
CONTINUOUS
  0
LAYER
  5
218
330
2
100
AcDbSymbolTableRecord
100
AcDbLayerTableRecord
  2
3_表示パネル
 70
     0
 62
     7
  6
DIVIDE
  0
ENDTAB
  0
TABLE
  2
STYLE
  5
3
330
0
100
AcDbSymbolTable
 70
     1
  0
STYLE
  5
11
330
3
100
AcDbSymbolTableRecord
100
AcDbTextStyleTableRecord
  2
STANDARD
 70
     0
 40
0.0
 41
1.0
 50
0.0
 71
     0
 42
2.5
  3
txt
  4

  0
ENDTAB
  0
TABLE
  2
VIEW
  5
6
330
0
100
AcDbSymbolTable
 70
     0
  0
ENDTAB
  0
TABLE
  2
UCS
  5
7
330
0
100
AcDbSymbolTable
 70
     0
  0
ENDTAB
  0
TABLE
  2
APPID
  5
9
330
0
100
AcDbSymbolTable
 70
     1
  0
APPID
  5
12
330
9
100
AcDbSymbolTableRecord
100
AcDbRegAppTableRecord
  2
ACAD
 70
     0
  0
ENDTAB
  0
TABLE
  2
DIMSTYLE
  5
A
330
0
100
AcDbSymbolTable
 70
     1
  0
DIMSTYLE
105
27
330
A
100
AcDbSymbolTableRecord
100
AcDbDimStyleTableRecord
  2
ISO-25
 70
     0
  3

  4

  5

  6

  7

 40
1.0
 41
2.5
 42
0.625
 43
3.75
 44
1.25
 45
0.0
 46
0.0
 47
0.0
 48
0.0
140
2.5
141
2.5
142
0.0
143
0.03937007874016
144
1.0
145
0.0
146
1.0
147
0.625
 71
     0
 72
     0
 73
     0
 74
     0
 75
     0
 76
     0
 77
     1
 78
     8
170
     0
171
     3
172
     1
173
     0
174
     0
175
     0
176
     0
177
     0
178
     0
270
     2
271
     2
272
     2
273
     2
274
     3
340
11
275
     0
280
     0
281
     0
282
     0
283
     0
284
     8
285
     0
286
     0
287
     3
288
     0
  0
ENDTAB
  0
TABLE
  2
BLOCK_RECORD
  5
1
330
0
100
AcDbSymbolTable
 70
     2
  0
BLOCK_RECORD
  5
1F
102
{ACAD_XDICTIONARY
360
B78
102
}
330
1
100
AcDbSymbolTableRecord
100
AcDbBlockTableRecord
  2
*MODEL_SPACE
  0
BLOCK_RECORD
  5
1B
102
{ACAD_XDICTIONARY
360
B76
102
}
330
1
100
AcDbSymbolTableRecord
100
AcDbBlockTableRecord
  2
*PAPER_SPACE
  0
BLOCK_RECORD
  5
31
330
1
100
AcDbSymbolTableRecord
100
AcDbBlockTableRecord
  2
A$C51C20FFB
  0
BLOCK_RECORD
  5
76
330
1
100
AcDbSymbolTableRecord
100
AcDbBlockTableRecord
  2
A$C627E4F0D
  0
ENDTAB
  0
ENDSEC
  0
SECTION
  2
BLOCKS
  0
BLOCK
  5
20
330
1F
100
AcDbEntity
  8
0
100
AcDbBlockBegin
  2
*MODEL_SPACE
 70
     0
 10
0.0
 20
0.0
 30
0.0
  3
*MODEL_SPACE
  1

  0
ENDBLK
  5
21
330
1F
100
AcDbEntity
  8
0
100
AcDbBlockEnd
  0
BLOCK
  5
1C
330
1B
100
AcDbEntity
 67
     1
  8
0
100
AcDbBlockBegin
  2
*PAPER_SPACE
 70
     0
 10
0.0
 20
0.0
 30
0.0
  3
*PAPER_SPACE
  1

  0
ENDBLK
  5
1D
330
1B
100
AcDbEntity
 67
     1
  8
0
100
AcDbBlockEnd
  0
BLOCK
  5
36
330
31
100
AcDbEntity
  8
0
100
AcDbBlockBegin
  2
A$C51C20FFB
 70
     0
 10
0.0
 20
0.0
 30
0.0
  3
A$C51C20FFB
  1

  0
LINE
  5
32
330
31
100
AcDbEntity
  8
0
100
AcDbLine
 10
31.0
 20
2.499998662678081
 30
0.0
 11
0.0
 21
2.499998662678081
 31
0.0
  0
LINE
  5
33
330
31
100
AcDbEntity
  8
0
100
AcDbLine
 10
31.0
 20
-0.000001337321919
 30
0.0
 11
31.0
 21
2.499998662678081
 31
0.0
  0
LINE
  5
34
330
31
100
AcDbEntity
  8
0
100
AcDbLine
 10
0.0
 20
-0.000001337321919
 30
0.0
 11
31.0
 21
-0.000001337321919
 31
0.0
  0
LINE
  5
35
330
31
100
AcDbEntity
  8
0
100
AcDbLine
 10
0.0
 20
2.499998662678081
 30
0.0
 11
0.0
 21
-0.000001337321919
 31
0.0
  0
ENDBLK
  5
37
330
31
100
AcDbEntity
  8
0
100
AcDbBlockEnd
  0
BLOCK
  5
20F
330
76
100
AcDbEntity
  8
0
100
AcDbBlockBegin
  2
A$C627E4F0D
 70
     0
 10
0.0
 20
0.0
 30
0.0
  3
A$C627E4F0D
  1

  0
LINE
  5
77
330
76
100
AcDbEntity
  8
0
100
AcDbLine
 10
-0.1890242188134152
 20
-0.8071067811864567
 30
0.0
 11
-0.1890242188134152
 21
-23.60710678118651
 31
0.0
  0
LINE
  5
78
330
76
100
AcDbEntity
  8
0
100
AcDbLine
 10
-0.2928932188134468
 20
-0.7071067811864343
 30
0.0
 11
-0.2928932188134468
 21
-23.70710678118642
 31
0.0
  0
ARC
  5
79
330
76
100
AcDbEntity
  8
0
100
AcDbCircle
 10
0.8109757811865847
 20
-23.60710678118657
 30
0.0
 40
1.0
100
AcDbArc
 50
180.0
 51
270.0
  0
ARC
  5
7A
330
76
100
AcDbEntity
  8
0
100
AcDbCircle
 10
0.7071067811865534
 20
-23.70710678118653
 30
0.0
 40
1.0
100
AcDbArc
 50
180.0
 51
270.0
  0
LINE
  5
7B
330
76
100
AcDbEntity
  8
0
100
AcDbLine
 10
46.91097578118671
 20
-10.10710678118652
 30
0.0
 11
52.61097578118675
 21
-10.10710678118652
 31
0.0
  0
LINE
  5
7C
330
76
100
AcDbEntity
  8
外枠
100
AcDbLine
 10
46.38097478118459
 20
-17.60710678118652
 30
0.0
 11
47.1309747811864
 21
-17.60710678118652
 31
0.0
  0
LINE
  5
7D
330
76
100
AcDbEntity
  8
0
100
AcDbLine
 10
18.0309747811865
 20
-4.407106781186478
 30
0.0
 11
21.1309747811864
 21
-4.407106781186478
 31
0.0
  0
CIRCLE
  5
7E
330
76
100
AcDbEntity
  8
0
100
AcDbCircle
 10
19.59597478118654
 20
-9.207106781186547
 30
0.0
 40
1.564999999999999
  0
LINE
  5
7F
330
76
100
AcDbEntity
  8
0
100
AcDbLine
 10
20.73097478118654
 20
-7.057106781186455
 30
0.0
 11
17.69097478118657
 21
-7.057106781186455
 31
0.0
  0
LINE
  5
80
330
76
100
AcDbEntity
  8
0
100
AcDbLine
 10
18.0309747811865
 20
-6.907106781186477
 30
0.0
 11
20.73097478118654
 21
-6.907106781186477
 31
0.0
  0
ARC
  5
81
330
76
100
AcDbEntity
  8
0
100
AcDbCircle
 10
19.59597478118654
 20
-9.207106781186547
 30
0.0
 40
0.85
100
AcDbArc
 50
270.0
 51
233.269604999998
  0
LINE
  5
82
330
76
100
AcDbEntity
  8
0
100
AcDbLine
 10
21.43097478118659
 20
-5.057106781186456
 30
0.0
 11
18.63097478118641
 21
-5.057106781186456
 31
0.0
  0
LINE
  5
83
330
76
100
AcDbEntity
  8
0
100
AcDbLine
 10
18.63097478118641
 20
-6.257106781186503
 30
0.0
 11
21.43097478118659
 21
-6.257106781186503
 31
0.0
  0
LINE
  5
84
330
76
100
AcDbEntity
  8
0
100
AcDbLine
 10
5.710975781186674
 20
-3.907106781186478
 30
0.0
 11
35.61097578118676
 21
-3.907106781186478
 31
0.0
  0
LINE
  5
85
330
76
100
AcDbEntity
  8
0
100
AcDbLine
 10
19.10097478118643
 20
-17.60710678118652
 30
0.0
 11
18.70097478118657
 21
-17.60710678118652
 31
0.0
  0
LINE
  5
86
330
76
100
AcDbEntity
  8
0
100
AcDbLine
 10
21.50097478118651
 20
-12.23710678118651
 30
0.0
 11
17.69097478118657
 21
-12.23710678118651
 31
0.0
  0
LINE
  5
87
330
76
100
AcDbEntity
  8
0
100
AcDbLine
 10
35.43097478118659
 20
-17.10710678118652
 30
0.0
 11
6.370974781186418
 21
-17.10710678118652
 31
0.0
  0
LINE
  5
88
330
76
100
AcDbEntity
  8
外枠
100
AcDbLine
 10
36.18097478118568
 20
-17.60710678118652
 30
0.0
 11
5.710975781186674
 21
-17.60710678118652
 31
0.0
  0
LINE
  5
89
330
76
100
AcDbEntity
  8
0
100
AcDbLine
 10
17.69097478118657
 20
-12.23710678118651
 30
0.0
 11
17.69097478118657
 21
-16.60710678118651
 31
0.0
  0
LINE
  5
8A
330
76
100
AcDbEntity
  8
0
100
AcDbLine
 10
17.69097478118657
 20
-12.23710678118651
 30
0.0
 11
17.69097478118657
 21
-12.67710678118646
 31
0.0
  0
LINE
  5
8B
330
76
100
AcDbEntity
  8
0
100
AcDbLine
 10
13.8809747811864
 20
-12.23710678118651
 30
0.0
 11
13.8809747811864
 21
-16.60710678118651
 31
0.0
  0
LINE
  5
8C
330
76
100
AcDbEntity
  8
0
100
AcDbLine
 10
13.8809747811864
 20
-12.23710678118651
 30
0.0
 11
13.8809747811864
 21
-12.67710678118646
 31
0.0
  0
LINE
  5
8D
330
76
100
AcDbEntity
  8
0
100
AcDbLine
 10
10.07097478118646
 20
-12.23710678118651
 30
0.0
 11
10.07097478118646
 21
-16.60710678118651
 31
0.0
  0
LINE
  5
8E
330
76
100
AcDbEntity
  8
0
100
AcDbLine
 10
10.07097478118646
 20
-12.23710678118651
 30
0.0
 11
10.07097478118646
 21
-12.67710678118646
 31
0.0
  0
LINE
  5
8F
330
76
100
AcDbEntity
  8
0
100
AcDbLine
 10
6.260974781186519
 20
-12.23710678118651
 30
0.0
 11
6.260974781186519
 21
-16.60710678118651
 31
0.0
  0
LINE
  5
90
330
76
100
AcDbEntity
  8
0
100
AcDbLine
 10
5.710975781186674
 20
-3.907106781186478
 30
0.0
 11
5.710975781186674
 21
-18.10710678118652
 31
0.0
  0
LINE
  5
91
330
76
100
AcDbEntity
  8
0
100
AcDbLine
 10
18.70097478118657
 20
-17.60710678118652
 30
0.0
 11
18.20097478118657
 21
-17.60710678118652
 31
0.0
  0
LINE
  5
92
330
76
100
AcDbEntity
  8
0
100
AcDbLine
 10
17.69097478118657
 20
-17.10710678118652
 30
0.0
 11
17.69097478118657
 21
-16.60710678118651
 31
0.0
  0
LINE
  5
93
330
76
100
AcDbEntity
  8
0
100
AcDbLine
 10
17.69097478118657
 20
-17.10710678118652
 30
0.0
 11
17.69097478118657
 21
-16.60710678118651
 31
0.0
  0
LINE
  5
94
330
76
100
AcDbEntity
  8
0
100
AcDbLine
 10
18.20097478118657
 20
-17.60710678118652
 30
0.0
 11
17.80097478118648
 21
-17.60710678118652
 31
0.0
  0
LINE
  5
95
330
76
100
AcDbEntity
  8
0
100
AcDbLine
 10
17.80097478118648
 20
-17.10710678118652
 30
0.0
 11
17.69097478118657
 21
-17.10710678118652
 31
0.0
  0
LINE
  5
96
330
76
100
AcDbEntity
  8
0
100
AcDbLine
 10
17.80097478118648
 20
-17.10710678118652
 30
0.0
 11
17.80097478118648
 21
-17.60710678118652
 31
0.0
  0
LINE
  5
97
330
76
100
AcDbEntity
  8
0
100
AcDbLine
 10
17.69097478118657
 20
-14.20710678118643
 30
0.0
 11
17.69097478118657
 21
-16.60710678118651
 31
0.0
  0
LINE
  5
98
330
76
100
AcDbEntity
  8
0
100
AcDbLine
 10
17.69097478118657
 20
-12.67710678118646
 30
0.0
 11
17.69097478118657
 21
-12.80710678118645
 31
0.0
  0
LINE
  5
99
330
76
100
AcDbEntity
  8
0
100
AcDbLine
 10
17.69097478118657
 20
-12.80710678118645
 30
0.0
 11
17.69097478118657
 21
-14.20710678118643
 31
0.0
  0
LINE
  5
9A
330
76
100
AcDbEntity
  8
0
100
AcDbLine
 10
11.48097478118653
 20
-17.10710678118652
 30
0.0
 11
11.48097478118653
 21
-17.60710678118652
 31
0.0
  0
LINE
  5
9B
330
76
100
AcDbEntity
  8
0
100
AcDbLine
 10
13.8809747811864
 20
-17.10710678118652
 30
0.0
 11
13.8809747811864
 21
-16.60710678118651
 31
0.0
  0
LINE
  5
9C
330
76
100
AcDbEntity
  8
0
100
AcDbLine
 10
13.8809747811864
 20
-17.10710678118652
 30
0.0
 11
13.8809747811864
 21
-16.60710678118651
 31
0.0
  0
LINE
  5
9D
330
76
100
AcDbEntity
  8
0
100
AcDbLine
 10
14.3909747811864
 20
-17.60710678118652
 30
0.0
 11
13.99097478118652
 21
-17.60710678118652
 31
0.0
  0
LINE
  5
9E
330
76
100
AcDbEntity
  8
0
100
AcDbLine
 10
14.89097478118639
 20
-17.60710678118652
 30
0.0
 11
14.3909747811864
 21
-17.60710678118652
 31
0.0
  0
LINE
  5
9F
330
76
100
AcDbEntity
  8
0
100
AcDbLine
 10
15.29097478118649
 20
-17.60710678118652
 30
0.0
 11
14.89097478118639
 21
-17.60710678118652
 31
0.0
  0
LINE
  5
A0
330
76
100
AcDbEntity
  8
0
100
AcDbLine
 10
13.99097478118652
 20
-17.10710678118652
 30
0.0
 11
13.8809747811864
 21
-17.10710678118652
 31
0.0
  0
LINE
  5
A1
330
76
100
AcDbEntity
  8
0
100
AcDbLine
 10
13.99097478118652
 20
-17.10710678118652
 30
0.0
 11
13.99097478118652
 21
-17.60710678118652
 31
0.0
  0
LINE
  5
A2
330
76
100
AcDbEntity
  8
0
100
AcDbLine
 10
15.29097478118649
 20
-17.10710678118652
 30
0.0
 11
15.29097478118649
 21
-17.60710678118652
 31
0.0
  0
LINE
  5
A3
330
76
100
AcDbEntity
  8
0
100
AcDbLine
 10
13.8809747811864
 20
-14.20710678118643
 30
0.0
 11
13.8809747811864
 21
-16.60710678118651
 31
0.0
  0
LINE
  5
A4
330
76
100
AcDbEntity
  8
0
100
AcDbLine
 10
13.8809747811864
 20
-12.67710678118646
 30
0.0
 11
13.8809747811864
 21
-12.80710678118645
 31
0.0
  0
LINE
  5
A5
330
76
100
AcDbEntity
  8
0
100
AcDbLine
 10
13.8809747811864
 20
-12.80710678118645
 30
0.0
 11
13.8809747811864
 21
-14.20710678118643
 31
0.0
  0
LINE
  5
A6
330
76
100
AcDbEntity
  8
0
100
AcDbLine
 10
10.58097478118644
 20
-17.60710678118652
 30
0.0
 11
10.18097478118659
 21
-17.60710678118652
 31
0.0
  0
LINE
  5
A7
330
76
100
AcDbEntity
  8
0
100
AcDbLine
 10
7.6709747811866
 20
-17.60710678118652
 30
0.0
 11
7.270974781186509
 21
-17.60710678118652
 31
0.0
  0
LINE
  5
A8
330
76
100
AcDbEntity
  8
0
100
AcDbLine
 10
7.270974781186509
 20
-17.60710678118652
 30
0.0
 11
6.770974781186509
 21
-17.60710678118652
 31
0.0
  0
LINE
  5
A9
330
76
100
AcDbEntity
  8
0
100
AcDbLine
 10
7.6709747811866
 20
-17.10710678118652
 30
0.0
 11
7.6709747811866
 21
-17.60710678118652
 31
0.0
  0
LINE
  5
AA
330
76
100
AcDbEntity
  8
0
100
AcDbLine
 10
10.07097478118646
 20
-17.10710678118652
 30
0.0
 11
10.07097478118646
 21
-16.60710678118651
 31
0.0
  0
LINE
  5
AB
330
76
100
AcDbEntity
  8
0
100
AcDbLine
 10
10.07097478118646
 20
-17.10710678118652
 30
0.0
 11
10.07097478118646
 21
-16.60710678118651
 31
0.0
  0
LINE
  5
AC
330
76
100
AcDbEntity
  8
0
100
AcDbLine
 10
10.18097478118659
 20
-17.10710678118652
 30
0.0
 11
10.07097478118646
 21
-17.10710678118652
 31
0.0
  0
LINE
  5
AD
330
76
100
AcDbEntity
  8
0
100
AcDbLine
 10
10.18097478118659
 20
-17.10710678118652
 30
0.0
 11
10.18097478118659
 21
-17.60710678118652
 31
0.0
  0
LINE
  5
AE
330
76
100
AcDbEntity
  8
0
100
AcDbLine
 10
10.07097478118646
 20
-14.20710678118643
 30
0.0
 11
10.07097478118646
 21
-16.60710678118651
 31
0.0
  0
LINE
  5
AF
330
76
100
AcDbEntity
  8
0
100
AcDbLine
 10
10.07097478118646
 20
-12.80710678118645
 30
0.0
 11
10.07097478118646
 21
-14.20710678118643
 31
0.0
  0
LINE
  5
B0
330
76
100
AcDbEntity
  8
0
100
AcDbLine
 10
10.07097478118646
 20
-12.67710678118646
 30
0.0
 11
10.07097478118646
 21
-12.80710678118645
 31
0.0
  0
LINE
  5
B1
330
76
100
AcDbEntity
  8
0
100
AcDbLine
 10
11.08097478118645
 20
-17.60710678118652
 30
0.0
 11
10.58097478118644
 21
-17.60710678118652
 31
0.0
  0
LINE
  5
B2
330
76
100
AcDbEntity
  8
0
100
AcDbLine
 10
11.48097478118653
 20
-17.60710678118652
 30
0.0
 11
11.08097478118645
 21
-17.60710678118652
 31
0.0
  0
LINE
  5
B3
330
76
100
AcDbEntity
  8
0
100
AcDbLine
 10
6.260974781186519
 20
-17.10710678118652
 30
0.0
 11
6.260974781186519
 21
-16.60710678118651
 31
0.0
  0
LINE
  5
B4
330
76
100
AcDbEntity
  8
0
100
AcDbLine
 10
6.370974781186418
 20
-17.10710678118652
 30
0.0
 11
6.370974781186418
 21
-17.60710678118652
 31
0.0
  0
LINE
  5
B5
330
76
100
AcDbEntity
  8
0
100
AcDbLine
 10
6.370974781186418
 20
-17.10710678118652
 30
0.0
 11
6.260974781186519
 21
-17.10710678118652
 31
0.0
  0
LINE
  5
B6
330
76
100
AcDbEntity
  8
0
100
AcDbLine
 10
6.770974781186509
 20
-17.60710678118652
 30
0.0
 11
6.370974781186418
 21
-17.60710678118652
 31
0.0
  0
ARC
  5
B7
330
76
100
AcDbEntity
  8
0
100
AcDbCircle
 10
18.0309747811865
 20
-4.707106781186547
 30
0.0
 40
0.3
100
AcDbArc
 50
90.0
 51
180.0
  0
LINE
  5
B8
330
76
100
AcDbEntity
  8
0
100
AcDbLine
 10
17.62097478118642
 20
-4.707106781186433
 30
0.0
 11
17.62097478118642
 21
-4.807106781186456
 31
0.0
  0
ARC
  5
B9
330
76
100
AcDbEntity
  8
0
100
AcDbCircle
 10
17.32097478118646
 20
-4.707106781186547
 30
0.0
 40
0.3
100
AcDbArc
 50
0.0
 51
90.0
  0
LINE
  5
BA
330
76
100
AcDbEntity
  8
0
100
AcDbLine
 10
17.73097478118653
 20
-4.707106781186433
 30
0.0
 11
17.73097478118653
 21
-4.807106781186456
 31
0.0
  0
LINE
  5
BB
330
76
100
AcDbEntity
  8
0
100
AcDbLine
 10
17.69097478118657
 20
-7.557106781186455
 30
0.0
 11
17.69097478118657
 21
-11.27710678118648
 31
0.0
  0
ARC
  5
BC
330
76
100
AcDbEntity
  8
0
100
AcDbCircle
 10
18.63097478118641
 20
-5.357106781186582
 30
0.0
 40
0.3
100
AcDbArc
 50
90.0
 51
180.0
  0
LINE
  5
BD
330
76
100
AcDbEntity
  8
0
100
AcDbLine
 10
17.62097478118642
 20
-5.357106781186525
 30
0.0
 11
17.62097478118642
 21
-5.057106781186456
 31
0.0
  0
ARC
  5
BE
330
76
100
AcDbEntity
  8
0
100
AcDbCircle
 10
18.63097478118641
 20
-5.957106781186547
 30
0.0
 40
0.3
100
AcDbArc
 50
180.0
 51
270.0
  0
LINE
  5
BF
330
76
100
AcDbEntity
  8
0
100
AcDbLine
 10
17.62097478118642
 20
-7.057106781186455
 30
0.0
 11
16.9209747811866
 21
-7.057106781186455
 31
0.0
  0
LINE
  5
C0
330
76
100
AcDbEntity
  8
0
100
AcDbLine
 10
16.9209747811866
 20
-6.907106781186477
 30
0.0
 11
17.62097478118642
 21
-6.907106781186477
 31
0.0
  0
ARC
  5
C1
330
76
100
AcDbEntity
  8
0
100
AcDbCircle
 10
18.0309747811865
 20
-6.607106781186582
 30
0.0
 40
0.3
100
AcDbArc
 50
180.0
 51
270.0
  0
LINE
  5
C2
330
76
100
AcDbEntity
  8
0
100
AcDbLine
 10
17.69097478118657
 20
-7.057106781186455
 30
0.0
 11
17.62097478118642
 21
-7.057106781186455
 31
0.0
  0
LINE
  5
C3
330
76
100
AcDbEntity
  8
0
100
AcDbLine
 10
17.69097478118657
 20
-7.557106781186455
 30
0.0
 11
17.69097478118657
 21
-7.057106781186455
 31
0.0
  0
LINE
  5
C4
330
76
100
AcDbEntity
  8
0
100
AcDbLine
 10
17.62097478118642
 20
-6.257106781186503
 30
0.0
 11
17.62097478118642
 21
-5.957106781186434
 31
0.0
  0
LINE
  5
C5
330
76
100
AcDbEntity
  8
0
100
AcDbLine
 10
17.62097478118642
 20
-6.257106781186503
 30
0.0
 11
17.62097478118642
 21
-6.507106781186503
 31
0.0
  0
LINE
  5
C6
330
76
100
AcDbEntity
  8
0
100
AcDbLine
 10
17.62097478118642
 20
-6.907106781186477
 30
0.0
 11
17.62097478118642
 21
-7.057106781186455
 31
0.0
  0
LINE
  5
C7
330
76
100
AcDbEntity
  8
0
100
AcDbLine
 10
17.62097478118642
 20
-6.507106781186503
 30
0.0
 11
17.62097478118642
 21
-6.907106781186477
 31
0.0
  0
LINE
  5
C8
330
76
100
AcDbEntity
  8
0
100
AcDbLine
 10
17.69097478118657
 20
-7.557106781186455
 30
0.0
 11
17.69097478118657
 21
-7.057106781186455
 31
0.0
  0
LINE
  5
C9
330
76
100
AcDbEntity
  8
0
100
AcDbLine
 10
17.73097478118653
 20
-6.507106781186503
 30
0.0
 11
17.73097478118653
 21
-6.607106781186526
 31
0.0
  0
LINE
  5
CA
330
76
100
AcDbEntity
  8
0
100
AcDbLine
 10
16.9209747811866
 20
-6.907106781186477
 30
0.0
 11
16.9209747811866
 21
-7.057106781186455
 31
0.0
  0
LINE
  5
CB
330
76
100
AcDbEntity
  8
0
100
AcDbLine
 10
17.62097478118642
 20
-5.357106781186525
 30
0.0
 11
17.62097478118642
 21
-5.957106781186434
 31
0.0
  0
LINE
  5
CC
330
76
100
AcDbEntity
  8
0
100
AcDbLine
 10
18.33097478118644
 20
-5.357106781186525
 30
0.0
 11
18.33097478118644
 21
-5.957106781186434
 31
0.0
  0
LINE
  5
CD
330
76
100
AcDbEntity
  8
0
100
AcDbLine
 10
17.62097478118642
 20
-4.807106781186456
 30
0.0
 11
17.62097478118642
 21
-5.057106781186456
 31
0.0
  0
LINE
  5
CE
330
76
100
AcDbEntity
  8
0
100
AcDbLine
 10
17.73097478118653
 20
-4.807106781186456
 30
0.0
 11
17.73097478118653
 21
-6.507106781186503
 31
0.0
  0
ARC
  5
CF
330
76
100
AcDbEntity
  8
0
100
AcDbCircle
 10
13.5109747811865
 20
-4.707106781186547
 30
0.0
 40
0.3
100
AcDbArc
 50
0.0
 51
90.0
  0
LINE
  5
D0
330
76
100
AcDbEntity
  8
0
100
AcDbLine
 10
13.81097478118647
 20
-4.707106781186433
 30
0.0
 11
13.81097478118647
 21
-4.807106781186456
 31
0.0
  0
LINE
  5
D1
330
76
100
AcDbEntity
  8
0
100
AcDbLine
 10
13.92097478118659
 20
-4.707106781186433
 30
0.0
 11
13.92097478118659
 21
-4.807106781186456
 31
0.0
  0
ARC
  5
D2
330
76
100
AcDbEntity
  8
0
100
AcDbCircle
 10
14.22097478118655
 20
-4.707106781186547
 30
0.0
 40
0.3
100
AcDbArc
 50
90.0
 51
180.0
  0
LINE
  5
D3
330
76
100
AcDbEntity
  8
0
100
AcDbLine
 10
6.600974781186437
 20
-4.407106781186478
 30
0.0
 11
9.700974781186571
 21
-4.407106781186478
 31
0.0
  0
ARC
  5
D4
330
76
100
AcDbEntity
  8
0
100
AcDbCircle
 10
10.41097478118661
 20
-4.707106781186547
 30
0.0
 40
0.3
100
AcDbArc
 50
90.0
 51
180.0
  0
LINE
  5
D5
330
76
100
AcDbEntity
  8
0
100
AcDbLine
 10
10.00097478118652
 20
-4.707106781186433
 30
0.0
 11
10.00097478118652
 21
-4.807106781186456
 31
0.0
  0
LINE
  5
D6
330
76
100
AcDbEntity
  8
0
100
AcDbLine
 10
10.11097478118641
 20
-4.707106781186433
 30
0.0
 11
10.11097478118641
 21
-4.807106781186456
 31
0.0
  0
ARC
  5
D7
330
76
100
AcDbEntity
  8
0
100
AcDbCircle
 10
9.700974781186571
 20
-4.707106781186547
 30
0.0
 40
0.3
100
AcDbArc
 50
0.0
 51
90.0
  0
LINE
  5
D8
330
76
100
AcDbEntity
  8
0
100
AcDbLine
 10
10.41097478118661
 20
-4.407106781186478
 30
0.0
 11
13.5109747811865
 21
-4.407106781186478
 31
0.0
  0
LINE
  5
D9
330
76
100
AcDbEntity
  8
0
100
AcDbLine
 10
13.8809747811864
 20
-7.557106781186455
 30
0.0
 11
13.8809747811864
 21
-11.27710678118648
 31
0.0
  0
LINE
  5
DA
330
76
100
AcDbEntity
  8
0
100
AcDbLine
 10
13.11097478118642
 20
-6.907106781186477
 30
0.0
 11
13.81097478118647
 21
-6.907106781186477
 31
0.0
  0
LINE
  5
DB
330
76
100
AcDbEntity
  8
0
100
AcDbLine
 10
13.81097478118647
 20
-7.057106781186455
 30
0.0
 11
13.11097478118642
 21
-7.057106781186455
 31
0.0
  0
LINE
  5
DC
330
76
100
AcDbEntity
  8
0
100
AcDbLine
 10
13.11097478118642
 20
-6.907106781186477
 30
0.0
 11
13.11097478118642
 21
-7.057106781186455
 31
0.0
  0
ARC
  5
DD
330
76
100
AcDbEntity
  8
0
100
AcDbCircle
 10
11.97597478118643
 20
-9.207106781186547
 30
0.0
 40
0.85
100
AcDbArc
 50
233.269604999998
 51
270.0
  0
LINE
  5
DE
330
76
100
AcDbEntity
  8
0
100
AcDbLine
 10
13.81097478118647
 20
-5.357106781186525
 30
0.0
 11
13.81097478118647
 21
-5.057106781186456
 31
0.0
  0
ARC
  5
DF
330
76
100
AcDbEntity
  8
0
100
AcDbCircle
 10
14.82097478118646
 20
-5.357106781186582
 30
0.0
 40
0.3
100
AcDbArc
 50
90.0
 51
180.0
  0
LINE
  5
E0
330
76
100
AcDbEntity
  8
0
100
AcDbLine
 10
13.81097478118647
 20
-6.257106781186503
 30
0.0
 11
13.81097478118647
 21
-5.957106781186434
 31
0.0
  0
LINE
  5
E1
330
76
100
AcDbEntity
  8
0
100
AcDbLine
 10
13.81097478118647
 20
-6.257106781186503
 30
0.0
 11
13.81097478118647
 21
-6.507106781186503
 31
0.0
  0
LINE
  5
E2
330
76
100
AcDbEntity
  8
0
100
AcDbLine
 10
13.81097478118647
 20
-6.907106781186477
 30
0.0
 11
13.81097478118647
 21
-7.057106781186455
 31
0.0
  0
LINE
  5
E3
330
76
100
AcDbEntity
  8
0
100
AcDbLine
 10
13.81097478118647
 20
-6.507106781186503
 30
0.0
 11
13.81097478118647
 21
-6.907106781186477
 31
0.0
  0
LINE
  5
E4
330
76
100
AcDbEntity
  8
0
100
AcDbLine
 10
13.8809747811864
 20
-7.557106781186455
 30
0.0
 11
13.8809747811864
 21
-7.057106781186455
 31
0.0
  0
LINE
  5
E5
330
76
100
AcDbEntity
  8
0
100
AcDbLine
 10
13.92097478118659
 20
-6.507106781186503
 30
0.0
 11
13.92097478118659
 21
-6.607106781186526
 31
0.0
  0
ARC
  5
E6
330
76
100
AcDbEntity
  8
0
100
AcDbCircle
 10
14.82097478118646
 20
-5.957106781186547
 30
0.0
 40
0.3
100
AcDbArc
 50
180.0
 51
270.0
  0
ARC
  5
E7
330
76
100
AcDbEntity
  8
0
100
AcDbCircle
 10
14.22097478118655
 20
-6.607106781186582
 30
0.0
 40
0.3
100
AcDbArc
 50
180.0
 51
270.0
  0
LINE
  5
E8
330
76
100
AcDbEntity
  8
0
100
AcDbLine
 10
13.8809747811864
 20
-7.557106781186455
 30
0.0
 11
13.8809747811864
 21
-7.057106781186455
 31
0.0
  0
LINE
  5
E9
330
76
100
AcDbEntity
  8
0
100
AcDbLine
 10
13.8809747811864
 20
-7.057106781186455
 30
0.0
 11
13.81097478118647
 21
-7.057106781186455
 31
0.0
  0
ARC
  5
EA
330
76
100
AcDbEntity
  8
0
100
AcDbCircle
 10
15.78597478118661
 20
-9.207106781186547
 30
0.0
 40
0.85
100
AcDbArc
 50
233.269604999998
 51
270.0
  0
LINE
  5
EB
330
76
100
AcDbEntity
  8
0
100
AcDbLine
 10
13.81097478118647
 20
-5.357106781186525
 30
0.0
 11
13.81097478118647
 21
-5.957106781186434
 31
0.0
  0
LINE
  5
EC
330
76
100
AcDbEntity
  8
0
100
AcDbLine
 10
14.52097478118651
 20
-5.357106781186525
 30
0.0
 11
14.52097478118651
 21
-5.957106781186434
 31
0.0
  0
LINE
  5
ED
330
76
100
AcDbEntity
  8
0
100
AcDbLine
 10
10.07097478118646
 20
-7.557106781186455
 30
0.0
 11
10.07097478118646
 21
-11.27710678118648
 31
0.0
  0
CIRCLE
  5
EE
330
76
100
AcDbEntity
  8
0
100
AcDbCircle
 10
8.165974781186491
 20
-9.207106781186547
 30
0.0
 40
1.564999999999999
  0
LINE
  5
EF
330
76
100
AcDbEntity
  8
0
100
AcDbLine
 10
10.00097478118652
 20
-5.057106781186456
 30
0.0
 11
7.200974781186572
 21
-5.057106781186456
 31
0.0
  0
LINE
  5
F0
330
76
100
AcDbEntity
  8
0
100
AcDbLine
 10
6.600974781186437
 20
-6.907106781186477
 30
0.0
 11
9.300974781186482
 21
-6.907106781186477
 31
0.0
  0
ARC
  5
F1
330
76
100
AcDbEntity
  8
0
100
AcDbCircle
 10
8.165974781186491
 20
-9.207106781186547
 30
0.0
 40
0.85
100
AcDbArc
 50
270.0
 51
233.269604999998
  0
LINE
  5
F2
330
76
100
AcDbEntity
  8
0
100
AcDbLine
 10
7.200974781186572
 20
-6.257106781186503
 30
0.0
 11
10.00097478118652
 21
-6.257106781186503
 31
0.0
  0
ARC
  5
F3
330
76
100
AcDbEntity
  8
0
100
AcDbCircle
 10
7.200974781186572
 20
-5.357106781186582
 30
0.0
 40
0.3
100
AcDbArc
 50
90.0
 51
180.0
  0
ARC
  5
F4
330
76
100
AcDbEntity
  8
0
100
AcDbCircle
 10
8.165974781186491
 20
-9.207106781186547
 30
0.0
 40
0.85
100
AcDbArc
 50
233.269604999998
 51
270.0
  0
ARC
  5
F5
330
76
100
AcDbEntity
  8
0
100
AcDbCircle
 10
7.200974781186572
 20
-5.957106781186547
 30
0.0
 40
0.3
100
AcDbArc
 50
180.0
 51
270.0
  0
LINE
  5
F6
330
76
100
AcDbEntity
  8
0
100
AcDbLine
 10
6.900974781186619
 20
-5.357106781186525
 30
0.0
 11
6.900974781186619
 21
-5.957106781186434
 31
0.0
  0
LINE
  5
F7
330
76
100
AcDbEntity
  8
0
100
AcDbLine
 10
10.00097478118652
 20
-5.357106781186525
 30
0.0
 11
10.00097478118652
 21
-5.057106781186456
 31
0.0
  0
LINE
  5
F8
330
76
100
AcDbEntity
  8
0
100
AcDbLine
 10
9.300974781186482
 20
-6.907106781186477
 30
0.0
 11
9.300974781186482
 21
-7.057106781186455
 31
0.0
  0
ARC
  5
F9
330
76
100
AcDbEntity
  8
0
100
AcDbCircle
 10
10.41097478118661
 20
-6.607106781186582
 30
0.0
 40
0.3
100
AcDbArc
 50
180.0
 51
270.0
  0
LINE
  5
FA
330
76
100
AcDbEntity
  8
0
100
AcDbLine
 10
10.07097478118646
 20
-7.557106781186455
 30
0.0
 11
10.07097478118646
 21
-7.057106781186455
 31
0.0
  0
LINE
  5
FB
330
76
100
AcDbEntity
  8
0
100
AcDbLine
 10
10.00097478118652
 20
-6.507106781186503
 30
0.0
 11
10.00097478118652
 21
-6.907106781186477
 31
0.0
  0
LINE
  5
FC
330
76
100
AcDbEntity
  8
0
100
AcDbLine
 10
10.00097478118652
 20
-6.907106781186477
 30
0.0
 11
10.00097478118652
 21
-7.057106781186455
 31
0.0
  0
LINE
  5
FD
330
76
100
AcDbEntity
  8
0
100
AcDbLine
 10
10.00097478118652
 20
-6.257106781186503
 30
0.0
 11
10.00097478118652
 21
-6.507106781186503
 31
0.0
  0
LINE
  5
FE
330
76
100
AcDbEntity
  8
0
100
AcDbLine
 10
10.00097478118652
 20
-6.257106781186503
 30
0.0
 11
10.00097478118652
 21
-5.957106781186434
 31
0.0
  0
LINE
  5
FF
330
76
100
AcDbEntity
  8
0
100
AcDbLine
 10
10.07097478118646
 20
-7.557106781186455
 30
0.0
 11
10.07097478118646
 21
-7.057106781186455
 31
0.0
  0
LINE
  5
100
330
76
100
AcDbEntity
  8
0
100
AcDbLine
 10
10.07097478118646
 20
-7.057106781186455
 30
0.0
 11
10.00097478118652
 21
-7.057106781186455
 31
0.0
  0
LINE
  5
101
330
76
100
AcDbEntity
  8
0
100
AcDbLine
 10
10.11097478118641
 20
-6.507106781186503
 30
0.0
 11
10.11097478118641
 21
-6.607106781186526
 31
0.0
  0
LINE
  5
102
330
76
100
AcDbEntity
  8
0
100
AcDbLine
 10
9.300974781186482
 20
-6.907106781186477
 30
0.0
 11
10.00097478118652
 21
-6.907106781186477
 31
0.0
  0
LINE
  5
103
330
76
100
AcDbEntity
  8
0
100
AcDbLine
 10
10.00097478118652
 20
-7.057106781186455
 30
0.0
 11
9.300974781186482
 21
-7.057106781186455
 31
0.0
  0
LINE
  5
104
330
76
100
AcDbEntity
  8
0
100
AcDbLine
 10
10.00097478118652
 20
-5.357106781186525
 30
0.0
 11
10.00097478118652
 21
-5.957106781186434
 31
0.0
  0
ARC
  5
105
330
76
100
AcDbEntity
  8
0
100
AcDbCircle
 10
11.0109747811865
 20
-5.357106781186582
 30
0.0
 40
0.3
100
AcDbArc
 50
90.0
 51
180.0
  0
ARC
  5
106
330
76
100
AcDbEntity
  8
0
100
AcDbCircle
 10
11.0109747811865
 20
-5.957106781186547
 30
0.0
 40
0.3
100
AcDbArc
 50
180.0
 51
270.0
  0
LINE
  5
107
330
76
100
AcDbEntity
  8
0
100
AcDbLine
 10
10.71097478118656
 20
-5.357106781186525
 30
0.0
 11
10.71097478118656
 21
-5.957106781186434
 31
0.0
  0
CIRCLE
  5
108
330
76
100
AcDbEntity
  8
0
100
AcDbCircle
 10
11.97597478118643
 20
-9.207106781186547
 30
0.0
 40
1.564999999999999
  0
LINE
  5
109
330
76
100
AcDbEntity
  8
0
100
AcDbLine
 10
13.11097478118642
 20
-7.057106781186455
 30
0.0
 11
10.07097478118646
 21
-7.057106781186455
 31
0.0
  0
LINE
  5
10A
330
76
100
AcDbEntity
  8
0
100
AcDbLine
 10
10.41097478118661
 20
-6.907106781186477
 30
0.0
 11
13.11097478118642
 21
-6.907106781186477
 31
0.0
  0
LINE
  5
10B
330
76
100
AcDbEntity
  8
0
100
AcDbLine
 10
13.81097478118647
 20
-5.057106781186456
 30
0.0
 11
11.0109747811865
 21
-5.057106781186456
 31
0.0
  0
LINE
  5
10C
330
76
100
AcDbEntity
  8
0
100
AcDbLine
 10
11.0109747811865
 20
-6.257106781186503
 30
0.0
 11
13.81097478118647
 21
-6.257106781186503
 31
0.0
  0
ARC
  5
10D
330
76
100
AcDbEntity
  8
0
100
AcDbCircle
 10
11.97597478118643
 20
-9.207106781186547
 30
0.0
 40
0.85
100
AcDbArc
 50
270.0
 51
233.269604999998
  0
LINE
  5
10E
330
76
100
AcDbEntity
  8
0
100
AcDbLine
 10
10.00097478118652
 20
-4.807106781186456
 30
0.0
 11
10.00097478118652
 21
-5.057106781186456
 31
0.0
  0
LINE
  5
10F
330
76
100
AcDbEntity
  8
0
100
AcDbLine
 10
10.11097478118641
 20
-4.807106781186456
 30
0.0
 11
10.11097478118641
 21
-6.507106781186503
 31
0.0
  0
LINE
  5
110
330
76
100
AcDbEntity
  8
0
100
AcDbLine
 10
13.81097478118647
 20
-4.807106781186456
 30
0.0
 11
13.81097478118647
 21
-5.057106781186456
 31
0.0
  0
LINE
  5
111
330
76
100
AcDbEntity
  8
0
100
AcDbLine
 10
13.92097478118659
 20
-4.807106781186456
 30
0.0
 11
13.92097478118659
 21
-6.507106781186503
 31
0.0
  0
CIRCLE
  5
112
330
76
100
AcDbEntity
  8
0
100
AcDbCircle
 10
15.78597478118661
 20
-9.207106781186547
 30
0.0
 40
1.564999999999999
  0
LINE
  5
113
330
76
100
AcDbEntity
  8
0
100
AcDbLine
 10
17.62097478118642
 20
-5.057106781186456
 30
0.0
 11
14.82097478118646
 21
-5.057106781186456
 31
0.0
  0
LINE
  5
114
330
76
100
AcDbEntity
  8
0
100
AcDbLine
 10
14.82097478118646
 20
-6.257106781186503
 30
0.0
 11
17.62097478118642
 21
-6.257106781186503
 31
0.0
  0
LINE
  5
115
330
76
100
AcDbEntity
  8
0
100
AcDbLine
 10
16.9209747811866
 20
-7.057106781186455
 30
0.0
 11
13.8809747811864
 21
-7.057106781186455
 31
0.0
  0
LINE
  5
116
330
76
100
AcDbEntity
  8
0
100
AcDbLine
 10
14.22097478118655
 20
-6.907106781186477
 30
0.0
 11
16.9209747811866
 21
-6.907106781186477
 31
0.0
  0
ARC
  5
117
330
76
100
AcDbEntity
  8
0
100
AcDbCircle
 10
15.78597478118661
 20
-9.207106781186547
 30
0.0
 40
0.85
100
AcDbArc
 50
270.0
 51
233.269604999998
  0
LINE
  5
118
330
76
100
AcDbEntity
  8
0
100
AcDbLine
 10
14.22097478118655
 20
-4.407106781186478
 30
0.0
 11
17.32097478118646
 21
-4.407106781186478
 31
0.0
  0
LINE
  5
119
330
76
100
AcDbEntity
  8
0
100
AcDbLine
 10
6.300974781186482
 20
-4.707106781186433
 30
0.0
 11
6.300974781186482
 21
-4.807106781186456
 31
0.0
  0
LINE
  5
11A
330
76
100
AcDbEntity
  8
0
100
AcDbLine
 10
6.300974781186482
 20
-6.507106781186503
 30
0.0
 11
6.300974781186482
 21
-6.607106781186526
 31
0.0
  0
LINE
  5
11B
330
76
100
AcDbEntity
  8
0
100
AcDbLine
 10
6.260974781186519
 20
-7.557106781186455
 30
0.0
 11
6.260974781186519
 21
-7.057106781186455
 31
0.0
  0
LINE
  5
11C
330
76
100
AcDbEntity
  8
0
100
AcDbLine
 10
6.300974781186482
 20
-4.807106781186456
 30
0.0
 11
6.300974781186482
 21
-6.507106781186503
 31
0.0
  0
LINE
  5
11D
330
76
100
AcDbEntity
  8
0
100
AcDbLine
 10
9.300974781186482
 20
-7.057106781186455
 30
0.0
 11
6.260974781186519
 21
-7.057106781186455
 31
0.0
  0
ARC
  5
11E
330
76
100
AcDbEntity
  8
0
100
AcDbCircle
 10
6.600974781186437
 20
-6.607106781186582
 30
0.0
 40
0.3
100
AcDbArc
 50
180.0
 51
270.0
  0
ARC
  5
11F
330
76
100
AcDbEntity
  8
0
100
AcDbCircle
 10
6.600974781186437
 20
-4.707106781186547
 30
0.0
 40
0.3
100
AcDbArc
 50
90.0
 51
180.0
  0
LINE
  5
120
330
76
100
AcDbEntity
  8
0
100
AcDbLine
 10
17.69097478118657
 20
-12.23710678118651
 30
0.0
 11
17.69097478118657
 21
-12.03710678118647
 31
0.0
  0
LINE
  5
121
330
76
100
AcDbEntity
  8
0
100
AcDbLine
 10
17.69097478118657
 20
-12.23710678118651
 30
0.0
 11
17.69097478118657
 21
-12.03710678118647
 31
0.0
  0
LINE
  5
122
330
76
100
AcDbEntity
  8
0
100
AcDbLine
 10
13.8809747811864
 20
-12.23710678118651
 30
0.0
 11
13.8809747811864
 21
-12.03710678118647
 31
0.0
  0
LINE
  5
123
330
76
100
AcDbEntity
  8
0
100
AcDbLine
 10
13.8809747811864
 20
-12.23710678118651
 30
0.0
 11
13.8809747811864
 21
-12.03710678118647
 31
0.0
  0
LINE
  5
124
330
76
100
AcDbEntity
  8
0
100
AcDbLine
 10
10.07097478118646
 20
-12.23710678118651
 30
0.0
 11
10.07097478118646
 21
-12.03710678118647
 31
0.0
  0
LINE
  5
125
330
76
100
AcDbEntity
  8
0
100
AcDbLine
 10
10.07097478118646
 20
-12.23710678118651
 30
0.0
 11
10.07097478118646
 21
-12.03710678118647
 31
0.0
  0
LINE
  5
126
330
76
100
AcDbEntity
  8
0
100
AcDbLine
 10
13.8809747811864
 20
-12.23710678118651
 30
0.0
 11
10.07097478118646
 21
-12.23710678118651
 31
0.0
  0
LINE
  5
127
330
76
100
AcDbEntity
  8
0
100
AcDbLine
 10
17.69097478118657
 20
-12.23710678118651
 30
0.0
 11
13.8809747811864
 21
-12.23710678118651
 31
0.0
  0
LINE
  5
128
330
76
100
AcDbEntity
  8
0
100
AcDbLine
 10
6.260974781186519
 20
-12.23710678118651
 30
0.0
 11
6.260974781186519
 21
-12.03710678118647
 31
0.0
  0
LINE
  5
129
330
76
100
AcDbEntity
  8
0
100
AcDbLine
 10
10.07097478118646
 20
-12.23710678118651
 30
0.0
 11
6.260974781186519
 21
-12.23710678118651
 31
0.0
  0
LINE
  5
12A
330
76
100
AcDbEntity
  8
0
100
AcDbLine
 10
17.69097478118657
 20
-7.557106781186455
 30
0.0
 11
17.69097478118657
 21
-12.03710678118647
 31
0.0
  0
LINE
  5
12B
330
76
100
AcDbEntity
  8
0
100
AcDbLine
 10
13.8809747811864
 20
-7.557106781186455
 30
0.0
 11
13.8809747811864
 21
-12.03710678118647
 31
0.0
  0
LINE
  5
12C
330
76
100
AcDbEntity
  8
0
100
AcDbLine
 10
10.07097478118646
 20
-7.557106781186455
 30
0.0
 11
10.07097478118646
 21
-12.03710678118647
 31
0.0
  0
LINE
  5
12D
330
76
100
AcDbEntity
  8
0
100
AcDbLine
 10
6.260974781186519
 20
-7.557106781186455
 30
0.0
 11
6.260974781186519
 21
-12.03710678118647
 31
0.0
  0
LINE
  5
12E
330
76
100
AcDbEntity
  8
0
100
AcDbLine
 10
10.07097478118646
 20
-11.27710678118648
 30
0.0
 11
10.07097478118646
 21
-12.03710678118647
 31
0.0
  0
LINE
  5
12F
330
76
100
AcDbEntity
  8
0
100
AcDbLine
 10
13.8809747811864
 20
-11.27710678118648
 30
0.0
 11
13.8809747811864
 21
-12.03710678118647
 31
0.0
  0
LINE
  5
130
330
76
100
AcDbEntity
  8
0
100
AcDbLine
 10
17.69097478118657
 20
-11.27710678118648
 30
0.0
 11
17.69097478118657
 21
-12.03710678118647
 31
0.0
  0
LINE
  5
131
330
76
100
AcDbEntity
  8
0
100
AcDbLine
 10
29.12097478118642
 20
-12.23710678118651
 30
0.0
 11
29.12097478118642
 21
-16.60710678118651
 31
0.0
  0
LINE
  5
132
330
76
100
AcDbEntity
  8
0
100
AcDbLine
 10
29.12097478118642
 20
-12.23710678118651
 30
0.0
 11
29.12097478118642
 21
-12.67710678118646
 31
0.0
  0
LINE
  5
133
330
76
100
AcDbEntity
  8
0
100
AcDbLine
 10
21.50097478118651
 20
-12.23710678118651
 30
0.0
 11
21.50097478118651
 21
-16.60710678118651
 31
0.0
  0
LINE
  5
134
330
76
100
AcDbEntity
  8
0
100
AcDbLine
 10
21.50097478118651
 20
-12.23710678118651
 30
0.0
 11
21.50097478118651
 21
-12.67710678118646
 31
0.0
  0
LINE
  5
135
330
76
100
AcDbEntity
  8
0
100
AcDbLine
 10
25.31097478118647
 20
-12.23710678118651
 30
0.0
 11
25.31097478118647
 21
-16.60710678118651
 31
0.0
  0
LINE
  5
136
330
76
100
AcDbEntity
  8
0
100
AcDbLine
 10
25.31097478118647
 20
-12.23710678118651
 30
0.0
 11
25.31097478118647
 21
-12.67710678118646
 31
0.0
  0
LINE
  5
137
330
76
100
AcDbEntity
  8
0
100
AcDbLine
 10
35.43097478118659
 20
-17.10710678118652
 30
0.0
 11
35.43097478118659
 21
-7.057106781186455
 31
0.0
  0
LINE
  5
138
330
76
100
AcDbEntity
  8
0
100
AcDbLine
 10
32.93097478118659
 20
-17.10710678118652
 30
0.0
 11
32.93097478118659
 21
-7.057106781186455
 31
0.0
  0
LINE
  5
139
330
76
100
AcDbEntity
  8
0
100
AcDbLine
 10
36.28097478119059
 20
-10.157106781185
 30
0.0
 11
36.28097478119059
 21
-17.10710678118572
 31
0.0
  0
LINE
  5
13A
330
76
100
AcDbEntity
  8
0
100
AcDbLine
 10
46.28097478119059
 20
-17.10710678118572
 30
0.0
 11
46.28097478119059
 21
-10.157106781185
 31
0.0
  0
LINE
  5
13B
330
76
100
AcDbEntity
  8
0
100
AcDbLine
 10
36.68097478119021
 20
-16.407106781185
 30
0.0
 11
36.68097478119021
 21
-11.407106781185
 31
0.0
  0
LINE
  5
13C
330
76
100
AcDbEntity
  8
0
100
AcDbLine
 10
45.88097478119094
 20
-11.407106781185
 30
0.0
 11
45.88097478119094
 21
-12.907106781185
 31
0.0
  0
LINE
  5
13D
330
76
100
AcDbEntity
  8
0
100
AcDbLine
 10
26.72097478118655
 20
-17.10710678118652
 30
0.0
 11
26.72097478118655
 21
-17.60710678118652
 31
0.0
  0
LINE
  5
13E
330
76
100
AcDbEntity
  8
0
100
AcDbLine
 10
29.12097478118642
 20
-17.10710678118652
 30
0.0
 11
29.12097478118642
 21
-16.60710678118651
 31
0.0
  0
LINE
  5
13F
330
76
100
AcDbEntity
  8
0
100
AcDbLine
 10
29.12097478118642
 20
-17.10710678118652
 30
0.0
 11
29.12097478118642
 21
-16.60710678118651
 31
0.0
  0
LINE
  5
140
330
76
100
AcDbEntity
  8
0
100
AcDbLine
 10
30.13097478118641
 20
-17.60710678118652
 30
0.0
 11
29.6309747811864
 21
-17.60710678118652
 31
0.0
  0
LINE
  5
141
330
76
100
AcDbEntity
  8
0
100
AcDbLine
 10
29.6309747811864
 20
-17.60710678118652
 30
0.0
 11
29.23097478118654
 21
-17.60710678118652
 31
0.0
  0
LINE
  5
142
330
76
100
AcDbEntity
  8
0
100
AcDbLine
 10
29.23097478118654
 20
-17.10710678118652
 30
0.0
 11
29.12097478118642
 21
-17.10710678118652
 31
0.0
  0
LINE
  5
143
330
76
100
AcDbEntity
  8
0
100
AcDbLine
 10
29.23097478118654
 20
-17.10710678118652
 30
0.0
 11
29.23097478118654
 21
-17.60710678118652
 31
0.0
  0
LINE
  5
144
330
76
100
AcDbEntity
  8
0
100
AcDbLine
 10
30.5309747811865
 20
-17.10710678118652
 30
0.0
 11
30.5309747811865
 21
-17.60710678118652
 31
0.0
  0
LINE
  5
145
330
76
100
AcDbEntity
  8
0
100
AcDbLine
 10
30.5309747811865
 20
-17.10710678118652
 30
0.0
 11
29.23097478118654
 21
-17.10710678118652
 31
0.0
  0
LINE
  5
146
330
76
100
AcDbEntity
  8
0
100
AcDbLine
 10
30.5309747811865
 20
-17.60710678118652
 30
0.0
 11
30.13097478118641
 21
-17.60710678118652
 31
0.0
  0
LINE
  5
147
330
76
100
AcDbEntity
  8
0
100
AcDbLine
 10
29.12097478118642
 20
-14.20710678118643
 30
0.0
 11
29.12097478118642
 21
-16.60710678118651
 31
0.0
  0
LINE
  5
148
330
76
100
AcDbEntity
  8
0
100
AcDbLine
 10
29.12097478118642
 20
-12.80710678118645
 30
0.0
 11
29.12097478118642
 21
-14.20710678118643
 31
0.0
  0
LINE
  5
149
330
76
100
AcDbEntity
  8
0
100
AcDbLine
 10
29.12097478118642
 20
-12.67710678118646
 30
0.0
 11
29.12097478118642
 21
-12.80710678118645
 31
0.0
  0
LINE
  5
14A
330
76
100
AcDbEntity
  8
0
100
AcDbLine
 10
22.91097478118661
 20
-17.60710678118652
 30
0.0
 11
22.51097478118651
 21
-17.60710678118652
 31
0.0
  0
LINE
  5
14B
330
76
100
AcDbEntity
  8
0
100
AcDbLine
 10
21.50097478118651
 20
-17.10710678118652
 30
0.0
 11
21.50097478118651
 21
-16.60710678118651
 31
0.0
  0
LINE
  5
14C
330
76
100
AcDbEntity
  8
0
100
AcDbLine
 10
21.50097478118651
 20
-17.10710678118652
 30
0.0
 11
21.50097478118651
 21
-16.60710678118651
 31
0.0
  0
LINE
  5
14D
330
76
100
AcDbEntity
  8
0
100
AcDbLine
 10
22.51097478118651
 20
-17.60710678118652
 30
0.0
 11
22.01097478118652
 21
-17.60710678118652
 31
0.0
  0
LINE
  5
14E
330
76
100
AcDbEntity
  8
0
100
AcDbLine
 10
22.01097478118652
 20
-17.60710678118652
 30
0.0
 11
21.61097478118642
 21
-17.60710678118652
 31
0.0
  0
LINE
  5
14F
330
76
100
AcDbEntity
  8
0
100
AcDbLine
 10
21.61097478118642
 20
-17.10710678118652
 30
0.0
 11
21.50097478118651
 21
-17.10710678118652
 31
0.0
  0
LINE
  5
150
330
76
100
AcDbEntity
  8
0
100
AcDbLine
 10
21.61097478118642
 20
-17.10710678118652
 30
0.0
 11
21.61097478118642
 21
-17.60710678118652
 31
0.0
  0
LINE
  5
151
330
76
100
AcDbEntity
  8
0
100
AcDbLine
 10
21.50097478118651
 20
-14.20710678118643
 30
0.0
 11
21.50097478118651
 21
-16.60710678118651
 31
0.0
  0
LINE
  5
152
330
76
100
AcDbEntity
  8
0
100
AcDbLine
 10
21.50097478118651
 20
-12.80710678118645
 30
0.0
 11
21.50097478118651
 21
-14.20710678118643
 31
0.0
  0
LINE
  5
153
330
76
100
AcDbEntity
  8
0
100
AcDbLine
 10
21.50097478118651
 20
-12.67710678118646
 30
0.0
 11
21.50097478118651
 21
-12.80710678118645
 31
0.0
  0
LINE
  5
154
330
76
100
AcDbEntity
  8
0
100
AcDbLine
 10
22.91097478118661
 20
-17.10710678118652
 30
0.0
 11
22.91097478118661
 21
-17.60710678118652
 31
0.0
  0
LINE
  5
155
330
76
100
AcDbEntity
  8
0
100
AcDbLine
 10
25.31097478118647
 20
-17.10710678118652
 30
0.0
 11
25.31097478118647
 21
-16.60710678118651
 31
0.0
  0
LINE
  5
156
330
76
100
AcDbEntity
  8
0
100
AcDbLine
 10
25.31097478118647
 20
-17.10710678118652
 30
0.0
 11
25.31097478118647
 21
-16.60710678118651
 31
0.0
  0
LINE
  5
157
330
76
100
AcDbEntity
  8
0
100
AcDbLine
 10
26.32097478118646
 20
-17.60710678118652
 30
0.0
 11
25.82097478118646
 21
-17.60710678118652
 31
0.0
  0
LINE
  5
158
330
76
100
AcDbEntity
  8
0
100
AcDbLine
 10
25.82097478118646
 20
-17.60710678118652
 30
0.0
 11
25.4209747811866
 21
-17.60710678118652
 31
0.0
  0
LINE
  5
159
330
76
100
AcDbEntity
  8
0
100
AcDbLine
 10
25.4209747811866
 20
-17.10710678118652
 30
0.0
 11
25.31097478118647
 21
-17.10710678118652
 31
0.0
  0
LINE
  5
15A
330
76
100
AcDbEntity
  8
0
100
AcDbLine
 10
25.4209747811866
 20
-17.10710678118652
 30
0.0
 11
25.4209747811866
 21
-17.60710678118652
 31
0.0
  0
LINE
  5
15B
330
76
100
AcDbEntity
  8
0
100
AcDbLine
 10
25.31097478118647
 20
-14.20710678118643
 30
0.0
 11
25.31097478118647
 21
-16.60710678118651
 31
0.0
  0
LINE
  5
15C
330
76
100
AcDbEntity
  8
0
100
AcDbLine
 10
25.31097478118647
 20
-12.67710678118646
 30
0.0
 11
25.31097478118647
 21
-12.80710678118645
 31
0.0
  0
LINE
  5
15D
330
76
100
AcDbEntity
  8
0
100
AcDbLine
 10
25.31097478118647
 20
-12.80710678118645
 30
0.0
 11
25.31097478118647
 21
-14.20710678118643
 31
0.0
  0
LINE
  5
15E
330
76
100
AcDbEntity
  8
0
100
AcDbLine
 10
19.10097478118643
 20
-17.10710678118652
 30
0.0
 11
19.10097478118643
 21
-17.60710678118652
 31
0.0
  0
LINE
  5
15F
330
76
100
AcDbEntity
  8
0
100
AcDbLine
 10
26.72097478118655
 20
-17.60710678118652
 30
0.0
 11
26.32097478118646
 21
-17.60710678118652
 31
0.0
  0
CIRCLE
  5
160
330
76
100
AcDbEntity
  8
0
100
AcDbCircle
 10
43.7809747811907
 20
-13.63210678118559
 30
0.0
 40
0.32
  0
LINE
  5
161
330
76
100
AcDbEntity
  8
0
100
AcDbLine
 10
44.28097478119059
 20
-17.60710678118571
 30
0.0
 11
46.28097478119059
 21
-17.60710678118571
 31
0.0
  0
LINE
  5
162
330
76
100
AcDbEntity
  8
0
100
AcDbLine
 10
46.28097478119059
 20
-17.60710678118571
 30
0.0
 11
46.28097478119059
 21
-17.10710678118572
 31
0.0
  0
LINE
  5
163
330
76
100
AcDbEntity
  8
0
100
AcDbLine
 10
44.28097478119059
 20
-17.10710678118572
 30
0.0
 11
44.28097478119059
 21
-17.60710678118571
 31
0.0
  0
LINE
  5
164
330
76
100
AcDbEntity
  8
0
100
AcDbLine
 10
45.88097478119094
 20
-16.407106781185
 30
0.0
 11
45.88097478119094
 21
-14.407106781185
 31
0.0
  0
LINE
  5
165
330
76
100
AcDbEntity
  8
0
100
AcDbLine
 10
45.88097478119094
 20
-14.407106781185
 30
0.0
 11
46.28097478119059
 21
-14.407106781185
 31
0.0
  0
LINE
  5
166
330
76
100
AcDbEntity
  8
0
100
AcDbLine
 10
45.88097478119094
 20
-12.907106781185
 30
0.0
 11
46.28097478119059
 21
-12.907106781185
 31
0.0
  0
LINE
  5
167
330
76
100
AcDbEntity
  8
0
100
AcDbLine
 10
41.28097478119059
 20
-16.407106781185
 30
0.0
 11
36.68097478119021
 21
-16.407106781185
 31
0.0
  0
CIRCLE
  5
168
330
76
100
AcDbEntity
  8
0
100
AcDbCircle
 10
38.7809747811907
 20
-13.63210678118559
 30
0.0
 40
0.32
  0
LINE
  5
169
330
76
100
AcDbEntity
  8
0
100
AcDbLine
 10
38.28097478119059
 20
-17.60710678118571
 30
0.0
 11
38.28097478119059
 21
-17.10710678118572
 31
0.0
  0
LINE
  5
16A
330
76
100
AcDbEntity
  8
0
100
AcDbLine
 10
38.28097478119059
 20
-17.10710678118572
 30
0.0
 11
44.28097478119059
 21
-17.10710678118572
 31
0.0
  0
LINE
  5
16B
330
76
100
AcDbEntity
  8
0
100
AcDbLine
 10
41.28097478119059
 20
-16.407106781185
 30
0.0
 11
45.88097478119094
 21
-16.407106781185
 31
0.0
  0
CIRCLE
  5
16C
330
76
100
AcDbEntity
  8
0
100
AcDbCircle
 10
41.2809747811907
 20
-13.63210678118559
 30
0.0
 40
0.32
  0
LINE
  5
16D
330
76
100
AcDbEntity
  8
0
100
AcDbLine
 10
36.28097478119059
 20
-17.10710678118572
 30
0.0
 11
36.28097478119059
 21
-17.60710678118571
 31
0.0
  0
LINE
  5
16E
330
76
100
AcDbEntity
  8
0
100
AcDbLine
 10
36.28097478119059
 20
-17.60710678118571
 30
0.0
 11
38.28097478119059
 21
-17.60710678118571
 31
0.0
  0
ARC
  5
16F
330
76
100
AcDbEntity
  8
0
100
AcDbCircle
 10
32.56097478118647
 20
-4.707106781186547
 30
0.0
 40
0.3
100
AcDbArc
 50
0.0
 51
90.0
  0
LINE
  5
170
330
76
100
AcDbEntity
  8
0
100
AcDbLine
 10
32.93097478118659
 20
-7.057106781186455
 30
0.0
 11
32.86097478118643
 21
-7.057106781186455
 31
0.0
  0
LINE
  5
171
330
76
100
AcDbEntity
  8
0
100
AcDbLine
 10
32.93097478118659
 20
-12.23710678118651
 30
0.0
 11
29.12097478118642
 21
-12.23710678118651
 31
0.0
  0
LINE
  5
172
330
76
100
AcDbEntity
  8
0
100
AcDbLine
 10
32.86097478118643
 20
-4.707106781186433
 30
0.0
 11
32.86097478118643
 21
-4.807106781186456
 31
0.0
  0
ARC
  5
173
330
76
100
AcDbEntity
  8
0
100
AcDbCircle
 10
28.75097478118652
 20
-4.707106781186547
 30
0.0
 40
0.3
100
AcDbArc
 50
0.0
 51
90.0
  0
ARC
  5
174
330
76
100
AcDbEntity
  8
0
100
AcDbCircle
 10
29.46097478118655
 20
-4.707106781186547
 30
0.0
 40
0.3
100
AcDbArc
 50
90.0
 51
180.0
  0
LINE
  5
175
330
76
100
AcDbEntity
  8
0
100
AcDbLine
 10
29.16097478118661
 20
-4.707106781186433
 30
0.0
 11
29.16097478118661
 21
-4.807106781186456
 31
0.0
  0
LINE
  5
176
330
76
100
AcDbEntity
  8
0
100
AcDbLine
 10
29.05097478118648
 20
-4.707106781186433
 30
0.0
 11
29.05097478118648
 21
-4.807106781186456
 31
0.0
  0
LINE
  5
177
330
76
100
AcDbEntity
  8
0
100
AcDbLine
 10
29.46097478118655
 20
-4.407106781186478
 30
0.0
 11
32.56097478118647
 21
-4.407106781186478
 31
0.0
  0
LINE
  5
178
330
76
100
AcDbEntity
  8
0
100
AcDbLine
 10
32.86097478118643
 20
-5.357106781186525
 30
0.0
 11
32.86097478118643
 21
-5.057106781186456
 31
0.0
  0
LINE
  5
179
330
76
100
AcDbEntity
  8
0
100
AcDbLine
 10
32.16097478118661
 20
-6.907106781186477
 30
0.0
 11
32.86097478118643
 21
-6.907106781186477
 31
0.0
  0
LINE
  5
17A
330
76
100
AcDbEntity
  8
0
100
AcDbLine
 10
32.16097478118661
 20
-6.907106781186477
 30
0.0
 11
32.16097478118661
 21
-7.057106781186455
 31
0.0
  0
LINE
  5
17B
330
76
100
AcDbEntity
  8
0
100
AcDbLine
 10
32.86097478118643
 20
-6.507106781186503
 30
0.0
 11
32.86097478118643
 21
-6.907106781186477
 31
0.0
  0
LINE
  5
17C
330
76
100
AcDbEntity
  8
0
100
AcDbLine
 10
32.86097478118643
 20
-6.907106781186477
 30
0.0
 11
32.86097478118643
 21
-7.057106781186455
 31
0.0
  0
LINE
  5
17D
330
76
100
AcDbEntity
  8
0
100
AcDbLine
 10
32.86097478118643
 20
-6.257106781186503
 30
0.0
 11
32.86097478118643
 21
-6.507106781186503
 31
0.0
  0
LINE
  5
17E
330
76
100
AcDbEntity
  8
0
100
AcDbLine
 10
32.86097478118643
 20
-6.257106781186503
 30
0.0
 11
32.86097478118643
 21
-5.957106781186434
 31
0.0
  0
LINE
  5
17F
330
76
100
AcDbEntity
  8
0
100
AcDbLine
 10
32.86097478118643
 20
-7.057106781186455
 30
0.0
 11
32.16097478118661
 21
-7.057106781186455
 31
0.0
  0
LINE
  5
180
330
76
100
AcDbEntity
  8
0
100
AcDbLine
 10
32.86097478118643
 20
-5.357106781186525
 30
0.0
 11
32.86097478118643
 21
-5.957106781186434
 31
0.0
  0
LINE
  5
181
330
76
100
AcDbEntity
  8
0
100
AcDbLine
 10
29.12097478118642
 20
-7.557106781186455
 30
0.0
 11
29.12097478118642
 21
-11.27710678118648
 31
0.0
  0
LINE
  5
182
330
76
100
AcDbEntity
  8
0
100
AcDbLine
 10
28.35097478118644
 20
-6.907106781186477
 30
0.0
 11
29.05097478118648
 21
-6.907106781186477
 31
0.0
  0
LINE
  5
183
330
76
100
AcDbEntity
  8
0
100
AcDbLine
 10
29.05097478118648
 20
-7.057106781186455
 30
0.0
 11
28.35097478118644
 21
-7.057106781186455
 31
0.0
  0
LINE
  5
184
330
76
100
AcDbEntity
  8
0
100
AcDbLine
 10
28.35097478118644
 20
-6.907106781186477
 30
0.0
 11
28.35097478118644
 21
-7.057106781186455
 31
0.0
  0
ARC
  5
185
330
76
100
AcDbEntity
  8
0
100
AcDbCircle
 10
27.21597478118644
 20
-9.207106781186547
 30
0.0
 40
0.85
100
AcDbArc
 50
233.269604999998
 51
270.0
  0
ARC
  5
186
330
76
100
AcDbEntity
  8
0
100
AcDbCircle
 10
30.06097478118647
 20
-5.357106781186582
 30
0.0
 40
0.3
100
AcDbArc
 50
90.0
 51
180.0
  0
LINE
  5
187
330
76
100
AcDbEntity
  8
0
100
AcDbLine
 10
29.05097478118648
 20
-5.357106781186525
 30
0.0
 11
29.05097478118648
 21
-5.057106781186456
 31
0.0
  0
LINE
  5
188
330
76
100
AcDbEntity
  8
0
100
AcDbLine
 10
29.05097478118648
 20
-6.507106781186503
 30
0.0
 11
29.05097478118648
 21
-6.907106781186477
 31
0.0
  0
LINE
  5
189
330
76
100
AcDbEntity
  8
0
100
AcDbLine
 10
29.05097478118648
 20
-6.907106781186477
 30
0.0
 11
29.05097478118648
 21
-7.057106781186455
 31
0.0
  0
LINE
  5
18A
330
76
100
AcDbEntity
  8
0
100
AcDbLine
 10
29.05097478118648
 20
-6.257106781186503
 30
0.0
 11
29.05097478118648
 21
-6.507106781186503
 31
0.0
  0
LINE
  5
18B
330
76
100
AcDbEntity
  8
0
100
AcDbLine
 10
29.05097478118648
 20
-6.257106781186503
 30
0.0
 11
29.05097478118648
 21
-5.957106781186434
 31
0.0
  0
ARC
  5
18C
330
76
100
AcDbEntity
  8
0
100
AcDbCircle
 10
29.46097478118655
 20
-6.607106781186582
 30
0.0
 40
0.3
100
AcDbArc
 50
180.0
 51
270.0
  0
ARC
  5
18D
330
76
100
AcDbEntity
  8
0
100
AcDbCircle
 10
30.06097478118647
 20
-5.957106781186547
 30
0.0
 40
0.3
100
AcDbArc
 50
180.0
 51
270.0
  0
LINE
  5
18E
330
76
100
AcDbEntity
  8
0
100
AcDbLine
 10
29.16097478118661
 20
-6.507106781186503
 30
0.0
 11
29.16097478118661
 21
-6.607106781186526
 31
0.0
  0
LINE
  5
18F
330
76
100
AcDbEntity
  8
0
100
AcDbLine
 10
29.12097478118642
 20
-7.557106781186455
 30
0.0
 11
29.12097478118642
 21
-7.057106781186455
 31
0.0
  0
LINE
  5
190
330
76
100
AcDbEntity
  8
0
100
AcDbLine
 10
29.12097478118642
 20
-7.557106781186455
 30
0.0
 11
29.12097478118642
 21
-7.057106781186455
 31
0.0
  0
LINE
  5
191
330
76
100
AcDbEntity
  8
0
100
AcDbLine
 10
29.12097478118642
 20
-7.057106781186455
 30
0.0
 11
29.05097478118648
 21
-7.057106781186455
 31
0.0
  0
ARC
  5
192
330
76
100
AcDbEntity
  8
0
100
AcDbCircle
 10
31.02597478118662
 20
-9.207106781186547
 30
0.0
 40
0.85
100
AcDbArc
 50
233.269604999998
 51
270.0
  0
LINE
  5
193
330
76
100
AcDbEntity
  8
0
100
AcDbLine
 10
29.76097478118651
 20
-5.357106781186525
 30
0.0
 11
29.76097478118651
 21
-5.957106781186434
 31
0.0
  0
LINE
  5
194
330
76
100
AcDbEntity
  8
0
100
AcDbLine
 10
29.05097478118648
 20
-5.357106781186525
 30
0.0
 11
29.05097478118648
 21
-5.957106781186434
 31
0.0
  0
CIRCLE
  5
195
330
76
100
AcDbEntity
  8
0
100
AcDbCircle
 10
31.02597478118662
 20
-9.207106781186547
 30
0.0
 40
1.564999999999999
  0
LINE
  5
196
330
76
100
AcDbEntity
  8
0
100
AcDbLine
 10
32.86097478118643
 20
-5.057106781186456
 30
0.0
 11
30.06097478118647
 21
-5.057106781186456
 31
0.0
  0
LINE
  5
197
330
76
100
AcDbEntity
  8
0
100
AcDbLine
 10
30.06097478118647
 20
-6.257106781186503
 30
0.0
 11
32.86097478118643
 21
-6.257106781186503
 31
0.0
  0
LINE
  5
198
330
76
100
AcDbEntity
  8
0
100
AcDbLine
 10
29.46097478118655
 20
-6.907106781186477
 30
0.0
 11
32.16097478118661
 21
-6.907106781186477
 31
0.0
  0
LINE
  5
199
330
76
100
AcDbEntity
  8
0
100
AcDbLine
 10
32.16097478118661
 20
-7.057106781186455
 30
0.0
 11
29.12097478118642
 21
-7.057106781186455
 31
0.0
  0
ARC
  5
19A
330
76
100
AcDbEntity
  8
0
100
AcDbCircle
 10
31.02597478118662
 20
-9.207106781186547
 30
0.0
 40
0.85
100
AcDbArc
 50
270.0
 51
233.269604999998
  0
LINE
  5
19B
330
76
100
AcDbEntity
  8
0
100
AcDbLine
 10
29.05097478118648
 20
-4.807106781186456
 30
0.0
 11
29.05097478118648
 21
-5.057106781186456
 31
0.0
  0
LINE
  5
19C
330
76
100
AcDbEntity
  8
0
100
AcDbLine
 10
32.86097478118643
 20
-4.807106781186456
 30
0.0
 11
32.86097478118643
 21
-5.057106781186456
 31
0.0
  0
LINE
  5
19D
330
76
100
AcDbEntity
  8
0
100
AcDbLine
 10
29.16097478118661
 20
-4.807106781186456
 30
0.0
 11
29.16097478118661
 21
-6.507106781186503
 31
0.0
  0
LINE
  5
19E
330
76
100
AcDbEntity
  8
0
100
AcDbLine
 10
21.84097478118644
 20
-4.407106781186478
 30
0.0
 11
24.94097478118657
 21
-4.407106781186478
 31
0.0
  0
LINE
  5
19F
330
76
100
AcDbEntity
  8
0
100
AcDbLine
 10
21.54097478118649
 20
-4.707106781186433
 30
0.0
 11
21.54097478118649
 21
-4.807106781186456
 31
0.0
  0
ARC
  5
1A0
330
76
100
AcDbEntity
  8
0
100
AcDbCircle
 10
21.84097478118644
 20
-4.707106781186547
 30
0.0
 40
0.3
100
AcDbArc
 50
90.0
 51
180.0
  0
LINE
  5
1A1
330
76
100
AcDbEntity
  8
0
100
AcDbLine
 10
21.43097478118659
 20
-4.707106781186433
 30
0.0
 11
21.43097478118659
 21
-4.807106781186456
 31
0.0
  0
LINE
  5
1A2
330
76
100
AcDbEntity
  8
0
100
AcDbLine
 10
25.24097478118653
 20
-4.707106781186433
 30
0.0
 11
25.24097478118653
 21
-4.807106781186456
 31
0.0
  0
ARC
  5
1A3
330
76
100
AcDbEntity
  8
0
100
AcDbCircle
 10
25.65097478118662
 20
-4.707106781186547
 30
0.0
 40
0.3
100
AcDbArc
 50
90.0
 51
180.0
  0
LINE
  5
1A4
330
76
100
AcDbEntity
  8
0
100
AcDbLine
 10
25.35097478118642
 20
-4.707106781186433
 30
0.0
 11
25.35097478118642
 21
-4.807106781186456
 31
0.0
  0
ARC
  5
1A5
330
76
100
AcDbEntity
  8
0
100
AcDbCircle
 10
24.94097478118657
 20
-4.707106781186547
 30
0.0
 40
0.3
100
AcDbArc
 50
0.0
 51
90.0
  0
ARC
  5
1A6
330
76
100
AcDbEntity
  8
0
100
AcDbCircle
 10
21.1309747811864
 20
-4.707106781186547
 30
0.0
 40
0.3
100
AcDbArc
 50
0.0
 51
90.0
  0
CIRCLE
  5
1A7
330
76
100
AcDbEntity
  8
0
100
AcDbCircle
 10
23.4059747811865
 20
-9.207106781186547
 30
0.0
 40
1.564999999999999
  0
LINE
  5
1A8
330
76
100
AcDbEntity
  8
0
100
AcDbLine
 10
25.24097478118653
 20
-5.057106781186456
 30
0.0
 11
22.44097478118657
 21
-5.057106781186456
 31
0.0
  0
LINE
  5
1A9
330
76
100
AcDbEntity
  8
0
100
AcDbLine
 10
24.54097478118649
 20
-7.057106781186455
 30
0.0
 11
21.50097478118651
 21
-7.057106781186455
 31
0.0
  0
LINE
  5
1AA
330
76
100
AcDbEntity
  8
0
100
AcDbLine
 10
21.84097478118644
 20
-6.907106781186477
 30
0.0
 11
24.54097478118649
 21
-6.907106781186477
 31
0.0
  0
LINE
  5
1AB
330
76
100
AcDbEntity
  8
0
100
AcDbLine
 10
22.44097478118657
 20
-6.257106781186503
 30
0.0
 11
25.24097478118653
 21
-6.257106781186503
 31
0.0
  0
LINE
  5
1AC
330
76
100
AcDbEntity
  8
0
100
AcDbLine
 10
21.50097478118651
 20
-7.557106781186455
 30
0.0
 11
21.50097478118651
 21
-11.27710678118648
 31
0.0
  0
ARC
  5
1AD
330
76
100
AcDbEntity
  8
0
100
AcDbCircle
 10
22.44097478118657
 20
-5.357106781186582
 30
0.0
 40
0.3
100
AcDbArc
 50
90.0
 51
180.0
  0
LINE
  5
1AE
330
76
100
AcDbEntity
  8
0
100
AcDbLine
 10
21.43097478118659
 20
-5.357106781186525
 30
0.0
 11
21.43097478118659
 21
-5.057106781186456
 31
0.0
  0
ARC
  5
1AF
330
76
100
AcDbEntity
  8
0
100
AcDbCircle
 10
22.44097478118657
 20
-5.957106781186547
 30
0.0
 40
0.3
100
AcDbArc
 50
180.0
 51
270.0
  0
LINE
  5
1B0
330
76
100
AcDbEntity
  8
0
100
AcDbLine
 10
21.50097478118651
 20
-7.557106781186455
 30
0.0
 11
21.50097478118651
 21
-7.057106781186455
 31
0.0
  0
LINE
  5
1B1
330
76
100
AcDbEntity
  8
0
100
AcDbLine
 10
21.54097478118649
 20
-6.507106781186503
 30
0.0
 11
21.54097478118649
 21
-6.607106781186526
 31
0.0
  0
ARC
  5
1B2
330
76
100
AcDbEntity
  8
0
100
AcDbCircle
 10
21.84097478118644
 20
-6.607106781186582
 30
0.0
 40
0.3
100
AcDbArc
 50
180.0
 51
270.0
  0
LINE
  5
1B3
330
76
100
AcDbEntity
  8
0
100
AcDbLine
 10
21.50097478118651
 20
-7.557106781186455
 30
0.0
 11
21.50097478118651
 21
-7.057106781186455
 31
0.0
  0
LINE
  5
1B4
330
76
100
AcDbEntity
  8
0
100
AcDbLine
 10
21.50097478118651
 20
-7.057106781186455
 30
0.0
 11
21.43097478118659
 21
-7.057106781186455
 31
0.0
  0
LINE
  5
1B5
330
76
100
AcDbEntity
  8
0
100
AcDbLine
 10
21.43097478118659
 20
-6.507106781186503
 30
0.0
 11
21.43097478118659
 21
-6.907106781186477
 31
0.0
  0
LINE
  5
1B6
330
76
100
AcDbEntity
  8
0
100
AcDbLine
 10
21.43097478118659
 20
-6.907106781186477
 30
0.0
 11
21.43097478118659
 21
-7.057106781186455
 31
0.0
  0
LINE
  5
1B7
330
76
100
AcDbEntity
  8
0
100
AcDbLine
 10
21.43097478118659
 20
-6.257106781186503
 30
0.0
 11
21.43097478118659
 21
-6.507106781186503
 31
0.0
  0
LINE
  5
1B8
330
76
100
AcDbEntity
  8
0
100
AcDbLine
 10
21.43097478118659
 20
-6.257106781186503
 30
0.0
 11
21.43097478118659
 21
-5.957106781186434
 31
0.0
  0
LINE
  5
1B9
330
76
100
AcDbEntity
  8
0
100
AcDbLine
 10
21.43097478118659
 20
-5.357106781186525
 30
0.0
 11
21.43097478118659
 21
-5.957106781186434
 31
0.0
  0
LINE
  5
1BA
330
76
100
AcDbEntity
  8
0
100
AcDbLine
 10
22.14097478118639
 20
-5.357106781186525
 30
0.0
 11
22.14097478118639
 21
-5.957106781186434
 31
0.0
  0
LINE
  5
1BB
330
76
100
AcDbEntity
  8
0
100
AcDbLine
 10
25.31097478118647
 20
-7.557106781186455
 30
0.0
 11
25.31097478118647
 21
-11.27710678118648
 31
0.0
  0
ARC
  5
1BC
330
76
100
AcDbEntity
  8
0
100
AcDbCircle
 10
23.4059747811865
 20
-9.207106781186547
 30
0.0
 40
0.85
100
AcDbArc
 50
270.0
 51
233.269604999998
  0
ARC
  5
1BD
330
76
100
AcDbEntity
  8
0
100
AcDbCircle
 10
23.4059747811865
 20
-9.207106781186547
 30
0.0
 40
0.85
100
AcDbArc
 50
233.269604999998
 51
270.0
  0
LINE
  5
1BE
330
76
100
AcDbEntity
  8
0
100
AcDbLine
 10
25.24097478118653
 20
-5.357106781186525
 30
0.0
 11
25.24097478118653
 21
-5.057106781186456
 31
0.0
  0
ARC
  5
1BF
330
76
100
AcDbEntity
  8
0
100
AcDbCircle
 10
26.25097478118652
 20
-5.357106781186582
 30
0.0
 40
0.3
100
AcDbArc
 50
90.0
 51
180.0
  0
LINE
  5
1C0
330
76
100
AcDbEntity
  8
0
100
AcDbLine
 10
25.24097478118653
 20
-7.057106781186455
 30
0.0
 11
24.54097478118649
 21
-7.057106781186455
 31
0.0
  0
LINE
  5
1C1
330
76
100
AcDbEntity
  8
0
100
AcDbLine
 10
25.24097478118653
 20
-6.257106781186503
 30
0.0
 11
25.24097478118653
 21
-5.957106781186434
 31
0.0
  0
LINE
  5
1C2
330
76
100
AcDbEntity
  8
0
100
AcDbLine
 10
25.24097478118653
 20
-6.257106781186503
 30
0.0
 11
25.24097478118653
 21
-6.507106781186503
 31
0.0
  0
LINE
  5
1C3
330
76
100
AcDbEntity
  8
0
100
AcDbLine
 10
25.24097478118653
 20
-6.907106781186477
 30
0.0
 11
25.24097478118653
 21
-7.057106781186455
 31
0.0
  0
LINE
  5
1C4
330
76
100
AcDbEntity
  8
0
100
AcDbLine
 10
25.24097478118653
 20
-6.507106781186503
 30
0.0
 11
25.24097478118653
 21
-6.907106781186477
 31
0.0
  0
LINE
  5
1C5
330
76
100
AcDbEntity
  8
0
100
AcDbLine
 10
24.54097478118649
 20
-6.907106781186477
 30
0.0
 11
24.54097478118649
 21
-7.057106781186455
 31
0.0
  0
LINE
  5
1C6
330
76
100
AcDbEntity
  8
0
100
AcDbLine
 10
24.54097478118649
 20
-6.907106781186477
 30
0.0
 11
25.24097478118653
 21
-6.907106781186477
 31
0.0
  0
ARC
  5
1C7
330
76
100
AcDbEntity
  8
0
100
AcDbCircle
 10
25.65097478118662
 20
-6.607106781186582
 30
0.0
 40
0.3
100
AcDbArc
 50
180.0
 51
270.0
  0
ARC
  5
1C8
330
76
100
AcDbEntity
  8
0
100
AcDbCircle
 10
26.25097478118652
 20
-5.957106781186547
 30
0.0
 40
0.3
100
AcDbArc
 50
180.0
 51
270.0
  0
LINE
  5
1C9
330
76
100
AcDbEntity
  8
0
100
AcDbLine
 10
25.31097478118647
 20
-7.557106781186455
 30
0.0
 11
25.31097478118647
 21
-7.057106781186455
 31
0.0
  0
LINE
  5
1CA
330
76
100
AcDbEntity
  8
0
100
AcDbLine
 10
25.31097478118647
 20
-7.557106781186455
 30
0.0
 11
25.31097478118647
 21
-7.057106781186455
 31
0.0
  0
LINE
  5
1CB
330
76
100
AcDbEntity
  8
0
100
AcDbLine
 10
25.35097478118642
 20
-6.507106781186503
 30
0.0
 11
25.35097478118642
 21
-6.607106781186526
 31
0.0
  0
LINE
  5
1CC
330
76
100
AcDbEntity
  8
0
100
AcDbLine
 10
25.31097478118647
 20
-7.057106781186455
 30
0.0
 11
25.24097478118653
 21
-7.057106781186455
 31
0.0
  0
LINE
  5
1CD
330
76
100
AcDbEntity
  8
0
100
AcDbLine
 10
25.24097478118653
 20
-5.357106781186525
 30
0.0
 11
25.24097478118653
 21
-5.957106781186434
 31
0.0
  0
LINE
  5
1CE
330
76
100
AcDbEntity
  8
0
100
AcDbLine
 10
25.95097478118657
 20
-5.357106781186525
 30
0.0
 11
25.95097478118657
 21
-5.957106781186434
 31
0.0
  0
ARC
  5
1CF
330
76
100
AcDbEntity
  8
0
100
AcDbCircle
 10
19.59597478118654
 20
-9.207106781186547
 30
0.0
 40
0.85
100
AcDbArc
 50
233.269604999998
 51
270.0
  0
LINE
  5
1D0
330
76
100
AcDbEntity
  8
0
100
AcDbLine
 10
20.73097478118654
 20
-6.907106781186477
 30
0.0
 11
20.73097478118654
 21
-7.057106781186455
 31
0.0
  0
LINE
  5
1D1
330
76
100
AcDbEntity
  8
0
100
AcDbLine
 10
21.43097478118659
 20
-7.057106781186455
 30
0.0
 11
20.73097478118654
 21
-7.057106781186455
 31
0.0
  0
LINE
  5
1D2
330
76
100
AcDbEntity
  8
0
100
AcDbLine
 10
20.73097478118654
 20
-6.907106781186477
 30
0.0
 11
21.43097478118659
 21
-6.907106781186477
 31
0.0
  0
LINE
  5
1D3
330
76
100
AcDbEntity
  8
0
100
AcDbLine
 10
21.43097478118659
 20
-4.807106781186456
 30
0.0
 11
21.43097478118659
 21
-5.057106781186456
 31
0.0
  0
LINE
  5
1D4
330
76
100
AcDbEntity
  8
0
100
AcDbLine
 10
21.54097478118649
 20
-4.807106781186456
 30
0.0
 11
21.54097478118649
 21
-6.507106781186503
 31
0.0
  0
LINE
  5
1D5
330
76
100
AcDbEntity
  8
0
100
AcDbLine
 10
25.24097478118653
 20
-4.807106781186456
 30
0.0
 11
25.24097478118653
 21
-5.057106781186456
 31
0.0
  0
LINE
  5
1D6
330
76
100
AcDbEntity
  8
0
100
AcDbLine
 10
25.35097478118642
 20
-4.807106781186456
 30
0.0
 11
25.35097478118642
 21
-6.507106781186503
 31
0.0
  0
LINE
  5
1D7
330
76
100
AcDbEntity
  8
0
100
AcDbLine
 10
29.05097478118648
 20
-5.057106781186456
 30
0.0
 11
26.25097478118652
 21
-5.057106781186456
 31
0.0
  0
LINE
  5
1D8
330
76
100
AcDbEntity
  8
0
100
AcDbLine
 10
26.25097478118652
 20
-6.257106781186503
 30
0.0
 11
29.05097478118648
 21
-6.257106781186503
 31
0.0
  0
CIRCLE
  5
1D9
330
76
100
AcDbEntity
  8
0
100
AcDbCircle
 10
27.21597478118644
 20
-9.207106781186547
 30
0.0
 40
1.564999999999999
  0
LINE
  5
1DA
330
76
100
AcDbEntity
  8
0
100
AcDbLine
 10
25.65097478118662
 20
-4.407106781186478
 30
0.0
 11
28.75097478118652
 21
-4.407106781186478
 31
0.0
  0
LINE
  5
1DB
330
76
100
AcDbEntity
  8
0
100
AcDbLine
 10
28.35097478118644
 20
-7.057106781186455
 30
0.0
 11
25.31097478118647
 21
-7.057106781186455
 31
0.0
  0
LINE
  5
1DC
330
76
100
AcDbEntity
  8
0
100
AcDbLine
 10
25.65097478118662
 20
-6.907106781186477
 30
0.0
 11
28.35097478118644
 21
-6.907106781186477
 31
0.0
  0
ARC
  5
1DD
330
76
100
AcDbEntity
  8
0
100
AcDbCircle
 10
27.21597478118644
 20
-9.207106781186547
 30
0.0
 40
0.85
100
AcDbArc
 50
270.0
 51
233.269604999998
  0
LINE
  5
1DE
330
76
100
AcDbEntity
  8
0
100
AcDbLine
 10
29.12097478118642
 20
-12.23710678118651
 30
0.0
 11
29.12097478118642
 21
-12.03710678118647
 31
0.0
  0
LINE
  5
1DF
330
76
100
AcDbEntity
  8
0
100
AcDbLine
 10
29.12097478118642
 20
-12.23710678118651
 30
0.0
 11
29.12097478118642
 21
-12.03710678118647
 31
0.0
  0
LINE
  5
1E0
330
76
100
AcDbEntity
  8
0
100
AcDbLine
 10
25.31097478118647
 20
-12.23710678118651
 30
0.0
 11
21.50097478118651
 21
-12.23710678118651
 31
0.0
  0
LINE
  5
1E1
330
76
100
AcDbEntity
  8
0
100
AcDbLine
 10
21.50097478118651
 20
-12.23710678118651
 30
0.0
 11
21.50097478118651
 21
-12.03710678118647
 31
0.0
  0
LINE
  5
1E2
330
76
100
AcDbEntity
  8
0
100
AcDbLine
 10
21.50097478118651
 20
-12.23710678118651
 30
0.0
 11
21.50097478118651
 21
-12.03710678118647
 31
0.0
  0
LINE
  5
1E3
330
76
100
AcDbEntity
  8
0
100
AcDbLine
 10
25.31097478118647
 20
-12.23710678118651
 30
0.0
 11
25.31097478118647
 21
-12.03710678118647
 31
0.0
  0
LINE
  5
1E4
330
76
100
AcDbEntity
  8
0
100
AcDbLine
 10
25.31097478118647
 20
-12.23710678118651
 30
0.0
 11
25.31097478118647
 21
-12.03710678118647
 31
0.0
  0
LINE
  5
1E5
330
76
100
AcDbEntity
  8
0
100
AcDbLine
 10
29.12097478118642
 20
-12.23710678118651
 30
0.0
 11
25.31097478118647
 21
-12.23710678118651
 31
0.0
  0
LINE
  5
1E6
330
76
100
AcDbEntity
  8
0
100
AcDbLine
 10
21.50097478118651
 20
-7.557106781186455
 30
0.0
 11
21.50097478118651
 21
-12.03710678118647
 31
0.0
  0
LINE
  5
1E7
330
76
100
AcDbEntity
  8
0
100
AcDbLine
 10
21.50097478118651
 20
-11.27710678118648
 30
0.0
 11
21.50097478118651
 21
-12.03710678118647
 31
0.0
  0
LINE
  5
1E8
330
76
100
AcDbEntity
  8
0
100
AcDbLine
 10
29.12097478118642
 20
-7.557106781186455
 30
0.0
 11
29.12097478118642
 21
-12.03710678118647
 31
0.0
  0
LINE
  5
1E9
330
76
100
AcDbEntity
  8
0
100
AcDbLine
 10
25.31097478118647
 20
-7.557106781186455
 30
0.0
 11
25.31097478118647
 21
-12.03710678118647
 31
0.0
  0
LINE
  5
1EA
330
76
100
AcDbEntity
  8
0
100
AcDbLine
 10
25.31097478118647
 20
-11.27710678118648
 30
0.0
 11
25.31097478118647
 21
-12.03710678118647
 31
0.0
  0
LINE
  5
1EB
330
76
100
AcDbEntity
  8
0
100
AcDbLine
 10
29.12097478118642
 20
-11.27710678118648
 30
0.0
 11
29.12097478118642
 21
-12.03710678118647
 31
0.0
  0
LINE
  5
1EC
330
76
100
AcDbEntity
  8
0
100
AcDbLine
 10
46.91097578118671
 20
-10.10710678118652
 30
0.0
 11
46.91097578118671
 21
-8.607106781186525
 31
0.0
  0
LINE
  5
1ED
330
76
100
AcDbEntity
  8
0
100
AcDbLine
 10
45.68097478119022
 20
-10.60710678118572
 30
0.0
 11
45.68097478119022
 21
-11.407106781185
 31
0.0
  0
LINE
  5
1EE
330
76
100
AcDbEntity
  8
0
100
AcDbLine
 10
45.78097478119059
 20
-11.407106781185
 30
0.0
 11
45.88097478119094
 21
-11.407106781185
 31
0.0
  0
LINE
  5
1EF
330
76
100
AcDbEntity
  8
0
100
AcDbLine
 10
45.68097478119022
 20
-11.407106781185
 30
0.0
 11
45.78097478119059
 21
-11.407106781185
 31
0.0
  0
LINE
  5
1F0
330
76
100
AcDbEntity
  8
0
100
AcDbLine
 10
43.4809747811895
 20
-10.60710678118572
 30
0.0
 11
45.68097478119022
 21
-10.60710678118572
 31
0.0
  0
LINE
  5
1F1
330
76
100
AcDbEntity
  8
0
100
AcDbLine
 10
46.28097478119059
 20
-10.157106781185
 30
0.0
 11
43.9809747811895
 21
-10.157106781185
 31
0.0
  0
LINE
  5
1F2
330
76
100
AcDbEntity
  8
0
100
AcDbLine
 10
43.9809747811895
 20
-10.157106781185
 30
0.0
 11
43.9809747811895
 21
-9.107106781185727
 31
0.0
  0
LINE
  5
1F3
330
76
100
AcDbEntity
  8
0
100
AcDbLine
 10
43.38097478119094
 20
-9.807106781184636
 30
0.0
 11
43.38097478119094
 21
-10.80710678118463
 31
0.0
  0
LINE
  5
1F4
330
76
100
AcDbEntity
  8
0
100
AcDbLine
 10
43.38097478119094
 20
-10.80710678118463
 30
0.0
 11
43.4809747811895
 21
-10.80710678118463
 31
0.0
  0
LINE
  5
1F5
330
76
100
AcDbEntity
  8
0
100
AcDbLine
 10
43.4809747811895
 20
-10.80710678118463
 30
0.0
 11
43.4809747811895
 21
-10.60710678118572
 31
0.0
  0
LINE
  5
1F6
330
76
100
AcDbEntity
  8
0
100
AcDbLine
 10
36.88097478119095
 20
-11.407106781185
 30
0.0
 11
36.88097478119095
 21
-10.60710678118572
 31
0.0
  0
LINE
  5
1F7
330
76
100
AcDbEntity
  8
0
100
AcDbLine
 10
36.68097478119021
 20
-11.407106781185
 30
0.0
 11
36.88097478119095
 21
-11.407106781185
 31
0.0
  0
LINE
  5
1F8
330
76
100
AcDbEntity
  8
0
100
AcDbLine
 10
36.88097478119095
 20
-10.60710678118572
 30
0.0
 11
39.08097478119167
 21
-10.60710678118572
 31
0.0
  0
LINE
  5
1F9
330
76
100
AcDbEntity
  8
0
100
AcDbLine
 10
38.58097478119168
 20
-9.107106781185727
 30
0.0
 11
38.58097478119168
 21
-10.157106781185
 31
0.0
  0
LINE
  5
1FA
330
76
100
AcDbEntity
  8
0
100
AcDbLine
 10
39.18097478119021
 20
-10.80710678118463
 30
0.0
 11
39.18097478119021
 21
-9.807106781184636
 31
0.0
  0
LINE
  5
1FB
330
76
100
AcDbEntity
  8
0
100
AcDbLine
 10
39.08097478119167
 20
-10.80710678118463
 30
0.0
 11
39.18097478119021
 21
-10.80710678118463
 31
0.0
  0
LINE
  5
1FC
330
76
100
AcDbEntity
  8
0
100
AcDbLine
 10
39.08097478119167
 20
-10.60710678118572
 30
0.0
 11
39.08097478119167
 21
-10.80710678118463
 31
0.0
  0
LINE
  5
1FD
330
76
100
AcDbEntity
  8
0
100
AcDbLine
 10
43.9809747811895
 20
-9.107106781185727
 30
0.0
 11
38.58097478119168
 21
-9.107106781185727
 31
0.0
  0
LINE
  5
1FE
330
76
100
AcDbEntity
  8
0
100
AcDbLine
 10
39.18097478119021
 20
-9.807106781184636
 30
0.0
 11
43.38097478119094
 21
-9.807106781184636
 31
0.0
  0
LINE
  5
1FF
330
76
100
AcDbEntity
  8
0
100
AcDbLine
 10
32.93097478118659
 20
-7.057106781186455
 30
0.0
 11
35.43097478118659
 21
-7.057106781186455
 31
0.0
  0
LINE
  5
200
330
76
100
AcDbEntity
  8
3_表示パネル
  6
CONTINUOUS
100
AcDbLine
 10
35.61097578118676
 20
-8.607106781186466
 30
0.0
 11
35.61097578118676
 21
-3.907106781186478
 31
0.0
  0
LINE
  5
201
330
76
100
AcDbEntity
  8
0
100
AcDbLine
 10
38.58097478119168
 20
-10.157106781185
 30
0.0
 11
36.28097478119059
 21
-10.157106781185
 31
0.0
  0
LINE
  5
202
330
76
100
AcDbEntity
  8
3_表示パネル
  6
CONTINUOUS
100
AcDbLine
 10
35.61097578118676
 20
-8.607106781186466
 30
0.0
 11
46.91097578118696
 21
-8.607106781186525
 31
0.0
  0
LINE
  5
203
330
76
100
AcDbEntity
  8
0
100
AcDbLine
 10
32.93097478118659
 20
-12.23710678118651
 30
0.0
 11
35.43097478118659
 21
-12.23710678118651
 31
0.0
  0
ARC
  5
204
330
76
100
AcDbEntity
  8
0
100
AcDbCircle
 10
0.8109757811865847
 20
-0.8071067811865706
 30
0.0
 40
1.0
100
AcDbArc
 50
90.0
 51
180.0
  0
ARC
  5
205
330
76
100
AcDbEntity
  8
0
100
AcDbCircle
 10
0.7071067811865534
 20
-0.7071067811865479
 30
0.0
 40
1.0
100
AcDbArc
 50
90.0
 51
180.0
  0
LINE
  5
206
330
76
100
AcDbEntity
  8
0
100
AcDbLine
 10
47.1309747811864
 20
-10.60710678118651
 30
0.0
 11
47.1309747811864
 21
-17.60710678118652
 31
0.0
  0
LINE
  5
207
330
76
100
AcDbEntity
  8
0
100
AcDbLine
 10
52.1309747811864
 20
-10.60710678118651
 30
0.0
 11
52.1309747811864
 21
-17.60710678118652
 31
0.0
  0
LINE
  5
208
330
76
100
AcDbEntity
  8
0
100
AcDbLine
 10
51.13097478118641
 20
-13.02794178118652
 30
0.0
 11
48.13097478118641
 21
-13.02794178118652
 31
0.0
  0
LINE
  5
209
330
76
100
AcDbEntity
  8
0
100
AcDbLine
 10
51.13097478118641
 20
-14.99286378118652
 30
0.0
 11
48.13097478118641
 21
-14.99286378118652
 31
0.0
  0
LINE
  5
20A
330
76
100
AcDbEntity
  8
0
100
AcDbLine
 10
48.13097478118641
 20
-13.02794178118652
 30
0.0
 11
48.13097478118641
 21
-14.99286378118652
 31
0.0
  0
LINE
  5
20B
330
76
100
AcDbEntity
  8
0
100
AcDbLine
 10
51.13097478118641
 20
-13.02794178118652
 30
0.0
 11
51.13097478118641
 21
-14.99286378118652
 31
0.0
  0
LINE
  5
20C
330
76
100
AcDbEntity
  8
0
100
AcDbLine
 10
52.1309747811864
 20
-17.60710678118652
 30
0.0
 11
47.1309747811864
 21
-17.60710678118652
 31
0.0
  0
LINE
  5
20D
330
76
100
AcDbEntity
  8
0
100
AcDbLine
 10
47.1309747811864
 20
-10.60710678118651
 30
0.0
 11
52.1309747811864
 21
-10.60710678118651
 31
0.0
  0
LINE
  5
20E
330
76
100
AcDbEntity
  8
0
100
AcDbLine
 10
52.61097578118675
 20
-10.10710678118652
 30
0.0
 11
52.61097578118675
 21
-12.10710678118651
 31
0.0
  0
ENDBLK
  5
210
330
76
100
AcDbEntity
  8
0
100
AcDbBlockEnd
  0
ENDSEC
  0
SECTION
  2
ENTITIES
  0
LINE
  5
674
330
1F
100
AcDbEntity
  8
CLASS1
100
AcDbLine
 10
2.500001379533955
 20
298.3305590546571
 30
0.0
 11
2.500001379533955
 21
293.3292690546571
 31
0.0
  0
LINE
  5
675
330
1F
100
AcDbEntity
  8
CLASS1
100
AcDbLine
 10
68.12251837953374
 20
296.8525740546571
 30
0.0
 11
2.500001379533955
 21
298.3305590546571
 31
0.0
  0
LINE
  5
676
330
1F
100
AcDbEntity
  8
CLASS1
100
AcDbLine
 10
0.0000013795338418
 20
126.8290100546572
 30
0.0
 11
0.0000013795339555
 21
305.3290100546573
 31
0.0
  0
LINE
  5
677
330
1F
100
AcDbEntity
  8
0
100
AcDbLine
 10
152.9741346537903
 20
295.8292690546571
 30
0.0
 11
152.9741346537903
 21
303.8290100546573
 31
0.0
  0
LINE
  5
678
330
1F
100
AcDbEntity
  8
0
100
AcDbLine
 10
183.9745526537905
 20
294.8881370546573
 30
0.0
 11
183.9745526537905
 21
303.8290100546573
 31
0.0
  0
LINE
  5
679
330
1F
100
AcDbEntity
  8
0
  6
CENTER
 62
     5
100
AcDbLine
 10
168.4743436537903
 20
308.0790100546573
 30
0.0
 11
168.4743436537903
 21
293.0790100546573
 31
0.0
  0
LINE
  5
67B
330
1F
100
AcDbEntity
  8
CLASS1
100
AcDbLine
 10
61.96772937953348
 20
141.7001080546572
 30
0.0
 11
2.523003379533747
 21
140.3324120546574
 31
0.0
  0
LINE
  5
67C
330
1F
100
AcDbEntity
  8
CLASS1
100
AcDbLine
 10
68.12251837953363
 20
136.8085440546572
 30
0.0
 11
2.50000137953384
 21
135.3305590546572
 31
0.0
  0
LINE
  5
67D
330
1F
100
AcDbEntity
  8
CLASS1
100
AcDbLine
 10
2.522722379533774
 20
293.3287520546573
 30
0.0
 11
61.96744937953383
 21
291.9777350546573
 31
0.0
  0
LINE
  5
67E
330
1F
100
AcDbEntity
  8
CLASS1
100
AcDbLine
 10
62.94472737953356
 20
142.6998430546573
 30
0.0
 11
62.94472737953367
 21
290.9779930546572
 31
0.0
  0
LINE
  5
67F
330
1F
100
AcDbEntity
  8
CLASS1
100
AcDbLine
 10
68.80000137953368
 20
294.3305590546571
 30
0.0
 11
68.80000137953357
 21
139.3305590546572
 31
0.0
  0
LINE
  5
680
330
1F
100
AcDbEntity
  8
CLASS1
100
AcDbLine
 10
68.3156753795339
 20
294.3305590546571
 30
0.0
 11
68.31567537953379
 21
139.3305590546572
 31
0.0
  0
LINE
  5
681
330
1F
100
AcDbEntity
  8
CLASS1
100
AcDbLine
 10
68.04452437953398
 20
295.8766000546571
 30
0.0
 11
68.04452437953386
 21
137.7845180546573
 31
0.0
  0
ARC
  5
682
330
1F
100
AcDbEntity
  8
CLASS1
100
AcDbCircle
 10
68.10000137953352
 20
137.8082900546571
 30
0.0
 40
1.0
100
AcDbArc
 50
271.2902270000052
 51
0.0
  0
LINE
  5
683
330
1F
100
AcDbEntity
  8
CLASS1
100
AcDbLine
 10
68.31567537953379
 20
139.3305590546572
 30
0.0
 11
69.10000137953375
 21
139.3305590546572
 31
0.0
  0
LINE
  5
684
330
1F
100
AcDbEntity
  8
CLASS1
100
AcDbLine
 10
69.10000137953375
 20
137.8082900546571
 30
0.0
 11
69.10000137953375
 21
139.3305590546572
 31
0.0
  0
ARC
  5
685
330
1F
100
AcDbEntity
  8
CLASS1
100
AcDbCircle
 10
67.04452437953364
 20
137.7845180546573
 30
0.0
 40
1.0
100
AcDbArc
 50
271.2902270000052
 51
0.0
  0
ARC
  5
686
330
1F
100
AcDbEntity
  8
CLASS1
100
AcDbCircle
 10
61.94472737953333
 20
142.6998430546573
 30
0.0
 40
1.0
100
AcDbArc
 50
271.318021000004
 51
0.0
  0
LINE
  5
687
330
1F
100
AcDbEntity
  8
0
100
AcDbLine
 10
69.30000137953347
 20
189.2544280546571
 30
0.0
 11
69.30000137953334
 21
186.2544280546572
 31
0.0
  0
LINE
  5
688
330
1F
100
AcDbEntity
  8
0
100
AcDbLine
 10
69.30000137953347
 20
189.2544280546571
 30
0.0
 11
68.31567537953367
 21
189.2544280546573
 31
0.0
  0
LINE
  5
689
330
1F
100
AcDbEntity
  8
0
100
AcDbLine
 10
69.30000137953334
 20
186.2544280546572
 30
0.0
 11
68.31567537953356
 21
186.2544280546573
 31
0.0
  0
LINE
  5
68A
330
1F
100
AcDbEntity
  8
0
100
AcDbLine
 10
69.30000137953347
 20
230.4084160546574
 30
0.0
 11
69.30000137953347
 21
227.4084160546574
 31
0.0
  0
LINE
  5
68B
330
1F
100
AcDbEntity
  8
0
100
AcDbLine
 10
69.30000137953347
 20
230.4084160546574
 30
0.0
 11
68.31567537953367
 21
230.4084160546575
 31
0.0
  0
LINE
  5
68C
330
1F
100
AcDbEntity
  8
0
100
AcDbLine
 10
69.30000137953347
 20
227.4084160546574
 30
0.0
 11
68.31567537953367
 21
227.4084160546575
 31
0.0
  0
LINE
  5
68D
330
1F
100
AcDbEntity
  8
CLASS1
100
AcDbLine
 10
68.3156753795339
 20
294.3305590546571
 30
0.0
 11
69.10000137953386
 21
294.3305590546571
 31
0.0
  0
LINE
  5
68E
330
1F
100
AcDbEntity
  8
CLASS1
100
AcDbLine
 10
69.10000137953386
 20
295.8528280546571
 30
0.0
 11
69.10000137953386
 21
294.3305590546571
 31
0.0
  0
ARC
  5
68F
330
1F
100
AcDbEntity
  8
CLASS1
100
AcDbCircle
 10
68.10000137953398
 20
295.8528280546571
 30
0.0
 40
1.0
100
AcDbArc
 50
0.0
 51
88.70977299999479
  0
ARC
  5
690
330
1F
100
AcDbEntity
  8
CLASS1
100
AcDbCircle
 10
67.0445243795341
 20
295.8766000546571
 30
0.0
 40
1.0
100
AcDbArc
 50
0.0
 51
88.70977299999479
  0
ARC
  5
691
330
1F
100
AcDbEntity
  8
CLASS1
100
AcDbCircle
 10
61.94472737953379
 20
290.9779930546572
 30
0.0
 40
1.0
100
AcDbArc
 50
0.0
 51
88.69804600000644
  0
LINE
  5
692
330
1F
100
AcDbEntity
  8
0
100
AcDbLine
 10
178.8465126537904
 20
295.8954970546573
 30
0.0
 11
179.4740186537904
 21
296.8292690546571
 31
0.0
  0
LINE
  5
693
330
1F
100
AcDbEntity
  8
0
100
AcDbLine
 10
154.9820616537904
 20
295.3179060546576
 30
0.0
 11
181.9666266537905
 21
295.3179060546576
 31
0.0
  0
LINE
  5
694
330
1F
100
AcDbEntity
  8
0
100
AcDbLine
 10
156.9743436537903
 20
292.8292690546573
 30
0.0
 11
179.9743436537903
 21
292.8292690546573
 31
0.0
  0
LINE
  5
695
330
1F
100
AcDbEntity
  8
0
100
AcDbLine
 10
157.0743436537903
 20
292.7331380546575
 30
0.0
 11
179.8743436537904
 21
292.7331380546575
 31
0.0
  0
LINE
  5
696
330
1F
100
AcDbEntity
  8
0
100
AcDbLine
 10
178.8465126537903
 20
134.7630410546578
 30
0.0
 11
179.4740186537901
 21
133.8292690546574
 31
0.0
  0
LINE
  5
697
330
1F
100
AcDbEntity
  8
0
100
AcDbLine
 10
172.4743436537901
 20
126.8290040546576
 30
0.0
 11
182.4745526537901
 21
126.8290040546576
 31
0.0
  0
LINE
  5
698
330
1F
100
AcDbEntity
  8
0
100
AcDbLine
 10
154.9820616537903
 20
135.3523900546576
 30
0.0
 11
181.9666266537901
 21
135.3523900546576
 31
0.0
  0
LINE
  5
699
330
1F
100
AcDbEntity
  8
CLASS1
100
AcDbLine
 10
1.50000137953384
 20
141.3321470546573
 30
0.0
 11
1.500001379533955
 21
292.3290100546573
 31
0.0
  0
LINE
  5
69A
330
1F
100
AcDbEntity
  8
0
100
AcDbLine
 10
182.9666266537905
 20
294.3179060546576
 30
0.0
 11
182.9666266537901
 21
136.3523900546576
 31
0.0
  0
LINE
  5
69B
330
1F
100
AcDbEntity
  8
0
100
AcDbLine
 10
180.8743436537904
 20
291.7331380546574
 30
0.0
 11
180.8743436537903
 21
138.8331380546575
 31
0.0
  0
LINE
  5
69C
330
1F
100
AcDbEntity
  8
0
100
AcDbLine
 10
185.9593426537903
 20
139.8658440546576
 30
0.0
 11
185.9593426537903
 21
290.8049920546576
 31
0.0
  0
LINE
  5
69D
330
1F
100
AcDbEntity
  8
0
100
AcDbLine
 10
185.0440546537903
 20
289.4542340546576
 30
0.0
 11
185.0440546537903
 21
141.2043050546573
 31
0.0
  0
LINE
  5
69E
330
1F
100
AcDbEntity
  8
0
100
AcDbLine
 10
180.9743436537901
 20
138.8292690546574
 30
0.0
 11
180.9743436537903
 21
291.8292690546571
 31
0.0
  0
LINE
  5
69F
330
1F
100
AcDbEntity
  8
0
100
AcDbLine
 10
2.50000137953384
 20
135.3305590546572
 30
0.0
 11
2.50000137953384
 21
126.8290100546572
 31
0.0
  0
LINE
  5
6A0
330
1F
100
AcDbEntity
  8
CLASS1
100
AcDbLine
 10
2.50000137953384
 20
126.8290100546572
 30
0.0
 11
0.0000013795338418
 21
126.8290100546572
 31
0.0
  0
ARC
  5
6A1
330
1F
100
AcDbEntity
  8
CLASS1
100
AcDbCircle
 10
2.500001379533728
 20
141.3321470546573
 30
0.0
 40
1.0
100
AcDbArc
 50
180.0
 51
271.318021000004
  0
LINE
  5
6A2
330
1F
100
AcDbEntity
  8
CLASS1
100
AcDbLine
 10
2.50000137953384
 20
135.3305590546572
 30
0.0
 11
2.50000137953384
 21
140.3318830546572
 31
0.0
  0
LINE
  5
6A3
330
1F
100
AcDbEntity
  8
0
100
AcDbLine
 10
183.9745526537901
 20
128.3290040546575
 30
0.0
 11
183.9745526537901
 21
138.8881370546572
 31
0.0
  0
ARC
  5
6A4
330
1F
100
AcDbEntity
  8
0
100
AcDbCircle
 10
182.4745526537904
 20
128.3290040546575
 30
0.0
 40
1.5
100
AcDbArc
 50
270.0
 51
0.0
  0
ARC
  5
6A5
330
1F
100
AcDbEntity
  8
0
100
AcDbCircle
 10
184.0440546537903
 20
141.2043050546573
 30
0.0
 40
1.0
100
AcDbArc
 50
270.0
 51
0.0
  0
LINE
  5
6A6
330
1F
100
AcDbEntity
  8
0
100
AcDbLine
 10
184.0440546537903
 20
140.2043050546573
 30
0.0
 11
183.0436266537901
 21
140.2043050546573
 31
0.0
  0
LINE
  5
6A7
330
1F
100
AcDbEntity
  8
0
100
AcDbLine
 10
183.9745516537901
 20
134.8292690546574
 30
0.0
 11
183.9745516537901
 21
138.8658440546576
 31
0.0
  0
ARC
  5
6A8
330
1F
100
AcDbEntity
  8
0
100
AcDbCircle
 10
181.9666266537904
 20
136.3523900546574
 30
0.0
 40
1.0
100
AcDbArc
 50
270.0
 51
0.0
  0
LINE
  5
6A9
330
1F
100
AcDbEntity
  8
0
100
AcDbLine
 10
183.9745516537901
 20
138.8658440546576
 30
0.0
 11
184.9593426537903
 21
138.8658440546576
 31
0.0
  0
LINE
  5
6AA
330
1F
100
AcDbEntity
  8
0
100
AcDbLine
 10
183.9745526537901
 20
138.8535460546574
 30
0.0
 11
183.0436266537901
 21
140.2043050546573
 31
0.0
  0
ARC
  5
6AB
330
1F
100
AcDbEntity
  8
0
100
AcDbCircle
 10
184.9593426537903
 20
139.8658440546574
 30
0.0
 40
1.0
100
AcDbArc
 50
270.0
 51
0.0
  0
ARC
  5
6AC
330
1F
100
AcDbEntity
  8
0
100
AcDbCircle
 10
182.9745516537901
 20
134.8292690546572
 30
0.0
 40
1.0
100
AcDbArc
 50
270.0
 51
0.0
  0
LINE
  5
6AD
330
1F
100
AcDbEntity
  8
0
100
AcDbLine
 10
179.4740186537901
 20
133.8292690546574
 30
0.0
 11
182.9745516537901
 21
133.8292690546574
 31
0.0
  0
ARC
  5
6AE
330
1F
100
AcDbEntity
  8
CLASS1
100
AcDbCircle
 10
2.500001379534068
 20
292.3290100546573
 30
0.0
 40
1.0
100
AcDbArc
 50
88.69804699999894
 51
180.0
  0
ARC
  5
6AF
330
1F
100
AcDbEntity
  8
0
100
AcDbCircle
 10
181.9666266537905
 20
294.3179060546576
 30
0.0
 40
1.0
100
AcDbArc
 50
0.0
 51
90.0
  0
ARC
  5
6B0
330
1F
100
AcDbEntity
  8
0
100
AcDbCircle
 10
182.9745516537905
 20
295.8292690546571
 30
0.0
 40
1.0
100
AcDbArc
 50
0.0
 51
90.0
  0
LINE
  5
6B1
330
1F
100
AcDbEntity
  8
0
100
AcDbLine
 10
184.0440546537903
 20
290.4542340546576
 30
0.0
 11
183.0436266537905
 21
290.4542340546576
 31
0.0
  0
LINE
  5
6B2
330
1F
100
AcDbEntity
  8
0
100
AcDbLine
 10
184.0440546537903
 20
290.4542340546576
 30
0.0
 11
183.0436266537905
 21
290.4542340546576
 31
0.0
  0
LINE
  5
6B3
330
1F
100
AcDbEntity
  8
0
100
AcDbLine
 10
183.9745526537905
 20
291.8049920546576
 30
0.0
 11
184.9593426537904
 21
291.8049920546576
 31
0.0
  0
ARC
  5
6B4
330
1F
100
AcDbEntity
  8
0
100
AcDbCircle
 10
184.9593426537905
 20
290.8049920546576
 30
0.0
 40
1.0
100
AcDbArc
 50
0.0
 51
90.0
  0
ARC
  5
6B5
330
1F
100
AcDbEntity
  8
0
100
AcDbCircle
 10
184.0440546537903
 20
289.4542340546576
 30
0.0
 40
1.0
100
AcDbArc
 50
0.0
 51
90.0
  0
ARC
  5
6B6
330
1F
100
AcDbEntity
  8
0
100
AcDbCircle
 10
184.0440546537903
 20
289.4542340546576
 30
0.0
 40
1.0
100
AcDbArc
 50
0.0
 51
90.0
  0
LINE
  5
6B7
330
1F
100
AcDbEntity
  8
0
100
AcDbLine
 10
183.9745526537905
 20
291.8049920546576
 30
0.0
 11
183.0436266537905
 21
290.4542340546576
 31
0.0
  0
LINE
  5
6B8
330
1F
100
AcDbEntity
  8
0
100
AcDbLine
 10
183.9745526537905
 20
291.8049920546576
 30
0.0
 11
183.0436266537905
 21
290.4542340546576
 31
0.0
  0
LINE
  5
6B9
330
1F
100
AcDbEntity
  8
0
100
AcDbLine
 10
183.9745516537903
 20
295.8292690546571
 30
0.0
 11
183.9745516537903
 21
291.8049920546576
 31
0.0
  0
ARC
  5
6BA
330
1F
100
AcDbEntity
  8
0
100
AcDbCircle
 10
179.8743436537904
 20
291.7331380546574
 30
0.0
 40
1.0
100
AcDbArc
 50
0.0
 51
90.0
  0
ARC
  5
6BB
330
1F
100
AcDbEntity
  8
0
100
AcDbCircle
 10
179.9743436537903
 20
291.8292690546571
 30
0.0
 40
1.0
100
AcDbArc
 50
0.0
 51
90.0
  0
LINE
  5
6BC
330
1F
100
AcDbEntity
  8
0
100
AcDbLine
 10
179.4740186537904
 20
296.8292690546571
 30
0.0
 11
182.9745516537905
 21
296.8292690546571
 31
0.0
  0
LINE
  5
6BD
330
1F
100
AcDbEntity
  8
0
100
AcDbLine
 10
156.0743436537908
 20
244.5114430171023
 30
0.0
 11
156.0743436537903
 21
138.9331380546575
 31
0.0
  0
LINE
  5
6BE
330
1F
100
AcDbEntity
  8
0
100
AcDbLine
 10
151.9046326537903
 20
289.4542340546576
 30
0.0
 11
151.9046326537903
 21
141.2043050546573
 31
0.0
  0
LINE
  5
6BF
330
1F
100
AcDbEntity
  8
0
100
AcDbLine
 10
155.9743436537903
 20
138.8292690546574
 30
0.0
 11
155.9743436537903
 21
291.8292690546571
 31
0.0
  0
LINE
  5
6C0
330
1F
100
AcDbEntity
  8
0
100
AcDbLine
 10
150.9892246537903
 20
139.8658440546576
 30
0.0
 11
150.9892246537904
 21
290.8049920546576
 31
0.0
  0
LINE
  5
6C1
330
1F
100
AcDbEntity
  8
0
100
AcDbLine
 10
153.9820616537904
 20
294.3179060546576
 30
0.0
 11
153.9820616537904
 21
136.3523900546576
 31
0.0
  0
LINE
  5
6C2
330
1F
100
AcDbEntity
  8
0
100
AcDbLine
 10
152.9741346537903
 20
128.3290040546575
 30
0.0
 11
152.9741346537903
 21
134.8292690546574
 31
0.0
  0
LINE
  5
6C3
330
1F
100
AcDbEntity
  8
0
100
AcDbLine
 10
165.9743436537901
 20
130.0790040546575
 30
0.0
 11
165.9743436537901
 21
128.3290040546575
 31
0.0
  0
LINE
  5
6C4
330
1F
100
AcDbEntity
  8
0
100
AcDbLine
 10
170.9743436537901
 20
130.0790040546575
 30
0.0
 11
170.9743436537901
 21
128.3290040546575
 31
0.0
  0
LINE
  5
6C5
330
1F
100
AcDbEntity
  8
0
  6
CENTER
 62
     5
100
AcDbLine
 10
168.4743436537901
 20
137.5790040546575
 30
0.0
 11
168.4743436537901
 21
122.5790040546575
 31
0.0
  0
LINE
  5
6C6
330
1F
100
AcDbEntity
  8
0
100
AcDbLine
 10
154.4741346537903
 20
126.8290040546576
 30
0.0
 11
164.4743436537901
 21
126.8290040546576
 31
0.0
  0
ARC
  5
6C7
330
1F
100
AcDbEntity
  8
0
100
AcDbCircle
 10
172.4743436537903
 20
128.3290040546575
 30
0.0
 40
1.5
100
AcDbArc
 50
180.0
 51
270.0
  0
ARC
  5
6C8
330
1F
100
AcDbEntity
  8
0
100
AcDbCircle
 10
164.4743436537903
 20
128.3290040546575
 30
0.0
 40
1.5
100
AcDbArc
 50
270.0
 51
0.0
  0
ARC
  5
6C9
330
1F
100
AcDbEntity
  8
0
100
AcDbCircle
 10
154.4741346537903
 20
128.3290040546575
 30
0.0
 40
1.5
100
AcDbArc
 50
180.0
 51
270.0
  0
ARC
  5
6CA
330
1F
100
AcDbEntity
  8
0
100
AcDbCircle
 10
158.9321716537903
 20
134.2052730546573
 30
0.0
 40
1.0
100
AcDbArc
 50
90.12440900000084
 51
146.0984159999946
  0
LINE
  5
6CB
330
1F
100
AcDbEntity
  8
0
100
AcDbLine
 10
158.1507446537903
 20
134.8292690546574
 30
0.0
 11
178.8020066537901
 21
134.8292690546574
 31
0.0
  0
ARC
  5
6CC
330
1F
100
AcDbEntity
  8
0
100
AcDbCircle
 10
168.4743436537903
 20
130.0790040546575
 30
0.0
 40
2.5
100
AcDbArc
 50
0.0
 51
180.0
  0
ARC
  5
6CD
330
1F
100
AcDbEntity
  8
0
100
AcDbCircle
 10
168.474343653788
 20
-4260.380025945345
 30
0.0
 40
4395.595658
100
AcDbArc
 50
89.87559099999918
 51
90.12440900000084
  0
LINE
  5
6CE
330
1F
100
AcDbEntity
  8
0
  6
CENTER
 62
     5
100
AcDbLine
 10
175.9743436537901
 20
130.0790040546575
 30
0.0
 11
160.9743436537901
 21
130.0790040546575
 31
0.0
  0
ARC
  5
6CF
330
1F
100
AcDbEntity
  8
0
100
AcDbCircle
 10
178.0165156537901
 20
134.2052730546572
 30
0.0
 40
1.0
100
AcDbArc
 50
33.90158400000528
 51
89.87559099999918
  0
ARC
  5
6D0
330
1F
100
AcDbEntity
  8
0
100
AcDbCircle
 10
152.9046326537901
 20
141.2043050546573
 30
0.0
 40
1.0
100
AcDbArc
 50
180.0
 51
270.0
  0
LINE
  5
6D1
330
1F
100
AcDbEntity
  8
0
100
AcDbLine
 10
152.9046326537903
 20
140.2043050546573
 30
0.0
 11
153.9050616537904
 21
140.2043050546573
 31
0.0
  0
LINE
  5
6D2
330
1F
100
AcDbEntity
  8
0
100
AcDbLine
 10
152.9741346537903
 20
134.8292690546574
 30
0.0
 11
152.9741346537903
 21
138.8658440546576
 31
0.0
  0
LINE
  5
6D3
330
1F
100
AcDbEntity
  8
0
100
AcDbLine
 10
152.9741346537903
 20
138.8658440546576
 30
0.0
 11
151.9892246537903
 21
138.8658440546576
 31
0.0
  0
LINE
  5
6D4
330
1F
100
AcDbEntity
  8
0
100
AcDbLine
 10
152.9741346537903
 20
138.8535460546574
 30
0.0
 11
153.9050616537904
 21
140.2043050546573
 31
0.0
  0
ARC
  5
6D5
330
1F
100
AcDbEntity
  8
0
100
AcDbCircle
 10
151.9892246537903
 20
139.8658440546576
 30
0.0
 40
1.0
100
AcDbArc
 50
180.0
 51
270.0
  0
ARC
  5
6D6
330
1F
100
AcDbEntity
  8
0
100
AcDbCircle
 10
153.9741346537903
 20
134.8292690546574
 30
0.0
 40
1.0
100
AcDbArc
 50
180.0
 51
270.0
  0
LINE
  5
6D7
330
1F
100
AcDbEntity
  8
0
100
AcDbLine
 10
158.1021746537901
 20
134.7630410546578
 30
0.0
 11
157.4746676537903
 21
133.8292690546574
 31
0.0
  0
ARC
  5
6D8
330
1F
100
AcDbEntity
  8
0
100
AcDbCircle
 10
154.9820616537903
 20
136.3523900546576
 30
0.0
 40
1.0
100
AcDbArc
 50
180.0
 51
270.0
  0
LINE
  5
6D9
330
1F
100
AcDbEntity
  8
0
100
AcDbLine
 10
153.9741346537903
 20
133.8292690546574
 30
0.0
 11
157.4746676537903
 21
133.8292690546574
 31
0.0
  0
ARC
  5
6DA
330
1F
100
AcDbEntity
  8
0
100
AcDbCircle
 10
158.9321716537904
 20
296.4532650546574
 30
0.0
 40
1.0
100
AcDbArc
 50
213.9015840000051
 51
269.8755909999992
  0
LINE
  5
6DB
330
1F
100
AcDbEntity
  8
0
100
AcDbLine
 10
158.1507446537905
 20
295.8292690546571
 30
0.0
 11
178.8020066537905
 21
295.8292690546571
 31
0.0
  0
ARC
  5
6DC
330
1F
100
AcDbEntity
  8
0
100
AcDbCircle
 10
168.4743436537926
 20
4691.038564054657
 30
0.0
 40
4395.595658
100
AcDbArc
 50
269.8755909999992
 51
270.1244089999974
  0
ARC
  5
6DD
330
1F
100
AcDbEntity
  8
0
100
AcDbCircle
 10
178.0165156537905
 20
296.4532650546574
 30
0.0
 40
1.0
100
AcDbArc
 50
270.1244089999974
 51
326.0984159999947
  0
LINE
  5
6DE
330
1F
100
AcDbEntity
  8
0
100
AcDbLine
 10
155.9743436537903
 20
291.8292690546571
 30
0.0
 11
155.9743436537903
 21
277.8881380546576
 31
0.0
  0
ARC
  5
6DF
330
1F
100
AcDbEntity
  8
0
100
AcDbCircle
 10
153.9741346537903
 20
295.8292690546571
 30
0.0
 40
1.0
100
AcDbArc
 50
90.0
 51
180.0
  0
LINE
  5
6E0
330
1F
100
AcDbEntity
  8
0
100
AcDbLine
 10
152.9741346537903
 20
291.8049920546576
 30
0.0
 11
151.9892246537905
 21
291.8049920546576
 31
0.0
  0
ARC
  5
6E1
330
1F
100
AcDbEntity
  8
0
100
AcDbCircle
 10
152.9046326537903
 20
289.4542340546576
 30
0.0
 40
1.0
100
AcDbArc
 50
90.0
 51
180.0
  0
ARC
  5
6E2
330
1F
100
AcDbEntity
  8
0
100
AcDbCircle
 10
152.9046326537903
 20
289.4542340546576
 30
0.0
 40
1.0
100
AcDbArc
 50
90.0
 51
180.0
  0
LINE
  5
6E3
330
1F
100
AcDbEntity
  8
0
100
AcDbLine
 10
152.9046326537903
 20
290.4542340546576
 30
0.0
 11
153.9050616537904
 21
290.4542340546576
 31
0.0
  0
LINE
  5
6E4
330
1F
100
AcDbEntity
  8
0
100
AcDbLine
 10
152.9046326537903
 20
290.4542340546576
 30
0.0
 11
153.9050616537904
 21
290.4542340546576
 31
0.0
  0
LINE
  5
6E5
330
1F
100
AcDbEntity
  8
0
100
AcDbLine
 10
152.9741346537903
 20
291.8049920546576
 30
0.0
 11
153.9050616537904
 21
290.4542340546576
 31
0.0
  0
LINE
  5
6E6
330
1F
100
AcDbEntity
  8
0
100
AcDbLine
 10
152.9741346537903
 20
291.8049920546576
 30
0.0
 11
153.9050616537904
 21
290.4542340546576
 31
0.0
  0
ARC
  5
6E7
330
1F
100
AcDbEntity
  8
0
100
AcDbCircle
 10
151.9892246537905
 20
290.8049920546576
 30
0.0
 40
1.0
100
AcDbArc
 50
90.0
 51
180.0
  0
LINE
  5
6E8
330
1F
100
AcDbEntity
  8
0
100
AcDbLine
 10
152.9741346537903
 20
295.8292690546571
 30
0.0
 11
152.9741346537903
 21
291.8049920546576
 31
0.0
  0
LINE
  5
6E9
330
1F
100
AcDbEntity
  8
0
100
AcDbLine
 10
158.1021746537903
 20
295.8954970546573
 30
0.0
 11
157.4746676537903
 21
296.8292690546571
 31
0.0
  0
ARC
  5
6EA
330
1F
100
AcDbEntity
  8
0
100
AcDbCircle
 10
157.0743436537904
 20
291.7331380546574
 30
0.0
 40
1.0
100
AcDbArc
 50
90.0
 51
180.0
  0
ARC
  5
6EB
330
1F
100
AcDbEntity
  8
0
100
AcDbCircle
 10
156.9743436537903
 20
291.8292690546571
 30
0.0
 40
1.0
100
AcDbArc
 50
90.0
 51
180.0
  0
ARC
  5
6EC
330
1F
100
AcDbEntity
  8
0
100
AcDbCircle
 10
154.9820616537904
 20
294.3179060546576
 30
0.0
 40
1.0
100
AcDbArc
 50
90.0
 51
180.0
  0
LINE
  5
6ED
330
1F
100
AcDbEntity
  8
0
100
AcDbLine
 10
153.9741346537903
 20
296.8292690546571
 30
0.0
 11
157.4746676537903
 21
296.8292690546571
 31
0.0
  0
LINE
  5
6EE
330
1F
100
AcDbEntity
  8
0
100
AcDbLine
 10
154.4741346537904
 20
305.3290100546573
 30
0.0
 11
182.4745526537905
 21
305.3290100546573
 31
0.0
  0
LINE
  5
6EF
330
1F
100
AcDbEntity
  8
CLASS1
100
AcDbLine
 10
2.500001379533955
 20
305.3290100546573
 30
0.0
 11
0.0000013795339555
 21
305.3290100546573
 31
0.0
  0
LINE
  5
6F0
330
1F
100
AcDbEntity
  8
0
100
AcDbLine
 10
2.500001379533955
 20
305.3290100546573
 30
0.0
 11
2.500001379533955
 21
298.3305590546571
 31
0.0
  0
ARC
  5
6F1
330
1F
100
AcDbEntity
  8
0
100
AcDbCircle
 10
182.4745526537905
 20
303.8290100546573
 30
0.0
 40
1.5
100
AcDbArc
 50
0.0
 51
90.0
  0
LINE
  5
6F2
330
1F
100
AcDbEntity
  8
0
  6
CENTER
 62
     5
100
AcDbLine
 10
175.9743436537903
 20
300.5790100546573
 30
0.0
 11
160.9743436537903
 21
300.5790100546573
 31
0.0
  0
CIRCLE
  5
6F3
330
1F
100
AcDbEntity
  8
0
100
AcDbCircle
 10
168.4743436537903
 20
300.5790100546573
 30
0.0
 40
2.5
  0
ARC
  5
6F4
330
1F
100
AcDbEntity
  8
0
100
AcDbCircle
 10
154.4741346537904
 20
303.8290100546573
 30
0.0
 40
1.5
100
AcDbArc
 50
90.0
 51
180.0
  0
LINE
  5
6F5
330
1F
100
AcDbEntity
  8
0
100
AcDbLine
 10
174.3743436537903
 20
231.8071250546576
 30
0.0
 11
174.3743436537903
 21
143.8331380546575
 31
0.0
  0
LINE
  5
6F6
330
1F
100
AcDbEntity
  8
0
100
AcDbLine
 10
161.0743436537903
 20
225.6571250546576
 30
0.0
 11
161.0743436537903
 21
211.6571250546575
 31
0.0
  0
LINE
  5
6F7
330
1F
100
AcDbEntity
  8
0
100
AcDbLine
 10
160.5743436537903
 20
226.1331380546575
 30
0.0
 11
160.5743436537903
 21
211.1331380546574
 31
0.0
  0
LINE
  5
6F8
330
1F
100
AcDbEntity
  8
0
100
AcDbLine
 10
173.8743436537903
 20
211.6571250546575
 30
0.0
 11
173.8743436537903
 21
225.6571250546576
 31
0.0
  0
LINE
  5
6F9
330
1F
100
AcDbEntity
  8
0
100
AcDbLine
 10
169.2951786537903
 20
189.2531370546573
 30
0.0
 11
169.2951786537903
 21
186.2531370546573
 31
0.0
  0
LINE
  5
6FA
330
1F
100
AcDbEntity
  8
0
100
AcDbLine
 10
171.2601006537903
 20
189.2531370546573
 30
0.0
 11
171.2601006537903
 21
186.2531370546573
 31
0.0
  0
LINE
  5
6FB
330
1F
100
AcDbEntity
  8
0
100
AcDbLine
 10
166.8743436537903
 20
185.2531370546573
 30
0.0
 11
166.8743436537903
 21
190.2531370546573
 31
0.0
  0
LINE
  5
6FC
330
1F
100
AcDbEntity
  8
0
100
AcDbLine
 10
166.3743436537903
 20
185.0331380546576
 30
0.0
 11
166.3743436537903
 21
190.7331380546576
 31
0.0
  0
LINE
  5
6FD
330
1F
100
AcDbEntity
  8
0
100
AcDbLine
 10
173.8743436537903
 20
190.2531370546573
 30
0.0
 11
173.8743436537903
 21
185.2531370546573
 31
0.0
  0
LINE
  5
6FE
330
1F
100
AcDbEntity
  8
0
100
AcDbLine
 10
161.0743436537903
 20
211.6571250546575
 30
0.0
 11
173.8743436537903
 21
211.6571250546575
 31
0.0
  0
LINE
  5
6FF
330
1F
100
AcDbEntity
  8
0
100
AcDbLine
 10
160.5743436537903
 20
211.1331380546574
 30
0.0
 11
168.3743436537903
 21
211.1331380546574
 31
0.0
  0
LINE
  5
700
330
1F
100
AcDbEntity
  8
0
100
AcDbLine
 10
166.8743436537903
 20
190.2531370546573
 30
0.0
 11
173.8743436537903
 21
190.2531370546573
 31
0.0
  0
LINE
  5
701
330
1F
100
AcDbEntity
  8
0
100
AcDbLine
 10
166.3743436537903
 20
190.7331380546576
 30
0.0
 11
168.3743436537903
 21
190.7331380546576
 31
0.0
  0
CIRCLE
  5
702
330
1F
100
AcDbEntity
  8
0
100
AcDbCircle
 10
167.4743436537903
 20
218.6568540546576
 30
0.0
 40
5.029838999999999
  0
CIRCLE
  5
703
330
1F
100
AcDbEntity
  8
0
100
AcDbCircle
 10
167.4743436537903
 20
218.6568540546576
 30
0.0
 40
5.029838999999999
  0
CIRCLE
  5
704
330
1F
100
AcDbEntity
  8
0
100
AcDbCircle
 10
167.4740856537904
 20
218.6568540546576
 30
0.0
 40
4.448566
  0
LINE
  5
705
330
1F
100
AcDbEntity
  8
0
100
AcDbLine
 10
166.7190066537903
 20
220.2376360546576
 30
0.0
 11
166.7190066537903
 21
220.8301920546575
 31
0.0
  0
LINE
  5
706
330
1F
100
AcDbEntity
  8
0
100
AcDbLine
 10
166.7190066537903
 20
219.8001090546575
 30
0.0
 11
166.7190066537903
 21
221.2680640546573
 31
0.0
  0
LINE
  5
707
330
1F
100
AcDbEntity
  8
0
100
AcDbLine
 10
166.7190066537903
 20
216.5537950546576
 30
0.0
 11
166.7190066537903
 21
217.1465240546575
 31
0.0
  0
LINE
  5
708
330
1F
100
AcDbEntity
  8
0
100
AcDbLine
 10
166.7190066537903
 20
216.1160960546574
 30
0.0
 11
166.7190066537903
 21
217.5840510546574
 31
0.0
  0
LINE
  5
709
330
1F
100
AcDbEntity
  8
0
100
AcDbLine
 10
166.7190066537903
 20
218.3957160546575
 30
0.0
 11
166.7190066537903
 21
218.9884440546575
 31
0.0
  0
LINE
  5
70A
330
1F
100
AcDbEntity
  8
0
100
AcDbLine
 10
166.7190066537903
 20
217.9578440546574
 30
0.0
 11
166.7190066537903
 21
219.4257990546575
 31
0.0
  0
LINE
  5
70B
330
1F
100
AcDbEntity
  8
0
100
AcDbLine
 10
162.8165746537903
 20
217.9227040546576
 30
0.0
 11
164.7360096537903
 21
217.9227040546576
 31
0.0
  0
LINE
  5
70C
330
1F
100
AcDbEntity
  8
0
100
AcDbLine
 10
162.8165746537903
 20
219.3904870546575
 30
0.0
 11
162.8165746537903
 21
217.9227040546576
 31
0.0
  0
LINE
  5
70D
330
1F
100
AcDbEntity
  8
0
100
AcDbLine
 10
164.7360096537903
 20
219.3904870546575
 30
0.0
 11
162.8165746537903
 21
219.3904870546575
 31
0.0
  0
LINE
  5
70E
330
1F
100
AcDbEntity
  8
0
100
AcDbLine
 10
164.7360096537903
 20
217.9227040546576
 30
0.0
 11
164.7360096537903
 21
219.3904870546575
 31
0.0
  0
LINE
  5
70F
330
1F
100
AcDbEntity
  8
0
100
AcDbLine
 10
162.8165746537903
 20
217.9227040546576
 30
0.0
 11
164.7360096537903
 21
217.9227040546576
 31
0.0
  0
LINE
  5
710
330
1F
100
AcDbEntity
  8
0
100
AcDbLine
 10
162.8165746537903
 20
219.3904870546575
 30
0.0
 11
162.8165746537903
 21
217.9227040546576
 31
0.0
  0
LINE
  5
711
330
1F
100
AcDbEntity
  8
0
100
AcDbLine
 10
164.7360096537903
 20
219.3904870546575
 30
0.0
 11
162.8165746537903
 21
219.3904870546575
 31
0.0
  0
LINE
  5
712
330
1F
100
AcDbEntity
  8
0
100
AcDbLine
 10
164.7360096537903
 20
217.9227040546576
 30
0.0
 11
164.7360096537903
 21
219.3904870546575
 31
0.0
  0
LINE
  5
713
330
1F
100
AcDbEntity
  8
0
100
AcDbLine
 10
165.3573326537904
 20
221.2677190546573
 30
0.0
 11
165.7383606537903
 21
220.8301920546575
 31
0.0
  0
LINE
  5
714
330
1F
100
AcDbEntity
  8
0
100
AcDbLine
 10
165.3573326537904
 20
219.8001090546575
 30
0.0
 11
165.7383606537903
 21
220.2376360546576
 31
0.0
  0
LINE
  5
715
330
1F
100
AcDbEntity
  8
0
100
AcDbLine
 10
165.7380156537904
 20
220.8301920546575
 30
0.0
 11
165.7380156537904
 21
220.2376360546576
 31
0.0
  0
LINE
  5
716
330
1F
100
AcDbEntity
  8
0
100
AcDbLine
 10
165.3569886537903
 20
221.2680640546573
 30
0.0
 11
165.3569886537903
 21
219.8001090546575
 31
0.0
  0
LINE
  5
717
330
1F
100
AcDbEntity
  8
0
100
AcDbLine
 10
165.3573326537904
 20
219.4257990546575
 30
0.0
 11
165.7383606537903
 21
218.9884440546575
 31
0.0
  0
LINE
  5
718
330
1F
100
AcDbEntity
  8
0
100
AcDbLine
 10
165.3573326537904
 20
217.5840510546574
 30
0.0
 11
165.7383606537903
 21
217.1465240546575
 31
0.0
  0
LINE
  5
719
330
1F
100
AcDbEntity
  8
0
100
AcDbLine
 10
165.3573326537904
 20
216.1160960546574
 30
0.0
 11
165.7383606537903
 21
216.5537950546576
 31
0.0
  0
LINE
  5
71A
330
1F
100
AcDbEntity
  8
0
100
AcDbLine
 10
165.7380156537904
 20
217.1465240546575
 30
0.0
 11
165.7380156537904
 21
216.5537950546576
 31
0.0
  0
LINE
  5
71B
330
1F
100
AcDbEntity
  8
0
100
AcDbLine
 10
165.3569886537903
 20
217.5840510546574
 30
0.0
 11
165.3569886537903
 21
216.1160960546574
 31
0.0
  0
LINE
  5
71C
330
1F
100
AcDbEntity
  8
0
100
AcDbLine
 10
165.3573326537904
 20
217.9578440546574
 30
0.0
 11
165.7383606537903
 21
218.3957160546575
 31
0.0
  0
LINE
  5
71D
330
1F
100
AcDbEntity
  8
0
100
AcDbLine
 10
165.7380156537904
 20
218.9884440546575
 30
0.0
 11
165.7380156537904
 21
218.3957160546575
 31
0.0
  0
LINE
  5
71E
330
1F
100
AcDbEntity
  8
0
100
AcDbLine
 10
165.3569886537903
 20
219.4257990546575
 30
0.0
 11
165.3569886537903
 21
217.9578440546574
 31
0.0
  0
LINE
  5
71F
330
1F
100
AcDbEntity
  8
0
100
AcDbLine
 10
165.7380156537904
 20
220.2376360546576
 30
0.0
 11
166.7190066537903
 21
220.2376360546576
 31
0.0
  0
LINE
  5
720
330
1F
100
AcDbEntity
  8
0
100
AcDbLine
 10
166.7190066537903
 20
220.8301920546575
 30
0.0
 11
165.7380156537904
 21
220.8301920546575
 31
0.0
  0
LINE
  5
721
330
1F
100
AcDbEntity
  8
0
100
AcDbLine
 10
165.3569886537903
 20
219.8001090546575
 30
0.0
 11
166.7190066537903
 21
219.8001090546575
 31
0.0
  0
LINE
  5
722
330
1F
100
AcDbEntity
  8
0
100
AcDbLine
 10
166.7190066537903
 20
221.2680640546573
 30
0.0
 11
165.3569886537903
 21
221.2680640546573
 31
0.0
  0
LINE
  5
723
330
1F
100
AcDbEntity
  8
0
100
AcDbLine
 10
165.7380156537904
 20
216.5537950546576
 30
0.0
 11
166.7190066537903
 21
216.5537950546576
 31
0.0
  0
LINE
  5
724
330
1F
100
AcDbEntity
  8
0
100
AcDbLine
 10
166.7190066537903
 20
217.1465240546575
 30
0.0
 11
165.7380156537904
 21
217.1465240546575
 31
0.0
  0
LINE
  5
725
330
1F
100
AcDbEntity
  8
0
100
AcDbLine
 10
165.3569886537903
 20
216.1160960546574
 30
0.0
 11
166.7190066537903
 21
216.1160960546574
 31
0.0
  0
LINE
  5
726
330
1F
100
AcDbEntity
  8
0
100
AcDbLine
 10
166.7190066537903
 20
217.5840510546574
 30
0.0
 11
165.3569886537903
 21
217.5840510546574
 31
0.0
  0
LINE
  5
727
330
1F
100
AcDbEntity
  8
0
100
AcDbLine
 10
165.7380156537904
 20
218.3957160546575
 30
0.0
 11
166.7190066537903
 21
218.3957160546575
 31
0.0
  0
LINE
  5
728
330
1F
100
AcDbEntity
  8
0
100
AcDbLine
 10
166.7190066537903
 20
218.9884440546575
 30
0.0
 11
165.7380156537904
 21
218.9884440546575
 31
0.0
  0
LINE
  5
729
330
1F
100
AcDbEntity
  8
0
100
AcDbLine
 10
165.3569886537903
 20
217.9578440546574
 30
0.0
 11
166.7190066537903
 21
217.9578440546574
 31
0.0
  0
LINE
  5
72A
330
1F
100
AcDbEntity
  8
0
100
AcDbLine
 10
166.7190066537903
 20
219.4257990546575
 30
0.0
 11
165.3569886537903
 21
219.4257990546575
 31
0.0
  0
LINE
  5
72B
330
1F
100
AcDbEntity
  8
0
100
AcDbLine
 10
173.8743436537903
 20
210.0771103956045
 30
0.0
 11
173.8743436537903
 21
192.1771103956048
 31
0.0
  0
LINE
  5
72C
330
1F
100
AcDbEntity
  8
0
100
AcDbLine
 10
168.8743436537903
 20
210.0771103956045
 30
0.0
 11
168.8743436537903
 21
192.1771103956048
 31
0.0
  0
LINE
  5
72D
330
1F
100
AcDbEntity
  8
0
100
AcDbLine
 10
168.3743436537903
 20
211.1331380546574
 30
0.0
 11
168.3743436537903
 21
190.7331380546576
 31
0.0
  0
LINE
  5
72E
330
1F
100
AcDbEntity
  8
0
100
AcDbLine
 10
172.1243436537903
 20
206.2071250546578
 30
0.0
 11
172.6243436537903
 21
206.2071250546578
 31
0.0
  0
LINE
  5
72F
330
1F
100
AcDbEntity
  8
0
100
AcDbLine
 10
172.1243436537903
 20
205.7071250546578
 30
0.0
 11
172.6243436537903
 21
205.7071250546578
 31
0.0
  0
LINE
  5
730
330
1F
100
AcDbEntity
  8
0
100
AcDbLine
 10
172.1243436537903
 20
206.2071250546578
 30
0.0
 11
172.1243436537903
 21
205.7071250546578
 31
0.0
  0
LINE
  5
731
330
1F
100
AcDbEntity
  8
0
100
AcDbLine
 10
172.6243436537903
 20
205.7071250546578
 30
0.0
 11
172.6243436537903
 21
206.2071250546578
 31
0.0
  0
LINE
  5
732
330
1F
100
AcDbEntity
  8
0
100
AcDbLine
 10
172.2843436537903
 20
206.0471770546576
 30
0.0
 11
172.2843436537903
 21
205.8670730546573
 31
0.0
  0
LINE
  5
733
330
1F
100
AcDbEntity
  8
0
100
AcDbLine
 10
172.2843436537903
 20
205.8670730546573
 30
0.0
 11
172.3743436537903
 21
205.8670730546573
 31
0.0
  0
LINE
  5
734
330
1F
100
AcDbEntity
  8
0
100
AcDbLine
 10
172.2843436537903
 20
205.8670730546573
 30
0.0
 11
172.3743436537903
 21
205.8670730546573
 31
0.0
  0
LINE
  5
735
330
1F
100
AcDbEntity
  8
0
100
AcDbLine
 10
172.2843436537903
 20
206.0471770546576
 30
0.0
 11
172.3743436537903
 21
206.0471770546576
 31
0.0
  0
LINE
  5
736
330
1F
100
AcDbEntity
  8
0
100
AcDbLine
 10
172.4643436537903
 20
206.0471770546576
 30
0.0
 11
172.3743436537903
 21
206.0471770546576
 31
0.0
  0
LINE
  5
737
330
1F
100
AcDbEntity
  8
0
100
AcDbLine
 10
172.4643436537903
 20
205.8670730546573
 30
0.0
 11
172.3743436537903
 21
205.8670730546573
 31
0.0
  0
LINE
  5
738
330
1F
100
AcDbEntity
  8
0
100
AcDbLine
 10
172.4643436537903
 20
205.8670730546573
 30
0.0
 11
172.3743436537903
 21
205.8670730546573
 31
0.0
  0
LINE
  5
739
330
1F
100
AcDbEntity
  8
0
100
AcDbLine
 10
172.4643436537903
 20
206.0471770546576
 30
0.0
 11
172.4643436537903
 21
205.8670730546573
 31
0.0
  0
LINE
  5
73A
330
1F
100
AcDbEntity
  8
0
100
AcDbLine
 10
170.1243436537903
 20
205.7071250546578
 30
0.0
 11
170.6243436537903
 21
205.7071250546578
 31
0.0
  0
LINE
  5
73B
330
1F
100
AcDbEntity
  8
0
100
AcDbLine
 10
170.1243436537903
 20
206.2071250546578
 30
0.0
 11
170.6243436537903
 21
206.2071250546578
 31
0.0
  0
LINE
  5
73C
330
1F
100
AcDbEntity
  8
0
100
AcDbLine
 10
170.4643436537903
 20
206.0471770546576
 30
0.0
 11
170.4643436537903
 21
205.8670730546573
 31
0.0
  0
LINE
  5
73D
330
1F
100
AcDbEntity
  8
0
100
AcDbLine
 10
170.4643436537903
 20
205.8670730546573
 30
0.0
 11
170.3743436537903
 21
205.8670730546573
 31
0.0
  0
LINE
  5
73E
330
1F
100
AcDbEntity
  8
0
100
AcDbLine
 10
170.4643436537903
 20
205.8670730546573
 30
0.0
 11
170.3743436537903
 21
205.8670730546573
 31
0.0
  0
LINE
  5
73F
330
1F
100
AcDbEntity
  8
0
100
AcDbLine
 10
170.4643436537903
 20
206.0471770546576
 30
0.0
 11
170.3743436537903
 21
206.0471770546576
 31
0.0
  0
LINE
  5
740
330
1F
100
AcDbEntity
  8
0
100
AcDbLine
 10
170.2843436537903
 20
206.0471770546576
 30
0.0
 11
170.3743436537903
 21
206.0471770546576
 31
0.0
  0
LINE
  5
741
330
1F
100
AcDbEntity
  8
0
100
AcDbLine
 10
170.2843436537903
 20
205.8670730546573
 30
0.0
 11
170.3743436537903
 21
205.8670730546573
 31
0.0
  0
LINE
  5
742
330
1F
100
AcDbEntity
  8
0
100
AcDbLine
 10
170.2843436537903
 20
205.8670730546573
 30
0.0
 11
170.3743436537903
 21
205.8670730546573
 31
0.0
  0
LINE
  5
743
330
1F
100
AcDbEntity
  8
0
100
AcDbLine
 10
170.2843436537903
 20
206.0471770546576
 30
0.0
 11
170.2843436537903
 21
205.8670730546573
 31
0.0
  0
LINE
  5
744
330
1F
100
AcDbEntity
  8
0
100
AcDbLine
 10
170.6243436537903
 20
205.7071250546578
 30
0.0
 11
170.6243436537903
 21
206.2071250546578
 31
0.0
  0
LINE
  5
745
330
1F
100
AcDbEntity
  8
0
100
AcDbLine
 10
170.1243436537903
 20
206.2071250546578
 30
0.0
 11
170.1243436537903
 21
205.7071250546578
 31
0.0
  0
LINE
  5
746
330
1F
100
AcDbEntity
  8
0
100
AcDbLine
 10
172.4643436537903
 20
198.0471770546575
 30
0.0
 11
172.4643436537903
 21
197.8670730546573
 31
0.0
  0
LINE
  5
747
330
1F
100
AcDbEntity
  8
0
100
AcDbLine
 10
172.2843436537903
 20
198.0471770546575
 30
0.0
 11
172.2843436537903
 21
197.8670730546573
 31
0.0
  0
LINE
  5
748
330
1F
100
AcDbEntity
  8
0
100
AcDbLine
 10
172.4643436537903
 20
197.8670730546573
 30
0.0
 11
172.3743436537903
 21
197.8670730546573
 31
0.0
  0
LINE
  5
749
330
1F
100
AcDbEntity
  8
0
100
AcDbLine
 10
172.4643436537903
 20
197.8670730546573
 30
0.0
 11
172.3743436537903
 21
197.8670730546573
 31
0.0
  0
LINE
  5
74A
330
1F
100
AcDbEntity
  8
0
100
AcDbLine
 10
172.2843436537903
 20
197.8670730546573
 30
0.0
 11
172.3743436537903
 21
197.8670730546573
 31
0.0
  0
LINE
  5
74B
330
1F
100
AcDbEntity
  8
0
100
AcDbLine
 10
172.2843436537903
 20
197.8670730546573
 30
0.0
 11
172.3743436537903
 21
197.8670730546573
 31
0.0
  0
LINE
  5
74C
330
1F
100
AcDbEntity
  8
0
100
AcDbLine
 10
172.1243436537903
 20
198.2071250546578
 30
0.0
 11
172.6243436537903
 21
198.2071250546578
 31
0.0
  0
LINE
  5
74D
330
1F
100
AcDbEntity
  8
0
100
AcDbLine
 10
172.4643436537903
 20
198.0471770546575
 30
0.0
 11
172.3743436537903
 21
198.0471770546575
 31
0.0
  0
LINE
  5
74E
330
1F
100
AcDbEntity
  8
0
100
AcDbLine
 10
172.2843436537903
 20
198.0471770546575
 30
0.0
 11
172.3743436537903
 21
198.0471770546575
 31
0.0
  0
LINE
  5
74F
330
1F
100
AcDbEntity
  8
0
100
AcDbLine
 10
172.1243436537903
 20
197.7071250546578
 30
0.0
 11
172.6243436537903
 21
197.7071250546578
 31
0.0
  0
LINE
  5
750
330
1F
100
AcDbEntity
  8
0
100
AcDbLine
 10
172.1243436537903
 20
198.2071250546578
 30
0.0
 11
172.1243436537903
 21
197.7071250546578
 31
0.0
  0
LINE
  5
751
330
1F
100
AcDbEntity
  8
0
100
AcDbLine
 10
172.6243436537903
 20
197.7071250546578
 30
0.0
 11
172.6243436537903
 21
198.2071250546578
 31
0.0
  0
LINE
  5
752
330
1F
100
AcDbEntity
  8
0
100
AcDbLine
 10
172.4643436537903
 20
196.0471770546575
 30
0.0
 11
172.4643436537903
 21
195.8670730546573
 31
0.0
  0
LINE
  5
753
330
1F
100
AcDbEntity
  8
0
100
AcDbLine
 10
172.2843436537903
 20
196.0471770546575
 30
0.0
 11
172.2843436537903
 21
195.8670730546573
 31
0.0
  0
LINE
  5
754
330
1F
100
AcDbEntity
  8
0
100
AcDbLine
 10
172.4643436537903
 20
195.8670730546573
 30
0.0
 11
172.3743436537903
 21
195.8670730546573
 31
0.0
  0
LINE
  5
755
330
1F
100
AcDbEntity
  8
0
100
AcDbLine
 10
172.4643436537903
 20
195.8670730546573
 30
0.0
 11
172.3743436537903
 21
195.8670730546573
 31
0.0
  0
LINE
  5
756
330
1F
100
AcDbEntity
  8
0
100
AcDbLine
 10
172.2843436537903
 20
195.8670730546573
 30
0.0
 11
172.3743436537903
 21
195.8670730546573
 31
0.0
  0
LINE
  5
757
330
1F
100
AcDbEntity
  8
0
100
AcDbLine
 10
172.2843436537903
 20
195.8670730546573
 30
0.0
 11
172.3743436537903
 21
195.8670730546573
 31
0.0
  0
LINE
  5
758
330
1F
100
AcDbEntity
  8
0
100
AcDbLine
 10
172.1243436537903
 20
196.2071250546578
 30
0.0
 11
172.6243436537903
 21
196.2071250546578
 31
0.0
  0
LINE
  5
759
330
1F
100
AcDbEntity
  8
0
100
AcDbLine
 10
172.4643436537903
 20
196.0471770546575
 30
0.0
 11
172.3743436537903
 21
196.0471770546575
 31
0.0
  0
LINE
  5
75A
330
1F
100
AcDbEntity
  8
0
100
AcDbLine
 10
172.2843436537903
 20
196.0471770546575
 30
0.0
 11
172.3743436537903
 21
196.0471770546575
 31
0.0
  0
LINE
  5
75B
330
1F
100
AcDbEntity
  8
0
100
AcDbLine
 10
172.1243436537903
 20
195.7071250546578
 30
0.0
 11
172.6243436537903
 21
195.7071250546578
 31
0.0
  0
LINE
  5
75C
330
1F
100
AcDbEntity
  8
0
100
AcDbLine
 10
172.1243436537903
 20
196.2071250546578
 30
0.0
 11
172.1243436537903
 21
195.7071250546578
 31
0.0
  0
LINE
  5
75D
330
1F
100
AcDbEntity
  8
0
100
AcDbLine
 10
172.6243436537903
 20
195.7071250546578
 30
0.0
 11
172.6243436537903
 21
196.2071250546578
 31
0.0
  0
LINE
  5
75E
330
1F
100
AcDbEntity
  8
0
100
AcDbLine
 10
170.2843436537903
 20
198.0471770546575
 30
0.0
 11
170.2843436537903
 21
197.8670730546573
 31
0.0
  0
LINE
  5
75F
330
1F
100
AcDbEntity
  8
0
100
AcDbLine
 10
170.4643436537903
 20
198.0471770546575
 30
0.0
 11
170.4643436537903
 21
197.8670730546573
 31
0.0
  0
LINE
  5
760
330
1F
100
AcDbEntity
  8
0
100
AcDbLine
 10
170.2843436537903
 20
197.8670730546573
 30
0.0
 11
170.3743436537903
 21
197.8670730546573
 31
0.0
  0
LINE
  5
761
330
1F
100
AcDbEntity
  8
0
100
AcDbLine
 10
170.2843436537903
 20
197.8670730546573
 30
0.0
 11
170.3743436537903
 21
197.8670730546573
 31
0.0
  0
LINE
  5
762
330
1F
100
AcDbEntity
  8
0
100
AcDbLine
 10
170.4643436537903
 20
197.8670730546573
 30
0.0
 11
170.3743436537903
 21
197.8670730546573
 31
0.0
  0
LINE
  5
763
330
1F
100
AcDbEntity
  8
0
100
AcDbLine
 10
170.4643436537903
 20
197.8670730546573
 30
0.0
 11
170.3743436537903
 21
197.8670730546573
 31
0.0
  0
LINE
  5
764
330
1F
100
AcDbEntity
  8
0
100
AcDbLine
 10
170.1243436537903
 20
198.2071250546578
 30
0.0
 11
170.6243436537903
 21
198.2071250546578
 31
0.0
  0
LINE
  5
765
330
1F
100
AcDbEntity
  8
0
100
AcDbLine
 10
170.2843436537903
 20
198.0471770546575
 30
0.0
 11
170.3743436537903
 21
198.0471770546575
 31
0.0
  0
LINE
  5
766
330
1F
100
AcDbEntity
  8
0
100
AcDbLine
 10
170.4643436537903
 20
198.0471770546575
 30
0.0
 11
170.3743436537903
 21
198.0471770546575
 31
0.0
  0
LINE
  5
767
330
1F
100
AcDbEntity
  8
0
100
AcDbLine
 10
170.1243436537903
 20
197.7071250546578
 30
0.0
 11
170.6243436537903
 21
197.7071250546578
 31
0.0
  0
LINE
  5
768
330
1F
100
AcDbEntity
  8
0
100
AcDbLine
 10
170.1243436537903
 20
198.2071250546578
 30
0.0
 11
170.1243436537903
 21
197.7071250546578
 31
0.0
  0
LINE
  5
769
330
1F
100
AcDbEntity
  8
0
100
AcDbLine
 10
170.6243436537903
 20
197.7071250546578
 30
0.0
 11
170.6243436537903
 21
198.2071250546578
 31
0.0
  0
LINE
  5
76A
330
1F
100
AcDbEntity
  8
0
100
AcDbLine
 10
170.2843436537903
 20
196.0471770546575
 30
0.0
 11
170.2843436537903
 21
195.8670730546573
 31
0.0
  0
LINE
  5
76B
330
1F
100
AcDbEntity
  8
0
100
AcDbLine
 10
170.4643436537903
 20
196.0471770546575
 30
0.0
 11
170.4643436537903
 21
195.8670730546573
 31
0.0
  0
LINE
  5
76C
330
1F
100
AcDbEntity
  8
0
100
AcDbLine
 10
170.2843436537903
 20
195.8670730546573
 30
0.0
 11
170.3743436537903
 21
195.8670730546573
 31
0.0
  0
LINE
  5
76D
330
1F
100
AcDbEntity
  8
0
100
AcDbLine
 10
170.2843436537903
 20
195.8670730546573
 30
0.0
 11
170.3743436537903
 21
195.8670730546573
 31
0.0
  0
LINE
  5
76E
330
1F
100
AcDbEntity
  8
0
100
AcDbLine
 10
170.4643436537903
 20
195.8670730546573
 30
0.0
 11
170.3743436537903
 21
195.8670730546573
 31
0.0
  0
LINE
  5
76F
330
1F
100
AcDbEntity
  8
0
100
AcDbLine
 10
170.4643436537903
 20
195.8670730546573
 30
0.0
 11
170.3743436537903
 21
195.8670730546573
 31
0.0
  0
LINE
  5
770
330
1F
100
AcDbEntity
  8
0
100
AcDbLine
 10
170.1243436537903
 20
196.2071250546578
 30
0.0
 11
170.6243436537903
 21
196.2071250546578
 31
0.0
  0
LINE
  5
771
330
1F
100
AcDbEntity
  8
0
100
AcDbLine
 10
170.2843436537903
 20
196.0471770546575
 30
0.0
 11
170.3743436537903
 21
196.0471770546575
 31
0.0
  0
LINE
  5
772
330
1F
100
AcDbEntity
  8
0
100
AcDbLine
 10
170.4643436537903
 20
196.0471770546575
 30
0.0
 11
170.3743436537903
 21
196.0471770546575
 31
0.0
  0
LINE
  5
773
330
1F
100
AcDbEntity
  8
0
100
AcDbLine
 10
170.1243436537903
 20
195.7071250546578
 30
0.0
 11
170.6243436537903
 21
195.7071250546578
 31
0.0
  0
LINE
  5
774
330
1F
100
AcDbEntity
  8
0
100
AcDbLine
 10
170.1243436537903
 20
196.2071250546578
 30
0.0
 11
170.1243436537903
 21
195.7071250546578
 31
0.0
  0
LINE
  5
775
330
1F
100
AcDbEntity
  8
0
100
AcDbLine
 10
170.6243436537903
 20
195.7071250546578
 30
0.0
 11
170.6243436537903
 21
196.2071250546578
 31
0.0
  0
LINE
  5
776
330
1F
100
AcDbEntity
  8
0
100
AcDbLine
 10
172.1243436537903
 20
194.2071250546576
 30
0.0
 11
172.1243436537903
 21
193.7071250546578
 31
0.0
  0
LINE
  5
777
330
1F
100
AcDbEntity
  8
0
100
AcDbLine
 10
172.6243436537903
 20
193.7071250546578
 30
0.0
 11
172.6243436537903
 21
194.2071250546576
 31
0.0
  0
LINE
  5
778
330
1F
100
AcDbEntity
  8
0
100
AcDbLine
 10
172.2843436537903
 20
194.0471770546576
 30
0.0
 11
172.2843436537903
 21
193.8670730546573
 31
0.0
  0
LINE
  5
779
330
1F
100
AcDbEntity
  8
0
100
AcDbLine
 10
172.4643436537903
 20
194.0471770546576
 30
0.0
 11
172.4643436537903
 21
193.8670730546573
 31
0.0
  0
LINE
  5
77A
330
1F
100
AcDbEntity
  8
0
100
AcDbLine
 10
172.1243436537903
 20
193.7071250546578
 30
0.0
 11
172.6243436537903
 21
193.7071250546578
 31
0.0
  0
LINE
  5
77B
330
1F
100
AcDbEntity
  8
0
100
AcDbLine
 10
172.2843436537903
 20
193.8670730546573
 30
0.0
 11
172.3743436537903
 21
193.8670730546573
 31
0.0
  0
LINE
  5
77C
330
1F
100
AcDbEntity
  8
0
100
AcDbLine
 10
172.2843436537903
 20
193.8670730546573
 30
0.0
 11
172.3743436537903
 21
193.8670730546573
 31
0.0
  0
LINE
  5
77D
330
1F
100
AcDbEntity
  8
0
100
AcDbLine
 10
172.4643436537903
 20
193.8670730546573
 30
0.0
 11
172.3743436537903
 21
193.8670730546573
 31
0.0
  0
LINE
  5
77E
330
1F
100
AcDbEntity
  8
0
100
AcDbLine
 10
172.4643436537903
 20
193.8670730546573
 30
0.0
 11
172.3743436537903
 21
193.8670730546573
 31
0.0
  0
LINE
  5
77F
330
1F
100
AcDbEntity
  8
0
100
AcDbLine
 10
172.1243436537903
 20
194.2071250546576
 30
0.0
 11
172.6243436537903
 21
194.2071250546576
 31
0.0
  0
LINE
  5
780
330
1F
100
AcDbEntity
  8
0
100
AcDbLine
 10
172.2843436537903
 20
194.0471770546576
 30
0.0
 11
172.3743436537903
 21
194.0471770546576
 31
0.0
  0
LINE
  5
781
330
1F
100
AcDbEntity
  8
0
100
AcDbLine
 10
172.4643436537903
 20
194.0471770546576
 30
0.0
 11
172.3743436537903
 21
194.0471770546576
 31
0.0
  0
LINE
  5
782
330
1F
100
AcDbEntity
  8
0
100
AcDbLine
 10
170.6243436537903
 20
193.7071250546578
 30
0.0
 11
170.6243436537903
 21
194.2071250546576
 31
0.0
  0
LINE
  5
783
330
1F
100
AcDbEntity
  8
0
100
AcDbLine
 10
170.1243436537903
 20
194.2071250546576
 30
0.0
 11
170.1243436537903
 21
193.7071250546578
 31
0.0
  0
LINE
  5
784
330
1F
100
AcDbEntity
  8
0
100
AcDbLine
 10
170.4643436537903
 20
194.0471770546576
 30
0.0
 11
170.4643436537903
 21
193.8670730546573
 31
0.0
  0
LINE
  5
785
330
1F
100
AcDbEntity
  8
0
100
AcDbLine
 10
170.2843436537903
 20
194.0471770546576
 30
0.0
 11
170.2843436537903
 21
193.8670730546573
 31
0.0
  0
LINE
  5
786
330
1F
100
AcDbEntity
  8
0
100
AcDbLine
 10
170.1243436537903
 20
193.7071250546578
 30
0.0
 11
170.6243436537903
 21
193.7071250546578
 31
0.0
  0
LINE
  5
787
330
1F
100
AcDbEntity
  8
0
100
AcDbLine
 10
170.4643436537903
 20
193.8670730546573
 30
0.0
 11
170.3743436537903
 21
193.8670730546573
 31
0.0
  0
LINE
  5
788
330
1F
100
AcDbEntity
  8
0
100
AcDbLine
 10
170.4643436537903
 20
193.8670730546573
 30
0.0
 11
170.3743436537903
 21
193.8670730546573
 31
0.0
  0
LINE
  5
789
330
1F
100
AcDbEntity
  8
0
100
AcDbLine
 10
170.2843436537903
 20
193.8670730546573
 30
0.0
 11
170.3743436537903
 21
193.8670730546573
 31
0.0
  0
LINE
  5
78A
330
1F
100
AcDbEntity
  8
0
100
AcDbLine
 10
170.2843436537903
 20
193.8670730546573
 30
0.0
 11
170.3743436537903
 21
193.8670730546573
 31
0.0
  0
LINE
  5
78B
330
1F
100
AcDbEntity
  8
0
100
AcDbLine
 10
170.4643436537903
 20
194.0471770546576
 30
0.0
 11
170.3743436537903
 21
194.0471770546576
 31
0.0
  0
LINE
  5
78C
330
1F
100
AcDbEntity
  8
0
100
AcDbLine
 10
170.2843436537903
 20
194.0471770546576
 30
0.0
 11
170.3743436537903
 21
194.0471770546576
 31
0.0
  0
LINE
  5
78D
330
1F
100
AcDbEntity
  8
0
100
AcDbLine
 10
170.1243436537903
 20
194.2071250546576
 30
0.0
 11
170.6243436537903
 21
194.2071250546576
 31
0.0
  0
LINE
  5
78E
330
1F
100
AcDbEntity
  8
0
100
AcDbLine
 10
169.2951786537903
 20
189.2531370546573
 30
0.0
 11
171.2601006537903
 21
189.2531370546573
 31
0.0
  0
LINE
  5
78F
330
1F
100
AcDbEntity
  8
0
100
AcDbLine
 10
172.1243436537903
 20
204.2071250546578
 30
0.0
 11
172.6243436537903
 21
204.2071250546578
 31
0.0
  0
LINE
  5
790
330
1F
100
AcDbEntity
  8
0
100
AcDbLine
 10
172.1243436537903
 20
203.7071250546578
 30
0.0
 11
172.6243436537903
 21
203.7071250546578
 31
0.0
  0
LINE
  5
791
330
1F
100
AcDbEntity
  8
0
100
AcDbLine
 10
172.1243436537903
 20
204.2071250546578
 30
0.0
 11
172.1243436537903
 21
203.7071250546578
 31
0.0
  0
LINE
  5
792
330
1F
100
AcDbEntity
  8
0
100
AcDbLine
 10
172.6243436537903
 20
203.7071250546578
 30
0.0
 11
172.6243436537903
 21
204.2071250546578
 31
0.0
  0
LINE
  5
793
330
1F
100
AcDbEntity
  8
0
100
AcDbLine
 10
172.2843436537903
 20
204.0471770546576
 30
0.0
 11
172.2843436537903
 21
203.8670730546573
 31
0.0
  0
LINE
  5
794
330
1F
100
AcDbEntity
  8
0
100
AcDbLine
 10
172.2843436537903
 20
203.8670730546573
 30
0.0
 11
172.3743436537903
 21
203.8670730546573
 31
0.0
  0
LINE
  5
795
330
1F
100
AcDbEntity
  8
0
100
AcDbLine
 10
172.2843436537903
 20
203.8670730546573
 30
0.0
 11
172.3743436537903
 21
203.8670730546573
 31
0.0
  0
LINE
  5
796
330
1F
100
AcDbEntity
  8
0
100
AcDbLine
 10
172.2843436537903
 20
204.0471770546576
 30
0.0
 11
172.3743436537903
 21
204.0471770546576
 31
0.0
  0
LINE
  5
797
330
1F
100
AcDbEntity
  8
0
100
AcDbLine
 10
172.4643436537903
 20
204.0471770546576
 30
0.0
 11
172.3743436537903
 21
204.0471770546576
 31
0.0
  0
LINE
  5
798
330
1F
100
AcDbEntity
  8
0
100
AcDbLine
 10
172.4643436537903
 20
203.8670730546573
 30
0.0
 11
172.3743436537903
 21
203.8670730546573
 31
0.0
  0
LINE
  5
799
330
1F
100
AcDbEntity
  8
0
100
AcDbLine
 10
172.4643436537903
 20
203.8670730546573
 30
0.0
 11
172.3743436537903
 21
203.8670730546573
 31
0.0
  0
LINE
  5
79A
330
1F
100
AcDbEntity
  8
0
100
AcDbLine
 10
172.4643436537903
 20
204.0471770546576
 30
0.0
 11
172.4643436537903
 21
203.8670730546573
 31
0.0
  0
LINE
  5
79B
330
1F
100
AcDbEntity
  8
0
100
AcDbLine
 10
172.1243436537903
 20
199.7071250546578
 30
0.0
 11
172.6243436537903
 21
199.7071250546578
 31
0.0
  0
LINE
  5
79C
330
1F
100
AcDbEntity
  8
0
100
AcDbLine
 10
172.1243436537903
 20
200.2071250546578
 30
0.0
 11
172.6243436537903
 21
200.2071250546578
 31
0.0
  0
LINE
  5
79D
330
1F
100
AcDbEntity
  8
0
100
AcDbLine
 10
172.1243436537903
 20
202.2071250546578
 30
0.0
 11
172.6243436537903
 21
202.2071250546578
 31
0.0
  0
LINE
  5
79E
330
1F
100
AcDbEntity
  8
0
100
AcDbLine
 10
172.1243436537903
 20
201.7071250546578
 30
0.0
 11
172.6243436537903
 21
201.7071250546578
 31
0.0
  0
LINE
  5
79F
330
1F
100
AcDbEntity
  8
0
100
AcDbLine
 10
172.1243436537903
 20
200.2071250546578
 30
0.0
 11
172.1243436537903
 21
199.7071250546578
 31
0.0
  0
LINE
  5
7A0
330
1F
100
AcDbEntity
  8
0
100
AcDbLine
 10
172.1243436537903
 20
202.2071250546578
 30
0.0
 11
172.1243436537903
 21
201.7071250546578
 31
0.0
  0
LINE
  5
7A1
330
1F
100
AcDbEntity
  8
0
100
AcDbLine
 10
172.6243436537903
 20
199.7071250546578
 30
0.0
 11
172.6243436537903
 21
200.2071250546578
 31
0.0
  0
LINE
  5
7A2
330
1F
100
AcDbEntity
  8
0
100
AcDbLine
 10
172.2843436537903
 20
200.0471770546575
 30
0.0
 11
172.2843436537903
 21
199.8670730546573
 31
0.0
  0
LINE
  5
7A3
330
1F
100
AcDbEntity
  8
0
100
AcDbLine
 10
172.2843436537903
 20
199.8670730546573
 30
0.0
 11
172.3743436537903
 21
199.8670730546573
 31
0.0
  0
LINE
  5
7A4
330
1F
100
AcDbEntity
  8
0
100
AcDbLine
 10
172.2843436537903
 20
199.8670730546573
 30
0.0
 11
172.3743436537903
 21
199.8670730546573
 31
0.0
  0
LINE
  5
7A5
330
1F
100
AcDbEntity
  8
0
100
AcDbLine
 10
172.2843436537903
 20
200.0471770546575
 30
0.0
 11
172.3743436537903
 21
200.0471770546575
 31
0.0
  0
LINE
  5
7A6
330
1F
100
AcDbEntity
  8
0
100
AcDbLine
 10
172.4643436537903
 20
200.0471770546575
 30
0.0
 11
172.3743436537903
 21
200.0471770546575
 31
0.0
  0
LINE
  5
7A7
330
1F
100
AcDbEntity
  8
0
100
AcDbLine
 10
172.4643436537903
 20
199.8670730546573
 30
0.0
 11
172.3743436537903
 21
199.8670730546573
 31
0.0
  0
LINE
  5
7A8
330
1F
100
AcDbEntity
  8
0
100
AcDbLine
 10
172.4643436537903
 20
199.8670730546573
 30
0.0
 11
172.3743436537903
 21
199.8670730546573
 31
0.0
  0
LINE
  5
7A9
330
1F
100
AcDbEntity
  8
0
100
AcDbLine
 10
172.4643436537903
 20
200.0471770546575
 30
0.0
 11
172.4643436537903
 21
199.8670730546573
 31
0.0
  0
LINE
  5
7AA
330
1F
100
AcDbEntity
  8
0
100
AcDbLine
 10
172.6243436537903
 20
201.7071250546578
 30
0.0
 11
172.6243436537903
 21
202.2071250546578
 31
0.0
  0
LINE
  5
7AB
330
1F
100
AcDbEntity
  8
0
100
AcDbLine
 10
172.2843436537903
 20
202.0471770546576
 30
0.0
 11
172.2843436537903
 21
201.8670730546573
 31
0.0
  0
LINE
  5
7AC
330
1F
100
AcDbEntity
  8
0
100
AcDbLine
 10
172.2843436537903
 20
201.8670730546573
 30
0.0
 11
172.3743436537903
 21
201.8670730546573
 31
0.0
  0
LINE
  5
7AD
330
1F
100
AcDbEntity
  8
0
100
AcDbLine
 10
172.2843436537903
 20
201.8670730546573
 30
0.0
 11
172.3743436537903
 21
201.8670730546573
 31
0.0
  0
LINE
  5
7AE
330
1F
100
AcDbEntity
  8
0
100
AcDbLine
 10
172.2843436537903
 20
202.0471770546576
 30
0.0
 11
172.3743436537903
 21
202.0471770546576
 31
0.0
  0
LINE
  5
7AF
330
1F
100
AcDbEntity
  8
0
100
AcDbLine
 10
172.4643436537903
 20
202.0471770546576
 30
0.0
 11
172.3743436537903
 21
202.0471770546576
 31
0.0
  0
LINE
  5
7B0
330
1F
100
AcDbEntity
  8
0
100
AcDbLine
 10
172.4643436537903
 20
201.8670730546573
 30
0.0
 11
172.3743436537903
 21
201.8670730546573
 31
0.0
  0
LINE
  5
7B1
330
1F
100
AcDbEntity
  8
0
100
AcDbLine
 10
172.4643436537903
 20
201.8670730546573
 30
0.0
 11
172.3743436537903
 21
201.8670730546573
 31
0.0
  0
LINE
  5
7B2
330
1F
100
AcDbEntity
  8
0
100
AcDbLine
 10
172.4643436537903
 20
202.0471770546576
 30
0.0
 11
172.4643436537903
 21
201.8670730546573
 31
0.0
  0
LINE
  5
7B3
330
1F
100
AcDbEntity
  8
0
100
AcDbLine
 10
170.1243436537903
 20
203.7071250546578
 30
0.0
 11
170.6243436537903
 21
203.7071250546578
 31
0.0
  0
LINE
  5
7B4
330
1F
100
AcDbEntity
  8
0
100
AcDbLine
 10
170.1243436537903
 20
204.2071250546578
 30
0.0
 11
170.6243436537903
 21
204.2071250546578
 31
0.0
  0
LINE
  5
7B5
330
1F
100
AcDbEntity
  8
0
100
AcDbLine
 10
170.4643436537903
 20
204.0471770546576
 30
0.0
 11
170.4643436537903
 21
203.8670730546573
 31
0.0
  0
LINE
  5
7B6
330
1F
100
AcDbEntity
  8
0
100
AcDbLine
 10
170.4643436537903
 20
203.8670730546573
 30
0.0
 11
170.3743436537903
 21
203.8670730546573
 31
0.0
  0
LINE
  5
7B7
330
1F
100
AcDbEntity
  8
0
100
AcDbLine
 10
170.4643436537903
 20
203.8670730546573
 30
0.0
 11
170.3743436537903
 21
203.8670730546573
 31
0.0
  0
LINE
  5
7B8
330
1F
100
AcDbEntity
  8
0
100
AcDbLine
 10
170.4643436537903
 20
204.0471770546576
 30
0.0
 11
170.3743436537903
 21
204.0471770546576
 31
0.0
  0
LINE
  5
7B9
330
1F
100
AcDbEntity
  8
0
100
AcDbLine
 10
170.2843436537903
 20
204.0471770546576
 30
0.0
 11
170.3743436537903
 21
204.0471770546576
 31
0.0
  0
LINE
  5
7BA
330
1F
100
AcDbEntity
  8
0
100
AcDbLine
 10
170.2843436537903
 20
203.8670730546573
 30
0.0
 11
170.3743436537903
 21
203.8670730546573
 31
0.0
  0
LINE
  5
7BB
330
1F
100
AcDbEntity
  8
0
100
AcDbLine
 10
170.2843436537903
 20
203.8670730546573
 30
0.0
 11
170.3743436537903
 21
203.8670730546573
 31
0.0
  0
LINE
  5
7BC
330
1F
100
AcDbEntity
  8
0
100
AcDbLine
 10
170.2843436537903
 20
204.0471770546576
 30
0.0
 11
170.2843436537903
 21
203.8670730546573
 31
0.0
  0
LINE
  5
7BD
330
1F
100
AcDbEntity
  8
0
100
AcDbLine
 10
170.6243436537903
 20
203.7071250546578
 30
0.0
 11
170.6243436537903
 21
204.2071250546578
 31
0.0
  0
LINE
  5
7BE
330
1F
100
AcDbEntity
  8
0
100
AcDbLine
 10
170.1243436537903
 20
204.2071250546578
 30
0.0
 11
170.1243436537903
 21
203.7071250546578
 31
0.0
  0
LINE
  5
7BF
330
1F
100
AcDbEntity
  8
0
100
AcDbLine
 10
170.2843436537903
 20
200.0471770546575
 30
0.0
 11
170.2843436537903
 21
199.8670730546573
 31
0.0
  0
LINE
  5
7C0
330
1F
100
AcDbEntity
  8
0
100
AcDbLine
 10
170.1243436537903
 20
200.2071250546578
 30
0.0
 11
170.6243436537903
 21
200.2071250546578
 31
0.0
  0
LINE
  5
7C1
330
1F
100
AcDbEntity
  8
0
100
AcDbLine
 10
170.1243436537903
 20
201.7071250546578
 30
0.0
 11
170.6243436537903
 21
201.7071250546578
 31
0.0
  0
LINE
  5
7C2
330
1F
100
AcDbEntity
  8
0
100
AcDbLine
 10
170.1243436537903
 20
202.2071250546578
 30
0.0
 11
170.6243436537903
 21
202.2071250546578
 31
0.0
  0
LINE
  5
7C3
330
1F
100
AcDbEntity
  8
0
100
AcDbLine
 10
170.4643436537903
 20
202.0471770546576
 30
0.0
 11
170.4643436537903
 21
201.8670730546573
 31
0.0
  0
LINE
  5
7C4
330
1F
100
AcDbEntity
  8
0
100
AcDbLine
 10
170.4643436537903
 20
201.8670730546573
 30
0.0
 11
170.3743436537903
 21
201.8670730546573
 31
0.0
  0
LINE
  5
7C5
330
1F
100
AcDbEntity
  8
0
100
AcDbLine
 10
170.4643436537903
 20
201.8670730546573
 30
0.0
 11
170.3743436537903
 21
201.8670730546573
 31
0.0
  0
LINE
  5
7C6
330
1F
100
AcDbEntity
  8
0
100
AcDbLine
 10
170.4643436537903
 20
202.0471770546576
 30
0.0
 11
170.3743436537903
 21
202.0471770546576
 31
0.0
  0
LINE
  5
7C7
330
1F
100
AcDbEntity
  8
0
100
AcDbLine
 10
170.2843436537903
 20
202.0471770546576
 30
0.0
 11
170.3743436537903
 21
202.0471770546576
 31
0.0
  0
LINE
  5
7C8
330
1F
100
AcDbEntity
  8
0
100
AcDbLine
 10
170.2843436537903
 20
201.8670730546573
 30
0.0
 11
170.3743436537903
 21
201.8670730546573
 31
0.0
  0
LINE
  5
7C9
330
1F
100
AcDbEntity
  8
0
100
AcDbLine
 10
170.2843436537903
 20
201.8670730546573
 30
0.0
 11
170.3743436537903
 21
201.8670730546573
 31
0.0
  0
LINE
  5
7CA
330
1F
100
AcDbEntity
  8
0
100
AcDbLine
 10
170.2843436537903
 20
202.0471770546576
 30
0.0
 11
170.2843436537903
 21
201.8670730546573
 31
0.0
  0
LINE
  5
7CB
330
1F
100
AcDbEntity
  8
0
100
AcDbLine
 10
170.6243436537903
 20
201.7071250546578
 30
0.0
 11
170.6243436537903
 21
202.2071250546578
 31
0.0
  0
LINE
  5
7CC
330
1F
100
AcDbEntity
  8
0
100
AcDbLine
 10
170.1243436537903
 20
202.2071250546578
 30
0.0
 11
170.1243436537903
 21
201.7071250546578
 31
0.0
  0
LINE
  5
7CD
330
1F
100
AcDbEntity
  8
0
100
AcDbLine
 10
170.6243436537903
 20
199.7071250546578
 30
0.0
 11
170.6243436537903
 21
200.2071250546578
 31
0.0
  0
LINE
  5
7CE
330
1F
100
AcDbEntity
  8
0
100
AcDbLine
 10
170.1243436537903
 20
200.2071250546578
 30
0.0
 11
170.1243436537903
 21
199.7071250546578
 31
0.0
  0
LINE
  5
7CF
330
1F
100
AcDbEntity
  8
0
100
AcDbLine
 10
170.1243436537903
 20
199.7071250546578
 30
0.0
 11
170.6243436537903
 21
199.7071250546578
 31
0.0
  0
LINE
  5
7D0
330
1F
100
AcDbEntity
  8
0
100
AcDbLine
 10
170.4643436537903
 20
200.0471770546575
 30
0.0
 11
170.4643436537903
 21
199.8670730546573
 31
0.0
  0
LINE
  5
7D1
330
1F
100
AcDbEntity
  8
0
100
AcDbLine
 10
170.4643436537903
 20
199.8670730546573
 30
0.0
 11
170.3743436537903
 21
199.8670730546573
 31
0.0
  0
LINE
  5
7D2
330
1F
100
AcDbEntity
  8
0
100
AcDbLine
 10
170.4643436537903
 20
199.8670730546573
 30
0.0
 11
170.3743436537903
 21
199.8670730546573
 31
0.0
  0
LINE
  5
7D3
330
1F
100
AcDbEntity
  8
0
100
AcDbLine
 10
170.4643436537903
 20
200.0471770546575
 30
0.0
 11
170.3743436537903
 21
200.0471770546575
 31
0.0
  0
LINE
  5
7D4
330
1F
100
AcDbEntity
  8
0
100
AcDbLine
 10
170.2843436537903
 20
200.0471770546575
 30
0.0
 11
170.3743436537903
 21
200.0471770546575
 31
0.0
  0
LINE
  5
7D5
330
1F
100
AcDbEntity
  8
0
100
AcDbLine
 10
170.2843436537903
 20
199.8670730546573
 30
0.0
 11
170.3743436537903
 21
199.8670730546573
 31
0.0
  0
LINE
  5
7D6
330
1F
100
AcDbEntity
  8
0
100
AcDbLine
 10
170.2843436537903
 20
199.8670730546573
 30
0.0
 11
170.3743436537903
 21
199.8670730546573
 31
0.0
  0
LINE
  5
7D7
330
1F
100
AcDbEntity
  8
0
100
AcDbLine
 10
168.8743436537903
 20
210.0771103956045
 30
0.0
 11
173.8743436537903
 21
210.0771103956045
 31
0.0
  0
LINE
  5
7D8
330
1F
100
AcDbEntity
  8
0
100
AcDbLine
 10
172.1243436537903
 20
208.2071250546578
 30
0.0
 11
172.6243436537903
 21
208.2071250546578
 31
0.0
  0
LINE
  5
7D9
330
1F
100
AcDbEntity
  8
0
100
AcDbLine
 10
172.1243436537903
 20
207.7071250546578
 30
0.0
 11
172.6243436537903
 21
207.7071250546578
 31
0.0
  0
LINE
  5
7DA
330
1F
100
AcDbEntity
  8
0
100
AcDbLine
 10
172.1243436537903
 20
208.2071250546578
 30
0.0
 11
172.1243436537903
 21
207.7071250546578
 31
0.0
  0
LINE
  5
7DB
330
1F
100
AcDbEntity
  8
0
100
AcDbLine
 10
172.6243436537903
 20
207.7071250546578
 30
0.0
 11
172.6243436537903
 21
208.2071250546578
 31
0.0
  0
LINE
  5
7DC
330
1F
100
AcDbEntity
  8
0
100
AcDbLine
 10
172.4643436537903
 20
208.0471770546576
 30
0.0
 11
172.4643436537903
 21
207.8670730546573
 31
0.0
  0
LINE
  5
7DD
330
1F
100
AcDbEntity
  8
0
100
AcDbLine
 10
172.2843436537903
 20
208.0471770546576
 30
0.0
 11
172.2843436537903
 21
207.8670730546573
 31
0.0
  0
LINE
  5
7DE
330
1F
100
AcDbEntity
  8
0
100
AcDbLine
 10
172.4643436537903
 20
208.0471770546576
 30
0.0
 11
172.3743436537903
 21
208.0471770546576
 31
0.0
  0
LINE
  5
7DF
330
1F
100
AcDbEntity
  8
0
100
AcDbLine
 10
172.2843436537903
 20
208.0471770546576
 30
0.0
 11
172.3743436537903
 21
208.0471770546576
 31
0.0
  0
LINE
  5
7E0
330
1F
100
AcDbEntity
  8
0
100
AcDbLine
 10
172.4643436537903
 20
207.8670730546573
 30
0.0
 11
172.3743436537903
 21
207.8670730546573
 31
0.0
  0
LINE
  5
7E1
330
1F
100
AcDbEntity
  8
0
100
AcDbLine
 10
172.4643436537903
 20
207.8670730546573
 30
0.0
 11
172.3743436537903
 21
207.8670730546573
 31
0.0
  0
LINE
  5
7E2
330
1F
100
AcDbEntity
  8
0
100
AcDbLine
 10
172.2843436537903
 20
207.8670730546573
 30
0.0
 11
172.3743436537903
 21
207.8670730546573
 31
0.0
  0
LINE
  5
7E3
330
1F
100
AcDbEntity
  8
0
100
AcDbLine
 10
172.2843436537903
 20
207.8670730546573
 30
0.0
 11
172.3743436537903
 21
207.8670730546573
 31
0.0
  0
LINE
  5
7E4
330
1F
100
AcDbEntity
  8
0
100
AcDbLine
 10
170.1243436537903
 20
208.2071250546578
 30
0.0
 11
170.1243436537903
 21
207.7071250546578
 31
0.0
  0
LINE
  5
7E5
330
1F
100
AcDbEntity
  8
0
100
AcDbLine
 10
170.6243436537903
 20
207.7071250546578
 30
0.0
 11
170.6243436537903
 21
208.2071250546578
 31
0.0
  0
LINE
  5
7E6
330
1F
100
AcDbEntity
  8
0
100
AcDbLine
 10
170.2843436537903
 20
208.0471770546576
 30
0.0
 11
170.2843436537903
 21
207.8670730546573
 31
0.0
  0
LINE
  5
7E7
330
1F
100
AcDbEntity
  8
0
100
AcDbLine
 10
170.4643436537903
 20
208.0471770546576
 30
0.0
 11
170.4643436537903
 21
207.8670730546573
 31
0.0
  0
LINE
  5
7E8
330
1F
100
AcDbEntity
  8
0
100
AcDbLine
 10
170.2843436537903
 20
208.0471770546576
 30
0.0
 11
170.3743436537903
 21
208.0471770546576
 31
0.0
  0
LINE
  5
7E9
330
1F
100
AcDbEntity
  8
0
100
AcDbLine
 10
170.4643436537903
 20
208.0471770546576
 30
0.0
 11
170.3743436537903
 21
208.0471770546576
 31
0.0
  0
LINE
  5
7EA
330
1F
100
AcDbEntity
  8
0
100
AcDbLine
 10
170.1243436537903
 20
208.2071250546578
 30
0.0
 11
170.6243436537903
 21
208.2071250546578
 31
0.0
  0
LINE
  5
7EB
330
1F
100
AcDbEntity
  8
0
100
AcDbLine
 10
170.2843436537903
 20
207.8670730546573
 30
0.0
 11
170.3743436537903
 21
207.8670730546573
 31
0.0
  0
LINE
  5
7EC
330
1F
100
AcDbEntity
  8
0
100
AcDbLine
 10
170.2843436537903
 20
207.8670730546573
 30
0.0
 11
170.3743436537903
 21
207.8670730546573
 31
0.0
  0
LINE
  5
7ED
330
1F
100
AcDbEntity
  8
0
100
AcDbLine
 10
170.4643436537903
 20
207.8670730546573
 30
0.0
 11
170.3743436537903
 21
207.8670730546573
 31
0.0
  0
LINE
  5
7EE
330
1F
100
AcDbEntity
  8
0
100
AcDbLine
 10
170.4643436537903
 20
207.8670730546573
 30
0.0
 11
170.3743436537903
 21
207.8670730546573
 31
0.0
  0
LINE
  5
7EF
330
1F
100
AcDbEntity
  8
0
100
AcDbLine
 10
170.1243436537903
 20
207.7071250546578
 30
0.0
 11
170.6243436537903
 21
207.7071250546578
 31
0.0
  0
LINE
  5
7F0
330
1F
100
AcDbEntity
  8
0
100
AcDbLine
 10
167.1356906537903
 20
219.7506720546575
 30
0.0
 11
167.5730456537903
 21
219.3693000546576
 31
0.0
  0
LINE
  5
7F1
330
1F
100
AcDbEntity
  8
0
100
AcDbLine
 10
167.5735626537903
 20
220.2093860546575
 30
0.0
 11
168.1661196537903
 21
220.2093860546575
 31
0.0
  0
LINE
  5
7F2
330
1F
100
AcDbEntity
  8
0
100
AcDbLine
 10
167.5735626537903
 20
221.1903770546578
 30
0.0
 11
167.5735626537903
 21
220.2093860546575
 31
0.0
  0
LINE
  5
7F3
330
1F
100
AcDbEntity
  8
0
100
AcDbLine
 10
168.1661196537903
 20
221.1903770546578
 30
0.0
 11
167.5735626537903
 21
221.1903770546578
 31
0.0
  0
LINE
  5
7F4
330
1F
100
AcDbEntity
  8
0
100
AcDbLine
 10
168.1661196537903
 20
220.2093860546575
 30
0.0
 11
168.1661196537903
 21
221.1903770546578
 31
0.0
  0
LINE
  5
7F5
330
1F
100
AcDbEntity
  8
0
100
AcDbLine
 10
167.1356906537903
 20
220.2093860546575
 30
0.0
 11
168.6036466537904
 21
220.2093860546575
 31
0.0
  0
LINE
  5
7F6
330
1F
100
AcDbEntity
  8
0
100
AcDbLine
 10
168.6036466537904
 20
219.7506720546575
 30
0.0
 11
168.1661196537903
 21
219.3693000546576
 31
0.0
  0
LINE
  5
7F7
330
1F
100
AcDbEntity
  8
0
100
AcDbLine
 10
168.8857996537904
 20
220.2446980546573
 30
0.0
 11
169.3233266537903
 21
219.8636710546575
 31
0.0
  0
LINE
  5
7F8
330
1F
100
AcDbEntity
  8
0
100
AcDbLine
 10
170.3537546537903
 20
220.2446980546573
 30
0.0
 11
169.9158836537904
 21
219.8636710546575
 31
0.0
  0
LINE
  5
7F9
330
1F
100
AcDbEntity
  8
0
100
AcDbLine
 10
169.9158836537904
 20
218.8825080546576
 30
0.0
 11
169.3233266537903
 21
218.8825080546576
 31
0.0
  0
LINE
  5
7FA
330
1F
100
AcDbEntity
  8
0
100
AcDbLine
 10
169.9158836537904
 20
219.8636710546575
 30
0.0
 11
169.9158836537904
 21
218.8825080546576
 31
0.0
  0
LINE
  5
7FB
330
1F
100
AcDbEntity
  8
0
100
AcDbLine
 10
169.3233266537903
 20
219.8636710546575
 30
0.0
 11
169.9158836537904
 21
219.8636710546575
 31
0.0
  0
LINE
  5
7FC
330
1F
100
AcDbEntity
  8
0
100
AcDbLine
 10
169.3233266537903
 20
218.8825080546576
 30
0.0
 11
169.3233266537903
 21
219.8636710546575
 31
0.0
  0
LINE
  5
7FD
330
1F
100
AcDbEntity
  8
0
100
AcDbLine
 10
170.3537546537903
 20
218.8825080546576
 30
0.0
 11
168.8857996537904
 21
218.8825080546576
 31
0.0
  0
LINE
  5
7FE
330
1F
100
AcDbEntity
  8
0
100
AcDbLine
 10
170.3537546537903
 20
220.2446980546573
 30
0.0
 11
170.3537546537903
 21
218.8825080546576
 31
0.0
  0
LINE
  5
7FF
330
1F
100
AcDbEntity
  8
0
100
AcDbLine
 10
168.8857996537904
 20
220.2446980546573
 30
0.0
 11
170.3537546537903
 21
220.2446980546573
 31
0.0
  0
LINE
  5
800
330
1F
100
AcDbEntity
  8
0
100
AcDbLine
 10
168.8857996537904
 20
218.8825080546576
 30
0.0
 11
168.8857996537904
 21
220.2446980546573
 31
0.0
  0
LINE
  5
801
330
1F
100
AcDbEntity
  8
0
100
AcDbLine
 10
168.8857996537904
 20
217.0548840546578
 30
0.0
 11
169.3233266537903
 21
217.4357400546575
 31
0.0
  0
LINE
  5
802
330
1F
100
AcDbEntity
  8
0
100
AcDbLine
 10
170.3537546537903
 20
217.0548840546578
 30
0.0
 11
169.9158836537904
 21
217.4357400546575
 31
0.0
  0
LINE
  5
803
330
1F
100
AcDbEntity
  8
0
100
AcDbLine
 10
167.1356906537903
 20
215.6644440546573
 30
0.0
 11
168.6036466537904
 21
215.6644440546573
 31
0.0
  0
LINE
  5
804
330
1F
100
AcDbEntity
  8
0
100
AcDbLine
 10
167.1356906537903
 20
217.0266350546576
 30
0.0
 11
167.1356906537903
 21
215.6644440546573
 31
0.0
  0
LINE
  5
805
330
1F
100
AcDbEntity
  8
0
100
AcDbLine
 10
168.6036466537904
 20
217.0266350546576
 30
0.0
 11
167.1356906537903
 21
217.0266350546576
 31
0.0
  0
LINE
  5
806
330
1F
100
AcDbEntity
  8
0
100
AcDbLine
 10
168.6036466537904
 20
215.6644440546573
 30
0.0
 11
168.6036466537904
 21
217.0266350546576
 31
0.0
  0
LINE
  5
807
330
1F
100
AcDbEntity
  8
0
100
AcDbLine
 10
169.3233266537903
 20
217.4357400546575
 30
0.0
 11
169.9158836537904
 21
217.4357400546575
 31
0.0
  0
LINE
  5
808
330
1F
100
AcDbEntity
  8
0
100
AcDbLine
 10
169.3233266537903
 20
218.4169030546573
 30
0.0
 11
169.3233266537903
 21
217.4357400546575
 31
0.0
  0
LINE
  5
809
330
1F
100
AcDbEntity
  8
0
100
AcDbLine
 10
169.9158836537904
 20
218.4169030546573
 30
0.0
 11
169.3233266537903
 21
218.4169030546573
 31
0.0
  0
LINE
  5
80A
330
1F
100
AcDbEntity
  8
0
100
AcDbLine
 10
169.9158836537904
 20
217.4357400546575
 30
0.0
 11
169.9158836537904
 21
218.4169030546573
 31
0.0
  0
LINE
  5
80B
330
1F
100
AcDbEntity
  8
0
100
AcDbLine
 10
168.8857996537904
 20
217.0548840546578
 30
0.0
 11
170.3537546537903
 21
217.0548840546578
 31
0.0
  0
LINE
  5
80C
330
1F
100
AcDbEntity
  8
0
100
AcDbLine
 10
168.8857996537904
 20
218.4169030546573
 30
0.0
 11
168.8857996537904
 21
217.0548840546578
 31
0.0
  0
LINE
  5
80D
330
1F
100
AcDbEntity
  8
0
100
AcDbLine
 10
170.3537546537903
 20
218.4169030546573
 30
0.0
 11
168.8857996537904
 21
218.4169030546573
 31
0.0
  0
LINE
  5
80E
330
1F
100
AcDbEntity
  8
0
100
AcDbLine
 10
170.3537546537903
 20
217.0548840546578
 30
0.0
 11
170.3537546537903
 21
218.4169030546573
 31
0.0
  0
LINE
  5
80F
330
1F
100
AcDbEntity
  8
0
100
AcDbLine
 10
167.1356906537903
 20
215.6644440546573
 30
0.0
 11
167.5730456537903
 21
216.0454710546573
 31
0.0
  0
LINE
  5
810
330
1F
100
AcDbEntity
  8
0
100
AcDbLine
 10
168.6036466537904
 20
215.6644440546573
 30
0.0
 11
168.1657746537903
 21
216.0454710546573
 31
0.0
  0
LINE
  5
811
330
1F
100
AcDbEntity
  8
0
100
AcDbLine
 10
167.5730456537903
 20
216.0454710546573
 30
0.0
 11
168.1657746537903
 21
216.0454710546573
 31
0.0
  0
LINE
  5
812
330
1F
100
AcDbEntity
  8
0
100
AcDbLine
 10
167.5730456537903
 20
217.0266350546576
 30
0.0
 11
167.5730456537903
 21
216.0454710546573
 31
0.0
  0
LINE
  5
813
330
1F
100
AcDbEntity
  8
0
100
AcDbLine
 10
168.1657746537903
 20
217.0266350546576
 30
0.0
 11
167.5730456537903
 21
217.0266350546576
 31
0.0
  0
LINE
  5
814
330
1F
100
AcDbEntity
  8
0
100
AcDbLine
 10
168.1657746537903
 20
216.0454710546573
 30
0.0
 11
168.1657746537903
 21
217.0266350546576
 31
0.0
  0
LINE
  5
815
330
1F
100
AcDbEntity
  8
0
100
AcDbLine
 10
167.5735626537903
 20
218.3886530546574
 30
0.0
 11
168.1661196537903
 21
218.3886530546574
 31
0.0
  0
LINE
  5
816
330
1F
100
AcDbEntity
  8
0
100
AcDbLine
 10
167.5735626537903
 20
219.3696440546575
 30
0.0
 11
167.5735626537903
 21
218.3886530546574
 31
0.0
  0
LINE
  5
817
330
1F
100
AcDbEntity
  8
0
100
AcDbLine
 10
168.1661196537903
 20
219.3696440546575
 30
0.0
 11
167.5735626537903
 21
219.3696440546575
 31
0.0
  0
LINE
  5
818
330
1F
100
AcDbEntity
  8
0
100
AcDbLine
 10
168.1661196537903
 20
218.3886530546574
 30
0.0
 11
168.1661196537903
 21
219.3696440546575
 31
0.0
  0
LINE
  5
819
330
1F
100
AcDbEntity
  8
0
100
AcDbLine
 10
167.1356906537903
 20
218.3886530546574
 30
0.0
 11
168.6036466537904
 21
218.3886530546574
 31
0.0
  0
LINE
  5
81A
330
1F
100
AcDbEntity
  8
0
100
AcDbLine
 10
167.1356906537903
 20
219.7506720546575
 30
0.0
 11
167.1356906537903
 21
218.3886530546574
 31
0.0
  0
LINE
  5
81B
330
1F
100
AcDbEntity
  8
0
100
AcDbLine
 10
168.6036466537904
 20
219.7506720546575
 30
0.0
 11
167.1356906537903
 21
219.7506720546575
 31
0.0
  0
LINE
  5
81C
330
1F
100
AcDbEntity
  8
0
100
AcDbLine
 10
168.6036466537904
 20
218.3886530546574
 30
0.0
 11
168.6036466537904
 21
219.7506720546575
 31
0.0
  0
LINE
  5
81D
330
1F
100
AcDbEntity
  8
0
100
AcDbLine
 10
168.6036466537904
 20
221.5714050546573
 30
0.0
 11
168.1661196537903
 21
221.1900330546574
 31
0.0
  0
LINE
  5
81E
330
1F
100
AcDbEntity
  8
0
100
AcDbLine
 10
167.1356906537903
 20
221.5714050546573
 30
0.0
 11
167.5730456537903
 21
221.1900330546574
 31
0.0
  0
LINE
  5
81F
330
1F
100
AcDbEntity
  8
0
100
AcDbLine
 10
167.1356906537903
 20
221.5714050546573
 30
0.0
 11
167.1356906537903
 21
220.2093860546575
 31
0.0
  0
LINE
  5
820
330
1F
100
AcDbEntity
  8
0
100
AcDbLine
 10
168.6036466537904
 20
220.2093860546575
 30
0.0
 11
168.6036466537904
 21
221.5714050546573
 31
0.0
  0
LINE
  5
821
330
1F
100
AcDbEntity
  8
0
100
AcDbLine
 10
168.6036466537904
 20
221.5714050546573
 30
0.0
 11
167.1356906537903
 21
221.5714050546573
 31
0.0
  0
LINE
  5
822
330
1F
100
AcDbEntity
  8
0
100
AcDbLine
 10
166.8743436537903
 20
226.4071250546575
 30
0.0
 11
173.8743436537903
 21
226.4071250546575
 31
0.0
  0
LINE
  5
823
330
1F
100
AcDbEntity
  8
0
100
AcDbLine
 10
166.8743436537903
 20
231.4071250546576
 30
0.0
 11
173.8743436537903
 21
231.4071250546576
 31
0.0
  0
LINE
  5
824
330
1F
100
AcDbEntity
  8
0
100
AcDbLine
 10
161.0743436537903
 20
225.6571250546576
 30
0.0
 11
173.8743436537903
 21
225.6571250546576
 31
0.0
  0
LINE
  5
825
330
1F
100
AcDbEntity
  8
0
100
AcDbLine
 10
166.2243436537901
 20
232.3571250546577
 30
0.0
 11
173.6243436537903
 21
232.3571250546575
 31
0.0
  0
LINE
  5
827
330
1F
100
AcDbEntity
  8
0
100
AcDbLine
 10
166.2243436537901
 20
232.3571250546575
 30
0.0
 11
173.6243436537903
 21
232.3571250546575
 31
0.0
  0
CIRCLE
  5
82A
330
1F
100
AcDbEntity
  8
0
100
AcDbCircle
 10
169.9243436537904
 20
236.1071250546575
 30
0.0
 40
3.7
  0
CIRCLE
  5
82B
330
1F
100
AcDbEntity
  8
0
100
AcDbCircle
 10
169.9243436537904
 20
236.1071250546575
 30
0.0
 40
3.7
  0
ARC
  5
82C
330
1F
100
AcDbEntity
  8
0
100
AcDbCircle
 10
169.9243436537904
 20
236.1071250546575
 30
0.0
 40
3.69999999999993
100
AcDbArc
 50
0.0
 51
180.0
  0
LINE
  5
82D
330
1F
100
AcDbEntity
  8
0
100
AcDbLine
 10
166.8743436537903
 20
226.4071250546575
 30
0.0
 11
166.8743436537903
 21
231.4071250546576
 31
0.0
  0
LINE
  5
82E
330
1F
100
AcDbEntity
  8
0
100
AcDbLine
 10
160.5743436537903
 20
226.1331380546575
 30
0.0
 11
166.2243436537903
 21
226.1331380546575
 31
0.0
  0
LINE
  5
82F
330
1F
100
AcDbEntity
  8
0
100
AcDbLine
 10
166.2243436537903
 20
226.1331380546575
 30
0.0
 11
166.2243436537903
 21
231.4071250546576
 31
0.0
  0
LINE
  5
830
330
1F
100
AcDbEntity
  8
0
100
AcDbLine
 10
166.2243436537903
 20
236.1071250546575
 30
0.0
 11
166.2243436537903
 21
231.4071250546576
 31
0.0
  0
LINE
  5
831
330
1F
100
AcDbEntity
  8
0
100
AcDbLine
 10
169.2951786537903
 20
230.4071250546575
 30
0.0
 11
169.2951786537903
 21
227.4071250546576
 31
0.0
  0
LINE
  5
832
330
1F
100
AcDbEntity
  8
0
100
AcDbLine
 10
171.2601006537903
 20
230.4071250546575
 30
0.0
 11
171.2601006537903
 21
227.4071250546576
 31
0.0
  0
LINE
  5
833
330
1F
100
AcDbEntity
  8
0
100
AcDbLine
 10
169.2951786537903
 20
230.4071250546575
 30
0.0
 11
171.2601006537903
 21
230.4071250546575
 31
0.0
  0
LINE
  5
834
330
1F
100
AcDbEntity
  8
0
100
AcDbLine
 10
169.2951786537903
 20
227.4071250546576
 30
0.0
 11
171.2601006537903
 21
227.4071250546576
 31
0.0
  0
LINE
  5
835
330
1F
100
AcDbEntity
  8
0
100
AcDbLine
 10
173.8743436537903
 20
231.4071250546576
 30
0.0
 11
173.8743436537903
 21
226.4071250546575
 31
0.0
  0
LINE
  5
836
330
1F
100
AcDbEntity
  8
0
100
AcDbLine
 10
168.8924146537904
 20
235.9460740546575
 30
0.0
 11
171.7259496537903
 21
235.9460740546575
 31
0.0
  0
LINE
  5
837
330
1F
100
AcDbEntity
  8
0
100
AcDbLine
 10
168.0169066537903
 20
236.1071250546575
 30
0.0
 11
168.8924146537904
 21
235.5269350546575
 31
0.0
  0
LINE
  5
838
330
1F
100
AcDbEntity
  8
0
100
AcDbLine
 10
168.8924146537904
 20
235.9460740546575
 30
0.0
 11
168.8924146537904
 21
235.5269350546575
 31
0.0
  0
LINE
  5
839
330
1F
100
AcDbEntity
  8
0
100
AcDbLine
 10
173.6243436537903
 20
231.8071250546576
 30
0.0
 11
174.3743436537903
 21
231.8071250546576
 31
0.0
  0
LINE
  5
83A
330
1F
100
AcDbEntity
  8
0
100
AcDbLine
 10
173.4743436537903
 20
235.1172602502795
 30
0.0
 11
173.4743436537903
 21
232.3571250546575
 31
0.0
  0
LINE
  5
83B
330
1F
100
AcDbEntity
  8
0
100
AcDbLine
 10
173.6243436537903
 20
233.2671250546576
 30
0.0
 11
173.4743436537903
 21
233.2671250546576
 31
0.0
  0
LINE
  5
83C
330
1F
100
AcDbEntity
  8
0
100
AcDbLine
 10
173.6243436537903
 20
233.8671250546578
 30
0.0
 11
173.4743436537903
 21
233.8671250546576
 31
0.0
  0
LINE
  5
842
330
1F
100
AcDbEntity
  8
0
100
AcDbLine
 10
168.0169066214362
 20
236.1071250546575
 30
0.0
 11
168.8924151139449
 21
235.5269350224318
 31
0.0
  0
LINE
  5
843
330
1F
100
AcDbEntity
  8
0
100
AcDbLine
 10
168.8924151139449
 20
235.9460745784947
 30
0.0
 11
168.8924151139449
 21
235.5269350224318
 31
0.0
  0
LINE
  5
845
330
1F
100
AcDbEntity
  8
0
100
AcDbLine
 10
168.8924151139449
 20
235.9460745784947
 30
0.0
 11
171.7259495619796
 21
235.9460745784947
 31
0.0
  0
LINE
  5
846
330
1F
100
AcDbEntity
  8
0
100
AcDbLine
 10
173.6243436537904
 20
236.1071250546575
 30
0.0
 11
173.6243436537903
 21
231.8071250546576
 31
0.0
  0
LINE
  5
84D
330
1F
100
AcDbEntity
  8
0
100
AcDbLine
 10
171.7259495619796
 20
236.2681755308169
 30
0.0
 11
171.7259495619796
 21
235.9460745784947
 31
0.0
  0
LINE
  5
84E
330
1F
100
AcDbEntity
  8
0
100
AcDbLine
 10
168.8924151139449
 20
236.6873150868833
 30
0.0
 11
168.8924151139449
 21
236.2681755308169
 31
0.0
  0
LINE
  5
84F
330
1F
100
AcDbEntity
  8
0
100
AcDbLine
 10
168.0169066214362
 20
236.1071250546575
 30
0.0
 11
168.8924151139449
 21
236.6873150868833
 31
0.0
  0
LINE
  5
850
330
1F
100
AcDbEntity
  8
0
100
AcDbLine
 10
168.8924151139449
 20
236.2681755308169
 30
0.0
 11
171.7259495619796
 21
236.2681755308169
 31
0.0
  0
CIRCLE
  5
852
330
1F
100
AcDbEntity
  8
0
100
AcDbCircle
 10
169.9243436537904
 20
236.1071250546575
 30
0.0
 40
1.907437032355004
  0
LINE
  5
853
330
1F
100
AcDbEntity
  8
0
100
AcDbLine
 10
168.8924146537904
 20
236.2681750546578
 30
0.0
 11
171.7259496537903
 21
236.2681750546578
 31
0.0
  0
LINE
  5
854
330
1F
100
AcDbEntity
  8
0
100
AcDbLine
 10
168.8924146537904
 20
236.6873150546575
 30
0.0
 11
168.8924146537904
 21
236.2681750546578
 31
0.0
  0
LINE
  5
855
330
1F
100
AcDbEntity
  8
0
100
AcDbLine
 10
168.0169066537903
 20
236.1071250546575
 30
0.0
 11
168.8924146537904
 21
236.6873150546575
 31
0.0
  0
LINE
  5
856
330
1F
100
AcDbEntity
  8
0
100
AcDbLine
 10
171.7259496537903
 20
236.2681750546578
 30
0.0
 11
171.7259496537903
 21
235.9460740546575
 31
0.0
  0
LINE
  5
857
330
1F
100
AcDbEntity
  8
0
100
AcDbLine
 10
175.4743436537905
 20
286.3881370546573
 30
0.0
 11
175.4743436537905
 21
284.7881370546573
 31
0.0
  0
LINE
  5
858
330
1F
100
AcDbEntity
  8
0
100
AcDbLine
 10
175.2743436537905
 20
284.2331380546576
 30
0.0
 11
176.8743436537905
 21
284.2331380546576
 31
0.0
  0
LINE
  5
859
330
1F
100
AcDbEntity
  8
0
100
AcDbLine
 10
175.4743436537905
 20
286.3881370546573
 30
0.0
 11
176.5743436537905
 21
286.3881370546573
 31
0.0
  0
LINE
  5
85A
330
1F
100
AcDbEntity
  8
0
100
AcDbLine
 10
175.4743436537905
 20
286.3881370546573
 30
0.0
 11
176.5743436537905
 21
286.3881370546573
 31
0.0
  0
LINE
  5
85B
330
1F
100
AcDbEntity
  8
0
100
AcDbLine
 10
175.4743436537905
 20
284.7881370546573
 30
0.0
 11
176.5743436537905
 21
284.7881370546573
 31
0.0
  0
LINE
  5
85C
330
1F
100
AcDbEntity
  8
0
100
AcDbLine
 10
175.4743436537905
 20
284.7881370546573
 30
0.0
 11
176.5743436537905
 21
284.7881370546573
 31
0.0
  0
LINE
  5
85D
330
1F
100
AcDbEntity
  8
0
100
AcDbLine
 10
176.5743436537905
 20
284.7881370546573
 30
0.0
 11
176.5743436537905
 21
286.3881370546573
 31
0.0
  0
LINE
  5
85E
330
1F
100
AcDbEntity
  8
0
100
AcDbLine
 10
176.5743436537905
 20
284.7881370546573
 30
0.0
 11
176.5743436537905
 21
286.3881370546573
 31
0.0
  0
LINE
  5
85F
330
1F
100
AcDbEntity
  8
0
100
AcDbLine
 10
176.5743436537905
 20
284.7881370546573
 30
0.0
 11
176.5743436537905
 21
286.3881370546573
 31
0.0
  0
LINE
  5
860
330
1F
100
AcDbEntity
  8
0
100
AcDbLine
 10
175.2743436537905
 20
286.9331380546576
 30
0.0
 11
176.8743436537905
 21
286.9331380546576
 31
0.0
  0
LINE
  5
861
330
1F
100
AcDbEntity
  8
0
100
AcDbLine
 10
175.2743436537905
 20
286.9331380546576
 30
0.0
 11
175.2743436537905
 21
284.2331380546576
 31
0.0
  0
LINE
  5
862
330
1F
100
AcDbEntity
  8
0
100
AcDbLine
 10
176.8743436537905
 20
284.2331380546576
 30
0.0
 11
176.8743436537905
 21
286.9331380546576
 31
0.0
  0
LINE
  5
863
330
1F
100
AcDbEntity
  8
外枠
100
AcDbLine
 10
168.8743436537903
 20
210.0771103956045
 30
0.0
 11
173.8743436537903
 21
210.0771103956045
 31
0.0
  0
LINE
  5
864
330
1F
100
AcDbEntity
  8
0
100
AcDbLine
 10
168.8743436537903
 20
192.1771103956048
 30
0.0
 11
173.8743436537903
 21
192.1771103956048
 31
0.0
  0
LINE
  5
865
330
1F
100
AcDbEntity
  8
外枠
100
AcDbLine
 10
168.8743436537903
 20
192.1771103956048
 30
0.0
 11
173.8743436537903
 21
192.1771103956048
 31
0.0
  0
LINE
  5
866
330
1F
100
AcDbEntity
  8
外枠
100
AcDbLine
 10
173.8743436537903
 20
190.2531370546573
 30
0.0
 11
173.8743436537903
 21
192.1771103956048
 31
0.0
  0
LINE
  5
867
330
1F
100
AcDbEntity
  8
外枠
100
AcDbLine
 10
173.8743436537903
 20
210.0771103956045
 30
0.0
 11
173.8743436537903
 21
211.6571250546575
 31
0.0
  0
LINE
  5
868
330
1F
100
AcDbEntity
  8
外枠
100
AcDbLine
 10
173.8743436537903
 20
225.6571250546576
 30
0.0
 11
173.8743436537903
 21
226.4071250546575
 31
0.0
  0
LINE
  5
869
330
1F
100
AcDbEntity
  8
外枠
100
AcDbLine
 10
173.8743436537903
 20
231.4071250546576
 30
0.0
 11
173.8743436537903
 21
231.8071250546576
 31
0.0
  0
LINE
  5
86A
330
1F
100
AcDbEntity
  8
0
 62
     0
100
AcDbLine
 10
169.9743870537934
 20
244.5114430171023
 30
0.0
 11
169.9743870537971
 21
276.8114466170999
 31
0.0
  0
LWPOLYLINE
  5
86B
330
1F
100
AcDbEntity
  8
0
 62
     0
100
AcDbPolyline
 90
        4
 70
     0
 43
0.0
 38
6.483974233579615E+99
 10
168.3043870537933
 20
253.5418370116649
 42
0.0023806128275623
 10
168.4543696430665
 20
253.483833760948
 10
168.5288803573041
 20
253.4556063270875
 10
168.6043870537943
 20
253.4273788942473
  0
LWPOLYLINE
  5
86C
330
1F
100
AcDbEntity
  8
0
 62
     0
100
AcDbPolyline
 90
        4
 70
     0
 43
0.0
 38
6.483974233579615E+99
 10
168.6043870537943
 20
257.7355107399553
 42
0.0021758545420031
 10
168.4543696429775
 20
257.67905587322
 10
168.378604770951
 20
257.649958377059
 10
168.3043870537933
 20
257.6210526225376
  0
LWPOLYLINE
  5
86D
330
1F
100
AcDbEntity
  8
0
 62
     0
100
AcDbPolyline
 90
        4
 70
     0
 43
0.0
 38
6.483974233579615E+99
 10
168.3043870537933
 20
248.4618370116631
 42
0.0023727238869481
 10
168.4543696429775
 20
248.4038337609827
 10
168.5291726549023
 20
248.3754963318888
 10
168.6043870537943
 20
248.3473788942474
  0
LWPOLYLINE
  5
86E
330
1F
100
AcDbEntity
  8
0
 62
     0
100
AcDbPolyline
 90
        4
 70
     0
 43
0.0
 38
6.483974233579615E+99
 10
168.3043870537933
 20
268.7818370116647
 42
0.0023806128392038
 10
168.4543696430665
 20
268.7238337609496
 10
168.5288803573023
 20
268.695606327089
 10
168.6043870537943
 20
268.667378894247
  0
LWPOLYLINE
  5
86F
330
1F
100
AcDbEntity
  8
0
 62
     0
100
AcDbPolyline
 90
        4
 70
     0
 43
0.0
 38
6.483974233579615E+99
 10
168.6043870537943
 20
272.975510739955
 42
0.0021758545422339
 10
168.4543696429775
 20
272.9190558732198
 10
168.3786048265049
 20
272.8899583985448
 10
168.3043870537933
 20
272.8610526225393
  0
LWPOLYLINE
  5
870
330
1F
100
AcDbEntity
  8
0
 62
     0
100
AcDbPolyline
 90
        4
 70
     0
 43
0.0
 38
6.483974233579615E+99
 10
168.6043870537943
 20
267.8955107399551
 42
0.002175854542198
 10
168.4543696429775
 20
267.8390558732199
 10
168.3788526633982
 20
267.8100542475267
 10
168.3043870537933
 20
267.7810526225375
  0
LWPOLYLINE
  5
871
330
1F
100
AcDbEntity
  8
0
 62
     0
100
AcDbPolyline
 90
        4
 70
     0
 43
0.0
 38
6.483974233579615E+99
 10
168.3043870537933
 20
263.7018370116646
 42
0.0023806133042224
 10
168.4543696430665
 20
263.6438337609479
 10
168.5288803573023
 20
263.615606327089
 10
168.6043870537943
 20
263.587378894249
  0
LWPOLYLINE
  5
872
330
1F
100
AcDbEntity
  8
0
 62
     0
100
AcDbPolyline
 90
        4
 70
     0
 43
0.0
 38
6.483974233579615E+99
 10
168.6043870537943
 20
262.8155107399551
 42
0.0021842864522573
 10
168.4543696429775
 20
262.7590558732198
 10
168.3786047642354
 20
262.7299583744616
 10
168.3043870537933
 20
262.7010526225394
  0
LWPOLYLINE
  5
873
330
1F
100
AcDbEntity
  8
0
 62
     0
100
AcDbPolyline
 90
        4
 70
     0
 43
0.0
 38
6.483974233579615E+99
 10
168.3043870537933
 20
258.6218370116648
 42
0.0023727238881048
 10
168.4543696430665
 20
258.5638337609498
 10
168.5288803573023
 20
258.5356063270891
 10
168.6043870537943
 20
258.5073788942471
  0
LINE
  5
874
330
1F
100
AcDbEntity
  8
0
 62
     0
100
AcDbLine
 10
169.9743870537934
 20
261.3614448171001
 30
0.0
 11
169.9743870537934
 21
262.1614448171011
 31
0.0
  0
LINE
  5
875
330
1F
100
AcDbEntity
  8
0
 62
     0
100
AcDbLine
 10
161.4012257492469
 20
261.2664448171008
 30
0.0
 11
161.8743870537947
 21
261.6364448171016
 31
0.0
  0
LINE
  5
876
330
1F
100
AcDbEntity
  8
0
 62
     0
100
AcDbLine
 10
162.6993870537936
 20
261.6364448171016
 30
0.0
 11
163.0109941966512
 21
261.3054559978836
 31
0.0
  0
LINE
  5
877
330
1F
100
AcDbEntity
  8
0
 62
     0
100
AcDbLine
 10
163.0109941966512
 20
261.3054559978836
 30
0.0
 11
163.0109941966512
 21
265.0974336363187
 31
0.0
  0
ARC
  5
878
330
1F
100
AcDbEntity
  8
0
 62
     0
100
AcDbCircle
 10
166.1043870537944
 20
260.6614448171011
 30
0.0
 40
3.299999999999366
100
AcDbArc
 50
319.25094562257
 51
40.74905437742993
  0
ARC
  5
879
330
1F
100
AcDbEntity
  8
0
 62
     0
100
AcDbCircle
 10
166.1043870537944
 20
260.6614448171011
 30
0.0
 40
2.999999999999353
100
AcDbArc
 50
317.1665719339523
 51
42.83342806604767
  0
CIRCLE
  5
87A
330
1F
100
AcDbEntity
  8
0
 62
     0
100
AcDbCircle
 10
166.1043870537944
 20
260.6614448171011
 30
0.0
 40
1.40000000000061
  0
LINE
  5
87B
330
1F
100
AcDbEntity
  8
0
 62
     0
100
AcDbLine
 10
161.3743870537948
 20
246.9614448171023
 30
0.0
 11
161.3743870537948
 21
274.3614448171001
 31
0.0
  0
LINE
  5
87C
330
1F
100
AcDbEntity
  8
0
 62
     0
100
AcDbLine
 10
169.9743870537934
 20
254.8814448171006
 30
0.0
 11
169.9743870537934
 21
256.281444817102
 31
0.0
  0
LINE
  5
87D
330
1F
100
AcDbEntity
  8
0
 62
     0
100
AcDbLine
 10
169.9743870537934
 20
256.281444817102
 30
0.0
 11
169.9743870537934
 21
257.0814448171013
 31
0.0
  0
LINE
  5
87E
330
1F
100
AcDbEntity
  8
0
 62
     0
100
AcDbLine
 10
169.9743870537934
 20
259.1614448171012
 30
0.0
 11
169.9743870537934
 21
259.9614448171022
 31
0.0
  0
LINE
  5
87F
330
1F
100
AcDbEntity
  8
0
 62
     0
100
AcDbLine
 10
169.9743870537934
 20
257.0814448171013
 30
0.0
 11
169.9743870537934
 21
259.1614448171012
 31
0.0
  0
LINE
  5
880
330
1F
100
AcDbEntity
  8
0
 62
     0
100
AcDbLine
 10
169.9743870537934
 20
259.9614448171022
 30
0.0
 11
169.9743870537934
 21
261.3614448171001
 31
0.0
  0
LINE
  5
881
330
1F
100
AcDbEntity
  8
0
 62
     0
100
AcDbLine
 10
169.9743870537934
 20
249.0014448171014
 30
0.0
 11
169.9743870537934
 21
249.8014448171025
 31
0.0
  0
LINE
  5
882
330
1F
100
AcDbEntity
  8
0
 62
     0
100
AcDbLine
 10
169.9743870537934
 20
251.2014448171003
 30
0.0
 11
169.9743870537934
 21
252.0014448171014
 31
0.0
  0
LINE
  5
883
330
1F
100
AcDbEntity
  8
0
 62
     0
100
AcDbLine
 10
169.9743870537934
 20
254.0814448171013
 30
0.0
 11
169.9743870537934
 21
254.8814448171006
 31
0.0
  0
LINE
  5
884
330
1F
100
AcDbEntity
  8
0
 62
     0
100
AcDbLine
 10
169.9743870537934
 20
252.0014448171014
 30
0.0
 11
169.9743870537934
 21
254.0814448171013
 31
0.0
  0
LINE
  5
885
330
1F
100
AcDbEntity
  8
0
 62
     0
100
AcDbLine
 10
169.9743870537934
 20
249.8014448171025
 30
0.0
 11
169.9743870537934
 21
251.2014448171003
 31
0.0
  0
LINE
  5
886
330
1F
100
AcDbEntity
  8
0
 62
     0
100
AcDbLine
 10
163.0109941966512
 20
256.1864448171009
 30
0.0
 11
163.0109941966512
 21
254.9764448171016
 31
0.0
  0
LINE
  5
887
330
1F
100
AcDbEntity
  8
0
 62
     0
100
AcDbLine
 10
161.4012257492469
 20
256.1864448171009
 30
0.0
 11
161.4012257492469
 21
254.9764448171016
 31
0.0
  0
LINE
  5
888
330
1F
100
AcDbEntity
  8
0
 62
     0
100
AcDbLine
 10
166.3364378613624
 20
255.8134956246695
 30
0.0
 11
166.3364378613624
 21
255.349394009533
 31
0.0
  0
LINE
  5
889
330
1F
100
AcDbEntity
  8
0
 62
     0
100
AcDbLine
 10
165.8723362462261
 20
255.8134956246695
 30
0.0
 11
165.8723362462261
 21
255.349394009533
 31
0.0
  0
LINE
  5
88A
330
1F
100
AcDbEntity
  8
0
 62
     0
100
AcDbLine
 10
165.6043870537944
 20
256.0814448171013
 30
0.0
 11
165.6043870537944
 21
255.0814448171013
 31
0.0
  0
LINE
  5
88B
330
1F
100
AcDbEntity
  8
0
 62
     0
100
AcDbLine
 10
166.6043870537944
 20
255.0814448171013
 30
0.0
 11
166.6043870537944
 21
256.0814448171013
 31
0.0
  0
CIRCLE
  5
88C
330
1F
100
AcDbEntity
  8
0
 62
     0
100
AcDbCircle
 10
166.1043870537944
 20
255.5814448171013
 30
0.0
 40
1.399999999999991
  0
ARC
  5
88D
330
1F
100
AcDbEntity
  8
0
 62
     0
100
AcDbCircle
 10
166.1043870537944
 20
255.5814448171013
 30
0.0
 40
2.999999999999806
100
AcDbArc
 50
317.1665719339523
 51
42.83342806604767
  0
ARC
  5
88E
330
1F
100
AcDbEntity
  8
0
 62
     0
100
AcDbCircle
 10
166.1043870537944
 20
255.5814448171013
 30
0.0
 40
3.299999999999816
100
AcDbArc
 50
319.25094562257
 51
40.74905437742993
  0
LINE
  5
88F
330
1F
100
AcDbEntity
  8
0
 62
     0
100
AcDbLine
 10
161.4012257492469
 20
256.1864448171009
 30
0.0
 11
161.8743870537947
 21
256.5564448171016
 31
0.0
  0
LINE
  5
890
330
1F
100
AcDbEntity
  8
0
 62
     0
100
AcDbLine
 10
163.0109941966512
 20
256.2254559978836
 30
0.0
 11
163.0109941966512
 21
256.1864448171009
 31
0.0
  0
LINE
  5
891
330
1F
100
AcDbEntity
  8
0
 62
     0
100
AcDbLine
 10
162.6993870537936
 20
256.5564448171016
 30
0.0
 11
163.0109941966512
 21
256.2254559978836
 31
0.0
  0
LINE
  5
892
330
1F
100
AcDbEntity
  8
0
 62
     0
100
AcDbLine
 10
161.8743870537947
 20
256.5564448171016
 30
0.0
 11
162.6993870537936
 21
256.5564448171016
 31
0.0
  0
LINE
  5
893
330
1F
100
AcDbEntity
  8
0
 62
     0
100
AcDbLine
 10
163.0109941966512
 20
256.1864448171009
 30
0.0
 11
161.4012257492469
 21
256.1864448171009
 31
0.0
  0
LINE
  5
894
330
1F
100
AcDbEntity
  8
0
 62
     0
100
AcDbLine
 10
161.4012257492469
 20
260.0564448171017
 30
0.0
 11
161.8743870537947
 21
259.6864448171008
 31
0.0
  0
LINE
  5
895
330
1F
100
AcDbEntity
  8
0
 62
     0
100
AcDbLine
 10
163.0109941966512
 20
260.0174336363187
 30
0.0
 11
162.6993870537936
 21
259.6864448171008
 31
0.0
  0
LINE
  5
896
330
1F
100
AcDbEntity
  8
0
 62
     0
100
AcDbLine
 10
163.0109941966512
 20
260.0564448171017
 30
0.0
 11
163.0109941966512
 21
260.0174336363187
 31
0.0
  0
LINE
  5
897
330
1F
100
AcDbEntity
  8
0
 62
     0
100
AcDbLine
 10
161.8743870537947
 20
259.6864448171008
 30
0.0
 11
162.6993870537936
 21
259.6864448171008
 31
0.0
  0
LINE
  5
898
330
1F
100
AcDbEntity
  8
0
 62
     0
100
AcDbLine
 10
161.4012257492469
 20
260.0564448171017
 30
0.0
 11
163.0109941966512
 21
260.0564448171017
 31
0.0
  0
LINE
  5
899
330
1F
100
AcDbEntity
  8
0
 62
     0
100
AcDbLine
 10
163.0109941966512
 20
256.2254559978836
 30
0.0
 11
163.0109941966512
 21
260.0174336363187
 31
0.0
  0
LINE
  5
89A
330
1F
100
AcDbEntity
  8
0
 62
     0
100
AcDbLine
 10
161.8743870537947
 20
256.5564448171016
 30
0.0
 11
161.8743870537947
 21
259.6864448171008
 31
0.0
  0
LINE
  5
89B
330
1F
100
AcDbEntity
  8
0
 62
     0
100
AcDbLine
 10
162.6993870537936
 20
256.5564448171016
 30
0.0
 11
162.6993870537936
 21
259.6864448171008
 31
0.0
  0
LINE
  5
89C
330
1F
100
AcDbEntity
  8
0
 62
     0
100
AcDbLine
 10
165.8723362462261
 20
255.8134956246695
 30
0.0
 11
165.6043870537944
 21
256.0814448171013
 31
0.0
  0
LINE
  5
89D
330
1F
100
AcDbEntity
  8
0
 62
     0
100
AcDbLine
 10
165.6043870537944
 20
260.1614448171011
 30
0.0
 11
165.8723362462261
 21
260.4293940095311
 31
0.0
  0
LINE
  5
89E
330
1F
100
AcDbEntity
  8
0
 62
     0
100
AcDbLine
 10
166.3364378613624
 20
255.8134956246695
 30
0.0
 11
166.6043870537944
 21
256.0814448171013
 31
0.0
  0
LINE
  5
89F
330
1F
100
AcDbEntity
  8
0
 62
     0
100
AcDbLine
 10
166.3364378613624
 20
260.4293940095311
 30
0.0
 11
166.6043870537944
 21
260.1614448171011
 31
0.0
  0
LINE
  5
8A0
330
1F
100
AcDbEntity
  8
0
 62
     0
100
AcDbLine
 10
168.3043870537933
 20
257.6210526225376
 30
0.0
 11
168.3043870537933
 21
258.6218370116648
 31
0.0
  0
LINE
  5
8A1
330
1F
100
AcDbEntity
  8
0
 62
     0
100
AcDbLine
 10
168.6043870537943
 20
257.7355107399553
 30
0.0
 11
168.6043870537943
 21
258.5073788942471
 31
0.0
  0
LINE
  5
8A2
330
1F
100
AcDbEntity
  8
0
 62
     0
100
AcDbLine
 10
166.8543870537944
 20
258.3224067114251
 30
0.0
 11
166.8543870537944
 21
257.9204829227791
 31
0.0
  0
LINE
  5
8A3
330
1F
100
AcDbEntity
  8
0
 62
     0
100
AcDbLine
 10
165.8723362462261
 20
255.8134956246695
 30
0.0
 11
166.3364378613624
 21
255.8134956246695
 31
0.0
  0
LINE
  5
8A4
330
1F
100
AcDbEntity
  8
0
 62
     0
100
AcDbLine
 10
165.6043870537944
 20
256.0814448171013
 30
0.0
 11
166.6043870537944
 21
256.0814448171013
 31
0.0
  0
LINE
  5
8A5
330
1F
100
AcDbEntity
  8
0
 62
     0
100
AcDbLine
 10
165.8723362462261
 20
260.4293940095311
 30
0.0
 11
166.3364378613624
 21
260.4293940095311
 31
0.0
  0
LINE
  5
8A6
330
1F
100
AcDbEntity
  8
0
 62
     0
100
AcDbLine
 10
165.6043870537944
 20
260.1614448171011
 30
0.0
 11
166.6043870537944
 21
260.1614448171011
 31
0.0
  0
LINE
  5
8A7
330
1F
100
AcDbEntity
  8
0
 62
     0
100
AcDbLine
 10
166.8543870537944
 20
257.9204829227791
 30
0.0
 11
166.1043870537944
 21
258.1214448171022
 31
0.0
  0
LINE
  5
8A8
330
1F
100
AcDbEntity
  8
0
 62
     0
100
AcDbLine
 10
166.1043870537944
 20
258.1214448171022
 30
0.0
 11
166.8543870537944
 21
258.3224067114251
 31
0.0
  0
LINE
  5
8A9
330
1F
100
AcDbEntity
  8
0
 62
     0
100
AcDbLine
 10
163.0109941966512
 20
261.3054559978836
 30
0.0
 11
163.0109941966512
 21
261.2664448171008
 31
0.0
  0
LINE
  5
8AA
330
1F
100
AcDbEntity
  8
0
 62
     0
100
AcDbLine
 10
163.0109941966512
 20
261.2664448171008
 30
0.0
 11
161.4012257492469
 21
261.2664448171008
 31
0.0
  0
LINE
  5
8AB
330
1F
100
AcDbEntity
  8
0
 62
     0
100
AcDbLine
 10
165.8723362462261
 20
260.8934956246711
 30
0.0
 11
165.6043870537944
 21
261.1614448171012
 31
0.0
  0
LINE
  5
8AC
330
1F
100
AcDbEntity
  8
0
 62
     0
100
AcDbLine
 10
166.3364378613624
 20
260.8934956246711
 30
0.0
 11
166.6043870537944
 21
261.1614448171012
 31
0.0
  0
LINE
  5
8AD
330
1F
100
AcDbEntity
  8
0
 62
     0
100
AcDbLine
 10
165.8723362462261
 20
260.8934956246711
 30
0.0
 11
166.3364378613624
 21
260.8934956246711
 31
0.0
  0
LINE
  5
8AE
330
1F
100
AcDbEntity
  8
0
 62
     0
100
AcDbLine
 10
165.6043870537944
 20
261.1614448171012
 30
0.0
 11
166.6043870537944
 21
261.1614448171012
 31
0.0
  0
LINE
  5
8AF
330
1F
100
AcDbEntity
  8
0
 62
     0
100
AcDbLine
 10
165.6043870537944
 20
260.1614448171011
 30
0.0
 11
165.6043870537944
 21
261.1614448171012
 31
0.0
  0
LINE
  5
8B0
330
1F
100
AcDbEntity
  8
0
 62
     0
100
AcDbLine
 10
165.8723362462261
 20
260.8934956246711
 30
0.0
 11
165.8723362462261
 21
260.4293940095311
 31
0.0
  0
LINE
  5
8B1
330
1F
100
AcDbEntity
  8
0
 62
     0
100
AcDbLine
 10
166.3364378613624
 20
260.4293940095311
 30
0.0
 11
166.3364378613624
 21
260.8934956246711
 31
0.0
  0
LINE
  5
8B2
330
1F
100
AcDbEntity
  8
0
 62
     0
100
AcDbLine
 10
166.6043870537944
 20
260.1614448171011
 30
0.0
 11
166.6043870537944
 21
261.1614448171012
 31
0.0
  0
LINE
  5
8B3
330
1F
100
AcDbEntity
  8
0
 62
     0
100
AcDbLine
 10
163.0109941966512
 20
261.2664448171008
 30
0.0
 11
163.0109941966512
 21
260.0564448171017
 31
0.0
  0
LINE
  5
8B4
330
1F
100
AcDbEntity
  8
0
 62
     0
100
AcDbLine
 10
161.4012257492469
 20
260.0564448171017
 30
0.0
 11
161.4012257492469
 21
261.2664448171008
 31
0.0
  0
LINE
  5
8B5
330
1F
100
AcDbEntity
  8
0
 62
     0
100
AcDbLine
 10
163.0109941966512
 20
247.9614448171023
 30
0.0
 11
162.6993870537936
 21
247.9614448171023
 31
0.0
  0
LINE
  5
8B6
330
1F
100
AcDbEntity
  8
0
 62
     0
100
AcDbLine
 10
161.8743870537947
 20
249.5264448171009
 30
0.0
 11
161.4012257492469
 21
249.8964448170999
 31
0.0
  0
LINE
  5
8B7
330
1F
100
AcDbEntity
  8
0
 62
     0
100
AcDbLine
 10
163.0109941966512
 20
249.8964448170999
 30
0.0
 11
163.0109941966512
 21
249.857433636319
 31
0.0
  0
LINE
  5
8B8
330
1F
100
AcDbEntity
  8
0
 62
     0
100
AcDbLine
 10
163.0109941966512
 20
249.857433636319
 30
0.0
 11
162.6993870537936
 21
249.5264448171009
 31
0.0
  0
LINE
  5
8B9
330
1F
100
AcDbEntity
  8
0
 62
     0
100
AcDbLine
 10
161.4012257492469
 20
249.8964448170999
 30
0.0
 11
163.0109941966512
 21
249.8964448170999
 31
0.0
  0
LINE
  5
8BA
330
1F
100
AcDbEntity
  8
0
 62
     0
100
AcDbLine
 10
162.6993870537936
 20
249.5264448171009
 30
0.0
 11
161.8743870537947
 21
249.5264448171009
 31
0.0
  0
LINE
  5
8BB
330
1F
100
AcDbEntity
  8
0
 62
     0
100
AcDbLine
 10
163.0109941966512
 20
247.9614448171023
 30
0.0
 11
163.0109941966512
 21
249.857433636319
 31
0.0
  0
LINE
  5
8BC
330
1F
100
AcDbEntity
  8
0
 62
     0
100
AcDbLine
 10
162.6993870537936
 20
249.5264448171009
 30
0.0
 11
162.6993870537936
 21
247.9614448171023
 31
0.0
  0
LINE
  5
8BD
330
1F
100
AcDbEntity
  8
0
 62
     0
100
AcDbLine
 10
165.6043870537944
 20
250.0014448171014
 30
0.0
 11
165.8723362462261
 21
250.2693940095313
 31
0.0
  0
LINE
  5
8BE
330
1F
100
AcDbEntity
  8
0
 62
     0
100
AcDbLine
 10
165.8723362462261
 20
250.7334956246713
 30
0.0
 11
165.8723362462261
 21
250.2693940095313
 31
0.0
  0
LINE
  5
8BF
330
1F
100
AcDbEntity
  8
0
 62
     0
100
AcDbLine
 10
168.3043870537933
 20
247.9614448171023
 30
0.0
 11
168.6043870537943
 21
247.9614448171023
 31
0.0
  0
LINE
  5
8C0
330
1F
100
AcDbEntity
  8
0
 62
     0
100
AcDbLine
 10
168.6043870537943
 20
248.3473788942474
 30
0.0
 11
168.6043870537943
 21
247.9614448171023
 31
0.0
  0
LINE
  5
8C1
330
1F
100
AcDbEntity
  8
0
 62
     0
100
AcDbLine
 10
166.3364378613624
 20
250.2693940095313
 30
0.0
 11
166.6043870537944
 21
250.0014448171014
 31
0.0
  0
LINE
  5
8C2
330
1F
100
AcDbEntity
  8
0
 62
     0
100
AcDbLine
 10
166.3364378613624
 20
250.2693940095313
 30
0.0
 11
166.3364378613624
 21
250.7334956246713
 31
0.0
  0
LINE
  5
8C3
330
1F
100
AcDbEntity
  8
0
 62
     0
100
AcDbLine
 10
168.3043870537933
 20
247.9614448171023
 30
0.0
 11
168.3043870537933
 21
248.4618370116631
 31
0.0
  0
LINE
  5
8C4
330
1F
100
AcDbEntity
  8
0
 62
     0
100
AcDbLine
 10
166.6043870537944
 20
250.0014448171014
 30
0.0
 11
165.6043870537944
 21
250.0014448171014
 31
0.0
  0
LINE
  5
8C5
330
1F
100
AcDbEntity
  8
0
 62
     0
100
AcDbLine
 10
166.3364378613624
 20
250.2693940095313
 30
0.0
 11
165.8723362462261
 21
250.2693940095313
 31
0.0
  0
LINE
  5
8C6
330
1F
100
AcDbEntity
  8
0
 62
     0
100
AcDbLine
 10
165.8723362462261
 20
250.7334956246713
 30
0.0
 11
166.3364378613624
 21
250.7334956246713
 31
0.0
  0
LINE
  5
8C7
330
1F
100
AcDbEntity
  8
0
 62
     0
100
AcDbLine
 10
164.8919514884948
 20
249.8014448171025
 30
0.0
 11
167.3168226190921
 21
249.8014448171025
 31
0.0
  0
LINE
  5
8C8
330
1F
100
AcDbEntity
  8
0
 62
     0
100
AcDbLine
 10
163.0109941966512
 20
247.9614448171023
 30
0.0
 11
168.3043870537933
 21
247.9614448171023
 31
0.0
  0
LINE
  5
8C9
330
1F
100
AcDbEntity
  8
0
 62
     0
100
AcDbLine
 10
161.4012257492469
 20
251.1064448171008
 30
0.0
 11
161.8743870537947
 21
251.4764448171016
 31
0.0
  0
LINE
  5
8CA
330
1F
100
AcDbEntity
  8
0
 62
     0
100
AcDbLine
 10
163.0109941966512
 20
251.1454559978818
 30
0.0
 11
163.0109941966512
 21
251.1064448171008
 31
0.0
  0
LINE
  5
8CB
330
1F
100
AcDbEntity
  8
0
 62
     0
100
AcDbLine
 10
162.6993870537936
 20
251.4764448171016
 30
0.0
 11
163.0109941966512
 21
251.1454559978818
 31
0.0
  0
LINE
  5
8CC
330
1F
100
AcDbEntity
  8
0
 62
     0
100
AcDbLine
 10
161.8743870537947
 20
251.4764448171016
 30
0.0
 11
162.6993870537936
 21
251.4764448171016
 31
0.0
  0
LINE
  5
8CD
330
1F
100
AcDbEntity
  8
0
 62
     0
100
AcDbLine
 10
163.0109941966512
 20
251.1064448171008
 30
0.0
 11
161.4012257492469
 21
251.1064448171008
 31
0.0
  0
LINE
  5
8CE
330
1F
100
AcDbEntity
  8
0
 62
     0
100
AcDbLine
 10
161.4012257492469
 20
254.9764448171016
 30
0.0
 11
161.8743870537947
 21
254.6064448171009
 31
0.0
  0
LINE
  5
8CF
330
1F
100
AcDbEntity
  8
0
 62
     0
100
AcDbLine
 10
163.0109941966512
 20
254.9764448171016
 30
0.0
 11
163.0109941966512
 21
254.9374336363189
 31
0.0
  0
LINE
  5
8D0
330
1F
100
AcDbEntity
  8
0
 62
     0
100
AcDbLine
 10
163.0109941966512
 20
254.9374336363189
 30
0.0
 11
162.6993870537936
 21
254.6064448171009
 31
0.0
  0
LINE
  5
8D1
330
1F
100
AcDbEntity
  8
0
 62
     0
100
AcDbLine
 10
161.4012257492469
 20
254.9764448171016
 30
0.0
 11
163.0109941966512
 21
254.9764448171016
 31
0.0
  0
LINE
  5
8D2
330
1F
100
AcDbEntity
  8
0
 62
     0
100
AcDbLine
 10
161.8743870537947
 20
254.6064448171009
 30
0.0
 11
162.6993870537936
 21
254.6064448171009
 31
0.0
  0
LINE
  5
8D3
330
1F
100
AcDbEntity
  8
0
 62
     0
100
AcDbLine
 10
163.0109941966512
 20
251.1454559978818
 30
0.0
 11
163.0109941966512
 21
254.9374336363189
 31
0.0
  0
LINE
  5
8D4
330
1F
100
AcDbEntity
  8
0
 62
     0
100
AcDbLine
 10
161.8743870537947
 20
251.4764448171016
 30
0.0
 11
161.8743870537947
 21
254.6064448171009
 31
0.0
  0
LINE
  5
8D5
330
1F
100
AcDbEntity
  8
0
 62
     0
100
AcDbLine
 10
162.6993870537936
 20
251.4764448171016
 30
0.0
 11
162.6993870537936
 21
254.6064448171009
 31
0.0
  0
LINE
  5
8D6
330
1F
100
AcDbEntity
  8
0
 62
     0
100
AcDbLine
 10
165.6043870537944
 20
255.0814448171013
 30
0.0
 11
165.8723362462261
 21
255.349394009533
 31
0.0
  0
LINE
  5
8D7
330
1F
100
AcDbEntity
  8
0
 62
     0
100
AcDbLine
 10
166.8543870537944
 20
253.2424067114234
 30
0.0
 11
166.8543870537944
 21
252.8404829227774
 31
0.0
  0
LWPOLYLINE
  5
8D8
330
1F
100
AcDbEntity
  8
0
 62
     0
100
AcDbPolyline
 90
        4
 70
     0
 43
0.0
 10
168.6043870537943
 20
252.6555107399553
 42
0.0021758545419443
 10
168.4543696429775
 20
252.5990558732201
 10
168.3788526634
 20
252.5700542475286
 10
168.3043870537933
 20
252.5410526225396
  0
LINE
  5
8D9
330
1F
100
AcDbEntity
  8
0
 62
     0
100
AcDbLine
 10
166.3364378613624
 20
255.349394009533
 30
0.0
 11
166.6043870537944
 21
255.0814448171013
 31
0.0
  0
LINE
  5
8DA
330
1F
100
AcDbEntity
  8
0
 62
     0
100
AcDbLine
 10
168.3043870537933
 20
252.5410526225396
 30
0.0
 11
168.3043870537933
 21
253.5418370116649
 31
0.0
  0
LINE
  5
8DB
330
1F
100
AcDbEntity
  8
0
 62
     0
100
AcDbLine
 10
168.6043870537943
 20
252.6555107399553
 30
0.0
 11
168.6043870537943
 21
253.4273788942473
 31
0.0
  0
LINE
  5
8DC
330
1F
100
AcDbEntity
  8
0
 62
     0
100
AcDbLine
 10
166.8543870537944
 20
252.8404829227774
 30
0.0
 11
166.1043870537944
 21
253.0414448171004
 31
0.0
  0
LINE
  5
8DD
330
1F
100
AcDbEntity
  8
0
 62
     0
100
AcDbLine
 10
166.1043870537944
 20
253.0414448171004
 30
0.0
 11
166.8543870537944
 21
253.2424067114234
 31
0.0
  0
LINE
  5
8DE
330
1F
100
AcDbEntity
  8
0
 62
     0
100
AcDbLine
 10
165.6043870537944
 20
251.0014448171014
 30
0.0
 11
166.6043870537944
 21
251.0014448171014
 31
0.0
  0
LINE
  5
8DF
330
1F
100
AcDbEntity
  8
0
 62
     0
100
AcDbLine
 10
166.6043870537944
 20
255.0814448171013
 30
0.0
 11
165.6043870537944
 21
255.0814448171013
 31
0.0
  0
LINE
  5
8E0
330
1F
100
AcDbEntity
  8
0
 62
     0
100
AcDbLine
 10
165.8723362462261
 20
255.349394009533
 30
0.0
 11
166.3364378613624
 21
255.349394009533
 31
0.0
  0
LINE
  5
8E1
330
1F
100
AcDbEntity
  8
0
 62
     0
100
AcDbLine
 10
165.6043870537944
 20
250.0014448171014
 30
0.0
 11
165.6043870537944
 21
251.0014448171014
 31
0.0
  0
LINE
  5
8E2
330
1F
100
AcDbEntity
  8
0
 62
     0
100
AcDbLine
 10
166.6043870537944
 20
251.0014448171014
 30
0.0
 11
166.6043870537944
 21
250.0014448171014
 31
0.0
  0
LINE
  5
8E3
330
1F
100
AcDbEntity
  8
0
 62
     0
100
AcDbLine
 10
166.3364378613624
 20
250.7334956246713
 30
0.0
 11
166.6043870537944
 21
251.0014448171014
 31
0.0
  0
LINE
  5
8E4
330
1F
100
AcDbEntity
  8
0
 62
     0
100
AcDbLine
 10
165.8723362462261
 20
250.7334956246713
 30
0.0
 11
165.6043870537944
 21
251.0014448171014
 31
0.0
  0
LINE
  5
8E5
330
1F
100
AcDbEntity
  8
0
 62
     0
100
AcDbLine
 10
163.0109941966512
 20
251.1064448171008
 30
0.0
 11
163.0109941966512
 21
249.8964448170999
 31
0.0
  0
LINE
  5
8E6
330
1F
100
AcDbEntity
  8
0
 62
     0
100
AcDbLine
 10
161.4012257492469
 20
249.8964448170999
 30
0.0
 11
161.4012257492469
 21
251.1064448171008
 31
0.0
  0
ARC
  5
8E7
330
1F
100
AcDbEntity
  8
0
 62
     0
100
AcDbCircle
 10
166.1043870537944
 20
250.5014448171014
 30
0.0
 40
1.400000000000003
100
AcDbArc
 50
329.9999999999921
 51
210.0000000000078
  0
ARC
  5
8E8
330
1F
100
AcDbEntity
  8
0
 62
     0
100
AcDbCircle
 10
166.1043870537944
 20
250.5014448171014
 30
0.0
 40
2.999999999999968
100
AcDbArc
 50
317.1665719339523
 51
42.83342806604767
  0
ARC
  5
8E9
330
1F
100
AcDbEntity
  8
0
 62
     0
100
AcDbCircle
 10
166.1043870537944
 20
250.5014448171014
 30
0.0
 40
3.299999999999986
100
AcDbArc
 50
319.25094562257
 51
40.74905437742993
  0
LINE
  5
8EA
330
1F
100
AcDbEntity
  8
0
 62
     0
100
AcDbLine
 10
161.8743870537947
 20
246.9614448171023
 30
0.0
 11
162.3043870537933
 21
246.9614448171023
 31
0.0
  0
LINE
  5
8EB
330
1F
100
AcDbEntity
  8
0
 62
     0
100
AcDbLine
 10
161.3743870537948
 20
246.9614448171023
 30
0.0
 11
161.8743870537947
 21
246.9614448171023
 31
0.0
  0
LINE
  5
8EC
330
1F
100
AcDbEntity
  8
0
 62
     0
100
AcDbLine
 10
165.9034251594714
 20
246.9614448171023
 30
0.0
 11
166.1043870537944
 21
246.9614448171023
 31
0.0
  0
LINE
  5
8ED
330
1F
100
AcDbEntity
  8
0
 62
     0
100
AcDbLine
 10
166.1043870537944
 20
246.9614448171023
 30
0.0
 11
166.3053489481173
 21
246.9614448171023
 31
0.0
  0
LINE
  5
8EE
330
1F
100
AcDbEntity
  8
0
 62
     0
100
AcDbLine
 10
162.3043870537933
 20
246.9614448171023
 30
0.0
 11
165.9034251594714
 21
246.9614448171023
 31
0.0
  0
LINE
  5
8EF
330
1F
100
AcDbEntity
  8
0
 62
     0
100
AcDbLine
 10
166.3053489481173
 20
246.9614448171023
 30
0.0
 11
169.9743870537934
 21
246.9614448171023
 31
0.0
  0
LINE
  5
8F0
330
1F
100
AcDbEntity
  8
0
 62
     0
100
AcDbLine
 10
161.8743870537947
 20
249.5264448171009
 30
0.0
 11
161.8743870537947
 21
246.9614448171023
 31
0.0
  0
LINE
  5
8F1
330
1F
100
AcDbEntity
  8
0
 62
     0
100
AcDbLine
 10
169.9743870537934
 20
246.9614448171023
 30
0.0
 11
169.9743870537934
 21
249.0014448171014
 31
0.0
  0
LINE
  5
8F2
330
1F
100
AcDbEntity
  8
0
 62
     0
100
AcDbLine
 10
169.9743870537934
 20
272.321444817101
 30
0.0
 11
169.9743870537934
 21
274.3614448171001
 31
0.0
  0
LINE
  5
8F3
330
1F
100
AcDbEntity
  8
0
 62
     0
100
AcDbLine
 10
162.3043870537934
 20
274.3614448171001
 30
0.0
 11
161.8743870537948
 21
274.3614448171001
 31
0.0
  0
LINE
  5
8F4
330
1F
100
AcDbEntity
  8
0
 62
     0
100
AcDbLine
 10
161.8743870537948
 20
274.3614448171001
 30
0.0
 11
161.3743870537948
 21
274.3614448171001
 31
0.0
  0
LINE
  5
8F5
330
1F
100
AcDbEntity
  8
0
 62
     0
100
AcDbLine
 10
163.0109941966512
 20
273.3614448171
 30
0.0
 11
162.6993870537936
 21
273.3614448171
 31
0.0
  0
LINE
  5
8F6
330
1F
100
AcDbEntity
  8
0
 62
     0
100
AcDbLine
 10
166.8246441356408
 20
274.3614448171001
 30
0.0
 11
166.6243881937938
 21
274.3614448171001
 31
0.0
  0
LINE
  5
8F7
330
1F
100
AcDbEntity
  8
0
 62
     0
100
AcDbLine
 10
167.0833381265478
 20
274.3614448171001
 30
0.0
 11
166.9331461701625
 21
274.3614448171001
 31
0.0
  0
LINE
  5
8F8
330
1F
100
AcDbEntity
  8
0
 62
     0
100
AcDbLine
 10
167.3112895387896
 20
274.3614448171001
 30
0.0
 11
167.0833381265478
 21
274.3614448171001
 31
0.0
  0
LINE
  5
8F9
330
1F
100
AcDbEntity
  8
0
 62
     0
100
AcDbLine
 10
167.4464131384304
 20
274.3614448171001
 30
0.0
 11
167.3112895387896
 21
274.3614448171001
 31
0.0
  0
LINE
  5
8FA
330
1F
100
AcDbEntity
  8
0
 62
     0
100
AcDbLine
 10
166.9331461701625
 20
274.3614448171001
 30
0.0
 11
166.8246441356408
 21
274.3614448171001
 31
0.0
  0
LINE
  5
8FB
330
1F
100
AcDbEntity
  8
0
 62
     0
100
AcDbLine
 10
168.6043870537943
 20
273.3614448171
 30
0.0
 11
168.6043870537943
 21
272.975510739955
 31
0.0
  0
LINE
  5
8FC
330
1F
100
AcDbEntity
  8
0
 62
     0
100
AcDbLine
 10
168.6043870537943
 20
273.3614448171
 30
0.0
 11
168.3043870537933
 21
273.3614448171
 31
0.0
  0
LINE
  5
8FD
330
1F
100
AcDbEntity
  8
0
 62
     0
100
AcDbLine
 10
168.0537141410553
 20
274.3614448171001
 30
0.0
 11
167.6198262670553
 21
274.3614448171001
 31
0.0
  0
LINE
  5
8FE
330
1F
100
AcDbEntity
  8
0
 62
     0
100
AcDbLine
 10
168.3622508693191
 20
274.3614448171001
 30
0.0
 11
168.2271272696801
 21
274.3614448171001
 31
0.0
  0
LINE
  5
8FF
330
1F
100
AcDbEntity
  8
0
 62
     0
100
AcDbLine
 10
168.5902022815629
 20
274.3614448171001
 30
0.0
 11
168.3622508693191
 21
274.3614448171001
 31
0.0
  0
LINE
  5
900
330
1F
100
AcDbEntity
  8
0
 62
     0
100
AcDbLine
 10
168.740394237948
 20
274.3614448171001
 30
0.0
 11
168.5902022815629
 21
274.3614448171001
 31
0.0
  0
LINE
  5
901
330
1F
100
AcDbEntity
  8
0
 62
     0
100
AcDbLine
 10
168.2271272696801
 20
274.3614448171001
 30
0.0
 11
168.0537141410553
 21
274.3614448171001
 31
0.0
  0
LINE
  5
902
330
1F
100
AcDbEntity
  8
0
 62
     0
100
AcDbLine
 10
167.6198262670553
 20
274.3614448171001
 30
0.0
 11
167.4464131384304
 21
274.3614448171001
 31
0.0
  0
LINE
  5
903
330
1F
100
AcDbEntity
  8
0
 62
     0
100
AcDbLine
 10
168.3043870537933
 20
272.8610526225393
 30
0.0
 11
168.3043870537933
 21
273.3614448171
 31
0.0
  0
LINE
  5
904
330
1F
100
AcDbEntity
  8
0
 62
     0
100
AcDbLine
 10
168.3043870537933
 20
273.3614448171
 30
0.0
 11
163.0109941966512
 21
273.3614448171
 31
0.0
  0
LINE
  5
905
330
1F
100
AcDbEntity
  8
0
 62
     0
100
AcDbLine
 10
166.6243881937938
 20
274.3614448171001
 30
0.0
 11
162.3043870537934
 21
274.3614448171001
 31
0.0
  0
LINE
  5
906
330
1F
100
AcDbEntity
  8
0
 62
     0
100
AcDbLine
 10
169.1656290774175
 20
274.3614448171001
 30
0.0
 11
169.0154371210341
 21
274.3614448171001
 31
0.0
  0
LINE
  5
907
330
1F
100
AcDbEntity
  8
0
 62
     0
100
AcDbLine
 10
169.2741311119465
 20
274.3614448171001
 30
0.0
 11
169.1656290774175
 21
274.3614448171001
 31
0.0
  0
LINE
  5
908
330
1F
100
AcDbEntity
  8
0
 62
     0
100
AcDbLine
 10
169.4743870537934
 20
274.3614448171001
 30
0.0
 11
169.2741311119465
 21
274.3614448171001
 31
0.0
  0
LINE
  5
909
330
1F
100
AcDbEntity
  8
0
 62
     0
100
AcDbLine
 10
169.0154371210341
 20
274.3614448171001
 30
0.0
 11
168.740394237948
 21
274.3614448171001
 31
0.0
  0
LINE
  5
90A
330
1F
100
AcDbEntity
  8
0
 62
     0
100
AcDbLine
 10
169.9743870537934
 20
274.3614448171001
 30
0.0
 11
169.4743870537934
 21
274.3614448171001
 31
0.0
  0
LINE
  5
90B
330
1F
100
AcDbEntity
  8
0
 62
     0
100
AcDbLine
 10
169.9743870537934
 20
264.241444817101
 30
0.0
 11
169.9743870537934
 21
265.0414448171003
 31
0.0
  0
LINE
  5
90C
330
1F
100
AcDbEntity
  8
0
 62
     0
100
AcDbLine
 10
169.9743870537934
 20
262.1614448171011
 30
0.0
 11
169.9743870537934
 21
264.241444817101
 31
0.0
  0
LINE
  5
90D
330
1F
100
AcDbEntity
  8
0
 62
     0
100
AcDbLine
 10
169.9743870537934
 20
266.4414448171019
 30
0.0
 11
169.9743870537934
 21
267.241444817101
 31
0.0
  0
LINE
  5
90E
330
1F
100
AcDbEntity
  8
0
 62
     0
100
AcDbLine
 10
169.9743870537934
 20
269.3214448171011
 30
0.0
 11
169.9743870537934
 21
270.121444817102
 31
0.0
  0
LINE
  5
90F
330
1F
100
AcDbEntity
  8
0
 62
     0
100
AcDbLine
 10
169.9743870537934
 20
267.241444817101
 30
0.0
 11
169.9743870537934
 21
269.3214448171011
 31
0.0
  0
LINE
  5
910
330
1F
100
AcDbEntity
  8
0
 62
     0
100
AcDbLine
 10
169.9743870537934
 20
265.0414448171003
 30
0.0
 11
169.9743870537934
 21
266.4414448171019
 31
0.0
  0
LINE
  5
911
330
1F
100
AcDbEntity
  8
0
 62
     0
100
AcDbLine
 10
169.9743870537934
 20
270.121444817102
 30
0.0
 11
169.9743870537934
 21
271.5214448171
 31
0.0
  0
LINE
  5
912
330
1F
100
AcDbEntity
  8
0
 62
     0
100
AcDbLine
 10
161.8743870537947
 20
261.6364448171016
 30
0.0
 11
162.6993870537936
 21
261.6364448171016
 31
0.0
  0
LINE
  5
913
330
1F
100
AcDbEntity
  8
0
 62
     0
100
AcDbLine
 10
161.4012257492469
 20
265.1364448171016
 30
0.0
 11
161.8743870537947
 21
264.7664448171008
 31
0.0
  0
LINE
  5
914
330
1F
100
AcDbEntity
  8
0
 62
     0
100
AcDbLine
 10
163.0109941966512
 20
265.0974336363187
 30
0.0
 11
162.6993870537936
 21
264.7664448171008
 31
0.0
  0
LINE
  5
915
330
1F
100
AcDbEntity
  8
0
 62
     0
100
AcDbLine
 10
163.0109941966512
 20
265.1364448171016
 30
0.0
 11
163.0109941966512
 21
265.0974336363187
 31
0.0
  0
LINE
  5
916
330
1F
100
AcDbEntity
  8
0
 62
     0
100
AcDbLine
 10
161.8743870537947
 20
264.7664448171008
 30
0.0
 11
162.6993870537936
 21
264.7664448171008
 31
0.0
  0
LINE
  5
917
330
1F
100
AcDbEntity
  8
0
 62
     0
100
AcDbLine
 10
161.4012257492469
 20
265.1364448171016
 30
0.0
 11
163.0109941966512
 21
265.1364448171016
 31
0.0
  0
LINE
  5
918
330
1F
100
AcDbEntity
  8
0
 62
     0
100
AcDbLine
 10
162.6993870537936
 20
261.6364448171016
 30
0.0
 11
162.6993870537936
 21
264.7664448171008
 31
0.0
  0
LINE
  5
919
330
1F
100
AcDbEntity
  8
0
 62
     0
100
AcDbLine
 10
161.8743870537947
 20
261.6364448171016
 30
0.0
 11
161.8743870537947
 21
264.7664448171008
 31
0.0
  0
LINE
  5
91A
330
1F
100
AcDbEntity
  8
0
 62
     0
100
AcDbLine
 10
161.4012257492469
 20
266.3464448171006
 30
0.0
 11
161.8743870537947
 21
266.7164448171015
 31
0.0
  0
LINE
  5
91B
330
1F
100
AcDbEntity
  8
0
 62
     0
100
AcDbLine
 10
163.0109941966512
 20
266.3854559978834
 30
0.0
 11
163.0109941966512
 21
266.3464448171006
 31
0.0
  0
LINE
  5
91C
330
1F
100
AcDbEntity
  8
0
 62
     0
100
AcDbLine
 10
162.6993870537936
 20
266.7164448171015
 30
0.0
 11
163.0109941966512
 21
266.3854559978834
 31
0.0
  0
LINE
  5
91D
330
1F
100
AcDbEntity
  8
0
 62
     0
100
AcDbLine
 10
161.8743870537947
 20
266.7164448171015
 30
0.0
 11
162.6993870537936
 21
266.7164448171015
 31
0.0
  0
LINE
  5
91E
330
1F
100
AcDbEntity
  8
0
 62
     0
100
AcDbLine
 10
163.0109941966512
 20
266.3464448171006
 30
0.0
 11
161.4012257492469
 21
266.3464448171006
 31
0.0
  0
LINE
  5
91F
330
1F
100
AcDbEntity
  8
0
 62
     0
100
AcDbLine
 10
161.4012257492469
 20
270.2164448171014
 30
0.0
 11
161.8743870537947
 21
269.8464448171006
 31
0.0
  0
LINE
  5
920
330
1F
100
AcDbEntity
  8
0
 62
     0
100
AcDbLine
 10
163.0109941966512
 20
270.1774336363204
 30
0.0
 11
162.6993870537936
 21
269.8464448171006
 31
0.0
  0
LINE
  5
921
330
1F
100
AcDbEntity
  8
0
 62
     0
100
AcDbLine
 10
163.0109941966512
 20
270.2164448171014
 30
0.0
 11
163.0109941966512
 21
270.1774336363204
 31
0.0
  0
LINE
  5
922
330
1F
100
AcDbEntity
  8
0
 62
     0
100
AcDbLine
 10
161.8743870537947
 20
269.8464448171006
 30
0.0
 11
162.6993870537936
 21
269.8464448171006
 31
0.0
  0
LINE
  5
923
330
1F
100
AcDbEntity
  8
0
 62
     0
100
AcDbLine
 10
161.4012257492469
 20
270.2164448171014
 30
0.0
 11
163.0109941966512
 21
270.2164448171014
 31
0.0
  0
LINE
  5
924
330
1F
100
AcDbEntity
  8
0
 62
     0
100
AcDbLine
 10
163.0109941966512
 20
270.1774336363204
 30
0.0
 11
163.0109941966512
 21
266.3854559978834
 31
0.0
  0
LINE
  5
925
330
1F
100
AcDbEntity
  8
0
 62
     0
100
AcDbLine
 10
162.6993870537936
 20
266.7164448171015
 30
0.0
 11
162.6993870537936
 21
269.8464448171006
 31
0.0
  0
LINE
  5
926
330
1F
100
AcDbEntity
  8
0
 62
     0
100
AcDbLine
 10
161.8743870537947
 20
266.7164448171015
 30
0.0
 11
161.8743870537947
 21
269.8464448171006
 31
0.0
  0
LINE
  5
927
330
1F
100
AcDbEntity
  8
0
 62
     0
100
AcDbLine
 10
163.0109941966512
 20
266.3464448171006
 30
0.0
 11
163.0109941966512
 21
265.1364448171016
 31
0.0
  0
LINE
  5
928
330
1F
100
AcDbEntity
  8
0
 62
     0
100
AcDbLine
 10
161.4012257492469
 20
266.3464448171006
 30
0.0
 11
161.4012257492469
 21
265.1364448171016
 31
0.0
  0
LINE
  5
929
330
1F
100
AcDbEntity
  8
0
 62
     0
100
AcDbLine
 10
165.6043870537944
 20
265.241444817101
 30
0.0
 11
165.8723362462261
 21
265.509394009533
 31
0.0
  0
LINE
  5
92A
330
1F
100
AcDbEntity
  8
0
 62
     0
100
AcDbLine
 10
166.3364378613624
 20
265.509394009533
 30
0.0
 11
166.6043870537944
 21
265.241444817101
 31
0.0
  0
LINE
  5
92B
330
1F
100
AcDbEntity
  8
0
 62
     0
100
AcDbLine
 10
168.6043870537943
 20
262.8155107399551
 30
0.0
 11
168.6043870537943
 21
263.587378894249
 31
0.0
  0
LINE
  5
92C
330
1F
100
AcDbEntity
  8
0
 62
     0
100
AcDbLine
 10
166.8543870537944
 20
263.4024067114231
 30
0.0
 11
166.8543870537944
 21
263.0004829227773
 31
0.0
  0
LINE
  5
92D
330
1F
100
AcDbEntity
  8
0
 62
     0
100
AcDbLine
 10
168.3043870537933
 20
262.7010526225394
 30
0.0
 11
168.3043870537933
 21
263.7018370116646
 31
0.0
  0
LINE
  5
92E
330
1F
100
AcDbEntity
  8
0
 62
     0
100
AcDbLine
 10
165.8723362462261
 20
265.509394009533
 30
0.0
 11
166.3364378613624
 21
265.509394009533
 31
0.0
  0
LINE
  5
92F
330
1F
100
AcDbEntity
  8
0
 62
     0
100
AcDbLine
 10
165.6043870537944
 20
265.241444817101
 30
0.0
 11
166.6043870537944
 21
265.241444817101
 31
0.0
  0
LINE
  5
930
330
1F
100
AcDbEntity
  8
0
 62
     0
100
AcDbLine
 10
166.8543870537944
 20
263.0004829227773
 30
0.0
 11
166.1043870537944
 21
263.2014448171003
 31
0.0
  0
LINE
  5
931
330
1F
100
AcDbEntity
  8
0
 62
     0
100
AcDbLine
 10
166.1043870537944
 20
263.2014448171003
 30
0.0
 11
166.8543870537944
 21
263.4024067114231
 31
0.0
  0
LINE
  5
932
330
1F
100
AcDbEntity
  8
0
 62
     0
100
AcDbLine
 10
165.8723362462261
 20
265.9734956246692
 30
0.0
 11
165.6043870537944
 21
266.241444817101
 31
0.0
  0
LINE
  5
933
330
1F
100
AcDbEntity
  8
0
 62
     0
100
AcDbLine
 10
166.3364378613624
 20
265.9734956246692
 30
0.0
 11
166.6043870537944
 21
266.241444817101
 31
0.0
  0
LINE
  5
934
330
1F
100
AcDbEntity
  8
0
 62
     0
100
AcDbLine
 10
166.8543870537944
 20
268.0804829227791
 30
0.0
 11
166.8543870537944
 21
268.482406711425
 31
0.0
  0
LINE
  5
935
330
1F
100
AcDbEntity
  8
0
 62
     0
100
AcDbLine
 10
168.6043870537943
 20
267.8955107399551
 30
0.0
 11
168.6043870537943
 21
268.667378894247
 31
0.0
  0
LINE
  5
936
330
1F
100
AcDbEntity
  8
0
 62
     0
100
AcDbLine
 10
168.3043870537933
 20
267.7810526225375
 30
0.0
 11
168.3043870537933
 21
268.7818370116647
 31
0.0
  0
LINE
  5
937
330
1F
100
AcDbEntity
  8
0
 62
     0
100
AcDbLine
 10
165.6043870537944
 20
270.321444817101
 30
0.0
 11
166.6043870537944
 21
270.321444817101
 31
0.0
  0
LINE
  5
938
330
1F
100
AcDbEntity
  8
0
 62
     0
100
AcDbLine
 10
166.1043870537944
 20
268.2814448171019
 30
0.0
 11
166.8543870537944
 21
268.0804829227791
 31
0.0
  0
LINE
  5
939
330
1F
100
AcDbEntity
  8
0
 62
     0
100
AcDbLine
 10
166.8543870537944
 20
268.482406711425
 30
0.0
 11
166.1043870537944
 21
268.2814448171019
 31
0.0
  0
LINE
  5
93A
330
1F
100
AcDbEntity
  8
0
 62
     0
100
AcDbLine
 10
165.6043870537944
 20
266.241444817101
 30
0.0
 11
166.6043870537944
 21
266.241444817101
 31
0.0
  0
LINE
  5
93B
330
1F
100
AcDbEntity
  8
0
 62
     0
100
AcDbLine
 10
165.8723362462261
 20
265.9734956246692
 30
0.0
 11
166.3364378613624
 21
265.9734956246692
 31
0.0
  0
LINE
  5
93C
330
1F
100
AcDbEntity
  8
0
 62
     0
100
AcDbLine
 10
166.6043870537944
 20
266.241444817101
 30
0.0
 11
166.6043870537944
 21
265.241444817101
 31
0.0
  0
LINE
  5
93D
330
1F
100
AcDbEntity
  8
0
 62
     0
100
AcDbLine
 10
165.8723362462261
 20
265.9734956246692
 30
0.0
 11
165.8723362462261
 21
265.509394009533
 31
0.0
  0
LINE
  5
93E
330
1F
100
AcDbEntity
  8
0
 62
     0
100
AcDbLine
 10
165.6043870537944
 20
265.241444817101
 30
0.0
 11
165.6043870537944
 21
266.241444817101
 31
0.0
  0
LINE
  5
93F
330
1F
100
AcDbEntity
  8
0
 62
     0
100
AcDbLine
 10
166.3364378613624
 20
265.509394009533
 30
0.0
 11
166.3364378613624
 21
265.9734956246692
 31
0.0
  0
CIRCLE
  5
940
330
1F
100
AcDbEntity
  8
0
 62
     0
100
AcDbCircle
 10
166.1043870537944
 20
265.7414448171012
 30
0.0
 40
1.399999999999999
  0
LINE
  5
941
330
1F
100
AcDbEntity
  8
0
 62
     0
100
AcDbLine
 10
161.4012257492469
 20
271.4264448171025
 30
0.0
 11
161.8743870537947
 21
271.7964448171014
 31
0.0
  0
LINE
  5
942
330
1F
100
AcDbEntity
  8
0
 62
     0
100
AcDbLine
 10
163.0109941966512
 20
271.4654559978835
 30
0.0
 11
163.0109941966512
 21
271.4264448171025
 31
0.0
  0
LINE
  5
943
330
1F
100
AcDbEntity
  8
0
 62
     0
100
AcDbLine
 10
162.6993870537936
 20
271.7964448171014
 30
0.0
 11
163.0109941966512
 21
271.4654559978835
 31
0.0
  0
LINE
  5
944
330
1F
100
AcDbEntity
  8
0
 62
     0
100
AcDbLine
 10
161.8743870537947
 20
271.7964448171014
 30
0.0
 11
162.6993870537936
 21
271.7964448171014
 31
0.0
  0
LINE
  5
945
330
1F
100
AcDbEntity
  8
0
 62
     0
100
AcDbLine
 10
163.0109941966512
 20
271.4264448171025
 30
0.0
 11
161.4012257492469
 21
271.4264448171025
 31
0.0
  0
LINE
  5
946
330
1F
100
AcDbEntity
  8
0
 62
     0
100
AcDbLine
 10
165.8723362462261
 20
270.5893940095311
 30
0.0
 11
165.8723362462261
 21
271.0534956246709
 31
0.0
  0
LINE
  5
947
330
1F
100
AcDbEntity
  8
0
 62
     0
100
AcDbLine
 10
165.6043870537944
 20
271.3214448171011
 30
0.0
 11
165.8723362462261
 21
271.0534956246709
 31
0.0
  0
LINE
  5
948
330
1F
100
AcDbEntity
  8
0
 62
     0
100
AcDbLine
 10
166.6043870537944
 20
271.3214448171011
 30
0.0
 11
166.3364378613624
 21
271.0534956246709
 31
0.0
  0
LINE
  5
949
330
1F
100
AcDbEntity
  8
0
 62
     0
100
AcDbLine
 10
166.3364378613624
 20
270.5893940095311
 30
0.0
 11
166.3364378613624
 21
271.0534956246709
 31
0.0
  0
LINE
  5
94A
330
1F
100
AcDbEntity
  8
0
 62
     0
100
AcDbLine
 10
165.8723362462261
 20
271.0534956246709
 30
0.0
 11
166.3364378613624
 21
271.0534956246709
 31
0.0
  0
LINE
  5
94B
330
1F
100
AcDbEntity
  8
0
 62
     0
100
AcDbLine
 10
165.6043870537944
 20
271.3214448171011
 30
0.0
 11
166.6043870537944
 21
271.3214448171011
 31
0.0
  0
LINE
  5
94C
330
1F
100
AcDbEntity
  8
0
 62
     0
100
AcDbLine
 10
165.8723362462261
 20
270.5893940095311
 30
0.0
 11
166.3364378613624
 21
270.5893940095311
 31
0.0
  0
LINE
  5
94D
330
1F
100
AcDbEntity
  8
0
 62
     0
100
AcDbLine
 10
165.6043870537944
 20
270.321444817101
 30
0.0
 11
165.8723362462261
 21
270.5893940095311
 31
0.0
  0
LINE
  5
94E
330
1F
100
AcDbEntity
  8
0
 62
     0
100
AcDbLine
 10
166.6043870537944
 20
271.3214448171011
 30
0.0
 11
166.6043870537944
 21
270.321444817101
 31
0.0
  0
LINE
  5
94F
330
1F
100
AcDbEntity
  8
0
 62
     0
100
AcDbLine
 10
165.6043870537944
 20
271.3214448171011
 30
0.0
 11
165.6043870537944
 21
270.321444817101
 31
0.0
  0
LINE
  5
950
330
1F
100
AcDbEntity
  8
0
 62
     0
100
AcDbLine
 10
166.3364378613624
 20
270.5893940095311
 30
0.0
 11
166.6043870537944
 21
270.321444817101
 31
0.0
  0
LINE
  5
951
330
1F
100
AcDbEntity
  8
0
 62
     0
100
AcDbLine
 10
163.0109941966512
 20
271.4264448171025
 30
0.0
 11
163.0109941966512
 21
270.2164448171014
 31
0.0
  0
LINE
  5
952
330
1F
100
AcDbEntity
  8
0
 62
     0
100
AcDbLine
 10
161.4012257492469
 20
270.2164448171014
 30
0.0
 11
161.4012257492469
 21
271.4264448171025
 31
0.0
  0
ARC
  5
953
330
1F
100
AcDbEntity
  8
0
 62
     0
100
AcDbCircle
 10
166.1043870537944
 20
265.7414448171012
 30
0.0
 40
3.299999999999831
100
AcDbArc
 50
319.25094562257
 51
40.74905437742993
  0
ARC
  5
954
330
1F
100
AcDbEntity
  8
0
 62
     0
100
AcDbCircle
 10
166.1043870537944
 20
265.7414448171012
 30
0.0
 40
2.999999999999803
100
AcDbArc
 50
317.1665719339523
 51
42.83342806604767
  0
LINE
  5
955
330
1F
100
AcDbEntity
  8
0
 62
     0
100
AcDbLine
 10
161.8743870537947
 20
271.7964448171014
 30
0.0
 11
161.8743870537948
 21
274.3614448171001
 31
0.0
  0
LINE
  5
956
330
1F
100
AcDbEntity
  8
0
 62
     0
100
AcDbLine
 10
162.6993870537936
 20
273.3614448171
 30
0.0
 11
162.6993870537936
 21
271.7964448171014
 31
0.0
  0
LINE
  5
957
330
1F
100
AcDbEntity
  8
0
 62
     0
100
AcDbLine
 10
163.0109941966512
 20
273.3614448171
 30
0.0
 11
163.0109941966512
 21
271.4654559978835
 31
0.0
  0
CIRCLE
  5
958
330
1F
100
AcDbEntity
  8
0
 62
     0
100
AcDbCircle
 10
166.1043870537944
 20
270.8214448171011
 30
0.0
 40
1.399999999999379
  0
LINE
  5
959
330
1F
100
AcDbEntity
  8
0
 62
     0
100
AcDbLine
 10
169.9743870537934
 20
271.5214448171
 30
0.0
 11
169.9743870537934
 21
272.321444817101
 31
0.0
  0
ARC
  5
95A
330
1F
100
AcDbEntity
  8
0
 62
     0
100
AcDbCircle
 10
166.1043870537944
 20
270.8214448171011
 30
0.0
 40
3.299999999999366
100
AcDbArc
 50
319.25094562257
 51
40.74905437742993
  0
ARC
  5
95B
330
1F
100
AcDbEntity
  8
0
 62
     0
100
AcDbCircle
 10
166.1043870537944
 20
270.8214448171011
 30
0.0
 40
2.999999999999353
100
AcDbArc
 50
317.1665719339523
 51
42.83342806604767
  0
LINE
  5
95C
330
1F
100
AcDbEntity
  8
0
 62
     0
100
AcDbLine
 10
174.0742693412414
 20
286.8940454930133
 30
0.0
 11
174.0742693412414
 21
284.1940454930126
 31
0.0
  0
LINE
  5
95D
330
1F
100
AcDbEntity
  8
0
 62
     0
100
AcDbLine
 10
172.4742693412411
 20
284.1940454930126
 30
0.0
 11
172.4742693412411
 21
286.8940454930133
 31
0.0
  0
LINE
  5
95E
330
1F
100
AcDbEntity
  8
0
 62
     0
100
AcDbLine
 10
174.0742693412414
 20
286.8940454930133
 30
0.0
 11
172.4742693412411
 21
286.8940454930133
 31
0.0
  0
LINE
  5
95F
330
1F
100
AcDbEntity
  8
0
 62
     0
100
AcDbLine
 10
174.0742693412414
 20
284.1940454930126
 30
0.0
 11
172.4742693412411
 21
284.1940454930126
 31
0.0
  0
LINE
  5
960
330
1F
100
AcDbEntity
  8
0
 62
     0
100
AcDbLine
 10
174.0742693412414
 20
281.394049493053
 30
0.0
 11
174.0742693412414
 21
278.6940494930522
 31
0.0
  0
LINE
  5
961
330
1F
100
AcDbEntity
  8
0
 62
     0
100
AcDbLine
 10
172.4742693412411
 20
278.6940494930522
 30
0.0
 11
172.4742693412411
 21
281.394049493053
 31
0.0
  0
LINE
  5
962
330
1F
100
AcDbEntity
  8
0
 62
     0
100
AcDbLine
 10
174.0742693412414
 20
281.394049493053
 30
0.0
 11
172.4742693412411
 21
281.394049493053
 31
0.0
  0
LINE
  5
963
330
1F
100
AcDbEntity
  8
0
 62
     0
100
AcDbLine
 10
174.0742693412414
 20
278.6940494930522
 30
0.0
 11
172.4742693412411
 21
278.6940494930522
 31
0.0
  0
LINE
  5
964
330
1F
100
AcDbEntity
  8
外枠
 62
     0
100
AcDbLine
 10
172.7743436537879
 20
279.3940494930511
 30
0.0
 11
173.8743436537901
 21
279.3940494930511
 31
0.0
  0
LINE
  5
965
330
1F
100
AcDbEntity
  8
外枠
 62
     0
100
AcDbLine
 10
172.7743436537879
 20
280.6940494930504
 30
0.0
 11
173.8743436537901
 21
280.6940494930504
 31
0.0
  0
LINE
  5
966
330
1F
100
AcDbEntity
  8
外枠
 62
     0
100
AcDbLine
 10
172.7743436537879
 20
280.6940494930504
 30
0.0
 11
173.8743436537901
 21
280.6940494930504
 31
0.0
  0
LINE
  5
967
330
1F
100
AcDbEntity
  8
外枠
 62
     0
100
AcDbLine
 10
172.7743436537879
 20
279.3940494930511
 30
0.0
 11
173.8743436537901
 21
279.3940494930511
 31
0.0
  0
LINE
  5
968
330
1F
100
AcDbEntity
  8
外枠
 62
     0
100
AcDbLine
 10
172.7743436537879
 20
279.3940494930528
 30
0.0
 11
172.7743436537879
 21
280.6940494930521
 31
0.0
  0
LINE
  5
969
330
1F
100
AcDbEntity
  8
外枠
 62
     0
100
AcDbLine
 10
172.7743436537879
 20
284.8940494930511
 30
0.0
 11
173.8743436537901
 21
284.8940494930511
 31
0.0
  0
LINE
  5
96A
330
1F
100
AcDbEntity
  8
外枠
 62
     0
100
AcDbLine
 10
172.7743436537879
 20
286.1940494930503
 30
0.0
 11
173.8743436537901
 21
286.1940494930503
 31
0.0
  0
LINE
  5
96B
330
1F
100
AcDbEntity
  8
外枠
 62
     0
100
AcDbLine
 10
172.7743436537879
 20
286.1940494930503
 30
0.0
 11
173.8743436537901
 21
286.1940494930503
 31
0.0
  0
LINE
  5
96C
330
1F
100
AcDbEntity
  8
外枠
 62
     0
100
AcDbLine
 10
172.7743436537879
 20
284.8940494930511
 30
0.0
 11
173.8743436537901
 21
284.8940494930511
 31
0.0
  0
LINE
  5
96D
330
1F
100
AcDbEntity
  8
外枠
 62
     0
100
AcDbLine
 10
172.7743436537879
 20
284.894049493053
 30
0.0
 11
172.7743436537879
 21
286.1940494930522
 31
0.0
  0
LINE
  5
96E
330
1F
100
AcDbEntity
  8
0
 62
     0
100
AcDbLine
 10
173.8743436537901
 20
286.1940494930503
 30
0.0
 11
173.8743436537901
 21
284.8940494930511
 31
0.0
  0
LINE
  5
96F
330
1F
100
AcDbEntity
  8
0
 62
     0
100
AcDbLine
 10
173.8743436537901
 20
280.6940494930504
 30
0.0
 11
173.8743436537901
 21
279.3940494930511
 31
0.0
  0
LINE
  5
970
330
1F
100
AcDbEntity
  8
0
100
AcDbLine
 10
170.47424445379
 20
244.5114430171023
 30
0.0
 11
170.4742444537901
 21
276.8114466170999
 31
0.0
  0
LINE
  5
971
330
1F
100
AcDbEntity
  8
CLASS1
100
AcDbLine
 10
156.0743436537908
 20
244.5114430171023
 30
0.0
 11
156.0743436537908
 21
138.9331370546597
 31
0.0
  0
LINE
  5
972
330
1F
100
AcDbEntity
  8
0
100
AcDbLine
 10
156.0743436537908
 20
244.5114430171023
 30
0.0
 11
170.47424445379
 21
244.5114430171023
 31
0.0
  0
LINE
  5
973
330
1F
100
AcDbEntity
  8
0
100
AcDbLine
 10
156.0743436537909
 20
276.8114466170999
 30
0.0
 11
170.4742444537901
 21
276.8114466170999
 31
0.0
  0
LINE
  5
974
330
1F
100
AcDbEntity
  8
0
 62
     0
100
AcDbLine
 10
156.0743436537909
 20
276.8114466170999
 30
0.0
 11
156.0743436537909
 21
291.7331370546588
 31
0.0
  0
LINE
  5
97A
330
1F
100
AcDbEntity
  8
CLASS1
100
AcDbLine
 10
334.4485659280469
 20
133.8274610546575
 30
0.0
 11
334.4485659280469
 21
138.8287510546573
 31
0.0
  0
LINE
  5
97B
330
1F
100
AcDbEntity
  8
CLASS1
100
AcDbLine
 10
268.826048928047
 20
135.3054460546575
 30
0.0
 11
334.4485659280469
 21
133.8274610546575
 31
0.0
  0
LINE
  5
97C
330
1F
100
AcDbEntity
  8
CLASS1
100
AcDbLine
 10
336.948565928047
 20
305.3290100546573
 30
0.0
 11
336.9485659280468
 21
126.8290100546572
 31
0.0
  0
LINE
  5
97D
330
1F
100
AcDbEntity
  8
CLASS1
100
AcDbLine
 10
288.9255641856706
 20
266.4990100546571
 30
0.0
 11
335.448565928047
 21
267.5790100546573
 31
0.0
  0
LINE
  5
97E
330
1F
100
AcDbEntity
  8
CLASS1
100
AcDbLine
 10
289.4255639280468
 20
266.2701190546574
 30
0.0
 11
335.448565928047
 21
267.3290100546573
 31
0.0
  0
LINE
  5
97F
330
1F
100
AcDbEntity
  8
CLASS1
100
AcDbLine
 10
310.3278909280471
 20
221.9440100546576
 30
0.0
 11
315.5537409280468
 21
221.9440100546576
 31
0.0
  0
LINE
  5
980
330
1F
100
AcDbEntity
  8
CLASS1
100
AcDbLine
 10
310.3278909280471
 20
221.9440100546576
 30
0.0
 11
315.5537409280468
 21
221.9440100546576
 31
0.0
  0
LINE
  5
981
330
1F
100
AcDbEntity
  8
CLASS1
100
AcDbLine
 10
313.1723409280468
 20
208.7140100546573
 30
0.0
 11
318.133590928047
 21
208.7140100546573
 31
0.0
  0
LINE
  5
982
330
1F
100
AcDbEntity
  8
CLASS1
100
AcDbLine
 10
313.1723409280468
 20
208.7140100546573
 30
0.0
 11
318.133590928047
 21
208.7140100546573
 31
0.0
  0
HATCH
  5
983
330
1F
100
AcDbEntity
  8
CLASS1
100
AcDbHatch
 10
0.0
 20
0.0
 30
0.0
210
0.0
220
0.0
230
1.0
  2
SOLID
 70
     1
 71
     0
 91
        1
 92
        1
 93
       13
 72
     1
 10
307.4243781643662
 20
212.0215098895586
 11
306.2931774265373
 21
210.3131161486138
 72
     2
 10
307.2859677872465
 20
209.6557470880588
 40
1.190699999999956
 50
866.48975
 51
952.2706859999995
 73
     1
 72
     1
 10
306.5573406267856
 20
208.7140098895588
 11
301.7945407517466
 21
208.7140098895588
 72
     1
 10
301.7945407517466
 20
208.7140098895588
 11
310.5528445809058
 21
220.6300693635675
 72
     2
 10
309.8066261057463
 20
221.1785399500585
 40
0.9261000000000107
 50
1043.684112999998
 51
1135.746171999999
 73
     1
 72
     1
 10
310.3278908961573
 20
221.9440098895588
 11
315.5537407517466
 21
221.9440098895588
 72
     1
 10
315.5537407517466
 20
221.9440098895588
 11
318.1335907517466
 21
208.7140098895588
 72
     1
 10
318.1335907517466
 20
208.7140098895588
 11
313.1723407517468
 21
208.7140098895588
 72
     1
 10
313.1723407517468
 20
208.7140098895588
 11
312.5273782517469
 21
212.0215098895586
 72
     1
 10
312.5273782517469
 20
212.0215098895586
 11
312.1919977517466
 21
213.7414098895586
 72
     1
 10
312.1919977517466
 20
213.7414098895586
 11
311.3664457517468
 21
217.9750098895588
 72
     1
 10
311.3664457517468
 20
217.9750098895588
 11
308.5631976896091
 21
213.7414098895586
 72
     1
 10
308.5631976896091
 20
213.7414098895586
 11
307.4243781643662
 21
212.0215098895586
 97
        0
 75
     0
 76
     1
 98
        1
 10
242.5140539280469
 20
195.1147270546575
  0
HATCH
  5
984
330
1F
100
AcDbEntity
  8
CLASS1
100
AcDbHatch
 10
0.0
 20
0.0
 30
0.0
210
0.0
220
0.0
230
1.0
  2
SOLID
 70
     1
 71
     0
 91
        1
 92
        1
 93
       13
 72
     1
 10
307.4243781643658
 20
212.0215098895586
 11
306.2931774265371
 21
210.3131161486138
 72
     2
 10
307.2859677872465
 20
209.6557470880588
 40
1.190699999999956
 50
866.48975
 51
952.2706859999995
 73
     1
 72
     1
 10
306.5573406267856
 20
208.7140098895588
 11
301.7945407517463
 21
208.7140098895588
 72
     1
 10
301.7945407517463
 20
208.7140098895588
 11
310.5528445809055
 21
220.6300693635675
 72
     2
 10
309.8066261057463
 20
221.1785399500585
 40
0.9261000000000107
 50
1043.684112999998
 51
1135.746171999999
 73
     1
 72
     1
 10
310.3278908961569
 20
221.9440098895588
 11
315.5537407517464
 21
221.9440098895588
 72
     1
 10
315.5537407517464
 20
221.9440098895588
 11
318.1335907517464
 21
208.7140098895588
 72
     1
 10
318.1335907517464
 20
208.7140098895588
 11
313.1723407517466
 21
208.7140098895588
 72
     1
 10
313.1723407517466
 20
208.7140098895588
 11
312.5273782517466
 21
212.0215098895586
 72
     1
 10
312.5273782517466
 20
212.0215098895586
 11
312.1919977517463
 21
213.7414098895586
 72
     1
 10
312.1919977517463
 20
213.7414098895586
 11
311.3664457517466
 21
217.9750098895588
 72
     1
 10
311.3664457517466
 20
217.9750098895588
 11
308.5631976896091
 21
213.7414098895586
 72
     1
 10
308.5631976896091
 20
213.7414098895586
 11
307.4243781643658
 21
212.0215098895586
 97
        0
 75
     0
 76
     1
 98
        1
 10
242.5140539280469
 20
195.1147270546575
  0
LINE
  5
985
330
1F
100
AcDbEntity
  8
CLASS1
100
AcDbLine
 10
274.9808379280474
 20
290.4579120546576
 30
0.0
 11
334.4255639280471
 21
291.8256080546573
 31
0.0
  0
LINE
  5
986
330
1F
100
AcDbEntity
  8
CLASS1
100
AcDbLine
 10
268.8260489280471
 20
295.3494760546576
 30
0.0
 11
334.4485659280469
 21
296.8274610546575
 31
0.0
  0
LINE
  5
987
330
1F
100
AcDbEntity
  8
CLASS1
100
AcDbLine
 10
288.7375466654468
 20
164.1590100546571
 30
0.0
 11
335.4485659280468
 21
163.0790100546573
 31
0.0
  0
LINE
  5
988
330
1F
100
AcDbEntity
  8
CLASS1
100
AcDbLine
 10
289.4255639280468
 20
164.3879010546575
 30
0.0
 11
335.4485659280468
 21
163.3290100546573
 31
0.0
  0
LINE
  5
989
330
1F
100
AcDbEntity
  8
CLASS1
100
AcDbLine
 10
334.4258449280471
 20
138.8292680546574
 30
0.0
 11
274.981117928047
 21
140.1802850546572
 31
0.0
  0
LINE
  5
98A
330
1F
100
AcDbEntity
  8
CLASS1
100
AcDbLine
 10
287.948565928047
 20
265.5016663850056
 30
0.0
 11
287.9485659280468
 21
165.1414365817895
 31
0.0
  0
LINE
  5
98B
330
1F
100
AcDbEntity
  8
CLASS1
100
AcDbLine
 10
288.4485659280469
 20
165.3876360546572
 30
0.0
 11
288.4485659280469
 21
265.2703840546573
 31
0.0
  0
LINE
  5
98C
330
1F
100
AcDbEntity
  8
CLASS1
100
AcDbLine
 10
274.0038399280472
 20
289.4581770546575
 30
0.0
 11
274.0038399280471
 21
141.1800270546575
 31
0.0
  0
LINE
  5
98D
330
1F
100
AcDbEntity
  8
CLASS1
100
AcDbLine
 10
268.1485659280471
 20
137.8274610546575
 30
0.0
 11
268.1485659280472
 21
292.8274610546576
 31
0.0
  0
LINE
  5
98E
330
1F
100
AcDbEntity
  8
CLASS1
100
AcDbLine
 10
268.632891928047
 20
137.8274610546575
 30
0.0
 11
268.6328919280471
 21
292.8274610546576
 31
0.0
  0
LINE
  5
98F
330
1F
100
AcDbEntity
  8
CLASS1
100
AcDbLine
 10
268.9040429280469
 20
136.2814200546573
 30
0.0
 11
268.9040429280469
 21
294.3735020546573
 31
0.0
  0
ARC
  5
990
330
1F
100
AcDbEntity
  8
CLASS1
100
AcDbCircle
 10
268.8485659280473
 20
294.3497300546575
 30
0.0
 40
1.0
100
AcDbArc
 50
91.29022700000518
 51
180.0
  0
LINE
  5
991
330
1F
100
AcDbEntity
  8
CLASS1
100
AcDbLine
 10
268.6328919280471
 20
292.8274610546576
 30
0.0
 11
267.848565928047
 21
292.8274610546576
 31
0.0
  0
LINE
  5
992
330
1F
100
AcDbEntity
  8
CLASS1
100
AcDbLine
 10
267.848565928047
 20
294.3497300546576
 30
0.0
 11
267.848565928047
 21
292.8274610546576
 31
0.0
  0
ARC
  5
993
330
1F
100
AcDbEntity
  8
CLASS1
100
AcDbCircle
 10
269.9040429280472
 20
294.3735020546573
 30
0.0
 40
1.0
100
AcDbArc
 50
91.29022700000518
 51
180.0
  0
ARC
  5
994
330
1F
100
AcDbEntity
  8
CLASS1
100
AcDbCircle
 10
275.0038399280475
 20
289.4581770546573
 30
0.0
 40
1.0
100
AcDbArc
 50
91.31802100000404
 51
180.0
  0
ARC
  5
995
330
1F
100
AcDbEntity
  8
CLASS1
100
AcDbCircle
 10
288.9485630676377
 20
265.4992745633309
 30
0.0
 40
1.0
100
AcDbArc
 50
91.31801900000615
 51
180.0
  0
ARC
  5
996
330
1F
100
AcDbEntity
  8
CLASS1
100
AcDbCircle
 10
289.4485659280471
 20
265.2703840546576
 30
0.0
 40
1.0
100
AcDbArc
 50
91.31801899999313
 51
180.0
  0
LINE
  5
997
330
1F
100
AcDbEntity
  8
0
100
AcDbLine
 10
267.6485659280472
 20
227.4071250546576
 30
0.0
 11
267.6485659280473
 21
230.4071250546575
 31
0.0
  0
LINE
  5
998
330
1F
100
AcDbEntity
  8
0
100
AcDbLine
 10
267.6485659280472
 20
227.4071250546576
 30
0.0
 11
268.6328919280471
 21
227.4071250546576
 31
0.0
  0
LINE
  5
999
330
1F
100
AcDbEntity
  8
0
100
AcDbLine
 10
267.6485659280473
 20
230.4071250546575
 30
0.0
 11
268.6328919280471
 21
230.4071250546575
 31
0.0
  0
LINE
  5
99A
330
1F
100
AcDbEntity
  8
0
100
AcDbLine
 10
267.6485659280472
 20
186.2531370546573
 30
0.0
 11
267.6485659280472
 21
189.2531370546573
 31
0.0
  0
LINE
  5
99B
330
1F
100
AcDbEntity
  8
0
100
AcDbLine
 10
267.6485659280472
 20
186.2531370546573
 30
0.0
 11
268.6328919280471
 21
186.2531370546573
 31
0.0
  0
LINE
  5
99C
330
1F
100
AcDbEntity
  8
0
100
AcDbLine
 10
267.6485659280472
 20
189.2531370546573
 30
0.0
 11
268.6328919280471
 21
189.2531370546573
 31
0.0
  0
LINE
  5
99D
330
1F
100
AcDbEntity
  8
CLASS1
100
AcDbLine
 10
268.632891928047
 20
137.8274610546575
 30
0.0
 11
267.8485659280469
 21
137.8274610546575
 31
0.0
  0
LINE
  5
99E
330
1F
100
AcDbEntity
  8
CLASS1
100
AcDbLine
 10
267.8485659280469
 20
136.3051920546574
 30
0.0
 11
267.8485659280469
 21
137.8274610546575
 31
0.0
  0
ARC
  5
99F
330
1F
100
AcDbEntity
  8
CLASS1
100
AcDbCircle
 10
268.8485659280469
 20
136.3051920546574
 30
0.0
 40
1.0
100
AcDbArc
 50
180.0
 51
268.7097729999947
  0
ARC
  5
9A0
330
1F
100
AcDbEntity
  8
CLASS1
100
AcDbCircle
 10
269.9040429280468
 20
136.2814200546573
 30
0.0
 40
1.0
100
AcDbArc
 50
180.0
 51
268.7097729999947
  0
LINE
  5
9A1
330
1F
100
AcDbEntity
  8
CLASS1
100
AcDbLine
 10
301.926840928047
 20
221.9440100546576
 30
0.0
 11
299.1485409280469
 21
208.7140100546573
 31
0.0
  0
LINE
  5
9A2
330
1F
100
AcDbEntity
  8
CLASS1
100
AcDbLine
 10
301.926840928047
 20
221.9440100546576
 30
0.0
 11
299.1485409280469
 21
208.7140100546573
 31
0.0
  0
HATCH
  5
9A3
330
1F
100
AcDbEntity
  8
CLASS1
100
AcDbHatch
 10
0.0
 20
0.0
 30
0.0
210
0.0
220
0.0
230
1.0
  2
SOLID
 70
     1
 71
     0
 91
        1
 92
        1
 93
        5
 72
     1
 10
294.3857407517464
 20
208.7140098895588
 11
296.8400830784533
 21
220.401357042947
 72
     2
 10
295.4158490582466
 20
220.7004461170586
 40
1.455300000000043
 50
1068.140224
 51
1138.705292999999
 73
     1
 72
     1
 10
296.1717903481133
 20
221.9440098895588
 11
301.9268407517468
 21
221.9440098895588
 72
     1
 10
301.9268407517468
 20
221.9440098895588
 11
299.1485407517465
 21
208.7140098895588
 72
     1
 10
299.1485407517465
 20
208.7140098895588
 11
294.3857407517464
 21
208.7140098895588
 97
        0
 75
     0
 76
     1
 98
        1
 10
242.5140539280469
 20
195.1147270546575
  0
LINE
  5
9A4
330
1F
100
AcDbEntity
  8
CLASS1
100
AcDbLine
 10
296.8400829280469
 20
220.4013570546574
 30
0.0
 11
294.3857409280469
 21
208.7140100546573
 31
0.0
  0
LINE
  5
9A5
330
1F
100
AcDbEntity
  8
CLASS1
100
AcDbLine
 10
296.8400829280469
 20
220.4013570546574
 30
0.0
 11
294.3857409280469
 21
208.7140100546573
 31
0.0
  0
HATCH
  5
9A6
330
1F
100
AcDbEntity
  8
CLASS1
100
AcDbHatch
 10
0.0
 20
0.0
 30
0.0
210
0.0
220
0.0
230
1.0
  2
SOLID
 70
     1
 71
     0
 91
        1
 92
        1
 93
        5
 72
     1
 10
294.3857407517464
 20
208.7140098895588
 11
296.8400830784531
 21
220.401357042947
 72
     2
 10
295.4158490582466
 20
220.7004461170586
 40
1.455300000000043
 50
1068.140224
 51
1138.705292999999
 73
     1
 72
     1
 10
296.1717903481133
 20
221.9440098895588
 11
301.9268407517466
 21
221.9440098895588
 72
     1
 10
301.9268407517466
 20
221.9440098895588
 11
299.1485407517465
 21
208.7140098895588
 72
     1
 10
299.1485407517465
 20
208.7140098895588
 11
294.3857407517464
 21
208.7140098895588
 97
        0
 75
     0
 76
     1
 98
        1
 10
242.5140539280469
 20
195.1147270546575
  0
LINE
  5
9A7
330
1F
100
AcDbEntity
  8
CLASS1
100
AcDbLine
 10
310.5528439280469
 20
220.6300690546575
 30
0.0
 11
301.794540928047
 21
208.7140100546573
 31
0.0
  0
LINE
  5
9A8
330
1F
100
AcDbEntity
  8
CLASS1
100
AcDbLine
 10
310.5528439280469
 20
220.6300690546575
 30
0.0
 11
301.794540928047
 21
208.7140100546573
 31
0.0
  0
LINE
  5
9A9
330
1F
100
AcDbEntity
  8
CLASS1
100
AcDbLine
 10
301.926840928047
 20
221.9440100546576
 30
0.0
 11
296.171790928047
 21
221.9440100546576
 31
0.0
  0
LINE
  5
9AA
330
1F
100
AcDbEntity
  8
CLASS1
100
AcDbLine
 10
301.926840928047
 20
221.9440100546576
 30
0.0
 11
296.171790928047
 21
221.9440100546576
 31
0.0
  0
ARC
  5
9AB
330
1F
100
AcDbEntity
  8
CLASS1
100
AcDbCircle
 10
295.4158489280466
 20
220.7004460546576
 30
0.0
 40
1.4553
100
AcDbArc
 50
348.1402210000033
 51
58.70528200000129
  0
ARC
  5
9AC
330
1F
100
AcDbEntity
  8
CLASS1
100
AcDbCircle
 10
295.4158489280466
 20
220.7004460546576
 30
0.0
 40
1.4553
100
AcDbArc
 50
348.1402210000033
 51
58.70528200000129
  0
ARC
  5
9AD
330
1F
100
AcDbEntity
  8
CLASS1
100
AcDbCircle
 10
309.8066259280467
 20
221.1785400546574
 30
0.0
 40
0.9261000000000001
100
AcDbArc
 50
323.6841139999937
 51
55.74619900000392
  0
ARC
  5
9AE
330
1F
100
AcDbEntity
  8
CLASS1
100
AcDbCircle
 10
309.8066259280467
 20
221.1785400546574
 30
0.0
 40
0.9261000000000001
100
AcDbArc
 50
323.6841139999937
 51
55.74619900000392
  0
LINE
  5
9AF
330
1F
100
AcDbEntity
  8
CLASS1
100
AcDbLine
 10
301.794540928047
 20
208.7140100546573
 30
0.0
 11
306.557340928047
 21
208.7140100546573
 31
0.0
  0
LINE
  5
9B0
330
1F
100
AcDbEntity
  8
CLASS1
100
AcDbLine
 10
301.794540928047
 20
208.7140100546573
 30
0.0
 11
306.557340928047
 21
208.7140100546573
 31
0.0
  0
ARC
  5
9B1
330
1F
100
AcDbEntity
  8
CLASS1
100
AcDbCircle
 10
305.1251759280468
 20
209.7603840546578
 30
0.0
 40
1.323
100
AcDbArc
 50
146.4897499999914
 51
232.2706919999944
  0
ARC
  5
9B2
330
1F
100
AcDbEntity
  8
CLASS1
100
AcDbCircle
 10
305.1251759280468
 20
209.7603840546578
 30
0.0
 40
1.323
100
AcDbArc
 50
146.4897499999914
 51
232.2706919999944
  0
LINE
  5
9B3
330
1F
100
AcDbEntity
  8
CLASS1
100
AcDbLine
 10
299.1485409280469
 20
208.7140100546573
 30
0.0
 11
294.3857409280469
 21
208.7140100546573
 31
0.0
  0
LINE
  5
9B4
330
1F
100
AcDbEntity
  8
CLASS1
100
AcDbLine
 10
299.1485409280469
 20
208.7140100546573
 30
0.0
 11
294.3857409280469
 21
208.7140100546573
 31
0.0
  0
LINE
  5
9B5
330
1F
100
AcDbEntity
  8
CLASS1
100
AcDbLine
 10
311.3664459280469
 20
217.9750100546574
 30
0.0
 11
313.1723409280468
 21
208.7140100546573
 31
0.0
  0
LINE
  5
9B6
330
1F
100
AcDbEntity
  8
CLASS1
100
AcDbLine
 10
311.3664459280469
 20
217.9750100546574
 30
0.0
 11
313.1723409280468
 21
208.7140100546573
 31
0.0
  0
SOLID
  5
9B7
330
1F
100
AcDbEntity
  8
CLASS1
100
AcDbTrace
 10
307.4243779280466
 20
212.0215100546576
 30
0.0
 11
308.5631979280468
 21
213.7414100546576
 31
0.0
 12
312.5273779280468
 22
212.0215100546576
 32
0.0
 13
312.1919979280468
 23
213.7414100546576
 33
0.0
  0
SOLID
  5
9B8
330
1F
100
AcDbEntity
  8
CLASS1
100
AcDbTrace
 10
307.4243779280466
 20
212.0215100546576
 30
0.0
 11
308.5631979280468
 21
213.7414100546576
 31
0.0
 12
312.5273779280468
 22
212.0215100546576
 32
0.0
 13
312.1919979280468
 23
213.7414100546576
 33
0.0
  0
LINE
  5
9B9
330
1F
100
AcDbEntity
  8
CLASS1
100
AcDbLine
 10
311.3664459280469
 20
217.9750100546574
 30
0.0
 11
306.2931769280469
 21
210.3131160546575
 31
0.0
  0
LINE
  5
9BA
330
1F
100
AcDbEntity
  8
CLASS1
100
AcDbLine
 10
311.3664459280469
 20
217.9750100546574
 30
0.0
 11
306.2931769280469
 21
210.3131160546575
 31
0.0
  0
ARC
  5
9BB
330
1F
100
AcDbEntity
  8
CLASS1
100
AcDbCircle
 10
288.9483346198682
 20
165.13631863886
 30
0.0
 40
0.9997817914353085
100
AcDbArc
 50
179.706698188669
 51
257.828771090005
  0
ARC
  5
9BC
330
1F
100
AcDbEntity
  8
CLASS1
100
AcDbCircle
 10
289.4485659280467
 20
165.3876360546576
 30
0.0
 40
1.0
100
AcDbArc
 50
180.0
 51
268.6819809999938
  0
ARC
  5
9BD
330
1F
100
AcDbEntity
  8
CLASS1
100
AcDbCircle
 10
275.0038399280471
 20
141.1800270546575
 30
0.0
 40
1.0
100
AcDbArc
 50
180.0
 51
268.6980460000063
  0
LINE
  5
9BE
330
1F
100
AcDbEntity
  8
CLASS1
100
AcDbLine
 10
335.448565928047
 20
290.8258730546573
 30
0.0
 11
335.4485659280468
 21
139.8290100546572
 31
0.0
  0
LINE
  5
9BF
330
1F
100
AcDbEntity
  8
CLASS1
100
AcDbLine
 10
335.4485659280468
 20
163.3290100546573
 30
0.0
 11
335.448565928047
 21
267.3290100546573
 31
0.0
  0
LINE
  5
9C0
330
1F
100
AcDbEntity
  8
CLASS1
100
AcDbLine
 10
335.4485659280468
 20
152.3260990546573
 30
0.0
 11
335.448565928047
 21
278.3319210546574
 31
0.0
  0
LINE
  5
9C1
330
1F
100
AcDbEntity
  8
0
100
AcDbLine
 10
334.4485659280469
 20
296.8274610546575
 30
0.0
 11
334.4485659280469
 21
305.3290100546573
 31
0.0
  0
LINE
  5
9C2
330
1F
100
AcDbEntity
  8
CLASS1
100
AcDbLine
 10
334.4485659280469
 20
305.3290100546573
 30
0.0
 11
336.948565928047
 21
305.3290100546573
 31
0.0
  0
ARC
  5
9C3
330
1F
100
AcDbEntity
  8
CLASS1
100
AcDbCircle
 10
334.4485659280471
 20
290.8258730546573
 30
0.0
 40
1.0
100
AcDbArc
 50
0.0
 51
91.31802100000404
  0
LINE
  5
9C4
330
1F
100
AcDbEntity
  8
CLASS1
100
AcDbLine
 10
325.9485659280469
 20
269.8290100546573
 30
0.0
 11
325.9485659280471
 21
275.8290100546573
 31
0.0
  0
LINE
  5
9C5
330
1F
100
AcDbEntity
  8
CLASS1
100
AcDbLine
 10
329.448565928047
 20
269.8290100546573
 30
0.0
 11
329.448565928047
 21
275.8290100546573
 31
0.0
  0
LINE
  5
9C6
330
1F
100
AcDbEntity
  8
CLASS1
100
AcDbLine
 10
326.9381719280469
 20
275.3290100546573
 30
0.0
 11
326.9381719280468
 21
270.3290100546573
 31
0.0
  0
LINE
  5
9C7
330
1F
100
AcDbEntity
  8
CLASS1
100
AcDbLine
 10
328.948565928047
 20
275.3290100546573
 30
0.0
 11
328.948565928047
 21
270.3290100546573
 31
0.0
  0
LINE
  5
9C8
330
1F
100
AcDbEntity
  8
CLASS1
100
AcDbLine
 10
329.448565928047
 20
275.3290100546573
 30
0.0
 11
329.448565928047
 21
270.3290100546573
 31
0.0
  0
LINE
  5
9C9
330
1F
100
AcDbEntity
  8
CLASS1
100
AcDbLine
 10
334.4485659280469
 20
296.8274610546575
 30
0.0
 11
334.4485659280469
 21
291.8261370546573
 31
0.0
  0
LINE
  5
9CA
330
1F
100
AcDbEntity
  8
CLASS1
100
AcDbLine
 10
325.9485659280471
 20
275.8290100546573
 30
0.0
 11
329.448565928047
 21
275.8290100546573
 31
0.0
  0
LINE
  5
9CB
330
1F
100
AcDbEntity
  8
CLASS1
100
AcDbLine
 10
329.448565928047
 20
275.3290100546573
 30
0.0
 11
326.9381719280469
 21
275.3290100546573
 31
0.0
  0
LINE
  5
9CC
330
1F
100
AcDbEntity
  8
CLASS1
100
AcDbLine
 10
325.9485659280469
 20
269.8290100546573
 30
0.0
 11
329.448565928047
 21
269.8290100546573
 31
0.0
  0
LINE
  5
9CD
330
1F
100
AcDbEntity
  8
CLASS1
100
AcDbLine
 10
326.9381719280468
 20
270.3290100546573
 30
0.0
 11
329.448565928047
 21
270.3290100546573
 31
0.0
  0
LINE
  5
9CE
330
1F
100
AcDbEntity
  8
CLASS1
100
AcDbLine
 10
315.5537409280468
 20
221.9440100546576
 30
0.0
 11
318.133590928047
 21
208.7140100546573
 31
0.0
  0
LINE
  5
9CF
330
1F
100
AcDbEntity
  8
CLASS1
100
AcDbLine
 10
315.5537409280468
 20
221.9440100546576
 30
0.0
 11
318.133590928047
 21
208.7140100546573
 31
0.0
  0
LINE
  5
9D0
330
1F
100
AcDbEntity
  8
CLASS1
100
AcDbLine
 10
329.5113909280469
 20
221.9440100546576
 30
0.0
 11
326.7330909280469
 21
208.7140100546573
 31
0.0
  0
LINE
  5
9D1
330
1F
100
AcDbEntity
  8
CLASS1
100
AcDbLine
 10
329.5113909280469
 20
221.9440100546576
 30
0.0
 11
326.7330909280469
 21
208.7140100546573
 31
0.0
  0
HATCH
  5
9D2
330
1F
100
AcDbEntity
  8
CLASS1
100
AcDbHatch
 10
0.0
 20
0.0
 30
0.0
210
0.0
220
0.0
230
1.0
  2
SOLID
 70
     1
 71
     0
 91
        1
 92
        1
 93
        5
 72
     1
 10
321.9702907517464
 20
208.7140098895588
 11
324.4246330784533
 21
220.401357042947
 72
     2
 10
323.0003990582466
 20
220.7004461170586
 40
1.455300000000043
 50
1068.140224
 51
1138.705292999999
 73
     1
 72
     1
 10
323.7563403481134
 20
221.9440098895588
 11
329.5113907517464
 21
221.9440098895588
 72
     1
 10
329.5113907517464
 20
221.9440098895588
 11
326.7330907517465
 21
208.7140098895588
 72
     1
 10
326.7330907517465
 20
208.7140098895588
 11
321.9702907517464
 21
208.7140098895588
 97
        0
 75
     0
 76
     1
 98
        1
 10
242.5140539280469
 20
195.1147270546575
  0
HATCH
  5
9D3
330
1F
100
AcDbEntity
  8
CLASS1
100
AcDbHatch
 10
0.0
 20
0.0
 30
0.0
210
0.0
220
0.0
230
1.0
  2
SOLID
 70
     1
 71
     0
 91
        1
 92
        1
 93
        5
 72
     1
 10
321.9702907517463
 20
208.7140098895588
 11
324.4246330784531
 21
220.401357042947
 72
     2
 10
323.0003990582464
 20
220.7004461170586
 40
1.455300000000043
 50
1068.140224
 51
1138.705292999999
 73
     1
 72
     1
 10
323.7563403481134
 20
221.9440098895588
 11
329.5113907517462
 21
221.9440098895588
 72
     1
 10
329.5113907517464
 20
221.9440098895588
 11
326.7330907517466
 21
208.7140098895588
 72
     1
 10
326.7330907517465
 20
208.7140098895588
 11
321.9702907517463
 21
208.7140098895588
 97
        0
 75
     0
 76
     1
 98
        1
 10
242.5140539280469
 20
195.1147270546575
  0
LINE
  5
9D4
330
1F
100
AcDbEntity
  8
CLASS1
100
AcDbLine
 10
324.4246329280469
 20
220.4013570546574
 30
0.0
 11
321.9702909280467
 21
208.7140100546573
 31
0.0
  0
LINE
  5
9D5
330
1F
100
AcDbEntity
  8
CLASS1
100
AcDbLine
 10
324.4246329280469
 20
220.4013570546574
 30
0.0
 11
321.9702909280467
 21
208.7140100546573
 31
0.0
  0
LINE
  5
9D6
330
1F
100
AcDbEntity
  8
CLASS1
100
AcDbLine
 10
329.5113909280469
 20
221.9440100546576
 30
0.0
 11
323.756340928047
 21
221.9440100546576
 31
0.0
  0
LINE
  5
9D7
330
1F
100
AcDbEntity
  8
CLASS1
100
AcDbLine
 10
329.5113909280469
 20
221.9440100546576
 30
0.0
 11
323.756340928047
 21
221.9440100546576
 31
0.0
  0
ARC
  5
9D8
330
1F
100
AcDbEntity
  8
CLASS1
100
AcDbCircle
 10
323.0003989280468
 20
220.7004460546576
 30
0.0
 40
1.4553
100
AcDbArc
 50
348.1402210000033
 51
58.70528200000129
  0
ARC
  5
9D9
330
1F
100
AcDbEntity
  8
CLASS1
100
AcDbCircle
 10
323.0003989280468
 20
220.7004460546576
 30
0.0
 40
1.4553
100
AcDbArc
 50
348.1402210000033
 51
58.70528200000129
  0
LINE
  5
9DA
330
1F
100
AcDbEntity
  8
CLASS1
100
AcDbLine
 10
326.7330909280469
 20
208.7140100546573
 30
0.0
 11
321.9702909280467
 21
208.7140100546573
 31
0.0
  0
LINE
  5
9DB
330
1F
100
AcDbEntity
  8
CLASS1
100
AcDbLine
 10
326.7330909280469
 20
208.7140100546573
 30
0.0
 11
321.9702909280467
 21
208.7140100546573
 31
0.0
  0
ARC
  5
9DC
330
1F
100
AcDbEntity
  8
CLASS1
100
AcDbCircle
 10
334.4485659280467
 20
139.8290100546572
 30
0.0
 40
1.0
100
AcDbArc
 50
268.6980469999988
 51
0.0
  0
LINE
  5
9DD
330
1F
100
AcDbEntity
  8
CLASS1
100
AcDbLine
 10
325.9485659280469
 20
160.8290100546573
 30
0.0
 11
325.9485659280469
 21
154.8290100546573
 31
0.0
  0
LINE
  5
9DE
330
1F
100
AcDbEntity
  8
CLASS1
100
AcDbLine
 10
326.9381719280468
 20
155.3290100546573
 30
0.0
 11
326.9381719280468
 21
160.3290100546573
 31
0.0
  0
LINE
  5
9DF
330
1F
100
AcDbEntity
  8
CLASS1
100
AcDbLine
 10
328.9485659280468
 20
155.3290100546573
 30
0.0
 11
328.9485659280468
 21
160.3290100546573
 31
0.0
  0
LINE
  5
9E0
330
1F
100
AcDbEntity
  8
CLASS1
100
AcDbLine
 10
329.4485659280468
 20
160.8290100546573
 30
0.0
 11
329.4485659280468
 21
154.8290100546573
 31
0.0
  0
LINE
  5
9E1
330
1F
100
AcDbEntity
  8
CLASS1
100
AcDbLine
 10
329.4485659280468
 20
155.3290100546573
 30
0.0
 11
329.4485659280468
 21
160.3290100546573
 31
0.0
  0
LINE
  5
9E2
330
1F
100
AcDbEntity
  8
CLASS1
100
AcDbLine
 10
325.9485659280469
 20
154.8290100546573
 30
0.0
 11
329.4485659280468
 21
154.8290100546573
 31
0.0
  0
LINE
  5
9E3
330
1F
100
AcDbEntity
  8
CLASS1
100
AcDbLine
 10
325.9485659280469
 20
160.8290100546573
 30
0.0
 11
329.4485659280468
 21
160.8290100546573
 31
0.0
  0
LINE
  5
9E4
330
1F
100
AcDbEntity
  8
CLASS1
100
AcDbLine
 10
326.9381719280468
 20
160.3290100546573
 30
0.0
 11
329.4485659280468
 21
160.3290100546573
 31
0.0
  0
LINE
  5
9E5
330
1F
100
AcDbEntity
  8
CLASS1
100
AcDbLine
 10
329.4485659280468
 20
155.3290100546573
 30
0.0
 11
326.9381719280468
 21
155.3290100546573
 31
0.0
  0
LINE
  5
9E6
330
1F
100
AcDbEntity
  8
CLASS1
100
AcDbLine
 10
334.4485659280469
 20
126.8290100546572
 30
0.0
 11
336.9485659280468
 21
126.8290100546572
 31
0.0
  0
LINE
  5
9E7
330
1F
100
AcDbEntity
  8
0
100
AcDbLine
 10
334.4485659280469
 20
126.8290100546572
 30
0.0
 11
334.4485659280469
 21
133.8274610546575
 31
0.0
  0
LINE
  5
9EA
330
1F
100
AcDbEntity
  8
CLASS1
  6
CONTINUOUS
 62
     0
100
AcDbLine
 10
163.9740603412433
 20
35.09999927687839
 30
0.0
 11
163.9740603412433
 21
33.0999992768784
 31
0.0
  0
LINE
  5
9EB
330
1F
100
AcDbEntity
  8
CLASS1
  6
CONTINUOUS
 62
     0
100
AcDbLine
 10
162.4740603412432
 20
35.09999927687839
 30
0.0
 11
162.4740603412432
 21
33.0999992768784
 31
0.0
  0
LINE
  5
9EC
330
1F
100
AcDbEntity
  8
CLASS1
  6
CONTINUOUS
 62
     0
100
AcDbLine
 10
175.4740603412433
 20
35.89999927687813
 30
0.0
 11
175.4740603412433
 21
25.89999927687812
 31
0.0
  0
LINE
  5
9ED
330
1F
100
AcDbEntity
  8
CLASS1
  6
CONTINUOUS
 62
     0
100
AcDbLine
 10
165.4740603412433
 20
25.89999927687812
 30
0.0
 11
165.4740603412433
 21
35.89999927687813
 31
0.0
  0
LINE
  5
9EE
330
1F
100
AcDbEntity
  8
CLASS1
  6
CONTINUOUS
 62
     0
100
AcDbLine
 10
166.9740603412433
 20
27.89999927687812
 30
0.0
 11
166.9740603412433
 21
33.89999927687812
 31
0.0
  0
LINE
  5
9EF
330
1F
100
AcDbEntity
  8
CLASS1
  6
CONTINUOUS
 62
     0
100
AcDbLine
 10
173.9740603412433
 20
33.89999927687812
 30
0.0
 11
173.9740603412433
 21
27.89999927687812
 31
0.0
  0
LINE
  5
9F0
330
1F
100
AcDbEntity
  8
CLASS1
  6
CONTINUOUS
 62
     0
100
AcDbLine
 10
185.0589353412433
 20
61.96012527687821
 30
0.0
 11
185.974461341243
 21
2.515398276878157
 31
0.0
  0
LINE
  5
9F1
330
1F
100
AcDbEntity
  8
CLASS1
  6
CONTINUOUS
 62
     0
100
AcDbLine
 10
151.8891843412431
 20
61.96012527687821
 30
0.0
 11
150.973659341243
 21
2.515398276878157
 31
0.0
  0
LINE
  5
9F2
330
1F
100
AcDbEntity
  8
CLASS1
  6
CONTINUOUS
 62
     0
100
AcDbLine
 10
178.5604913412431
 20
61.79658427687832
 30
0.0
 11
179.4737353412433
 21
2.499999276878269
 31
0.0
  0
LINE
  5
9F3
330
1F
100
AcDbEntity
  8
CLASS1
  6
CONTINUOUS
 62
     0
100
AcDbLine
 10
158.3876603412431
 20
61.79859427687802
 30
0.0
 11
157.4743853412433
 21
2.499999276878269
 31
0.0
  0
LINE
  5
9F4
330
1F
100
AcDbEntity
  8
CLASS1
  6
CONTINUOUS
 62
     0
100
AcDbLine
 10
182.9779587630505
 20
68.19007170299892
 30
0.0
 11
183.974269341243
 21
2.499999276878269
 31
0.0
  0
LINE
  5
9F5
330
1F
100
AcDbEntity
  8
CLASS1
  6
CONTINUOUS
 62
     0
100
AcDbLine
 10
153.9701619194361
 20
68.19007270299881
 30
0.0
 11
152.9738513412432
 21
2.499999276878269
 31
0.0
  0
INSERT
  5
9F6
330
1F
100
AcDbEntity
  8
0
100
AcDbBlockReference
  2
A$C51C20FFB
 10
152.9742693412431
 20
0.0000006142004167
 30
0.0
  0
LINE
  5
9F7
330
1F
100
AcDbEntity
  8
CLASS1
  6
CONTINUOUS
 62
     0
100
AcDbLine
 10
152.9738513412432
 20
2.499999276878269
 30
0.0
 11
183.974269341243
 21
2.499999276878269
 31
0.0
  0
LINE
  5
9F8
330
1F
100
AcDbEntity
  8
CLASS1
  6
CONTINUOUS
 62
     0
100
AcDbLine
 10
183.974269341243
 20
1.499999276878269
 30
0.0
 11
184.9745803412433
 21
1.499999276878269
 31
0.0
  0
ARC
  5
9F9
330
1F
100
AcDbEntity
  8
CLASS1
  6
CONTINUOUS
 62
     0
100
AcDbCircle
 10
184.9745803412433
 20
2.499999276878496
 30
0.0
 40
1.0
100
AcDbArc
 50
270.0
 51
0.8823590000053204
  0
LINE
  5
9FA
330
1F
100
AcDbEntity
  8
CLASS1
  6
CONTINUOUS
 62
     0
100
AcDbLine
 10
183.974269341243
 20
1.499999276878269
 30
0.0
 11
183.974269341243
 21
2.499999276878269
 31
0.0
  0
LINE
  5
9FB
330
1F
100
AcDbEntity
  8
CLASS1
  6
CONTINUOUS
 62
     0
100
AcDbLine
 10
173.4740603412433
 20
27.39999927687812
 30
0.0
 11
167.4740603412432
 21
27.39999927687812
 31
0.0
  0
LINE
  5
9FC
330
1F
100
AcDbEntity
  8
CLASS1
  6
CONTINUOUS
 62
     0
100
AcDbLine
 10
175.4740603412433
 20
25.89999927687812
 30
0.0
 11
165.4740603412433
 21
25.89999927687812
 31
0.0
  0
LINE
  5
9FD
330
1F
100
AcDbEntity
  8
CLASS1
  6
CONTINUOUS
 62
     0
100
AcDbLine
 10
174.4740603412433
 20
23.0999992768784
 30
0.0
 11
162.4740603412432
 21
23.0999992768784
 31
0.0
  0
LINE
  5
9FE
330
1F
100
AcDbEntity
  8
CLASS1
  6
CONTINUOUS
 62
     0
100
AcDbLine
 10
162.4740603412432
 20
21.09999927687839
 30
0.0
 11
174.4740603412433
 21
21.09999927687839
 31
0.0
  0
LINE
  5
9FF
330
1F
100
AcDbEntity
  8
CLASS1
  6
CONTINUOUS
 62
     0
100
AcDbLine
 10
174.4740603412433
 20
19.09999927687839
 30
0.0
 11
162.4740603412432
 21
19.09999927687839
 31
0.0
  0
LINE
  5
A00
330
1F
100
AcDbEntity
  8
CLASS1
  6
CONTINUOUS
 62
     0
100
AcDbLine
 10
162.4740603412432
 20
17.0999992768784
 30
0.0
 11
174.4740603412433
 21
17.0999992768784
 31
0.0
  0
LINE
  5
A01
330
1F
100
AcDbEntity
  8
CLASS1
  6
CONTINUOUS
 62
     0
100
AcDbLine
 10
174.4740603412433
 20
11.0999992768784
 30
0.0
 11
162.4740603412432
 21
11.0999992768784
 31
0.0
  0
LINE
  5
A02
330
1F
100
AcDbEntity
  8
CLASS1
  6
CONTINUOUS
 62
     0
100
AcDbLine
 10
162.4740603412432
 20
13.0999992768784
 30
0.0
 11
174.4740603412433
 21
13.0999992768784
 31
0.0
  0
LINE
  5
A03
330
1F
100
AcDbEntity
  8
CLASS1
  6
CONTINUOUS
 62
     0
100
AcDbLine
 10
174.4740603412433
 20
15.09999927687839
 30
0.0
 11
162.4740603412432
 21
15.09999927687839
 31
0.0
  0
LINE
  5
A04
330
1F
100
AcDbEntity
  8
CLASS1
  6
CONTINUOUS
 62
     0
100
AcDbLine
 10
162.4740603412432
 20
9.099999276878405
 30
0.0
 11
174.4740603412433
 21
9.099999276878405
 31
0.0
  0
LINE
  5
A05
330
1F
100
AcDbEntity
  8
CLASS1
  6
CONTINUOUS
 62
     0
100
AcDbLine
 10
174.4740603412433
 20
17.0999992768784
 30
0.0
 11
174.4740603412433
 21
19.09999927687839
 31
0.0
  0
LINE
  5
A06
330
1F
100
AcDbEntity
  8
CLASS1
  6
CONTINUOUS
 62
     0
100
AcDbLine
 10
174.4740603412433
 20
13.0999992768784
 30
0.0
 11
174.4740603412433
 21
15.09999927687839
 31
0.0
  0
LINE
  5
A07
330
1F
100
AcDbEntity
  8
CLASS1
  6
CONTINUOUS
 62
     0
100
AcDbLine
 10
174.4740603412433
 20
9.099999276878405
 30
0.0
 11
174.4740603412433
 21
11.0999992768784
 31
0.0
  0
LINE
  5
A08
330
1F
100
AcDbEntity
  8
CLASS1
  6
CONTINUOUS
 62
     0
100
AcDbLine
 10
175.4740603412433
 20
30.14999927687812
 30
0.0
 11
173.9740603412433
 21
30.14999927687812
 31
0.0
  0
LINE
  5
A09
330
1F
100
AcDbEntity
  8
CLASS1
  6
CONTINUOUS
 62
     0
100
AcDbLine
 10
175.4740603412433
 20
31.64999927687812
 30
0.0
 11
173.9740603412433
 21
31.64999927687812
 31
0.0
  0
ARC
  5
A0A
330
1F
100
AcDbEntity
  8
CLASS1
  6
CONTINUOUS
 62
     0
100
AcDbCircle
 10
173.4740603412433
 20
27.89999927687836
 30
0.0
 40
0.5
100
AcDbArc
 50
270.0
 51
0.0
  0
LINE
  5
A0B
330
1F
100
AcDbEntity
  8
CLASS1
  6
CONTINUOUS
 62
     0
100
AcDbLine
 10
174.4740603412433
 20
21.09999927687839
 30
0.0
 11
174.4740603412433
 21
23.0999992768784
 31
0.0
  0
LINE
  5
A0C
330
1F
100
AcDbEntity
  8
CLASS1
  6
CONTINUOUS
 62
     0
100
AcDbLine
 10
162.4740603412432
 20
19.09999927687839
 30
0.0
 11
162.4740603412432
 21
17.0999992768784
 31
0.0
  0
LINE
  5
A0D
330
1F
100
AcDbEntity
  8
CLASS1
  6
CONTINUOUS
 62
     0
100
AcDbLine
 10
162.4740603412432
 20
15.09999927687839
 30
0.0
 11
162.4740603412432
 21
13.0999992768784
 31
0.0
  0
LINE
  5
A0E
330
1F
100
AcDbEntity
  8
CLASS1
  6
CONTINUOUS
 62
     0
100
AcDbLine
 10
162.4740603412432
 20
11.0999992768784
 30
0.0
 11
162.4740603412432
 21
9.099999276878405
 31
0.0
  0
LINE
  5
A0F
330
1F
100
AcDbEntity
  8
CLASS1
  6
CONTINUOUS
 62
     0
100
AcDbLine
 10
162.4740603412432
 20
33.0999992768784
 30
0.0
 11
163.9740603412433
 21
33.0999992768784
 31
0.0
  0
LINE
  5
A10
330
1F
100
AcDbEntity
  8
CLASS1
  6
CONTINUOUS
 62
     0
100
AcDbLine
 10
162.4740603412432
 20
31.0999992768784
 30
0.0
 11
162.4740603412432
 21
29.0999992768784
 31
0.0
  0
LINE
  5
A11
330
1F
100
AcDbEntity
  8
CLASS1
  6
CONTINUOUS
 62
     0
100
AcDbLine
 10
163.9740603412433
 20
31.0999992768784
 30
0.0
 11
163.9740603412433
 21
29.0999992768784
 31
0.0
  0
LINE
  5
A12
330
1F
100
AcDbEntity
  8
CLASS1
  6
CONTINUOUS
 62
     0
100
AcDbLine
 10
162.4740603412432
 20
29.0999992768784
 30
0.0
 11
163.9740603412433
 21
29.0999992768784
 31
0.0
  0
LINE
  5
A13
330
1F
100
AcDbEntity
  8
CLASS1
  6
CONTINUOUS
 62
     0
100
AcDbLine
 10
163.9740603412433
 20
31.0999992768784
 30
0.0
 11
162.4740603412432
 21
31.0999992768784
 31
0.0
  0
LINE
  5
A14
330
1F
100
AcDbEntity
  8
CLASS1
  6
CONTINUOUS
 62
     0
100
AcDbLine
 10
166.9740603412433
 20
30.14999927687812
 30
0.0
 11
165.4740603412433
 21
30.14999927687812
 31
0.0
  0
LINE
  5
A15
330
1F
100
AcDbEntity
  8
CLASS1
  6
CONTINUOUS
 62
     0
100
AcDbLine
 10
166.9740603412433
 20
31.64999927687812
 30
0.0
 11
165.4740603412433
 21
31.64999927687812
 31
0.0
  0
ARC
  5
A16
330
1F
100
AcDbEntity
  8
CLASS1
  6
CONTINUOUS
 62
     0
100
AcDbCircle
 10
167.4740603412432
 20
27.89999927687836
 30
0.0
 40
0.5
100
AcDbArc
 50
180.0
 51
270.0
  0
LINE
  5
A17
330
1F
100
AcDbEntity
  8
CLASS1
  6
CONTINUOUS
 62
     0
100
AcDbLine
 10
162.4740603412432
 20
27.09999927687841
 30
0.0
 11
162.4740603412432
 21
25.09999927687839
 31
0.0
  0
LINE
  5
A18
330
1F
100
AcDbEntity
  8
CLASS1
  6
CONTINUOUS
 62
     0
100
AcDbLine
 10
163.9740603412433
 20
27.09999927687841
 30
0.0
 11
163.9740603412433
 21
25.09999927687839
 31
0.0
  0
LINE
  5
A19
330
1F
100
AcDbEntity
  8
CLASS1
  6
CONTINUOUS
 62
     0
100
AcDbLine
 10
163.9740603412433
 20
27.09999927687841
 30
0.0
 11
162.4740603412432
 21
27.09999927687841
 31
0.0
  0
LINE
  5
A1A
330
1F
100
AcDbEntity
  8
CLASS1
  6
CONTINUOUS
 62
     0
100
AcDbLine
 10
162.4740603412432
 20
25.09999927687839
 30
0.0
 11
163.9740603412433
 21
25.09999927687839
 31
0.0
  0
LINE
  5
A1B
330
1F
100
AcDbEntity
  8
CLASS1
  6
CONTINUOUS
 62
     0
100
AcDbLine
 10
162.4740603412432
 20
23.0999992768784
 30
0.0
 11
162.4740603412432
 21
21.09999927687839
 31
0.0
  0
LINE
  5
A1C
330
1F
100
AcDbEntity
  8
CLASS1
  6
CONTINUOUS
 62
     0
100
AcDbLine
 10
152.9738513412432
 20
1.499999276878269
 30
0.0
 11
151.9735413412431
 21
1.499999276878269
 31
0.0
  0
LINE
  5
A1D
330
1F
100
AcDbEntity
  8
CLASS1
  6
CONTINUOUS
 62
     0
100
AcDbLine
 10
152.9738513412432
 20
2.499999276878269
 30
0.0
 11
152.9738513412432
 21
1.499999276878269
 31
0.0
  0
ARC
  5
A1E
330
1F
100
AcDbEntity
  8
CLASS1
  6
CONTINUOUS
 62
     0
100
AcDbCircle
 10
151.9735413412431
 20
2.499999276878496
 30
0.0
 40
1.0
100
AcDbArc
 50
179.1176409999945
 51
270.0
  0
LINE
  5
A1F
330
1F
100
AcDbEntity
  8
CLASS1
  6
CONTINUOUS
 62
     0
100
AcDbLine
 10
184.0590533412431
 20
62.94472527687799
 30
0.0
 11
183.0433413412433
 21
62.94472527687799
 31
0.0
  0
ARC
  5
A20
330
1F
100
AcDbEntity
  8
CLASS1
  6
CONTINUOUS
 62
     0
100
AcDbCircle
 10
184.0590533412431
 20
61.94472527687821
 30
0.0
 40
1.0
100
AcDbArc
 50
0.8823590000053204
 51
90.0
  0
ARC
  5
A21
330
1F
100
AcDbEntity
  8
CLASS1
  6
CONTINUOUS
 62
     0
100
AcDbCircle
 10
160.3873913412433
 20
61.76578527687843
 30
0.0
 40
2.0
100
AcDbArc
 50
94.73325899999677
 51
179.1176409999945
  0
LINE
  5
A22
330
1F
100
AcDbEntity
  8
CLASS1
  6
CONTINUOUS
 62
     0
100
AcDbLine
 10
162.4740603412432
 20
57.09999927687841
 30
0.0
 11
174.4740603412433
 21
57.09999927687841
 31
0.0
  0
LINE
  5
A23
330
1F
100
AcDbEntity
  8
CLASS1
  6
CONTINUOUS
 62
     0
100
AcDbLine
 10
174.4740603412433
 20
59.09999927687841
 30
0.0
 11
162.4740603412432
 21
59.09999927687841
 31
0.0
  0
LINE
  5
A24
330
1F
100
AcDbEntity
  8
CLASS1
  6
CONTINUOUS
 62
     0
100
AcDbLine
 10
174.4740603412433
 20
55.09999927687839
 30
0.0
 11
162.4740603412432
 21
55.09999927687839
 31
0.0
  0
LINE
  5
A25
330
1F
100
AcDbEntity
  8
CLASS1
  6
CONTINUOUS
 62
     0
100
AcDbLine
 10
162.4740603412432
 20
53.09999927687839
 30
0.0
 11
174.4740603412433
 21
53.09999927687839
 31
0.0
  0
LINE
  5
A26
330
1F
100
AcDbEntity
  8
CLASS1
  6
CONTINUOUS
 62
     0
100
AcDbLine
 10
174.4740603412433
 20
51.09999927687841
 30
0.0
 11
162.4740603412432
 21
51.09999927687841
 31
0.0
  0
LINE
  5
A27
330
1F
100
AcDbEntity
  8
CLASS1
  6
CONTINUOUS
 62
     0
100
AcDbLine
 10
162.4740603412432
 20
49.09999927687841
 30
0.0
 11
174.4740603412433
 21
49.09999927687841
 31
0.0
  0
LINE
  5
A28
330
1F
100
AcDbEntity
  8
CLASS1
  6
CONTINUOUS
 62
     0
100
AcDbLine
 10
174.4740603412433
 20
43.09999927687839
 30
0.0
 11
162.4740603412432
 21
43.09999927687839
 31
0.0
  0
LINE
  5
A29
330
1F
100
AcDbEntity
  8
CLASS1
  6
CONTINUOUS
 62
     0
100
AcDbLine
 10
162.4740603412432
 20
45.09999927687839
 30
0.0
 11
174.4740603412433
 21
45.09999927687839
 31
0.0
  0
LINE
  5
A2A
330
1F
100
AcDbEntity
  8
CLASS1
  6
CONTINUOUS
 62
     0
100
AcDbLine
 10
174.4740603412433
 20
47.09999927687841
 30
0.0
 11
162.4740603412432
 21
47.09999927687841
 31
0.0
  0
LINE
  5
A2B
330
1F
100
AcDbEntity
  8
CLASS1
  6
CONTINUOUS
 62
     0
100
AcDbLine
 10
162.4740603412432
 20
41.0999992768784
 30
0.0
 11
174.4740603412433
 21
41.0999992768784
 31
0.0
  0
LINE
  5
A2C
330
1F
100
AcDbEntity
  8
CLASS1
  6
CONTINUOUS
 62
     0
100
AcDbLine
 10
165.4740603412433
 20
35.89999927687813
 30
0.0
 11
175.4740603412433
 21
35.89999927687813
 31
0.0
  0
LINE
  5
A2D
330
1F
100
AcDbEntity
  8
CLASS1
  6
CONTINUOUS
 62
     0
100
AcDbLine
 10
162.4740603412432
 20
37.09999927687841
 30
0.0
 11
174.4740603412433
 21
37.09999927687841
 31
0.0
  0
LINE
  5
A2E
330
1F
100
AcDbEntity
  8
CLASS1
  6
CONTINUOUS
 62
     0
100
AcDbLine
 10
174.4740603412433
 20
39.0999992768784
 30
0.0
 11
162.4740603412432
 21
39.0999992768784
 31
0.0
  0
LINE
  5
A2F
330
1F
100
AcDbEntity
  8
CLASS1
  6
CONTINUOUS
 62
     0
100
AcDbLine
 10
167.4740603412432
 20
34.39999927687813
 30
0.0
 11
173.4740603412433
 21
34.39999927687813
 31
0.0
  0
LINE
  5
A30
330
1F
100
AcDbEntity
  8
CLASS1
  6
CONTINUOUS
 62
     0
100
AcDbLine
 10
174.4740603412433
 20
45.09999927687839
 30
0.0
 11
174.4740603412433
 21
47.09999927687841
 31
0.0
  0
LINE
  5
A31
330
1F
100
AcDbEntity
  8
CLASS1
  6
CONTINUOUS
 62
     0
100
AcDbLine
 10
174.4740603412433
 20
37.09999927687841
 30
0.0
 11
174.4740603412433
 21
39.0999992768784
 31
0.0
  0
ARC
  5
A32
330
1F
100
AcDbEntity
  8
CLASS1
  6
CONTINUOUS
 62
     0
100
AcDbCircle
 10
173.4740603412433
 20
33.89999927687836
 30
0.0
 40
0.5
100
AcDbArc
 50
0.0
 51
90.0
  0
LINE
  5
A33
330
1F
100
AcDbEntity
  8
CLASS1
  6
CONTINUOUS
 62
     0
100
AcDbLine
 10
174.4740603412433
 20
41.0999992768784
 30
0.0
 11
174.4740603412433
 21
43.09999927687839
 31
0.0
  0
LINE
  5
A34
330
1F
100
AcDbEntity
  8
CLASS1
  6
CONTINUOUS
 62
     0
100
AcDbLine
 10
174.4740603412433
 20
57.09999927687841
 30
0.0
 11
174.4740603412433
 21
59.09999927687841
 31
0.0
  0
LINE
  5
A35
330
1F
100
AcDbEntity
  8
CLASS1
  6
CONTINUOUS
 62
     0
100
AcDbLine
 10
174.4740603412433
 20
49.09999927687841
 30
0.0
 11
174.4740603412433
 21
51.09999927687841
 31
0.0
  0
LINE
  5
A36
330
1F
100
AcDbEntity
  8
CLASS1
  6
CONTINUOUS
 62
     0
100
AcDbLine
 10
174.4740603412433
 20
53.09999927687839
 30
0.0
 11
174.4740603412433
 21
55.09999927687839
 31
0.0
  0
LINE
  5
A37
330
1F
100
AcDbEntity
  8
CLASS1
  6
CONTINUOUS
 62
     0
100
AcDbLine
 10
162.4740603412432
 20
47.09999927687841
 30
0.0
 11
162.4740603412432
 21
45.09999927687839
 31
0.0
  0
LINE
  5
A38
330
1F
100
AcDbEntity
  8
CLASS1
  6
CONTINUOUS
 62
     0
100
AcDbLine
 10
162.4740603412432
 20
39.0999992768784
 30
0.0
 11
162.4740603412432
 21
37.09999927687841
 31
0.0
  0
ARC
  5
A39
330
1F
100
AcDbEntity
  8
CLASS1
  6
CONTINUOUS
 62
     0
100
AcDbCircle
 10
167.4740603412432
 20
33.89999927687836
 30
0.0
 40
0.5
100
AcDbArc
 50
90.0
 51
180.0
  0
LINE
  5
A3A
330
1F
100
AcDbEntity
  8
CLASS1
  6
CONTINUOUS
 62
     0
100
AcDbLine
 10
163.9740603412433
 20
35.09999927687839
 30
0.0
 11
162.4740603412432
 21
35.09999927687839
 31
0.0
  0
LINE
  5
A3B
330
1F
100
AcDbEntity
  8
CLASS1
  6
CONTINUOUS
 62
     0
100
AcDbLine
 10
162.4740603412432
 20
43.09999927687839
 30
0.0
 11
162.4740603412432
 21
41.0999992768784
 31
0.0
  0
LINE
  5
A3C
330
1F
100
AcDbEntity
  8
CLASS1
  6
CONTINUOUS
 62
     0
100
AcDbLine
 10
162.4740603412432
 20
59.09999927687841
 30
0.0
 11
162.4740603412432
 21
57.09999927687841
 31
0.0
  0
LINE
  5
A3D
330
1F
100
AcDbEntity
  8
CLASS1
  6
CONTINUOUS
 62
     0
100
AcDbLine
 10
162.4740603412432
 20
51.09999927687841
 30
0.0
 11
162.4740603412432
 21
49.09999927687841
 31
0.0
  0
LINE
  5
A3E
330
1F
100
AcDbEntity
  8
CLASS1
  6
CONTINUOUS
 62
     0
100
AcDbLine
 10
162.4740603412432
 20
55.09999927687839
 30
0.0
 11
162.4740603412432
 21
53.09999927687839
 31
0.0
  0
ARC
  5
A3F
330
1F
100
AcDbEntity
  8
CLASS1
  6
CONTINUOUS
 62
     0
100
AcDbCircle
 10
168.4740603412433
 20
-35.90000072312159
 30
0.0
 40
100.0
100
AcDbArc
 50
85.2667410000032
 51
94.73325899999677
  0
ARC
  5
A40
330
1F
100
AcDbEntity
  8
CLASS1
  6
CONTINUOUS
 62
     0
100
AcDbCircle
 10
176.5607273412433
 20
61.76578627687831
 30
0.0
 40
2.0
100
AcDbArc
 50
0.8823600000015774
 51
85.2667410000032
  0
LINE
  5
A41
330
1F
100
AcDbEntity
  8
CLASS1
  6
CONTINUOUS
 62
     0
100
AcDbLine
 10
152.8890663412432
 20
62.94472527687799
 30
0.0
 11
153.9047773412432
 21
62.94472527687799
 31
0.0
  0
ARC
  5
A42
330
1F
100
AcDbEntity
  8
CLASS1
  6
CONTINUOUS
 62
     0
100
AcDbCircle
 10
152.8890663412432
 20
61.94472527687821
 30
0.0
 40
1.0
100
AcDbArc
 50
90.0
 51
179.1176409999945
  0
LINE
  5
A43
330
1F
100
AcDbEntity
  8
CLASS1
  6
CONTINUOUS
 62
     0
100
AcDbLine
 10
152.973852213903
 20
435.3181798768006
 30
0.0
 11
183.9742702139028
 21
435.3181798768006
 31
0.0
  0
INSERT
  5
A44
330
1F
100
AcDbEntity
  8
0
100
AcDbBlockReference
  2
A$C51C20FFB
 10
183.9742702139027
 20
438.8181785394788
 30
0.0
 50
180.0
  0
LINE
  5
A45
330
1F
100
AcDbEntity
  8
CLASS1
  6
CONTINUOUS
 62
     0
100
AcDbLine
 10
178.5604932139028
 20
376.0215948768006
 30
0.0
 11
179.4737362139028
 21
435.3181798768006
 31
0.0
  0
LINE
  5
A46
330
1F
100
AcDbEntity
  8
CLASS1
  6
CONTINUOUS
 62
     0
100
AcDbLine
 10
185.0589372139028
 20
375.8580538768008
 30
0.0
 11
185.9744622139028
 21
435.3027808768008
 31
0.0
  0
LINE
  5
A47
330
1F
100
AcDbEntity
  8
CLASS1
  6
CONTINUOUS
 62
     0
100
AcDbLine
 10
182.9779602139027
 20
370.6281058768011
 30
0.0
 11
183.9742702139028
 21
435.3181798768006
 31
0.0
  0
ARC
  5
A48
330
1F
100
AcDbEntity
  8
CLASS1
  6
CONTINUOUS
 62
     0
100
AcDbCircle
 10
184.0590552139025
 20
375.873453876801
 30
0.0
 40
1.0
100
AcDbArc
 50
270.0
 51
359.1176409999946
  0
LINE
  5
A49
330
1F
100
AcDbEntity
  8
CLASS1
  6
CONTINUOUS
 62
     0
100
AcDbLine
 10
184.0590552139028
 20
374.873453876801
 30
0.0
 11
183.0433432139028
 21
374.873453876801
 31
0.0
  0
ARC
  5
A4A
330
1F
100
AcDbEntity
  8
CLASS1
  6
CONTINUOUS
 62
     0
100
AcDbCircle
 10
184.9745812139026
 20
435.3181798768006
 30
0.0
 40
1.0
100
AcDbArc
 50
359.1176409999946
 51
90.0
  0
LINE
  5
A4B
330
1F
100
AcDbEntity
  8
CLASS1
  6
CONTINUOUS
 62
     0
100
AcDbLine
 10
183.9742702139028
 20
436.3181798768007
 30
0.0
 11
183.9742702139028
 21
435.3181798768006
 31
0.0
  0
LINE
  5
A4C
330
1F
100
AcDbEntity
  8
CLASS1
  6
CONTINUOUS
 62
     0
100
AcDbLine
 10
183.9742702139028
 20
436.3181798768007
 30
0.0
 11
184.9745812139028
 21
436.3181798768007
 31
0.0
  0
LINE
  5
A4D
330
1F
100
AcDbEntity
  8
CLASS1
  6
CONTINUOUS
 62
     0
100
AcDbLine
 10
162.4740612139028
 20
391.7181798768008
 30
0.0
 11
162.4740612139028
 21
393.7181798768008
 31
0.0
  0
LINE
  5
A4E
330
1F
100
AcDbEntity
  8
CLASS1
  6
CONTINUOUS
 62
     0
100
AcDbLine
 10
174.4740612139028
 20
393.7181798768008
 30
0.0
 11
174.4740612139028
 21
391.7181798768008
 31
0.0
  0
LINE
  5
A4F
330
1F
100
AcDbEntity
  8
CLASS1
  6
CONTINUOUS
 62
     0
100
AcDbLine
 10
151.8891862139028
 20
375.8580538768008
 30
0.0
 11
150.973660213903
 21
435.3027808768008
 31
0.0
  0
LINE
  5
A50
330
1F
100
AcDbEntity
  8
CLASS1
  6
CONTINUOUS
 62
     0
100
AcDbLine
 10
158.3876312139029
 20
376.0215948768006
 30
0.0
 11
157.4743862139026
 21
435.3181798768006
 31
0.0
  0
LINE
  5
A51
330
1F
100
AcDbEntity
  8
CLASS1
  6
CONTINUOUS
 62
     0
100
AcDbLine
 10
153.9701902139029
 20
370.6264268768011
 30
0.0
 11
152.973852213903
 21
435.3181798768006
 31
0.0
  0
ARC
  5
A52
330
1F
100
AcDbEntity
  8
CLASS1
  6
CONTINUOUS
 62
     0
100
AcDbCircle
 10
160.3873942139026
 20
376.0523928768008
 30
0.0
 40
2.0
100
AcDbArc
 50
180.8823600000014
 51
265.2667410000032
  0
LINE
  5
A53
330
1F
100
AcDbEntity
  8
CLASS1
  6
CONTINUOUS
 62
     0
100
AcDbLine
 10
174.4740612139028
 20
391.7181798768008
 30
0.0
 11
162.4740612139028
 21
391.7181798768008
 31
0.0
  0
LINE
  5
A54
330
1F
100
AcDbEntity
  8
CLASS1
  6
CONTINUOUS
 62
     0
100
AcDbLine
 10
174.4740612139028
 20
387.7181798768008
 30
0.0
 11
162.4740612139028
 21
387.7181798768008
 31
0.0
  0
LINE
  5
A55
330
1F
100
AcDbEntity
  8
CLASS1
  6
CONTINUOUS
 62
     0
100
AcDbLine
 10
162.4740612139028
 20
389.7181798768008
 30
0.0
 11
174.4740612139028
 21
389.7181798768008
 31
0.0
  0
LINE
  5
A56
330
1F
100
AcDbEntity
  8
CLASS1
  6
CONTINUOUS
 62
     0
100
AcDbLine
 10
162.4740612139028
 20
385.7181798768008
 30
0.0
 11
174.4740612139028
 21
385.7181798768008
 31
0.0
  0
LINE
  5
A57
330
1F
100
AcDbEntity
  8
CLASS1
  6
CONTINUOUS
 62
     0
100
AcDbLine
 10
174.4740612139028
 20
383.7181798768008
 30
0.0
 11
162.4740612139028
 21
383.7181798768008
 31
0.0
  0
LINE
  5
A58
330
1F
100
AcDbEntity
  8
CLASS1
  6
CONTINUOUS
 62
     0
100
AcDbLine
 10
162.4740612139028
 20
381.7181798768008
 30
0.0
 11
174.4740612139028
 21
381.7181798768008
 31
0.0
  0
LINE
  5
A59
330
1F
100
AcDbEntity
  8
CLASS1
  6
CONTINUOUS
 62
     0
100
AcDbLine
 10
174.4740612139028
 20
379.7181798768008
 30
0.0
 11
162.4740612139028
 21
379.7181798768008
 31
0.0
  0
ARC
  5
A5A
330
1F
100
AcDbEntity
  8
CLASS1
  6
CONTINUOUS
 62
     0
100
AcDbCircle
 10
168.4740612139028
 20
473.7181798768008
 30
0.0
 40
100.0
100
AcDbArc
 50
265.2667410000032
 51
274.7332589999968
  0
ARC
  5
A5B
330
1F
100
AcDbEntity
  8
CLASS1
  6
CONTINUOUS
 62
     0
100
AcDbCircle
 10
176.5607302139025
 20
376.0523938768008
 30
0.0
 40
2.0
100
AcDbArc
 50
274.7332589999968
 51
359.1176409999946
  0
LINE
  5
A5C
330
1F
100
AcDbEntity
  8
CLASS1
  6
CONTINUOUS
 62
     0
100
AcDbLine
 10
174.4740612139028
 20
389.7181798768008
 30
0.0
 11
174.4740612139028
 21
387.7181798768008
 31
0.0
  0
LINE
  5
A5D
330
1F
100
AcDbEntity
  8
CLASS1
  6
CONTINUOUS
 62
     0
100
AcDbLine
 10
174.4740612139028
 20
385.7181798768008
 30
0.0
 11
174.4740612139028
 21
383.7181798768008
 31
0.0
  0
LINE
  5
A5E
330
1F
100
AcDbEntity
  8
CLASS1
  6
CONTINUOUS
 62
     0
100
AcDbLine
 10
174.4740612139028
 20
381.7181798768008
 30
0.0
 11
174.4740612139028
 21
379.7181798768008
 31
0.0
  0
LINE
  5
A5F
330
1F
100
AcDbEntity
  8
CLASS1
  6
CONTINUOUS
 62
     0
100
AcDbLine
 10
162.4740612139028
 20
387.7181798768008
 30
0.0
 11
162.4740612139028
 21
389.7181798768008
 31
0.0
  0
LINE
  5
A60
330
1F
100
AcDbEntity
  8
CLASS1
  6
CONTINUOUS
 62
     0
100
AcDbLine
 10
162.4740612139028
 20
383.7181798768008
 30
0.0
 11
162.4740612139028
 21
385.7181798768008
 31
0.0
  0
LINE
  5
A61
330
1F
100
AcDbEntity
  8
CLASS1
  6
CONTINUOUS
 62
     0
100
AcDbLine
 10
162.4740612139028
 20
379.7181798768008
 30
0.0
 11
162.4740612139028
 21
381.7181798768008
 31
0.0
  0
ARC
  5
A62
330
1F
100
AcDbEntity
  8
CLASS1
  6
CONTINUOUS
 62
     0
100
AcDbCircle
 10
152.8890682139025
 20
375.873453876801
 30
0.0
 40
1.0
100
AcDbArc
 50
180.8823590000052
 51
270.0
  0
LINE
  5
A63
330
1F
100
AcDbEntity
  8
CLASS1
  6
CONTINUOUS
 62
     0
100
AcDbLine
 10
152.8890682139028
 20
374.873453876801
 30
0.0
 11
153.9047792139028
 21
374.873453876801
 31
0.0
  0
LINE
  5
A64
330
1F
100
AcDbEntity
  8
CLASS1
  6
CONTINUOUS
 62
     0
100
AcDbLine
 10
162.4740612139028
 20
421.7181798768008
 30
0.0
 11
174.4740612139028
 21
421.7181798768008
 31
0.0
  0
LINE
  5
A65
330
1F
100
AcDbEntity
  8
CLASS1
  6
CONTINUOUS
 62
     0
100
AcDbLine
 10
174.4740612139028
 20
419.7181798768008
 30
0.0
 11
162.4740612139028
 21
419.7181798768008
 31
0.0
  0
LINE
  5
A66
330
1F
100
AcDbEntity
  8
CLASS1
  6
CONTINUOUS
 62
     0
100
AcDbLine
 10
162.4740612139028
 20
417.7181798768008
 30
0.0
 11
174.4740612139028
 21
417.7181798768008
 31
0.0
  0
LINE
  5
A67
330
1F
100
AcDbEntity
  8
CLASS1
  6
CONTINUOUS
 62
     0
100
AcDbLine
 10
174.4740612139028
 20
415.7181798768008
 30
0.0
 11
162.4740612139028
 21
415.7181798768008
 31
0.0
  0
LINE
  5
A68
330
1F
100
AcDbEntity
  8
CLASS1
  6
CONTINUOUS
 62
     0
100
AcDbLine
 10
168.9490612139029
 20
410.8681798768008
 30
0.0
 11
164.7990612139027
 21
410.8681798768008
 31
0.0
  0
LINE
  5
A69
330
1F
100
AcDbEntity
  8
CLASS1
  6
CONTINUOUS
 62
     0
100
AcDbLine
 10
169.5740612139029
 20
404.1181798768008
 30
0.0
 11
167.8740612139029
 21
404.1181798768008
 31
0.0
  0
LINE
  5
A6A
330
1F
100
AcDbEntity
  8
CLASS1
  6
CONTINUOUS
 62
     0
100
AcDbLine
 10
169.5740612139029
 20
405.3181798768006
 30
0.0
 11
167.8740612139029
 21
405.3181798768006
 31
0.0
  0
LINE
  5
A6B
330
1F
100
AcDbEntity
  8
CLASS1
  6
CONTINUOUS
 62
     0
100
AcDbLine
 10
168.9490612139029
 20
398.5681798768006
 30
0.0
 11
164.7990612139027
 21
398.5681798768006
 31
0.0
  0
LINE
  5
A6C
330
1F
100
AcDbEntity
  8
CLASS1
  6
CONTINUOUS
 62
     0
100
AcDbLine
 10
162.4740612139028
 20
413.7181798768008
 30
0.0
 11
174.4740612139028
 21
413.7181798768008
 31
0.0
  0
LINE
  5
A6D
330
1F
100
AcDbEntity
  8
CLASS1
  6
CONTINUOUS
 62
     0
100
AcDbLine
 10
162.4740612139028
 20
412.7181798768008
 30
0.0
 11
171.3740612139029
 21
412.7181798768008
 31
0.0
  0
LINE
  5
A6E
330
1F
100
AcDbEntity
  8
CLASS1
  6
CONTINUOUS
 62
     0
100
AcDbLine
 10
171.3740612139029
 20
396.7181798768008
 30
0.0
 11
162.4740612139028
 21
396.7181798768008
 31
0.0
  0
LINE
  5
A6F
330
1F
100
AcDbEntity
  8
CLASS1
  6
CONTINUOUS
 62
     0
100
AcDbLine
 10
174.4740612139028
 20
395.7181798768008
 30
0.0
 11
162.4740612139028
 21
395.7181798768008
 31
0.0
  0
LINE
  5
A70
330
1F
100
AcDbEntity
  8
CLASS1
  6
CONTINUOUS
 62
     0
100
AcDbLine
 10
162.4740612139028
 20
393.7181798768008
 30
0.0
 11
174.4740612139028
 21
393.7181798768008
 31
0.0
  0
LINE
  5
A71
330
1F
100
AcDbEntity
  8
CLASS1
  6
CONTINUOUS
 62
     0
100
AcDbLine
 10
169.5740612139029
 20
399.8181798768007
 30
0.0
 11
169.5740612139029
 21
409.6181798768008
 31
0.0
  0
LINE
  5
A72
330
1F
100
AcDbEntity
  8
CLASS1
  6
CONTINUOUS
 62
     0
100
AcDbLine
 10
171.3740612139029
 20
409.7181798768008
 30
0.0
 11
171.3740612139029
 21
407.7181798768008
 31
0.0
  0
LINE
  5
A73
330
1F
100
AcDbEntity
  8
CLASS1
  6
CONTINUOUS
 62
     0
100
AcDbLine
 10
174.4740612139028
 20
409.7181798768008
 30
0.0
 11
174.4740612139028
 21
407.7181798768008
 31
0.0
  0
LINE
  5
A74
330
1F
100
AcDbEntity
  8
CLASS1
  6
CONTINUOUS
 62
     0
100
AcDbLine
 10
168.9490612139029
 20
398.5681798768006
 30
0.0
 11
168.9490612139029
 21
399.8181798768007
 31
0.0
  0
LINE
  5
A75
330
1F
100
AcDbEntity
  8
CLASS1
  6
CONTINUOUS
 62
     0
100
AcDbLine
 10
169.5740612139029
 20
399.8181798768007
 30
0.0
 11
168.9490612139029
 21
399.8181798768007
 31
0.0
  0
LINE
  5
A76
330
1F
100
AcDbEntity
  8
CLASS1
  6
CONTINUOUS
 62
     0
100
AcDbLine
 10
174.4740612139028
 20
407.7181798768008
 30
0.0
 11
171.3740612139029
 21
407.7181798768008
 31
0.0
  0
LINE
  5
A77
330
1F
100
AcDbEntity
  8
CLASS1
  6
CONTINUOUS
 62
     0
100
AcDbLine
 10
174.4740612139028
 20
403.7181798768008
 30
0.0
 11
171.3740612139029
 21
403.7181798768008
 31
0.0
  0
LINE
  5
A78
330
1F
100
AcDbEntity
  8
CLASS1
  6
CONTINUOUS
 62
     0
100
AcDbLine
 10
171.3740612139029
 20
405.7181798768008
 30
0.0
 11
171.3740612139029
 21
403.7181798768008
 31
0.0
  0
LINE
  5
A79
330
1F
100
AcDbEntity
  8
CLASS1
  6
CONTINUOUS
 62
     0
100
AcDbLine
 10
174.4740612139028
 20
405.7181798768008
 30
0.0
 11
174.4740612139028
 21
403.7181798768008
 31
0.0
  0
LINE
  5
A7A
330
1F
100
AcDbEntity
  8
CLASS1
  6
CONTINUOUS
 62
     0
100
AcDbLine
 10
171.3740612139029
 20
405.7181798768008
 30
0.0
 11
174.4740612139028
 21
405.7181798768008
 31
0.0
  0
LINE
  5
A7B
330
1F
100
AcDbEntity
  8
CLASS1
  6
CONTINUOUS
 62
     0
100
AcDbLine
 10
174.4740612139028
 20
401.7181798768008
 30
0.0
 11
174.4740612139028
 21
399.7181798768008
 31
0.0
  0
LINE
  5
A7C
330
1F
100
AcDbEntity
  8
CLASS1
  6
CONTINUOUS
 62
     0
100
AcDbLine
 10
171.3740612139029
 20
401.7181798768008
 30
0.0
 11
171.3740612139029
 21
399.7181798768008
 31
0.0
  0
LINE
  5
A7D
330
1F
100
AcDbEntity
  8
CLASS1
  6
CONTINUOUS
 62
     0
100
AcDbLine
 10
171.3740612139029
 20
401.7181798768008
 30
0.0
 11
174.4740612139028
 21
401.7181798768008
 31
0.0
  0
LINE
  5
A7E
330
1F
100
AcDbEntity
  8
CLASS1
  6
CONTINUOUS
 62
     0
100
AcDbLine
 10
174.4740612139028
 20
399.7181798768008
 30
0.0
 11
171.3740612139029
 21
399.7181798768008
 31
0.0
  0
LINE
  5
A7F
330
1F
100
AcDbEntity
  8
CLASS1
  6
CONTINUOUS
 62
     0
100
AcDbLine
 10
171.3740612139029
 20
397.7181798768008
 30
0.0
 11
174.4740612139028
 21
397.7181798768008
 31
0.0
  0
LINE
  5
A80
330
1F
100
AcDbEntity
  8
CLASS1
  6
CONTINUOUS
 62
     0
100
AcDbLine
 10
171.3740612139029
 20
397.7181798768008
 30
0.0
 11
171.3740612139029
 21
396.7181798768008
 31
0.0
  0
LINE
  5
A81
330
1F
100
AcDbEntity
  8
CLASS1
  6
CONTINUOUS
 62
     0
100
AcDbLine
 10
174.4740612139028
 20
397.7181798768008
 30
0.0
 11
174.4740612139028
 21
395.7181798768008
 31
0.0
  0
LINE
  5
A82
330
1F
100
AcDbEntity
  8
CLASS1
  6
CONTINUOUS
 62
     0
100
AcDbLine
 10
174.4740612139028
 20
421.7181798768008
 30
0.0
 11
174.4740612139028
 21
419.7181798768008
 31
0.0
  0
LINE
  5
A83
330
1F
100
AcDbEntity
  8
CLASS1
  6
CONTINUOUS
 62
     0
100
AcDbLine
 10
174.4740612139028
 20
417.7181798768008
 30
0.0
 11
174.4740612139028
 21
415.7181798768008
 31
0.0
  0
LINE
  5
A84
330
1F
100
AcDbEntity
  8
CLASS1
  6
CONTINUOUS
 62
     0
100
AcDbLine
 10
169.5740612139029
 20
409.6181798768008
 30
0.0
 11
168.9490612139029
 21
409.6181798768008
 31
0.0
  0
LINE
  5
A85
330
1F
100
AcDbEntity
  8
CLASS1
  6
CONTINUOUS
 62
     0
100
AcDbLine
 10
168.9490612139029
 20
409.6181798768008
 30
0.0
 11
168.9490612139029
 21
410.8681798768008
 31
0.0
  0
LINE
  5
A86
330
1F
100
AcDbEntity
  8
CLASS1
  6
CONTINUOUS
 62
     0
100
AcDbLine
 10
174.4740612139028
 20
413.7181798768008
 30
0.0
 11
174.4740612139028
 21
411.7181798768008
 31
0.0
  0
LINE
  5
A87
330
1F
100
AcDbEntity
  8
CLASS1
  6
CONTINUOUS
 62
     0
100
AcDbLine
 10
174.4740612139028
 20
411.7181798768008
 30
0.0
 11
171.3740612139029
 21
411.7181798768008
 31
0.0
  0
LINE
  5
A88
330
1F
100
AcDbEntity
  8
CLASS1
  6
CONTINUOUS
 62
     0
100
AcDbLine
 10
171.3740612139029
 20
412.7181798768008
 30
0.0
 11
171.3740612139029
 21
411.7181798768008
 31
0.0
  0
LINE
  5
A89
330
1F
100
AcDbEntity
  8
CLASS1
  6
CONTINUOUS
 62
     0
100
AcDbLine
 10
171.3740612139029
 20
409.7181798768008
 30
0.0
 11
174.4740612139028
 21
409.7181798768008
 31
0.0
  0
LINE
  5
A8A
330
1F
100
AcDbEntity
  8
CLASS1
  6
CONTINUOUS
 62
     0
100
AcDbLine
 10
167.8740612139029
 20
401.2181798768008
 30
0.0
 11
167.8740612139029
 21
408.2181798768008
 31
0.0
  0
LINE
  5
A8B
330
1F
100
AcDbEntity
  8
CLASS1
  6
CONTINUOUS
 62
     0
100
AcDbLine
 10
165.8740612139029
 20
401.2181798768008
 30
0.0
 11
165.8740612139029
 21
408.2181798768008
 31
0.0
  0
LINE
  5
A8C
330
1F
100
AcDbEntity
  8
CLASS1
  6
CENTER
 62
     0
100
AcDbLine
 10
166.8740612139029
 20
399.7181798768008
 30
0.0
 11
166.8740612139029
 21
411.7519218768008
 31
0.0
  0
LINE
  5
A8D
330
1F
100
AcDbEntity
  8
CLASS1
  6
CONTINUOUS
 62
     0
100
AcDbLine
 10
164.2740612139029
 20
406.7181798768008
 30
0.0
 11
164.2740612139029
 21
409.6181798768008
 31
0.0
  0
LINE
  5
A8E
330
1F
100
AcDbEntity
  8
CLASS1
  6
CONTINUOUS
 62
     0
100
AcDbLine
 10
162.5740612139029
 20
402.7181798768008
 30
0.0
 11
162.5740612139029
 21
406.7181798768008
 31
0.0
  0
LINE
  5
A8F
330
1F
100
AcDbEntity
  8
CLASS1
  6
CONTINUOUS
 62
     0
100
AcDbLine
 10
164.2740612139029
 20
406.7181798768008
 30
0.0
 11
162.5740612139029
 21
406.7181798768008
 31
0.0
  0
LINE
  5
A90
330
1F
100
AcDbEntity
  8
CLASS1
  6
CONTINUOUS
 62
     0
100
AcDbLine
 10
165.8740612139029
 20
405.3181798768006
 30
0.0
 11
162.5740612139029
 21
405.3181798768006
 31
0.0
  0
LINE
  5
A91
330
1F
100
AcDbEntity
  8
CLASS1
  6
CONTINUOUS
 62
     0
100
AcDbLine
 10
165.8740612139029
 20
404.1181798768008
 30
0.0
 11
162.5740612139029
 21
404.1181798768008
 31
0.0
  0
LINE
  5
A92
330
1F
100
AcDbEntity
  8
CLASS1
  6
CONTINUOUS
 62
     0
100
AcDbLine
 10
164.2990612139028
 20
402.7181798768008
 30
0.0
 11
162.5740612139029
 21
402.7181798768008
 31
0.0
  0
ARC
  5
A93
330
1F
100
AcDbEntity
  8
CLASS1
  6
CONTINUOUS
 62
     0
100
AcDbCircle
 10
167.3740612139025
 20
401.2181798768008
 30
0.0
 40
0.5
100
AcDbArc
 50
270.0
 51
0.0
  0
ARC
  5
A94
330
1F
100
AcDbEntity
  8
CLASS1
  6
CONTINUOUS
 62
     0
100
AcDbCircle
 10
166.3740612139025
 20
401.2181798768008
 30
0.0
 40
0.5
100
AcDbArc
 50
180.0
 51
270.0
  0
LINE
  5
A95
330
1F
100
AcDbEntity
  8
CLASS1
  6
CONTINUOUS
 62
     0
100
AcDbLine
 10
164.7990612139027
 20
399.8181798768007
 30
0.0
 11
164.2990612139028
 21
399.8181798768007
 31
0.0
  0
LINE
  5
A96
330
1F
100
AcDbEntity
  8
CLASS1
  6
CONTINUOUS
 62
     0
100
AcDbLine
 10
164.2990612139028
 20
399.8181798768007
 30
0.0
 11
164.2990612139028
 21
402.7181798768008
 31
0.0
  0
LINE
  5
A97
330
1F
100
AcDbEntity
  8
CLASS1
  6
CONTINUOUS
 62
     0
100
AcDbLine
 10
164.7990612139027
 20
398.5681798768006
 30
0.0
 11
164.7990612139027
 21
399.8181798768007
 31
0.0
  0
LINE
  5
A98
330
1F
100
AcDbEntity
  8
CLASS1
  6
CONTINUOUS
 62
     0
100
AcDbLine
 10
167.3740612139028
 20
400.7181798768008
 30
0.0
 11
166.3740612139029
 21
400.7181798768008
 31
0.0
  0
LINE
  5
A99
330
1F
100
AcDbEntity
  8
CLASS1
  6
CONTINUOUS
 62
     0
100
AcDbLine
 10
162.4740612139028
 20
395.7181798768008
 30
0.0
 11
162.4740612139028
 21
396.7181798768008
 31
0.0
  0
LINE
  5
A9A
330
1F
100
AcDbEntity
  8
CLASS1
  6
CONTINUOUS
 62
     0
100
AcDbLine
 10
162.4740612139028
 20
419.7181798768008
 30
0.0
 11
162.4740612139028
 21
421.7181798768008
 31
0.0
  0
LINE
  5
A9B
330
1F
100
AcDbEntity
  8
CLASS1
  6
CONTINUOUS
 62
     0
100
AcDbLine
 10
162.4740612139028
 20
415.7181798768008
 30
0.0
 11
162.4740612139028
 21
417.7181798768008
 31
0.0
  0
LINE
  5
A9C
330
1F
100
AcDbEntity
  8
CLASS1
  6
CONTINUOUS
 62
     0
100
AcDbLine
 10
162.4740612139028
 20
412.7181798768008
 30
0.0
 11
162.4740612139028
 21
413.7181798768008
 31
0.0
  0
ARC
  5
A9D
330
1F
100
AcDbEntity
  8
CLASS1
  6
CONTINUOUS
 62
     0
100
AcDbCircle
 10
167.3740612139025
 20
408.2181798768008
 30
0.0
 40
0.5
100
AcDbArc
 50
0.0
 51
90.0
  0
LINE
  5
A9E
330
1F
100
AcDbEntity
  8
CLASS1
  6
CONTINUOUS
 62
     0
100
AcDbLine
 10
167.3740612139028
 20
408.7181798768008
 30
0.0
 11
166.3740612139029
 21
408.7181798768008
 31
0.0
  0
LINE
  5
A9F
330
1F
100
AcDbEntity
  8
CLASS1
  6
CONTINUOUS
 62
     0
100
AcDbLine
 10
164.7990612139027
 20
409.6181798768008
 30
0.0
 11
164.2740612139029
 21
409.6181798768008
 31
0.0
  0
LINE
  5
AA0
330
1F
100
AcDbEntity
  8
CLASS1
  6
CONTINUOUS
 62
     0
100
AcDbLine
 10
164.7990612139027
 20
409.6181798768008
 30
0.0
 11
164.7990612139027
 21
410.8681798768008
 31
0.0
  0
ARC
  5
AA1
330
1F
100
AcDbEntity
  8
CLASS1
  6
CONTINUOUS
 62
     0
100
AcDbCircle
 10
166.3740612139025
 20
408.2181798768008
 30
0.0
 40
0.5
100
AcDbArc
 50
90.0
 51
180.0
  0
LINE
  5
AA2
330
1F
100
AcDbEntity
  8
CLASS1
  6
CONTINUOUS
 62
     0
100
AcDbLine
 10
162.4740612139028
 20
429.7181798768008
 30
0.0
 11
174.4740612139028
 21
429.7181798768008
 31
0.0
  0
LINE
  5
AA3
330
1F
100
AcDbEntity
  8
CLASS1
  6
CONTINUOUS
 62
     0
100
AcDbLine
 10
174.4740612139028
 20
427.7181798768008
 30
0.0
 11
162.4740612139028
 21
427.7181798768008
 31
0.0
  0
LINE
  5
AA4
330
1F
100
AcDbEntity
  8
CLASS1
  6
CONTINUOUS
 62
     0
100
AcDbLine
 10
162.4740612139028
 20
425.7181798768008
 30
0.0
 11
174.4740612139028
 21
425.7181798768008
 31
0.0
  0
LINE
  5
AA5
330
1F
100
AcDbEntity
  8
CLASS1
  6
CONTINUOUS
 62
     0
100
AcDbLine
 10
174.4740612139028
 20
423.7181798768008
 30
0.0
 11
162.4740612139028
 21
423.7181798768008
 31
0.0
  0
LINE
  5
AA6
330
1F
100
AcDbEntity
  8
CLASS1
  6
CONTINUOUS
 62
     0
100
AcDbLine
 10
174.4740612139028
 20
429.7181798768008
 30
0.0
 11
174.4740612139028
 21
427.7181798768008
 31
0.0
  0
LINE
  5
AA7
330
1F
100
AcDbEntity
  8
CLASS1
  6
CONTINUOUS
 62
     0
100
AcDbLine
 10
174.4740612139028
 20
425.7181798768008
 30
0.0
 11
174.4740612139028
 21
423.7181798768008
 31
0.0
  0
LINE
  5
AA8
330
1F
100
AcDbEntity
  8
CLASS1
  6
CONTINUOUS
 62
     0
100
AcDbLine
 10
162.4740612139028
 20
427.7181798768008
 30
0.0
 11
162.4740612139028
 21
429.7181798768008
 31
0.0
  0
LINE
  5
AA9
330
1F
100
AcDbEntity
  8
CLASS1
  6
CONTINUOUS
 62
     0
100
AcDbLine
 10
162.4740612139028
 20
423.7181798768008
 30
0.0
 11
162.4740612139028
 21
425.7181798768008
 31
0.0
  0
ARC
  5
AAA
330
1F
100
AcDbEntity
  8
CLASS1
  6
CONTINUOUS
 62
     0
100
AcDbCircle
 10
151.9735422139026
 20
435.3181798768006
 30
0.0
 40
1.0
100
AcDbArc
 50
90.0
 51
180.8823590000052
  0
LINE
  5
AAB
330
1F
100
AcDbEntity
  8
CLASS1
  6
CONTINUOUS
 62
     0
100
AcDbLine
 10
152.973852213903
 20
435.3181798768006
 30
0.0
 11
152.973852213903
 21
436.3181798768007
 31
0.0
  0
LINE
  5
AAC
330
1F
100
AcDbEntity
  8
CLASS1
  6
CONTINUOUS
 62
     0
100
AcDbLine
 10
152.973852213903
 20
436.3181798768007
 30
0.0
 11
151.9735422139028
 21
436.3181798768007
 31
0.0
  0
ARC
  5
AAD
330
1F
100
AcDbEntity
  8
0
100
AcDbCircle
 10
168.4740612139025
 20
468.7181798768008
 30
0.0
 40
100.0
100
AcDbArc
 50
262.160173000003
 51
277.8398260000031
  0
ARC
  5
AAE
330
1F
100
AcDbEntity
  8
0
100
AcDbCircle
 10
181.9780782139027
 20
370.6435058768008
 30
0.0
 40
1.0
100
AcDbArc
 50
277.8398260000031
 51
359.117643
  0
ARC
  5
AAF
330
1F
100
AcDbEntity
  8
0
100
AcDbCircle
 10
154.9700442139028
 20
370.6435068768007
 30
0.0
 40
1.0
100
AcDbArc
 50
180.8823569999998
 51
262.160173000003
  0
POINT
  5
AB0
330
1F
100
AcDbEntity
  8
0
100
AcDbPoint
 10
153.9833222139029
 20
369.7736568768008
 30
0.0
  0
ARC
  5
AB1
330
1F
100
AcDbEntity
  8
0
100
AcDbCircle
 10
168.4740603412435
 20
-29.90000072312159
 30
0.0
 40
100.0
100
AcDbArc
 50
82.16017300000308
 51
97.83982600000328
  0
ARC
  5
AB2
330
1F
100
AcDbEntity
  8
0
100
AcDbCircle
 10
154.9700433412434
 20
68.17467327687835
 30
0.0
 40
1.0
100
AcDbArc
 50
97.83982600000328
 51
179.117643
  0
ARC
  5
AB3
330
1F
100
AcDbEntity
  8
0
100
AcDbCircle
 10
181.9780773412434
 20
68.17467227687848
 30
0.0
 40
1.0
100
AcDbArc
 50
0.8823569999998801
 51
82.16017300000308
  0
LINE
  5
AB4
330
1F
100
AcDbEntity
  8
外枠
  6
BYBLOCK
100
AcDbLine
 10
169.2951043412433
 20
70.5999992768784
 30
0.0
 11
171.2600263412434
 21
70.5999992768784
 31
0.0
  0
LINE
  5
AB5
330
1F
100
AcDbEntity
  8
外枠
  6
BYBLOCK
100
AcDbLine
 10
169.2951043412433
 20
70.5999992768784
 30
0.0
 11
169.2951043412433
 21
70.09662865382324
 31
0.0
  0
LINE
  5
AB6
330
1F
100
AcDbEntity
  8
外枠
  6
BYBLOCK
100
AcDbLine
 10
171.2600263412434
 20
70.5999992768784
 30
0.0
 11
171.2600263412434
 21
70.03614475618633
 31
0.0
  0
LINE
  5
AB7
330
1F
100
AcDbEntity
  8
外枠
  6
BYBLOCK
100
AcDbLine
 10
169.2951043412433
 20
368.2181798768008
 30
0.0
 11
171.2600263412434
 21
368.2181798768008
 31
0.0
  0
LINE
  5
AB8
330
1F
100
AcDbEntity
  8
外枠
  6
BYBLOCK
100
AcDbLine
 10
169.2951043412433
 20
368.2181798768008
 30
0.0
 11
169.2951043412433
 21
368.7215504926908
 31
0.0
  0
LINE
  5
AB9
330
1F
100
AcDbEntity
  8
外枠
  6
BYBLOCK
100
AcDbLine
 10
171.2600263412434
 20
368.2181798768008
 30
0.0
 11
171.2600263412434
 21
368.7569954184859
 31
0.0
  0
INSERT
  5
ABA
330
1F
100
AcDbEntity
  8
外枠
  6
BYBLOCK
100
AcDbBlockReference
  2
A$C627E4F0D
 10
156.2672368726038
 20
138.1221622734708
 30
0.0
 50
90.0
  0
ENDSEC
  0
SECTION
  2
OBJECTS
  0
DICTIONARY
  5
C
330
0
100
AcDbDictionary
  3
ACAD_GROUP
350
D
  3
ACAD_LAYOUT
350
1A
  3
ACAD_MLINESTYLE
350
17
  3
ACAD_PLOTSETTINGS
350
19
  3
ACAD_PLOTSTYLENAME
350
E
  3
ACDBHEADERROUNDTRIPXREC
350
B84
  3
ACDBVARIABLEDICTIONARY
350
B52
  0
DICTIONARY
  5
220
330
2
100
AcDbDictionary
280
     1
  3
ACAD_LAYERSTATES
360
221
  0
DICTIONARY
  5
B78
330
1F
100
AcDbDictionary
280
     1
  3
ACAD_LAYOUTSELFREF
360
BA5
  0
DICTIONARY
  5
B76
330
1B
100
AcDbDictionary
280
     1
  3
ACAD_LAYOUTSELFREF
360
BA4
  0
DICTIONARY
  5
D
102
{ACAD_REACTORS
330
C
102
}
330
C
100
AcDbDictionary
  0
DICTIONARY
  5
1A
102
{ACAD_REACTORS
330
C
102
}
330
C
100
AcDbDictionary
  0
DICTIONARY
  5
17
102
{ACAD_REACTORS
330
C
102
}
330
C
100
AcDbDictionary
  3
STANDARD
350
18
  0
DICTIONARY
  5
19
102
{ACAD_REACTORS
330
C
102
}
330
C
100
AcDbDictionary
  0
ACDBDICTIONARYWDFLT
  5
E
102
{ACAD_REACTORS
330
C
102
}
330
C
100
AcDbDictionary
281
     1
  3
Normal
350
F
100
AcDbDictionaryWithDefault
340
F
  0
DICTIONARY
  5
B84
102
{ACAD_REACTORS
330
C
102
}
330
C
100
AcDbDictionary
  3
CEPSNTYPE
350
B8E
  3
FINGERPRINTGUID
350
B8F
  3
HYPERLINKBASE
350
B87
  3
INSUNITS
350
B8D
  3
LAYOUTDICT
350
B89
  3
LWETCUNION
350
B8C
  3
PLOTSETDICT
350
B8A
  3
PLOTSTYLNAMDICT
350
B8B
  3
PSVPSCALE
350
B91
  3
PUCSBASE
350
B94
  3
PUCSORGBACK
350
B9A
  3
PUCSORGBOTTOM
350
B96
  3
PUCSORGFRONT
350
B99
  3
PUCSORGLEFT
350
B97
  3
PUCSORGRIGHT
350
B98
  3
PUCSORGTOP
350
B95
  3
PUCSORTHOREF
350
B92
  3
PUCSORTHOVIEW
350
B93
  3
STYLESHEET
350
B88
  3
TSTACKALIGN
350
B85
  3
TSTACKSIZE
350
B86
  3
UCSBASE
350
B9D
  3
UCSORGBACK
350
BA3
  3
UCSORGBOTTOM
350
B9F
  3
UCSORGFRONT
350
BA2
  3
UCSORGLEFT
350
BA0
  3
UCSORGRIGHT
350
BA1
  3
UCSORGTOP
350
B9E
  3
UCSORTHOREF
350
B9B
  3
UCSORTHOVIEW
350
B9C
  3
VERSIONGUID
350
B90
  0
DICTIONARY
  5
B52
102
{ACAD_REACTORS
330
C
102
}
330
C
100
AcDbDictionary
  3
DIMASSOC
350
B54
  3
HIDETEXT
350
B53
  0
DICTIONARY
  5
221
102
{ACAD_REACTORS
330
220
102
}
330
220
100
AcDbDictionary
  0
XRECORD
  5
BA5
102
{ACAD_REACTORS
330
B78
102
}
330
B78
100
AcDbXrecord
340
1F
  0
XRECORD
  5
BA4
102
{ACAD_REACTORS
330
B76
102
}
330
B76
100
AcDbXrecord
340
1B
  0
MLINESTYLE
  5
18
102
{ACAD_REACTORS
330
17
102
}
330
17
100
AcDbMlineStyle
  2
STANDARD
 70
     0
  3

 62
   256
 51
90.0
 52
90.0
 71
     2
 49
0.5
 62
   256
  6
BYLAYER
 49
-0.5
 62
   256
  6
BYLAYER
  0
ACDBPLACEHOLDER
  5
F
102
{ACAD_REACTORS
330
E
102
}
330
E
100
AcDbPlaceHolder
280
     0
  0
XRECORD
  5
B8E
102
{ACAD_REACTORS
330
B84
102
}
330
B84
100
AcDbXrecord
 90
        0
  0
XRECORD
  5
B8F
102
{ACAD_REACTORS
330
B84
102
}
330
B84
100
AcDbXrecord
  1
{8FF3D14B-3560-45F0-9FF0-43AD7BEB48E5}
  0
XRECORD
  5
B87
102
{ACAD_REACTORS
330
B84
102
}
330
B84
100
AcDbXrecord
  1

  0
XRECORD
  5
B8D
102
{ACAD_REACTORS
330
B84
102
}
330
B84
100
AcDbXrecord
 90
        4
  0
XRECORD
  5
B89
102
{ACAD_REACTORS
330
B84
102
}
330
B84
100
AcDbXrecord
340
1A
  0
XRECORD
  5
B8C
102
{ACAD_REACTORS
330
B84
102
}
330
B84
100
AcDbXrecord
 90
    10781
  0
XRECORD
  5
B8A
102
{ACAD_REACTORS
330
B84
102
}
330
B84
100
AcDbXrecord
340
19
  0
XRECORD
  5
B8B
102
{ACAD_REACTORS
330
B84
102
}
330
B84
100
AcDbXrecord
340
E
  0
XRECORD
  5
B91
102
{ACAD_REACTORS
330
B84
102
}
330
B84
100
AcDbXrecord
 40
0.0
  0
XRECORD
  5
B94
102
{ACAD_REACTORS
330
B84
102
}
330
B84
100
AcDbXrecord
340
0
  0
XRECORD
  5
B9A
102
{ACAD_REACTORS
330
B84
102
}
330
B84
100
AcDbXrecord
 10
0.0
 20
0.0
 30
0.0
  0
XRECORD
  5
B96
102
{ACAD_REACTORS
330
B84
102
}
330
B84
100
AcDbXrecord
 10
0.0
 20
0.0
 30
0.0
  0
XRECORD
  5
B99
102
{ACAD_REACTORS
330
B84
102
}
330
B84
100
AcDbXrecord
 10
0.0
 20
0.0
 30
0.0
  0
XRECORD
  5
B97
102
{ACAD_REACTORS
330
B84
102
}
330
B84
100
AcDbXrecord
 10
0.0
 20
0.0
 30
0.0
  0
XRECORD
  5
B98
102
{ACAD_REACTORS
330
B84
102
}
330
B84
100
AcDbXrecord
 10
0.0
 20
0.0
 30
0.0
  0
XRECORD
  5
B95
102
{ACAD_REACTORS
330
B84
102
}
330
B84
100
AcDbXrecord
 10
0.0
 20
0.0
 30
0.0
  0
XRECORD
  5
B92
102
{ACAD_REACTORS
330
B84
102
}
330
B84
100
AcDbXrecord
340
0
  0
XRECORD
  5
B93
102
{ACAD_REACTORS
330
B84
102
}
330
B84
100
AcDbXrecord
 70
     0
  0
XRECORD
  5
B88
102
{ACAD_REACTORS
330
B84
102
}
330
B84
100
AcDbXrecord
  1

  0
XRECORD
  5
B85
102
{ACAD_REACTORS
330
B84
102
}
330
B84
100
AcDbXrecord
 90
        1
  0
XRECORD
  5
B86
102
{ACAD_REACTORS
330
B84
102
}
330
B84
100
AcDbXrecord
 90
       70
  0
XRECORD
  5
B9D
102
{ACAD_REACTORS
330
B84
102
}
330
B84
100
AcDbXrecord
340
0
  0
XRECORD
  5
BA3
102
{ACAD_REACTORS
330
B84
102
}
330
B84
100
AcDbXrecord
 10
0.0
 20
0.0
 30
0.0
  0
XRECORD
  5
B9F
102
{ACAD_REACTORS
330
B84
102
}
330
B84
100
AcDbXrecord
 10
0.0
 20
0.0
 30
0.0
  0
XRECORD
  5
BA2
102
{ACAD_REACTORS
330
B84
102
}
330
B84
100
AcDbXrecord
 10
0.0
 20
0.0
 30
0.0
  0
XRECORD
  5
BA0
102
{ACAD_REACTORS
330
B84
102
}
330
B84
100
AcDbXrecord
 10
0.0
 20
0.0
 30
0.0
  0
XRECORD
  5
BA1
102
{ACAD_REACTORS
330
B84
102
}
330
B84
100
AcDbXrecord
 10
0.0
 20
0.0
 30
0.0
  0
XRECORD
  5
B9E
102
{ACAD_REACTORS
330
B84
102
}
330
B84
100
AcDbXrecord
 10
0.0
 20
0.0
 30
0.0
  0
XRECORD
  5
B9B
102
{ACAD_REACTORS
330
B84
102
}
330
B84
100
AcDbXrecord
340
0
  0
XRECORD
  5
B9C
102
{ACAD_REACTORS
330
B84
102
}
330
B84
100
AcDbXrecord
 70
     0
  0
XRECORD
  5
B90
102
{ACAD_REACTORS
330
B84
102
}
330
B84
100
AcDbXrecord
  1
{8432A41D-BA71-4921-800D-BAD188A6CB57}
  0
DICTIONARYVAR
  5
B54
102
{ACAD_REACTORS
330
B52
102
}
330
B52
100
DictionaryVariables
280
     0
  1
2
  0
DICTIONARYVAR
  5
B53
102
{ACAD_REACTORS
330
B52
102
}
330
B52
100
DictionaryVariables
280
     0
  1
1
  0
ENDSEC
  0
EOF
