  0
SECTION
  2
HEADER
  9
$ACADVER
  1
AC1014
  9
$ACADMAINTVER
 70
     9
  9
$DWGCODEPAGE
  3
ANSI_932
  9
$INSBASE
 10
0.0
 20
0.0
 30
0.0
  9
$EXTMIN
 10
0.0000004032490324
 20
-0.0000013009321265
 30
0.0
  9
$EXTMAX
 10
336.9485649517623
 20
438.8181792989901
 30
6.483974233579617E+99
  9
$LIMMIN
 10
0.0
 20
0.0
  9
$LIMMAX
 10
420.0
 20
297.0
  9
$ORTHOMODE
 70
     0
  9
$REGENMODE
 70
     1
  9
$FILLMODE
 70
     1
  9
$QTEXTMODE
 70
     0
  9
$MIRRTEXT
 70
     1
  9
$DRAGMODE
 70
     2
  9
$LTSCALE
 40
1.0
  9
$OSMODE
 70
   567
  9
$ATTMODE
 70
     1
  9
$TEXTSIZE
 40
2.5
  9
$TRACEWID
 40
1.0
  9
$TEXTSTYLE
  7
STANDARD
  9
$CLAYER
  8
0
  9
$CELTYPE
  6
BYLAYER
  9
$CECOLOR
 62
   256
  9
$CELTSCALE
 40
1.0
  9
$DELOBJ
 70
     1
  9
$DISPSILH
 70
     0
  9
$DIMSCALE
 40
1.0
  9
$DIMASZ
 40
2.5
  9
$DIMEXO
 40
0.625
  9
$DIMDLI
 40
3.75
  9
$DIMRND
 40
0.0
  9
$DIMDLE
 40
0.0
  9
$DIMEXE
 40
1.25
  9
$DIMTP
 40
0.0
  9
$DIMTM
 40
0.0
  9
$DIMTXT
 40
2.5
  9
$DIMCEN
 40
2.5
  9
$DIMTSZ
 40
0.0
  9
$DIMTOL
 70
     0
  9
$DIMLIM
 70
     0
  9
$DIMTIH
 70
     0
  9
$DIMTOH
 70
     0
  9
$DIMSE1
 70
     0
  9
$DIMSE2
 70
     0
  9
$DIMTAD
 70
     1
  9
$DIMZIN
 70
     8
  9
$DIMBLK
  1

  9
$DIMASO
 70
     1
  9
$DIMSHO
 70
     1
  9
$DIMPOST
  1

  9
$DIMAPOST
  1

  9
$DIMALT
 70
     0
  9
$DIMALTD
 70
     3
  9
$DIMALTF
 40
0.03937007874016
  9
$DIMLFAC
 40
1.0
  9
$DIMTOFL
 70
     1
  9
$DIMTVP
 40
0.0
  9
$DIMTIX
 70
     0
  9
$DIMSOXD
 70
     0
  9
$DIMSAH
 70
     0
  9
$DIMBLK1
  1

  9
$DIMBLK2
  1

  9
$DIMSTYLE
  2
ISO-25
  9
$DIMCLRD
 70
     0
  9
$DIMCLRE
 70
     0
  9
$DIMCLRT
 70
     0
  9
$DIMTFAC
 40
1.0
  9
$DIMGAP
 40
0.625
  9
$DIMJUST
 70
     0
  9
$DIMSD1
 70
     0
  9
$DIMSD2
 70
     0
  9
$DIMTOLJ
 70
     0
  9
$DIMTZIN
 70
     8
  9
$DIMALTZ
 70
     0
  9
$DIMALTTZ
 70
     0
  9
$DIMFIT
 70
     3
  9
$DIMUPT
 70
     0
  9
$DIMUNIT
 70
     2
  9
$DIMDEC
 70
     2
  9
$DIMTDEC
 70
     2
  9
$DIMALTU
 70
     2
  9
$DIMALTTD
 70
     3
  9
$DIMTXSTY
  7
STANDARD
  9
$DIMAUNIT
 70
     0
  9
$LUNITS
 70
     2
  9
$LUPREC
 70
     4
  9
$SKETCHINC
 40
1.0
  9
$FILLETRAD
 40
10.0
  9
$AUNITS
 70
     0
  9
$AUPREC
 70
     0
  9
$MENU
  1
.
  9
$ELEVATION
 40
0.0
  9
$PELEVATION
 40
0.0
  9
$THICKNESS
 40
0.0
  9
$LIMCHECK
 70
     0
  9
$BLIPMODE
 70
     0
  9
$CHAMFERA
 40
10.0
  9
$CHAMFERB
 40
10.0
  9
$CHAMFERC
 40
20.0
  9
$CHAMFERD
 40
0.0
  9
$SKPOLY
 70
     0
  9
$TDCREATE
 40
2455162.815436817
  9
$TDUPDATE
 40
2455162.816494479
  9
$TDINDWG
 40
0.0010580208
  9
$TDUSRTIMER
 40
0.0010580208
  9
$USRTIMER
 70
     1
  9
$ANGBASE
 50
0.0
  9
$ANGDIR
 70
     0
  9
$PDMODE
 70
     0
  9
$PDSIZE
 40
0.0
  9
$PLINEWID
 40
0.0
  9
$COORDS
 70
     0
  9
$SPLFRAME
 70
     0
  9
$SPLINETYPE
 70
     6
  9
$SPLINESEGS
 70
     8
  9
$ATTDIA
 70
     0
  9
$ATTREQ
 70
     1
  9
$HANDLING
 70
 22529
  9
$HANDSEED
  5
BA9
  9
$SURFTAB1
 70
     6
  9
$SURFTAB2
 70
     6
  9
$SURFTYPE
 70
     6
  9
$SURFU
 70
     6
  9
$SURFV
 70
     6
  9
$UCSNAME
  2

  9
$UCSORG
 10
0.0
 20
0.0
 30
0.0
  9
$UCSXDIR
 10
1.0
 20
0.0
 30
0.0
  9
$UCSYDIR
 10
0.0
 20
1.0
 30
0.0
  9
$PUCSNAME
  2

  9
$PUCSORG
 10
0.0
 20
0.0
 30
0.0
  9
$PUCSXDIR
 10
1.0
 20
0.0
 30
0.0
  9
$PUCSYDIR
 10
0.0
 20
1.0
 30
0.0
  9
$USERI1
 70
     0
  9
$USERI2
 70
     0
  9
$USERI3
 70
     0
  9
$USERI4
 70
     0
  9
$USERI5
 70
     0
  9
$USERR1
 40
0.0
  9
$USERR2
 40
0.0
  9
$USERR3
 40
0.0
  9
$USERR4
 40
0.0
  9
$USERR5
 40
0.0
  9
$WORLDVIEW
 70
     1
  9
$SHADEDGE
 70
     3
  9
$SHADEDIF
 70
    70
  9
$TILEMODE
 70
     1
  9
$MAXACTVP
 70
    64
  9
$PINSBASE
 10
0.0
 20
0.0
 30
0.0
  9
$PLIMCHECK
 70
     0
  9
$PEXTMIN
 10
1.000000000000000E+20
 20
1.000000000000000E+20
 30
1.000000000000000E+20
  9
$PEXTMAX
 10
-1.000000000000000E+20
 20
-1.000000000000000E+20
 30
-1.000000000000000E+20
  9
$PLIMMIN
 10
0.0
 20
0.0
  9
$PLIMMAX
 10
420.0
 20
297.0
  9
$UNITMODE
 70
     0
  9
$VISRETAIN
 70
     1
  9
$PLINEGEN
 70
     0
  9
$PSLTSCALE
 70
     1
  9
$TREEDEPTH
 70
  3020
  9
$PICKSTYLE
 70
     1
  9
$CMLSTYLE
  2
STANDARD
  9
$CMLJUST
 70
     0
  9
$CMLSCALE
 40
20.0
  9
$PROXYGRAPHICS
 70
     1
  9
$MEASUREMENT
 70
     1
  0
ENDSEC
  0
SECTION
  2
CLASSES
  0
CLASS
  1
ACDBDICTIONARYWDFLT
  2
AcDbDictionaryWithDefault
  3
AutoCAD 2000
 90
        0
280
     0
281
     0
  0
CLASS
  1
ACDBPLACEHOLDER
  2
AcDbPlaceHolder
  3
AutoCAD 2000
 90
        0
280
     0
281
     0
  0
CLASS
  1
LAYOUT
  2
AcDbLayout
  3
AutoCAD 2000
 90
        0
280
     0
281
     0
  0
CLASS
  1
DICTIONARYVAR
  2
AcDbDictionaryVar
  3
AutoCAD 2000
 90
        0
280
     0
281
     0
  0
CLASS
  1
LONG_TRANSACTION
  2
AcDbLongTransaction
  3
AutoCAD 2000
 90
        0
280
     0
281
     0
  0
CLASS
  1
LWPOLYLINE
  2
AcDbPolyline
  3
AutoCAD 2000
 90
        0
280
     0
281
     1
  0
CLASS
  1
HATCH
  2
AcDbHatch
  3
AutoCAD 2000
 90
        0
280
     0
281
     1
  0
CLASS
  1
XRECORD
  2
AcDbXrecord
  3
AutoCAD 2000
 90
        0
280
     0
281
     0
  0
ENDSEC
  0
SECTION
  2
TABLES
  0
TABLE
  2
VPORT
  5
8
330
0
100
AcDbSymbolTable
 70
     3
  0
VPORT
  5
B82
330
8
100
AcDbSymbolTableRecord
100
AcDbViewportTableRecord
  2
*ACTIVE
 70
     0
 10
0.0
 20
0.0
 11
1.0
 21
1.0
 12
168.4742826775056
 22
219.4090889990289
 13
0.0
 23
0.0
 14
10.0
 24
10.0
 15
10.0
 25
10.0
 16
0.0
 26
0.0
 36
1.0
 17
0.0
 27
0.0
 37
0.0
 40
442.4598252522037
 41
1.668975069252077
 42
50.0
 43
0.0
 44
0.0
 50
0.0
 51
0.0
 71
     0
 72
   100
 73
     1
 74
     3
 75
     0
 76
     0
 77
     0
 78
     0
  0
ENDTAB
  0
TABLE
  2
LTYPE
  5
5
330
0
100
AcDbSymbolTable
 70
     3
  0
LTYPE
  5
14
330
5
100
AcDbSymbolTableRecord
100
AcDbLinetypeTableRecord
  2
BYBLOCK
 70
     0
  3

 72
    65
 73
     0
 40
0.0
  0
LTYPE
  5
15
330
5
100
AcDbSymbolTableRecord
100
AcDbLinetypeTableRecord
  2
BYLAYER
 70
     0
  3

 72
    65
 73
     0
 40
0.0
  0
LTYPE
  5
16
330
5
100
AcDbSymbolTableRecord
100
AcDbLinetypeTableRecord
  2
CONTINUOUS
 70
     0
  3
Solid line
 72
    65
 73
     0
 40
0.0
  0
LTYPE
  5
211
330
5
100
AcDbSymbolTableRecord
100
AcDbLinetypeTableRecord
  2
CENTER
 70
     0
  3
____ _ ____ _ ____ _ ____ _ ____ _ ____ _ ____
 72
    65
 73
     4
 40
2.0
 49
1.25
 74
     0
 49
-0.25
 74
     0
 49
0.25
 74
     0
 49
-0.25
 74
     0
  0
LTYPE
  5
212
330
5
100
AcDbSymbolTableRecord
100
AcDbLinetypeTableRecord
  2
DIVIDE
 70
     0
  3
__ . . __ . . __ . . __ . . __ . . __ . . __
 72
    65
 73
     6
 40
1.25
 49
0.0
 74
     0
 49
-0.25
 74
     0
 49
0.0
 74
     0
 49
-0.25
 74
     0
 49
0.0
 74
     0
 49
-0.25
 74
     0
  0
ENDTAB
  0
TABLE
  2
LAYER
  5
2
102
{ACAD_XDICTIONARY
360
220
102
}
330
0
100
AcDbSymbolTable
 70
     7
  0
LAYER
  5
10
330
2
100
AcDbSymbolTableRecord
100
AcDbLayerTableRecord
  2
0
 70
     0
 62
     7
  6
CONTINUOUS
  0
LAYER
  5
213
330
2
100
AcDbSymbolTableRecord
100
AcDbLayerTableRecord
  2
外枠
 70
     0
 62
     7
  6
CONTINUOUS
  0
LAYER
  5
215
330
2
100
AcDbSymbolTableRecord
100
AcDbLayerTableRecord
  2
1
 70
     0
 62
     7
  6
CONTINUOUS
  0
LAYER
  5
216
330
2
100
AcDbSymbolTableRecord
100
AcDbLayerTableRecord
  2
DEFPOINTS
 70
     0
 62
     7
  6
CONTINUOUS
  0
LAYER
  5
217
330
2
100
AcDbSymbolTableRecord
100
AcDbLayerTableRecord
  2
CLASS1
 70
     0
 62
     7
  6
CONTINUOUS
  0
LAYER
  5
218
330
2
100
AcDbSymbolTableRecord
100
AcDbLayerTableRecord
  2
3_表示パネル
 70
     0
 62
     7
  6
DIVIDE
  0
ENDTAB
  0
TABLE
  2
STYLE
  5
3
330
0
100
AcDbSymbolTable
 70
     2
  0
STYLE
  5
11
330
3
100
AcDbSymbolTableRecord
100
AcDbTextStyleTableRecord
  2
STANDARD
 70
     0
 40
0.0
 41
1.0
 50
0.0
 71
     0
 42
2.5
  3
txt
  4

  0
ENDTAB
  0
TABLE
  2
VIEW
  5
6
330
0
100
AcDbSymbolTable
 70
     0
  0
ENDTAB
  0
TABLE
  2
UCS
  5
7
330
0
100
AcDbSymbolTable
 70
     0
  0
ENDTAB
  0
TABLE
  2
APPID
  5
9
330
0
100
AcDbSymbolTable
 70
     1
  0
APPID
  5
12
330
9
100
AcDbSymbolTableRecord
100
AcDbRegAppTableRecord
  2
ACAD
 70
     0
  0
ENDTAB
  0
TABLE
  2
DIMSTYLE
  5
A
330
0
100
AcDbSymbolTable
 70
     7
  0
DIMSTYLE
105
27
330
A
100
AcDbSymbolTableRecord
100
AcDbDimStyleTableRecord
  2
ISO-25
 70
     0
  3

  4

  5

  6

  7

 40
1.0
 41
2.5
 42
0.625
 43
3.75
 44
1.25
 45
0.0
 46
0.0
 47
0.0
 48
0.0
140
2.5
141
2.5
142
0.0
143
0.03937007874016
144
1.0
145
0.0
146
1.0
147
0.625
 71
     0
 72
     0
 73
     0
 74
     0
 75
     0
 76
     0
 77
     1
 78
     8
170
     0
171
     3
172
     1
173
     0
174
     0
175
     0
176
     0
177
     0
178
     0
270
     2
271
     2
272
     2
273
     2
274
     3
340
11
275
     0
280
     0
281
     0
282
     0
283
     0
284
     8
285
     0
286
     0
287
     3
288
     0
  0
ENDTAB
  0
TABLE
  2
BLOCK_RECORD
  5
1
330
0
100
AcDbSymbolTable
 70
    15
  0
BLOCK_RECORD
  5
1F
102
{ACAD_XDICTIONARY
360
BA5
102
}
330
1
100
AcDbSymbolTableRecord
100
AcDbBlockTableRecord
  2
*MODEL_SPACE
  0
BLOCK_RECORD
  5
1B
102
{ACAD_XDICTIONARY
360
BA3
102
}
330
1
100
AcDbSymbolTableRecord
100
AcDbBlockTableRecord
  2
*PAPER_SPACE
  0
BLOCK_RECORD
  5
31
330
1
100
AcDbSymbolTableRecord
100
AcDbBlockTableRecord
  2
A$C51C20FFB
  0
BLOCK_RECORD
  5
38
330
1
100
AcDbSymbolTableRecord
100
AcDbBlockTableRecord
  2
A$C627E4F0D
  0
ENDTAB
  0
ENDSEC
  0
SECTION
  2
BLOCKS
  0
BLOCK
  5
20
330
1F
100
AcDbEntity
  8
0
100
AcDbBlockBegin
  2
*MODEL_SPACE
 70
     0
 10
0.0
 20
0.0
 30
0.0
  3
*MODEL_SPACE
  1

  0
ENDBLK
  5
21
330
1F
100
AcDbEntity
  8
0
100
AcDbBlockEnd
  0
BLOCK
  5
1C
330
1B
100
AcDbEntity
 67
     1
  8
0
100
AcDbBlockBegin
  2
*PAPER_SPACE
 70
     0
 10
0.0
 20
0.0
 30
0.0
  3
*PAPER_SPACE
  1

  0
ENDBLK
  5
1D
330
1B
100
AcDbEntity
 67
     1
  8
0
100
AcDbBlockEnd
  0
BLOCK
  5
36
330
31
100
AcDbEntity
  8
0
100
AcDbBlockBegin
  2
A$C51C20FFB
 70
     0
 10
0.0
 20
0.0
 30
0.0
  3
A$C51C20FFB
  1

  0
LINE
  5
32
330
31
100
AcDbEntity
  8
0
100
AcDbLine
 10
31.0
 20
2.499998662678081
 30
0.0
 11
0.0
 21
2.499998662678081
 31
0.0
  0
LINE
  5
33
330
31
100
AcDbEntity
  8
0
100
AcDbLine
 10
31.0
 20
-0.000001337321919
 30
0.0
 11
31.0
 21
2.499998662678081
 31
0.0
  0
LINE
  5
34
330
31
100
AcDbEntity
  8
0
100
AcDbLine
 10
0.0
 20
-0.000001337321919
 30
0.0
 11
31.0
 21
-0.000001337321919
 31
0.0
  0
LINE
  5
35
330
31
100
AcDbEntity
  8
0
100
AcDbLine
 10
0.0
 20
2.499998662678081
 30
0.0
 11
0.0
 21
-0.000001337321919
 31
0.0
  0
ENDBLK
  5
37
330
31
100
AcDbEntity
  8
0
100
AcDbBlockEnd
  0
BLOCK
  5
1D1
330
38
100
AcDbEntity
  8
0
100
AcDbBlockBegin
  2
A$C627E4F0D
 70
     0
 10
0.0
 20
0.0
 30
0.0
  3
A$C627E4F0D
  1

  0
LINE
  5
39
330
38
100
AcDbEntity
  8
0
100
AcDbLine
 10
-0.1890242188134152
 20
-0.8071067811864569
 30
0.0
 11
-0.1890242188134152
 21
-23.60710678118652
 31
0.0
  0
LINE
  5
3A
330
38
100
AcDbEntity
  8
0
100
AcDbLine
 10
-0.2928932188134468
 20
-0.7071067811864343
 30
0.0
 11
-0.2928932188134468
 21
-23.70710678118643
 31
0.0
  0
ARC
  5
3B
330
38
100
AcDbEntity
  8
0
100
AcDbCircle
 10
0.8109757811865847
 20
-23.60710678118658
 30
0.0
 40
1.0
100
AcDbArc
 50
180.0
 51
270.0
  0
ARC
  5
3C
330
38
100
AcDbEntity
  8
0
100
AcDbCircle
 10
0.7071067811865533
 20
-23.70710678118654
 30
0.0
 40
1.0
100
AcDbArc
 50
180.0
 51
270.0
  0
LINE
  5
3D
330
38
100
AcDbEntity
  8
0
100
AcDbLine
 10
46.91097578118672
 20
-10.10710678118652
 30
0.0
 11
52.61097578118676
 21
-10.10710678118652
 31
0.0
  0
LINE
  5
3E
330
38
100
AcDbEntity
  8
外枠
100
AcDbLine
 10
46.38097478118459
 20
-17.60710678118652
 30
0.0
 11
47.1309747811864
 21
-17.60710678118652
 31
0.0
  0
LINE
  5
3F
330
38
100
AcDbEntity
  8
0
100
AcDbLine
 10
18.0309747811865
 20
-4.407106781186479
 30
0.0
 11
21.1309747811864
 21
-4.407106781186479
 31
0.0
  0
CIRCLE
  5
40
330
38
100
AcDbEntity
  8
0
100
AcDbCircle
 10
19.59597478118655
 20
-9.207106781186547
 30
0.0
 40
1.564999999999999
  0
LINE
  5
41
330
38
100
AcDbEntity
  8
0
100
AcDbLine
 10
20.73097478118654
 20
-7.057106781186456
 30
0.0
 11
17.69097478118658
 21
-7.057106781186456
 31
0.0
  0
LINE
  5
42
330
38
100
AcDbEntity
  8
0
100
AcDbLine
 10
18.0309747811865
 20
-6.907106781186479
 30
0.0
 11
20.73097478118654
 21
-6.907106781186479
 31
0.0
  0
ARC
  5
43
330
38
100
AcDbEntity
  8
0
100
AcDbCircle
 10
19.59597478118655
 20
-9.207106781186547
 30
0.0
 40
0.85
100
AcDbArc
 50
270.0
 51
233.269604999998
  0
LINE
  5
44
330
38
100
AcDbEntity
  8
0
100
AcDbLine
 10
21.43097478118659
 20
-5.057106781186456
 30
0.0
 11
18.63097478118641
 21
-5.057106781186456
 31
0.0
  0
LINE
  5
45
330
38
100
AcDbEntity
  8
0
100
AcDbLine
 10
18.63097478118641
 20
-6.257106781186502
 30
0.0
 11
21.43097478118659
 21
-6.257106781186502
 31
0.0
  0
LINE
  5
46
330
38
100
AcDbEntity
  8
0
100
AcDbLine
 10
5.710975781186675
 20
-3.907106781186479
 30
0.0
 11
35.61097578118676
 21
-3.907106781186479
 31
0.0
  0
LINE
  5
47
330
38
100
AcDbEntity
  8
0
100
AcDbLine
 10
19.10097478118643
 20
-17.60710678118652
 30
0.0
 11
18.70097478118657
 21
-17.60710678118652
 31
0.0
  0
LINE
  5
48
330
38
100
AcDbEntity
  8
0
100
AcDbLine
 10
21.50097478118652
 20
-12.23710678118652
 30
0.0
 11
17.69097478118658
 21
-12.23710678118652
 31
0.0
  0
LINE
  5
49
330
38
100
AcDbEntity
  8
0
100
AcDbLine
 10
35.43097478118659
 20
-17.10710678118652
 30
0.0
 11
6.370974781186419
 21
-17.10710678118652
 31
0.0
  0
LINE
  5
4A
330
38
100
AcDbEntity
  8
外枠
100
AcDbLine
 10
36.18097478118568
 20
-17.60710678118652
 30
0.0
 11
5.710975781186675
 21
-17.60710678118652
 31
0.0
  0
LINE
  5
4B
330
38
100
AcDbEntity
  8
0
100
AcDbLine
 10
17.69097478118658
 20
-12.23710678118652
 30
0.0
 11
17.69097478118658
 21
-16.60710678118652
 31
0.0
  0
LINE
  5
4C
330
38
100
AcDbEntity
  8
0
100
AcDbLine
 10
17.69097478118658
 20
-12.23710678118652
 30
0.0
 11
17.69097478118658
 21
-12.67710678118646
 31
0.0
  0
LINE
  5
4D
330
38
100
AcDbEntity
  8
0
100
AcDbLine
 10
13.88097478118641
 20
-12.23710678118652
 30
0.0
 11
13.88097478118641
 21
-16.60710678118652
 31
0.0
  0
LINE
  5
4E
330
38
100
AcDbEntity
  8
0
100
AcDbLine
 10
13.88097478118641
 20
-12.23710678118652
 30
0.0
 11
13.88097478118641
 21
-12.67710678118646
 31
0.0
  0
LINE
  5
4F
330
38
100
AcDbEntity
  8
0
100
AcDbLine
 10
10.07097478118646
 20
-12.23710678118652
 30
0.0
 11
10.07097478118646
 21
-16.60710678118652
 31
0.0
  0
LINE
  5
50
330
38
100
AcDbEntity
  8
0
100
AcDbLine
 10
10.07097478118646
 20
-12.23710678118652
 30
0.0
 11
10.07097478118646
 21
-12.67710678118646
 31
0.0
  0
LINE
  5
51
330
38
100
AcDbEntity
  8
0
100
AcDbLine
 10
6.260974781186519
 20
-12.23710678118652
 30
0.0
 11
6.260974781186519
 21
-16.60710678118652
 31
0.0
  0
LINE
  5
52
330
38
100
AcDbEntity
  8
0
100
AcDbLine
 10
5.710975781186675
 20
-3.907106781186479
 30
0.0
 11
5.710975781186675
 21
-18.10710678118652
 31
0.0
  0
LINE
  5
53
330
38
100
AcDbEntity
  8
0
100
AcDbLine
 10
18.70097478118657
 20
-17.60710678118652
 30
0.0
 11
18.20097478118657
 21
-17.60710678118652
 31
0.0
  0
LINE
  5
54
330
38
100
AcDbEntity
  8
0
100
AcDbLine
 10
17.69097478118658
 20
-17.10710678118652
 30
0.0
 11
17.69097478118658
 21
-16.60710678118652
 31
0.0
  0
LINE
  5
55
330
38
100
AcDbEntity
  8
0
100
AcDbLine
 10
17.69097478118658
 20
-17.10710678118652
 30
0.0
 11
17.69097478118658
 21
-16.60710678118652
 31
0.0
  0
LINE
  5
56
330
38
100
AcDbEntity
  8
0
100
AcDbLine
 10
18.20097478118657
 20
-17.60710678118652
 30
0.0
 11
17.80097478118648
 21
-17.60710678118652
 31
0.0
  0
LINE
  5
57
330
38
100
AcDbEntity
  8
0
100
AcDbLine
 10
17.80097478118648
 20
-17.10710678118652
 30
0.0
 11
17.69097478118658
 21
-17.10710678118652
 31
0.0
  0
LINE
  5
58
330
38
100
AcDbEntity
  8
0
100
AcDbLine
 10
17.80097478118648
 20
-17.10710678118652
 30
0.0
 11
17.80097478118648
 21
-17.60710678118652
 31
0.0
  0
LINE
  5
59
330
38
100
AcDbEntity
  8
0
100
AcDbLine
 10
17.69097478118658
 20
-14.20710678118643
 30
0.0
 11
17.69097478118658
 21
-16.60710678118652
 31
0.0
  0
LINE
  5
5A
330
38
100
AcDbEntity
  8
0
100
AcDbLine
 10
17.69097478118658
 20
-12.67710678118646
 30
0.0
 11
17.69097478118658
 21
-12.80710678118645
 31
0.0
  0
LINE
  5
5B
330
38
100
AcDbEntity
  8
0
100
AcDbLine
 10
17.69097478118658
 20
-12.80710678118645
 30
0.0
 11
17.69097478118658
 21
-14.20710678118643
 31
0.0
  0
LINE
  5
5C
330
38
100
AcDbEntity
  8
0
100
AcDbLine
 10
11.48097478118654
 20
-17.10710678118652
 30
0.0
 11
11.48097478118654
 21
-17.60710678118652
 31
0.0
  0
LINE
  5
5D
330
38
100
AcDbEntity
  8
0
100
AcDbLine
 10
13.88097478118641
 20
-17.10710678118652
 30
0.0
 11
13.88097478118641
 21
-16.60710678118652
 31
0.0
  0
LINE
  5
5E
330
38
100
AcDbEntity
  8
0
100
AcDbLine
 10
13.88097478118641
 20
-17.10710678118652
 30
0.0
 11
13.88097478118641
 21
-16.60710678118652
 31
0.0
  0
LINE
  5
5F
330
38
100
AcDbEntity
  8
0
100
AcDbLine
 10
14.3909747811864
 20
-17.60710678118652
 30
0.0
 11
13.99097478118653
 21
-17.60710678118652
 31
0.0
  0
LINE
  5
60
330
38
100
AcDbEntity
  8
0
100
AcDbLine
 10
14.8909747811864
 20
-17.60710678118652
 30
0.0
 11
14.3909747811864
 21
-17.60710678118652
 31
0.0
  0
LINE
  5
61
330
38
100
AcDbEntity
  8
0
100
AcDbLine
 10
15.29097478118649
 20
-17.60710678118652
 30
0.0
 11
14.8909747811864
 21
-17.60710678118652
 31
0.0
  0
LINE
  5
62
330
38
100
AcDbEntity
  8
0
100
AcDbLine
 10
13.99097478118653
 20
-17.10710678118652
 30
0.0
 11
13.88097478118641
 21
-17.10710678118652
 31
0.0
  0
LINE
  5
63
330
38
100
AcDbEntity
  8
0
100
AcDbLine
 10
13.99097478118653
 20
-17.10710678118652
 30
0.0
 11
13.99097478118653
 21
-17.60710678118652
 31
0.0
  0
LINE
  5
64
330
38
100
AcDbEntity
  8
0
100
AcDbLine
 10
15.29097478118649
 20
-17.10710678118652
 30
0.0
 11
15.29097478118649
 21
-17.60710678118652
 31
0.0
  0
LINE
  5
65
330
38
100
AcDbEntity
  8
0
100
AcDbLine
 10
13.88097478118641
 20
-14.20710678118643
 30
0.0
 11
13.88097478118641
 21
-16.60710678118652
 31
0.0
  0
LINE
  5
66
330
38
100
AcDbEntity
  8
0
100
AcDbLine
 10
13.88097478118641
 20
-12.67710678118646
 30
0.0
 11
13.88097478118641
 21
-12.80710678118645
 31
0.0
  0
LINE
  5
67
330
38
100
AcDbEntity
  8
0
100
AcDbLine
 10
13.88097478118641
 20
-12.80710678118645
 30
0.0
 11
13.88097478118641
 21
-14.20710678118643
 31
0.0
  0
LINE
  5
68
330
38
100
AcDbEntity
  8
0
100
AcDbLine
 10
10.58097478118645
 20
-17.60710678118652
 30
0.0
 11
10.18097478118659
 21
-17.60710678118652
 31
0.0
  0
LINE
  5
69
330
38
100
AcDbEntity
  8
0
100
AcDbLine
 10
7.6709747811866
 20
-17.60710678118652
 30
0.0
 11
7.270974781186509
 21
-17.60710678118652
 31
0.0
  0
LINE
  5
6A
330
38
100
AcDbEntity
  8
0
100
AcDbLine
 10
7.270974781186509
 20
-17.60710678118652
 30
0.0
 11
6.770974781186509
 21
-17.60710678118652
 31
0.0
  0
LINE
  5
6B
330
38
100
AcDbEntity
  8
0
100
AcDbLine
 10
7.6709747811866
 20
-17.10710678118652
 30
0.0
 11
7.6709747811866
 21
-17.60710678118652
 31
0.0
  0
LINE
  5
6C
330
38
100
AcDbEntity
  8
0
100
AcDbLine
 10
10.07097478118646
 20
-17.10710678118652
 30
0.0
 11
10.07097478118646
 21
-16.60710678118652
 31
0.0
  0
LINE
  5
6D
330
38
100
AcDbEntity
  8
0
100
AcDbLine
 10
10.07097478118646
 20
-17.10710678118652
 30
0.0
 11
10.07097478118646
 21
-16.60710678118652
 31
0.0
  0
LINE
  5
6E
330
38
100
AcDbEntity
  8
0
100
AcDbLine
 10
10.18097478118659
 20
-17.10710678118652
 30
0.0
 11
10.07097478118646
 21
-17.10710678118652
 31
0.0
  0
LINE
  5
6F
330
38
100
AcDbEntity
  8
0
100
AcDbLine
 10
10.18097478118659
 20
-17.10710678118652
 30
0.0
 11
10.18097478118659
 21
-17.60710678118652
 31
0.0
  0
LINE
  5
70
330
38
100
AcDbEntity
  8
0
100
AcDbLine
 10
10.07097478118646
 20
-14.20710678118643
 30
0.0
 11
10.07097478118646
 21
-16.60710678118652
 31
0.0
  0
LINE
  5
71
330
38
100
AcDbEntity
  8
0
100
AcDbLine
 10
10.07097478118646
 20
-12.80710678118645
 30
0.0
 11
10.07097478118646
 21
-14.20710678118643
 31
0.0
  0
LINE
  5
72
330
38
100
AcDbEntity
  8
0
100
AcDbLine
 10
10.07097478118646
 20
-12.67710678118646
 30
0.0
 11
10.07097478118646
 21
-12.80710678118645
 31
0.0
  0
LINE
  5
73
330
38
100
AcDbEntity
  8
0
100
AcDbLine
 10
11.08097478118645
 20
-17.60710678118652
 30
0.0
 11
10.58097478118645
 21
-17.60710678118652
 31
0.0
  0
LINE
  5
74
330
38
100
AcDbEntity
  8
0
100
AcDbLine
 10
11.48097478118654
 20
-17.60710678118652
 30
0.0
 11
11.08097478118645
 21
-17.60710678118652
 31
0.0
  0
LINE
  5
75
330
38
100
AcDbEntity
  8
0
100
AcDbLine
 10
6.260974781186519
 20
-17.10710678118652
 30
0.0
 11
6.260974781186519
 21
-16.60710678118652
 31
0.0
  0
LINE
  5
76
330
38
100
AcDbEntity
  8
0
100
AcDbLine
 10
6.370974781186419
 20
-17.10710678118652
 30
0.0
 11
6.370974781186419
 21
-17.60710678118652
 31
0.0
  0
LINE
  5
77
330
38
100
AcDbEntity
  8
0
100
AcDbLine
 10
6.370974781186419
 20
-17.10710678118652
 30
0.0
 11
6.260974781186519
 21
-17.10710678118652
 31
0.0
  0
LINE
  5
78
330
38
100
AcDbEntity
  8
0
100
AcDbLine
 10
6.770974781186509
 20
-17.60710678118652
 30
0.0
 11
6.370974781186419
 21
-17.60710678118652
 31
0.0
  0
ARC
  5
79
330
38
100
AcDbEntity
  8
0
100
AcDbCircle
 10
18.0309747811865
 20
-4.707106781186547
 30
0.0
 40
0.3
100
AcDbArc
 50
90.0
 51
180.0
  0
LINE
  5
7A
330
38
100
AcDbEntity
  8
0
100
AcDbLine
 10
17.62097478118642
 20
-4.707106781186434
 30
0.0
 11
17.62097478118642
 21
-4.807106781186456
 31
0.0
  0
ARC
  5
7B
330
38
100
AcDbEntity
  8
0
100
AcDbCircle
 10
17.32097478118646
 20
-4.707106781186547
 30
0.0
 40
0.3
100
AcDbArc
 50
0.0
 51
90.0
  0
LINE
  5
7C
330
38
100
AcDbEntity
  8
0
100
AcDbLine
 10
17.73097478118654
 20
-4.707106781186434
 30
0.0
 11
17.73097478118654
 21
-4.807106781186456
 31
0.0
  0
LINE
  5
7D
330
38
100
AcDbEntity
  8
0
100
AcDbLine
 10
17.69097478118658
 20
-7.557106781186456
 30
0.0
 11
17.69097478118658
 21
-11.27710678118648
 31
0.0
  0
ARC
  5
7E
330
38
100
AcDbEntity
  8
0
100
AcDbCircle
 10
18.63097478118641
 20
-5.357106781186582
 30
0.0
 40
0.3
100
AcDbArc
 50
90.0
 51
180.0
  0
LINE
  5
7F
330
38
100
AcDbEntity
  8
0
100
AcDbLine
 10
17.62097478118642
 20
-5.357106781186525
 30
0.0
 11
17.62097478118642
 21
-5.057106781186456
 31
0.0
  0
ARC
  5
80
330
38
100
AcDbEntity
  8
0
100
AcDbCircle
 10
18.63097478118641
 20
-5.957106781186547
 30
0.0
 40
0.3
100
AcDbArc
 50
180.0
 51
270.0
  0
LINE
  5
81
330
38
100
AcDbEntity
  8
0
100
AcDbLine
 10
17.62097478118642
 20
-7.057106781186456
 30
0.0
 11
16.9209747811866
 21
-7.057106781186456
 31
0.0
  0
LINE
  5
82
330
38
100
AcDbEntity
  8
0
100
AcDbLine
 10
16.9209747811866
 20
-6.907106781186479
 30
0.0
 11
17.62097478118642
 21
-6.907106781186479
 31
0.0
  0
ARC
  5
83
330
38
100
AcDbEntity
  8
0
100
AcDbCircle
 10
18.0309747811865
 20
-6.607106781186582
 30
0.0
 40
0.3
100
AcDbArc
 50
180.0
 51
270.0
  0
LINE
  5
84
330
38
100
AcDbEntity
  8
0
100
AcDbLine
 10
17.69097478118658
 20
-7.057106781186456
 30
0.0
 11
17.62097478118642
 21
-7.057106781186456
 31
0.0
  0
LINE
  5
85
330
38
100
AcDbEntity
  8
0
100
AcDbLine
 10
17.69097478118658
 20
-7.557106781186456
 30
0.0
 11
17.69097478118658
 21
-7.057106781186456
 31
0.0
  0
LINE
  5
86
330
38
100
AcDbEntity
  8
0
100
AcDbLine
 10
17.62097478118642
 20
-6.257106781186502
 30
0.0
 11
17.62097478118642
 21
-5.957106781186434
 31
0.0
  0
LINE
  5
87
330
38
100
AcDbEntity
  8
0
100
AcDbLine
 10
17.62097478118642
 20
-6.257106781186502
 30
0.0
 11
17.62097478118642
 21
-6.507106781186502
 31
0.0
  0
LINE
  5
88
330
38
100
AcDbEntity
  8
0
100
AcDbLine
 10
17.62097478118642
 20
-6.907106781186479
 30
0.0
 11
17.62097478118642
 21
-7.057106781186456
 31
0.0
  0
LINE
  5
89
330
38
100
AcDbEntity
  8
0
100
AcDbLine
 10
17.62097478118642
 20
-6.507106781186502
 30
0.0
 11
17.62097478118642
 21
-6.907106781186479
 31
0.0
  0
LINE
  5
8A
330
38
100
AcDbEntity
  8
0
100
AcDbLine
 10
17.69097478118658
 20
-7.557106781186456
 30
0.0
 11
17.69097478118658
 21
-7.057106781186456
 31
0.0
  0
LINE
  5
8B
330
38
100
AcDbEntity
  8
0
100
AcDbLine
 10
17.73097478118654
 20
-6.507106781186502
 30
0.0
 11
17.73097478118654
 21
-6.607106781186525
 31
0.0
  0
LINE
  5
8C
330
38
100
AcDbEntity
  8
0
100
AcDbLine
 10
16.9209747811866
 20
-6.907106781186479
 30
0.0
 11
16.9209747811866
 21
-7.057106781186456
 31
0.0
  0
LINE
  5
8D
330
38
100
AcDbEntity
  8
0
100
AcDbLine
 10
17.62097478118642
 20
-5.357106781186525
 30
0.0
 11
17.62097478118642
 21
-5.957106781186434
 31
0.0
  0
LINE
  5
8E
330
38
100
AcDbEntity
  8
0
100
AcDbLine
 10
18.33097478118645
 20
-5.357106781186525
 30
0.0
 11
18.33097478118645
 21
-5.957106781186434
 31
0.0
  0
LINE
  5
8F
330
38
100
AcDbEntity
  8
0
100
AcDbLine
 10
17.62097478118642
 20
-4.807106781186456
 30
0.0
 11
17.62097478118642
 21
-5.057106781186456
 31
0.0
  0
LINE
  5
90
330
38
100
AcDbEntity
  8
0
100
AcDbLine
 10
17.73097478118654
 20
-4.807106781186456
 30
0.0
 11
17.73097478118654
 21
-6.507106781186502
 31
0.0
  0
ARC
  5
91
330
38
100
AcDbEntity
  8
0
100
AcDbCircle
 10
13.51097478118651
 20
-4.707106781186547
 30
0.0
 40
0.3
100
AcDbArc
 50
0.0
 51
90.0
  0
LINE
  5
92
330
38
100
AcDbEntity
  8
0
100
AcDbLine
 10
13.81097478118647
 20
-4.707106781186434
 30
0.0
 11
13.81097478118647
 21
-4.807106781186456
 31
0.0
  0
LINE
  5
93
330
38
100
AcDbEntity
  8
0
100
AcDbLine
 10
13.9209747811866
 20
-4.707106781186434
 30
0.0
 11
13.9209747811866
 21
-4.807106781186456
 31
0.0
  0
ARC
  5
94
330
38
100
AcDbEntity
  8
0
100
AcDbCircle
 10
14.22097478118655
 20
-4.707106781186547
 30
0.0
 40
0.3
100
AcDbArc
 50
90.0
 51
180.0
  0
LINE
  5
95
330
38
100
AcDbEntity
  8
0
100
AcDbLine
 10
6.600974781186437
 20
-4.407106781186479
 30
0.0
 11
9.700974781186573
 21
-4.407106781186479
 31
0.0
  0
ARC
  5
96
330
38
100
AcDbEntity
  8
0
100
AcDbCircle
 10
10.41097478118661
 20
-4.707106781186547
 30
0.0
 40
0.3
100
AcDbArc
 50
90.0
 51
180.0
  0
LINE
  5
97
330
38
100
AcDbEntity
  8
0
100
AcDbLine
 10
10.00097478118652
 20
-4.707106781186434
 30
0.0
 11
10.00097478118652
 21
-4.807106781186456
 31
0.0
  0
LINE
  5
98
330
38
100
AcDbEntity
  8
0
100
AcDbLine
 10
10.11097478118642
 20
-4.707106781186434
 30
0.0
 11
10.11097478118642
 21
-4.807106781186456
 31
0.0
  0
ARC
  5
99
330
38
100
AcDbEntity
  8
0
100
AcDbCircle
 10
9.700974781186573
 20
-4.707106781186547
 30
0.0
 40
0.3
100
AcDbArc
 50
0.0
 51
90.0
  0
LINE
  5
9A
330
38
100
AcDbEntity
  8
0
100
AcDbLine
 10
10.41097478118661
 20
-4.407106781186479
 30
0.0
 11
13.51097478118651
 21
-4.407106781186479
 31
0.0
  0
LINE
  5
9B
330
38
100
AcDbEntity
  8
0
100
AcDbLine
 10
13.88097478118641
 20
-7.557106781186456
 30
0.0
 11
13.88097478118641
 21
-11.27710678118648
 31
0.0
  0
LINE
  5
9C
330
38
100
AcDbEntity
  8
0
100
AcDbLine
 10
13.11097478118642
 20
-6.907106781186479
 30
0.0
 11
13.81097478118647
 21
-6.907106781186479
 31
0.0
  0
LINE
  5
9D
330
38
100
AcDbEntity
  8
0
100
AcDbLine
 10
13.81097478118647
 20
-7.057106781186456
 30
0.0
 11
13.11097478118642
 21
-7.057106781186456
 31
0.0
  0
LINE
  5
9E
330
38
100
AcDbEntity
  8
0
100
AcDbLine
 10
13.11097478118642
 20
-6.907106781186479
 30
0.0
 11
13.11097478118642
 21
-7.057106781186456
 31
0.0
  0
ARC
  5
9F
330
38
100
AcDbEntity
  8
0
100
AcDbCircle
 10
11.97597478118643
 20
-9.207106781186547
 30
0.0
 40
0.85
100
AcDbArc
 50
233.269604999998
 51
270.0
  0
LINE
  5
A0
330
38
100
AcDbEntity
  8
0
100
AcDbLine
 10
13.81097478118647
 20
-5.357106781186525
 30
0.0
 11
13.81097478118647
 21
-5.057106781186456
 31
0.0
  0
ARC
  5
A1
330
38
100
AcDbEntity
  8
0
100
AcDbCircle
 10
14.82097478118646
 20
-5.357106781186582
 30
0.0
 40
0.3
100
AcDbArc
 50
90.0
 51
180.0
  0
LINE
  5
A2
330
38
100
AcDbEntity
  8
0
100
AcDbLine
 10
13.81097478118647
 20
-6.257106781186502
 30
0.0
 11
13.81097478118647
 21
-5.957106781186434
 31
0.0
  0
LINE
  5
A3
330
38
100
AcDbEntity
  8
0
100
AcDbLine
 10
13.81097478118647
 20
-6.257106781186502
 30
0.0
 11
13.81097478118647
 21
-6.507106781186502
 31
0.0
  0
LINE
  5
A4
330
38
100
AcDbEntity
  8
0
100
AcDbLine
 10
13.81097478118647
 20
-6.907106781186479
 30
0.0
 11
13.81097478118647
 21
-7.057106781186456
 31
0.0
  0
LINE
  5
A5
330
38
100
AcDbEntity
  8
0
100
AcDbLine
 10
13.81097478118647
 20
-6.507106781186502
 30
0.0
 11
13.81097478118647
 21
-6.907106781186479
 31
0.0
  0
LINE
  5
A6
330
38
100
AcDbEntity
  8
0
100
AcDbLine
 10
13.88097478118641
 20
-7.557106781186456
 30
0.0
 11
13.88097478118641
 21
-7.057106781186456
 31
0.0
  0
LINE
  5
A7
330
38
100
AcDbEntity
  8
0
100
AcDbLine
 10
13.9209747811866
 20
-6.507106781186502
 30
0.0
 11
13.9209747811866
 21
-6.607106781186525
 31
0.0
  0
ARC
  5
A8
330
38
100
AcDbEntity
  8
0
100
AcDbCircle
 10
14.82097478118646
 20
-5.957106781186547
 30
0.0
 40
0.3
100
AcDbArc
 50
180.0
 51
270.0
  0
ARC
  5
A9
330
38
100
AcDbEntity
  8
0
100
AcDbCircle
 10
14.22097478118655
 20
-6.607106781186582
 30
0.0
 40
0.3
100
AcDbArc
 50
180.0
 51
270.0
  0
LINE
  5
AA
330
38
100
AcDbEntity
  8
0
100
AcDbLine
 10
13.88097478118641
 20
-7.557106781186456
 30
0.0
 11
13.88097478118641
 21
-7.057106781186456
 31
0.0
  0
LINE
  5
AB
330
38
100
AcDbEntity
  8
0
100
AcDbLine
 10
13.88097478118641
 20
-7.057106781186456
 30
0.0
 11
13.81097478118647
 21
-7.057106781186456
 31
0.0
  0
ARC
  5
AC
330
38
100
AcDbEntity
  8
0
100
AcDbCircle
 10
15.78597478118661
 20
-9.207106781186547
 30
0.0
 40
0.85
100
AcDbArc
 50
233.269604999998
 51
270.0
  0
LINE
  5
AD
330
38
100
AcDbEntity
  8
0
100
AcDbLine
 10
13.81097478118647
 20
-5.357106781186525
 30
0.0
 11
13.81097478118647
 21
-5.957106781186434
 31
0.0
  0
LINE
  5
AE
330
38
100
AcDbEntity
  8
0
100
AcDbLine
 10
14.52097478118651
 20
-5.357106781186525
 30
0.0
 11
14.52097478118651
 21
-5.957106781186434
 31
0.0
  0
LINE
  5
AF
330
38
100
AcDbEntity
  8
0
100
AcDbLine
 10
10.07097478118646
 20
-7.557106781186456
 30
0.0
 11
10.07097478118646
 21
-11.27710678118648
 31
0.0
  0
CIRCLE
  5
B0
330
38
100
AcDbEntity
  8
0
100
AcDbCircle
 10
8.165974781186491
 20
-9.207106781186547
 30
0.0
 40
1.564999999999999
  0
LINE
  5
B1
330
38
100
AcDbEntity
  8
0
100
AcDbLine
 10
10.00097478118652
 20
-5.057106781186456
 30
0.0
 11
7.200974781186573
 21
-5.057106781186456
 31
0.0
  0
LINE
  5
B2
330
38
100
AcDbEntity
  8
0
100
AcDbLine
 10
6.600974781186437
 20
-6.907106781186479
 30
0.0
 11
9.300974781186482
 21
-6.907106781186479
 31
0.0
  0
ARC
  5
B3
330
38
100
AcDbEntity
  8
0
100
AcDbCircle
 10
8.165974781186491
 20
-9.207106781186547
 30
0.0
 40
0.85
100
AcDbArc
 50
270.0
 51
233.269604999998
  0
LINE
  5
B4
330
38
100
AcDbEntity
  8
0
100
AcDbLine
 10
7.200974781186573
 20
-6.257106781186502
 30
0.0
 11
10.00097478118652
 21
-6.257106781186502
 31
0.0
  0
ARC
  5
B5
330
38
100
AcDbEntity
  8
0
100
AcDbCircle
 10
7.200974781186573
 20
-5.357106781186582
 30
0.0
 40
0.3
100
AcDbArc
 50
90.0
 51
180.0
  0
ARC
  5
B6
330
38
100
AcDbEntity
  8
0
100
AcDbCircle
 10
8.165974781186491
 20
-9.207106781186547
 30
0.0
 40
0.85
100
AcDbArc
 50
233.269604999998
 51
270.0
  0
ARC
  5
B7
330
38
100
AcDbEntity
  8
0
100
AcDbCircle
 10
7.200974781186573
 20
-5.957106781186547
 30
0.0
 40
0.3
100
AcDbArc
 50
180.0
 51
270.0
  0
LINE
  5
B8
330
38
100
AcDbEntity
  8
0
100
AcDbLine
 10
6.900974781186619
 20
-5.357106781186525
 30
0.0
 11
6.900974781186619
 21
-5.957106781186434
 31
0.0
  0
LINE
  5
B9
330
38
100
AcDbEntity
  8
0
100
AcDbLine
 10
10.00097478118652
 20
-5.357106781186525
 30
0.0
 11
10.00097478118652
 21
-5.057106781186456
 31
0.0
  0
LINE
  5
BA
330
38
100
AcDbEntity
  8
0
100
AcDbLine
 10
9.300974781186482
 20
-6.907106781186479
 30
0.0
 11
9.300974781186482
 21
-7.057106781186456
 31
0.0
  0
ARC
  5
BB
330
38
100
AcDbEntity
  8
0
100
AcDbCircle
 10
10.41097478118661
 20
-6.607106781186582
 30
0.0
 40
0.3
100
AcDbArc
 50
180.0
 51
270.0
  0
LINE
  5
BC
330
38
100
AcDbEntity
  8
0
100
AcDbLine
 10
10.07097478118646
 20
-7.557106781186456
 30
0.0
 11
10.07097478118646
 21
-7.057106781186456
 31
0.0
  0
LINE
  5
BD
330
38
100
AcDbEntity
  8
0
100
AcDbLine
 10
10.00097478118652
 20
-6.507106781186502
 30
0.0
 11
10.00097478118652
 21
-6.907106781186479
 31
0.0
  0
LINE
  5
BE
330
38
100
AcDbEntity
  8
0
100
AcDbLine
 10
10.00097478118652
 20
-6.907106781186479
 30
0.0
 11
10.00097478118652
 21
-7.057106781186456
 31
0.0
  0
LINE
  5
BF
330
38
100
AcDbEntity
  8
0
100
AcDbLine
 10
10.00097478118652
 20
-6.257106781186502
 30
0.0
 11
10.00097478118652
 21
-6.507106781186502
 31
0.0
  0
LINE
  5
C0
330
38
100
AcDbEntity
  8
0
100
AcDbLine
 10
10.00097478118652
 20
-6.257106781186502
 30
0.0
 11
10.00097478118652
 21
-5.957106781186434
 31
0.0
  0
LINE
  5
C1
330
38
100
AcDbEntity
  8
0
100
AcDbLine
 10
10.07097478118646
 20
-7.557106781186456
 30
0.0
 11
10.07097478118646
 21
-7.057106781186456
 31
0.0
  0
LINE
  5
C2
330
38
100
AcDbEntity
  8
0
100
AcDbLine
 10
10.07097478118646
 20
-7.057106781186456
 30
0.0
 11
10.00097478118652
 21
-7.057106781186456
 31
0.0
  0
LINE
  5
C3
330
38
100
AcDbEntity
  8
0
100
AcDbLine
 10
10.11097478118642
 20
-6.507106781186502
 30
0.0
 11
10.11097478118642
 21
-6.607106781186525
 31
0.0
  0
LINE
  5
C4
330
38
100
AcDbEntity
  8
0
100
AcDbLine
 10
9.300974781186482
 20
-6.907106781186479
 30
0.0
 11
10.00097478118652
 21
-6.907106781186479
 31
0.0
  0
LINE
  5
C5
330
38
100
AcDbEntity
  8
0
100
AcDbLine
 10
10.00097478118652
 20
-7.057106781186456
 30
0.0
 11
9.300974781186482
 21
-7.057106781186456
 31
0.0
  0
LINE
  5
C6
330
38
100
AcDbEntity
  8
0
100
AcDbLine
 10
10.00097478118652
 20
-5.357106781186525
 30
0.0
 11
10.00097478118652
 21
-5.957106781186434
 31
0.0
  0
ARC
  5
C7
330
38
100
AcDbEntity
  8
0
100
AcDbCircle
 10
11.01097478118651
 20
-5.357106781186582
 30
0.0
 40
0.3
100
AcDbArc
 50
90.0
 51
180.0
  0
ARC
  5
C8
330
38
100
AcDbEntity
  8
0
100
AcDbCircle
 10
11.01097478118651
 20
-5.957106781186547
 30
0.0
 40
0.3
100
AcDbArc
 50
180.0
 51
270.0
  0
LINE
  5
C9
330
38
100
AcDbEntity
  8
0
100
AcDbLine
 10
10.71097478118656
 20
-5.357106781186525
 30
0.0
 11
10.71097478118656
 21
-5.957106781186434
 31
0.0
  0
CIRCLE
  5
CA
330
38
100
AcDbEntity
  8
0
100
AcDbCircle
 10
11.97597478118643
 20
-9.207106781186547
 30
0.0
 40
1.564999999999999
  0
LINE
  5
CB
330
38
100
AcDbEntity
  8
0
100
AcDbLine
 10
13.11097478118642
 20
-7.057106781186456
 30
0.0
 11
10.07097478118646
 21
-7.057106781186456
 31
0.0
  0
LINE
  5
CC
330
38
100
AcDbEntity
  8
0
100
AcDbLine
 10
10.41097478118661
 20
-6.907106781186479
 30
0.0
 11
13.11097478118642
 21
-6.907106781186479
 31
0.0
  0
LINE
  5
CD
330
38
100
AcDbEntity
  8
0
100
AcDbLine
 10
13.81097478118647
 20
-5.057106781186456
 30
0.0
 11
11.01097478118651
 21
-5.057106781186456
 31
0.0
  0
LINE
  5
CE
330
38
100
AcDbEntity
  8
0
100
AcDbLine
 10
11.01097478118651
 20
-6.257106781186502
 30
0.0
 11
13.81097478118647
 21
-6.257106781186502
 31
0.0
  0
ARC
  5
CF
330
38
100
AcDbEntity
  8
0
100
AcDbCircle
 10
11.97597478118643
 20
-9.207106781186547
 30
0.0
 40
0.85
100
AcDbArc
 50
270.0
 51
233.269604999998
  0
LINE
  5
D0
330
38
100
AcDbEntity
  8
0
100
AcDbLine
 10
10.00097478118652
 20
-4.807106781186456
 30
0.0
 11
10.00097478118652
 21
-5.057106781186456
 31
0.0
  0
LINE
  5
D1
330
38
100
AcDbEntity
  8
0
100
AcDbLine
 10
10.11097478118642
 20
-4.807106781186456
 30
0.0
 11
10.11097478118642
 21
-6.507106781186502
 31
0.0
  0
LINE
  5
D2
330
38
100
AcDbEntity
  8
0
100
AcDbLine
 10
13.81097478118647
 20
-4.807106781186456
 30
0.0
 11
13.81097478118647
 21
-5.057106781186456
 31
0.0
  0
LINE
  5
D3
330
38
100
AcDbEntity
  8
0
100
AcDbLine
 10
13.9209747811866
 20
-4.807106781186456
 30
0.0
 11
13.9209747811866
 21
-6.507106781186502
 31
0.0
  0
CIRCLE
  5
D4
330
38
100
AcDbEntity
  8
0
100
AcDbCircle
 10
15.78597478118661
 20
-9.207106781186547
 30
0.0
 40
1.564999999999999
  0
LINE
  5
D5
330
38
100
AcDbEntity
  8
0
100
AcDbLine
 10
17.62097478118642
 20
-5.057106781186456
 30
0.0
 11
14.82097478118646
 21
-5.057106781186456
 31
0.0
  0
LINE
  5
D6
330
38
100
AcDbEntity
  8
0
100
AcDbLine
 10
14.82097478118646
 20
-6.257106781186502
 30
0.0
 11
17.62097478118642
 21
-6.257106781186502
 31
0.0
  0
LINE
  5
D7
330
38
100
AcDbEntity
  8
0
100
AcDbLine
 10
16.9209747811866
 20
-7.057106781186456
 30
0.0
 11
13.88097478118641
 21
-7.057106781186456
 31
0.0
  0
LINE
  5
D8
330
38
100
AcDbEntity
  8
0
100
AcDbLine
 10
14.22097478118655
 20
-6.907106781186479
 30
0.0
 11
16.9209747811866
 21
-6.907106781186479
 31
0.0
  0
ARC
  5
D9
330
38
100
AcDbEntity
  8
0
100
AcDbCircle
 10
15.78597478118661
 20
-9.207106781186547
 30
0.0
 40
0.85
100
AcDbArc
 50
270.0
 51
233.269604999998
  0
LINE
  5
DA
330
38
100
AcDbEntity
  8
0
100
AcDbLine
 10
14.22097478118655
 20
-4.407106781186479
 30
0.0
 11
17.32097478118646
 21
-4.407106781186479
 31
0.0
  0
LINE
  5
DB
330
38
100
AcDbEntity
  8
0
100
AcDbLine
 10
6.300974781186482
 20
-4.707106781186434
 30
0.0
 11
6.300974781186482
 21
-4.807106781186456
 31
0.0
  0
LINE
  5
DC
330
38
100
AcDbEntity
  8
0
100
AcDbLine
 10
6.300974781186482
 20
-6.507106781186502
 30
0.0
 11
6.300974781186482
 21
-6.607106781186525
 31
0.0
  0
LINE
  5
DD
330
38
100
AcDbEntity
  8
0
100
AcDbLine
 10
6.260974781186519
 20
-7.557106781186456
 30
0.0
 11
6.260974781186519
 21
-7.057106781186456
 31
0.0
  0
LINE
  5
DE
330
38
100
AcDbEntity
  8
0
100
AcDbLine
 10
6.300974781186482
 20
-4.807106781186456
 30
0.0
 11
6.300974781186482
 21
-6.507106781186502
 31
0.0
  0
LINE
  5
DF
330
38
100
AcDbEntity
  8
0
100
AcDbLine
 10
9.300974781186482
 20
-7.057106781186456
 30
0.0
 11
6.260974781186519
 21
-7.057106781186456
 31
0.0
  0
ARC
  5
E0
330
38
100
AcDbEntity
  8
0
100
AcDbCircle
 10
6.600974781186437
 20
-6.607106781186582
 30
0.0
 40
0.3
100
AcDbArc
 50
180.0
 51
270.0
  0
ARC
  5
E1
330
38
100
AcDbEntity
  8
0
100
AcDbCircle
 10
6.600974781186437
 20
-4.707106781186547
 30
0.0
 40
0.3
100
AcDbArc
 50
90.0
 51
180.0
  0
LINE
  5
E2
330
38
100
AcDbEntity
  8
0
100
AcDbLine
 10
17.69097478118658
 20
-12.23710678118652
 30
0.0
 11
17.69097478118658
 21
-12.03710678118647
 31
0.0
  0
LINE
  5
E3
330
38
100
AcDbEntity
  8
0
100
AcDbLine
 10
17.69097478118658
 20
-12.23710678118652
 30
0.0
 11
17.69097478118658
 21
-12.03710678118647
 31
0.0
  0
LINE
  5
E4
330
38
100
AcDbEntity
  8
0
100
AcDbLine
 10
13.88097478118641
 20
-12.23710678118652
 30
0.0
 11
13.88097478118641
 21
-12.03710678118647
 31
0.0
  0
LINE
  5
E5
330
38
100
AcDbEntity
  8
0
100
AcDbLine
 10
13.88097478118641
 20
-12.23710678118652
 30
0.0
 11
13.88097478118641
 21
-12.03710678118647
 31
0.0
  0
LINE
  5
E6
330
38
100
AcDbEntity
  8
0
100
AcDbLine
 10
10.07097478118646
 20
-12.23710678118652
 30
0.0
 11
10.07097478118646
 21
-12.03710678118647
 31
0.0
  0
LINE
  5
E7
330
38
100
AcDbEntity
  8
0
100
AcDbLine
 10
10.07097478118646
 20
-12.23710678118652
 30
0.0
 11
10.07097478118646
 21
-12.03710678118647
 31
0.0
  0
LINE
  5
E8
330
38
100
AcDbEntity
  8
0
100
AcDbLine
 10
13.88097478118641
 20
-12.23710678118652
 30
0.0
 11
10.07097478118646
 21
-12.23710678118652
 31
0.0
  0
LINE
  5
E9
330
38
100
AcDbEntity
  8
0
100
AcDbLine
 10
17.69097478118658
 20
-12.23710678118652
 30
0.0
 11
13.88097478118641
 21
-12.23710678118652
 31
0.0
  0
LINE
  5
EA
330
38
100
AcDbEntity
  8
0
100
AcDbLine
 10
6.260974781186519
 20
-12.23710678118652
 30
0.0
 11
6.260974781186519
 21
-12.03710678118647
 31
0.0
  0
LINE
  5
EB
330
38
100
AcDbEntity
  8
0
100
AcDbLine
 10
10.07097478118646
 20
-12.23710678118652
 30
0.0
 11
6.260974781186519
 21
-12.23710678118652
 31
0.0
  0
LINE
  5
EC
330
38
100
AcDbEntity
  8
0
100
AcDbLine
 10
17.69097478118658
 20
-7.557106781186456
 30
0.0
 11
17.69097478118658
 21
-12.03710678118647
 31
0.0
  0
LINE
  5
ED
330
38
100
AcDbEntity
  8
0
100
AcDbLine
 10
13.88097478118641
 20
-7.557106781186456
 30
0.0
 11
13.88097478118641
 21
-12.03710678118647
 31
0.0
  0
LINE
  5
EE
330
38
100
AcDbEntity
  8
0
100
AcDbLine
 10
10.07097478118646
 20
-7.557106781186456
 30
0.0
 11
10.07097478118646
 21
-12.03710678118647
 31
0.0
  0
LINE
  5
EF
330
38
100
AcDbEntity
  8
0
100
AcDbLine
 10
6.260974781186519
 20
-7.557106781186456
 30
0.0
 11
6.260974781186519
 21
-12.03710678118647
 31
0.0
  0
LINE
  5
F0
330
38
100
AcDbEntity
  8
0
100
AcDbLine
 10
10.07097478118646
 20
-11.27710678118648
 30
0.0
 11
10.07097478118646
 21
-12.03710678118647
 31
0.0
  0
LINE
  5
F1
330
38
100
AcDbEntity
  8
0
100
AcDbLine
 10
13.88097478118641
 20
-11.27710678118648
 30
0.0
 11
13.88097478118641
 21
-12.03710678118647
 31
0.0
  0
LINE
  5
F2
330
38
100
AcDbEntity
  8
0
100
AcDbLine
 10
17.69097478118658
 20
-11.27710678118648
 30
0.0
 11
17.69097478118658
 21
-12.03710678118647
 31
0.0
  0
LINE
  5
F3
330
38
100
AcDbEntity
  8
0
100
AcDbLine
 10
29.12097478118642
 20
-12.23710678118652
 30
0.0
 11
29.12097478118642
 21
-16.60710678118652
 31
0.0
  0
LINE
  5
F4
330
38
100
AcDbEntity
  8
0
100
AcDbLine
 10
29.12097478118642
 20
-12.23710678118652
 30
0.0
 11
29.12097478118642
 21
-12.67710678118646
 31
0.0
  0
LINE
  5
F5
330
38
100
AcDbEntity
  8
0
100
AcDbLine
 10
21.50097478118652
 20
-12.23710678118652
 30
0.0
 11
21.50097478118652
 21
-16.60710678118652
 31
0.0
  0
LINE
  5
F6
330
38
100
AcDbEntity
  8
0
100
AcDbLine
 10
21.50097478118652
 20
-12.23710678118652
 30
0.0
 11
21.50097478118652
 21
-12.67710678118646
 31
0.0
  0
LINE
  5
F7
330
38
100
AcDbEntity
  8
0
100
AcDbLine
 10
25.31097478118647
 20
-12.23710678118652
 30
0.0
 11
25.31097478118647
 21
-16.60710678118652
 31
0.0
  0
LINE
  5
F8
330
38
100
AcDbEntity
  8
0
100
AcDbLine
 10
25.31097478118647
 20
-12.23710678118652
 30
0.0
 11
25.31097478118647
 21
-12.67710678118646
 31
0.0
  0
LINE
  5
F9
330
38
100
AcDbEntity
  8
0
100
AcDbLine
 10
35.43097478118659
 20
-17.10710678118652
 30
0.0
 11
35.43097478118659
 21
-7.057106781186456
 31
0.0
  0
LINE
  5
FA
330
38
100
AcDbEntity
  8
0
100
AcDbLine
 10
32.93097478118659
 20
-17.10710678118652
 30
0.0
 11
32.93097478118659
 21
-7.057106781186456
 31
0.0
  0
LINE
  5
FB
330
38
100
AcDbEntity
  8
0
100
AcDbLine
 10
36.28097478119059
 20
-10.157106781185
 30
0.0
 11
36.28097478119059
 21
-17.10710678118572
 31
0.0
  0
LINE
  5
FC
330
38
100
AcDbEntity
  8
0
100
AcDbLine
 10
46.28097478119059
 20
-17.10710678118572
 30
0.0
 11
46.28097478119059
 21
-10.157106781185
 31
0.0
  0
LINE
  5
FD
330
38
100
AcDbEntity
  8
0
100
AcDbLine
 10
36.68097478119022
 20
-16.407106781185
 30
0.0
 11
36.68097478119022
 21
-11.407106781185
 31
0.0
  0
LINE
  5
FE
330
38
100
AcDbEntity
  8
0
100
AcDbLine
 10
45.88097478119095
 20
-11.407106781185
 30
0.0
 11
45.88097478119095
 21
-12.907106781185
 31
0.0
  0
LINE
  5
FF
330
38
100
AcDbEntity
  8
0
100
AcDbLine
 10
26.72097478118655
 20
-17.10710678118652
 30
0.0
 11
26.72097478118655
 21
-17.60710678118652
 31
0.0
  0
LINE
  5
100
330
38
100
AcDbEntity
  8
0
100
AcDbLine
 10
29.12097478118642
 20
-17.10710678118652
 30
0.0
 11
29.12097478118642
 21
-16.60710678118652
 31
0.0
  0
LINE
  5
101
330
38
100
AcDbEntity
  8
0
100
AcDbLine
 10
29.12097478118642
 20
-17.10710678118652
 30
0.0
 11
29.12097478118642
 21
-16.60710678118652
 31
0.0
  0
LINE
  5
102
330
38
100
AcDbEntity
  8
0
100
AcDbLine
 10
30.13097478118641
 20
-17.60710678118652
 30
0.0
 11
29.6309747811864
 21
-17.60710678118652
 31
0.0
  0
LINE
  5
103
330
38
100
AcDbEntity
  8
0
100
AcDbLine
 10
29.6309747811864
 20
-17.60710678118652
 30
0.0
 11
29.23097478118654
 21
-17.60710678118652
 31
0.0
  0
LINE
  5
104
330
38
100
AcDbEntity
  8
0
100
AcDbLine
 10
29.23097478118654
 20
-17.10710678118652
 30
0.0
 11
29.12097478118642
 21
-17.10710678118652
 31
0.0
  0
LINE
  5
105
330
38
100
AcDbEntity
  8
0
100
AcDbLine
 10
29.23097478118654
 20
-17.10710678118652
 30
0.0
 11
29.23097478118654
 21
-17.60710678118652
 31
0.0
  0
LINE
  5
106
330
38
100
AcDbEntity
  8
0
100
AcDbLine
 10
30.5309747811865
 20
-17.10710678118652
 30
0.0
 11
30.5309747811865
 21
-17.60710678118652
 31
0.0
  0
LINE
  5
107
330
38
100
AcDbEntity
  8
0
100
AcDbLine
 10
30.5309747811865
 20
-17.10710678118652
 30
0.0
 11
29.23097478118654
 21
-17.10710678118652
 31
0.0
  0
LINE
  5
108
330
38
100
AcDbEntity
  8
0
100
AcDbLine
 10
30.5309747811865
 20
-17.60710678118652
 30
0.0
 11
30.13097478118641
 21
-17.60710678118652
 31
0.0
  0
LINE
  5
109
330
38
100
AcDbEntity
  8
0
100
AcDbLine
 10
29.12097478118642
 20
-14.20710678118643
 30
0.0
 11
29.12097478118642
 21
-16.60710678118652
 31
0.0
  0
LINE
  5
10A
330
38
100
AcDbEntity
  8
0
100
AcDbLine
 10
29.12097478118642
 20
-12.80710678118645
 30
0.0
 11
29.12097478118642
 21
-14.20710678118643
 31
0.0
  0
LINE
  5
10B
330
38
100
AcDbEntity
  8
0
100
AcDbLine
 10
29.12097478118642
 20
-12.67710678118646
 30
0.0
 11
29.12097478118642
 21
-12.80710678118645
 31
0.0
  0
LINE
  5
10C
330
38
100
AcDbEntity
  8
0
100
AcDbLine
 10
22.91097478118661
 20
-17.60710678118652
 30
0.0
 11
22.51097478118651
 21
-17.60710678118652
 31
0.0
  0
LINE
  5
10D
330
38
100
AcDbEntity
  8
0
100
AcDbLine
 10
21.50097478118652
 20
-17.10710678118652
 30
0.0
 11
21.50097478118652
 21
-16.60710678118652
 31
0.0
  0
LINE
  5
10E
330
38
100
AcDbEntity
  8
0
100
AcDbLine
 10
21.50097478118652
 20
-17.10710678118652
 30
0.0
 11
21.50097478118652
 21
-16.60710678118652
 31
0.0
  0
LINE
  5
10F
330
38
100
AcDbEntity
  8
0
100
AcDbLine
 10
22.51097478118651
 20
-17.60710678118652
 30
0.0
 11
22.01097478118652
 21
-17.60710678118652
 31
0.0
  0
LINE
  5
110
330
38
100
AcDbEntity
  8
0
100
AcDbLine
 10
22.01097478118652
 20
-17.60710678118652
 30
0.0
 11
21.61097478118642
 21
-17.60710678118652
 31
0.0
  0
LINE
  5
111
330
38
100
AcDbEntity
  8
0
100
AcDbLine
 10
21.61097478118642
 20
-17.10710678118652
 30
0.0
 11
21.50097478118652
 21
-17.10710678118652
 31
0.0
  0
LINE
  5
112
330
38
100
AcDbEntity
  8
0
100
AcDbLine
 10
21.61097478118642
 20
-17.10710678118652
 30
0.0
 11
21.61097478118642
 21
-17.60710678118652
 31
0.0
  0
LINE
  5
113
330
38
100
AcDbEntity
  8
0
100
AcDbLine
 10
21.50097478118652
 20
-14.20710678118643
 30
0.0
 11
21.50097478118652
 21
-16.60710678118652
 31
0.0
  0
LINE
  5
114
330
38
100
AcDbEntity
  8
0
100
AcDbLine
 10
21.50097478118652
 20
-12.80710678118645
 30
0.0
 11
21.50097478118652
 21
-14.20710678118643
 31
0.0
  0
LINE
  5
115
330
38
100
AcDbEntity
  8
0
100
AcDbLine
 10
21.50097478118652
 20
-12.67710678118646
 30
0.0
 11
21.50097478118652
 21
-12.80710678118645
 31
0.0
  0
LINE
  5
116
330
38
100
AcDbEntity
  8
0
100
AcDbLine
 10
22.91097478118661
 20
-17.10710678118652
 30
0.0
 11
22.91097478118661
 21
-17.60710678118652
 31
0.0
  0
LINE
  5
117
330
38
100
AcDbEntity
  8
0
100
AcDbLine
 10
25.31097478118647
 20
-17.10710678118652
 30
0.0
 11
25.31097478118647
 21
-16.60710678118652
 31
0.0
  0
LINE
  5
118
330
38
100
AcDbEntity
  8
0
100
AcDbLine
 10
25.31097478118647
 20
-17.10710678118652
 30
0.0
 11
25.31097478118647
 21
-16.60710678118652
 31
0.0
  0
LINE
  5
119
330
38
100
AcDbEntity
  8
0
100
AcDbLine
 10
26.32097478118646
 20
-17.60710678118652
 30
0.0
 11
25.82097478118646
 21
-17.60710678118652
 31
0.0
  0
LINE
  5
11A
330
38
100
AcDbEntity
  8
0
100
AcDbLine
 10
25.82097478118646
 20
-17.60710678118652
 30
0.0
 11
25.4209747811866
 21
-17.60710678118652
 31
0.0
  0
LINE
  5
11B
330
38
100
AcDbEntity
  8
0
100
AcDbLine
 10
25.4209747811866
 20
-17.10710678118652
 30
0.0
 11
25.31097478118647
 21
-17.10710678118652
 31
0.0
  0
LINE
  5
11C
330
38
100
AcDbEntity
  8
0
100
AcDbLine
 10
25.4209747811866
 20
-17.10710678118652
 30
0.0
 11
25.4209747811866
 21
-17.60710678118652
 31
0.0
  0
LINE
  5
11D
330
38
100
AcDbEntity
  8
0
100
AcDbLine
 10
25.31097478118647
 20
-14.20710678118643
 30
0.0
 11
25.31097478118647
 21
-16.60710678118652
 31
0.0
  0
LINE
  5
11E
330
38
100
AcDbEntity
  8
0
100
AcDbLine
 10
25.31097478118647
 20
-12.67710678118646
 30
0.0
 11
25.31097478118647
 21
-12.80710678118645
 31
0.0
  0
LINE
  5
11F
330
38
100
AcDbEntity
  8
0
100
AcDbLine
 10
25.31097478118647
 20
-12.80710678118645
 30
0.0
 11
25.31097478118647
 21
-14.20710678118643
 31
0.0
  0
LINE
  5
120
330
38
100
AcDbEntity
  8
0
100
AcDbLine
 10
19.10097478118643
 20
-17.10710678118652
 30
0.0
 11
19.10097478118643
 21
-17.60710678118652
 31
0.0
  0
LINE
  5
121
330
38
100
AcDbEntity
  8
0
100
AcDbLine
 10
26.72097478118655
 20
-17.60710678118652
 30
0.0
 11
26.32097478118646
 21
-17.60710678118652
 31
0.0
  0
CIRCLE
  5
122
330
38
100
AcDbEntity
  8
0
100
AcDbCircle
 10
43.7809747811907
 20
-13.63210678118559
 30
0.0
 40
0.32
  0
LINE
  5
123
330
38
100
AcDbEntity
  8
0
100
AcDbLine
 10
44.28097478119059
 20
-17.60710678118572
 30
0.0
 11
46.28097478119059
 21
-17.60710678118572
 31
0.0
  0
LINE
  5
124
330
38
100
AcDbEntity
  8
0
100
AcDbLine
 10
46.28097478119059
 20
-17.60710678118572
 30
0.0
 11
46.28097478119059
 21
-17.10710678118572
 31
0.0
  0
LINE
  5
125
330
38
100
AcDbEntity
  8
0
100
AcDbLine
 10
44.28097478119059
 20
-17.10710678118572
 30
0.0
 11
44.28097478119059
 21
-17.60710678118572
 31
0.0
  0
LINE
  5
126
330
38
100
AcDbEntity
  8
0
100
AcDbLine
 10
45.88097478119095
 20
-16.407106781185
 30
0.0
 11
45.88097478119095
 21
-14.407106781185
 31
0.0
  0
LINE
  5
127
330
38
100
AcDbEntity
  8
0
100
AcDbLine
 10
45.88097478119095
 20
-14.407106781185
 30
0.0
 11
46.28097478119059
 21
-14.407106781185
 31
0.0
  0
LINE
  5
128
330
38
100
AcDbEntity
  8
0
100
AcDbLine
 10
45.88097478119095
 20
-12.907106781185
 30
0.0
 11
46.28097478119059
 21
-12.907106781185
 31
0.0
  0
LINE
  5
129
330
38
100
AcDbEntity
  8
0
100
AcDbLine
 10
41.28097478119059
 20
-16.407106781185
 30
0.0
 11
36.68097478119022
 21
-16.407106781185
 31
0.0
  0
CIRCLE
  5
12A
330
38
100
AcDbEntity
  8
0
100
AcDbCircle
 10
38.7809747811907
 20
-13.63210678118559
 30
0.0
 40
0.32
  0
LINE
  5
12B
330
38
100
AcDbEntity
  8
0
100
AcDbLine
 10
38.28097478119059
 20
-17.60710678118572
 30
0.0
 11
38.28097478119059
 21
-17.10710678118572
 31
0.0
  0
LINE
  5
12C
330
38
100
AcDbEntity
  8
0
100
AcDbLine
 10
38.28097478119059
 20
-17.10710678118572
 30
0.0
 11
44.28097478119059
 21
-17.10710678118572
 31
0.0
  0
LINE
  5
12D
330
38
100
AcDbEntity
  8
0
100
AcDbLine
 10
41.28097478119059
 20
-16.407106781185
 30
0.0
 11
45.88097478119095
 21
-16.407106781185
 31
0.0
  0
CIRCLE
  5
12E
330
38
100
AcDbEntity
  8
0
100
AcDbCircle
 10
41.2809747811907
 20
-13.63210678118559
 30
0.0
 40
0.32
  0
LINE
  5
12F
330
38
100
AcDbEntity
  8
0
100
AcDbLine
 10
36.28097478119059
 20
-17.10710678118572
 30
0.0
 11
36.28097478119059
 21
-17.60710678118572
 31
0.0
  0
LINE
  5
130
330
38
100
AcDbEntity
  8
0
100
AcDbLine
 10
36.28097478119059
 20
-17.60710678118572
 30
0.0
 11
38.28097478119059
 21
-17.60710678118572
 31
0.0
  0
ARC
  5
131
330
38
100
AcDbEntity
  8
0
100
AcDbCircle
 10
32.56097478118647
 20
-4.707106781186547
 30
0.0
 40
0.3
100
AcDbArc
 50
0.0
 51
90.0
  0
LINE
  5
132
330
38
100
AcDbEntity
  8
0
100
AcDbLine
 10
32.93097478118659
 20
-7.057106781186456
 30
0.0
 11
32.86097478118643
 21
-7.057106781186456
 31
0.0
  0
LINE
  5
133
330
38
100
AcDbEntity
  8
0
100
AcDbLine
 10
32.93097478118659
 20
-12.23710678118652
 30
0.0
 11
29.12097478118642
 21
-12.23710678118652
 31
0.0
  0
LINE
  5
134
330
38
100
AcDbEntity
  8
0
100
AcDbLine
 10
32.86097478118643
 20
-4.707106781186434
 30
0.0
 11
32.86097478118643
 21
-4.807106781186456
 31
0.0
  0
ARC
  5
135
330
38
100
AcDbEntity
  8
0
100
AcDbCircle
 10
28.75097478118652
 20
-4.707106781186547
 30
0.0
 40
0.3
100
AcDbArc
 50
0.0
 51
90.0
  0
ARC
  5
136
330
38
100
AcDbEntity
  8
0
100
AcDbCircle
 10
29.46097478118656
 20
-4.707106781186547
 30
0.0
 40
0.3
100
AcDbArc
 50
90.0
 51
180.0
  0
LINE
  5
137
330
38
100
AcDbEntity
  8
0
100
AcDbLine
 10
29.16097478118661
 20
-4.707106781186434
 30
0.0
 11
29.16097478118661
 21
-4.807106781186456
 31
0.0
  0
LINE
  5
138
330
38
100
AcDbEntity
  8
0
100
AcDbLine
 10
29.05097478118648
 20
-4.707106781186434
 30
0.0
 11
29.05097478118648
 21
-4.807106781186456
 31
0.0
  0
LINE
  5
139
330
38
100
AcDbEntity
  8
0
100
AcDbLine
 10
29.46097478118656
 20
-4.407106781186479
 30
0.0
 11
32.56097478118647
 21
-4.407106781186479
 31
0.0
  0
LINE
  5
13A
330
38
100
AcDbEntity
  8
0
100
AcDbLine
 10
32.86097478118643
 20
-5.357106781186525
 30
0.0
 11
32.86097478118643
 21
-5.057106781186456
 31
0.0
  0
LINE
  5
13B
330
38
100
AcDbEntity
  8
0
100
AcDbLine
 10
32.16097478118661
 20
-6.907106781186479
 30
0.0
 11
32.86097478118643
 21
-6.907106781186479
 31
0.0
  0
LINE
  5
13C
330
38
100
AcDbEntity
  8
0
100
AcDbLine
 10
32.16097478118661
 20
-6.907106781186479
 30
0.0
 11
32.16097478118661
 21
-7.057106781186456
 31
0.0
  0
LINE
  5
13D
330
38
100
AcDbEntity
  8
0
100
AcDbLine
 10
32.86097478118643
 20
-6.507106781186502
 30
0.0
 11
32.86097478118643
 21
-6.907106781186479
 31
0.0
  0
LINE
  5
13E
330
38
100
AcDbEntity
  8
0
100
AcDbLine
 10
32.86097478118643
 20
-6.907106781186479
 30
0.0
 11
32.86097478118643
 21
-7.057106781186456
 31
0.0
  0
LINE
  5
13F
330
38
100
AcDbEntity
  8
0
100
AcDbLine
 10
32.86097478118643
 20
-6.257106781186502
 30
0.0
 11
32.86097478118643
 21
-6.507106781186502
 31
0.0
  0
LINE
  5
140
330
38
100
AcDbEntity
  8
0
100
AcDbLine
 10
32.86097478118643
 20
-6.257106781186502
 30
0.0
 11
32.86097478118643
 21
-5.957106781186434
 31
0.0
  0
LINE
  5
141
330
38
100
AcDbEntity
  8
0
100
AcDbLine
 10
32.86097478118643
 20
-7.057106781186456
 30
0.0
 11
32.16097478118661
 21
-7.057106781186456
 31
0.0
  0
LINE
  5
142
330
38
100
AcDbEntity
  8
0
100
AcDbLine
 10
32.86097478118643
 20
-5.357106781186525
 30
0.0
 11
32.86097478118643
 21
-5.957106781186434
 31
0.0
  0
LINE
  5
143
330
38
100
AcDbEntity
  8
0
100
AcDbLine
 10
29.12097478118642
 20
-7.557106781186456
 30
0.0
 11
29.12097478118642
 21
-11.27710678118648
 31
0.0
  0
LINE
  5
144
330
38
100
AcDbEntity
  8
0
100
AcDbLine
 10
28.35097478118644
 20
-6.907106781186479
 30
0.0
 11
29.05097478118648
 21
-6.907106781186479
 31
0.0
  0
LINE
  5
145
330
38
100
AcDbEntity
  8
0
100
AcDbLine
 10
29.05097478118648
 20
-7.057106781186456
 30
0.0
 11
28.35097478118644
 21
-7.057106781186456
 31
0.0
  0
LINE
  5
146
330
38
100
AcDbEntity
  8
0
100
AcDbLine
 10
28.35097478118644
 20
-6.907106781186479
 30
0.0
 11
28.35097478118644
 21
-7.057106781186456
 31
0.0
  0
ARC
  5
147
330
38
100
AcDbEntity
  8
0
100
AcDbCircle
 10
27.21597478118644
 20
-9.207106781186547
 30
0.0
 40
0.85
100
AcDbArc
 50
233.269604999998
 51
270.0
  0
ARC
  5
148
330
38
100
AcDbEntity
  8
0
100
AcDbCircle
 10
30.06097478118647
 20
-5.357106781186582
 30
0.0
 40
0.3
100
AcDbArc
 50
90.0
 51
180.0
  0
LINE
  5
149
330
38
100
AcDbEntity
  8
0
100
AcDbLine
 10
29.05097478118648
 20
-5.357106781186525
 30
0.0
 11
29.05097478118648
 21
-5.057106781186456
 31
0.0
  0
LINE
  5
14A
330
38
100
AcDbEntity
  8
0
100
AcDbLine
 10
29.05097478118648
 20
-6.507106781186502
 30
0.0
 11
29.05097478118648
 21
-6.907106781186479
 31
0.0
  0
LINE
  5
14B
330
38
100
AcDbEntity
  8
0
100
AcDbLine
 10
29.05097478118648
 20
-6.907106781186479
 30
0.0
 11
29.05097478118648
 21
-7.057106781186456
 31
0.0
  0
LINE
  5
14C
330
38
100
AcDbEntity
  8
0
100
AcDbLine
 10
29.05097478118648
 20
-6.257106781186502
 30
0.0
 11
29.05097478118648
 21
-6.507106781186502
 31
0.0
  0
LINE
  5
14D
330
38
100
AcDbEntity
  8
0
100
AcDbLine
 10
29.05097478118648
 20
-6.257106781186502
 30
0.0
 11
29.05097478118648
 21
-5.957106781186434
 31
0.0
  0
ARC
  5
14E
330
38
100
AcDbEntity
  8
0
100
AcDbCircle
 10
29.46097478118656
 20
-6.607106781186582
 30
0.0
 40
0.3
100
AcDbArc
 50
180.0
 51
270.0
  0
ARC
  5
14F
330
38
100
AcDbEntity
  8
0
100
AcDbCircle
 10
30.06097478118647
 20
-5.957106781186547
 30
0.0
 40
0.3
100
AcDbArc
 50
180.0
 51
270.0
  0
LINE
  5
150
330
38
100
AcDbEntity
  8
0
100
AcDbLine
 10
29.16097478118661
 20
-6.507106781186502
 30
0.0
 11
29.16097478118661
 21
-6.607106781186525
 31
0.0
  0
LINE
  5
151
330
38
100
AcDbEntity
  8
0
100
AcDbLine
 10
29.12097478118642
 20
-7.557106781186456
 30
0.0
 11
29.12097478118642
 21
-7.057106781186456
 31
0.0
  0
LINE
  5
152
330
38
100
AcDbEntity
  8
0
100
AcDbLine
 10
29.12097478118642
 20
-7.557106781186456
 30
0.0
 11
29.12097478118642
 21
-7.057106781186456
 31
0.0
  0
LINE
  5
153
330
38
100
AcDbEntity
  8
0
100
AcDbLine
 10
29.12097478118642
 20
-7.057106781186456
 30
0.0
 11
29.05097478118648
 21
-7.057106781186456
 31
0.0
  0
ARC
  5
154
330
38
100
AcDbEntity
  8
0
100
AcDbCircle
 10
31.02597478118662
 20
-9.207106781186547
 30
0.0
 40
0.85
100
AcDbArc
 50
233.269604999998
 51
270.0
  0
LINE
  5
155
330
38
100
AcDbEntity
  8
0
100
AcDbLine
 10
29.76097478118651
 20
-5.357106781186525
 30
0.0
 11
29.76097478118651
 21
-5.957106781186434
 31
0.0
  0
LINE
  5
156
330
38
100
AcDbEntity
  8
0
100
AcDbLine
 10
29.05097478118648
 20
-5.357106781186525
 30
0.0
 11
29.05097478118648
 21
-5.957106781186434
 31
0.0
  0
CIRCLE
  5
157
330
38
100
AcDbEntity
  8
0
100
AcDbCircle
 10
31.02597478118662
 20
-9.207106781186547
 30
0.0
 40
1.564999999999999
  0
LINE
  5
158
330
38
100
AcDbEntity
  8
0
100
AcDbLine
 10
32.86097478118643
 20
-5.057106781186456
 30
0.0
 11
30.06097478118647
 21
-5.057106781186456
 31
0.0
  0
LINE
  5
159
330
38
100
AcDbEntity
  8
0
100
AcDbLine
 10
30.06097478118647
 20
-6.257106781186502
 30
0.0
 11
32.86097478118643
 21
-6.257106781186502
 31
0.0
  0
LINE
  5
15A
330
38
100
AcDbEntity
  8
0
100
AcDbLine
 10
29.46097478118656
 20
-6.907106781186479
 30
0.0
 11
32.16097478118661
 21
-6.907106781186479
 31
0.0
  0
LINE
  5
15B
330
38
100
AcDbEntity
  8
0
100
AcDbLine
 10
32.16097478118661
 20
-7.057106781186456
 30
0.0
 11
29.12097478118642
 21
-7.057106781186456
 31
0.0
  0
ARC
  5
15C
330
38
100
AcDbEntity
  8
0
100
AcDbCircle
 10
31.02597478118662
 20
-9.207106781186547
 30
0.0
 40
0.85
100
AcDbArc
 50
270.0
 51
233.269604999998
  0
LINE
  5
15D
330
38
100
AcDbEntity
  8
0
100
AcDbLine
 10
29.05097478118648
 20
-4.807106781186456
 30
0.0
 11
29.05097478118648
 21
-5.057106781186456
 31
0.0
  0
LINE
  5
15E
330
38
100
AcDbEntity
  8
0
100
AcDbLine
 10
32.86097478118643
 20
-4.807106781186456
 30
0.0
 11
32.86097478118643
 21
-5.057106781186456
 31
0.0
  0
LINE
  5
15F
330
38
100
AcDbEntity
  8
0
100
AcDbLine
 10
29.16097478118661
 20
-4.807106781186456
 30
0.0
 11
29.16097478118661
 21
-6.507106781186502
 31
0.0
  0
LINE
  5
160
330
38
100
AcDbEntity
  8
0
100
AcDbLine
 10
21.84097478118644
 20
-4.407106781186479
 30
0.0
 11
24.94097478118658
 21
-4.407106781186479
 31
0.0
  0
LINE
  5
161
330
38
100
AcDbEntity
  8
0
100
AcDbLine
 10
21.54097478118649
 20
-4.707106781186434
 30
0.0
 11
21.54097478118649
 21
-4.807106781186456
 31
0.0
  0
ARC
  5
162
330
38
100
AcDbEntity
  8
0
100
AcDbCircle
 10
21.84097478118644
 20
-4.707106781186547
 30
0.0
 40
0.3
100
AcDbArc
 50
90.0
 51
180.0
  0
LINE
  5
163
330
38
100
AcDbEntity
  8
0
100
AcDbLine
 10
21.43097478118659
 20
-4.707106781186434
 30
0.0
 11
21.43097478118659
 21
-4.807106781186456
 31
0.0
  0
LINE
  5
164
330
38
100
AcDbEntity
  8
0
100
AcDbLine
 10
25.24097478118653
 20
-4.707106781186434
 30
0.0
 11
25.24097478118653
 21
-4.807106781186456
 31
0.0
  0
ARC
  5
165
330
38
100
AcDbEntity
  8
0
100
AcDbCircle
 10
25.65097478118662
 20
-4.707106781186547
 30
0.0
 40
0.3
100
AcDbArc
 50
90.0
 51
180.0
  0
LINE
  5
166
330
38
100
AcDbEntity
  8
0
100
AcDbLine
 10
25.35097478118643
 20
-4.707106781186434
 30
0.0
 11
25.35097478118643
 21
-4.807106781186456
 31
0.0
  0
ARC
  5
167
330
38
100
AcDbEntity
  8
0
100
AcDbCircle
 10
24.94097478118658
 20
-4.707106781186547
 30
0.0
 40
0.3
100
AcDbArc
 50
0.0
 51
90.0
  0
ARC
  5
168
330
38
100
AcDbEntity
  8
0
100
AcDbCircle
 10
21.1309747811864
 20
-4.707106781186547
 30
0.0
 40
0.3
100
AcDbArc
 50
0.0
 51
90.0
  0
CIRCLE
  5
169
330
38
100
AcDbEntity
  8
0
100
AcDbCircle
 10
23.4059747811865
 20
-9.207106781186547
 30
0.0
 40
1.564999999999999
  0
LINE
  5
16A
330
38
100
AcDbEntity
  8
0
100
AcDbLine
 10
25.24097478118653
 20
-5.057106781186456
 30
0.0
 11
22.44097478118658
 21
-5.057106781186456
 31
0.0
  0
LINE
  5
16B
330
38
100
AcDbEntity
  8
0
100
AcDbLine
 10
24.54097478118649
 20
-7.057106781186456
 30
0.0
 11
21.50097478118652
 21
-7.057106781186456
 31
0.0
  0
LINE
  5
16C
330
38
100
AcDbEntity
  8
0
100
AcDbLine
 10
21.84097478118644
 20
-6.907106781186479
 30
0.0
 11
24.54097478118649
 21
-6.907106781186479
 31
0.0
  0
LINE
  5
16D
330
38
100
AcDbEntity
  8
0
100
AcDbLine
 10
22.44097478118658
 20
-6.257106781186502
 30
0.0
 11
25.24097478118653
 21
-6.257106781186502
 31
0.0
  0
LINE
  5
16E
330
38
100
AcDbEntity
  8
0
100
AcDbLine
 10
21.50097478118652
 20
-7.557106781186456
 30
0.0
 11
21.50097478118652
 21
-11.27710678118648
 31
0.0
  0
ARC
  5
16F
330
38
100
AcDbEntity
  8
0
100
AcDbCircle
 10
22.44097478118658
 20
-5.357106781186582
 30
0.0
 40
0.3
100
AcDbArc
 50
90.0
 51
180.0
  0
LINE
  5
170
330
38
100
AcDbEntity
  8
0
100
AcDbLine
 10
21.43097478118659
 20
-5.357106781186525
 30
0.0
 11
21.43097478118659
 21
-5.057106781186456
 31
0.0
  0
ARC
  5
171
330
38
100
AcDbEntity
  8
0
100
AcDbCircle
 10
22.44097478118658
 20
-5.957106781186547
 30
0.0
 40
0.3
100
AcDbArc
 50
180.0
 51
270.0
  0
LINE
  5
172
330
38
100
AcDbEntity
  8
0
100
AcDbLine
 10
21.50097478118652
 20
-7.557106781186456
 30
0.0
 11
21.50097478118652
 21
-7.057106781186456
 31
0.0
  0
LINE
  5
173
330
38
100
AcDbEntity
  8
0
100
AcDbLine
 10
21.54097478118649
 20
-6.507106781186502
 30
0.0
 11
21.54097478118649
 21
-6.607106781186525
 31
0.0
  0
ARC
  5
174
330
38
100
AcDbEntity
  8
0
100
AcDbCircle
 10
21.84097478118644
 20
-6.607106781186582
 30
0.0
 40
0.3
100
AcDbArc
 50
180.0
 51
270.0
  0
LINE
  5
175
330
38
100
AcDbEntity
  8
0
100
AcDbLine
 10
21.50097478118652
 20
-7.557106781186456
 30
0.0
 11
21.50097478118652
 21
-7.057106781186456
 31
0.0
  0
LINE
  5
176
330
38
100
AcDbEntity
  8
0
100
AcDbLine
 10
21.50097478118652
 20
-7.057106781186456
 30
0.0
 11
21.43097478118659
 21
-7.057106781186456
 31
0.0
  0
LINE
  5
177
330
38
100
AcDbEntity
  8
0
100
AcDbLine
 10
21.43097478118659
 20
-6.507106781186502
 30
0.0
 11
21.43097478118659
 21
-6.907106781186479
 31
0.0
  0
LINE
  5
178
330
38
100
AcDbEntity
  8
0
100
AcDbLine
 10
21.43097478118659
 20
-6.907106781186479
 30
0.0
 11
21.43097478118659
 21
-7.057106781186456
 31
0.0
  0
LINE
  5
179
330
38
100
AcDbEntity
  8
0
100
AcDbLine
 10
21.43097478118659
 20
-6.257106781186502
 30
0.0
 11
21.43097478118659
 21
-6.507106781186502
 31
0.0
  0
LINE
  5
17A
330
38
100
AcDbEntity
  8
0
100
AcDbLine
 10
21.43097478118659
 20
-6.257106781186502
 30
0.0
 11
21.43097478118659
 21
-5.957106781186434
 31
0.0
  0
LINE
  5
17B
330
38
100
AcDbEntity
  8
0
100
AcDbLine
 10
21.43097478118659
 20
-5.357106781186525
 30
0.0
 11
21.43097478118659
 21
-5.957106781186434
 31
0.0
  0
LINE
  5
17C
330
38
100
AcDbEntity
  8
0
100
AcDbLine
 10
22.14097478118639
 20
-5.357106781186525
 30
0.0
 11
22.14097478118639
 21
-5.957106781186434
 31
0.0
  0
LINE
  5
17D
330
38
100
AcDbEntity
  8
0
100
AcDbLine
 10
25.31097478118647
 20
-7.557106781186456
 30
0.0
 11
25.31097478118647
 21
-11.27710678118648
 31
0.0
  0
ARC
  5
17E
330
38
100
AcDbEntity
  8
0
100
AcDbCircle
 10
23.4059747811865
 20
-9.207106781186547
 30
0.0
 40
0.85
100
AcDbArc
 50
270.0
 51
233.269604999998
  0
ARC
  5
17F
330
38
100
AcDbEntity
  8
0
100
AcDbCircle
 10
23.4059747811865
 20
-9.207106781186547
 30
0.0
 40
0.85
100
AcDbArc
 50
233.269604999998
 51
270.0
  0
LINE
  5
180
330
38
100
AcDbEntity
  8
0
100
AcDbLine
 10
25.24097478118653
 20
-5.357106781186525
 30
0.0
 11
25.24097478118653
 21
-5.057106781186456
 31
0.0
  0
ARC
  5
181
330
38
100
AcDbEntity
  8
0
100
AcDbCircle
 10
26.25097478118652
 20
-5.357106781186582
 30
0.0
 40
0.3
100
AcDbArc
 50
90.0
 51
180.0
  0
LINE
  5
182
330
38
100
AcDbEntity
  8
0
100
AcDbLine
 10
25.24097478118653
 20
-7.057106781186456
 30
0.0
 11
24.54097478118649
 21
-7.057106781186456
 31
0.0
  0
LINE
  5
183
330
38
100
AcDbEntity
  8
0
100
AcDbLine
 10
25.24097478118653
 20
-6.257106781186502
 30
0.0
 11
25.24097478118653
 21
-5.957106781186434
 31
0.0
  0
LINE
  5
184
330
38
100
AcDbEntity
  8
0
100
AcDbLine
 10
25.24097478118653
 20
-6.257106781186502
 30
0.0
 11
25.24097478118653
 21
-6.507106781186502
 31
0.0
  0
LINE
  5
185
330
38
100
AcDbEntity
  8
0
100
AcDbLine
 10
25.24097478118653
 20
-6.907106781186479
 30
0.0
 11
25.24097478118653
 21
-7.057106781186456
 31
0.0
  0
LINE
  5
186
330
38
100
AcDbEntity
  8
0
100
AcDbLine
 10
25.24097478118653
 20
-6.507106781186502
 30
0.0
 11
25.24097478118653
 21
-6.907106781186479
 31
0.0
  0
LINE
  5
187
330
38
100
AcDbEntity
  8
0
100
AcDbLine
 10
24.54097478118649
 20
-6.907106781186479
 30
0.0
 11
24.54097478118649
 21
-7.057106781186456
 31
0.0
  0
LINE
  5
188
330
38
100
AcDbEntity
  8
0
100
AcDbLine
 10
24.54097478118649
 20
-6.907106781186479
 30
0.0
 11
25.24097478118653
 21
-6.907106781186479
 31
0.0
  0
ARC
  5
189
330
38
100
AcDbEntity
  8
0
100
AcDbCircle
 10
25.65097478118662
 20
-6.607106781186582
 30
0.0
 40
0.3
100
AcDbArc
 50
180.0
 51
270.0
  0
ARC
  5
18A
330
38
100
AcDbEntity
  8
0
100
AcDbCircle
 10
26.25097478118652
 20
-5.957106781186547
 30
0.0
 40
0.3
100
AcDbArc
 50
180.0
 51
270.0
  0
LINE
  5
18B
330
38
100
AcDbEntity
  8
0
100
AcDbLine
 10
25.31097478118647
 20
-7.557106781186456
 30
0.0
 11
25.31097478118647
 21
-7.057106781186456
 31
0.0
  0
LINE
  5
18C
330
38
100
AcDbEntity
  8
0
100
AcDbLine
 10
25.31097478118647
 20
-7.557106781186456
 30
0.0
 11
25.31097478118647
 21
-7.057106781186456
 31
0.0
  0
LINE
  5
18D
330
38
100
AcDbEntity
  8
0
100
AcDbLine
 10
25.35097478118643
 20
-6.507106781186502
 30
0.0
 11
25.35097478118643
 21
-6.607106781186525
 31
0.0
  0
LINE
  5
18E
330
38
100
AcDbEntity
  8
0
100
AcDbLine
 10
25.31097478118647
 20
-7.057106781186456
 30
0.0
 11
25.24097478118653
 21
-7.057106781186456
 31
0.0
  0
LINE
  5
18F
330
38
100
AcDbEntity
  8
0
100
AcDbLine
 10
25.24097478118653
 20
-5.357106781186525
 30
0.0
 11
25.24097478118653
 21
-5.957106781186434
 31
0.0
  0
LINE
  5
190
330
38
100
AcDbEntity
  8
0
100
AcDbLine
 10
25.95097478118657
 20
-5.357106781186525
 30
0.0
 11
25.95097478118657
 21
-5.957106781186434
 31
0.0
  0
ARC
  5
191
330
38
100
AcDbEntity
  8
0
100
AcDbCircle
 10
19.59597478118655
 20
-9.207106781186547
 30
0.0
 40
0.85
100
AcDbArc
 50
233.269604999998
 51
270.0
  0
LINE
  5
192
330
38
100
AcDbEntity
  8
0
100
AcDbLine
 10
20.73097478118654
 20
-6.907106781186479
 30
0.0
 11
20.73097478118654
 21
-7.057106781186456
 31
0.0
  0
LINE
  5
193
330
38
100
AcDbEntity
  8
0
100
AcDbLine
 10
21.43097478118659
 20
-7.057106781186456
 30
0.0
 11
20.73097478118654
 21
-7.057106781186456
 31
0.0
  0
LINE
  5
194
330
38
100
AcDbEntity
  8
0
100
AcDbLine
 10
20.73097478118654
 20
-6.907106781186479
 30
0.0
 11
21.43097478118659
 21
-6.907106781186479
 31
0.0
  0
LINE
  5
195
330
38
100
AcDbEntity
  8
0
100
AcDbLine
 10
21.43097478118659
 20
-4.807106781186456
 30
0.0
 11
21.43097478118659
 21
-5.057106781186456
 31
0.0
  0
LINE
  5
196
330
38
100
AcDbEntity
  8
0
100
AcDbLine
 10
21.54097478118649
 20
-4.807106781186456
 30
0.0
 11
21.54097478118649
 21
-6.507106781186502
 31
0.0
  0
LINE
  5
197
330
38
100
AcDbEntity
  8
0
100
AcDbLine
 10
25.24097478118653
 20
-4.807106781186456
 30
0.0
 11
25.24097478118653
 21
-5.057106781186456
 31
0.0
  0
LINE
  5
198
330
38
100
AcDbEntity
  8
0
100
AcDbLine
 10
25.35097478118643
 20
-4.807106781186456
 30
0.0
 11
25.35097478118643
 21
-6.507106781186502
 31
0.0
  0
LINE
  5
199
330
38
100
AcDbEntity
  8
0
100
AcDbLine
 10
29.05097478118648
 20
-5.057106781186456
 30
0.0
 11
26.25097478118652
 21
-5.057106781186456
 31
0.0
  0
LINE
  5
19A
330
38
100
AcDbEntity
  8
0
100
AcDbLine
 10
26.25097478118652
 20
-6.257106781186502
 30
0.0
 11
29.05097478118648
 21
-6.257106781186502
 31
0.0
  0
CIRCLE
  5
19B
330
38
100
AcDbEntity
  8
0
100
AcDbCircle
 10
27.21597478118644
 20
-9.207106781186547
 30
0.0
 40
1.564999999999999
  0
LINE
  5
19C
330
38
100
AcDbEntity
  8
0
100
AcDbLine
 10
25.65097478118662
 20
-4.407106781186479
 30
0.0
 11
28.75097478118652
 21
-4.407106781186479
 31
0.0
  0
LINE
  5
19D
330
38
100
AcDbEntity
  8
0
100
AcDbLine
 10
28.35097478118644
 20
-7.057106781186456
 30
0.0
 11
25.31097478118647
 21
-7.057106781186456
 31
0.0
  0
LINE
  5
19E
330
38
100
AcDbEntity
  8
0
100
AcDbLine
 10
25.65097478118662
 20
-6.907106781186479
 30
0.0
 11
28.35097478118644
 21
-6.907106781186479
 31
0.0
  0
ARC
  5
19F
330
38
100
AcDbEntity
  8
0
100
AcDbCircle
 10
27.21597478118644
 20
-9.207106781186547
 30
0.0
 40
0.85
100
AcDbArc
 50
270.0
 51
233.269604999998
  0
LINE
  5
1A0
330
38
100
AcDbEntity
  8
0
100
AcDbLine
 10
29.12097478118642
 20
-12.23710678118652
 30
0.0
 11
29.12097478118642
 21
-12.03710678118647
 31
0.0
  0
LINE
  5
1A1
330
38
100
AcDbEntity
  8
0
100
AcDbLine
 10
29.12097478118642
 20
-12.23710678118652
 30
0.0
 11
29.12097478118642
 21
-12.03710678118647
 31
0.0
  0
LINE
  5
1A2
330
38
100
AcDbEntity
  8
0
100
AcDbLine
 10
25.31097478118647
 20
-12.23710678118652
 30
0.0
 11
21.50097478118652
 21
-12.23710678118652
 31
0.0
  0
LINE
  5
1A3
330
38
100
AcDbEntity
  8
0
100
AcDbLine
 10
21.50097478118652
 20
-12.23710678118652
 30
0.0
 11
21.50097478118652
 21
-12.03710678118647
 31
0.0
  0
LINE
  5
1A4
330
38
100
AcDbEntity
  8
0
100
AcDbLine
 10
21.50097478118652
 20
-12.23710678118652
 30
0.0
 11
21.50097478118652
 21
-12.03710678118647
 31
0.0
  0
LINE
  5
1A5
330
38
100
AcDbEntity
  8
0
100
AcDbLine
 10
25.31097478118647
 20
-12.23710678118652
 30
0.0
 11
25.31097478118647
 21
-12.03710678118647
 31
0.0
  0
LINE
  5
1A6
330
38
100
AcDbEntity
  8
0
100
AcDbLine
 10
25.31097478118647
 20
-12.23710678118652
 30
0.0
 11
25.31097478118647
 21
-12.03710678118647
 31
0.0
  0
LINE
  5
1A7
330
38
100
AcDbEntity
  8
0
100
AcDbLine
 10
29.12097478118642
 20
-12.23710678118652
 30
0.0
 11
25.31097478118647
 21
-12.23710678118652
 31
0.0
  0
LINE
  5
1A8
330
38
100
AcDbEntity
  8
0
100
AcDbLine
 10
21.50097478118652
 20
-7.557106781186456
 30
0.0
 11
21.50097478118652
 21
-12.03710678118647
 31
0.0
  0
LINE
  5
1A9
330
38
100
AcDbEntity
  8
0
100
AcDbLine
 10
21.50097478118652
 20
-11.27710678118648
 30
0.0
 11
21.50097478118652
 21
-12.03710678118647
 31
0.0
  0
LINE
  5
1AA
330
38
100
AcDbEntity
  8
0
100
AcDbLine
 10
29.12097478118642
 20
-7.557106781186456
 30
0.0
 11
29.12097478118642
 21
-12.03710678118647
 31
0.0
  0
LINE
  5
1AB
330
38
100
AcDbEntity
  8
0
100
AcDbLine
 10
25.31097478118647
 20
-7.557106781186456
 30
0.0
 11
25.31097478118647
 21
-12.03710678118647
 31
0.0
  0
LINE
  5
1AC
330
38
100
AcDbEntity
  8
0
100
AcDbLine
 10
25.31097478118647
 20
-11.27710678118648
 30
0.0
 11
25.31097478118647
 21
-12.03710678118647
 31
0.0
  0
LINE
  5
1AD
330
38
100
AcDbEntity
  8
0
100
AcDbLine
 10
29.12097478118642
 20
-11.27710678118648
 30
0.0
 11
29.12097478118642
 21
-12.03710678118647
 31
0.0
  0
LINE
  5
1AE
330
38
100
AcDbEntity
  8
0
100
AcDbLine
 10
46.91097578118672
 20
-10.10710678118652
 30
0.0
 11
46.91097578118672
 21
-8.607106781186525
 31
0.0
  0
LINE
  5
1AF
330
38
100
AcDbEntity
  8
0
100
AcDbLine
 10
45.68097478119023
 20
-10.60710678118572
 30
0.0
 11
45.68097478119023
 21
-11.407106781185
 31
0.0
  0
LINE
  5
1B0
330
38
100
AcDbEntity
  8
0
100
AcDbLine
 10
45.78097478119059
 20
-11.407106781185
 30
0.0
 11
45.88097478119095
 21
-11.407106781185
 31
0.0
  0
LINE
  5
1B1
330
38
100
AcDbEntity
  8
0
100
AcDbLine
 10
45.68097478119023
 20
-11.407106781185
 30
0.0
 11
45.78097478119059
 21
-11.407106781185
 31
0.0
  0
LINE
  5
1B2
330
38
100
AcDbEntity
  8
0
100
AcDbLine
 10
43.4809747811895
 20
-10.60710678118572
 30
0.0
 11
45.68097478119023
 21
-10.60710678118572
 31
0.0
  0
LINE
  5
1B3
330
38
100
AcDbEntity
  8
0
100
AcDbLine
 10
46.28097478119059
 20
-10.157106781185
 30
0.0
 11
43.9809747811895
 21
-10.157106781185
 31
0.0
  0
LINE
  5
1B4
330
38
100
AcDbEntity
  8
0
100
AcDbLine
 10
43.9809747811895
 20
-10.157106781185
 30
0.0
 11
43.9809747811895
 21
-9.107106781185729
 31
0.0
  0
LINE
  5
1B5
330
38
100
AcDbEntity
  8
0
100
AcDbLine
 10
43.38097478119095
 20
-9.807106781184637
 30
0.0
 11
43.38097478119095
 21
-10.80710678118463
 31
0.0
  0
LINE
  5
1B6
330
38
100
AcDbEntity
  8
0
100
AcDbLine
 10
43.38097478119095
 20
-10.80710678118463
 30
0.0
 11
43.4809747811895
 21
-10.80710678118463
 31
0.0
  0
LINE
  5
1B7
330
38
100
AcDbEntity
  8
0
100
AcDbLine
 10
43.4809747811895
 20
-10.80710678118463
 30
0.0
 11
43.4809747811895
 21
-10.60710678118572
 31
0.0
  0
LINE
  5
1B8
330
38
100
AcDbEntity
  8
0
100
AcDbLine
 10
36.88097478119095
 20
-11.407106781185
 30
0.0
 11
36.88097478119095
 21
-10.60710678118572
 31
0.0
  0
LINE
  5
1B9
330
38
100
AcDbEntity
  8
0
100
AcDbLine
 10
36.68097478119022
 20
-11.407106781185
 30
0.0
 11
36.88097478119095
 21
-11.407106781185
 31
0.0
  0
LINE
  5
1BA
330
38
100
AcDbEntity
  8
0
100
AcDbLine
 10
36.88097478119095
 20
-10.60710678118572
 30
0.0
 11
39.08097478119168
 21
-10.60710678118572
 31
0.0
  0
LINE
  5
1BB
330
38
100
AcDbEntity
  8
0
100
AcDbLine
 10
38.58097478119168
 20
-9.107106781185729
 30
0.0
 11
38.58097478119168
 21
-10.157106781185
 31
0.0
  0
LINE
  5
1BC
330
38
100
AcDbEntity
  8
0
100
AcDbLine
 10
39.18097478119022
 20
-10.80710678118463
 30
0.0
 11
39.18097478119022
 21
-9.807106781184637
 31
0.0
  0
LINE
  5
1BD
330
38
100
AcDbEntity
  8
0
100
AcDbLine
 10
39.08097478119168
 20
-10.80710678118463
 30
0.0
 11
39.18097478119022
 21
-10.80710678118463
 31
0.0
  0
LINE
  5
1BE
330
38
100
AcDbEntity
  8
0
100
AcDbLine
 10
39.08097478119168
 20
-10.60710678118572
 30
0.0
 11
39.08097478119168
 21
-10.80710678118463
 31
0.0
  0
LINE
  5
1BF
330
38
100
AcDbEntity
  8
0
100
AcDbLine
 10
43.9809747811895
 20
-9.107106781185729
 30
0.0
 11
38.58097478119168
 21
-9.107106781185729
 31
0.0
  0
LINE
  5
1C0
330
38
100
AcDbEntity
  8
0
100
AcDbLine
 10
39.18097478119022
 20
-9.807106781184637
 30
0.0
 11
43.38097478119095
 21
-9.807106781184637
 31
0.0
  0
LINE
  5
1C1
330
38
100
AcDbEntity
  8
0
100
AcDbLine
 10
32.93097478118659
 20
-7.057106781186456
 30
0.0
 11
35.43097478118659
 21
-7.057106781186456
 31
0.0
  0
LINE
  5
1C2
330
38
100
AcDbEntity
  8
3_表示パネル
  6
CONTINUOUS
100
AcDbLine
 10
35.61097578118676
 20
-8.607106781186468
 30
0.0
 11
35.61097578118676
 21
-3.907106781186479
 31
0.0
  0
LINE
  5
1C3
330
38
100
AcDbEntity
  8
0
100
AcDbLine
 10
38.58097478119168
 20
-10.157106781185
 30
0.0
 11
36.28097478119059
 21
-10.157106781185
 31
0.0
  0
LINE
  5
1C4
330
38
100
AcDbEntity
  8
3_表示パネル
  6
CONTINUOUS
100
AcDbLine
 10
35.61097578118676
 20
-8.607106781186468
 30
0.0
 11
46.91097578118695
 21
-8.607106781186525
 31
0.0
  0
LINE
  5
1C5
330
38
100
AcDbEntity
  8
0
100
AcDbLine
 10
32.93097478118659
 20
-12.23710678118652
 30
0.0
 11
35.43097478118659
 21
-12.23710678118652
 31
0.0
  0
ARC
  5
1C6
330
38
100
AcDbEntity
  8
0
100
AcDbCircle
 10
0.8109757811865847
 20
-0.8071067811865706
 30
0.0
 40
1.0
100
AcDbArc
 50
90.0
 51
180.0
  0
ARC
  5
1C7
330
38
100
AcDbEntity
  8
0
100
AcDbCircle
 10
0.7071067811865533
 20
-0.7071067811865479
 30
0.0
 40
1.0
100
AcDbArc
 50
90.0
 51
180.0
  0
LINE
  5
1C8
330
38
100
AcDbEntity
  8
0
100
AcDbLine
 10
47.1309747811864
 20
-10.60710678118652
 30
0.0
 11
47.1309747811864
 21
-17.60710678118652
 31
0.0
  0
LINE
  5
1C9
330
38
100
AcDbEntity
  8
0
100
AcDbLine
 10
52.1309747811864
 20
-10.60710678118652
 30
0.0
 11
52.1309747811864
 21
-17.60710678118652
 31
0.0
  0
LINE
  5
1CA
330
38
100
AcDbEntity
  8
0
100
AcDbLine
 10
51.13097478118641
 20
-13.02794178118653
 30
0.0
 11
48.13097478118641
 21
-13.02794178118653
 31
0.0
  0
LINE
  5
1CB
330
38
100
AcDbEntity
  8
0
100
AcDbLine
 10
51.13097478118641
 20
-14.99286378118653
 30
0.0
 11
48.13097478118641
 21
-14.99286378118653
 31
0.0
  0
LINE
  5
1CC
330
38
100
AcDbEntity
  8
0
100
AcDbLine
 10
48.13097478118641
 20
-13.02794178118653
 30
0.0
 11
48.13097478118641
 21
-14.99286378118653
 31
0.0
  0
LINE
  5
1CD
330
38
100
AcDbEntity
  8
0
100
AcDbLine
 10
51.13097478118641
 20
-13.02794178118653
 30
0.0
 11
51.13097478118641
 21
-14.99286378118653
 31
0.0
  0
LINE
  5
1CE
330
38
100
AcDbEntity
  8
0
100
AcDbLine
 10
52.1309747811864
 20
-17.60710678118652
 30
0.0
 11
47.1309747811864
 21
-17.60710678118652
 31
0.0
  0
LINE
  5
1CF
330
38
100
AcDbEntity
  8
0
100
AcDbLine
 10
47.1309747811864
 20
-10.60710678118652
 30
0.0
 11
52.1309747811864
 21
-10.60710678118652
 31
0.0
  0
LINE
  5
1D0
330
38
100
AcDbEntity
  8
0
100
AcDbLine
 10
52.61097578118676
 20
-10.10710678118652
 30
0.0
 11
52.61097578118676
 21
-12.10710678118652
 31
0.0
  0
ENDBLK
  5
1D2
330
38
100
AcDbEntity
  8
0
100
AcDbBlockEnd
  0
ENDSEC
  0
SECTION
  2
ENTITIES
  0
LINE
  5
69D
330
1F
100
AcDbEntity
  8
CLASS1
100
AcDbLine
 10
2.500000403249146
 20
298.3305584768465
 30
0.0
 11
2.500000403249146
 21
293.3292684768466
 31
0.0
  0
LINE
  5
69E
330
1F
100
AcDbEntity
  8
CLASS1
100
AcDbLine
 10
68.12251740324882
 20
296.8525734768466
 30
0.0
 11
2.500000403249146
 21
298.3305584768465
 31
0.0
  0
LINE
  5
69F
330
1F
100
AcDbEntity
  8
CLASS1
100
AcDbLine
 10
0.0000004032490324
 20
126.8290094768467
 30
0.0
 11
0.0000004032491461
 21
305.3290094768467
 31
0.0
  0
LINE
  5
6A0
330
1F
100
AcDbEntity
  8
0
100
AcDbLine
 10
152.9741336775055
 20
295.8292684768466
 30
0.0
 11
152.9741336775055
 21
303.8290094768467
 31
0.0
  0
LINE
  5
6A1
330
1F
100
AcDbEntity
  8
0
100
AcDbLine
 10
183.9745516775055
 20
294.8881364768467
 30
0.0
 11
183.9745516775055
 21
303.8290094768467
 31
0.0
  0
LINE
  5
6A2
330
1F
100
AcDbEntity
  8
0
  6
CENTER
 62
     5
100
AcDbLine
 10
168.4743426775057
 20
308.0790094768467
 30
0.0
 11
168.4743426775057
 21
293.0790094768467
 31
0.0
  0
LINE
  5
6A4
330
1F
100
AcDbEntity
  8
CLASS1
100
AcDbLine
 10
61.96772840324865
 20
141.7001074768466
 30
0.0
 11
2.523002403248938
 21
140.3324114768468
 31
0.0
  0
LINE
  5
6A5
330
1F
100
AcDbEntity
  8
CLASS1
100
AcDbLine
 10
68.12251740324882
 20
136.8085434768465
 30
0.0
 11
2.500000403249032
 21
135.3305584768465
 31
0.0
  0
LINE
  5
6A6
330
1F
100
AcDbEntity
  8
CLASS1
100
AcDbLine
 10
2.522721403248965
 20
293.3287514768467
 30
0.0
 11
61.96744840324891
 21
291.9777344768467
 31
0.0
  0
LINE
  5
6A7
330
1F
100
AcDbEntity
  8
CLASS1
100
AcDbLine
 10
62.94472640324875
 20
142.6998424768467
 30
0.0
 11
62.94472640324875
 21
290.9779924768465
 31
0.0
  0
LINE
  5
6A8
330
1F
100
AcDbEntity
  8
CLASS1
100
AcDbLine
 10
68.80000040324876
 20
294.3305584768466
 30
0.0
 11
68.80000040324876
 21
139.3305584768465
 31
0.0
  0
LINE
  5
6A9
330
1F
100
AcDbEntity
  8
CLASS1
100
AcDbLine
 10
68.31567440324898
 20
294.3305584768466
 30
0.0
 11
68.31567440324898
 21
139.3305584768465
 31
0.0
  0
LINE
  5
6AA
330
1F
100
AcDbEntity
  8
CLASS1
100
AcDbLine
 10
68.04452340324906
 20
295.8765994768466
 30
0.0
 11
68.04452340324906
 21
137.7845174768467
 31
0.0
  0
ARC
  5
6AB
330
1F
100
AcDbEntity
  8
CLASS1
100
AcDbCircle
 10
68.10000040324871
 20
137.8082894768465
 30
0.0
 40
1.0
100
AcDbArc
 50
271.2902270000052
 51
0.0
  0
LINE
  5
6AC
330
1F
100
AcDbEntity
  8
CLASS1
100
AcDbLine
 10
68.31567440324898
 20
139.3305584768465
 30
0.0
 11
69.10000040324894
 21
139.3305584768465
 31
0.0
  0
LINE
  5
6AD
330
1F
100
AcDbEntity
  8
CLASS1
100
AcDbLine
 10
69.10000040324894
 20
137.8082894768465
 30
0.0
 11
69.10000040324894
 21
139.3305584768465
 31
0.0
  0
ARC
  5
6AE
330
1F
100
AcDbEntity
  8
CLASS1
100
AcDbCircle
 10
67.04452340324883
 20
137.7845174768467
 30
0.0
 40
1.0
100
AcDbArc
 50
271.2902270000052
 51
0.0
  0
ARC
  5
6AF
330
1F
100
AcDbEntity
  8
CLASS1
100
AcDbCircle
 10
61.94472640324852
 20
142.6998424768467
 30
0.0
 40
1.0
100
AcDbArc
 50
271.318021000004
 51
0.0
  0
LINE
  5
6B0
330
1F
100
AcDbEntity
  8
0
100
AcDbLine
 10
69.30000040324876
 20
189.2544274768465
 30
0.0
 11
69.30000040324853
 21
186.2544274768465
 31
0.0
  0
LINE
  5
6B1
330
1F
100
AcDbEntity
  8
0
100
AcDbLine
 10
69.30000040324876
 20
189.2544274768465
 30
0.0
 11
68.31567440324898
 21
189.2544274768466
 31
0.0
  0
LINE
  5
6B2
330
1F
100
AcDbEntity
  8
0
100
AcDbLine
 10
69.30000040324853
 20
186.2544274768465
 30
0.0
 11
68.31567440324874
 21
186.2544274768466
 31
0.0
  0
LINE
  5
6B3
330
1F
100
AcDbEntity
  8
0
100
AcDbLine
 10
69.30000040324876
 20
230.4084154768468
 30
0.0
 11
69.30000040324876
 21
227.4084154768468
 31
0.0
  0
LINE
  5
6B4
330
1F
100
AcDbEntity
  8
0
100
AcDbLine
 10
69.30000040324876
 20
230.4084154768468
 30
0.0
 11
68.31567440324898
 21
230.4084154768469
 31
0.0
  0
LINE
  5
6B5
330
1F
100
AcDbEntity
  8
0
100
AcDbLine
 10
69.30000040324876
 20
227.4084154768468
 30
0.0
 11
68.31567440324898
 21
227.4084154768469
 31
0.0
  0
LINE
  5
6B6
330
1F
100
AcDbEntity
  8
CLASS1
100
AcDbLine
 10
68.31567440324898
 20
294.3305584768466
 30
0.0
 11
69.10000040324894
 21
294.3305584768466
 31
0.0
  0
LINE
  5
6B7
330
1F
100
AcDbEntity
  8
CLASS1
100
AcDbLine
 10
69.10000040324894
 20
295.8528274768466
 30
0.0
 11
69.10000040324894
 21
294.3305584768466
 31
0.0
  0
ARC
  5
6B8
330
1F
100
AcDbEntity
  8
CLASS1
100
AcDbCircle
 10
68.10000040324917
 20
295.8528274768466
 30
0.0
 40
1.0
100
AcDbArc
 50
0.0
 51
88.70977299999479
  0
ARC
  5
6B9
330
1F
100
AcDbEntity
  8
CLASS1
100
AcDbCircle
 10
67.04452340324928
 20
295.8765994768466
 30
0.0
 40
1.0
100
AcDbArc
 50
0.0
 51
88.70977299999479
  0
ARC
  5
6BA
330
1F
100
AcDbEntity
  8
CLASS1
100
AcDbCircle
 10
61.94472640324898
 20
290.9779924768465
 30
0.0
 40
1.0
100
AcDbArc
 50
0.0
 51
88.69804600000646
  0
LINE
  5
6BB
330
1F
100
AcDbEntity
  8
0
100
AcDbLine
 10
178.8465116775055
 20
295.8954964768468
 30
0.0
 11
179.4740176775057
 21
296.8292684768466
 31
0.0
  0
LINE
  5
6BC
330
1F
100
AcDbEntity
  8
0
100
AcDbLine
 10
154.9820606775056
 20
295.317905476847
 30
0.0
 11
181.9666256775058
 21
295.317905476847
 31
0.0
  0
LINE
  5
6BD
330
1F
100
AcDbEntity
  8
0
100
AcDbLine
 10
156.9743426775055
 20
292.8292684768466
 30
0.0
 11
179.9743426775057
 21
292.8292684768466
 31
0.0
  0
LINE
  5
6BE
330
1F
100
AcDbEntity
  8
0
100
AcDbLine
 10
157.0743426775056
 20
292.7331374768468
 30
0.0
 11
179.8743426775056
 21
292.7331374768468
 31
0.0
  0
LINE
  5
6BF
330
1F
100
AcDbEntity
  8
0
100
AcDbLine
 10
178.8465116775055
 20
134.7630404768472
 30
0.0
 11
179.4740176775053
 21
133.8292684768468
 31
0.0
  0
LINE
  5
6C0
330
1F
100
AcDbEntity
  8
0
100
AcDbLine
 10
172.4743426775053
 20
126.829003476847
 30
0.0
 11
182.4745516775055
 21
126.829003476847
 31
0.0
  0
LINE
  5
6C1
330
1F
100
AcDbEntity
  8
0
100
AcDbLine
 10
154.9820606775056
 20
135.352389476847
 30
0.0
 11
181.9666256775053
 21
135.352389476847
 31
0.0
  0
LINE
  5
6C2
330
1F
100
AcDbEntity
  8
CLASS1
100
AcDbLine
 10
1.500000403249032
 20
141.3321464768466
 30
0.0
 11
1.500000403249146
 21
292.3290094768467
 31
0.0
  0
LINE
  5
6C3
330
1F
100
AcDbEntity
  8
0
100
AcDbLine
 10
182.9666256775058
 20
294.317905476847
 30
0.0
 11
182.9666256775053
 21
136.352389476847
 31
0.0
  0
LINE
  5
6C4
330
1F
100
AcDbEntity
  8
0
100
AcDbLine
 10
180.8743426775056
 20
291.7331374768469
 30
0.0
 11
180.8743426775054
 21
138.833137476847
 31
0.0
  0
LINE
  5
6C5
330
1F
100
AcDbEntity
  8
0
100
AcDbLine
 10
185.9593416775055
 20
139.8658434768469
 30
0.0
 11
185.9593416775055
 21
290.8049914768471
 31
0.0
  0
LINE
  5
6C6
330
1F
100
AcDbEntity
  8
0
100
AcDbLine
 10
185.0440536775056
 20
289.4542334768471
 30
0.0
 11
185.0440536775054
 21
141.2043044768467
 31
0.0
  0
LINE
  5
6C7
330
1F
100
AcDbEntity
  8
0
100
AcDbLine
 10
180.9743426775053
 20
138.8292684768468
 30
0.0
 11
180.9743426775057
 21
291.8292684768466
 31
0.0
  0
LINE
  5
6C8
330
1F
100
AcDbEntity
  8
0
100
AcDbLine
 10
2.500000403249032
 20
135.3305584768465
 30
0.0
 11
2.500000403249032
 21
126.8290094768467
 31
0.0
  0
LINE
  5
6C9
330
1F
100
AcDbEntity
  8
CLASS1
100
AcDbLine
 10
2.500000403249032
 20
126.8290094768467
 30
0.0
 11
0.0000004032490324
 21
126.8290094768467
 31
0.0
  0
ARC
  5
6CA
330
1F
100
AcDbEntity
  8
CLASS1
100
AcDbCircle
 10
2.500000403248918
 20
141.3321464768466
 30
0.0
 40
1.0
100
AcDbArc
 50
180.0
 51
271.318021000004
  0
LINE
  5
6CB
330
1F
100
AcDbEntity
  8
CLASS1
100
AcDbLine
 10
2.500000403249032
 20
135.3305584768465
 30
0.0
 11
2.500000403249032
 21
140.3318824768466
 31
0.0
  0
LINE
  5
6CC
330
1F
100
AcDbEntity
  8
0
100
AcDbLine
 10
183.9745516775055
 20
128.3290034768469
 30
0.0
 11
183.9745516775055
 21
138.8881364768467
 31
0.0
  0
ARC
  5
6CD
330
1F
100
AcDbEntity
  8
0
100
AcDbCircle
 10
182.4745516775055
 20
128.3290034768468
 30
0.0
 40
1.5
100
AcDbArc
 50
270.0
 51
0.0
  0
ARC
  5
6CE
330
1F
100
AcDbEntity
  8
0
100
AcDbCircle
 10
184.0440536775054
 20
141.2043044768466
 30
0.0
 40
1.0
100
AcDbArc
 50
270.0
 51
0.0
  0
LINE
  5
6CF
330
1F
100
AcDbEntity
  8
0
100
AcDbLine
 10
184.0440536775054
 20
140.2043044768467
 30
0.0
 11
183.0436256775055
 21
140.2043044768467
 31
0.0
  0
LINE
  5
6D0
330
1F
100
AcDbEntity
  8
0
100
AcDbLine
 10
183.9745506775054
 20
134.8292684768468
 30
0.0
 11
183.9745506775054
 21
138.8658434768469
 31
0.0
  0
ARC
  5
6D1
330
1F
100
AcDbEntity
  8
0
100
AcDbCircle
 10
181.9666256775055
 20
136.3523894768469
 30
0.0
 40
1.0
100
AcDbArc
 50
270.0
 51
0.0
  0
LINE
  5
6D2
330
1F
100
AcDbEntity
  8
0
100
AcDbLine
 10
183.9745506775054
 20
138.8658434768469
 30
0.0
 11
184.9593416775055
 21
138.8658434768469
 31
0.0
  0
LINE
  5
6D3
330
1F
100
AcDbEntity
  8
0
100
AcDbLine
 10
183.9745516775055
 20
138.8535454768468
 30
0.0
 11
183.0436256775055
 21
140.2043044768467
 31
0.0
  0
ARC
  5
6D4
330
1F
100
AcDbEntity
  8
0
100
AcDbCircle
 10
184.9593416775055
 20
139.8658434768468
 30
0.0
 40
1.0
100
AcDbArc
 50
270.0
 51
0.0
  0
ARC
  5
6D5
330
1F
100
AcDbEntity
  8
0
100
AcDbCircle
 10
182.9745506775054
 20
134.8292684768467
 30
0.0
 40
1.0
100
AcDbArc
 50
270.0
 51
0.0
  0
LINE
  5
6D6
330
1F
100
AcDbEntity
  8
0
100
AcDbLine
 10
179.4740176775053
 20
133.8292684768468
 30
0.0
 11
182.9745506775054
 21
133.8292684768468
 31
0.0
  0
ARC
  5
6D7
330
1F
100
AcDbEntity
  8
CLASS1
100
AcDbCircle
 10
2.500000403249259
 20
292.3290094768467
 30
0.0
 40
1.0
100
AcDbArc
 50
88.69804699999894
 51
180.0
  0
ARC
  5
6D8
330
1F
100
AcDbEntity
  8
0
100
AcDbCircle
 10
181.9666256775058
 20
294.317905476847
 30
0.0
 40
1.0
100
AcDbArc
 50
0.0
 51
90.0
  0
ARC
  5
6D9
330
1F
100
AcDbEntity
  8
0
100
AcDbCircle
 10
182.9745506775056
 20
295.8292684768466
 30
0.0
 40
1.0
100
AcDbArc
 50
0.0
 51
90.0
  0
LINE
  5
6DA
330
1F
100
AcDbEntity
  8
0
100
AcDbLine
 10
184.0440536775056
 20
290.454233476847
 30
0.0
 11
183.0436256775055
 21
290.454233476847
 31
0.0
  0
LINE
  5
6DB
330
1F
100
AcDbEntity
  8
0
100
AcDbLine
 10
184.0440536775056
 20
290.454233476847
 30
0.0
 11
183.0436256775055
 21
290.454233476847
 31
0.0
  0
LINE
  5
6DC
330
1F
100
AcDbEntity
  8
0
100
AcDbLine
 10
183.9745516775055
 20
291.8049914768471
 30
0.0
 11
184.9593416775055
 21
291.8049914768471
 31
0.0
  0
ARC
  5
6DD
330
1F
100
AcDbEntity
  8
0
100
AcDbCircle
 10
184.9593416775057
 20
290.8049914768471
 30
0.0
 40
1.0
100
AcDbArc
 50
0.0
 51
90.0
  0
ARC
  5
6DE
330
1F
100
AcDbEntity
  8
0
100
AcDbCircle
 10
184.0440536775056
 20
289.4542334768471
 30
0.0
 40
1.0
100
AcDbArc
 50
0.0
 51
90.0
  0
ARC
  5
6DF
330
1F
100
AcDbEntity
  8
0
100
AcDbCircle
 10
184.0440536775056
 20
289.4542334768471
 30
0.0
 40
1.0
100
AcDbArc
 50
0.0
 51
90.0
  0
LINE
  5
6E0
330
1F
100
AcDbEntity
  8
0
100
AcDbLine
 10
183.9745516775055
 20
291.8049914768471
 30
0.0
 11
183.0436256775055
 21
290.454233476847
 31
0.0
  0
LINE
  5
6E1
330
1F
100
AcDbEntity
  8
0
100
AcDbLine
 10
183.9745516775055
 20
291.8049914768471
 30
0.0
 11
183.0436256775055
 21
290.454233476847
 31
0.0
  0
LINE
  5
6E2
330
1F
100
AcDbEntity
  8
0
100
AcDbLine
 10
183.9745506775057
 20
295.8292684768466
 30
0.0
 11
183.9745506775057
 21
291.8049914768471
 31
0.0
  0
ARC
  5
6E3
330
1F
100
AcDbEntity
  8
0
100
AcDbCircle
 10
179.8743426775056
 20
291.7331374768469
 30
0.0
 40
1.0
100
AcDbArc
 50
0.0
 51
90.0
  0
ARC
  5
6E4
330
1F
100
AcDbEntity
  8
0
100
AcDbCircle
 10
179.9743426775057
 20
291.8292684768466
 30
0.0
 40
1.0
100
AcDbArc
 50
0.0
 51
90.0
  0
LINE
  5
6E5
330
1F
100
AcDbEntity
  8
0
100
AcDbLine
 10
179.4740176775057
 20
296.8292684768466
 30
0.0
 11
182.9745506775056
 21
296.8292684768466
 31
0.0
  0
LINE
  5
6E6
330
1F
100
AcDbEntity
  8
0
100
AcDbLine
 10
156.0743426775061
 20
244.5114424392918
 30
0.0
 11
156.0743426775056
 21
138.9331374768469
 31
0.0
  0
LINE
  5
6E7
330
1F
100
AcDbEntity
  8
0
100
AcDbLine
 10
151.9046316775056
 20
289.4542334768471
 30
0.0
 11
151.9046316775056
 21
141.2043044768467
 31
0.0
  0
LINE
  5
6E8
330
1F
100
AcDbEntity
  8
0
100
AcDbLine
 10
155.9743426775055
 20
138.8292684768468
 30
0.0
 11
155.9743426775057
 21
291.8292684768466
 31
0.0
  0
LINE
  5
6E9
330
1F
100
AcDbEntity
  8
0
100
AcDbLine
 10
150.9892236775056
 20
139.8658434768469
 30
0.0
 11
150.9892236775058
 21
290.8049914768471
 31
0.0
  0
LINE
  5
6EA
330
1F
100
AcDbEntity
  8
0
100
AcDbLine
 10
153.9820606775056
 20
294.317905476847
 30
0.0
 11
153.9820606775056
 21
136.352389476847
 31
0.0
  0
LINE
  5
6EB
330
1F
100
AcDbEntity
  8
0
100
AcDbLine
 10
152.9741336775055
 20
128.3290034768469
 30
0.0
 11
152.9741336775055
 21
134.8292684768468
 31
0.0
  0
LINE
  5
6EC
330
1F
100
AcDbEntity
  8
0
100
AcDbLine
 10
165.9743426775053
 20
130.0790034768469
 30
0.0
 11
165.9743426775053
 21
128.3290034768469
 31
0.0
  0
LINE
  5
6ED
330
1F
100
AcDbEntity
  8
0
100
AcDbLine
 10
170.9743426775053
 20
130.0790034768469
 30
0.0
 11
170.9743426775053
 21
128.3290034768469
 31
0.0
  0
LINE
  5
6EE
330
1F
100
AcDbEntity
  8
0
  6
CENTER
 62
     5
100
AcDbLine
 10
168.4743426775053
 20
137.5790034768469
 30
0.0
 11
168.4743426775053
 21
122.579003476847
 31
0.0
  0
LINE
  5
6EF
330
1F
100
AcDbEntity
  8
0
100
AcDbLine
 10
154.4741336775055
 20
126.829003476847
 30
0.0
 11
164.4743426775053
 21
126.829003476847
 31
0.0
  0
ARC
  5
6F0
330
1F
100
AcDbEntity
  8
0
100
AcDbCircle
 10
172.4743426775055
 20
128.3290034768468
 30
0.0
 40
1.5
100
AcDbArc
 50
180.0
 51
270.0
  0
ARC
  5
6F1
330
1F
100
AcDbEntity
  8
0
100
AcDbCircle
 10
164.4743426775055
 20
128.3290034768469
 30
0.0
 40
1.5
100
AcDbArc
 50
270.0
 51
0.0
  0
ARC
  5
6F2
330
1F
100
AcDbEntity
  8
0
100
AcDbCircle
 10
154.4741336775055
 20
128.3290034768469
 30
0.0
 40
1.5
100
AcDbArc
 50
180.0
 51
270.0
  0
ARC
  5
6F3
330
1F
100
AcDbEntity
  8
0
100
AcDbCircle
 10
158.9321706775056
 20
134.2052724768468
 30
0.0
 40
1.0
100
AcDbArc
 50
90.12440900000083
 51
146.0984159999965
  0
LINE
  5
6F4
330
1F
100
AcDbEntity
  8
0
100
AcDbLine
 10
158.1507436775055
 20
134.8292684768468
 30
0.0
 11
178.8020056775053
 21
134.8292684768468
 31
0.0
  0
ARC
  5
6F5
330
1F
100
AcDbEntity
  8
0
100
AcDbCircle
 10
168.4743426775055
 20
130.0790034768468
 30
0.0
 40
2.5
100
AcDbArc
 50
0.0
 51
180.0
  0
ARC
  5
6F6
330
1F
100
AcDbEntity
  8
0
100
AcDbCircle
 10
168.4743426775034
 20
-4260.380026523153
 30
0.0
 40
4395.595658
100
AcDbArc
 50
89.87559099999918
 51
90.12440900000083
  0
LINE
  5
6F7
330
1F
100
AcDbEntity
  8
0
  6
CENTER
 62
     5
100
AcDbLine
 10
175.9743426775053
 20
130.0790034768469
 30
0.0
 11
160.9743426775053
 21
130.0790034768469
 31
0.0
  0
ARC
  5
6F8
330
1F
100
AcDbEntity
  8
0
100
AcDbCircle
 10
178.0165146775054
 20
134.2052724768467
 30
0.0
 40
1.0
100
AcDbArc
 50
33.90158400000346
 51
89.87559099999918
  0
ARC
  5
6F9
330
1F
100
AcDbEntity
  8
0
100
AcDbCircle
 10
152.9046316775054
 20
141.2043044768467
 30
0.0
 40
1.0
100
AcDbArc
 50
180.0
 51
270.0
  0
LINE
  5
6FA
330
1F
100
AcDbEntity
  8
0
100
AcDbLine
 10
152.9046316775056
 20
140.2043044768467
 30
0.0
 11
153.9050606775056
 21
140.2043044768467
 31
0.0
  0
LINE
  5
6FB
330
1F
100
AcDbEntity
  8
0
100
AcDbLine
 10
152.9741336775055
 20
134.8292684768468
 30
0.0
 11
152.9741336775055
 21
138.8658434768469
 31
0.0
  0
LINE
  5
6FC
330
1F
100
AcDbEntity
  8
0
100
AcDbLine
 10
152.9741336775055
 20
138.8658434768469
 30
0.0
 11
151.9892236775056
 21
138.8658434768469
 31
0.0
  0
LINE
  5
6FD
330
1F
100
AcDbEntity
  8
0
100
AcDbLine
 10
152.9741336775055
 20
138.8535454768468
 30
0.0
 11
153.9050606775056
 21
140.2043044768467
 31
0.0
  0
ARC
  5
6FE
330
1F
100
AcDbEntity
  8
0
100
AcDbCircle
 10
151.9892236775056
 20
139.8658434768469
 30
0.0
 40
1.0
100
AcDbArc
 50
180.0
 51
270.0
  0
ARC
  5
6FF
330
1F
100
AcDbEntity
  8
0
100
AcDbCircle
 10
153.9741336775055
 20
134.8292684768468
 30
0.0
 40
1.0
100
AcDbArc
 50
180.0
 51
270.0
  0
LINE
  5
700
330
1F
100
AcDbEntity
  8
0
100
AcDbLine
 10
158.1021736775055
 20
134.7630404768472
 30
0.0
 11
157.4746666775054
 21
133.8292684768468
 31
0.0
  0
ARC
  5
701
330
1F
100
AcDbEntity
  8
0
100
AcDbCircle
 10
154.9820606775056
 20
136.352389476847
 30
0.0
 40
1.0
100
AcDbArc
 50
180.0
 51
270.0
  0
LINE
  5
702
330
1F
100
AcDbEntity
  8
0
100
AcDbLine
 10
153.9741336775055
 20
133.8292684768468
 30
0.0
 11
157.4746666775054
 21
133.8292684768468
 31
0.0
  0
ARC
  5
703
330
1F
100
AcDbEntity
  8
0
100
AcDbCircle
 10
158.9321706775058
 20
296.4532644768469
 30
0.0
 40
1.0
100
AcDbArc
 50
213.9015840000034
 51
269.8755909999992
  0
LINE
  5
704
330
1F
100
AcDbEntity
  8
0
100
AcDbLine
 10
158.1507436775057
 20
295.8292684768466
 30
0.0
 11
178.8020056775058
 21
295.8292684768466
 31
0.0
  0
ARC
  5
705
330
1F
100
AcDbEntity
  8
0
100
AcDbCircle
 10
168.4743426775078
 20
4691.038563476847
 30
0.0
 40
4395.595658
100
AcDbArc
 50
269.8755909999992
 51
270.1244089999942
  0
ARC
  5
706
330
1F
100
AcDbEntity
  8
0
100
AcDbCircle
 10
178.0165146775057
 20
296.4532644768469
 30
0.0
 40
1.0
100
AcDbArc
 50
270.1244089999942
 51
326.0984159999965
  0
LINE
  5
707
330
1F
100
AcDbEntity
  8
0
100
AcDbLine
 10
155.9743426775057
 20
291.8292684768466
 30
0.0
 11
155.9743426775057
 21
277.888137476847
 31
0.0
  0
ARC
  5
708
330
1F
100
AcDbEntity
  8
0
100
AcDbCircle
 10
153.9741336775055
 20
295.8292684768466
 30
0.0
 40
1.0
100
AcDbArc
 50
90.0
 51
180.0
  0
LINE
  5
709
330
1F
100
AcDbEntity
  8
0
100
AcDbLine
 10
152.9741336775055
 20
291.8049914768471
 30
0.0
 11
151.9892236775058
 21
291.8049914768471
 31
0.0
  0
ARC
  5
70A
330
1F
100
AcDbEntity
  8
0
100
AcDbCircle
 10
152.9046316775056
 20
289.4542334768471
 30
0.0
 40
1.0
100
AcDbArc
 50
90.0
 51
180.0
  0
ARC
  5
70B
330
1F
100
AcDbEntity
  8
0
100
AcDbCircle
 10
152.9046316775056
 20
289.4542334768471
 30
0.0
 40
1.0
100
AcDbArc
 50
90.0
 51
180.0
  0
LINE
  5
70C
330
1F
100
AcDbEntity
  8
0
100
AcDbLine
 10
152.9046316775056
 20
290.454233476847
 30
0.0
 11
153.9050606775058
 21
290.454233476847
 31
0.0
  0
LINE
  5
70D
330
1F
100
AcDbEntity
  8
0
100
AcDbLine
 10
152.9046316775056
 20
290.454233476847
 30
0.0
 11
153.9050606775058
 21
290.454233476847
 31
0.0
  0
LINE
  5
70E
330
1F
100
AcDbEntity
  8
0
100
AcDbLine
 10
152.9741336775055
 20
291.8049914768471
 30
0.0
 11
153.9050606775058
 21
290.454233476847
 31
0.0
  0
LINE
  5
70F
330
1F
100
AcDbEntity
  8
0
100
AcDbLine
 10
152.9741336775055
 20
291.8049914768471
 30
0.0
 11
153.9050606775058
 21
290.454233476847
 31
0.0
  0
ARC
  5
710
330
1F
100
AcDbEntity
  8
0
100
AcDbCircle
 10
151.9892236775058
 20
290.8049914768471
 30
0.0
 40
1.0
100
AcDbArc
 50
90.0
 51
180.0
  0
LINE
  5
711
330
1F
100
AcDbEntity
  8
0
100
AcDbLine
 10
152.9741336775055
 20
295.8292684768466
 30
0.0
 11
152.9741336775055
 21
291.8049914768471
 31
0.0
  0
LINE
  5
712
330
1F
100
AcDbEntity
  8
0
100
AcDbLine
 10
158.1021736775055
 20
295.8954964768468
 30
0.0
 11
157.4746666775056
 21
296.8292684768466
 31
0.0
  0
ARC
  5
713
330
1F
100
AcDbEntity
  8
0
100
AcDbCircle
 10
157.0743426775056
 20
291.7331374768469
 30
0.0
 40
1.0
100
AcDbArc
 50
90.0
 51
180.0
  0
ARC
  5
714
330
1F
100
AcDbEntity
  8
0
100
AcDbCircle
 10
156.9743426775057
 20
291.8292684768466
 30
0.0
 40
1.0
100
AcDbArc
 50
90.0
 51
180.0
  0
ARC
  5
715
330
1F
100
AcDbEntity
  8
0
100
AcDbCircle
 10
154.9820606775056
 20
294.317905476847
 30
0.0
 40
1.0
100
AcDbArc
 50
90.0
 51
180.0
  0
LINE
  5
716
330
1F
100
AcDbEntity
  8
0
100
AcDbLine
 10
153.9741336775055
 20
296.8292684768466
 30
0.0
 11
157.4746666775056
 21
296.8292684768466
 31
0.0
  0
LINE
  5
717
330
1F
100
AcDbEntity
  8
0
100
AcDbLine
 10
154.4741336775055
 20
305.3290094768467
 30
0.0
 11
182.4745516775055
 21
305.3290094768467
 31
0.0
  0
LINE
  5
718
330
1F
100
AcDbEntity
  8
CLASS1
100
AcDbLine
 10
2.500000403249146
 20
305.3290094768467
 30
0.0
 11
0.0000004032491461
 21
305.3290094768467
 31
0.0
  0
LINE
  5
719
330
1F
100
AcDbEntity
  8
0
100
AcDbLine
 10
2.500000403249146
 20
305.3290094768467
 30
0.0
 11
2.500000403249146
 21
298.3305584768465
 31
0.0
  0
ARC
  5
71A
330
1F
100
AcDbEntity
  8
0
100
AcDbCircle
 10
182.4745516775055
 20
303.8290094768467
 30
0.0
 40
1.5
100
AcDbArc
 50
0.0
 51
90.0
  0
LINE
  5
71B
330
1F
100
AcDbEntity
  8
0
  6
CENTER
 62
     5
100
AcDbLine
 10
175.9743426775057
 20
300.5790094768467
 30
0.0
 11
160.9743426775057
 21
300.5790094768467
 31
0.0
  0
CIRCLE
  5
71C
330
1F
100
AcDbEntity
  8
0
100
AcDbCircle
 10
168.4743426775057
 20
300.5790094768467
 30
0.0
 40
2.5
  0
ARC
  5
71D
330
1F
100
AcDbEntity
  8
0
100
AcDbCircle
 10
154.4741336775055
 20
303.8290094768467
 30
0.0
 40
1.5
100
AcDbArc
 50
90.0
 51
180.0
  0
LINE
  5
71E
330
1F
100
AcDbEntity
  8
0
100
AcDbLine
 10
174.3743426775054
 20
231.8071244768471
 30
0.0
 11
174.3743426775054
 21
143.833137476847
 31
0.0
  0
LINE
  5
71F
330
1F
100
AcDbEntity
  8
0
100
AcDbLine
 10
161.0743426775056
 20
225.657124476847
 30
0.0
 11
161.0743426775056
 21
211.6571244768469
 31
0.0
  0
LINE
  5
720
330
1F
100
AcDbEntity
  8
0
100
AcDbLine
 10
160.5743426775056
 20
226.1331374768469
 30
0.0
 11
160.5743426775056
 21
211.1331374768469
 31
0.0
  0
LINE
  5
721
330
1F
100
AcDbEntity
  8
0
100
AcDbLine
 10
173.8743426775054
 20
211.6571244768469
 30
0.0
 11
173.8743426775054
 21
225.657124476847
 31
0.0
  0
LINE
  5
722
330
1F
100
AcDbEntity
  8
0
100
AcDbLine
 10
169.2951776775055
 20
189.2531364768467
 30
0.0
 11
169.2951776775055
 21
186.2531364768467
 31
0.0
  0
LINE
  5
723
330
1F
100
AcDbEntity
  8
0
100
AcDbLine
 10
171.2600996775054
 20
189.2531364768467
 30
0.0
 11
171.2600996775054
 21
186.2531364768467
 31
0.0
  0
LINE
  5
724
330
1F
100
AcDbEntity
  8
0
100
AcDbLine
 10
166.8743426775054
 20
185.2531364768467
 30
0.0
 11
166.8743426775054
 21
190.2531364768467
 31
0.0
  0
LINE
  5
725
330
1F
100
AcDbEntity
  8
0
100
AcDbLine
 10
166.3743426775054
 20
185.033137476847
 30
0.0
 11
166.3743426775054
 21
190.7331374768471
 31
0.0
  0
LINE
  5
726
330
1F
100
AcDbEntity
  8
0
100
AcDbLine
 10
173.8743426775054
 20
190.2531364768467
 30
0.0
 11
173.8743426775054
 21
185.2531364768467
 31
0.0
  0
LINE
  5
727
330
1F
100
AcDbEntity
  8
0
100
AcDbLine
 10
161.0743426775056
 20
211.6571244768469
 30
0.0
 11
173.8743426775054
 21
211.6571244768469
 31
0.0
  0
LINE
  5
728
330
1F
100
AcDbEntity
  8
0
100
AcDbLine
 10
160.5743426775056
 20
211.1331374768469
 30
0.0
 11
168.3743426775054
 21
211.1331374768469
 31
0.0
  0
LINE
  5
729
330
1F
100
AcDbEntity
  8
0
100
AcDbLine
 10
166.8743426775054
 20
190.2531364768467
 30
0.0
 11
173.8743426775054
 21
190.2531364768467
 31
0.0
  0
LINE
  5
72A
330
1F
100
AcDbEntity
  8
0
100
AcDbLine
 10
166.3743426775054
 20
190.7331374768471
 30
0.0
 11
168.3743426775054
 21
190.7331374768471
 31
0.0
  0
CIRCLE
  5
72B
330
1F
100
AcDbEntity
  8
0
100
AcDbCircle
 10
167.4743426775055
 20
218.6568534768471
 30
0.0
 40
5.029838999999999
  0
CIRCLE
  5
72C
330
1F
100
AcDbEntity
  8
0
100
AcDbCircle
 10
167.4743426775055
 20
218.6568534768471
 30
0.0
 40
5.029838999999999
  0
CIRCLE
  5
72D
330
1F
100
AcDbEntity
  8
0
100
AcDbCircle
 10
167.4740846775057
 20
218.6568534768471
 30
0.0
 40
4.448566
  0
LINE
  5
72E
330
1F
100
AcDbEntity
  8
0
100
AcDbLine
 10
166.7190056775055
 20
220.2376354768471
 30
0.0
 11
166.7190056775055
 21
220.8301914768469
 31
0.0
  0
LINE
  5
72F
330
1F
100
AcDbEntity
  8
0
100
AcDbLine
 10
166.7190056775055
 20
219.800108476847
 30
0.0
 11
166.7190056775055
 21
221.2680634768466
 31
0.0
  0
LINE
  5
730
330
1F
100
AcDbEntity
  8
0
100
AcDbLine
 10
166.7190056775055
 20
216.5537944768471
 30
0.0
 11
166.7190056775055
 21
217.146523476847
 31
0.0
  0
LINE
  5
731
330
1F
100
AcDbEntity
  8
0
100
AcDbLine
 10
166.7190056775055
 20
216.1160954768468
 30
0.0
 11
166.7190056775055
 21
217.5840504768468
 31
0.0
  0
LINE
  5
732
330
1F
100
AcDbEntity
  8
0
100
AcDbLine
 10
166.7190056775055
 20
218.395715476847
 30
0.0
 11
166.7190056775055
 21
218.9884434768468
 31
0.0
  0
LINE
  5
733
330
1F
100
AcDbEntity
  8
0
100
AcDbLine
 10
166.7190056775055
 20
217.9578434768468
 30
0.0
 11
166.7190056775055
 21
219.4257984768469
 31
0.0
  0
LINE
  5
734
330
1F
100
AcDbEntity
  8
0
100
AcDbLine
 10
162.8165736775054
 20
217.9227034768471
 30
0.0
 11
164.7360086775056
 21
217.9227034768471
 31
0.0
  0
LINE
  5
735
330
1F
100
AcDbEntity
  8
0
100
AcDbLine
 10
162.8165736775054
 20
219.3904864768469
 30
0.0
 11
162.8165736775054
 21
217.9227034768471
 31
0.0
  0
LINE
  5
736
330
1F
100
AcDbEntity
  8
0
100
AcDbLine
 10
164.7360086775056
 20
219.3904864768469
 30
0.0
 11
162.8165736775054
 21
219.3904864768469
 31
0.0
  0
LINE
  5
737
330
1F
100
AcDbEntity
  8
0
100
AcDbLine
 10
164.7360086775056
 20
217.9227034768471
 30
0.0
 11
164.7360086775056
 21
219.3904864768469
 31
0.0
  0
LINE
  5
738
330
1F
100
AcDbEntity
  8
0
100
AcDbLine
 10
162.8165736775054
 20
217.9227034768471
 30
0.0
 11
164.7360086775056
 21
217.9227034768471
 31
0.0
  0
LINE
  5
739
330
1F
100
AcDbEntity
  8
0
100
AcDbLine
 10
162.8165736775054
 20
219.3904864768469
 30
0.0
 11
162.8165736775054
 21
217.9227034768471
 31
0.0
  0
LINE
  5
73A
330
1F
100
AcDbEntity
  8
0
100
AcDbLine
 10
164.7360086775056
 20
219.3904864768469
 30
0.0
 11
162.8165736775054
 21
219.3904864768469
 31
0.0
  0
LINE
  5
73B
330
1F
100
AcDbEntity
  8
0
100
AcDbLine
 10
164.7360086775056
 20
217.9227034768471
 30
0.0
 11
164.7360086775056
 21
219.3904864768469
 31
0.0
  0
LINE
  5
73C
330
1F
100
AcDbEntity
  8
0
100
AcDbLine
 10
165.3573316775054
 20
221.2677184768467
 30
0.0
 11
165.7383596775055
 21
220.8301914768469
 31
0.0
  0
LINE
  5
73D
330
1F
100
AcDbEntity
  8
0
100
AcDbLine
 10
165.3573316775054
 20
219.800108476847
 30
0.0
 11
165.7383596775055
 21
220.2376354768471
 31
0.0
  0
LINE
  5
73E
330
1F
100
AcDbEntity
  8
0
100
AcDbLine
 10
165.7380146775055
 20
220.8301914768469
 30
0.0
 11
165.7380146775055
 21
220.2376354768471
 31
0.0
  0
LINE
  5
73F
330
1F
100
AcDbEntity
  8
0
100
AcDbLine
 10
165.3569876775054
 20
221.2680634768466
 30
0.0
 11
165.3569876775054
 21
219.800108476847
 31
0.0
  0
LINE
  5
740
330
1F
100
AcDbEntity
  8
0
100
AcDbLine
 10
165.3573316775054
 20
219.4257984768469
 30
0.0
 11
165.7383596775055
 21
218.9884434768468
 31
0.0
  0
LINE
  5
741
330
1F
100
AcDbEntity
  8
0
100
AcDbLine
 10
165.3573316775054
 20
217.5840504768468
 30
0.0
 11
165.7383596775055
 21
217.146523476847
 31
0.0
  0
LINE
  5
742
330
1F
100
AcDbEntity
  8
0
100
AcDbLine
 10
165.3573316775054
 20
216.1160954768468
 30
0.0
 11
165.7383596775055
 21
216.5537944768471
 31
0.0
  0
LINE
  5
743
330
1F
100
AcDbEntity
  8
0
100
AcDbLine
 10
165.7380146775055
 20
217.146523476847
 30
0.0
 11
165.7380146775055
 21
216.5537944768471
 31
0.0
  0
LINE
  5
744
330
1F
100
AcDbEntity
  8
0
100
AcDbLine
 10
165.3569876775054
 20
217.5840504768468
 30
0.0
 11
165.3569876775054
 21
216.1160954768468
 31
0.0
  0
LINE
  5
745
330
1F
100
AcDbEntity
  8
0
100
AcDbLine
 10
165.3573316775054
 20
217.9578434768468
 30
0.0
 11
165.7383596775055
 21
218.395715476847
 31
0.0
  0
LINE
  5
746
330
1F
100
AcDbEntity
  8
0
100
AcDbLine
 10
165.7380146775055
 20
218.9884434768468
 30
0.0
 11
165.7380146775055
 21
218.395715476847
 31
0.0
  0
LINE
  5
747
330
1F
100
AcDbEntity
  8
0
100
AcDbLine
 10
165.3569876775054
 20
219.4257984768469
 30
0.0
 11
165.3569876775054
 21
217.9578434768468
 31
0.0
  0
LINE
  5
748
330
1F
100
AcDbEntity
  8
0
100
AcDbLine
 10
165.7380146775055
 20
220.2376354768471
 30
0.0
 11
166.7190056775055
 21
220.2376354768471
 31
0.0
  0
LINE
  5
749
330
1F
100
AcDbEntity
  8
0
100
AcDbLine
 10
166.7190056775055
 20
220.8301914768469
 30
0.0
 11
165.7380146775055
 21
220.8301914768469
 31
0.0
  0
LINE
  5
74A
330
1F
100
AcDbEntity
  8
0
100
AcDbLine
 10
165.3569876775054
 20
219.800108476847
 30
0.0
 11
166.7190056775055
 21
219.800108476847
 31
0.0
  0
LINE
  5
74B
330
1F
100
AcDbEntity
  8
0
100
AcDbLine
 10
166.7190056775055
 20
221.2680634768466
 30
0.0
 11
165.3569876775054
 21
221.2680634768466
 31
0.0
  0
LINE
  5
74C
330
1F
100
AcDbEntity
  8
0
100
AcDbLine
 10
165.7380146775055
 20
216.5537944768471
 30
0.0
 11
166.7190056775055
 21
216.5537944768471
 31
0.0
  0
LINE
  5
74D
330
1F
100
AcDbEntity
  8
0
100
AcDbLine
 10
166.7190056775055
 20
217.146523476847
 30
0.0
 11
165.7380146775055
 21
217.146523476847
 31
0.0
  0
LINE
  5
74E
330
1F
100
AcDbEntity
  8
0
100
AcDbLine
 10
165.3569876775054
 20
216.1160954768468
 30
0.0
 11
166.7190056775055
 21
216.1160954768468
 31
0.0
  0
LINE
  5
74F
330
1F
100
AcDbEntity
  8
0
100
AcDbLine
 10
166.7190056775055
 20
217.5840504768468
 30
0.0
 11
165.3569876775054
 21
217.5840504768468
 31
0.0
  0
LINE
  5
750
330
1F
100
AcDbEntity
  8
0
100
AcDbLine
 10
165.7380146775055
 20
218.395715476847
 30
0.0
 11
166.7190056775055
 21
218.395715476847
 31
0.0
  0
LINE
  5
751
330
1F
100
AcDbEntity
  8
0
100
AcDbLine
 10
166.7190056775055
 20
218.9884434768468
 30
0.0
 11
165.7380146775055
 21
218.9884434768468
 31
0.0
  0
LINE
  5
752
330
1F
100
AcDbEntity
  8
0
100
AcDbLine
 10
165.3569876775054
 20
217.9578434768468
 30
0.0
 11
166.7190056775055
 21
217.9578434768468
 31
0.0
  0
LINE
  5
753
330
1F
100
AcDbEntity
  8
0
100
AcDbLine
 10
166.7190056775055
 20
219.4257984768469
 30
0.0
 11
165.3569876775054
 21
219.4257984768469
 31
0.0
  0
LINE
  5
754
330
1F
100
AcDbEntity
  8
0
100
AcDbLine
 10
173.8743426775054
 20
210.077109817794
 30
0.0
 11
173.8743426775054
 21
192.1771098177941
 31
0.0
  0
LINE
  5
755
330
1F
100
AcDbEntity
  8
0
100
AcDbLine
 10
168.8743426775054
 20
210.077109817794
 30
0.0
 11
168.8743426775054
 21
192.1771098177941
 31
0.0
  0
LINE
  5
756
330
1F
100
AcDbEntity
  8
0
100
AcDbLine
 10
168.3743426775054
 20
211.1331374768469
 30
0.0
 11
168.3743426775054
 21
190.7331374768471
 31
0.0
  0
LINE
  5
757
330
1F
100
AcDbEntity
  8
0
100
AcDbLine
 10
172.1243426775053
 20
206.2071244768471
 30
0.0
 11
172.6243426775054
 21
206.2071244768471
 31
0.0
  0
LINE
  5
758
330
1F
100
AcDbEntity
  8
0
100
AcDbLine
 10
172.1243426775053
 20
205.7071244768471
 30
0.0
 11
172.6243426775054
 21
205.7071244768471
 31
0.0
  0
LINE
  5
759
330
1F
100
AcDbEntity
  8
0
100
AcDbLine
 10
172.1243426775053
 20
206.2071244768471
 30
0.0
 11
172.1243426775053
 21
205.7071244768471
 31
0.0
  0
LINE
  5
75A
330
1F
100
AcDbEntity
  8
0
100
AcDbLine
 10
172.6243426775054
 20
205.7071244768471
 30
0.0
 11
172.6243426775054
 21
206.2071244768471
 31
0.0
  0
LINE
  5
75B
330
1F
100
AcDbEntity
  8
0
100
AcDbLine
 10
172.2843426775054
 20
206.0471764768469
 30
0.0
 11
172.2843426775054
 21
205.8670724768467
 31
0.0
  0
LINE
  5
75C
330
1F
100
AcDbEntity
  8
0
100
AcDbLine
 10
172.2843426775054
 20
205.8670724768467
 30
0.0
 11
172.3743426775054
 21
205.8670724768467
 31
0.0
  0
LINE
  5
75D
330
1F
100
AcDbEntity
  8
0
100
AcDbLine
 10
172.2843426775054
 20
205.8670724768467
 30
0.0
 11
172.3743426775054
 21
205.8670724768467
 31
0.0
  0
LINE
  5
75E
330
1F
100
AcDbEntity
  8
0
100
AcDbLine
 10
172.2843426775054
 20
206.0471764768469
 30
0.0
 11
172.3743426775054
 21
206.0471764768469
 31
0.0
  0
LINE
  5
75F
330
1F
100
AcDbEntity
  8
0
100
AcDbLine
 10
172.4643426775055
 20
206.0471764768469
 30
0.0
 11
172.3743426775054
 21
206.0471764768469
 31
0.0
  0
LINE
  5
760
330
1F
100
AcDbEntity
  8
0
100
AcDbLine
 10
172.4643426775055
 20
205.8670724768467
 30
0.0
 11
172.3743426775054
 21
205.8670724768467
 31
0.0
  0
LINE
  5
761
330
1F
100
AcDbEntity
  8
0
100
AcDbLine
 10
172.4643426775055
 20
205.8670724768467
 30
0.0
 11
172.3743426775054
 21
205.8670724768467
 31
0.0
  0
LINE
  5
762
330
1F
100
AcDbEntity
  8
0
100
AcDbLine
 10
172.4643426775055
 20
206.0471764768469
 30
0.0
 11
172.4643426775055
 21
205.8670724768467
 31
0.0
  0
LINE
  5
763
330
1F
100
AcDbEntity
  8
0
100
AcDbLine
 10
170.1243426775054
 20
205.7071244768471
 30
0.0
 11
170.6243426775054
 21
205.7071244768471
 31
0.0
  0
LINE
  5
764
330
1F
100
AcDbEntity
  8
0
100
AcDbLine
 10
170.1243426775054
 20
206.2071244768471
 30
0.0
 11
170.6243426775054
 21
206.2071244768471
 31
0.0
  0
LINE
  5
765
330
1F
100
AcDbEntity
  8
0
100
AcDbLine
 10
170.4643426775055
 20
206.0471764768469
 30
0.0
 11
170.4643426775055
 21
205.8670724768467
 31
0.0
  0
LINE
  5
766
330
1F
100
AcDbEntity
  8
0
100
AcDbLine
 10
170.4643426775055
 20
205.8670724768467
 30
0.0
 11
170.3743426775054
 21
205.8670724768467
 31
0.0
  0
LINE
  5
767
330
1F
100
AcDbEntity
  8
0
100
AcDbLine
 10
170.4643426775055
 20
205.8670724768467
 30
0.0
 11
170.3743426775054
 21
205.8670724768467
 31
0.0
  0
LINE
  5
768
330
1F
100
AcDbEntity
  8
0
100
AcDbLine
 10
170.4643426775055
 20
206.0471764768469
 30
0.0
 11
170.3743426775054
 21
206.0471764768469
 31
0.0
  0
LINE
  5
769
330
1F
100
AcDbEntity
  8
0
100
AcDbLine
 10
170.2843426775054
 20
206.0471764768469
 30
0.0
 11
170.3743426775054
 21
206.0471764768469
 31
0.0
  0
LINE
  5
76A
330
1F
100
AcDbEntity
  8
0
100
AcDbLine
 10
170.2843426775054
 20
205.8670724768467
 30
0.0
 11
170.3743426775054
 21
205.8670724768467
 31
0.0
  0
LINE
  5
76B
330
1F
100
AcDbEntity
  8
0
100
AcDbLine
 10
170.2843426775054
 20
205.8670724768467
 30
0.0
 11
170.3743426775054
 21
205.8670724768467
 31
0.0
  0
LINE
  5
76C
330
1F
100
AcDbEntity
  8
0
100
AcDbLine
 10
170.2843426775054
 20
206.0471764768469
 30
0.0
 11
170.2843426775054
 21
205.8670724768467
 31
0.0
  0
LINE
  5
76D
330
1F
100
AcDbEntity
  8
0
100
AcDbLine
 10
170.6243426775054
 20
205.7071244768471
 30
0.0
 11
170.6243426775054
 21
206.2071244768471
 31
0.0
  0
LINE
  5
76E
330
1F
100
AcDbEntity
  8
0
100
AcDbLine
 10
170.1243426775054
 20
206.2071244768471
 30
0.0
 11
170.1243426775054
 21
205.7071244768471
 31
0.0
  0
LINE
  5
76F
330
1F
100
AcDbEntity
  8
0
100
AcDbLine
 10
172.4643426775055
 20
198.0471764768469
 30
0.0
 11
172.4643426775055
 21
197.8670724768467
 31
0.0
  0
LINE
  5
770
330
1F
100
AcDbEntity
  8
0
100
AcDbLine
 10
172.2843426775054
 20
198.0471764768469
 30
0.0
 11
172.2843426775054
 21
197.8670724768467
 31
0.0
  0
LINE
  5
771
330
1F
100
AcDbEntity
  8
0
100
AcDbLine
 10
172.4643426775055
 20
197.8670724768467
 30
0.0
 11
172.3743426775054
 21
197.8670724768467
 31
0.0
  0
LINE
  5
772
330
1F
100
AcDbEntity
  8
0
100
AcDbLine
 10
172.4643426775055
 20
197.8670724768467
 30
0.0
 11
172.3743426775054
 21
197.8670724768467
 31
0.0
  0
LINE
  5
773
330
1F
100
AcDbEntity
  8
0
100
AcDbLine
 10
172.2843426775054
 20
197.8670724768467
 30
0.0
 11
172.3743426775054
 21
197.8670724768467
 31
0.0
  0
LINE
  5
774
330
1F
100
AcDbEntity
  8
0
100
AcDbLine
 10
172.2843426775054
 20
197.8670724768467
 30
0.0
 11
172.3743426775054
 21
197.8670724768467
 31
0.0
  0
LINE
  5
775
330
1F
100
AcDbEntity
  8
0
100
AcDbLine
 10
172.1243426775053
 20
198.2071244768471
 30
0.0
 11
172.6243426775054
 21
198.2071244768471
 31
0.0
  0
LINE
  5
776
330
1F
100
AcDbEntity
  8
0
100
AcDbLine
 10
172.4643426775055
 20
198.0471764768469
 30
0.0
 11
172.3743426775054
 21
198.0471764768469
 31
0.0
  0
LINE
  5
777
330
1F
100
AcDbEntity
  8
0
100
AcDbLine
 10
172.2843426775054
 20
198.0471764768469
 30
0.0
 11
172.3743426775054
 21
198.0471764768469
 31
0.0
  0
LINE
  5
778
330
1F
100
AcDbEntity
  8
0
100
AcDbLine
 10
172.1243426775053
 20
197.7071244768471
 30
0.0
 11
172.6243426775054
 21
197.7071244768471
 31
0.0
  0
LINE
  5
779
330
1F
100
AcDbEntity
  8
0
100
AcDbLine
 10
172.1243426775053
 20
198.2071244768471
 30
0.0
 11
172.1243426775053
 21
197.7071244768471
 31
0.0
  0
LINE
  5
77A
330
1F
100
AcDbEntity
  8
0
100
AcDbLine
 10
172.6243426775054
 20
197.7071244768471
 30
0.0
 11
172.6243426775054
 21
198.2071244768471
 31
0.0
  0
LINE
  5
77B
330
1F
100
AcDbEntity
  8
0
100
AcDbLine
 10
172.4643426775055
 20
196.0471764768469
 30
0.0
 11
172.4643426775055
 21
195.8670724768467
 31
0.0
  0
LINE
  5
77C
330
1F
100
AcDbEntity
  8
0
100
AcDbLine
 10
172.2843426775054
 20
196.0471764768469
 30
0.0
 11
172.2843426775054
 21
195.8670724768467
 31
0.0
  0
LINE
  5
77D
330
1F
100
AcDbEntity
  8
0
100
AcDbLine
 10
172.4643426775055
 20
195.8670724768467
 30
0.0
 11
172.3743426775054
 21
195.8670724768467
 31
0.0
  0
LINE
  5
77E
330
1F
100
AcDbEntity
  8
0
100
AcDbLine
 10
172.4643426775055
 20
195.8670724768467
 30
0.0
 11
172.3743426775054
 21
195.8670724768467
 31
0.0
  0
LINE
  5
77F
330
1F
100
AcDbEntity
  8
0
100
AcDbLine
 10
172.2843426775054
 20
195.8670724768467
 30
0.0
 11
172.3743426775054
 21
195.8670724768467
 31
0.0
  0
LINE
  5
780
330
1F
100
AcDbEntity
  8
0
100
AcDbLine
 10
172.2843426775054
 20
195.8670724768467
 30
0.0
 11
172.3743426775054
 21
195.8670724768467
 31
0.0
  0
LINE
  5
781
330
1F
100
AcDbEntity
  8
0
100
AcDbLine
 10
172.1243426775053
 20
196.2071244768471
 30
0.0
 11
172.6243426775054
 21
196.2071244768471
 31
0.0
  0
LINE
  5
782
330
1F
100
AcDbEntity
  8
0
100
AcDbLine
 10
172.4643426775055
 20
196.0471764768469
 30
0.0
 11
172.3743426775054
 21
196.0471764768469
 31
0.0
  0
LINE
  5
783
330
1F
100
AcDbEntity
  8
0
100
AcDbLine
 10
172.2843426775054
 20
196.0471764768469
 30
0.0
 11
172.3743426775054
 21
196.0471764768469
 31
0.0
  0
LINE
  5
784
330
1F
100
AcDbEntity
  8
0
100
AcDbLine
 10
172.1243426775053
 20
195.7071244768471
 30
0.0
 11
172.6243426775054
 21
195.7071244768471
 31
0.0
  0
LINE
  5
785
330
1F
100
AcDbEntity
  8
0
100
AcDbLine
 10
172.1243426775053
 20
196.2071244768471
 30
0.0
 11
172.1243426775053
 21
195.7071244768471
 31
0.0
  0
LINE
  5
786
330
1F
100
AcDbEntity
  8
0
100
AcDbLine
 10
172.6243426775054
 20
195.7071244768471
 30
0.0
 11
172.6243426775054
 21
196.2071244768471
 31
0.0
  0
LINE
  5
787
330
1F
100
AcDbEntity
  8
0
100
AcDbLine
 10
170.2843426775054
 20
198.0471764768469
 30
0.0
 11
170.2843426775054
 21
197.8670724768467
 31
0.0
  0
LINE
  5
788
330
1F
100
AcDbEntity
  8
0
100
AcDbLine
 10
170.4643426775055
 20
198.0471764768469
 30
0.0
 11
170.4643426775055
 21
197.8670724768467
 31
0.0
  0
LINE
  5
789
330
1F
100
AcDbEntity
  8
0
100
AcDbLine
 10
170.2843426775054
 20
197.8670724768467
 30
0.0
 11
170.3743426775054
 21
197.8670724768467
 31
0.0
  0
LINE
  5
78A
330
1F
100
AcDbEntity
  8
0
100
AcDbLine
 10
170.2843426775054
 20
197.8670724768467
 30
0.0
 11
170.3743426775054
 21
197.8670724768467
 31
0.0
  0
LINE
  5
78B
330
1F
100
AcDbEntity
  8
0
100
AcDbLine
 10
170.4643426775055
 20
197.8670724768467
 30
0.0
 11
170.3743426775054
 21
197.8670724768467
 31
0.0
  0
LINE
  5
78C
330
1F
100
AcDbEntity
  8
0
100
AcDbLine
 10
170.4643426775055
 20
197.8670724768467
 30
0.0
 11
170.3743426775054
 21
197.8670724768467
 31
0.0
  0
LINE
  5
78D
330
1F
100
AcDbEntity
  8
0
100
AcDbLine
 10
170.1243426775054
 20
198.2071244768471
 30
0.0
 11
170.6243426775054
 21
198.2071244768471
 31
0.0
  0
LINE
  5
78E
330
1F
100
AcDbEntity
  8
0
100
AcDbLine
 10
170.2843426775054
 20
198.0471764768469
 30
0.0
 11
170.3743426775054
 21
198.0471764768469
 31
0.0
  0
LINE
  5
78F
330
1F
100
AcDbEntity
  8
0
100
AcDbLine
 10
170.4643426775055
 20
198.0471764768469
 30
0.0
 11
170.3743426775054
 21
198.0471764768469
 31
0.0
  0
LINE
  5
790
330
1F
100
AcDbEntity
  8
0
100
AcDbLine
 10
170.1243426775054
 20
197.7071244768471
 30
0.0
 11
170.6243426775054
 21
197.7071244768471
 31
0.0
  0
LINE
  5
791
330
1F
100
AcDbEntity
  8
0
100
AcDbLine
 10
170.1243426775054
 20
198.2071244768471
 30
0.0
 11
170.1243426775054
 21
197.7071244768471
 31
0.0
  0
LINE
  5
792
330
1F
100
AcDbEntity
  8
0
100
AcDbLine
 10
170.6243426775054
 20
197.7071244768471
 30
0.0
 11
170.6243426775054
 21
198.2071244768471
 31
0.0
  0
LINE
  5
793
330
1F
100
AcDbEntity
  8
0
100
AcDbLine
 10
170.2843426775054
 20
196.0471764768469
 30
0.0
 11
170.2843426775054
 21
195.8670724768467
 31
0.0
  0
LINE
  5
794
330
1F
100
AcDbEntity
  8
0
100
AcDbLine
 10
170.4643426775055
 20
196.0471764768469
 30
0.0
 11
170.4643426775055
 21
195.8670724768467
 31
0.0
  0
LINE
  5
795
330
1F
100
AcDbEntity
  8
0
100
AcDbLine
 10
170.2843426775054
 20
195.8670724768467
 30
0.0
 11
170.3743426775054
 21
195.8670724768467
 31
0.0
  0
LINE
  5
796
330
1F
100
AcDbEntity
  8
0
100
AcDbLine
 10
170.2843426775054
 20
195.8670724768467
 30
0.0
 11
170.3743426775054
 21
195.8670724768467
 31
0.0
  0
LINE
  5
797
330
1F
100
AcDbEntity
  8
0
100
AcDbLine
 10
170.4643426775055
 20
195.8670724768467
 30
0.0
 11
170.3743426775054
 21
195.8670724768467
 31
0.0
  0
LINE
  5
798
330
1F
100
AcDbEntity
  8
0
100
AcDbLine
 10
170.4643426775055
 20
195.8670724768467
 30
0.0
 11
170.3743426775054
 21
195.8670724768467
 31
0.0
  0
LINE
  5
799
330
1F
100
AcDbEntity
  8
0
100
AcDbLine
 10
170.1243426775054
 20
196.2071244768471
 30
0.0
 11
170.6243426775054
 21
196.2071244768471
 31
0.0
  0
LINE
  5
79A
330
1F
100
AcDbEntity
  8
0
100
AcDbLine
 10
170.2843426775054
 20
196.0471764768469
 30
0.0
 11
170.3743426775054
 21
196.0471764768469
 31
0.0
  0
LINE
  5
79B
330
1F
100
AcDbEntity
  8
0
100
AcDbLine
 10
170.4643426775055
 20
196.0471764768469
 30
0.0
 11
170.3743426775054
 21
196.0471764768469
 31
0.0
  0
LINE
  5
79C
330
1F
100
AcDbEntity
  8
0
100
AcDbLine
 10
170.1243426775054
 20
195.7071244768471
 30
0.0
 11
170.6243426775054
 21
195.7071244768471
 31
0.0
  0
LINE
  5
79D
330
1F
100
AcDbEntity
  8
0
100
AcDbLine
 10
170.1243426775054
 20
196.2071244768471
 30
0.0
 11
170.1243426775054
 21
195.7071244768471
 31
0.0
  0
LINE
  5
79E
330
1F
100
AcDbEntity
  8
0
100
AcDbLine
 10
170.6243426775054
 20
195.7071244768471
 30
0.0
 11
170.6243426775054
 21
196.2071244768471
 31
0.0
  0
LINE
  5
79F
330
1F
100
AcDbEntity
  8
0
100
AcDbLine
 10
172.1243426775053
 20
194.2071244768471
 30
0.0
 11
172.1243426775053
 21
193.7071244768471
 31
0.0
  0
LINE
  5
7A0
330
1F
100
AcDbEntity
  8
0
100
AcDbLine
 10
172.6243426775054
 20
193.7071244768471
 30
0.0
 11
172.6243426775054
 21
194.2071244768471
 31
0.0
  0
LINE
  5
7A1
330
1F
100
AcDbEntity
  8
0
100
AcDbLine
 10
172.2843426775054
 20
194.0471764768469
 30
0.0
 11
172.2843426775054
 21
193.8670724768467
 31
0.0
  0
LINE
  5
7A2
330
1F
100
AcDbEntity
  8
0
100
AcDbLine
 10
172.4643426775055
 20
194.0471764768469
 30
0.0
 11
172.4643426775055
 21
193.8670724768467
 31
0.0
  0
LINE
  5
7A3
330
1F
100
AcDbEntity
  8
0
100
AcDbLine
 10
172.1243426775053
 20
193.7071244768471
 30
0.0
 11
172.6243426775054
 21
193.7071244768471
 31
0.0
  0
LINE
  5
7A4
330
1F
100
AcDbEntity
  8
0
100
AcDbLine
 10
172.2843426775054
 20
193.8670724768467
 30
0.0
 11
172.3743426775054
 21
193.8670724768467
 31
0.0
  0
LINE
  5
7A5
330
1F
100
AcDbEntity
  8
0
100
AcDbLine
 10
172.2843426775054
 20
193.8670724768467
 30
0.0
 11
172.3743426775054
 21
193.8670724768467
 31
0.0
  0
LINE
  5
7A6
330
1F
100
AcDbEntity
  8
0
100
AcDbLine
 10
172.4643426775055
 20
193.8670724768467
 30
0.0
 11
172.3743426775054
 21
193.8670724768467
 31
0.0
  0
LINE
  5
7A7
330
1F
100
AcDbEntity
  8
0
100
AcDbLine
 10
172.4643426775055
 20
193.8670724768467
 30
0.0
 11
172.3743426775054
 21
193.8670724768467
 31
0.0
  0
LINE
  5
7A8
330
1F
100
AcDbEntity
  8
0
100
AcDbLine
 10
172.1243426775053
 20
194.2071244768471
 30
0.0
 11
172.6243426775054
 21
194.2071244768471
 31
0.0
  0
LINE
  5
7A9
330
1F
100
AcDbEntity
  8
0
100
AcDbLine
 10
172.2843426775054
 20
194.0471764768469
 30
0.0
 11
172.3743426775054
 21
194.0471764768469
 31
0.0
  0
LINE
  5
7AA
330
1F
100
AcDbEntity
  8
0
100
AcDbLine
 10
172.4643426775055
 20
194.0471764768469
 30
0.0
 11
172.3743426775054
 21
194.0471764768469
 31
0.0
  0
LINE
  5
7AB
330
1F
100
AcDbEntity
  8
0
100
AcDbLine
 10
170.6243426775054
 20
193.7071244768471
 30
0.0
 11
170.6243426775054
 21
194.2071244768471
 31
0.0
  0
LINE
  5
7AC
330
1F
100
AcDbEntity
  8
0
100
AcDbLine
 10
170.1243426775054
 20
194.2071244768471
 30
0.0
 11
170.1243426775054
 21
193.7071244768471
 31
0.0
  0
LINE
  5
7AD
330
1F
100
AcDbEntity
  8
0
100
AcDbLine
 10
170.4643426775055
 20
194.0471764768469
 30
0.0
 11
170.4643426775055
 21
193.8670724768467
 31
0.0
  0
LINE
  5
7AE
330
1F
100
AcDbEntity
  8
0
100
AcDbLine
 10
170.2843426775054
 20
194.0471764768469
 30
0.0
 11
170.2843426775054
 21
193.8670724768467
 31
0.0
  0
LINE
  5
7AF
330
1F
100
AcDbEntity
  8
0
100
AcDbLine
 10
170.1243426775054
 20
193.7071244768471
 30
0.0
 11
170.6243426775054
 21
193.7071244768471
 31
0.0
  0
LINE
  5
7B0
330
1F
100
AcDbEntity
  8
0
100
AcDbLine
 10
170.4643426775055
 20
193.8670724768467
 30
0.0
 11
170.3743426775054
 21
193.8670724768467
 31
0.0
  0
LINE
  5
7B1
330
1F
100
AcDbEntity
  8
0
100
AcDbLine
 10
170.4643426775055
 20
193.8670724768467
 30
0.0
 11
170.3743426775054
 21
193.8670724768467
 31
0.0
  0
LINE
  5
7B2
330
1F
100
AcDbEntity
  8
0
100
AcDbLine
 10
170.2843426775054
 20
193.8670724768467
 30
0.0
 11
170.3743426775054
 21
193.8670724768467
 31
0.0
  0
LINE
  5
7B3
330
1F
100
AcDbEntity
  8
0
100
AcDbLine
 10
170.2843426775054
 20
193.8670724768467
 30
0.0
 11
170.3743426775054
 21
193.8670724768467
 31
0.0
  0
LINE
  5
7B4
330
1F
100
AcDbEntity
  8
0
100
AcDbLine
 10
170.4643426775055
 20
194.0471764768469
 30
0.0
 11
170.3743426775054
 21
194.0471764768469
 31
0.0
  0
LINE
  5
7B5
330
1F
100
AcDbEntity
  8
0
100
AcDbLine
 10
170.2843426775054
 20
194.0471764768469
 30
0.0
 11
170.3743426775054
 21
194.0471764768469
 31
0.0
  0
LINE
  5
7B6
330
1F
100
AcDbEntity
  8
0
100
AcDbLine
 10
170.1243426775054
 20
194.2071244768471
 30
0.0
 11
170.6243426775054
 21
194.2071244768471
 31
0.0
  0
LINE
  5
7B7
330
1F
100
AcDbEntity
  8
0
100
AcDbLine
 10
169.2951776775055
 20
189.2531364768467
 30
0.0
 11
171.2600996775054
 21
189.2531364768467
 31
0.0
  0
LINE
  5
7B8
330
1F
100
AcDbEntity
  8
0
100
AcDbLine
 10
172.1243426775053
 20
204.2071244768471
 30
0.0
 11
172.6243426775054
 21
204.2071244768471
 31
0.0
  0
LINE
  5
7B9
330
1F
100
AcDbEntity
  8
0
100
AcDbLine
 10
172.1243426775053
 20
203.7071244768471
 30
0.0
 11
172.6243426775054
 21
203.7071244768471
 31
0.0
  0
LINE
  5
7BA
330
1F
100
AcDbEntity
  8
0
100
AcDbLine
 10
172.1243426775053
 20
204.2071244768471
 30
0.0
 11
172.1243426775053
 21
203.7071244768471
 31
0.0
  0
LINE
  5
7BB
330
1F
100
AcDbEntity
  8
0
100
AcDbLine
 10
172.6243426775054
 20
203.7071244768471
 30
0.0
 11
172.6243426775054
 21
204.2071244768471
 31
0.0
  0
LINE
  5
7BC
330
1F
100
AcDbEntity
  8
0
100
AcDbLine
 10
172.2843426775054
 20
204.0471764768469
 30
0.0
 11
172.2843426775054
 21
203.8670724768467
 31
0.0
  0
LINE
  5
7BD
330
1F
100
AcDbEntity
  8
0
100
AcDbLine
 10
172.2843426775054
 20
203.8670724768467
 30
0.0
 11
172.3743426775054
 21
203.8670724768467
 31
0.0
  0
LINE
  5
7BE
330
1F
100
AcDbEntity
  8
0
100
AcDbLine
 10
172.2843426775054
 20
203.8670724768467
 30
0.0
 11
172.3743426775054
 21
203.8670724768467
 31
0.0
  0
LINE
  5
7BF
330
1F
100
AcDbEntity
  8
0
100
AcDbLine
 10
172.2843426775054
 20
204.0471764768469
 30
0.0
 11
172.3743426775054
 21
204.0471764768469
 31
0.0
  0
LINE
  5
7C0
330
1F
100
AcDbEntity
  8
0
100
AcDbLine
 10
172.4643426775055
 20
204.0471764768469
 30
0.0
 11
172.3743426775054
 21
204.0471764768469
 31
0.0
  0
LINE
  5
7C1
330
1F
100
AcDbEntity
  8
0
100
AcDbLine
 10
172.4643426775055
 20
203.8670724768467
 30
0.0
 11
172.3743426775054
 21
203.8670724768467
 31
0.0
  0
LINE
  5
7C2
330
1F
100
AcDbEntity
  8
0
100
AcDbLine
 10
172.4643426775055
 20
203.8670724768467
 30
0.0
 11
172.3743426775054
 21
203.8670724768467
 31
0.0
  0
LINE
  5
7C3
330
1F
100
AcDbEntity
  8
0
100
AcDbLine
 10
172.4643426775055
 20
204.0471764768469
 30
0.0
 11
172.4643426775055
 21
203.8670724768467
 31
0.0
  0
LINE
  5
7C4
330
1F
100
AcDbEntity
  8
0
100
AcDbLine
 10
172.1243426775053
 20
199.7071244768472
 30
0.0
 11
172.6243426775054
 21
199.7071244768472
 31
0.0
  0
LINE
  5
7C5
330
1F
100
AcDbEntity
  8
0
100
AcDbLine
 10
172.1243426775053
 20
200.2071244768472
 30
0.0
 11
172.6243426775054
 21
200.2071244768472
 31
0.0
  0
LINE
  5
7C6
330
1F
100
AcDbEntity
  8
0
100
AcDbLine
 10
172.1243426775053
 20
202.2071244768471
 30
0.0
 11
172.6243426775054
 21
202.2071244768471
 31
0.0
  0
LINE
  5
7C7
330
1F
100
AcDbEntity
  8
0
100
AcDbLine
 10
172.1243426775053
 20
201.7071244768471
 30
0.0
 11
172.6243426775054
 21
201.7071244768471
 31
0.0
  0
LINE
  5
7C8
330
1F
100
AcDbEntity
  8
0
100
AcDbLine
 10
172.1243426775053
 20
200.2071244768472
 30
0.0
 11
172.1243426775053
 21
199.7071244768472
 31
0.0
  0
LINE
  5
7C9
330
1F
100
AcDbEntity
  8
0
100
AcDbLine
 10
172.1243426775053
 20
202.2071244768471
 30
0.0
 11
172.1243426775053
 21
201.7071244768471
 31
0.0
  0
LINE
  5
7CA
330
1F
100
AcDbEntity
  8
0
100
AcDbLine
 10
172.6243426775054
 20
199.7071244768472
 30
0.0
 11
172.6243426775054
 21
200.2071244768472
 31
0.0
  0
LINE
  5
7CB
330
1F
100
AcDbEntity
  8
0
100
AcDbLine
 10
172.2843426775054
 20
200.0471764768469
 30
0.0
 11
172.2843426775054
 21
199.8670724768467
 31
0.0
  0
LINE
  5
7CC
330
1F
100
AcDbEntity
  8
0
100
AcDbLine
 10
172.2843426775054
 20
199.8670724768467
 30
0.0
 11
172.3743426775054
 21
199.8670724768467
 31
0.0
  0
LINE
  5
7CD
330
1F
100
AcDbEntity
  8
0
100
AcDbLine
 10
172.2843426775054
 20
199.8670724768467
 30
0.0
 11
172.3743426775054
 21
199.8670724768467
 31
0.0
  0
LINE
  5
7CE
330
1F
100
AcDbEntity
  8
0
100
AcDbLine
 10
172.2843426775054
 20
200.0471764768469
 30
0.0
 11
172.3743426775054
 21
200.0471764768469
 31
0.0
  0
LINE
  5
7CF
330
1F
100
AcDbEntity
  8
0
100
AcDbLine
 10
172.4643426775055
 20
200.0471764768469
 30
0.0
 11
172.3743426775054
 21
200.0471764768469
 31
0.0
  0
LINE
  5
7D0
330
1F
100
AcDbEntity
  8
0
100
AcDbLine
 10
172.4643426775055
 20
199.8670724768467
 30
0.0
 11
172.3743426775054
 21
199.8670724768467
 31
0.0
  0
LINE
  5
7D1
330
1F
100
AcDbEntity
  8
0
100
AcDbLine
 10
172.4643426775055
 20
199.8670724768467
 30
0.0
 11
172.3743426775054
 21
199.8670724768467
 31
0.0
  0
LINE
  5
7D2
330
1F
100
AcDbEntity
  8
0
100
AcDbLine
 10
172.4643426775055
 20
200.0471764768469
 30
0.0
 11
172.4643426775055
 21
199.8670724768467
 31
0.0
  0
LINE
  5
7D3
330
1F
100
AcDbEntity
  8
0
100
AcDbLine
 10
172.6243426775054
 20
201.7071244768471
 30
0.0
 11
172.6243426775054
 21
202.2071244768471
 31
0.0
  0
LINE
  5
7D4
330
1F
100
AcDbEntity
  8
0
100
AcDbLine
 10
172.2843426775054
 20
202.0471764768469
 30
0.0
 11
172.2843426775054
 21
201.8670724768467
 31
0.0
  0
LINE
  5
7D5
330
1F
100
AcDbEntity
  8
0
100
AcDbLine
 10
172.2843426775054
 20
201.8670724768467
 30
0.0
 11
172.3743426775054
 21
201.8670724768467
 31
0.0
  0
LINE
  5
7D6
330
1F
100
AcDbEntity
  8
0
100
AcDbLine
 10
172.2843426775054
 20
201.8670724768467
 30
0.0
 11
172.3743426775054
 21
201.8670724768467
 31
0.0
  0
LINE
  5
7D7
330
1F
100
AcDbEntity
  8
0
100
AcDbLine
 10
172.2843426775054
 20
202.0471764768469
 30
0.0
 11
172.3743426775054
 21
202.0471764768469
 31
0.0
  0
LINE
  5
7D8
330
1F
100
AcDbEntity
  8
0
100
AcDbLine
 10
172.4643426775055
 20
202.0471764768469
 30
0.0
 11
172.3743426775054
 21
202.0471764768469
 31
0.0
  0
LINE
  5
7D9
330
1F
100
AcDbEntity
  8
0
100
AcDbLine
 10
172.4643426775055
 20
201.8670724768467
 30
0.0
 11
172.3743426775054
 21
201.8670724768467
 31
0.0
  0
LINE
  5
7DA
330
1F
100
AcDbEntity
  8
0
100
AcDbLine
 10
172.4643426775055
 20
201.8670724768467
 30
0.0
 11
172.3743426775054
 21
201.8670724768467
 31
0.0
  0
LINE
  5
7DB
330
1F
100
AcDbEntity
  8
0
100
AcDbLine
 10
172.4643426775055
 20
202.0471764768469
 30
0.0
 11
172.4643426775055
 21
201.8670724768467
 31
0.0
  0
LINE
  5
7DC
330
1F
100
AcDbEntity
  8
0
100
AcDbLine
 10
170.1243426775054
 20
203.7071244768471
 30
0.0
 11
170.6243426775054
 21
203.7071244768471
 31
0.0
  0
LINE
  5
7DD
330
1F
100
AcDbEntity
  8
0
100
AcDbLine
 10
170.1243426775054
 20
204.2071244768471
 30
0.0
 11
170.6243426775054
 21
204.2071244768471
 31
0.0
  0
LINE
  5
7DE
330
1F
100
AcDbEntity
  8
0
100
AcDbLine
 10
170.4643426775055
 20
204.0471764768469
 30
0.0
 11
170.4643426775055
 21
203.8670724768467
 31
0.0
  0
LINE
  5
7DF
330
1F
100
AcDbEntity
  8
0
100
AcDbLine
 10
170.4643426775055
 20
203.8670724768467
 30
0.0
 11
170.3743426775054
 21
203.8670724768467
 31
0.0
  0
LINE
  5
7E0
330
1F
100
AcDbEntity
  8
0
100
AcDbLine
 10
170.4643426775055
 20
203.8670724768467
 30
0.0
 11
170.3743426775054
 21
203.8670724768467
 31
0.0
  0
LINE
  5
7E1
330
1F
100
AcDbEntity
  8
0
100
AcDbLine
 10
170.4643426775055
 20
204.0471764768469
 30
0.0
 11
170.3743426775054
 21
204.0471764768469
 31
0.0
  0
LINE
  5
7E2
330
1F
100
AcDbEntity
  8
0
100
AcDbLine
 10
170.2843426775054
 20
204.0471764768469
 30
0.0
 11
170.3743426775054
 21
204.0471764768469
 31
0.0
  0
LINE
  5
7E3
330
1F
100
AcDbEntity
  8
0
100
AcDbLine
 10
170.2843426775054
 20
203.8670724768467
 30
0.0
 11
170.3743426775054
 21
203.8670724768467
 31
0.0
  0
LINE
  5
7E4
330
1F
100
AcDbEntity
  8
0
100
AcDbLine
 10
170.2843426775054
 20
203.8670724768467
 30
0.0
 11
170.3743426775054
 21
203.8670724768467
 31
0.0
  0
LINE
  5
7E5
330
1F
100
AcDbEntity
  8
0
100
AcDbLine
 10
170.2843426775054
 20
204.0471764768469
 30
0.0
 11
170.2843426775054
 21
203.8670724768467
 31
0.0
  0
LINE
  5
7E6
330
1F
100
AcDbEntity
  8
0
100
AcDbLine
 10
170.6243426775054
 20
203.7071244768471
 30
0.0
 11
170.6243426775054
 21
204.2071244768471
 31
0.0
  0
LINE
  5
7E7
330
1F
100
AcDbEntity
  8
0
100
AcDbLine
 10
170.1243426775054
 20
204.2071244768471
 30
0.0
 11
170.1243426775054
 21
203.7071244768471
 31
0.0
  0
LINE
  5
7E8
330
1F
100
AcDbEntity
  8
0
100
AcDbLine
 10
170.2843426775054
 20
200.0471764768469
 30
0.0
 11
170.2843426775054
 21
199.8670724768467
 31
0.0
  0
LINE
  5
7E9
330
1F
100
AcDbEntity
  8
0
100
AcDbLine
 10
170.1243426775054
 20
200.2071244768472
 30
0.0
 11
170.6243426775054
 21
200.2071244768472
 31
0.0
  0
LINE
  5
7EA
330
1F
100
AcDbEntity
  8
0
100
AcDbLine
 10
170.1243426775054
 20
201.7071244768471
 30
0.0
 11
170.6243426775054
 21
201.7071244768471
 31
0.0
  0
LINE
  5
7EB
330
1F
100
AcDbEntity
  8
0
100
AcDbLine
 10
170.1243426775054
 20
202.2071244768471
 30
0.0
 11
170.6243426775054
 21
202.2071244768471
 31
0.0
  0
LINE
  5
7EC
330
1F
100
AcDbEntity
  8
0
100
AcDbLine
 10
170.4643426775055
 20
202.0471764768469
 30
0.0
 11
170.4643426775055
 21
201.8670724768467
 31
0.0
  0
LINE
  5
7ED
330
1F
100
AcDbEntity
  8
0
100
AcDbLine
 10
170.4643426775055
 20
201.8670724768467
 30
0.0
 11
170.3743426775054
 21
201.8670724768467
 31
0.0
  0
LINE
  5
7EE
330
1F
100
AcDbEntity
  8
0
100
AcDbLine
 10
170.4643426775055
 20
201.8670724768467
 30
0.0
 11
170.3743426775054
 21
201.8670724768467
 31
0.0
  0
LINE
  5
7EF
330
1F
100
AcDbEntity
  8
0
100
AcDbLine
 10
170.4643426775055
 20
202.0471764768469
 30
0.0
 11
170.3743426775054
 21
202.0471764768469
 31
0.0
  0
LINE
  5
7F0
330
1F
100
AcDbEntity
  8
0
100
AcDbLine
 10
170.2843426775054
 20
202.0471764768469
 30
0.0
 11
170.3743426775054
 21
202.0471764768469
 31
0.0
  0
LINE
  5
7F1
330
1F
100
AcDbEntity
  8
0
100
AcDbLine
 10
170.2843426775054
 20
201.8670724768467
 30
0.0
 11
170.3743426775054
 21
201.8670724768467
 31
0.0
  0
LINE
  5
7F2
330
1F
100
AcDbEntity
  8
0
100
AcDbLine
 10
170.2843426775054
 20
201.8670724768467
 30
0.0
 11
170.3743426775054
 21
201.8670724768467
 31
0.0
  0
LINE
  5
7F3
330
1F
100
AcDbEntity
  8
0
100
AcDbLine
 10
170.2843426775054
 20
202.0471764768469
 30
0.0
 11
170.2843426775054
 21
201.8670724768467
 31
0.0
  0
LINE
  5
7F4
330
1F
100
AcDbEntity
  8
0
100
AcDbLine
 10
170.6243426775054
 20
201.7071244768471
 30
0.0
 11
170.6243426775054
 21
202.2071244768471
 31
0.0
  0
LINE
  5
7F5
330
1F
100
AcDbEntity
  8
0
100
AcDbLine
 10
170.1243426775054
 20
202.2071244768471
 30
0.0
 11
170.1243426775054
 21
201.7071244768471
 31
0.0
  0
LINE
  5
7F6
330
1F
100
AcDbEntity
  8
0
100
AcDbLine
 10
170.6243426775054
 20
199.7071244768472
 30
0.0
 11
170.6243426775054
 21
200.2071244768472
 31
0.0
  0
LINE
  5
7F7
330
1F
100
AcDbEntity
  8
0
100
AcDbLine
 10
170.1243426775054
 20
200.2071244768472
 30
0.0
 11
170.1243426775054
 21
199.7071244768472
 31
0.0
  0
LINE
  5
7F8
330
1F
100
AcDbEntity
  8
0
100
AcDbLine
 10
170.1243426775054
 20
199.7071244768472
 30
0.0
 11
170.6243426775054
 21
199.7071244768472
 31
0.0
  0
LINE
  5
7F9
330
1F
100
AcDbEntity
  8
0
100
AcDbLine
 10
170.4643426775055
 20
200.0471764768469
 30
0.0
 11
170.4643426775055
 21
199.8670724768467
 31
0.0
  0
LINE
  5
7FA
330
1F
100
AcDbEntity
  8
0
100
AcDbLine
 10
170.4643426775055
 20
199.8670724768467
 30
0.0
 11
170.3743426775054
 21
199.8670724768467
 31
0.0
  0
LINE
  5
7FB
330
1F
100
AcDbEntity
  8
0
100
AcDbLine
 10
170.4643426775055
 20
199.8670724768467
 30
0.0
 11
170.3743426775054
 21
199.8670724768467
 31
0.0
  0
LINE
  5
7FC
330
1F
100
AcDbEntity
  8
0
100
AcDbLine
 10
170.4643426775055
 20
200.0471764768469
 30
0.0
 11
170.3743426775054
 21
200.0471764768469
 31
0.0
  0
LINE
  5
7FD
330
1F
100
AcDbEntity
  8
0
100
AcDbLine
 10
170.2843426775054
 20
200.0471764768469
 30
0.0
 11
170.3743426775054
 21
200.0471764768469
 31
0.0
  0
LINE
  5
7FE
330
1F
100
AcDbEntity
  8
0
100
AcDbLine
 10
170.2843426775054
 20
199.8670724768467
 30
0.0
 11
170.3743426775054
 21
199.8670724768467
 31
0.0
  0
LINE
  5
7FF
330
1F
100
AcDbEntity
  8
0
100
AcDbLine
 10
170.2843426775054
 20
199.8670724768467
 30
0.0
 11
170.3743426775054
 21
199.8670724768467
 31
0.0
  0
LINE
  5
800
330
1F
100
AcDbEntity
  8
0
100
AcDbLine
 10
168.8743426775054
 20
210.077109817794
 30
0.0
 11
173.8743426775054
 21
210.077109817794
 31
0.0
  0
LINE
  5
801
330
1F
100
AcDbEntity
  8
0
100
AcDbLine
 10
172.1243426775053
 20
208.2071244768471
 30
0.0
 11
172.6243426775054
 21
208.2071244768471
 31
0.0
  0
LINE
  5
802
330
1F
100
AcDbEntity
  8
0
100
AcDbLine
 10
172.1243426775053
 20
207.7071244768471
 30
0.0
 11
172.6243426775054
 21
207.7071244768471
 31
0.0
  0
LINE
  5
803
330
1F
100
AcDbEntity
  8
0
100
AcDbLine
 10
172.1243426775053
 20
208.2071244768471
 30
0.0
 11
172.1243426775053
 21
207.7071244768471
 31
0.0
  0
LINE
  5
804
330
1F
100
AcDbEntity
  8
0
100
AcDbLine
 10
172.6243426775054
 20
207.7071244768471
 30
0.0
 11
172.6243426775054
 21
208.2071244768471
 31
0.0
  0
LINE
  5
805
330
1F
100
AcDbEntity
  8
0
100
AcDbLine
 10
172.4643426775055
 20
208.0471764768469
 30
0.0
 11
172.4643426775055
 21
207.8670724768467
 31
0.0
  0
LINE
  5
806
330
1F
100
AcDbEntity
  8
0
100
AcDbLine
 10
172.2843426775054
 20
208.0471764768469
 30
0.0
 11
172.2843426775054
 21
207.8670724768467
 31
0.0
  0
LINE
  5
807
330
1F
100
AcDbEntity
  8
0
100
AcDbLine
 10
172.4643426775055
 20
208.0471764768469
 30
0.0
 11
172.3743426775054
 21
208.0471764768469
 31
0.0
  0
LINE
  5
808
330
1F
100
AcDbEntity
  8
0
100
AcDbLine
 10
172.2843426775054
 20
208.0471764768469
 30
0.0
 11
172.3743426775054
 21
208.0471764768469
 31
0.0
  0
LINE
  5
809
330
1F
100
AcDbEntity
  8
0
100
AcDbLine
 10
172.4643426775055
 20
207.8670724768467
 30
0.0
 11
172.3743426775054
 21
207.8670724768467
 31
0.0
  0
LINE
  5
80A
330
1F
100
AcDbEntity
  8
0
100
AcDbLine
 10
172.4643426775055
 20
207.8670724768467
 30
0.0
 11
172.3743426775054
 21
207.8670724768467
 31
0.0
  0
LINE
  5
80B
330
1F
100
AcDbEntity
  8
0
100
AcDbLine
 10
172.2843426775054
 20
207.8670724768467
 30
0.0
 11
172.3743426775054
 21
207.8670724768467
 31
0.0
  0
LINE
  5
80C
330
1F
100
AcDbEntity
  8
0
100
AcDbLine
 10
172.2843426775054
 20
207.8670724768467
 30
0.0
 11
172.3743426775054
 21
207.8670724768467
 31
0.0
  0
LINE
  5
80D
330
1F
100
AcDbEntity
  8
0
100
AcDbLine
 10
170.1243426775054
 20
208.2071244768471
 30
0.0
 11
170.1243426775054
 21
207.7071244768471
 31
0.0
  0
LINE
  5
80E
330
1F
100
AcDbEntity
  8
0
100
AcDbLine
 10
170.6243426775054
 20
207.7071244768471
 30
0.0
 11
170.6243426775054
 21
208.2071244768471
 31
0.0
  0
LINE
  5
80F
330
1F
100
AcDbEntity
  8
0
100
AcDbLine
 10
170.2843426775054
 20
208.0471764768469
 30
0.0
 11
170.2843426775054
 21
207.8670724768467
 31
0.0
  0
LINE
  5
810
330
1F
100
AcDbEntity
  8
0
100
AcDbLine
 10
170.4643426775055
 20
208.0471764768469
 30
0.0
 11
170.4643426775055
 21
207.8670724768467
 31
0.0
  0
LINE
  5
811
330
1F
100
AcDbEntity
  8
0
100
AcDbLine
 10
170.2843426775054
 20
208.0471764768469
 30
0.0
 11
170.3743426775054
 21
208.0471764768469
 31
0.0
  0
LINE
  5
812
330
1F
100
AcDbEntity
  8
0
100
AcDbLine
 10
170.4643426775055
 20
208.0471764768469
 30
0.0
 11
170.3743426775054
 21
208.0471764768469
 31
0.0
  0
LINE
  5
813
330
1F
100
AcDbEntity
  8
0
100
AcDbLine
 10
170.1243426775054
 20
208.2071244768471
 30
0.0
 11
170.6243426775054
 21
208.2071244768471
 31
0.0
  0
LINE
  5
814
330
1F
100
AcDbEntity
  8
0
100
AcDbLine
 10
170.2843426775054
 20
207.8670724768467
 30
0.0
 11
170.3743426775054
 21
207.8670724768467
 31
0.0
  0
LINE
  5
815
330
1F
100
AcDbEntity
  8
0
100
AcDbLine
 10
170.2843426775054
 20
207.8670724768467
 30
0.0
 11
170.3743426775054
 21
207.8670724768467
 31
0.0
  0
LINE
  5
816
330
1F
100
AcDbEntity
  8
0
100
AcDbLine
 10
170.4643426775055
 20
207.8670724768467
 30
0.0
 11
170.3743426775054
 21
207.8670724768467
 31
0.0
  0
LINE
  5
817
330
1F
100
AcDbEntity
  8
0
100
AcDbLine
 10
170.4643426775055
 20
207.8670724768467
 30
0.0
 11
170.3743426775054
 21
207.8670724768467
 31
0.0
  0
LINE
  5
818
330
1F
100
AcDbEntity
  8
0
100
AcDbLine
 10
170.1243426775054
 20
207.7071244768471
 30
0.0
 11
170.6243426775054
 21
207.7071244768471
 31
0.0
  0
LINE
  5
819
330
1F
100
AcDbEntity
  8
0
100
AcDbLine
 10
167.1356896775055
 20
219.7506714768469
 30
0.0
 11
167.5730446775055
 21
219.3692994768471
 31
0.0
  0
LINE
  5
81A
330
1F
100
AcDbEntity
  8
0
100
AcDbLine
 10
167.5735616775055
 20
220.209385476847
 30
0.0
 11
168.1661186775054
 21
220.209385476847
 31
0.0
  0
LINE
  5
81B
330
1F
100
AcDbEntity
  8
0
100
AcDbLine
 10
167.5735616775055
 20
221.1903764768471
 30
0.0
 11
167.5735616775055
 21
220.209385476847
 31
0.0
  0
LINE
  5
81C
330
1F
100
AcDbEntity
  8
0
100
AcDbLine
 10
168.1661186775054
 20
221.1903764768471
 30
0.0
 11
167.5735616775055
 21
221.1903764768471
 31
0.0
  0
LINE
  5
81D
330
1F
100
AcDbEntity
  8
0
100
AcDbLine
 10
168.1661186775054
 20
220.209385476847
 30
0.0
 11
168.1661186775054
 21
221.1903764768471
 31
0.0
  0
LINE
  5
81E
330
1F
100
AcDbEntity
  8
0
100
AcDbLine
 10
167.1356896775055
 20
220.209385476847
 30
0.0
 11
168.6036456775054
 21
220.209385476847
 31
0.0
  0
LINE
  5
81F
330
1F
100
AcDbEntity
  8
0
100
AcDbLine
 10
168.6036456775054
 20
219.7506714768469
 30
0.0
 11
168.1661186775054
 21
219.3692994768471
 31
0.0
  0
LINE
  5
820
330
1F
100
AcDbEntity
  8
0
100
AcDbLine
 10
168.8857986775055
 20
220.2446974768467
 30
0.0
 11
169.3233256775056
 21
219.8636704768468
 31
0.0
  0
LINE
  5
821
330
1F
100
AcDbEntity
  8
0
100
AcDbLine
 10
170.3537536775056
 20
220.2446974768467
 30
0.0
 11
169.9158826775055
 21
219.8636704768468
 31
0.0
  0
LINE
  5
822
330
1F
100
AcDbEntity
  8
0
100
AcDbLine
 10
169.9158826775055
 20
218.8825074768469
 30
0.0
 11
169.3233256775056
 21
218.8825074768469
 31
0.0
  0
LINE
  5
823
330
1F
100
AcDbEntity
  8
0
100
AcDbLine
 10
169.9158826775055
 20
219.8636704768468
 30
0.0
 11
169.9158826775055
 21
218.8825074768469
 31
0.0
  0
LINE
  5
824
330
1F
100
AcDbEntity
  8
0
100
AcDbLine
 10
169.3233256775056
 20
219.8636704768468
 30
0.0
 11
169.9158826775055
 21
219.8636704768468
 31
0.0
  0
LINE
  5
825
330
1F
100
AcDbEntity
  8
0
100
AcDbLine
 10
169.3233256775056
 20
218.8825074768469
 30
0.0
 11
169.3233256775056
 21
219.8636704768468
 31
0.0
  0
LINE
  5
826
330
1F
100
AcDbEntity
  8
0
100
AcDbLine
 10
170.3537536775056
 20
218.8825074768469
 30
0.0
 11
168.8857986775055
 21
218.8825074768469
 31
0.0
  0
LINE
  5
827
330
1F
100
AcDbEntity
  8
0
100
AcDbLine
 10
170.3537536775056
 20
220.2446974768467
 30
0.0
 11
170.3537536775056
 21
218.8825074768469
 31
0.0
  0
LINE
  5
828
330
1F
100
AcDbEntity
  8
0
100
AcDbLine
 10
168.8857986775055
 20
220.2446974768467
 30
0.0
 11
170.3537536775056
 21
220.2446974768467
 31
0.0
  0
LINE
  5
829
330
1F
100
AcDbEntity
  8
0
100
AcDbLine
 10
168.8857986775055
 20
218.8825074768469
 30
0.0
 11
168.8857986775055
 21
220.2446974768467
 31
0.0
  0
LINE
  5
82A
330
1F
100
AcDbEntity
  8
0
100
AcDbLine
 10
168.8857986775055
 20
217.0548834768471
 30
0.0
 11
169.3233256775056
 21
217.4357394768469
 31
0.0
  0
LINE
  5
82B
330
1F
100
AcDbEntity
  8
0
100
AcDbLine
 10
170.3537536775056
 20
217.0548834768471
 30
0.0
 11
169.9158826775055
 21
217.4357394768469
 31
0.0
  0
LINE
  5
82C
330
1F
100
AcDbEntity
  8
0
100
AcDbLine
 10
167.1356896775055
 20
215.6644434768468
 30
0.0
 11
168.6036456775054
 21
215.6644434768468
 31
0.0
  0
LINE
  5
82D
330
1F
100
AcDbEntity
  8
0
100
AcDbLine
 10
167.1356896775055
 20
217.026634476847
 30
0.0
 11
167.1356896775055
 21
215.6644434768468
 31
0.0
  0
LINE
  5
82E
330
1F
100
AcDbEntity
  8
0
100
AcDbLine
 10
168.6036456775054
 20
217.026634476847
 30
0.0
 11
167.1356896775055
 21
217.026634476847
 31
0.0
  0
LINE
  5
82F
330
1F
100
AcDbEntity
  8
0
100
AcDbLine
 10
168.6036456775054
 20
215.6644434768468
 30
0.0
 11
168.6036456775054
 21
217.026634476847
 31
0.0
  0
LINE
  5
830
330
1F
100
AcDbEntity
  8
0
100
AcDbLine
 10
169.3233256775056
 20
217.4357394768469
 30
0.0
 11
169.9158826775055
 21
217.4357394768469
 31
0.0
  0
LINE
  5
831
330
1F
100
AcDbEntity
  8
0
100
AcDbLine
 10
169.3233256775056
 20
218.4169024768468
 30
0.0
 11
169.3233256775056
 21
217.4357394768469
 31
0.0
  0
LINE
  5
832
330
1F
100
AcDbEntity
  8
0
100
AcDbLine
 10
169.9158826775055
 20
218.4169024768468
 30
0.0
 11
169.3233256775056
 21
218.4169024768468
 31
0.0
  0
LINE
  5
833
330
1F
100
AcDbEntity
  8
0
100
AcDbLine
 10
169.9158826775055
 20
217.4357394768469
 30
0.0
 11
169.9158826775055
 21
218.4169024768468
 31
0.0
  0
LINE
  5
834
330
1F
100
AcDbEntity
  8
0
100
AcDbLine
 10
168.8857986775055
 20
217.0548834768471
 30
0.0
 11
170.3537536775056
 21
217.0548834768471
 31
0.0
  0
LINE
  5
835
330
1F
100
AcDbEntity
  8
0
100
AcDbLine
 10
168.8857986775055
 20
218.4169024768468
 30
0.0
 11
168.8857986775055
 21
217.0548834768471
 31
0.0
  0
LINE
  5
836
330
1F
100
AcDbEntity
  8
0
100
AcDbLine
 10
170.3537536775056
 20
218.4169024768468
 30
0.0
 11
168.8857986775055
 21
218.4169024768468
 31
0.0
  0
LINE
  5
837
330
1F
100
AcDbEntity
  8
0
100
AcDbLine
 10
170.3537536775056
 20
217.0548834768471
 30
0.0
 11
170.3537536775056
 21
218.4169024768468
 31
0.0
  0
LINE
  5
838
330
1F
100
AcDbEntity
  8
0
100
AcDbLine
 10
167.1356896775055
 20
215.6644434768468
 30
0.0
 11
167.5730446775055
 21
216.0454704768467
 31
0.0
  0
LINE
  5
839
330
1F
100
AcDbEntity
  8
0
100
AcDbLine
 10
168.6036456775054
 20
215.6644434768468
 30
0.0
 11
168.1657736775055
 21
216.0454704768467
 31
0.0
  0
LINE
  5
83A
330
1F
100
AcDbEntity
  8
0
100
AcDbLine
 10
167.5730446775055
 20
216.0454704768467
 30
0.0
 11
168.1657736775055
 21
216.0454704768467
 31
0.0
  0
LINE
  5
83B
330
1F
100
AcDbEntity
  8
0
100
AcDbLine
 10
167.5730446775055
 20
217.026634476847
 30
0.0
 11
167.5730446775055
 21
216.0454704768467
 31
0.0
  0
LINE
  5
83C
330
1F
100
AcDbEntity
  8
0
100
AcDbLine
 10
168.1657736775055
 20
217.026634476847
 30
0.0
 11
167.5730446775055
 21
217.026634476847
 31
0.0
  0
LINE
  5
83D
330
1F
100
AcDbEntity
  8
0
100
AcDbLine
 10
168.1657736775055
 20
216.0454704768467
 30
0.0
 11
168.1657736775055
 21
217.026634476847
 31
0.0
  0
LINE
  5
83E
330
1F
100
AcDbEntity
  8
0
100
AcDbLine
 10
167.5735616775055
 20
218.3886524768468
 30
0.0
 11
168.1661186775054
 21
218.3886524768468
 31
0.0
  0
LINE
  5
83F
330
1F
100
AcDbEntity
  8
0
100
AcDbLine
 10
167.5735616775055
 20
219.3696434768469
 30
0.0
 11
167.5735616775055
 21
218.3886524768468
 31
0.0
  0
LINE
  5
840
330
1F
100
AcDbEntity
  8
0
100
AcDbLine
 10
168.1661186775054
 20
219.3696434768469
 30
0.0
 11
167.5735616775055
 21
219.3696434768469
 31
0.0
  0
LINE
  5
841
330
1F
100
AcDbEntity
  8
0
100
AcDbLine
 10
168.1661186775054
 20
218.3886524768468
 30
0.0
 11
168.1661186775054
 21
219.3696434768469
 31
0.0
  0
LINE
  5
842
330
1F
100
AcDbEntity
  8
0
100
AcDbLine
 10
167.1356896775055
 20
218.3886524768468
 30
0.0
 11
168.6036456775054
 21
218.3886524768468
 31
0.0
  0
LINE
  5
843
330
1F
100
AcDbEntity
  8
0
100
AcDbLine
 10
167.1356896775055
 20
219.7506714768469
 30
0.0
 11
167.1356896775055
 21
218.3886524768468
 31
0.0
  0
LINE
  5
844
330
1F
100
AcDbEntity
  8
0
100
AcDbLine
 10
168.6036456775054
 20
219.7506714768469
 30
0.0
 11
167.1356896775055
 21
219.7506714768469
 31
0.0
  0
LINE
  5
845
330
1F
100
AcDbEntity
  8
0
100
AcDbLine
 10
168.6036456775054
 20
218.3886524768468
 30
0.0
 11
168.6036456775054
 21
219.7506714768469
 31
0.0
  0
LINE
  5
846
330
1F
100
AcDbEntity
  8
0
100
AcDbLine
 10
168.6036456775054
 20
221.5714044768467
 30
0.0
 11
168.1661186775054
 21
221.1900324768468
 31
0.0
  0
LINE
  5
847
330
1F
100
AcDbEntity
  8
0
100
AcDbLine
 10
167.1356896775055
 20
221.5714044768467
 30
0.0
 11
167.5730446775055
 21
221.1900324768468
 31
0.0
  0
LINE
  5
848
330
1F
100
AcDbEntity
  8
0
100
AcDbLine
 10
167.1356896775055
 20
221.5714044768467
 30
0.0
 11
167.1356896775055
 21
220.209385476847
 31
0.0
  0
LINE
  5
849
330
1F
100
AcDbEntity
  8
0
100
AcDbLine
 10
168.6036456775054
 20
220.209385476847
 30
0.0
 11
168.6036456775054
 21
221.5714044768467
 31
0.0
  0
LINE
  5
84A
330
1F
100
AcDbEntity
  8
0
100
AcDbLine
 10
168.6036456775054
 20
221.5714044768467
 30
0.0
 11
167.1356896775055
 21
221.5714044768467
 31
0.0
  0
LINE
  5
84B
330
1F
100
AcDbEntity
  8
0
100
AcDbLine
 10
166.8743426775054
 20
226.4071244768469
 30
0.0
 11
173.8743426775054
 21
226.4071244768469
 31
0.0
  0
LINE
  5
84C
330
1F
100
AcDbEntity
  8
0
100
AcDbLine
 10
166.8743426775054
 20
231.407124476847
 30
0.0
 11
173.8743426775054
 21
231.407124476847
 31
0.0
  0
LINE
  5
84D
330
1F
100
AcDbEntity
  8
0
100
AcDbLine
 10
161.0743426775056
 20
225.657124476847
 30
0.0
 11
173.8743426775054
 21
225.657124476847
 31
0.0
  0
LINE
  5
84E
330
1F
100
AcDbEntity
  8
0
100
AcDbLine
 10
166.2243426775053
 20
232.3571244768472
 30
0.0
 11
173.6243426775054
 21
232.357124476847
 31
0.0
  0
LINE
  5
850
330
1F
100
AcDbEntity
  8
0
100
AcDbLine
 10
166.2243426775053
 20
232.357124476847
 30
0.0
 11
173.6243426775054
 21
232.357124476847
 31
0.0
  0
CIRCLE
  5
853
330
1F
100
AcDbEntity
  8
0
100
AcDbCircle
 10
169.9243426775056
 20
236.107124476847
 30
0.0
 40
3.7
  0
CIRCLE
  5
854
330
1F
100
AcDbEntity
  8
0
100
AcDbCircle
 10
169.9243426775056
 20
236.107124476847
 30
0.0
 40
3.7
  0
ARC
  5
855
330
1F
100
AcDbEntity
  8
0
100
AcDbCircle
 10
169.9243426775056
 20
236.107124476847
 30
0.0
 40
3.699999999999931
100
AcDbArc
 50
0.0
 51
180.0
  0
LINE
  5
856
330
1F
100
AcDbEntity
  8
0
100
AcDbLine
 10
166.8743426775054
 20
226.4071244768469
 30
0.0
 11
166.8743426775054
 21
231.407124476847
 31
0.0
  0
LINE
  5
857
330
1F
100
AcDbEntity
  8
0
100
AcDbLine
 10
160.5743426775056
 20
226.1331374768469
 30
0.0
 11
166.2243426775055
 21
226.1331374768469
 31
0.0
  0
LINE
  5
858
330
1F
100
AcDbEntity
  8
0
100
AcDbLine
 10
166.2243426775055
 20
226.1331374768469
 30
0.0
 11
166.2243426775055
 21
231.407124476847
 31
0.0
  0
LINE
  5
859
330
1F
100
AcDbEntity
  8
0
100
AcDbLine
 10
166.2243426775055
 20
236.107124476847
 30
0.0
 11
166.2243426775055
 21
231.407124476847
 31
0.0
  0
LINE
  5
85A
330
1F
100
AcDbEntity
  8
0
100
AcDbLine
 10
169.2951776775055
 20
230.4071244768469
 30
0.0
 11
169.2951776775055
 21
227.407124476847
 31
0.0
  0
LINE
  5
85B
330
1F
100
AcDbEntity
  8
0
100
AcDbLine
 10
171.2600996775054
 20
230.4071244768469
 30
0.0
 11
171.2600996775054
 21
227.407124476847
 31
0.0
  0
LINE
  5
85C
330
1F
100
AcDbEntity
  8
0
100
AcDbLine
 10
169.2951776775055
 20
230.4071244768469
 30
0.0
 11
171.2600996775054
 21
230.4071244768469
 31
0.0
  0
LINE
  5
85D
330
1F
100
AcDbEntity
  8
0
100
AcDbLine
 10
169.2951776775055
 20
227.407124476847
 30
0.0
 11
171.2600996775054
 21
227.407124476847
 31
0.0
  0
LINE
  5
85E
330
1F
100
AcDbEntity
  8
0
100
AcDbLine
 10
173.8743426775054
 20
231.407124476847
 30
0.0
 11
173.8743426775054
 21
226.4071244768469
 31
0.0
  0
LINE
  5
85F
330
1F
100
AcDbEntity
  8
0
100
AcDbLine
 10
168.8924136775056
 20
235.9460734768469
 30
0.0
 11
171.7259486775055
 21
235.9460734768469
 31
0.0
  0
LINE
  5
860
330
1F
100
AcDbEntity
  8
0
100
AcDbLine
 10
168.0169056775057
 20
236.107124476847
 30
0.0
 11
168.8924136775056
 21
235.5269344768469
 31
0.0
  0
LINE
  5
861
330
1F
100
AcDbEntity
  8
0
100
AcDbLine
 10
168.8924136775056
 20
235.9460734768469
 30
0.0
 11
168.8924136775056
 21
235.5269344768469
 31
0.0
  0
LINE
  5
862
330
1F
100
AcDbEntity
  8
0
100
AcDbLine
 10
173.6243426775054
 20
231.8071244768471
 30
0.0
 11
174.3743426775054
 21
231.8071244768471
 31
0.0
  0
LINE
  5
863
330
1F
100
AcDbEntity
  8
0
100
AcDbLine
 10
173.4743426775055
 20
235.1172596724688
 30
0.0
 11
173.4743426775055
 21
232.357124476847
 31
0.0
  0
LINE
  5
864
330
1F
100
AcDbEntity
  8
0
100
AcDbLine
 10
173.6243426775054
 20
233.2671244768471
 30
0.0
 11
173.4743426775055
 21
233.2671244768471
 31
0.0
  0
LINE
  5
865
330
1F
100
AcDbEntity
  8
0
100
AcDbLine
 10
173.6243426775054
 20
233.8671244768472
 30
0.0
 11
173.4743426775055
 21
233.867124476847
 31
0.0
  0
LINE
  5
86B
330
1F
100
AcDbEntity
  8
0
100
AcDbLine
 10
168.0169056451513
 20
236.107124476847
 30
0.0
 11
168.8924141376601
 21
235.5269344446212
 31
0.0
  0
LINE
  5
86C
330
1F
100
AcDbEntity
  8
0
100
AcDbLine
 10
168.8924141376601
 20
235.9460740006841
 30
0.0
 11
168.8924141376601
 21
235.5269344446212
 31
0.0
  0
LINE
  5
86E
330
1F
100
AcDbEntity
  8
0
100
AcDbLine
 10
168.8924141376601
 20
235.9460740006841
 30
0.0
 11
171.7259485856948
 21
235.9460740006841
 31
0.0
  0
LINE
  5
86F
330
1F
100
AcDbEntity
  8
0
100
AcDbLine
 10
173.6243426775056
 20
236.107124476847
 30
0.0
 11
173.6243426775054
 21
231.8071244768471
 31
0.0
  0
LINE
  5
876
330
1F
100
AcDbEntity
  8
0
100
AcDbLine
 10
171.7259485856948
 20
236.2681749530063
 30
0.0
 11
171.7259485856948
 21
235.9460740006841
 31
0.0
  0
LINE
  5
877
330
1F
100
AcDbEntity
  8
0
100
AcDbLine
 10
168.8924141376601
 20
236.6873145090728
 30
0.0
 11
168.8924141376601
 21
236.2681749530063
 31
0.0
  0
LINE
  5
878
330
1F
100
AcDbEntity
  8
0
100
AcDbLine
 10
168.0169056451513
 20
236.107124476847
 30
0.0
 11
168.8924141376601
 21
236.6873145090728
 31
0.0
  0
LINE
  5
879
330
1F
100
AcDbEntity
  8
0
100
AcDbLine
 10
168.8924141376601
 20
236.2681749530063
 30
0.0
 11
171.7259485856948
 21
236.2681749530063
 31
0.0
  0
CIRCLE
  5
87B
330
1F
100
AcDbEntity
  8
0
100
AcDbCircle
 10
169.9243426775056
 20
236.107124476847
 30
0.0
 40
1.907437032355005
  0
LINE
  5
87C
330
1F
100
AcDbEntity
  8
0
100
AcDbLine
 10
168.8924136775056
 20
236.2681744768472
 30
0.0
 11
171.7259486775055
 21
236.2681744768472
 31
0.0
  0
LINE
  5
87D
330
1F
100
AcDbEntity
  8
0
100
AcDbLine
 10
168.8924136775056
 20
236.6873144768469
 30
0.0
 11
168.8924136775056
 21
236.2681744768472
 31
0.0
  0
LINE
  5
87E
330
1F
100
AcDbEntity
  8
0
100
AcDbLine
 10
168.0169056775057
 20
236.107124476847
 30
0.0
 11
168.8924136775056
 21
236.6873144768469
 31
0.0
  0
LINE
  5
87F
330
1F
100
AcDbEntity
  8
0
100
AcDbLine
 10
171.7259486775055
 20
236.2681744768472
 30
0.0
 11
171.7259486775055
 21
235.9460734768469
 31
0.0
  0
LINE
  5
880
330
1F
100
AcDbEntity
  8
0
100
AcDbLine
 10
175.4743426775057
 20
286.3881364768467
 30
0.0
 11
175.4743426775057
 21
284.7881364768468
 31
0.0
  0
LINE
  5
881
330
1F
100
AcDbEntity
  8
0
100
AcDbLine
 10
175.2743426775057
 20
284.2331374768471
 30
0.0
 11
176.8743426775058
 21
284.2331374768471
 31
0.0
  0
LINE
  5
882
330
1F
100
AcDbEntity
  8
0
100
AcDbLine
 10
175.4743426775057
 20
286.3881364768467
 30
0.0
 11
176.5743426775056
 21
286.3881364768467
 31
0.0
  0
LINE
  5
883
330
1F
100
AcDbEntity
  8
0
100
AcDbLine
 10
175.4743426775057
 20
286.3881364768467
 30
0.0
 11
176.5743426775056
 21
286.3881364768467
 31
0.0
  0
LINE
  5
884
330
1F
100
AcDbEntity
  8
0
100
AcDbLine
 10
175.4743426775057
 20
284.7881364768468
 30
0.0
 11
176.5743426775056
 21
284.7881364768468
 31
0.0
  0
LINE
  5
885
330
1F
100
AcDbEntity
  8
0
100
AcDbLine
 10
175.4743426775057
 20
284.7881364768468
 30
0.0
 11
176.5743426775056
 21
284.7881364768468
 31
0.0
  0
LINE
  5
886
330
1F
100
AcDbEntity
  8
0
100
AcDbLine
 10
176.5743426775056
 20
284.7881364768468
 30
0.0
 11
176.5743426775056
 21
286.3881364768467
 31
0.0
  0
LINE
  5
887
330
1F
100
AcDbEntity
  8
0
100
AcDbLine
 10
176.5743426775056
 20
284.7881364768468
 30
0.0
 11
176.5743426775056
 21
286.3881364768467
 31
0.0
  0
LINE
  5
888
330
1F
100
AcDbEntity
  8
0
100
AcDbLine
 10
176.5743426775056
 20
284.7881364768468
 30
0.0
 11
176.5743426775056
 21
286.3881364768467
 31
0.0
  0
LINE
  5
889
330
1F
100
AcDbEntity
  8
0
100
AcDbLine
 10
175.2743426775057
 20
286.9331374768471
 30
0.0
 11
176.8743426775058
 21
286.9331374768471
 31
0.0
  0
LINE
  5
88A
330
1F
100
AcDbEntity
  8
0
100
AcDbLine
 10
175.2743426775057
 20
286.9331374768471
 30
0.0
 11
175.2743426775057
 21
284.2331374768471
 31
0.0
  0
LINE
  5
88B
330
1F
100
AcDbEntity
  8
0
100
AcDbLine
 10
176.8743426775058
 20
284.2331374768471
 30
0.0
 11
176.8743426775058
 21
286.9331374768471
 31
0.0
  0
LINE
  5
88C
330
1F
100
AcDbEntity
  8
外枠
100
AcDbLine
 10
168.8743426775054
 20
210.077109817794
 30
0.0
 11
173.8743426775054
 21
210.077109817794
 31
0.0
  0
LINE
  5
88D
330
1F
100
AcDbEntity
  8
0
100
AcDbLine
 10
168.8743426775054
 20
192.1771098177941
 30
0.0
 11
173.8743426775054
 21
192.1771098177941
 31
0.0
  0
LINE
  5
88E
330
1F
100
AcDbEntity
  8
外枠
100
AcDbLine
 10
168.8743426775054
 20
192.1771098177941
 30
0.0
 11
173.8743426775054
 21
192.1771098177941
 31
0.0
  0
LINE
  5
88F
330
1F
100
AcDbEntity
  8
外枠
100
AcDbLine
 10
173.8743426775054
 20
190.2531364768467
 30
0.0
 11
173.8743426775054
 21
192.1771098177941
 31
0.0
  0
LINE
  5
890
330
1F
100
AcDbEntity
  8
外枠
100
AcDbLine
 10
173.8743426775054
 20
210.077109817794
 30
0.0
 11
173.8743426775054
 21
211.6571244768469
 31
0.0
  0
LINE
  5
891
330
1F
100
AcDbEntity
  8
外枠
100
AcDbLine
 10
173.8743426775054
 20
225.657124476847
 30
0.0
 11
173.8743426775054
 21
226.4071244768469
 31
0.0
  0
LINE
  5
892
330
1F
100
AcDbEntity
  8
外枠
100
AcDbLine
 10
173.8743426775054
 20
231.407124476847
 30
0.0
 11
173.8743426775054
 21
231.8071244768471
 31
0.0
  0
LINE
  5
893
330
1F
100
AcDbEntity
  8
0
 62
     0
100
AcDbLine
 10
169.9743860775086
 20
244.5114424392918
 30
0.0
 11
169.9743860775124
 21
276.8114460392894
 31
0.0
  0
LWPOLYLINE
  5
894
330
1F
100
AcDbEntity
  8
0
 62
     0
100
AcDbPolyline
 90
        4
 70
     0
 43
0.0
 38
6.483974233579617E+99
 10
168.3043860775085
 20
253.5418364338543
 42
0.0023806128275623
 10
168.4543686667818
 20
253.4838331831374
 10
168.5288793810193
 20
253.4556057492768
 10
168.6043860775096
 20
253.4273783164367
  0
LWPOLYLINE
  5
895
330
1F
100
AcDbEntity
  8
0
 62
     0
100
AcDbPolyline
 90
        4
 70
     0
 43
0.0
 38
6.483974233579617E+99
 10
168.6043860775096
 20
257.7355101621447
 42
0.0021758545420031
 10
168.4543686666927
 20
257.6790552954093
 10
168.3786037946663
 20
257.6499577992485
 10
168.3043860775085
 20
257.6210520447271
  0
LWPOLYLINE
  5
896
330
1F
100
AcDbEntity
  8
0
 62
     0
100
AcDbPolyline
 90
        4
 70
     0
 43
0.0
 38
6.483974233579617E+99
 10
168.3043860775085
 20
248.4618364338525
 42
0.0023727238869481
 10
168.4543686666927
 20
248.403833183172
 10
168.5291716786175
 20
248.3754957540782
 10
168.6043860775096
 20
248.3473783164368
  0
LWPOLYLINE
  5
897
330
1F
100
AcDbEntity
  8
0
 62
     0
100
AcDbPolyline
 90
        4
 70
     0
 43
0.0
 38
6.483974233579617E+99
 10
168.3043860775085
 20
268.7818364338541
 42
0.0023806128392038
 10
168.4543686667818
 20
268.723833183139
 10
168.5288793810175
 20
268.6956057492784
 10
168.6043860775096
 20
268.6673783164365
  0
LWPOLYLINE
  5
898
330
1F
100
AcDbEntity
  8
0
 62
     0
100
AcDbPolyline
 90
        4
 70
     0
 43
0.0
 38
6.483974233579617E+99
 10
168.6043860775096
 20
272.9755101621444
 42
0.0021758545422339
 10
168.4543686666927
 20
272.9190552954091
 10
168.37860385022
 20
272.8899578207342
 10
168.3043860775085
 20
272.8610520447286
  0
LWPOLYLINE
  5
899
330
1F
100
AcDbEntity
  8
0
 62
     0
100
AcDbPolyline
 90
        4
 70
     0
 43
0.0
 38
6.483974233579617E+99
 10
168.6043860775096
 20
267.8955101621445
 42
0.002175854542198
 10
168.4543686666927
 20
267.8390552954092
 10
168.3788516871134
 20
267.8100536697161
 10
168.3043860775085
 20
267.7810520447269
  0
LWPOLYLINE
  5
89A
330
1F
100
AcDbEntity
  8
0
 62
     0
100
AcDbPolyline
 90
        4
 70
     0
 43
0.0
 38
6.483974233579617E+99
 10
168.3043860775085
 20
263.7018364338541
 42
0.0023806133042224
 10
168.4543686667818
 20
263.6438331831373
 10
168.5288793810175
 20
263.6156057492785
 10
168.6043860775096
 20
263.5873783164384
  0
LWPOLYLINE
  5
89B
330
1F
100
AcDbEntity
  8
0
 62
     0
100
AcDbPolyline
 90
        4
 70
     0
 43
0.0
 38
6.483974233579617E+99
 10
168.6043860775096
 20
262.8155101621446
 42
0.0021842864522573
 10
168.4543686666927
 20
262.7590552954093
 10
168.3786037879506
 20
262.729957796651
 10
168.3043860775085
 20
262.7010520447288
  0
LWPOLYLINE
  5
89C
330
1F
100
AcDbEntity
  8
0
 62
     0
100
AcDbPolyline
 90
        4
 70
     0
 43
0.0
 38
6.483974233579617E+99
 10
168.3043860775085
 20
258.6218364338542
 42
0.0023727238881048
 10
168.4543686667818
 20
258.5638331831392
 10
168.5288793810175
 20
258.5356057492786
 10
168.6043860775096
 20
258.5073783164366
  0
LINE
  5
89D
330
1F
100
AcDbEntity
  8
0
 62
     0
100
AcDbLine
 10
169.9743860775086
 20
261.3614442392895
 30
0.0
 11
169.9743860775086
 21
262.1614442392906
 31
0.0
  0
LINE
  5
89E
330
1F
100
AcDbEntity
  8
0
 62
     0
100
AcDbLine
 10
161.4012247729622
 20
261.2664442392901
 30
0.0
 11
161.87438607751
 21
261.636444239291
 31
0.0
  0
LINE
  5
89F
330
1F
100
AcDbEntity
  8
0
 62
     0
100
AcDbLine
 10
162.6993860775089
 20
261.636444239291
 30
0.0
 11
163.0109932203665
 21
261.305455420073
 31
0.0
  0
LINE
  5
8A0
330
1F
100
AcDbEntity
  8
0
 62
     0
100
AcDbLine
 10
163.0109932203665
 20
261.305455420073
 30
0.0
 11
163.0109932203665
 21
265.0974330585081
 31
0.0
  0
ARC
  5
8A1
330
1F
100
AcDbEntity
  8
0
 62
     0
100
AcDbCircle
 10
166.1043860775096
 20
260.6614442392906
 30
0.0
 40
3.299999999999366
100
AcDbArc
 50
319.25094562257
 51
40.74905437742993
  0
ARC
  5
8A2
330
1F
100
AcDbEntity
  8
0
 62
     0
100
AcDbCircle
 10
166.1043860775096
 20
260.6614442392906
 30
0.0
 40
2.999999999999353
100
AcDbArc
 50
317.1665719339523
 51
42.83342806604767
  0
CIRCLE
  5
8A3
330
1F
100
AcDbEntity
  8
0
 62
     0
100
AcDbCircle
 10
166.1043860775096
 20
260.6614442392906
 30
0.0
 40
1.40000000000061
  0
LINE
  5
8A4
330
1F
100
AcDbEntity
  8
0
 62
     0
100
AcDbLine
 10
161.37438607751
 20
246.9614442392917
 30
0.0
 11
161.3743860775102
 21
274.3614442392895
 31
0.0
  0
LINE
  5
8A5
330
1F
100
AcDbEntity
  8
0
 62
     0
100
AcDbLine
 10
169.9743860775086
 20
254.8814442392899
 30
0.0
 11
169.9743860775086
 21
256.2814442392914
 31
0.0
  0
LINE
  5
8A6
330
1F
100
AcDbEntity
  8
0
 62
     0
100
AcDbLine
 10
169.9743860775086
 20
256.2814442392914
 30
0.0
 11
169.9743860775086
 21
257.0814442392907
 31
0.0
  0
LINE
  5
8A7
330
1F
100
AcDbEntity
  8
0
 62
     0
100
AcDbLine
 10
169.9743860775086
 20
259.1614442392906
 30
0.0
 11
169.9743860775086
 21
259.9614442392917
 31
0.0
  0
LINE
  5
8A8
330
1F
100
AcDbEntity
  8
0
 62
     0
100
AcDbLine
 10
169.9743860775086
 20
257.0814442392907
 30
0.0
 11
169.9743860775086
 21
259.1614442392906
 31
0.0
  0
LINE
  5
8A9
330
1F
100
AcDbEntity
  8
0
 62
     0
100
AcDbLine
 10
169.9743860775086
 20
259.9614442392917
 30
0.0
 11
169.9743860775086
 21
261.3614442392895
 31
0.0
  0
LINE
  5
8AA
330
1F
100
AcDbEntity
  8
0
 62
     0
100
AcDbLine
 10
169.9743860775086
 20
249.0014442392908
 30
0.0
 11
169.9743860775086
 21
249.8014442392918
 31
0.0
  0
LINE
  5
8AB
330
1F
100
AcDbEntity
  8
0
 62
     0
100
AcDbLine
 10
169.9743860775086
 20
251.2014442392896
 30
0.0
 11
169.9743860775086
 21
252.0014442392907
 31
0.0
  0
LINE
  5
8AC
330
1F
100
AcDbEntity
  8
0
 62
     0
100
AcDbLine
 10
169.9743860775086
 20
254.0814442392906
 30
0.0
 11
169.9743860775086
 21
254.8814442392899
 31
0.0
  0
LINE
  5
8AD
330
1F
100
AcDbEntity
  8
0
 62
     0
100
AcDbLine
 10
169.9743860775086
 20
252.0014442392907
 30
0.0
 11
169.9743860775086
 21
254.0814442392906
 31
0.0
  0
LINE
  5
8AE
330
1F
100
AcDbEntity
  8
0
 62
     0
100
AcDbLine
 10
169.9743860775086
 20
249.8014442392918
 30
0.0
 11
169.9743860775086
 21
251.2014442392896
 31
0.0
  0
LINE
  5
8AF
330
1F
100
AcDbEntity
  8
0
 62
     0
100
AcDbLine
 10
163.0109932203665
 20
256.1864442392902
 30
0.0
 11
163.0109932203665
 21
254.9764442392911
 31
0.0
  0
LINE
  5
8B0
330
1F
100
AcDbEntity
  8
0
 62
     0
100
AcDbLine
 10
161.4012247729622
 20
256.1864442392902
 30
0.0
 11
161.4012247729622
 21
254.9764442392911
 31
0.0
  0
LINE
  5
8B1
330
1F
100
AcDbEntity
  8
0
 62
     0
100
AcDbLine
 10
166.3364368850777
 20
255.8134950468588
 30
0.0
 11
166.3364368850777
 21
255.3493934317225
 31
0.0
  0
LINE
  5
8B2
330
1F
100
AcDbEntity
  8
0
 62
     0
100
AcDbLine
 10
165.8723352699414
 20
255.8134950468588
 30
0.0
 11
165.8723352699414
 21
255.3493934317225
 31
0.0
  0
LINE
  5
8B3
330
1F
100
AcDbEntity
  8
0
 62
     0
100
AcDbLine
 10
165.6043860775096
 20
256.0814442392906
 30
0.0
 11
165.6043860775096
 21
255.0814442392907
 31
0.0
  0
LINE
  5
8B4
330
1F
100
AcDbEntity
  8
0
 62
     0
100
AcDbLine
 10
166.6043860775096
 20
255.0814442392907
 30
0.0
 11
166.6043860775096
 21
256.0814442392906
 31
0.0
  0
CIRCLE
  5
8B5
330
1F
100
AcDbEntity
  8
0
 62
     0
100
AcDbCircle
 10
166.1043860775096
 20
255.5814442392907
 30
0.0
 40
1.399999999999991
  0
ARC
  5
8B6
330
1F
100
AcDbEntity
  8
0
 62
     0
100
AcDbCircle
 10
166.1043860775096
 20
255.5814442392907
 30
0.0
 40
2.999999999999806
100
AcDbArc
 50
317.1665719339523
 51
42.83342806604767
  0
ARC
  5
8B7
330
1F
100
AcDbEntity
  8
0
 62
     0
100
AcDbCircle
 10
166.1043860775096
 20
255.5814442392907
 30
0.0
 40
3.299999999999816
100
AcDbArc
 50
319.25094562257
 51
40.74905437742993
  0
LINE
  5
8B8
330
1F
100
AcDbEntity
  8
0
 62
     0
100
AcDbLine
 10
161.4012247729622
 20
256.1864442392902
 30
0.0
 11
161.87438607751
 21
256.556444239291
 31
0.0
  0
LINE
  5
8B9
330
1F
100
AcDbEntity
  8
0
 62
     0
100
AcDbLine
 10
163.0109932203665
 20
256.225455420073
 30
0.0
 11
163.0109932203665
 21
256.1864442392902
 31
0.0
  0
LINE
  5
8BA
330
1F
100
AcDbEntity
  8
0
 62
     0
100
AcDbLine
 10
162.6993860775089
 20
256.556444239291
 30
0.0
 11
163.0109932203665
 21
256.225455420073
 31
0.0
  0
LINE
  5
8BB
330
1F
100
AcDbEntity
  8
0
 62
     0
100
AcDbLine
 10
161.87438607751
 20
256.556444239291
 30
0.0
 11
162.6993860775089
 21
256.556444239291
 31
0.0
  0
LINE
  5
8BC
330
1F
100
AcDbEntity
  8
0
 62
     0
100
AcDbLine
 10
163.0109932203665
 20
256.1864442392902
 30
0.0
 11
161.4012247729622
 21
256.1864442392902
 31
0.0
  0
LINE
  5
8BD
330
1F
100
AcDbEntity
  8
0
 62
     0
100
AcDbLine
 10
161.4012247729622
 20
260.056444239291
 30
0.0
 11
161.87438607751
 21
259.6864442392902
 31
0.0
  0
LINE
  5
8BE
330
1F
100
AcDbEntity
  8
0
 62
     0
100
AcDbLine
 10
163.0109932203665
 20
260.0174330585082
 30
0.0
 11
162.6993860775089
 21
259.6864442392902
 31
0.0
  0
LINE
  5
8BF
330
1F
100
AcDbEntity
  8
0
 62
     0
100
AcDbLine
 10
163.0109932203665
 20
260.056444239291
 30
0.0
 11
163.0109932203665
 21
260.0174330585082
 31
0.0
  0
LINE
  5
8C0
330
1F
100
AcDbEntity
  8
0
 62
     0
100
AcDbLine
 10
161.87438607751
 20
259.6864442392902
 30
0.0
 11
162.6993860775089
 21
259.6864442392902
 31
0.0
  0
LINE
  5
8C1
330
1F
100
AcDbEntity
  8
0
 62
     0
100
AcDbLine
 10
161.4012247729622
 20
260.056444239291
 30
0.0
 11
163.0109932203665
 21
260.056444239291
 31
0.0
  0
LINE
  5
8C2
330
1F
100
AcDbEntity
  8
0
 62
     0
100
AcDbLine
 10
163.0109932203665
 20
256.225455420073
 30
0.0
 11
163.0109932203665
 21
260.0174330585082
 31
0.0
  0
LINE
  5
8C3
330
1F
100
AcDbEntity
  8
0
 62
     0
100
AcDbLine
 10
161.87438607751
 20
256.556444239291
 30
0.0
 11
161.87438607751
 21
259.6864442392902
 31
0.0
  0
LINE
  5
8C4
330
1F
100
AcDbEntity
  8
0
 62
     0
100
AcDbLine
 10
162.6993860775089
 20
256.556444239291
 30
0.0
 11
162.6993860775089
 21
259.6864442392902
 31
0.0
  0
LINE
  5
8C5
330
1F
100
AcDbEntity
  8
0
 62
     0
100
AcDbLine
 10
165.8723352699414
 20
255.8134950468588
 30
0.0
 11
165.6043860775096
 21
256.0814442392906
 31
0.0
  0
LINE
  5
8C6
330
1F
100
AcDbEntity
  8
0
 62
     0
100
AcDbLine
 10
165.6043860775096
 20
260.1614442392906
 30
0.0
 11
165.8723352699414
 21
260.4293934317206
 31
0.0
  0
LINE
  5
8C7
330
1F
100
AcDbEntity
  8
0
 62
     0
100
AcDbLine
 10
166.3364368850777
 20
255.8134950468588
 30
0.0
 11
166.6043860775096
 21
256.0814442392906
 31
0.0
  0
LINE
  5
8C8
330
1F
100
AcDbEntity
  8
0
 62
     0
100
AcDbLine
 10
166.3364368850777
 20
260.4293934317206
 30
0.0
 11
166.6043860775096
 21
260.1614442392906
 31
0.0
  0
LINE
  5
8C9
330
1F
100
AcDbEntity
  8
0
 62
     0
100
AcDbLine
 10
168.3043860775085
 20
257.6210520447271
 30
0.0
 11
168.3043860775085
 21
258.6218364338542
 31
0.0
  0
LINE
  5
8CA
330
1F
100
AcDbEntity
  8
0
 62
     0
100
AcDbLine
 10
168.6043860775096
 20
257.7355101621447
 30
0.0
 11
168.6043860775096
 21
258.5073783164366
 31
0.0
  0
LINE
  5
8CB
330
1F
100
AcDbEntity
  8
0
 62
     0
100
AcDbLine
 10
166.8543860775096
 20
258.3224061336145
 30
0.0
 11
166.8543860775096
 21
257.9204823449686
 31
0.0
  0
LINE
  5
8CC
330
1F
100
AcDbEntity
  8
0
 62
     0
100
AcDbLine
 10
165.8723352699414
 20
255.8134950468588
 30
0.0
 11
166.3364368850777
 21
255.8134950468588
 31
0.0
  0
LINE
  5
8CD
330
1F
100
AcDbEntity
  8
0
 62
     0
100
AcDbLine
 10
165.6043860775096
 20
256.0814442392906
 30
0.0
 11
166.6043860775096
 21
256.0814442392906
 31
0.0
  0
LINE
  5
8CE
330
1F
100
AcDbEntity
  8
0
 62
     0
100
AcDbLine
 10
165.8723352699414
 20
260.4293934317206
 30
0.0
 11
166.3364368850777
 21
260.4293934317206
 31
0.0
  0
LINE
  5
8CF
330
1F
100
AcDbEntity
  8
0
 62
     0
100
AcDbLine
 10
165.6043860775096
 20
260.1614442392906
 30
0.0
 11
166.6043860775096
 21
260.1614442392906
 31
0.0
  0
LINE
  5
8D0
330
1F
100
AcDbEntity
  8
0
 62
     0
100
AcDbLine
 10
166.8543860775096
 20
257.9204823449686
 30
0.0
 11
166.1043860775096
 21
258.1214442392915
 31
0.0
  0
LINE
  5
8D1
330
1F
100
AcDbEntity
  8
0
 62
     0
100
AcDbLine
 10
166.1043860775096
 20
258.1214442392915
 30
0.0
 11
166.8543860775096
 21
258.3224061336145
 31
0.0
  0
LINE
  5
8D2
330
1F
100
AcDbEntity
  8
0
 62
     0
100
AcDbLine
 10
163.0109932203665
 20
261.305455420073
 30
0.0
 11
163.0109932203665
 21
261.2664442392901
 31
0.0
  0
LINE
  5
8D3
330
1F
100
AcDbEntity
  8
0
 62
     0
100
AcDbLine
 10
163.0109932203665
 20
261.2664442392901
 30
0.0
 11
161.4012247729622
 21
261.2664442392901
 31
0.0
  0
LINE
  5
8D4
330
1F
100
AcDbEntity
  8
0
 62
     0
100
AcDbLine
 10
165.8723352699414
 20
260.8934950468606
 30
0.0
 11
165.6043860775096
 21
261.1614442392906
 31
0.0
  0
LINE
  5
8D5
330
1F
100
AcDbEntity
  8
0
 62
     0
100
AcDbLine
 10
166.3364368850777
 20
260.8934950468606
 30
0.0
 11
166.6043860775096
 21
261.1614442392906
 31
0.0
  0
LINE
  5
8D6
330
1F
100
AcDbEntity
  8
0
 62
     0
100
AcDbLine
 10
165.8723352699414
 20
260.8934950468606
 30
0.0
 11
166.3364368850777
 21
260.8934950468606
 31
0.0
  0
LINE
  5
8D7
330
1F
100
AcDbEntity
  8
0
 62
     0
100
AcDbLine
 10
165.6043860775096
 20
261.1614442392906
 30
0.0
 11
166.6043860775096
 21
261.1614442392906
 31
0.0
  0
LINE
  5
8D8
330
1F
100
AcDbEntity
  8
0
 62
     0
100
AcDbLine
 10
165.6043860775096
 20
260.1614442392906
 30
0.0
 11
165.6043860775096
 21
261.1614442392906
 31
0.0
  0
LINE
  5
8D9
330
1F
100
AcDbEntity
  8
0
 62
     0
100
AcDbLine
 10
165.8723352699414
 20
260.8934950468606
 30
0.0
 11
165.8723352699414
 21
260.4293934317206
 31
0.0
  0
LINE
  5
8DA
330
1F
100
AcDbEntity
  8
0
 62
     0
100
AcDbLine
 10
166.3364368850777
 20
260.4293934317206
 30
0.0
 11
166.3364368850777
 21
260.8934950468606
 31
0.0
  0
LINE
  5
8DB
330
1F
100
AcDbEntity
  8
0
 62
     0
100
AcDbLine
 10
166.6043860775096
 20
260.1614442392906
 30
0.0
 11
166.6043860775096
 21
261.1614442392906
 31
0.0
  0
LINE
  5
8DC
330
1F
100
AcDbEntity
  8
0
 62
     0
100
AcDbLine
 10
163.0109932203665
 20
261.2664442392901
 30
0.0
 11
163.0109932203665
 21
260.056444239291
 31
0.0
  0
LINE
  5
8DD
330
1F
100
AcDbEntity
  8
0
 62
     0
100
AcDbLine
 10
161.4012247729622
 20
260.056444239291
 30
0.0
 11
161.4012247729622
 21
261.2664442392901
 31
0.0
  0
LINE
  5
8DE
330
1F
100
AcDbEntity
  8
0
 62
     0
100
AcDbLine
 10
163.0109932203665
 20
247.9614442392917
 30
0.0
 11
162.6993860775089
 21
247.9614442392917
 31
0.0
  0
LINE
  5
8DF
330
1F
100
AcDbEntity
  8
0
 62
     0
100
AcDbLine
 10
161.87438607751
 20
249.5264442392904
 30
0.0
 11
161.4012247729622
 21
249.8964442392893
 31
0.0
  0
LINE
  5
8E0
330
1F
100
AcDbEntity
  8
0
 62
     0
100
AcDbLine
 10
163.0109932203665
 20
249.8964442392893
 30
0.0
 11
163.0109932203665
 21
249.8574330585083
 31
0.0
  0
LINE
  5
8E1
330
1F
100
AcDbEntity
  8
0
 62
     0
100
AcDbLine
 10
163.0109932203665
 20
249.8574330585083
 30
0.0
 11
162.6993860775089
 21
249.5264442392904
 31
0.0
  0
LINE
  5
8E2
330
1F
100
AcDbEntity
  8
0
 62
     0
100
AcDbLine
 10
161.4012247729622
 20
249.8964442392893
 30
0.0
 11
163.0109932203665
 21
249.8964442392893
 31
0.0
  0
LINE
  5
8E3
330
1F
100
AcDbEntity
  8
0
 62
     0
100
AcDbLine
 10
162.6993860775089
 20
249.5264442392904
 30
0.0
 11
161.87438607751
 21
249.5264442392904
 31
0.0
  0
LINE
  5
8E4
330
1F
100
AcDbEntity
  8
0
 62
     0
100
AcDbLine
 10
163.0109932203665
 20
247.9614442392917
 30
0.0
 11
163.0109932203665
 21
249.8574330585083
 31
0.0
  0
LINE
  5
8E5
330
1F
100
AcDbEntity
  8
0
 62
     0
100
AcDbLine
 10
162.6993860775089
 20
249.5264442392904
 30
0.0
 11
162.6993860775089
 21
247.9614442392917
 31
0.0
  0
LINE
  5
8E6
330
1F
100
AcDbEntity
  8
0
 62
     0
100
AcDbLine
 10
165.6043860775096
 20
250.0014442392907
 30
0.0
 11
165.8723352699414
 21
250.2693934317207
 31
0.0
  0
LINE
  5
8E7
330
1F
100
AcDbEntity
  8
0
 62
     0
100
AcDbLine
 10
165.8723352699414
 20
250.7334950468607
 30
0.0
 11
165.8723352699414
 21
250.2693934317207
 31
0.0
  0
LINE
  5
8E8
330
1F
100
AcDbEntity
  8
0
 62
     0
100
AcDbLine
 10
168.3043860775085
 20
247.9614442392917
 30
0.0
 11
168.6043860775096
 21
247.9614442392917
 31
0.0
  0
LINE
  5
8E9
330
1F
100
AcDbEntity
  8
0
 62
     0
100
AcDbLine
 10
168.6043860775096
 20
248.3473783164368
 30
0.0
 11
168.6043860775096
 21
247.9614442392917
 31
0.0
  0
LINE
  5
8EA
330
1F
100
AcDbEntity
  8
0
 62
     0
100
AcDbLine
 10
166.3364368850777
 20
250.2693934317207
 30
0.0
 11
166.6043860775096
 21
250.0014442392907
 31
0.0
  0
LINE
  5
8EB
330
1F
100
AcDbEntity
  8
0
 62
     0
100
AcDbLine
 10
166.3364368850777
 20
250.2693934317207
 30
0.0
 11
166.3364368850777
 21
250.7334950468607
 31
0.0
  0
LINE
  5
8EC
330
1F
100
AcDbEntity
  8
0
 62
     0
100
AcDbLine
 10
168.3043860775085
 20
247.9614442392917
 30
0.0
 11
168.3043860775085
 21
248.4618364338525
 31
0.0
  0
LINE
  5
8ED
330
1F
100
AcDbEntity
  8
0
 62
     0
100
AcDbLine
 10
166.6043860775096
 20
250.0014442392907
 30
0.0
 11
165.6043860775096
 21
250.0014442392907
 31
0.0
  0
LINE
  5
8EE
330
1F
100
AcDbEntity
  8
0
 62
     0
100
AcDbLine
 10
166.3364368850777
 20
250.2693934317207
 30
0.0
 11
165.8723352699414
 21
250.2693934317207
 31
0.0
  0
LINE
  5
8EF
330
1F
100
AcDbEntity
  8
0
 62
     0
100
AcDbLine
 10
165.8723352699414
 20
250.7334950468607
 30
0.0
 11
166.3364368850777
 21
250.7334950468607
 31
0.0
  0
LINE
  5
8F0
330
1F
100
AcDbEntity
  8
0
 62
     0
100
AcDbLine
 10
164.89195051221
 20
249.8014442392918
 30
0.0
 11
167.3168216428073
 21
249.8014442392918
 31
0.0
  0
LINE
  5
8F1
330
1F
100
AcDbEntity
  8
0
 62
     0
100
AcDbLine
 10
163.0109932203665
 20
247.9614442392917
 30
0.0
 11
168.3043860775085
 21
247.9614442392917
 31
0.0
  0
LINE
  5
8F2
330
1F
100
AcDbEntity
  8
0
 62
     0
100
AcDbLine
 10
161.4012247729622
 20
251.1064442392903
 30
0.0
 11
161.87438607751
 21
251.4764442392911
 31
0.0
  0
LINE
  5
8F3
330
1F
100
AcDbEntity
  8
0
 62
     0
100
AcDbLine
 10
163.0109932203665
 20
251.1454554200713
 30
0.0
 11
163.0109932203665
 21
251.1064442392903
 31
0.0
  0
LINE
  5
8F4
330
1F
100
AcDbEntity
  8
0
 62
     0
100
AcDbLine
 10
162.6993860775089
 20
251.4764442392911
 30
0.0
 11
163.0109932203665
 21
251.1454554200713
 31
0.0
  0
LINE
  5
8F5
330
1F
100
AcDbEntity
  8
0
 62
     0
100
AcDbLine
 10
161.87438607751
 20
251.4764442392911
 30
0.0
 11
162.6993860775089
 21
251.4764442392911
 31
0.0
  0
LINE
  5
8F6
330
1F
100
AcDbEntity
  8
0
 62
     0
100
AcDbLine
 10
163.0109932203665
 20
251.1064442392903
 30
0.0
 11
161.4012247729622
 21
251.1064442392903
 31
0.0
  0
LINE
  5
8F7
330
1F
100
AcDbEntity
  8
0
 62
     0
100
AcDbLine
 10
161.4012247729622
 20
254.9764442392911
 30
0.0
 11
161.87438607751
 21
254.6064442392903
 31
0.0
  0
LINE
  5
8F8
330
1F
100
AcDbEntity
  8
0
 62
     0
100
AcDbLine
 10
163.0109932203665
 20
254.9764442392911
 30
0.0
 11
163.0109932203665
 21
254.9374330585083
 31
0.0
  0
LINE
  5
8F9
330
1F
100
AcDbEntity
  8
0
 62
     0
100
AcDbLine
 10
163.0109932203665
 20
254.9374330585083
 30
0.0
 11
162.6993860775089
 21
254.6064442392903
 31
0.0
  0
LINE
  5
8FA
330
1F
100
AcDbEntity
  8
0
 62
     0
100
AcDbLine
 10
161.4012247729622
 20
254.9764442392911
 30
0.0
 11
163.0109932203665
 21
254.9764442392911
 31
0.0
  0
LINE
  5
8FB
330
1F
100
AcDbEntity
  8
0
 62
     0
100
AcDbLine
 10
161.87438607751
 20
254.6064442392903
 30
0.0
 11
162.6993860775089
 21
254.6064442392903
 31
0.0
  0
LINE
  5
8FC
330
1F
100
AcDbEntity
  8
0
 62
     0
100
AcDbLine
 10
163.0109932203665
 20
251.1454554200713
 30
0.0
 11
163.0109932203665
 21
254.9374330585083
 31
0.0
  0
LINE
  5
8FD
330
1F
100
AcDbEntity
  8
0
 62
     0
100
AcDbLine
 10
161.87438607751
 20
251.4764442392911
 30
0.0
 11
161.87438607751
 21
254.6064442392903
 31
0.0
  0
LINE
  5
8FE
330
1F
100
AcDbEntity
  8
0
 62
     0
100
AcDbLine
 10
162.6993860775089
 20
251.4764442392911
 30
0.0
 11
162.6993860775089
 21
254.6064442392903
 31
0.0
  0
LINE
  5
8FF
330
1F
100
AcDbEntity
  8
0
 62
     0
100
AcDbLine
 10
165.6043860775096
 20
255.0814442392907
 30
0.0
 11
165.8723352699414
 21
255.3493934317225
 31
0.0
  0
LINE
  5
900
330
1F
100
AcDbEntity
  8
0
 62
     0
100
AcDbLine
 10
166.8543860775096
 20
253.2424061336127
 30
0.0
 11
166.8543860775096
 21
252.8404823449668
 31
0.0
  0
LWPOLYLINE
  5
901
330
1F
100
AcDbEntity
  8
0
 62
     0
100
AcDbPolyline
 90
        4
 70
     0
 43
0.0
 10
168.6043860775096
 20
252.6555101621447
 42
0.0021758545419443
 10
168.4543686666927
 20
252.5990552954094
 10
168.3788516871152
 20
252.5700536697181
 10
168.3043860775085
 20
252.541052044729
  0
LINE
  5
902
330
1F
100
AcDbEntity
  8
0
 62
     0
100
AcDbLine
 10
166.3364368850777
 20
255.3493934317225
 30
0.0
 11
166.6043860775096
 21
255.0814442392907
 31
0.0
  0
LINE
  5
903
330
1F
100
AcDbEntity
  8
0
 62
     0
100
AcDbLine
 10
168.3043860775085
 20
252.541052044729
 30
0.0
 11
168.3043860775085
 21
253.5418364338543
 31
0.0
  0
LINE
  5
904
330
1F
100
AcDbEntity
  8
0
 62
     0
100
AcDbLine
 10
168.6043860775096
 20
252.6555101621447
 30
0.0
 11
168.6043860775096
 21
253.4273783164367
 31
0.0
  0
LINE
  5
905
330
1F
100
AcDbEntity
  8
0
 62
     0
100
AcDbLine
 10
166.8543860775096
 20
252.8404823449668
 30
0.0
 11
166.1043860775096
 21
253.0414442392898
 31
0.0
  0
LINE
  5
906
330
1F
100
AcDbEntity
  8
0
 62
     0
100
AcDbLine
 10
166.1043860775096
 20
253.0414442392898
 30
0.0
 11
166.8543860775096
 21
253.2424061336127
 31
0.0
  0
LINE
  5
907
330
1F
100
AcDbEntity
  8
0
 62
     0
100
AcDbLine
 10
165.6043860775096
 20
251.0014442392907
 30
0.0
 11
166.6043860775096
 21
251.0014442392907
 31
0.0
  0
LINE
  5
908
330
1F
100
AcDbEntity
  8
0
 62
     0
100
AcDbLine
 10
166.6043860775096
 20
255.0814442392907
 30
0.0
 11
165.6043860775096
 21
255.0814442392907
 31
0.0
  0
LINE
  5
909
330
1F
100
AcDbEntity
  8
0
 62
     0
100
AcDbLine
 10
165.8723352699414
 20
255.3493934317225
 30
0.0
 11
166.3364368850777
 21
255.3493934317225
 31
0.0
  0
LINE
  5
90A
330
1F
100
AcDbEntity
  8
0
 62
     0
100
AcDbLine
 10
165.6043860775096
 20
250.0014442392907
 30
0.0
 11
165.6043860775096
 21
251.0014442392907
 31
0.0
  0
LINE
  5
90B
330
1F
100
AcDbEntity
  8
0
 62
     0
100
AcDbLine
 10
166.6043860775096
 20
251.0014442392907
 30
0.0
 11
166.6043860775096
 21
250.0014442392907
 31
0.0
  0
LINE
  5
90C
330
1F
100
AcDbEntity
  8
0
 62
     0
100
AcDbLine
 10
166.3364368850777
 20
250.7334950468607
 30
0.0
 11
166.6043860775096
 21
251.0014442392907
 31
0.0
  0
LINE
  5
90D
330
1F
100
AcDbEntity
  8
0
 62
     0
100
AcDbLine
 10
165.8723352699414
 20
250.7334950468607
 30
0.0
 11
165.6043860775096
 21
251.0014442392907
 31
0.0
  0
LINE
  5
90E
330
1F
100
AcDbEntity
  8
0
 62
     0
100
AcDbLine
 10
163.0109932203665
 20
251.1064442392903
 30
0.0
 11
163.0109932203665
 21
249.8964442392893
 31
0.0
  0
LINE
  5
90F
330
1F
100
AcDbEntity
  8
0
 62
     0
100
AcDbLine
 10
161.4012247729622
 20
249.8964442392893
 30
0.0
 11
161.4012247729622
 21
251.1064442392903
 31
0.0
  0
ARC
  5
910
330
1F
100
AcDbEntity
  8
0
 62
     0
100
AcDbCircle
 10
166.1043860775096
 20
250.5014442392907
 30
0.0
 40
1.400000000000003
100
AcDbArc
 50
329.9999999999938
 51
210.0000000000061
  0
ARC
  5
911
330
1F
100
AcDbEntity
  8
0
 62
     0
100
AcDbCircle
 10
166.1043860775096
 20
250.5014442392907
 30
0.0
 40
2.999999999999968
100
AcDbArc
 50
317.1665719339523
 51
42.83342806604767
  0
ARC
  5
912
330
1F
100
AcDbEntity
  8
0
 62
     0
100
AcDbCircle
 10
166.1043860775096
 20
250.5014442392907
 30
0.0
 40
3.299999999999986
100
AcDbArc
 50
319.25094562257
 51
40.74905437742993
  0
LINE
  5
913
330
1F
100
AcDbEntity
  8
0
 62
     0
100
AcDbLine
 10
161.87438607751
 20
246.9614442392917
 30
0.0
 11
162.3043860775085
 21
246.9614442392917
 31
0.0
  0
LINE
  5
914
330
1F
100
AcDbEntity
  8
0
 62
     0
100
AcDbLine
 10
161.37438607751
 20
246.9614442392917
 30
0.0
 11
161.87438607751
 21
246.9614442392917
 31
0.0
  0
LINE
  5
915
330
1F
100
AcDbEntity
  8
0
 62
     0
100
AcDbLine
 10
165.9034241831866
 20
246.9614442392917
 30
0.0
 11
166.1043860775096
 21
246.9614442392917
 31
0.0
  0
LINE
  5
916
330
1F
100
AcDbEntity
  8
0
 62
     0
100
AcDbLine
 10
166.1043860775096
 20
246.9614442392917
 30
0.0
 11
166.3053479718325
 21
246.9614442392917
 31
0.0
  0
LINE
  5
917
330
1F
100
AcDbEntity
  8
0
 62
     0
100
AcDbLine
 10
162.3043860775085
 20
246.9614442392917
 30
0.0
 11
165.9034241831866
 21
246.9614442392917
 31
0.0
  0
LINE
  5
918
330
1F
100
AcDbEntity
  8
0
 62
     0
100
AcDbLine
 10
166.3053479718325
 20
246.9614442392917
 30
0.0
 11
169.9743860775086
 21
246.9614442392917
 31
0.0
  0
LINE
  5
919
330
1F
100
AcDbEntity
  8
0
 62
     0
100
AcDbLine
 10
161.87438607751
 20
249.5264442392904
 30
0.0
 11
161.87438607751
 21
246.9614442392917
 31
0.0
  0
LINE
  5
91A
330
1F
100
AcDbEntity
  8
0
 62
     0
100
AcDbLine
 10
169.9743860775086
 20
246.9614442392917
 30
0.0
 11
169.9743860775086
 21
249.0014442392908
 31
0.0
  0
LINE
  5
91B
330
1F
100
AcDbEntity
  8
0
 62
     0
100
AcDbLine
 10
169.9743860775086
 20
272.3214442392904
 30
0.0
 11
169.9743860775088
 21
274.3614442392895
 31
0.0
  0
LINE
  5
91C
330
1F
100
AcDbEntity
  8
0
 62
     0
100
AcDbLine
 10
162.3043860775087
 20
274.3614442392895
 30
0.0
 11
161.8743860775102
 21
274.3614442392895
 31
0.0
  0
LINE
  5
91D
330
1F
100
AcDbEntity
  8
0
 62
     0
100
AcDbLine
 10
161.8743860775102
 20
274.3614442392895
 30
0.0
 11
161.3743860775102
 21
274.3614442392895
 31
0.0
  0
LINE
  5
91E
330
1F
100
AcDbEntity
  8
0
 62
     0
100
AcDbLine
 10
163.0109932203665
 20
273.3614442392895
 30
0.0
 11
162.6993860775089
 21
273.3614442392895
 31
0.0
  0
LINE
  5
91F
330
1F
100
AcDbEntity
  8
0
 62
     0
100
AcDbLine
 10
166.8246431593561
 20
274.3614442392895
 30
0.0
 11
166.6243872175091
 21
274.3614442392895
 31
0.0
  0
LINE
  5
920
330
1F
100
AcDbEntity
  8
0
 62
     0
100
AcDbLine
 10
167.0833371502631
 20
274.3614442392895
 30
0.0
 11
166.9331451938778
 21
274.3614442392895
 31
0.0
  0
LINE
  5
921
330
1F
100
AcDbEntity
  8
0
 62
     0
100
AcDbLine
 10
167.311288562505
 20
274.3614442392895
 30
0.0
 11
167.0833371502631
 21
274.3614442392895
 31
0.0
  0
LINE
  5
922
330
1F
100
AcDbEntity
  8
0
 62
     0
100
AcDbLine
 10
167.4464121621458
 20
274.3614442392895
 30
0.0
 11
167.311288562505
 21
274.3614442392895
 31
0.0
  0
LINE
  5
923
330
1F
100
AcDbEntity
  8
0
 62
     0
100
AcDbLine
 10
166.9331451938778
 20
274.3614442392895
 30
0.0
 11
166.8246431593561
 21
274.3614442392895
 31
0.0
  0
LINE
  5
924
330
1F
100
AcDbEntity
  8
0
 62
     0
100
AcDbLine
 10
168.6043860775096
 20
273.3614442392895
 30
0.0
 11
168.6043860775096
 21
272.9755101621444
 31
0.0
  0
LINE
  5
925
330
1F
100
AcDbEntity
  8
0
 62
     0
100
AcDbLine
 10
168.6043860775096
 20
273.3614442392895
 30
0.0
 11
168.3043860775085
 21
273.3614442392895
 31
0.0
  0
LINE
  5
926
330
1F
100
AcDbEntity
  8
0
 62
     0
100
AcDbLine
 10
168.0537131647706
 20
274.3614442392895
 30
0.0
 11
167.6198252907706
 21
274.3614442392895
 31
0.0
  0
LINE
  5
927
330
1F
100
AcDbEntity
  8
0
 62
     0
100
AcDbLine
 10
168.3622498930344
 20
274.3614442392895
 30
0.0
 11
168.2271262933954
 21
274.3614442392895
 31
0.0
  0
LINE
  5
928
330
1F
100
AcDbEntity
  8
0
 62
     0
100
AcDbLine
 10
168.5902013052782
 20
274.3614442392895
 30
0.0
 11
168.3622498930344
 21
274.3614442392895
 31
0.0
  0
LINE
  5
929
330
1F
100
AcDbEntity
  8
0
 62
     0
100
AcDbLine
 10
168.7403932616634
 20
274.3614442392895
 30
0.0
 11
168.5902013052782
 21
274.3614442392895
 31
0.0
  0
LINE
  5
92A
330
1F
100
AcDbEntity
  8
0
 62
     0
100
AcDbLine
 10
168.2271262933954
 20
274.3614442392895
 30
0.0
 11
168.0537131647706
 21
274.3614442392895
 31
0.0
  0
LINE
  5
92B
330
1F
100
AcDbEntity
  8
0
 62
     0
100
AcDbLine
 10
167.6198252907706
 20
274.3614442392895
 30
0.0
 11
167.4464121621458
 21
274.3614442392895
 31
0.0
  0
LINE
  5
92C
330
1F
100
AcDbEntity
  8
0
 62
     0
100
AcDbLine
 10
168.3043860775085
 20
272.8610520447286
 30
0.0
 11
168.3043860775085
 21
273.3614442392895
 31
0.0
  0
LINE
  5
92D
330
1F
100
AcDbEntity
  8
0
 62
     0
100
AcDbLine
 10
168.3043860775085
 20
273.3614442392895
 30
0.0
 11
163.0109932203665
 21
273.3614442392895
 31
0.0
  0
LINE
  5
92E
330
1F
100
AcDbEntity
  8
0
 62
     0
100
AcDbLine
 10
166.6243872175091
 20
274.3614442392895
 30
0.0
 11
162.3043860775087
 21
274.3614442392895
 31
0.0
  0
LINE
  5
92F
330
1F
100
AcDbEntity
  8
0
 62
     0
100
AcDbLine
 10
169.1656281011328
 20
274.3614442392895
 30
0.0
 11
169.0154361447494
 21
274.3614442392895
 31
0.0
  0
LINE
  5
930
330
1F
100
AcDbEntity
  8
0
 62
     0
100
AcDbLine
 10
169.2741301356618
 20
274.3614442392895
 30
0.0
 11
169.1656281011328
 21
274.3614442392895
 31
0.0
  0
LINE
  5
931
330
1F
100
AcDbEntity
  8
0
 62
     0
100
AcDbLine
 10
169.4743860775088
 20
274.3614442392895
 30
0.0
 11
169.2741301356618
 21
274.3614442392895
 31
0.0
  0
LINE
  5
932
330
1F
100
AcDbEntity
  8
0
 62
     0
100
AcDbLine
 10
169.0154361447494
 20
274.3614442392895
 30
0.0
 11
168.7403932616634
 21
274.3614442392895
 31
0.0
  0
LINE
  5
933
330
1F
100
AcDbEntity
  8
0
 62
     0
100
AcDbLine
 10
169.9743860775088
 20
274.3614442392895
 30
0.0
 11
169.4743860775088
 21
274.3614442392895
 31
0.0
  0
LINE
  5
934
330
1F
100
AcDbEntity
  8
0
 62
     0
100
AcDbLine
 10
169.9743860775086
 20
264.2414442392905
 30
0.0
 11
169.9743860775086
 21
265.0414442392898
 31
0.0
  0
LINE
  5
935
330
1F
100
AcDbEntity
  8
0
 62
     0
100
AcDbLine
 10
169.9743860775086
 20
262.1614442392906
 30
0.0
 11
169.9743860775086
 21
264.2414442392905
 31
0.0
  0
LINE
  5
936
330
1F
100
AcDbEntity
  8
0
 62
     0
100
AcDbLine
 10
169.9743860775086
 20
266.4414442392912
 30
0.0
 11
169.9743860775086
 21
267.2414442392905
 31
0.0
  0
LINE
  5
937
330
1F
100
AcDbEntity
  8
0
 62
     0
100
AcDbLine
 10
169.9743860775086
 20
269.3214442392904
 30
0.0
 11
169.9743860775086
 21
270.1214442392915
 31
0.0
  0
LINE
  5
938
330
1F
100
AcDbEntity
  8
0
 62
     0
100
AcDbLine
 10
169.9743860775086
 20
267.2414442392905
 30
0.0
 11
169.9743860775086
 21
269.3214442392904
 31
0.0
  0
LINE
  5
939
330
1F
100
AcDbEntity
  8
0
 62
     0
100
AcDbLine
 10
169.9743860775086
 20
265.0414442392898
 30
0.0
 11
169.9743860775086
 21
266.4414442392912
 31
0.0
  0
LINE
  5
93A
330
1F
100
AcDbEntity
  8
0
 62
     0
100
AcDbLine
 10
169.9743860775086
 20
270.1214442392915
 30
0.0
 11
169.9743860775086
 21
271.5214442392893
 31
0.0
  0
LINE
  5
93B
330
1F
100
AcDbEntity
  8
0
 62
     0
100
AcDbLine
 10
161.87438607751
 20
261.636444239291
 30
0.0
 11
162.6993860775089
 21
261.636444239291
 31
0.0
  0
LINE
  5
93C
330
1F
100
AcDbEntity
  8
0
 62
     0
100
AcDbLine
 10
161.4012247729622
 20
265.1364442392909
 30
0.0
 11
161.87438607751
 21
264.7664442392902
 31
0.0
  0
LINE
  5
93D
330
1F
100
AcDbEntity
  8
0
 62
     0
100
AcDbLine
 10
163.0109932203665
 20
265.0974330585081
 30
0.0
 11
162.6993860775089
 21
264.7664442392902
 31
0.0
  0
LINE
  5
93E
330
1F
100
AcDbEntity
  8
0
 62
     0
100
AcDbLine
 10
163.0109932203665
 20
265.1364442392909
 30
0.0
 11
163.0109932203665
 21
265.0974330585081
 31
0.0
  0
LINE
  5
93F
330
1F
100
AcDbEntity
  8
0
 62
     0
100
AcDbLine
 10
161.87438607751
 20
264.7664442392902
 30
0.0
 11
162.6993860775089
 21
264.7664442392902
 31
0.0
  0
LINE
  5
940
330
1F
100
AcDbEntity
  8
0
 62
     0
100
AcDbLine
 10
161.4012247729622
 20
265.1364442392909
 30
0.0
 11
163.0109932203665
 21
265.1364442392909
 31
0.0
  0
LINE
  5
941
330
1F
100
AcDbEntity
  8
0
 62
     0
100
AcDbLine
 10
162.6993860775089
 20
261.636444239291
 30
0.0
 11
162.6993860775089
 21
264.7664442392902
 31
0.0
  0
LINE
  5
942
330
1F
100
AcDbEntity
  8
0
 62
     0
100
AcDbLine
 10
161.87438607751
 20
261.636444239291
 30
0.0
 11
161.87438607751
 21
264.7664442392902
 31
0.0
  0
LINE
  5
943
330
1F
100
AcDbEntity
  8
0
 62
     0
100
AcDbLine
 10
161.4012247729622
 20
266.3464442392901
 30
0.0
 11
161.87438607751
 21
266.7164442392909
 31
0.0
  0
LINE
  5
944
330
1F
100
AcDbEntity
  8
0
 62
     0
100
AcDbLine
 10
163.0109932203665
 20
266.3854554200729
 30
0.0
 11
163.0109932203665
 21
266.3464442392901
 31
0.0
  0
LINE
  5
945
330
1F
100
AcDbEntity
  8
0
 62
     0
100
AcDbLine
 10
162.6993860775089
 20
266.7164442392909
 30
0.0
 11
163.0109932203665
 21
266.3854554200729
 31
0.0
  0
LINE
  5
946
330
1F
100
AcDbEntity
  8
0
 62
     0
100
AcDbLine
 10
161.87438607751
 20
266.7164442392909
 30
0.0
 11
162.6993860775089
 21
266.7164442392909
 31
0.0
  0
LINE
  5
947
330
1F
100
AcDbEntity
  8
0
 62
     0
100
AcDbLine
 10
163.0109932203665
 20
266.3464442392901
 30
0.0
 11
161.4012247729622
 21
266.3464442392901
 31
0.0
  0
LINE
  5
948
330
1F
100
AcDbEntity
  8
0
 62
     0
100
AcDbLine
 10
161.4012247729622
 20
270.2164442392909
 30
0.0
 11
161.87438607751
 21
269.8464442392901
 31
0.0
  0
LINE
  5
949
330
1F
100
AcDbEntity
  8
0
 62
     0
100
AcDbLine
 10
163.0109932203665
 20
270.1774330585099
 30
0.0
 11
162.6993860775089
 21
269.8464442392901
 31
0.0
  0
LINE
  5
94A
330
1F
100
AcDbEntity
  8
0
 62
     0
100
AcDbLine
 10
163.0109932203665
 20
270.2164442392909
 30
0.0
 11
163.0109932203665
 21
270.1774330585099
 31
0.0
  0
LINE
  5
94B
330
1F
100
AcDbEntity
  8
0
 62
     0
100
AcDbLine
 10
161.87438607751
 20
269.8464442392901
 30
0.0
 11
162.6993860775089
 21
269.8464442392901
 31
0.0
  0
LINE
  5
94C
330
1F
100
AcDbEntity
  8
0
 62
     0
100
AcDbLine
 10
161.4012247729622
 20
270.2164442392909
 30
0.0
 11
163.0109932203665
 21
270.2164442392909
 31
0.0
  0
LINE
  5
94D
330
1F
100
AcDbEntity
  8
0
 62
     0
100
AcDbLine
 10
163.0109932203665
 20
270.1774330585099
 30
0.0
 11
163.0109932203665
 21
266.3854554200729
 31
0.0
  0
LINE
  5
94E
330
1F
100
AcDbEntity
  8
0
 62
     0
100
AcDbLine
 10
162.6993860775089
 20
266.7164442392909
 30
0.0
 11
162.6993860775089
 21
269.8464442392901
 31
0.0
  0
LINE
  5
94F
330
1F
100
AcDbEntity
  8
0
 62
     0
100
AcDbLine
 10
161.87438607751
 20
266.7164442392909
 30
0.0
 11
161.87438607751
 21
269.8464442392901
 31
0.0
  0
LINE
  5
950
330
1F
100
AcDbEntity
  8
0
 62
     0
100
AcDbLine
 10
163.0109932203665
 20
266.3464442392901
 30
0.0
 11
163.0109932203665
 21
265.1364442392909
 31
0.0
  0
LINE
  5
951
330
1F
100
AcDbEntity
  8
0
 62
     0
100
AcDbLine
 10
161.4012247729622
 20
266.3464442392901
 30
0.0
 11
161.4012247729622
 21
265.1364442392909
 31
0.0
  0
LINE
  5
952
330
1F
100
AcDbEntity
  8
0
 62
     0
100
AcDbLine
 10
165.6043860775096
 20
265.2414442392905
 30
0.0
 11
165.8723352699414
 21
265.5093934317223
 31
0.0
  0
LINE
  5
953
330
1F
100
AcDbEntity
  8
0
 62
     0
100
AcDbLine
 10
166.3364368850777
 20
265.5093934317223
 30
0.0
 11
166.6043860775096
 21
265.2414442392905
 31
0.0
  0
LINE
  5
954
330
1F
100
AcDbEntity
  8
0
 62
     0
100
AcDbLine
 10
168.6043860775096
 20
262.8155101621446
 30
0.0
 11
168.6043860775096
 21
263.5873783164384
 31
0.0
  0
LINE
  5
955
330
1F
100
AcDbEntity
  8
0
 62
     0
100
AcDbLine
 10
166.8543860775096
 20
263.4024061336126
 30
0.0
 11
166.8543860775096
 21
263.0004823449667
 31
0.0
  0
LINE
  5
956
330
1F
100
AcDbEntity
  8
0
 62
     0
100
AcDbLine
 10
168.3043860775085
 20
262.7010520447288
 30
0.0
 11
168.3043860775085
 21
263.7018364338541
 31
0.0
  0
LINE
  5
957
330
1F
100
AcDbEntity
  8
0
 62
     0
100
AcDbLine
 10
165.8723352699414
 20
265.5093934317223
 30
0.0
 11
166.3364368850777
 21
265.5093934317223
 31
0.0
  0
LINE
  5
958
330
1F
100
AcDbEntity
  8
0
 62
     0
100
AcDbLine
 10
165.6043860775096
 20
265.2414442392905
 30
0.0
 11
166.6043860775096
 21
265.2414442392905
 31
0.0
  0
LINE
  5
959
330
1F
100
AcDbEntity
  8
0
 62
     0
100
AcDbLine
 10
166.8543860775096
 20
263.0004823449667
 30
0.0
 11
166.1043860775096
 21
263.2014442392896
 31
0.0
  0
LINE
  5
95A
330
1F
100
AcDbEntity
  8
0
 62
     0
100
AcDbLine
 10
166.1043860775096
 20
263.2014442392896
 30
0.0
 11
166.8543860775096
 21
263.4024061336126
 31
0.0
  0
LINE
  5
95B
330
1F
100
AcDbEntity
  8
0
 62
     0
100
AcDbLine
 10
165.8723352699414
 20
265.9734950468587
 30
0.0
 11
165.6043860775096
 21
266.2414442392905
 31
0.0
  0
LINE
  5
95C
330
1F
100
AcDbEntity
  8
0
 62
     0
100
AcDbLine
 10
166.3364368850777
 20
265.9734950468587
 30
0.0
 11
166.6043860775096
 21
266.2414442392905
 31
0.0
  0
LINE
  5
95D
330
1F
100
AcDbEntity
  8
0
 62
     0
100
AcDbLine
 10
166.8543860775096
 20
268.0804823449684
 30
0.0
 11
166.8543860775096
 21
268.4824061336144
 31
0.0
  0
LINE
  5
95E
330
1F
100
AcDbEntity
  8
0
 62
     0
100
AcDbLine
 10
168.6043860775096
 20
267.8955101621445
 30
0.0
 11
168.6043860775096
 21
268.6673783164365
 31
0.0
  0
LINE
  5
95F
330
1F
100
AcDbEntity
  8
0
 62
     0
100
AcDbLine
 10
168.3043860775085
 20
267.7810520447269
 30
0.0
 11
168.3043860775085
 21
268.7818364338541
 31
0.0
  0
LINE
  5
960
330
1F
100
AcDbEntity
  8
0
 62
     0
100
AcDbLine
 10
165.6043860775096
 20
270.3214442392904
 30
0.0
 11
166.6043860775096
 21
270.3214442392904
 31
0.0
  0
LINE
  5
961
330
1F
100
AcDbEntity
  8
0
 62
     0
100
AcDbLine
 10
166.1043860775096
 20
268.2814442392914
 30
0.0
 11
166.8543860775096
 21
268.0804823449684
 31
0.0
  0
LINE
  5
962
330
1F
100
AcDbEntity
  8
0
 62
     0
100
AcDbLine
 10
166.8543860775096
 20
268.4824061336144
 30
0.0
 11
166.1043860775096
 21
268.2814442392914
 31
0.0
  0
LINE
  5
963
330
1F
100
AcDbEntity
  8
0
 62
     0
100
AcDbLine
 10
165.6043860775096
 20
266.2414442392905
 30
0.0
 11
166.6043860775096
 21
266.2414442392905
 31
0.0
  0
LINE
  5
964
330
1F
100
AcDbEntity
  8
0
 62
     0
100
AcDbLine
 10
165.8723352699414
 20
265.9734950468587
 30
0.0
 11
166.3364368850777
 21
265.9734950468587
 31
0.0
  0
LINE
  5
965
330
1F
100
AcDbEntity
  8
0
 62
     0
100
AcDbLine
 10
166.6043860775096
 20
266.2414442392905
 30
0.0
 11
166.6043860775096
 21
265.2414442392905
 31
0.0
  0
LINE
  5
966
330
1F
100
AcDbEntity
  8
0
 62
     0
100
AcDbLine
 10
165.8723352699414
 20
265.9734950468587
 30
0.0
 11
165.8723352699414
 21
265.5093934317223
 31
0.0
  0
LINE
  5
967
330
1F
100
AcDbEntity
  8
0
 62
     0
100
AcDbLine
 10
165.6043860775096
 20
265.2414442392905
 30
0.0
 11
165.6043860775096
 21
266.2414442392905
 31
0.0
  0
LINE
  5
968
330
1F
100
AcDbEntity
  8
0
 62
     0
100
AcDbLine
 10
166.3364368850777
 20
265.5093934317223
 30
0.0
 11
166.3364368850777
 21
265.9734950468587
 31
0.0
  0
CIRCLE
  5
969
330
1F
100
AcDbEntity
  8
0
 62
     0
100
AcDbCircle
 10
166.1043860775096
 20
265.7414442392905
 30
0.0
 40
1.399999999999999
  0
LINE
  5
96A
330
1F
100
AcDbEntity
  8
0
 62
     0
100
AcDbLine
 10
161.4012247729622
 20
271.4264442392918
 30
0.0
 11
161.87438607751
 21
271.7964442392908
 31
0.0
  0
LINE
  5
96B
330
1F
100
AcDbEntity
  8
0
 62
     0
100
AcDbLine
 10
163.0109932203665
 20
271.4654554200728
 30
0.0
 11
163.0109932203665
 21
271.4264442392918
 31
0.0
  0
LINE
  5
96C
330
1F
100
AcDbEntity
  8
0
 62
     0
100
AcDbLine
 10
162.6993860775089
 20
271.7964442392908
 30
0.0
 11
163.0109932203665
 21
271.4654554200728
 31
0.0
  0
LINE
  5
96D
330
1F
100
AcDbEntity
  8
0
 62
     0
100
AcDbLine
 10
161.87438607751
 20
271.7964442392908
 30
0.0
 11
162.6993860775089
 21
271.7964442392908
 31
0.0
  0
LINE
  5
96E
330
1F
100
AcDbEntity
  8
0
 62
     0
100
AcDbLine
 10
163.0109932203665
 20
271.4264442392918
 30
0.0
 11
161.4012247729622
 21
271.4264442392918
 31
0.0
  0
LINE
  5
96F
330
1F
100
AcDbEntity
  8
0
 62
     0
100
AcDbLine
 10
165.8723352699414
 20
270.5893934317205
 30
0.0
 11
165.8723352699414
 21
271.0534950468604
 31
0.0
  0
LINE
  5
970
330
1F
100
AcDbEntity
  8
0
 62
     0
100
AcDbLine
 10
165.6043860775096
 20
271.3214442392904
 30
0.0
 11
165.8723352699414
 21
271.0534950468604
 31
0.0
  0
LINE
  5
971
330
1F
100
AcDbEntity
  8
0
 62
     0
100
AcDbLine
 10
166.6043860775096
 20
271.3214442392904
 30
0.0
 11
166.3364368850777
 21
271.0534950468604
 31
0.0
  0
LINE
  5
972
330
1F
100
AcDbEntity
  8
0
 62
     0
100
AcDbLine
 10
166.3364368850777
 20
270.5893934317205
 30
0.0
 11
166.3364368850777
 21
271.0534950468604
 31
0.0
  0
LINE
  5
973
330
1F
100
AcDbEntity
  8
0
 62
     0
100
AcDbLine
 10
165.8723352699414
 20
271.0534950468604
 30
0.0
 11
166.3364368850777
 21
271.0534950468604
 31
0.0
  0
LINE
  5
974
330
1F
100
AcDbEntity
  8
0
 62
     0
100
AcDbLine
 10
165.6043860775096
 20
271.3214442392904
 30
0.0
 11
166.6043860775096
 21
271.3214442392904
 31
0.0
  0
LINE
  5
975
330
1F
100
AcDbEntity
  8
0
 62
     0
100
AcDbLine
 10
165.8723352699414
 20
270.5893934317205
 30
0.0
 11
166.3364368850777
 21
270.5893934317205
 31
0.0
  0
LINE
  5
976
330
1F
100
AcDbEntity
  8
0
 62
     0
100
AcDbLine
 10
165.6043860775096
 20
270.3214442392904
 30
0.0
 11
165.8723352699414
 21
270.5893934317205
 31
0.0
  0
LINE
  5
977
330
1F
100
AcDbEntity
  8
0
 62
     0
100
AcDbLine
 10
166.6043860775096
 20
271.3214442392904
 30
0.0
 11
166.6043860775096
 21
270.3214442392904
 31
0.0
  0
LINE
  5
978
330
1F
100
AcDbEntity
  8
0
 62
     0
100
AcDbLine
 10
165.6043860775096
 20
271.3214442392904
 30
0.0
 11
165.6043860775096
 21
270.3214442392904
 31
0.0
  0
LINE
  5
979
330
1F
100
AcDbEntity
  8
0
 62
     0
100
AcDbLine
 10
166.3364368850777
 20
270.5893934317205
 30
0.0
 11
166.6043860775096
 21
270.3214442392904
 31
0.0
  0
LINE
  5
97A
330
1F
100
AcDbEntity
  8
0
 62
     0
100
AcDbLine
 10
163.0109932203665
 20
271.4264442392918
 30
0.0
 11
163.0109932203665
 21
270.2164442392909
 31
0.0
  0
LINE
  5
97B
330
1F
100
AcDbEntity
  8
0
 62
     0
100
AcDbLine
 10
161.4012247729622
 20
270.2164442392909
 30
0.0
 11
161.4012247729622
 21
271.4264442392918
 31
0.0
  0
ARC
  5
97C
330
1F
100
AcDbEntity
  8
0
 62
     0
100
AcDbCircle
 10
166.1043860775096
 20
265.7414442392905
 30
0.0
 40
3.299999999999831
100
AcDbArc
 50
319.25094562257
 51
40.74905437742993
  0
ARC
  5
97D
330
1F
100
AcDbEntity
  8
0
 62
     0
100
AcDbCircle
 10
166.1043860775096
 20
265.7414442392905
 30
0.0
 40
2.999999999999804
100
AcDbArc
 50
317.1665719339523
 51
42.83342806604767
  0
LINE
  5
97E
330
1F
100
AcDbEntity
  8
0
 62
     0
100
AcDbLine
 10
161.87438607751
 20
271.7964442392908
 30
0.0
 11
161.8743860775102
 21
274.3614442392895
 31
0.0
  0
LINE
  5
97F
330
1F
100
AcDbEntity
  8
0
 62
     0
100
AcDbLine
 10
162.6993860775089
 20
273.3614442392895
 30
0.0
 11
162.6993860775089
 21
271.7964442392908
 31
0.0
  0
LINE
  5
980
330
1F
100
AcDbEntity
  8
0
 62
     0
100
AcDbLine
 10
163.0109932203665
 20
273.3614442392895
 30
0.0
 11
163.0109932203665
 21
271.4654554200728
 31
0.0
  0
CIRCLE
  5
981
330
1F
100
AcDbEntity
  8
0
 62
     0
100
AcDbCircle
 10
166.1043860775096
 20
270.8214442392904
 30
0.0
 40
1.399999999999379
  0
LINE
  5
982
330
1F
100
AcDbEntity
  8
0
 62
     0
100
AcDbLine
 10
169.9743860775086
 20
271.5214442392893
 30
0.0
 11
169.9743860775086
 21
272.3214442392904
 31
0.0
  0
ARC
  5
983
330
1F
100
AcDbEntity
  8
0
 62
     0
100
AcDbCircle
 10
166.1043860775096
 20
270.8214442392904
 30
0.0
 40
3.299999999999366
100
AcDbArc
 50
319.25094562257
 51
40.74905437742993
  0
ARC
  5
984
330
1F
100
AcDbEntity
  8
0
 62
     0
100
AcDbCircle
 10
166.1043860775096
 20
270.8214442392904
 30
0.0
 40
2.999999999999353
100
AcDbArc
 50
317.1665719339523
 51
42.83342806604767
  0
LINE
  5
985
330
1F
100
AcDbEntity
  8
0
 62
     0
100
AcDbLine
 10
174.0742683649568
 20
286.8940449152028
 30
0.0
 11
174.0742683649568
 21
284.1940449152021
 31
0.0
  0
LINE
  5
986
330
1F
100
AcDbEntity
  8
0
 62
     0
100
AcDbLine
 10
172.4742683649565
 20
284.1940449152021
 30
0.0
 11
172.4742683649565
 21
286.8940449152028
 31
0.0
  0
LINE
  5
987
330
1F
100
AcDbEntity
  8
0
 62
     0
100
AcDbLine
 10
174.0742683649568
 20
286.8940449152028
 30
0.0
 11
172.4742683649565
 21
286.8940449152028
 31
0.0
  0
LINE
  5
988
330
1F
100
AcDbEntity
  8
0
 62
     0
100
AcDbLine
 10
174.0742683649568
 20
284.1940449152021
 30
0.0
 11
172.4742683649565
 21
284.1940449152021
 31
0.0
  0
LINE
  5
989
330
1F
100
AcDbEntity
  8
0
 62
     0
100
AcDbLine
 10
174.0742683649568
 20
281.3940489152423
 30
0.0
 11
174.0742683649568
 21
278.6940489152416
 31
0.0
  0
LINE
  5
98A
330
1F
100
AcDbEntity
  8
0
 62
     0
100
AcDbLine
 10
172.4742683649565
 20
278.6940489152416
 30
0.0
 11
172.4742683649565
 21
281.3940489152423
 31
0.0
  0
LINE
  5
98B
330
1F
100
AcDbEntity
  8
0
 62
     0
100
AcDbLine
 10
174.0742683649568
 20
281.3940489152423
 30
0.0
 11
172.4742683649565
 21
281.3940489152423
 31
0.0
  0
LINE
  5
98C
330
1F
100
AcDbEntity
  8
0
 62
     0
100
AcDbLine
 10
174.0742683649568
 20
278.6940489152416
 30
0.0
 11
172.4742683649565
 21
278.6940489152416
 31
0.0
  0
LINE
  5
98D
330
1F
100
AcDbEntity
  8
外枠
 62
     0
100
AcDbLine
 10
172.7743426775032
 20
279.3940489152405
 30
0.0
 11
173.8743426775054
 21
279.3940489152405
 31
0.0
  0
LINE
  5
98E
330
1F
100
AcDbEntity
  8
外枠
 62
     0
100
AcDbLine
 10
172.7743426775032
 20
280.6940489152398
 30
0.0
 11
173.8743426775054
 21
280.6940489152398
 31
0.0
  0
LINE
  5
98F
330
1F
100
AcDbEntity
  8
外枠
 62
     0
100
AcDbLine
 10
172.7743426775032
 20
280.6940489152398
 30
0.0
 11
173.8743426775054
 21
280.6940489152398
 31
0.0
  0
LINE
  5
990
330
1F
100
AcDbEntity
  8
外枠
 62
     0
100
AcDbLine
 10
172.7743426775032
 20
279.3940489152405
 30
0.0
 11
173.8743426775054
 21
279.3940489152405
 31
0.0
  0
LINE
  5
991
330
1F
100
AcDbEntity
  8
外枠
 62
     0
100
AcDbLine
 10
172.7743426775032
 20
279.3940489152423
 30
0.0
 11
172.7743426775032
 21
280.6940489152416
 31
0.0
  0
LINE
  5
992
330
1F
100
AcDbEntity
  8
外枠
 62
     0
100
AcDbLine
 10
172.7743426775032
 20
284.8940489152405
 30
0.0
 11
173.8743426775054
 21
284.8940489152405
 31
0.0
  0
LINE
  5
993
330
1F
100
AcDbEntity
  8
外枠
 62
     0
100
AcDbLine
 10
172.7743426775032
 20
286.1940489152398
 30
0.0
 11
173.8743426775054
 21
286.1940489152398
 31
0.0
  0
LINE
  5
994
330
1F
100
AcDbEntity
  8
外枠
 62
     0
100
AcDbLine
 10
172.7743426775032
 20
286.1940489152398
 30
0.0
 11
173.8743426775054
 21
286.1940489152398
 31
0.0
  0
LINE
  5
995
330
1F
100
AcDbEntity
  8
外枠
 62
     0
100
AcDbLine
 10
172.7743426775032
 20
284.8940489152405
 30
0.0
 11
173.8743426775054
 21
284.8940489152405
 31
0.0
  0
LINE
  5
996
330
1F
100
AcDbEntity
  8
外枠
 62
     0
100
AcDbLine
 10
172.7743426775032
 20
284.8940489152423
 30
0.0
 11
172.7743426775032
 21
286.1940489152416
 31
0.0
  0
LINE
  5
997
330
1F
100
AcDbEntity
  8
0
 62
     0
100
AcDbLine
 10
173.8743426775054
 20
286.1940489152398
 30
0.0
 11
173.8743426775054
 21
284.8940489152405
 31
0.0
  0
LINE
  5
998
330
1F
100
AcDbEntity
  8
0
 62
     0
100
AcDbLine
 10
173.8743426775054
 20
280.6940489152398
 30
0.0
 11
173.8743426775054
 21
279.3940489152405
 31
0.0
  0
LINE
  5
999
330
1F
100
AcDbEntity
  8
0
100
AcDbLine
 10
170.4742434775053
 20
244.5114424392918
 30
0.0
 11
170.4742434775053
 21
276.8114460392894
 31
0.0
  0
LINE
  5
99A
330
1F
100
AcDbEntity
  8
CLASS1
100
AcDbLine
 10
156.0743426775061
 20
244.5114424392918
 30
0.0
 11
156.0743426775061
 21
138.933136476849
 31
0.0
  0
LINE
  5
99B
330
1F
100
AcDbEntity
  8
0
100
AcDbLine
 10
156.0743426775061
 20
244.5114424392918
 30
0.0
 11
170.4742434775053
 21
244.5114424392918
 31
0.0
  0
LINE
  5
99C
330
1F
100
AcDbEntity
  8
0
100
AcDbLine
 10
156.0743426775061
 20
276.8114460392894
 30
0.0
 11
170.4742434775053
 21
276.8114460392894
 31
0.0
  0
LINE
  5
99D
330
1F
100
AcDbEntity
  8
0
 62
     0
100
AcDbLine
 10
156.0743426775061
 20
276.8114460392894
 30
0.0
 11
156.0743426775061
 21
291.7331364768483
 31
0.0
  0
LINE
  5
9A3
330
1F
100
AcDbEntity
  8
CLASS1
100
AcDbLine
 10
334.4485649517621
 20
133.8274604768469
 30
0.0
 11
334.4485649517621
 21
138.8287504768468
 31
0.0
  0
LINE
  5
9A4
330
1F
100
AcDbEntity
  8
CLASS1
100
AcDbLine
 10
268.8260479517623
 20
135.3054454768469
 30
0.0
 11
334.4485649517621
 21
133.8274604768469
 31
0.0
  0
LINE
  5
9A5
330
1F
100
AcDbEntity
  8
CLASS1
100
AcDbLine
 10
336.9485649517623
 20
305.3290094768467
 30
0.0
 11
336.9485649517621
 21
126.8290094768467
 31
0.0
  0
LINE
  5
9A6
330
1F
100
AcDbEntity
  8
CLASS1
100
AcDbLine
 10
288.9255632093859
 20
266.4990094768465
 30
0.0
 11
335.4485649517623
 21
267.5790094768467
 31
0.0
  0
LINE
  5
9A7
330
1F
100
AcDbEntity
  8
CLASS1
100
AcDbLine
 10
289.4255629517619
 20
266.2701184768468
 30
0.0
 11
335.4485649517623
 21
267.3290094768467
 31
0.0
  0
LINE
  5
9AE
330
1F
100
AcDbEntity
  8
CLASS1
100
AcDbLine
 10
274.9808369517627
 20
290.457911476847
 30
0.0
 11
334.4255629517624
 21
291.8256074768466
 31
0.0
  0
LINE
  5
9AF
330
1F
100
AcDbEntity
  8
CLASS1
100
AcDbLine
 10
268.8260479517625
 20
295.349475476847
 30
0.0
 11
334.4485649517623
 21
296.8274604768469
 31
0.0
  0
LINE
  5
9B0
330
1F
100
AcDbEntity
  8
CLASS1
100
AcDbLine
 10
288.737545689162
 20
164.1590094768466
 30
0.0
 11
335.4485649517621
 21
163.0790094768467
 31
0.0
  0
LINE
  5
9B1
330
1F
100
AcDbEntity
  8
CLASS1
100
AcDbLine
 10
289.4255629517619
 20
164.3879004768468
 30
0.0
 11
335.4485649517621
 21
163.3290094768467
 31
0.0
  0
LINE
  5
9B2
330
1F
100
AcDbEntity
  8
CLASS1
100
AcDbLine
 10
334.4258439517623
 20
138.8292674768467
 30
0.0
 11
274.9811169517622
 21
140.1802844768467
 31
0.0
  0
LINE
  5
9B3
330
1F
100
AcDbEntity
  8
CLASS1
100
AcDbLine
 10
287.9485649517623
 20
265.5016658071949
 30
0.0
 11
287.9485649517621
 21
165.1414360039789
 31
0.0
  0
LINE
  5
9B4
330
1F
100
AcDbEntity
  8
CLASS1
100
AcDbLine
 10
288.4485649517621
 20
165.3876354768467
 30
0.0
 11
288.4485649517623
 21
265.2703834768467
 31
0.0
  0
LINE
  5
9B5
330
1F
100
AcDbEntity
  8
CLASS1
100
AcDbLine
 10
274.0038389517626
 20
289.4581764768469
 30
0.0
 11
274.0038389517624
 21
141.1800264768469
 31
0.0
  0
LINE
  5
9B6
330
1F
100
AcDbEntity
  8
CLASS1
100
AcDbLine
 10
268.1485649517624
 20
137.8274604768469
 30
0.0
 11
268.1485649517626
 21
292.827460476847
 31
0.0
  0
LINE
  5
9B7
330
1F
100
AcDbEntity
  8
CLASS1
100
AcDbLine
 10
268.6328909517622
 20
137.8274604768469
 30
0.0
 11
268.6328909517624
 21
292.827460476847
 31
0.0
  0
LINE
  5
9B8
330
1F
100
AcDbEntity
  8
CLASS1
100
AcDbLine
 10
268.904041951762
 20
136.2814194768468
 30
0.0
 11
268.9040419517623
 21
294.3735014768468
 31
0.0
  0
ARC
  5
9B9
330
1F
100
AcDbEntity
  8
CLASS1
100
AcDbCircle
 10
268.8485649517624
 20
294.3497294768469
 30
0.0
 40
1.0
100
AcDbArc
 50
91.29022700000518
 51
180.0
  0
LINE
  5
9BA
330
1F
100
AcDbEntity
  8
CLASS1
100
AcDbLine
 10
268.6328909517624
 20
292.827460476847
 30
0.0
 11
267.8485649517624
 21
292.827460476847
 31
0.0
  0
LINE
  5
9BB
330
1F
100
AcDbEntity
  8
CLASS1
100
AcDbLine
 10
267.8485649517624
 20
294.349729476847
 30
0.0
 11
267.8485649517624
 21
292.827460476847
 31
0.0
  0
ARC
  5
9BC
330
1F
100
AcDbEntity
  8
CLASS1
100
AcDbCircle
 10
269.9040419517623
 20
294.3735014768467
 30
0.0
 40
1.0
100
AcDbArc
 50
91.29022700000518
 51
180.0
  0
ARC
  5
9BD
330
1F
100
AcDbEntity
  8
CLASS1
100
AcDbCircle
 10
275.0038389517626
 20
289.4581764768468
 30
0.0
 40
1.0
100
AcDbArc
 50
91.31802100000404
 51
180.0
  0
ARC
  5
9BE
330
1F
100
AcDbEntity
  8
CLASS1
100
AcDbCircle
 10
288.9485620913528
 20
265.4992739855204
 30
0.0
 40
1.0
100
AcDbArc
 50
91.31801900000615
 51
180.0
  0
ARC
  5
9BF
330
1F
100
AcDbEntity
  8
CLASS1
100
AcDbCircle
 10
289.4485649517623
 20
265.2703834768469
 30
0.0
 40
1.0
100
AcDbArc
 50
91.31801899999311
 51
180.0
  0
LINE
  5
9C0
330
1F
100
AcDbEntity
  8
0
100
AcDbLine
 10
267.6485649517626
 20
227.407124476847
 30
0.0
 11
267.6485649517626
 21
230.4071244768469
 31
0.0
  0
LINE
  5
9C1
330
1F
100
AcDbEntity
  8
0
100
AcDbLine
 10
267.6485649517626
 20
227.407124476847
 30
0.0
 11
268.6328909517624
 21
227.407124476847
 31
0.0
  0
LINE
  5
9C2
330
1F
100
AcDbEntity
  8
0
100
AcDbLine
 10
267.6485649517626
 20
230.4071244768469
 30
0.0
 11
268.6328909517624
 21
230.4071244768469
 31
0.0
  0
LINE
  5
9C3
330
1F
100
AcDbEntity
  8
0
100
AcDbLine
 10
267.6485649517626
 20
186.2531364768467
 30
0.0
 11
267.6485649517626
 21
189.2531364768467
 31
0.0
  0
LINE
  5
9C4
330
1F
100
AcDbEntity
  8
0
100
AcDbLine
 10
267.6485649517626
 20
186.2531364768467
 30
0.0
 11
268.6328909517624
 21
186.2531364768467
 31
0.0
  0
LINE
  5
9C5
330
1F
100
AcDbEntity
  8
0
100
AcDbLine
 10
267.6485649517626
 20
189.2531364768467
 30
0.0
 11
268.6328909517624
 21
189.2531364768467
 31
0.0
  0
LINE
  5
9C6
330
1F
100
AcDbEntity
  8
CLASS1
100
AcDbLine
 10
268.6328909517622
 20
137.8274604768469
 30
0.0
 11
267.8485649517622
 21
137.8274604768469
 31
0.0
  0
LINE
  5
9C7
330
1F
100
AcDbEntity
  8
CLASS1
100
AcDbLine
 10
267.8485649517622
 20
136.3051914768468
 30
0.0
 11
267.8485649517622
 21
137.8274604768469
 31
0.0
  0
ARC
  5
9C8
330
1F
100
AcDbEntity
  8
CLASS1
100
AcDbCircle
 10
268.848564951762
 20
136.3051914768468
 30
0.0
 40
1.0
100
AcDbArc
 50
180.0
 51
268.7097729999947
  0
ARC
  5
9C9
330
1F
100
AcDbEntity
  8
CLASS1
100
AcDbCircle
 10
269.9040419517618
 20
136.2814194768468
 30
0.0
 40
1.0
100
AcDbArc
 50
180.0
 51
268.7097729999947
  0
ARC
  5
9E4
330
1F
100
AcDbEntity
  8
CLASS1
100
AcDbCircle
 10
288.9483336435832
 20
165.1363180610494
 30
0.0
 40
0.9997817914353083
100
AcDbArc
 50
179.7066981886691
 51
257.8287710900051
  0
ARC
  5
9E5
330
1F
100
AcDbEntity
  8
CLASS1
100
AcDbCircle
 10
289.4485649517619
 20
165.3876354768469
 30
0.0
 40
1.0
100
AcDbArc
 50
180.0
 51
268.6819809999938
  0
ARC
  5
9E6
330
1F
100
AcDbEntity
  8
CLASS1
100
AcDbCircle
 10
275.0038389517622
 20
141.1800264768469
 30
0.0
 40
1.0
100
AcDbArc
 50
180.0
 51
268.6980460000064
  0
LINE
  5
9E7
330
1F
100
AcDbEntity
  8
CLASS1
100
AcDbLine
 10
335.4485649517623
 20
290.8258724768468
 30
0.0
 11
335.4485649517621
 21
139.8290094768467
 31
0.0
  0
LINE
  5
9E8
330
1F
100
AcDbEntity
  8
CLASS1
100
AcDbLine
 10
335.4485649517621
 20
163.3290094768467
 30
0.0
 11
335.4485649517623
 21
267.3290094768467
 31
0.0
  0
LINE
  5
9E9
330
1F
100
AcDbEntity
  8
CLASS1
100
AcDbLine
 10
335.4485649517621
 20
152.3260984768467
 30
0.0
 11
335.4485649517623
 21
278.3319204768468
 31
0.0
  0
LINE
  5
9EA
330
1F
100
AcDbEntity
  8
0
100
AcDbLine
 10
334.4485649517623
 20
296.8274604768469
 30
0.0
 11
334.4485649517623
 21
305.3290094768467
 31
0.0
  0
LINE
  5
9EB
330
1F
100
AcDbEntity
  8
CLASS1
100
AcDbLine
 10
334.4485649517623
 20
305.3290094768467
 30
0.0
 11
336.9485649517623
 21
305.3290094768467
 31
0.0
  0
ARC
  5
9EC
330
1F
100
AcDbEntity
  8
CLASS1
100
AcDbCircle
 10
334.4485649517623
 20
290.8258724768468
 30
0.0
 40
1.0
100
AcDbArc
 50
0.0
 51
91.31802100000404
  0
LINE
  5
9ED
330
1F
100
AcDbEntity
  8
CLASS1
100
AcDbLine
 10
325.9485649517623
 20
269.8290094768467
 30
0.0
 11
325.9485649517623
 21
275.8290094768467
 31
0.0
  0
LINE
  5
9EE
330
1F
100
AcDbEntity
  8
CLASS1
100
AcDbLine
 10
329.4485649517623
 20
269.8290094768467
 30
0.0
 11
329.4485649517623
 21
275.8290094768467
 31
0.0
  0
LINE
  5
9EF
330
1F
100
AcDbEntity
  8
CLASS1
100
AcDbLine
 10
326.9381709517622
 20
275.3290094768467
 30
0.0
 11
326.938170951762
 21
270.3290094768467
 31
0.0
  0
LINE
  5
9F0
330
1F
100
AcDbEntity
  8
CLASS1
100
AcDbLine
 10
328.9485649517623
 20
275.3290094768467
 30
0.0
 11
328.9485649517623
 21
270.3290094768467
 31
0.0
  0
LINE
  5
9F1
330
1F
100
AcDbEntity
  8
CLASS1
100
AcDbLine
 10
329.4485649517623
 20
275.3290094768467
 30
0.0
 11
329.4485649517623
 21
270.3290094768467
 31
0.0
  0
LINE
  5
9F2
330
1F
100
AcDbEntity
  8
CLASS1
100
AcDbLine
 10
334.4485649517623
 20
296.8274604768469
 30
0.0
 11
334.4485649517623
 21
291.8261364768468
 31
0.0
  0
LINE
  5
9F3
330
1F
100
AcDbEntity
  8
CLASS1
100
AcDbLine
 10
325.9485649517623
 20
275.8290094768467
 30
0.0
 11
329.4485649517623
 21
275.8290094768467
 31
0.0
  0
LINE
  5
9F4
330
1F
100
AcDbEntity
  8
CLASS1
100
AcDbLine
 10
329.4485649517623
 20
275.3290094768467
 30
0.0
 11
326.9381709517622
 21
275.3290094768467
 31
0.0
  0
LINE
  5
9F5
330
1F
100
AcDbEntity
  8
CLASS1
100
AcDbLine
 10
325.9485649517623
 20
269.8290094768467
 30
0.0
 11
329.4485649517623
 21
269.8290094768467
 31
0.0
  0
LINE
  5
9F6
330
1F
100
AcDbEntity
  8
CLASS1
100
AcDbLine
 10
326.938170951762
 20
270.3290094768467
 30
0.0
 11
329.4485649517623
 21
270.3290094768467
 31
0.0
  0
ARC
  5
A05
330
1F
100
AcDbEntity
  8
CLASS1
100
AcDbCircle
 10
334.4485649517618
 20
139.8290094768467
 30
0.0
 40
1.0
100
AcDbArc
 50
268.6980469999989
 51
0.0
  0
LINE
  5
A06
330
1F
100
AcDbEntity
  8
CLASS1
100
AcDbLine
 10
325.9485649517621
 20
160.8290094768467
 30
0.0
 11
325.9485649517621
 21
154.8290094768467
 31
0.0
  0
LINE
  5
A07
330
1F
100
AcDbEntity
  8
CLASS1
100
AcDbLine
 10
326.938170951762
 20
155.3290094768467
 30
0.0
 11
326.938170951762
 21
160.3290094768467
 31
0.0
  0
LINE
  5
A08
330
1F
100
AcDbEntity
  8
CLASS1
100
AcDbLine
 10
328.9485649517621
 20
155.3290094768467
 30
0.0
 11
328.9485649517621
 21
160.3290094768467
 31
0.0
  0
LINE
  5
A09
330
1F
100
AcDbEntity
  8
CLASS1
100
AcDbLine
 10
329.4485649517621
 20
160.8290094768467
 30
0.0
 11
329.4485649517621
 21
154.8290094768467
 31
0.0
  0
LINE
  5
A0A
330
1F
100
AcDbEntity
  8
CLASS1
100
AcDbLine
 10
329.4485649517621
 20
155.3290094768467
 30
0.0
 11
329.4485649517621
 21
160.3290094768467
 31
0.0
  0
LINE
  5
A0B
330
1F
100
AcDbEntity
  8
CLASS1
100
AcDbLine
 10
325.9485649517621
 20
154.8290094768467
 30
0.0
 11
329.4485649517621
 21
154.8290094768467
 31
0.0
  0
LINE
  5
A0C
330
1F
100
AcDbEntity
  8
CLASS1
100
AcDbLine
 10
325.9485649517621
 20
160.8290094768467
 30
0.0
 11
329.4485649517621
 21
160.8290094768467
 31
0.0
  0
LINE
  5
A0D
330
1F
100
AcDbEntity
  8
CLASS1
100
AcDbLine
 10
326.938170951762
 20
160.3290094768467
 30
0.0
 11
329.4485649517621
 21
160.3290094768467
 31
0.0
  0
LINE
  5
A0E
330
1F
100
AcDbEntity
  8
CLASS1
100
AcDbLine
 10
329.4485649517621
 20
155.3290094768467
 30
0.0
 11
326.938170951762
 21
155.3290094768467
 31
0.0
  0
LINE
  5
A0F
330
1F
100
AcDbEntity
  8
CLASS1
100
AcDbLine
 10
334.4485649517621
 20
126.8290094768467
 30
0.0
 11
336.9485649517621
 21
126.8290094768467
 31
0.0
  0
LINE
  5
A10
330
1F
100
AcDbEntity
  8
0
100
AcDbLine
 10
334.4485649517621
 20
126.8290094768467
 30
0.0
 11
334.4485649517621
 21
133.8274604768469
 31
0.0
  0
LINE
  5
A13
330
1F
100
AcDbEntity
  8
CLASS1
  6
CONTINUOUS
 62
     0
100
AcDbLine
 10
163.9740593649585
 20
35.09999869906778
 30
0.0
 11
163.9740593649585
 21
33.09999869906778
 31
0.0
  0
LINE
  5
A14
330
1F
100
AcDbEntity
  8
CLASS1
  6
CONTINUOUS
 62
     0
100
AcDbLine
 10
162.4740593649585
 20
35.09999869906778
 30
0.0
 11
162.4740593649585
 21
33.09999869906778
 31
0.0
  0
LINE
  5
A15
330
1F
100
AcDbEntity
  8
CLASS1
  6
CONTINUOUS
 62
     0
100
AcDbLine
 10
175.4740593649585
 20
35.89999869906751
 30
0.0
 11
175.4740593649585
 21
25.89999869906751
 31
0.0
  0
LINE
  5
A16
330
1F
100
AcDbEntity
  8
CLASS1
  6
CONTINUOUS
 62
     0
100
AcDbLine
 10
165.4740593649585
 20
25.89999869906751
 30
0.0
 11
165.4740593649585
 21
35.89999869906751
 31
0.0
  0
LINE
  5
A17
330
1F
100
AcDbEntity
  8
CLASS1
  6
CONTINUOUS
 62
     0
100
AcDbLine
 10
166.9740593649585
 20
27.8999986990675
 30
0.0
 11
166.9740593649585
 21
33.89999869906751
 31
0.0
  0
LINE
  5
A18
330
1F
100
AcDbEntity
  8
CLASS1
  6
CONTINUOUS
 62
     0
100
AcDbLine
 10
173.9740593649585
 20
33.89999869906751
 30
0.0
 11
173.9740593649585
 21
27.8999986990675
 31
0.0
  0
LINE
  5
A19
330
1F
100
AcDbEntity
  8
CLASS1
  6
CONTINUOUS
 62
     0
100
AcDbLine
 10
185.0589343649585
 20
61.96012469906759
 30
0.0
 11
185.9744603649583
 21
2.515397699067534
 31
0.0
  0
LINE
  5
A1A
330
1F
100
AcDbEntity
  8
CLASS1
  6
CONTINUOUS
 62
     0
100
AcDbLine
 10
151.8891833649584
 20
61.96012469906759
 30
0.0
 11
150.9736583649582
 21
2.515397699067534
 31
0.0
  0
LINE
  5
A1B
330
1F
100
AcDbEntity
  8
CLASS1
  6
CONTINUOUS
 62
     0
100
AcDbLine
 10
178.5604903649584
 20
61.79658369906769
 30
0.0
 11
179.4737343649585
 21
2.499998699067646
 31
0.0
  0
LINE
  5
A1C
330
1F
100
AcDbEntity
  8
CLASS1
  6
CONTINUOUS
 62
     0
100
AcDbLine
 10
158.3876593649583
 20
61.7985936990674
 30
0.0
 11
157.4743843649585
 21
2.499998699067646
 31
0.0
  0
LINE
  5
A1D
330
1F
100
AcDbEntity
  8
CLASS1
  6
CONTINUOUS
 62
     0
100
AcDbLine
 10
182.9779577867657
 20
68.19007112518829
 30
0.0
 11
183.9742683649583
 21
2.499998699067646
 31
0.0
  0
LINE
  5
A1E
330
1F
100
AcDbEntity
  8
CLASS1
  6
CONTINUOUS
 62
     0
100
AcDbLine
 10
153.9701609431513
 20
68.19007212518818
 30
0.0
 11
152.9738503649584
 21
2.499998699067646
 31
0.0
  0
INSERT
  5
A1F
330
1F
100
AcDbEntity
  8
0
100
AcDbBlockReference
  2
A$C51C20FFB
 10
152.9742683649583
 20
0.0000000363897925
 30
0.0
  0
LINE
  5
A20
330
1F
100
AcDbEntity
  8
CLASS1
  6
CONTINUOUS
 62
     0
100
AcDbLine
 10
152.9738503649584
 20
2.499998699067646
 30
0.0
 11
183.9742683649583
 21
2.499998699067646
 31
0.0
  0
LINE
  5
A21
330
1F
100
AcDbEntity
  8
CLASS1
  6
CONTINUOUS
 62
     0
100
AcDbLine
 10
183.9742683649583
 20
1.499998699067646
 30
0.0
 11
184.9745793649585
 21
1.499998699067646
 31
0.0
  0
ARC
  5
A22
330
1F
100
AcDbEntity
  8
CLASS1
  6
CONTINUOUS
 62
     0
100
AcDbCircle
 10
184.9745793649585
 20
2.499998699067873
 30
0.0
 40
1.0
100
AcDbArc
 50
270.0
 51
0.8823590000053707
  0
LINE
  5
A23
330
1F
100
AcDbEntity
  8
CLASS1
  6
CONTINUOUS
 62
     0
100
AcDbLine
 10
183.9742683649583
 20
1.499998699067646
 30
0.0
 11
183.9742683649583
 21
2.499998699067646
 31
0.0
  0
LINE
  5
A24
330
1F
100
AcDbEntity
  8
CLASS1
  6
CONTINUOUS
 62
     0
100
AcDbLine
 10
173.4740593649585
 20
27.39999869906751
 30
0.0
 11
167.4740593649585
 21
27.39999869906751
 31
0.0
  0
LINE
  5
A25
330
1F
100
AcDbEntity
  8
CLASS1
  6
CONTINUOUS
 62
     0
100
AcDbLine
 10
175.4740593649585
 20
25.89999869906751
 30
0.0
 11
165.4740593649585
 21
25.89999869906751
 31
0.0
  0
LINE
  5
A26
330
1F
100
AcDbEntity
  8
CLASS1
  6
CONTINUOUS
 62
     0
100
AcDbLine
 10
174.4740593649585
 20
23.09999869906778
 30
0.0
 11
162.4740593649585
 21
23.09999869906778
 31
0.0
  0
LINE
  5
A27
330
1F
100
AcDbEntity
  8
CLASS1
  6
CONTINUOUS
 62
     0
100
AcDbLine
 10
162.4740593649585
 20
21.09999869906778
 30
0.0
 11
174.4740593649585
 21
21.09999869906778
 31
0.0
  0
LINE
  5
A28
330
1F
100
AcDbEntity
  8
CLASS1
  6
CONTINUOUS
 62
     0
100
AcDbLine
 10
174.4740593649585
 20
19.09999869906778
 30
0.0
 11
162.4740593649585
 21
19.09999869906778
 31
0.0
  0
LINE
  5
A29
330
1F
100
AcDbEntity
  8
CLASS1
  6
CONTINUOUS
 62
     0
100
AcDbLine
 10
162.4740593649585
 20
17.09999869906778
 30
0.0
 11
174.4740593649585
 21
17.09999869906778
 31
0.0
  0
LINE
  5
A2A
330
1F
100
AcDbEntity
  8
CLASS1
  6
CONTINUOUS
 62
     0
100
AcDbLine
 10
174.4740593649585
 20
11.09999869906778
 30
0.0
 11
162.4740593649585
 21
11.09999869906778
 31
0.0
  0
LINE
  5
A2B
330
1F
100
AcDbEntity
  8
CLASS1
  6
CONTINUOUS
 62
     0
100
AcDbLine
 10
162.4740593649585
 20
13.09999869906778
 30
0.0
 11
174.4740593649585
 21
13.09999869906778
 31
0.0
  0
LINE
  5
A2C
330
1F
100
AcDbEntity
  8
CLASS1
  6
CONTINUOUS
 62
     0
100
AcDbLine
 10
174.4740593649585
 20
15.09999869906778
 30
0.0
 11
162.4740593649585
 21
15.09999869906778
 31
0.0
  0
LINE
  5
A2D
330
1F
100
AcDbEntity
  8
CLASS1
  6
CONTINUOUS
 62
     0
100
AcDbLine
 10
162.4740593649585
 20
9.099998699067782
 30
0.0
 11
174.4740593649585
 21
9.099998699067782
 31
0.0
  0
LINE
  5
A2E
330
1F
100
AcDbEntity
  8
CLASS1
  6
CONTINUOUS
 62
     0
100
AcDbLine
 10
174.4740593649585
 20
17.09999869906778
 30
0.0
 11
174.4740593649585
 21
19.09999869906778
 31
0.0
  0
LINE
  5
A2F
330
1F
100
AcDbEntity
  8
CLASS1
  6
CONTINUOUS
 62
     0
100
AcDbLine
 10
174.4740593649585
 20
13.09999869906778
 30
0.0
 11
174.4740593649585
 21
15.09999869906778
 31
0.0
  0
LINE
  5
A30
330
1F
100
AcDbEntity
  8
CLASS1
  6
CONTINUOUS
 62
     0
100
AcDbLine
 10
174.4740593649585
 20
9.099998699067782
 30
0.0
 11
174.4740593649585
 21
11.09999869906778
 31
0.0
  0
LINE
  5
A31
330
1F
100
AcDbEntity
  8
CLASS1
  6
CONTINUOUS
 62
     0
100
AcDbLine
 10
175.4740593649585
 20
30.14999869906751
 30
0.0
 11
173.9740593649585
 21
30.14999869906751
 31
0.0
  0
LINE
  5
A32
330
1F
100
AcDbEntity
  8
CLASS1
  6
CONTINUOUS
 62
     0
100
AcDbLine
 10
175.4740593649585
 20
31.6499986990675
 30
0.0
 11
173.9740593649585
 21
31.6499986990675
 31
0.0
  0
ARC
  5
A33
330
1F
100
AcDbEntity
  8
CLASS1
  6
CONTINUOUS
 62
     0
100
AcDbCircle
 10
173.4740593649585
 20
27.89999869906774
 30
0.0
 40
0.5
100
AcDbArc
 50
270.0
 51
0.0
  0
LINE
  5
A34
330
1F
100
AcDbEntity
  8
CLASS1
  6
CONTINUOUS
 62
     0
100
AcDbLine
 10
174.4740593649585
 20
21.09999869906778
 30
0.0
 11
174.4740593649585
 21
23.09999869906778
 31
0.0
  0
LINE
  5
A35
330
1F
100
AcDbEntity
  8
CLASS1
  6
CONTINUOUS
 62
     0
100
AcDbLine
 10
162.4740593649585
 20
19.09999869906778
 30
0.0
 11
162.4740593649585
 21
17.09999869906778
 31
0.0
  0
LINE
  5
A36
330
1F
100
AcDbEntity
  8
CLASS1
  6
CONTINUOUS
 62
     0
100
AcDbLine
 10
162.4740593649585
 20
15.09999869906778
 30
0.0
 11
162.4740593649585
 21
13.09999869906778
 31
0.0
  0
LINE
  5
A37
330
1F
100
AcDbEntity
  8
CLASS1
  6
CONTINUOUS
 62
     0
100
AcDbLine
 10
162.4740593649585
 20
11.09999869906778
 30
0.0
 11
162.4740593649585
 21
9.099998699067782
 31
0.0
  0
LINE
  5
A38
330
1F
100
AcDbEntity
  8
CLASS1
  6
CONTINUOUS
 62
     0
100
AcDbLine
 10
162.4740593649585
 20
33.09999869906778
 30
0.0
 11
163.9740593649585
 21
33.09999869906778
 31
0.0
  0
LINE
  5
A39
330
1F
100
AcDbEntity
  8
CLASS1
  6
CONTINUOUS
 62
     0
100
AcDbLine
 10
162.4740593649585
 20
31.09999869906778
 30
0.0
 11
162.4740593649585
 21
29.09999869906778
 31
0.0
  0
LINE
  5
A3A
330
1F
100
AcDbEntity
  8
CLASS1
  6
CONTINUOUS
 62
     0
100
AcDbLine
 10
163.9740593649585
 20
31.09999869906778
 30
0.0
 11
163.9740593649585
 21
29.09999869906778
 31
0.0
  0
LINE
  5
A3B
330
1F
100
AcDbEntity
  8
CLASS1
  6
CONTINUOUS
 62
     0
100
AcDbLine
 10
162.4740593649585
 20
29.09999869906778
 30
0.0
 11
163.9740593649585
 21
29.09999869906778
 31
0.0
  0
LINE
  5
A3C
330
1F
100
AcDbEntity
  8
CLASS1
  6
CONTINUOUS
 62
     0
100
AcDbLine
 10
163.9740593649585
 20
31.09999869906778
 30
0.0
 11
162.4740593649585
 21
31.09999869906778
 31
0.0
  0
LINE
  5
A3D
330
1F
100
AcDbEntity
  8
CLASS1
  6
CONTINUOUS
 62
     0
100
AcDbLine
 10
166.9740593649585
 20
30.14999869906751
 30
0.0
 11
165.4740593649585
 21
30.14999869906751
 31
0.0
  0
LINE
  5
A3E
330
1F
100
AcDbEntity
  8
CLASS1
  6
CONTINUOUS
 62
     0
100
AcDbLine
 10
166.9740593649585
 20
31.6499986990675
 30
0.0
 11
165.4740593649585
 21
31.6499986990675
 31
0.0
  0
ARC
  5
A3F
330
1F
100
AcDbEntity
  8
CLASS1
  6
CONTINUOUS
 62
     0
100
AcDbCircle
 10
167.4740593649585
 20
27.89999869906774
 30
0.0
 40
0.5
100
AcDbArc
 50
180.0
 51
270.0
  0
LINE
  5
A40
330
1F
100
AcDbEntity
  8
CLASS1
  6
CONTINUOUS
 62
     0
100
AcDbLine
 10
162.4740593649585
 20
27.09999869906778
 30
0.0
 11
162.4740593649585
 21
25.09999869906778
 31
0.0
  0
LINE
  5
A41
330
1F
100
AcDbEntity
  8
CLASS1
  6
CONTINUOUS
 62
     0
100
AcDbLine
 10
163.9740593649585
 20
27.09999869906778
 30
0.0
 11
163.9740593649585
 21
25.09999869906778
 31
0.0
  0
LINE
  5
A42
330
1F
100
AcDbEntity
  8
CLASS1
  6
CONTINUOUS
 62
     0
100
AcDbLine
 10
163.9740593649585
 20
27.09999869906778
 30
0.0
 11
162.4740593649585
 21
27.09999869906778
 31
0.0
  0
LINE
  5
A43
330
1F
100
AcDbEntity
  8
CLASS1
  6
CONTINUOUS
 62
     0
100
AcDbLine
 10
162.4740593649585
 20
25.09999869906778
 30
0.0
 11
163.9740593649585
 21
25.09999869906778
 31
0.0
  0
LINE
  5
A44
330
1F
100
AcDbEntity
  8
CLASS1
  6
CONTINUOUS
 62
     0
100
AcDbLine
 10
162.4740593649585
 20
23.09999869906778
 30
0.0
 11
162.4740593649585
 21
21.09999869906778
 31
0.0
  0
LINE
  5
A45
330
1F
100
AcDbEntity
  8
CLASS1
  6
CONTINUOUS
 62
     0
100
AcDbLine
 10
152.9738503649584
 20
1.499998699067646
 30
0.0
 11
151.9735403649583
 21
1.499998699067646
 31
0.0
  0
LINE
  5
A46
330
1F
100
AcDbEntity
  8
CLASS1
  6
CONTINUOUS
 62
     0
100
AcDbLine
 10
152.9738503649584
 20
2.499998699067646
 30
0.0
 11
152.9738503649584
 21
1.499998699067646
 31
0.0
  0
ARC
  5
A47
330
1F
100
AcDbEntity
  8
CLASS1
  6
CONTINUOUS
 62
     0
100
AcDbCircle
 10
151.9735403649583
 20
2.499998699067873
 30
0.0
 40
1.0
100
AcDbArc
 50
179.1176409999946
 51
270.0
  0
LINE
  5
A48
330
1F
100
AcDbEntity
  8
CLASS1
  6
CONTINUOUS
 62
     0
100
AcDbLine
 10
184.0590523649584
 20
62.94472469906736
 30
0.0
 11
183.0433403649585
 21
62.94472469906736
 31
0.0
  0
ARC
  5
A49
330
1F
100
AcDbEntity
  8
CLASS1
  6
CONTINUOUS
 62
     0
100
AcDbCircle
 10
184.0590523649584
 20
61.94472469906759
 30
0.0
 40
1.0
100
AcDbArc
 50
0.8823590000053707
 51
90.0
  0
ARC
  5
A4A
330
1F
100
AcDbEntity
  8
CLASS1
  6
CONTINUOUS
 62
     0
100
AcDbCircle
 10
160.3873903649585
 20
61.76578469906781
 30
0.0
 40
2.0
100
AcDbArc
 50
94.73325899999677
 51
179.1176409999946
  0
LINE
  5
A4B
330
1F
100
AcDbEntity
  8
CLASS1
  6
CONTINUOUS
 62
     0
100
AcDbLine
 10
162.4740593649585
 20
57.09999869906778
 30
0.0
 11
174.4740593649585
 21
57.09999869906778
 31
0.0
  0
LINE
  5
A4C
330
1F
100
AcDbEntity
  8
CLASS1
  6
CONTINUOUS
 62
     0
100
AcDbLine
 10
174.4740593649585
 20
59.09999869906778
 30
0.0
 11
162.4740593649585
 21
59.09999869906778
 31
0.0
  0
LINE
  5
A4D
330
1F
100
AcDbEntity
  8
CLASS1
  6
CONTINUOUS
 62
     0
100
AcDbLine
 10
174.4740593649585
 20
55.09999869906778
 30
0.0
 11
162.4740593649585
 21
55.09999869906778
 31
0.0
  0
LINE
  5
A4E
330
1F
100
AcDbEntity
  8
CLASS1
  6
CONTINUOUS
 62
     0
100
AcDbLine
 10
162.4740593649585
 20
53.09999869906778
 30
0.0
 11
174.4740593649585
 21
53.09999869906778
 31
0.0
  0
LINE
  5
A4F
330
1F
100
AcDbEntity
  8
CLASS1
  6
CONTINUOUS
 62
     0
100
AcDbLine
 10
174.4740593649585
 20
51.09999869906778
 30
0.0
 11
162.4740593649585
 21
51.09999869906778
 31
0.0
  0
LINE
  5
A50
330
1F
100
AcDbEntity
  8
CLASS1
  6
CONTINUOUS
 62
     0
100
AcDbLine
 10
162.4740593649585
 20
49.09999869906778
 30
0.0
 11
174.4740593649585
 21
49.09999869906778
 31
0.0
  0
LINE
  5
A51
330
1F
100
AcDbEntity
  8
CLASS1
  6
CONTINUOUS
 62
     0
100
AcDbLine
 10
174.4740593649585
 20
43.09999869906778
 30
0.0
 11
162.4740593649585
 21
43.09999869906778
 31
0.0
  0
LINE
  5
A52
330
1F
100
AcDbEntity
  8
CLASS1
  6
CONTINUOUS
 62
     0
100
AcDbLine
 10
162.4740593649585
 20
45.09999869906778
 30
0.0
 11
174.4740593649585
 21
45.09999869906778
 31
0.0
  0
LINE
  5
A53
330
1F
100
AcDbEntity
  8
CLASS1
  6
CONTINUOUS
 62
     0
100
AcDbLine
 10
174.4740593649585
 20
47.09999869906778
 30
0.0
 11
162.4740593649585
 21
47.09999869906778
 31
0.0
  0
LINE
  5
A54
330
1F
100
AcDbEntity
  8
CLASS1
  6
CONTINUOUS
 62
     0
100
AcDbLine
 10
162.4740593649585
 20
41.09999869906778
 30
0.0
 11
174.4740593649585
 21
41.09999869906778
 31
0.0
  0
LINE
  5
A55
330
1F
100
AcDbEntity
  8
CLASS1
  6
CONTINUOUS
 62
     0
100
AcDbLine
 10
165.4740593649585
 20
35.89999869906751
 30
0.0
 11
175.4740593649585
 21
35.89999869906751
 31
0.0
  0
LINE
  5
A56
330
1F
100
AcDbEntity
  8
CLASS1
  6
CONTINUOUS
 62
     0
100
AcDbLine
 10
162.4740593649585
 20
37.09999869906778
 30
0.0
 11
174.4740593649585
 21
37.09999869906778
 31
0.0
  0
LINE
  5
A57
330
1F
100
AcDbEntity
  8
CLASS1
  6
CONTINUOUS
 62
     0
100
AcDbLine
 10
174.4740593649585
 20
39.09999869906778
 30
0.0
 11
162.4740593649585
 21
39.09999869906778
 31
0.0
  0
LINE
  5
A58
330
1F
100
AcDbEntity
  8
CLASS1
  6
CONTINUOUS
 62
     0
100
AcDbLine
 10
167.4740593649585
 20
34.39999869906751
 30
0.0
 11
173.4740593649585
 21
34.39999869906751
 31
0.0
  0
LINE
  5
A59
330
1F
100
AcDbEntity
  8
CLASS1
  6
CONTINUOUS
 62
     0
100
AcDbLine
 10
174.4740593649585
 20
45.09999869906778
 30
0.0
 11
174.4740593649585
 21
47.09999869906778
 31
0.0
  0
LINE
  5
A5A
330
1F
100
AcDbEntity
  8
CLASS1
  6
CONTINUOUS
 62
     0
100
AcDbLine
 10
174.4740593649585
 20
37.09999869906778
 30
0.0
 11
174.4740593649585
 21
39.09999869906778
 31
0.0
  0
ARC
  5
A5B
330
1F
100
AcDbEntity
  8
CLASS1
  6
CONTINUOUS
 62
     0
100
AcDbCircle
 10
173.4740593649585
 20
33.89999869906773
 30
0.0
 40
0.5
100
AcDbArc
 50
0.0
 51
90.0
  0
LINE
  5
A5C
330
1F
100
AcDbEntity
  8
CLASS1
  6
CONTINUOUS
 62
     0
100
AcDbLine
 10
174.4740593649585
 20
41.09999869906778
 30
0.0
 11
174.4740593649585
 21
43.09999869906778
 31
0.0
  0
LINE
  5
A5D
330
1F
100
AcDbEntity
  8
CLASS1
  6
CONTINUOUS
 62
     0
100
AcDbLine
 10
174.4740593649585
 20
57.09999869906778
 30
0.0
 11
174.4740593649585
 21
59.09999869906778
 31
0.0
  0
LINE
  5
A5E
330
1F
100
AcDbEntity
  8
CLASS1
  6
CONTINUOUS
 62
     0
100
AcDbLine
 10
174.4740593649585
 20
49.09999869906778
 30
0.0
 11
174.4740593649585
 21
51.09999869906778
 31
0.0
  0
LINE
  5
A5F
330
1F
100
AcDbEntity
  8
CLASS1
  6
CONTINUOUS
 62
     0
100
AcDbLine
 10
174.4740593649585
 20
53.09999869906778
 30
0.0
 11
174.4740593649585
 21
55.09999869906778
 31
0.0
  0
LINE
  5
A60
330
1F
100
AcDbEntity
  8
CLASS1
  6
CONTINUOUS
 62
     0
100
AcDbLine
 10
162.4740593649585
 20
47.09999869906778
 30
0.0
 11
162.4740593649585
 21
45.09999869906778
 31
0.0
  0
LINE
  5
A61
330
1F
100
AcDbEntity
  8
CLASS1
  6
CONTINUOUS
 62
     0
100
AcDbLine
 10
162.4740593649585
 20
39.09999869906778
 30
0.0
 11
162.4740593649585
 21
37.09999869906778
 31
0.0
  0
ARC
  5
A62
330
1F
100
AcDbEntity
  8
CLASS1
  6
CONTINUOUS
 62
     0
100
AcDbCircle
 10
167.4740593649585
 20
33.89999869906773
 30
0.0
 40
0.5
100
AcDbArc
 50
90.0
 51
180.0
  0
LINE
  5
A63
330
1F
100
AcDbEntity
  8
CLASS1
  6
CONTINUOUS
 62
     0
100
AcDbLine
 10
163.9740593649585
 20
35.09999869906778
 30
0.0
 11
162.4740593649585
 21
35.09999869906778
 31
0.0
  0
LINE
  5
A64
330
1F
100
AcDbEntity
  8
CLASS1
  6
CONTINUOUS
 62
     0
100
AcDbLine
 10
162.4740593649585
 20
43.09999869906778
 30
0.0
 11
162.4740593649585
 21
41.09999869906778
 31
0.0
  0
LINE
  5
A65
330
1F
100
AcDbEntity
  8
CLASS1
  6
CONTINUOUS
 62
     0
100
AcDbLine
 10
162.4740593649585
 20
59.09999869906778
 30
0.0
 11
162.4740593649585
 21
57.09999869906778
 31
0.0
  0
LINE
  5
A66
330
1F
100
AcDbEntity
  8
CLASS1
  6
CONTINUOUS
 62
     0
100
AcDbLine
 10
162.4740593649585
 20
51.09999869906778
 30
0.0
 11
162.4740593649585
 21
49.09999869906778
 31
0.0
  0
LINE
  5
A67
330
1F
100
AcDbEntity
  8
CLASS1
  6
CONTINUOUS
 62
     0
100
AcDbLine
 10
162.4740593649585
 20
55.09999869906778
 30
0.0
 11
162.4740593649585
 21
53.09999869906778
 31
0.0
  0
ARC
  5
A68
330
1F
100
AcDbEntity
  8
CLASS1
  6
CONTINUOUS
 62
     0
100
AcDbCircle
 10
168.4740593649585
 20
-35.90000130093221
 30
0.0
 40
100.0
100
AcDbArc
 50
85.2667410000032
 51
94.73325899999677
  0
ARC
  5
A69
330
1F
100
AcDbEntity
  8
CLASS1
  6
CONTINUOUS
 62
     0
100
AcDbCircle
 10
176.5607263649585
 20
61.76578569906769
 30
0.0
 40
2.0
100
AcDbArc
 50
0.8823600000015774
 51
85.2667410000032
  0
LINE
  5
A6A
330
1F
100
AcDbEntity
  8
CLASS1
  6
CONTINUOUS
 62
     0
100
AcDbLine
 10
152.8890653649584
 20
62.94472469906736
 30
0.0
 11
153.9047763649584
 21
62.94472469906736
 31
0.0
  0
ARC
  5
A6B
330
1F
100
AcDbEntity
  8
CLASS1
  6
CONTINUOUS
 62
     0
100
AcDbCircle
 10
152.8890653649584
 20
61.94472469906759
 30
0.0
 40
1.0
100
AcDbArc
 50
90.0
 51
179.1176409999946
  0
LINE
  5
A6C
330
1F
100
AcDbEntity
  8
CLASS1
  6
CONTINUOUS
 62
     0
100
AcDbLine
 10
152.9738512376181
 20
435.3181792989901
 30
0.0
 11
183.974269237618
 21
435.3181792989901
 31
0.0
  0
INSERT
  5
A6D
330
1F
100
AcDbEntity
  8
0
100
AcDbBlockReference
  2
A$C51C20FFB
 10
183.974269237618
 20
438.8181779616681
 30
0.0
 50
180.0
  0
LINE
  5
A6E
330
1F
100
AcDbEntity
  8
CLASS1
  6
CONTINUOUS
 62
     0
100
AcDbLine
 10
178.560492237618
 20
376.02159429899
 30
0.0
 11
179.473735237618
 21
435.3181792989901
 31
0.0
  0
LINE
  5
A6F
330
1F
100
AcDbEntity
  8
CLASS1
  6
CONTINUOUS
 62
     0
100
AcDbLine
 10
185.0589362376181
 20
375.8580532989901
 30
0.0
 11
185.974461237618
 21
435.3027802989902
 31
0.0
  0
LINE
  5
A70
330
1F
100
AcDbEntity
  8
CLASS1
  6
CONTINUOUS
 62
     0
100
AcDbLine
 10
182.977959237618
 20
370.6281052989904
 30
0.0
 11
183.974269237618
 21
435.3181792989901
 31
0.0
  0
ARC
  5
A71
330
1F
100
AcDbEntity
  8
CLASS1
  6
CONTINUOUS
 62
     0
100
AcDbCircle
 10
184.0590542376178
 20
375.8734532989904
 30
0.0
 40
1.0
100
AcDbArc
 50
270.0
 51
359.1176409999945
  0
LINE
  5
A72
330
1F
100
AcDbEntity
  8
CLASS1
  6
CONTINUOUS
 62
     0
100
AcDbLine
 10
184.059054237618
 20
374.8734532989904
 30
0.0
 11
183.0433422376181
 21
374.8734532989904
 31
0.0
  0
ARC
  5
A73
330
1F
100
AcDbEntity
  8
CLASS1
  6
CONTINUOUS
 62
     0
100
AcDbCircle
 10
184.9745802376178
 20
435.3181792989901
 30
0.0
 40
1.0
100
AcDbArc
 50
359.1176409999945
 51
90.0
  0
LINE
  5
A74
330
1F
100
AcDbEntity
  8
CLASS1
  6
CONTINUOUS
 62
     0
100
AcDbLine
 10
183.974269237618
 20
436.3181792989901
 30
0.0
 11
183.974269237618
 21
435.3181792989901
 31
0.0
  0
LINE
  5
A75
330
1F
100
AcDbEntity
  8
CLASS1
  6
CONTINUOUS
 62
     0
100
AcDbLine
 10
183.974269237618
 20
436.3181792989901
 30
0.0
 11
184.974580237618
 21
436.3181792989901
 31
0.0
  0
LINE
  5
A76
330
1F
100
AcDbEntity
  8
CLASS1
  6
CONTINUOUS
 62
     0
100
AcDbLine
 10
162.474060237618
 20
391.7181792989902
 30
0.0
 11
162.474060237618
 21
393.7181792989902
 31
0.0
  0
LINE
  5
A77
330
1F
100
AcDbEntity
  8
CLASS1
  6
CONTINUOUS
 62
     0
100
AcDbLine
 10
174.474060237618
 20
393.7181792989902
 30
0.0
 11
174.474060237618
 21
391.7181792989902
 31
0.0
  0
LINE
  5
A78
330
1F
100
AcDbEntity
  8
CLASS1
  6
CONTINUOUS
 62
     0
100
AcDbLine
 10
151.889185237618
 20
375.8580532989901
 30
0.0
 11
150.9736592376182
 21
435.3027802989902
 31
0.0
  0
LINE
  5
A79
330
1F
100
AcDbEntity
  8
CLASS1
  6
CONTINUOUS
 62
     0
100
AcDbLine
 10
158.3876302376181
 20
376.02159429899
 30
0.0
 11
157.4743852376179
 21
435.3181792989901
 31
0.0
  0
LINE
  5
A7A
330
1F
100
AcDbEntity
  8
CLASS1
  6
CONTINUOUS
 62
     0
100
AcDbLine
 10
153.9701892376181
 20
370.6264262989904
 30
0.0
 11
152.9738512376181
 21
435.3181792989901
 31
0.0
  0
ARC
  5
A7B
330
1F
100
AcDbEntity
  8
CLASS1
  6
CONTINUOUS
 62
     0
100
AcDbCircle
 10
160.3873932376179
 20
376.0523922989903
 30
0.0
 40
2.0
100
AcDbArc
 50
180.8823600000015
 51
265.2667410000032
  0
LINE
  5
A7C
330
1F
100
AcDbEntity
  8
CLASS1
  6
CONTINUOUS
 62
     0
100
AcDbLine
 10
174.474060237618
 20
391.7181792989902
 30
0.0
 11
162.474060237618
 21
391.7181792989902
 31
0.0
  0
LINE
  5
A7D
330
1F
100
AcDbEntity
  8
CLASS1
  6
CONTINUOUS
 62
     0
100
AcDbLine
 10
174.474060237618
 20
387.7181792989901
 30
0.0
 11
162.474060237618
 21
387.7181792989901
 31
0.0
  0
LINE
  5
A7E
330
1F
100
AcDbEntity
  8
CLASS1
  6
CONTINUOUS
 62
     0
100
AcDbLine
 10
162.474060237618
 20
389.7181792989901
 30
0.0
 11
174.474060237618
 21
389.7181792989901
 31
0.0
  0
LINE
  5
A7F
330
1F
100
AcDbEntity
  8
CLASS1
  6
CONTINUOUS
 62
     0
100
AcDbLine
 10
162.474060237618
 20
385.7181792989902
 30
0.0
 11
174.474060237618
 21
385.7181792989902
 31
0.0
  0
LINE
  5
A80
330
1F
100
AcDbEntity
  8
CLASS1
  6
CONTINUOUS
 62
     0
100
AcDbLine
 10
174.474060237618
 20
383.7181792989902
 30
0.0
 11
162.474060237618
 21
383.7181792989902
 31
0.0
  0
LINE
  5
A81
330
1F
100
AcDbEntity
  8
CLASS1
  6
CONTINUOUS
 62
     0
100
AcDbLine
 10
162.474060237618
 20
381.7181792989902
 30
0.0
 11
174.474060237618
 21
381.7181792989902
 31
0.0
  0
LINE
  5
A82
330
1F
100
AcDbEntity
  8
CLASS1
  6
CONTINUOUS
 62
     0
100
AcDbLine
 10
174.474060237618
 20
379.7181792989902
 30
0.0
 11
162.474060237618
 21
379.7181792989902
 31
0.0
  0
ARC
  5
A83
330
1F
100
AcDbEntity
  8
CLASS1
  6
CONTINUOUS
 62
     0
100
AcDbCircle
 10
168.4740602376182
 20
473.7181792989901
 30
0.0
 40
100.0
100
AcDbArc
 50
265.2667410000032
 51
274.7332589999968
  0
ARC
  5
A84
330
1F
100
AcDbEntity
  8
CLASS1
  6
CONTINUOUS
 62
     0
100
AcDbCircle
 10
176.5607292376178
 20
376.0523932989901
 30
0.0
 40
2.0
100
AcDbArc
 50
274.7332589999968
 51
359.1176409999945
  0
LINE
  5
A85
330
1F
100
AcDbEntity
  8
CLASS1
  6
CONTINUOUS
 62
     0
100
AcDbLine
 10
174.474060237618
 20
389.7181792989901
 30
0.0
 11
174.474060237618
 21
387.7181792989901
 31
0.0
  0
LINE
  5
A86
330
1F
100
AcDbEntity
  8
CLASS1
  6
CONTINUOUS
 62
     0
100
AcDbLine
 10
174.474060237618
 20
385.7181792989902
 30
0.0
 11
174.474060237618
 21
383.7181792989902
 31
0.0
  0
LINE
  5
A87
330
1F
100
AcDbEntity
  8
CLASS1
  6
CONTINUOUS
 62
     0
100
AcDbLine
 10
174.474060237618
 20
381.7181792989902
 30
0.0
 11
174.474060237618
 21
379.7181792989902
 31
0.0
  0
LINE
  5
A88
330
1F
100
AcDbEntity
  8
CLASS1
  6
CONTINUOUS
 62
     0
100
AcDbLine
 10
162.474060237618
 20
387.7181792989901
 30
0.0
 11
162.474060237618
 21
389.7181792989901
 31
0.0
  0
LINE
  5
A89
330
1F
100
AcDbEntity
  8
CLASS1
  6
CONTINUOUS
 62
     0
100
AcDbLine
 10
162.474060237618
 20
383.7181792989902
 30
0.0
 11
162.474060237618
 21
385.7181792989902
 31
0.0
  0
LINE
  5
A8A
330
1F
100
AcDbEntity
  8
CLASS1
  6
CONTINUOUS
 62
     0
100
AcDbLine
 10
162.474060237618
 20
379.7181792989902
 30
0.0
 11
162.474060237618
 21
381.7181792989902
 31
0.0
  0
ARC
  5
A8B
330
1F
100
AcDbEntity
  8
CLASS1
  6
CONTINUOUS
 62
     0
100
AcDbCircle
 10
152.8890672376178
 20
375.8734532989904
 30
0.0
 40
1.0
100
AcDbArc
 50
180.8823590000053
 51
270.0
  0
LINE
  5
A8C
330
1F
100
AcDbEntity
  8
CLASS1
  6
CONTINUOUS
 62
     0
100
AcDbLine
 10
152.889067237618
 20
374.8734532989904
 30
0.0
 11
153.904778237618
 21
374.8734532989904
 31
0.0
  0
LINE
  5
A8D
330
1F
100
AcDbEntity
  8
CLASS1
  6
CONTINUOUS
 62
     0
100
AcDbLine
 10
162.474060237618
 20
421.7181792989902
 30
0.0
 11
174.474060237618
 21
421.7181792989902
 31
0.0
  0
LINE
  5
A8E
330
1F
100
AcDbEntity
  8
CLASS1
  6
CONTINUOUS
 62
     0
100
AcDbLine
 10
174.474060237618
 20
419.7181792989901
 30
0.0
 11
162.474060237618
 21
419.7181792989901
 31
0.0
  0
LINE
  5
A8F
330
1F
100
AcDbEntity
  8
CLASS1
  6
CONTINUOUS
 62
     0
100
AcDbLine
 10
162.474060237618
 20
417.7181792989902
 30
0.0
 11
174.474060237618
 21
417.7181792989902
 31
0.0
  0
LINE
  5
A90
330
1F
100
AcDbEntity
  8
CLASS1
  6
CONTINUOUS
 62
     0
100
AcDbLine
 10
174.474060237618
 20
415.7181792989901
 30
0.0
 11
162.474060237618
 21
415.7181792989901
 31
0.0
  0
LINE
  5
A91
330
1F
100
AcDbEntity
  8
CLASS1
  6
CONTINUOUS
 62
     0
100
AcDbLine
 10
168.9490602376181
 20
410.8681792989902
 30
0.0
 11
164.799060237618
 21
410.8681792989902
 31
0.0
  0
LINE
  5
A92
330
1F
100
AcDbEntity
  8
CLASS1
  6
CONTINUOUS
 62
     0
100
AcDbLine
 10
169.5740602376181
 20
404.1181792989902
 30
0.0
 11
167.8740602376181
 21
404.1181792989902
 31
0.0
  0
LINE
  5
A93
330
1F
100
AcDbEntity
  8
CLASS1
  6
CONTINUOUS
 62
     0
100
AcDbLine
 10
169.5740602376181
 20
405.3181792989901
 30
0.0
 11
167.8740602376181
 21
405.3181792989901
 31
0.0
  0
LINE
  5
A94
330
1F
100
AcDbEntity
  8
CLASS1
  6
CONTINUOUS
 62
     0
100
AcDbLine
 10
168.9490602376181
 20
398.5681792989901
 30
0.0
 11
164.799060237618
 21
398.5681792989901
 31
0.0
  0
LINE
  5
A95
330
1F
100
AcDbEntity
  8
CLASS1
  6
CONTINUOUS
 62
     0
100
AcDbLine
 10
162.474060237618
 20
413.7181792989902
 30
0.0
 11
174.474060237618
 21
413.7181792989902
 31
0.0
  0
LINE
  5
A96
330
1F
100
AcDbEntity
  8
CLASS1
  6
CONTINUOUS
 62
     0
100
AcDbLine
 10
162.474060237618
 20
412.7181792989902
 30
0.0
 11
171.374060237618
 21
412.7181792989902
 31
0.0
  0
LINE
  5
A97
330
1F
100
AcDbEntity
  8
CLASS1
  6
CONTINUOUS
 62
     0
100
AcDbLine
 10
171.374060237618
 20
396.7181792989902
 30
0.0
 11
162.474060237618
 21
396.7181792989902
 31
0.0
  0
LINE
  5
A98
330
1F
100
AcDbEntity
  8
CLASS1
  6
CONTINUOUS
 62
     0
100
AcDbLine
 10
174.474060237618
 20
395.7181792989901
 30
0.0
 11
162.474060237618
 21
395.7181792989901
 31
0.0
  0
LINE
  5
A99
330
1F
100
AcDbEntity
  8
CLASS1
  6
CONTINUOUS
 62
     0
100
AcDbLine
 10
162.474060237618
 20
393.7181792989902
 30
0.0
 11
174.474060237618
 21
393.7181792989902
 31
0.0
  0
LINE
  5
A9A
330
1F
100
AcDbEntity
  8
CLASS1
  6
CONTINUOUS
 62
     0
100
AcDbLine
 10
169.5740602376181
 20
399.8181792989901
 30
0.0
 11
169.5740602376181
 21
409.6181792989902
 31
0.0
  0
LINE
  5
A9B
330
1F
100
AcDbEntity
  8
CLASS1
  6
CONTINUOUS
 62
     0
100
AcDbLine
 10
171.374060237618
 20
409.7181792989902
 30
0.0
 11
171.374060237618
 21
407.7181792989902
 31
0.0
  0
LINE
  5
A9C
330
1F
100
AcDbEntity
  8
CLASS1
  6
CONTINUOUS
 62
     0
100
AcDbLine
 10
174.474060237618
 20
409.7181792989902
 30
0.0
 11
174.474060237618
 21
407.7181792989902
 31
0.0
  0
LINE
  5
A9D
330
1F
100
AcDbEntity
  8
CLASS1
  6
CONTINUOUS
 62
     0
100
AcDbLine
 10
168.9490602376181
 20
398.5681792989901
 30
0.0
 11
168.9490602376181
 21
399.8181792989901
 31
0.0
  0
LINE
  5
A9E
330
1F
100
AcDbEntity
  8
CLASS1
  6
CONTINUOUS
 62
     0
100
AcDbLine
 10
169.5740602376181
 20
399.8181792989901
 30
0.0
 11
168.9490602376181
 21
399.8181792989901
 31
0.0
  0
LINE
  5
A9F
330
1F
100
AcDbEntity
  8
CLASS1
  6
CONTINUOUS
 62
     0
100
AcDbLine
 10
174.474060237618
 20
407.7181792989902
 30
0.0
 11
171.374060237618
 21
407.7181792989902
 31
0.0
  0
LINE
  5
AA0
330
1F
100
AcDbEntity
  8
CLASS1
  6
CONTINUOUS
 62
     0
100
AcDbLine
 10
174.474060237618
 20
403.7181792989902
 30
0.0
 11
171.374060237618
 21
403.7181792989902
 31
0.0
  0
LINE
  5
AA1
330
1F
100
AcDbEntity
  8
CLASS1
  6
CONTINUOUS
 62
     0
100
AcDbLine
 10
171.374060237618
 20
405.7181792989902
 30
0.0
 11
171.374060237618
 21
403.7181792989902
 31
0.0
  0
LINE
  5
AA2
330
1F
100
AcDbEntity
  8
CLASS1
  6
CONTINUOUS
 62
     0
100
AcDbLine
 10
174.474060237618
 20
405.7181792989902
 30
0.0
 11
174.474060237618
 21
403.7181792989902
 31
0.0
  0
LINE
  5
AA3
330
1F
100
AcDbEntity
  8
CLASS1
  6
CONTINUOUS
 62
     0
100
AcDbLine
 10
171.374060237618
 20
405.7181792989902
 30
0.0
 11
174.474060237618
 21
405.7181792989902
 31
0.0
  0
LINE
  5
AA4
330
1F
100
AcDbEntity
  8
CLASS1
  6
CONTINUOUS
 62
     0
100
AcDbLine
 10
174.474060237618
 20
401.7181792989902
 30
0.0
 11
174.474060237618
 21
399.7181792989902
 31
0.0
  0
LINE
  5
AA5
330
1F
100
AcDbEntity
  8
CLASS1
  6
CONTINUOUS
 62
     0
100
AcDbLine
 10
171.374060237618
 20
401.7181792989902
 30
0.0
 11
171.374060237618
 21
399.7181792989902
 31
0.0
  0
LINE
  5
AA6
330
1F
100
AcDbEntity
  8
CLASS1
  6
CONTINUOUS
 62
     0
100
AcDbLine
 10
171.374060237618
 20
401.7181792989902
 30
0.0
 11
174.474060237618
 21
401.7181792989902
 31
0.0
  0
LINE
  5
AA7
330
1F
100
AcDbEntity
  8
CLASS1
  6
CONTINUOUS
 62
     0
100
AcDbLine
 10
174.474060237618
 20
399.7181792989902
 30
0.0
 11
171.374060237618
 21
399.7181792989902
 31
0.0
  0
LINE
  5
AA8
330
1F
100
AcDbEntity
  8
CLASS1
  6
CONTINUOUS
 62
     0
100
AcDbLine
 10
171.374060237618
 20
397.7181792989902
 30
0.0
 11
174.474060237618
 21
397.7181792989902
 31
0.0
  0
LINE
  5
AA9
330
1F
100
AcDbEntity
  8
CLASS1
  6
CONTINUOUS
 62
     0
100
AcDbLine
 10
171.374060237618
 20
397.7181792989902
 30
0.0
 11
171.374060237618
 21
396.7181792989902
 31
0.0
  0
LINE
  5
AAA
330
1F
100
AcDbEntity
  8
CLASS1
  6
CONTINUOUS
 62
     0
100
AcDbLine
 10
174.474060237618
 20
397.7181792989902
 30
0.0
 11
174.474060237618
 21
395.7181792989901
 31
0.0
  0
LINE
  5
AAB
330
1F
100
AcDbEntity
  8
CLASS1
  6
CONTINUOUS
 62
     0
100
AcDbLine
 10
174.474060237618
 20
421.7181792989902
 30
0.0
 11
174.474060237618
 21
419.7181792989901
 31
0.0
  0
LINE
  5
AAC
330
1F
100
AcDbEntity
  8
CLASS1
  6
CONTINUOUS
 62
     0
100
AcDbLine
 10
174.474060237618
 20
417.7181792989902
 30
0.0
 11
174.474060237618
 21
415.7181792989901
 31
0.0
  0
LINE
  5
AAD
330
1F
100
AcDbEntity
  8
CLASS1
  6
CONTINUOUS
 62
     0
100
AcDbLine
 10
169.5740602376181
 20
409.6181792989902
 30
0.0
 11
168.9490602376181
 21
409.6181792989902
 31
0.0
  0
LINE
  5
AAE
330
1F
100
AcDbEntity
  8
CLASS1
  6
CONTINUOUS
 62
     0
100
AcDbLine
 10
168.9490602376181
 20
409.6181792989902
 30
0.0
 11
168.9490602376181
 21
410.8681792989902
 31
0.0
  0
LINE
  5
AAF
330
1F
100
AcDbEntity
  8
CLASS1
  6
CONTINUOUS
 62
     0
100
AcDbLine
 10
174.474060237618
 20
413.7181792989902
 30
0.0
 11
174.474060237618
 21
411.7181792989901
 31
0.0
  0
LINE
  5
AB0
330
1F
100
AcDbEntity
  8
CLASS1
  6
CONTINUOUS
 62
     0
100
AcDbLine
 10
174.474060237618
 20
411.7181792989901
 30
0.0
 11
171.374060237618
 21
411.7181792989901
 31
0.0
  0
LINE
  5
AB1
330
1F
100
AcDbEntity
  8
CLASS1
  6
CONTINUOUS
 62
     0
100
AcDbLine
 10
171.374060237618
 20
412.7181792989902
 30
0.0
 11
171.374060237618
 21
411.7181792989901
 31
0.0
  0
LINE
  5
AB2
330
1F
100
AcDbEntity
  8
CLASS1
  6
CONTINUOUS
 62
     0
100
AcDbLine
 10
171.374060237618
 20
409.7181792989902
 30
0.0
 11
174.474060237618
 21
409.7181792989902
 31
0.0
  0
LINE
  5
AB3
330
1F
100
AcDbEntity
  8
CLASS1
  6
CONTINUOUS
 62
     0
100
AcDbLine
 10
167.8740602376181
 20
401.2181792989902
 30
0.0
 11
167.8740602376181
 21
408.2181792989902
 31
0.0
  0
LINE
  5
AB4
330
1F
100
AcDbEntity
  8
CLASS1
  6
CONTINUOUS
 62
     0
100
AcDbLine
 10
165.874060237618
 20
401.2181792989902
 30
0.0
 11
165.874060237618
 21
408.2181792989902
 31
0.0
  0
LINE
  5
AB5
330
1F
100
AcDbEntity
  8
CLASS1
  6
CENTER
 62
     0
100
AcDbLine
 10
166.8740602376181
 20
399.7181792989902
 30
0.0
 11
166.8740602376181
 21
411.7519212989902
 31
0.0
  0
LINE
  5
AB6
330
1F
100
AcDbEntity
  8
CLASS1
  6
CONTINUOUS
 62
     0
100
AcDbLine
 10
164.2740602376181
 20
406.7181792989901
 30
0.0
 11
164.2740602376181
 21
409.6181792989902
 31
0.0
  0
LINE
  5
AB7
330
1F
100
AcDbEntity
  8
CLASS1
  6
CONTINUOUS
 62
     0
100
AcDbLine
 10
162.5740602376181
 20
402.7181792989901
 30
0.0
 11
162.5740602376181
 21
406.7181792989901
 31
0.0
  0
LINE
  5
AB8
330
1F
100
AcDbEntity
  8
CLASS1
  6
CONTINUOUS
 62
     0
100
AcDbLine
 10
164.2740602376181
 20
406.7181792989901
 30
0.0
 11
162.5740602376181
 21
406.7181792989901
 31
0.0
  0
LINE
  5
AB9
330
1F
100
AcDbEntity
  8
CLASS1
  6
CONTINUOUS
 62
     0
100
AcDbLine
 10
165.874060237618
 20
405.3181792989901
 30
0.0
 11
162.5740602376181
 21
405.3181792989901
 31
0.0
  0
LINE
  5
ABA
330
1F
100
AcDbEntity
  8
CLASS1
  6
CONTINUOUS
 62
     0
100
AcDbLine
 10
165.874060237618
 20
404.1181792989902
 30
0.0
 11
162.5740602376181
 21
404.1181792989902
 31
0.0
  0
LINE
  5
ABB
330
1F
100
AcDbEntity
  8
CLASS1
  6
CONTINUOUS
 62
     0
100
AcDbLine
 10
164.299060237618
 20
402.7181792989901
 30
0.0
 11
162.5740602376181
 21
402.7181792989901
 31
0.0
  0
ARC
  5
ABC
330
1F
100
AcDbEntity
  8
CLASS1
  6
CONTINUOUS
 62
     0
100
AcDbCircle
 10
167.3740602376178
 20
401.2181792989902
 30
0.0
 40
0.5
100
AcDbArc
 50
270.0
 51
0.0
  0
ARC
  5
ABD
330
1F
100
AcDbEntity
  8
CLASS1
  6
CONTINUOUS
 62
     0
100
AcDbCircle
 10
166.3740602376178
 20
401.2181792989902
 30
0.0
 40
0.5
100
AcDbArc
 50
180.0
 51
270.0
  0
LINE
  5
ABE
330
1F
100
AcDbEntity
  8
CLASS1
  6
CONTINUOUS
 62
     0
100
AcDbLine
 10
164.799060237618
 20
399.8181792989901
 30
0.0
 11
164.299060237618
 21
399.8181792989901
 31
0.0
  0
LINE
  5
ABF
330
1F
100
AcDbEntity
  8
CLASS1
  6
CONTINUOUS
 62
     0
100
AcDbLine
 10
164.299060237618
 20
399.8181792989901
 30
0.0
 11
164.299060237618
 21
402.7181792989901
 31
0.0
  0
LINE
  5
AC0
330
1F
100
AcDbEntity
  8
CLASS1
  6
CONTINUOUS
 62
     0
100
AcDbLine
 10
164.799060237618
 20
398.5681792989901
 30
0.0
 11
164.799060237618
 21
399.8181792989901
 31
0.0
  0
LINE
  5
AC1
330
1F
100
AcDbEntity
  8
CLASS1
  6
CONTINUOUS
 62
     0
100
AcDbLine
 10
167.374060237618
 20
400.7181792989902
 30
0.0
 11
166.374060237618
 21
400.7181792989902
 31
0.0
  0
LINE
  5
AC2
330
1F
100
AcDbEntity
  8
CLASS1
  6
CONTINUOUS
 62
     0
100
AcDbLine
 10
162.474060237618
 20
395.7181792989901
 30
0.0
 11
162.474060237618
 21
396.7181792989902
 31
0.0
  0
LINE
  5
AC3
330
1F
100
AcDbEntity
  8
CLASS1
  6
CONTINUOUS
 62
     0
100
AcDbLine
 10
162.474060237618
 20
419.7181792989901
 30
0.0
 11
162.474060237618
 21
421.7181792989902
 31
0.0
  0
LINE
  5
AC4
330
1F
100
AcDbEntity
  8
CLASS1
  6
CONTINUOUS
 62
     0
100
AcDbLine
 10
162.474060237618
 20
415.7181792989901
 30
0.0
 11
162.474060237618
 21
417.7181792989902
 31
0.0
  0
LINE
  5
AC5
330
1F
100
AcDbEntity
  8
CLASS1
  6
CONTINUOUS
 62
     0
100
AcDbLine
 10
162.474060237618
 20
412.7181792989902
 30
0.0
 11
162.474060237618
 21
413.7181792989902
 31
0.0
  0
ARC
  5
AC6
330
1F
100
AcDbEntity
  8
CLASS1
  6
CONTINUOUS
 62
     0
100
AcDbCircle
 10
167.3740602376178
 20
408.2181792989902
 30
0.0
 40
0.5
100
AcDbArc
 50
0.0
 51
90.0
  0
LINE
  5
AC7
330
1F
100
AcDbEntity
  8
CLASS1
  6
CONTINUOUS
 62
     0
100
AcDbLine
 10
167.374060237618
 20
408.7181792989902
 30
0.0
 11
166.374060237618
 21
408.7181792989902
 31
0.0
  0
LINE
  5
AC8
330
1F
100
AcDbEntity
  8
CLASS1
  6
CONTINUOUS
 62
     0
100
AcDbLine
 10
164.799060237618
 20
409.6181792989902
 30
0.0
 11
164.2740602376181
 21
409.6181792989902
 31
0.0
  0
LINE
  5
AC9
330
1F
100
AcDbEntity
  8
CLASS1
  6
CONTINUOUS
 62
     0
100
AcDbLine
 10
164.799060237618
 20
409.6181792989902
 30
0.0
 11
164.799060237618
 21
410.8681792989902
 31
0.0
  0
ARC
  5
ACA
330
1F
100
AcDbEntity
  8
CLASS1
  6
CONTINUOUS
 62
     0
100
AcDbCircle
 10
166.3740602376178
 20
408.2181792989902
 30
0.0
 40
0.5
100
AcDbArc
 50
90.0
 51
180.0
  0
LINE
  5
ACB
330
1F
100
AcDbEntity
  8
CLASS1
  6
CONTINUOUS
 62
     0
100
AcDbLine
 10
162.474060237618
 20
429.7181792989902
 30
0.0
 11
174.474060237618
 21
429.7181792989902
 31
0.0
  0
LINE
  5
ACC
330
1F
100
AcDbEntity
  8
CLASS1
  6
CONTINUOUS
 62
     0
100
AcDbLine
 10
174.474060237618
 20
427.7181792989901
 30
0.0
 11
162.474060237618
 21
427.7181792989901
 31
0.0
  0
LINE
  5
ACD
330
1F
100
AcDbEntity
  8
CLASS1
  6
CONTINUOUS
 62
     0
100
AcDbLine
 10
162.474060237618
 20
425.7181792989902
 30
0.0
 11
174.474060237618
 21
425.7181792989902
 31
0.0
  0
LINE
  5
ACE
330
1F
100
AcDbEntity
  8
CLASS1
  6
CONTINUOUS
 62
     0
100
AcDbLine
 10
174.474060237618
 20
423.7181792989901
 30
0.0
 11
162.474060237618
 21
423.7181792989901
 31
0.0
  0
LINE
  5
ACF
330
1F
100
AcDbEntity
  8
CLASS1
  6
CONTINUOUS
 62
     0
100
AcDbLine
 10
174.474060237618
 20
429.7181792989902
 30
0.0
 11
174.474060237618
 21
427.7181792989901
 31
0.0
  0
LINE
  5
AD0
330
1F
100
AcDbEntity
  8
CLASS1
  6
CONTINUOUS
 62
     0
100
AcDbLine
 10
174.474060237618
 20
425.7181792989902
 30
0.0
 11
174.474060237618
 21
423.7181792989901
 31
0.0
  0
LINE
  5
AD1
330
1F
100
AcDbEntity
  8
CLASS1
  6
CONTINUOUS
 62
     0
100
AcDbLine
 10
162.474060237618
 20
427.7181792989901
 30
0.0
 11
162.474060237618
 21
429.7181792989902
 31
0.0
  0
LINE
  5
AD2
330
1F
100
AcDbEntity
  8
CLASS1
  6
CONTINUOUS
 62
     0
100
AcDbLine
 10
162.474060237618
 20
423.7181792989901
 30
0.0
 11
162.474060237618
 21
425.7181792989902
 31
0.0
  0
ARC
  5
AD3
330
1F
100
AcDbEntity
  8
CLASS1
  6
CONTINUOUS
 62
     0
100
AcDbCircle
 10
151.973541237618
 20
435.3181792989901
 30
0.0
 40
1.0
100
AcDbArc
 50
90.0
 51
180.8823590000053
  0
LINE
  5
AD4
330
1F
100
AcDbEntity
  8
CLASS1
  6
CONTINUOUS
 62
     0
100
AcDbLine
 10
152.9738512376181
 20
435.3181792989901
 30
0.0
 11
152.9738512376181
 21
436.3181792989901
 31
0.0
  0
LINE
  5
AD5
330
1F
100
AcDbEntity
  8
CLASS1
  6
CONTINUOUS
 62
     0
100
AcDbLine
 10
152.9738512376181
 20
436.3181792989901
 30
0.0
 11
151.973541237618
 21
436.3181792989901
 31
0.0
  0
ARC
  5
AD6
330
1F
100
AcDbEntity
  8
0
100
AcDbCircle
 10
168.4740602376177
 20
468.7181792989902
 30
0.0
 40
100.0
100
AcDbArc
 50
262.160173000003
 51
277.8398260000032
  0
ARC
  5
AD7
330
1F
100
AcDbEntity
  8
0
100
AcDbCircle
 10
181.9780772376179
 20
370.6435052989902
 30
0.0
 40
1.0
100
AcDbArc
 50
277.8398260000032
 51
359.1176430000001
  0
ARC
  5
AD8
330
1F
100
AcDbEntity
  8
0
100
AcDbCircle
 10
154.970043237618
 20
370.6435062989901
 30
0.0
 40
1.0
100
AcDbArc
 50
180.8823569999998
 51
262.160173000003
  0
POINT
  5
AD9
330
1F
100
AcDbEntity
  8
0
100
AcDbPoint
 10
153.9833212376181
 20
369.7736562989902
 30
0.0
  0
ARC
  5
ADA
330
1F
100
AcDbEntity
  8
0
100
AcDbCircle
 10
168.4740593649587
 20
-29.90000130093221
 30
0.0
 40
100.0
100
AcDbArc
 50
82.16017300000309
 51
97.83982600000328
  0
ARC
  5
ADB
330
1F
100
AcDbEntity
  8
0
100
AcDbCircle
 10
154.9700423649587
 20
68.17467269906774
 30
0.0
 40
1.0
100
AcDbArc
 50
97.83982600000328
 51
179.1176430000001
  0
ARC
  5
ADC
330
1F
100
AcDbEntity
  8
0
100
AcDbCircle
 10
181.9780763649587
 20
68.17467169906786
 30
0.0
 40
1.0
100
AcDbArc
 50
0.88235699999983
 51
82.16017300000309
  0
LINE
  5
ADD
330
1F
100
AcDbEntity
  8
外枠
  6
BYBLOCK
100
AcDbLine
 10
169.2951033649587
 20
70.59999869906778
 30
0.0
 11
171.2600253649586
 21
70.59999869906778
 31
0.0
  0
LINE
  5
ADE
330
1F
100
AcDbEntity
  8
外枠
  6
BYBLOCK
100
AcDbLine
 10
169.2951033649587
 20
70.59999869906778
 30
0.0
 11
169.2951033649587
 21
70.09662807601262
 31
0.0
  0
LINE
  5
ADF
330
1F
100
AcDbEntity
  8
外枠
  6
BYBLOCK
100
AcDbLine
 10
171.2600253649586
 20
70.59999869906778
 30
0.0
 11
171.2600253649586
 21
70.03614417837571
 31
0.0
  0
LINE
  5
AE0
330
1F
100
AcDbEntity
  8
外枠
  6
BYBLOCK
100
AcDbLine
 10
169.2951033649587
 20
368.2181792989902
 30
0.0
 11
171.2600253649586
 21
368.2181792989902
 31
0.0
  0
LINE
  5
AE1
330
1F
100
AcDbEntity
  8
外枠
  6
BYBLOCK
100
AcDbLine
 10
169.2951033649587
 20
368.2181792989902
 30
0.0
 11
169.2951033649587
 21
368.7215499148802
 31
0.0
  0
LINE
  5
AE2
330
1F
100
AcDbEntity
  8
外枠
  6
BYBLOCK
100
AcDbLine
 10
171.2600253649586
 20
368.2181792989902
 30
0.0
 11
171.2600253649586
 21
368.7569948406753
 31
0.0
  0
INSERT
  5
AE3
330
1F
100
AcDbEntity
  8
外枠
  6
BYBLOCK
100
AcDbBlockReference
  2
A$C627E4F0D
 10
156.267235896319
 20
138.1221616956602
 30
0.0
 50
90.0
  0
LINE
  5
AE4
330
1F
100
AcDbEntity
  8
1
  6
CONTINUOUS
 62
     0
100
AcDbLine
 10
173.648171694153
 20
248.8240361782295
 30
0.0
 11
172.4611716941531
 21
250.0110361782296
 31
0.0
  0
LINE
  5
AE5
330
1F
100
AcDbEntity
  8
1
  6
CONTINUOUS
 62
     0
100
AcDbLine
 10
174.356171694153
 20
248.8240361782295
 30
0.0
 11
172.4611716941531
 21
250.7190361782296
 31
0.0
  0
LINE
  5
AE6
330
1F
100
AcDbEntity
  8
1
  6
CONTINUOUS
 62
     0
100
AcDbLine
 10
174.9611716941531
 20
248.9270361782296
 30
0.0
 11
172.5641716941529
 21
251.3240361782295
 31
0.0
  0
LINE
  5
AE7
330
1F
100
AcDbEntity
  8
1
  6
CONTINUOUS
 62
     0
100
AcDbLine
 10
174.9611716941531
 20
249.6350361782297
 30
0.0
 11
173.272171694153
 21
251.3240361782295
 31
0.0
  0
LINE
  5
AE8
330
1F
100
AcDbEntity
  8
1
  6
CONTINUOUS
 62
     0
100
AcDbLine
 10
174.9611716941531
 20
251.3240361782295
 30
0.0
 11
172.4611716941531
 21
251.3240361782295
 31
0.0
  0
LINE
  5
AE9
330
1F
100
AcDbEntity
  8
1
  6
CONTINUOUS
 62
     0
100
AcDbLine
 10
174.9611716941531
 20
248.8240361782295
 30
0.0
 11
172.4611716941531
 21
248.8240361782295
 31
0.0
  0
LINE
  5
AEA
330
1F
100
AcDbEntity
  8
1
  6
CONTINUOUS
 62
     0
100
AcDbLine
 10
173.648171694153
 20
253.9040361782297
 30
0.0
 11
172.4611716941531
 21
255.0910361782296
 31
0.0
  0
LINE
  5
AEB
330
1F
100
AcDbEntity
  8
1
  6
CONTINUOUS
 62
     0
100
AcDbLine
 10
174.356171694153
 20
253.9040361782297
 30
0.0
 11
172.4611716941531
 21
255.7990361782297
 31
0.0
  0
LINE
  5
AEC
330
1F
100
AcDbEntity
  8
1
  6
CONTINUOUS
 62
     0
100
AcDbLine
 10
174.9611716941531
 20
254.0070361782295
 30
0.0
 11
172.5641716941529
 21
256.4040361782297
 31
0.0
  0
LINE
  5
AED
330
1F
100
AcDbEntity
  8
1
  6
CONTINUOUS
 62
     0
100
AcDbLine
 10
174.9611716941531
 20
254.7150361782296
 30
0.0
 11
173.272171694153
 21
256.4040361782297
 31
0.0
  0
LINE
  5
AEE
330
1F
100
AcDbEntity
  8
1
  6
CONTINUOUS
 62
     0
100
AcDbLine
 10
174.9611716941531
 20
256.4040361782297
 30
0.0
 11
172.4611716941531
 21
256.4040361782297
 31
0.0
  0
LINE
  5
AEF
330
1F
100
AcDbEntity
  8
1
  6
CONTINUOUS
 62
     0
100
AcDbLine
 10
174.9611716941531
 20
253.9040361782297
 30
0.0
 11
172.4611716941531
 21
253.9040361782297
 31
0.0
  0
LINE
  5
AF0
330
1F
100
AcDbEntity
  8
1
  6
CONTINUOUS
 62
     0
100
AcDbLine
 10
173.648171694153
 20
269.1440361782297
 30
0.0
 11
172.4611716941531
 21
270.3310361782296
 31
0.0
  0
LINE
  5
AF1
330
1F
100
AcDbEntity
  8
1
  6
CONTINUOUS
 62
     0
100
AcDbLine
 10
174.356171694153
 20
269.1440361782297
 30
0.0
 11
172.4611716941531
 21
271.0390361782297
 31
0.0
  0
LINE
  5
AF2
330
1F
100
AcDbEntity
  8
1
  6
CONTINUOUS
 62
     0
100
AcDbLine
 10
174.9611716941531
 20
269.2470361782295
 30
0.0
 11
172.5641716941529
 21
271.6440361782297
 31
0.0
  0
LINE
  5
AF3
330
1F
100
AcDbEntity
  8
1
  6
CONTINUOUS
 62
     0
100
AcDbLine
 10
174.9611716941531
 20
269.9550361782296
 30
0.0
 11
173.272171694153
 21
271.6440361782297
 31
0.0
  0
LINE
  5
AF4
330
1F
100
AcDbEntity
  8
1
  6
CONTINUOUS
 62
     0
100
AcDbLine
 10
174.9611716941531
 20
271.6440361782297
 30
0.0
 11
172.4611716941531
 21
271.6440361782297
 31
0.0
  0
LINE
  5
AF5
330
1F
100
AcDbEntity
  8
1
  6
CONTINUOUS
 62
     0
100
AcDbLine
 10
174.9611716941531
 20
269.1440361782297
 30
0.0
 11
172.4611716941531
 21
269.1440361782297
 31
0.0
  0
LINE
  5
AF6
330
1F
100
AcDbEntity
  8
1
  6
CONTINUOUS
 62
     0
100
AcDbLine
 10
173.648171694153
 20
264.0640361782295
 30
0.0
 11
172.4611716941531
 21
265.2510361782296
 31
0.0
  0
LINE
  5
AF7
330
1F
100
AcDbEntity
  8
1
  6
CONTINUOUS
 62
     0
100
AcDbLine
 10
174.356171694153
 20
264.0640361782295
 30
0.0
 11
172.4611716941531
 21
265.9590361782295
 31
0.0
  0
LINE
  5
AF8
330
1F
100
AcDbEntity
  8
1
  6
CONTINUOUS
 62
     0
100
AcDbLine
 10
174.9611716941531
 20
264.1670361782296
 30
0.0
 11
172.5641716941529
 21
266.5640361782295
 31
0.0
  0
LINE
  5
AF9
330
1F
100
AcDbEntity
  8
1
  6
CONTINUOUS
 62
     0
100
AcDbLine
 10
174.9611716941531
 20
264.8750361782297
 30
0.0
 11
173.272171694153
 21
266.5640361782295
 31
0.0
  0
LINE
  5
AFA
330
1F
100
AcDbEntity
  8
1
  6
CONTINUOUS
 62
     0
100
AcDbLine
 10
174.9611716941531
 20
266.5640361782295
 30
0.0
 11
172.4611716941531
 21
266.5640361782295
 31
0.0
  0
LINE
  5
AFB
330
1F
100
AcDbEntity
  8
1
  6
CONTINUOUS
 62
     0
100
AcDbLine
 10
174.9611716941531
 20
264.0640361782295
 30
0.0
 11
172.4611716941531
 21
264.0640361782295
 31
0.0
  0
LINE
  5
AFC
330
1F
100
AcDbEntity
  8
1
  6
CONTINUOUS
 62
     0
100
AcDbLine
 10
174.9611716941531
 20
250.3430361782295
 30
0.0
 11
173.9801716941529
 21
251.3240361782295
 31
0.0
  0
LINE
  5
AFD
330
1F
100
AcDbEntity
  8
1
  6
CONTINUOUS
 62
     0
100
AcDbLine
 10
174.9611716941531
 20
251.0510361782296
 30
0.0
 11
174.6881716941529
 21
251.3240361782295
 31
0.0
  0
LINE
  5
AFE
330
1F
100
AcDbEntity
  8
1
  6
CONTINUOUS
 62
     0
100
AcDbLine
 10
174.9611716941531
 20
255.4230361782297
 30
0.0
 11
173.9801716941529
 21
256.4040361782297
 31
0.0
  0
LINE
  5
AFF
330
1F
100
AcDbEntity
  8
1
  6
CONTINUOUS
 62
     0
100
AcDbLine
 10
174.9611716941531
 20
256.1310361782295
 30
0.0
 11
174.6881716941529
 21
256.4040361782297
 31
0.0
  0
LINE
  5
B00
330
1F
100
AcDbEntity
  8
1
  6
CONTINUOUS
 62
     0
100
AcDbLine
 10
174.9611716941531
 20
265.5830361782296
 30
0.0
 11
173.9801716941529
 21
266.5640361782295
 31
0.0
  0
LINE
  5
B01
330
1F
100
AcDbEntity
  8
1
  6
CONTINUOUS
 62
     0
100
AcDbLine
 10
174.9611716941531
 20
266.2910361782296
 30
0.0
 11
174.6881716941529
 21
266.5640361782295
 31
0.0
  0
LINE
  5
B02
330
1F
100
AcDbEntity
  8
1
  6
CONTINUOUS
 62
     0
100
AcDbLine
 10
174.9611716941531
 20
270.6630361782297
 30
0.0
 11
173.9801716941529
 21
271.6440361782297
 31
0.0
  0
LINE
  5
B03
330
1F
100
AcDbEntity
  8
1
  6
CONTINUOUS
 62
     0
100
AcDbLine
 10
174.9611716941531
 20
271.3710361782295
 30
0.0
 11
174.6881716941529
 21
271.6440361782297
 31
0.0
  0
LINE
  5
B04
330
1F
100
AcDbEntity
  8
1
  6
CONTINUOUS
 62
     0
100
AcDbLine
 10
172.9401716941529
 20
248.8240361782295
 30
0.0
 11
172.4611716941531
 21
249.3030361782296
 31
0.0
  0
LINE
  5
B05
330
1F
100
AcDbEntity
  8
1
  6
CONTINUOUS
 62
     0
100
AcDbLine
 10
172.9401716941529
 20
253.9040361782297
 30
0.0
 11
172.4611716941531
 21
254.3830361782296
 31
0.0
  0
LINE
  5
B06
330
1F
100
AcDbEntity
  8
1
  6
CONTINUOUS
 62
     0
100
AcDbLine
 10
172.9401716941529
 20
264.0640361782295
 30
0.0
 11
172.4611716941531
 21
264.5430361782296
 31
0.0
  0
LINE
  5
B07
330
1F
100
AcDbEntity
  8
1
  6
CONTINUOUS
 62
     0
100
AcDbLine
 10
172.9401716941529
 20
269.1440361782297
 30
0.0
 11
172.4611716941531
 21
269.6230361782296
 31
0.0
  0
LINE
  5
B08
330
1F
100
AcDbEntity
  8
外枠
  6
BYBLOCK
100
AcDbLine
 10
174.9611716941531
 20
251.3240361782295
 30
0.0
 11
174.9611716941531
 21
248.8240361782295
 31
0.0
  0
LINE
  5
B09
330
1F
100
AcDbEntity
  8
外枠
  6
BYBLOCK
100
AcDbLine
 10
172.4611716941531
 20
251.3240361782295
 30
0.0
 11
172.4611716941531
 21
248.8240361782295
 31
0.0
  0
LINE
  5
B0A
330
1F
100
AcDbEntity
  8
外枠
  6
BYBLOCK
100
AcDbLine
 10
174.9611716941531
 20
256.4040361782297
 30
0.0
 11
174.9611716941531
 21
253.9040361782297
 31
0.0
  0
LINE
  5
B0B
330
1F
100
AcDbEntity
  8
外枠
  6
BYBLOCK
100
AcDbLine
 10
172.4611716941531
 20
256.4040361782297
 30
0.0
 11
172.4611716941531
 21
253.9040361782297
 31
0.0
  0
LINE
  5
B0C
330
1F
100
AcDbEntity
  8
外枠
  6
BYBLOCK
100
AcDbLine
 10
174.9611716941531
 20
266.5640361782295
 30
0.0
 11
174.9611716941531
 21
264.0640361782295
 31
0.0
  0
LINE
  5
B0D
330
1F
100
AcDbEntity
  8
外枠
  6
BYBLOCK
100
AcDbLine
 10
172.4611716941531
 20
266.5640361782295
 30
0.0
 11
172.4611716941531
 21
264.0640361782295
 31
0.0
  0
LINE
  5
B0E
330
1F
100
AcDbEntity
  8
外枠
  6
BYBLOCK
100
AcDbLine
 10
174.9611716941531
 20
271.6440361782296
 30
0.0
 11
174.9611716941531
 21
269.1440361782296
 31
0.0
  0
LINE
  5
B0F
330
1F
100
AcDbEntity
  8
外枠
  6
BYBLOCK
100
AcDbLine
 10
172.4611716941531
 20
271.6440361782296
 30
0.0
 11
172.4611716941531
 21
269.1440361782296
 31
0.0
  0
ENDSEC
  0
SECTION
  2
OBJECTS
  0
DICTIONARY
  5
C
330
0
100
AcDbDictionary
  3
ACAD_GROUP
350
D
  3
ACAD_LAYOUT
350
1A
  3
ACAD_MLINESTYLE
350
17
  3
ACAD_PLOTSETTINGS
350
19
  3
ACAD_PLOTSTYLENAME
350
E
  3
ACDBHEADERROUNDTRIPXREC
350
B83
  3
ACDBVARIABLEDICTIONARY
350
B7F
  0
DICTIONARY
  5
220
330
2
100
AcDbDictionary
280
     1
  3
ACAD_LAYERSTATES
360
221
  0
DICTIONARY
  5
BA5
330
1F
100
AcDbDictionary
280
     1
  3
ACAD_LAYOUTSELFREF
360
BA6
  0
DICTIONARY
  5
BA3
330
1B
100
AcDbDictionary
280
     1
  3
ACAD_LAYOUTSELFREF
360
BA4
  0
DICTIONARY
  5
D
102
{ACAD_REACTORS
330
C
102
}
330
C
100
AcDbDictionary
  0
DICTIONARY
  5
1A
102
{ACAD_REACTORS
330
C
102
}
330
C
100
AcDbDictionary
  0
DICTIONARY
  5
17
102
{ACAD_REACTORS
330
C
102
}
330
C
100
AcDbDictionary
  3
STANDARD
350
18
  0
DICTIONARY
  5
19
102
{ACAD_REACTORS
330
C
102
}
330
C
100
AcDbDictionary
  0
ACDBDICTIONARYWDFLT
  5
E
102
{ACAD_REACTORS
330
C
102
}
330
C
100
AcDbDictionary
281
     1
  3
Normal
350
F
100
AcDbDictionaryWithDefault
340
F
  0
DICTIONARY
  5
B83
102
{ACAD_REACTORS
330
C
102
}
330
C
100
AcDbDictionary
  3
CEPSNTYPE
350
B8D
  3
FINGERPRINTGUID
350
B8E
  3
HYPERLINKBASE
350
B86
  3
INSUNITS
350
B8C
  3
LAYOUTDICT
350
B88
  3
LWETCUNION
350
B8B
  3
PLOTSETDICT
350
B89
  3
PLOTSTYLNAMDICT
350
B8A
  3
PSVPSCALE
350
B90
  3
PUCSBASE
350
B93
  3
PUCSORGBACK
350
B99
  3
PUCSORGBOTTOM
350
B95
  3
PUCSORGFRONT
350
B98
  3
PUCSORGLEFT
350
B96
  3
PUCSORGRIGHT
350
B97
  3
PUCSORGTOP
350
B94
  3
PUCSORTHOREF
350
B91
  3
PUCSORTHOVIEW
350
B92
  3
STYLESHEET
350
B87
  3
TSTACKALIGN
350
B84
  3
TSTACKSIZE
350
B85
  3
UCSBASE
350
B9C
  3
UCSORGBACK
350
BA2
  3
UCSORGBOTTOM
350
B9E
  3
UCSORGFRONT
350
BA1
  3
UCSORGLEFT
350
B9F
  3
UCSORGRIGHT
350
BA0
  3
UCSORGTOP
350
B9D
  3
UCSORTHOREF
350
B9A
  3
UCSORTHOVIEW
350
B9B
  3
VERSIONGUID
350
B8F
  0
DICTIONARY
  5
B7F
102
{ACAD_REACTORS
330
C
102
}
330
C
100
AcDbDictionary
  3
DIMASSOC
350
B81
  3
HIDETEXT
350
B80
  0
DICTIONARY
  5
221
102
{ACAD_REACTORS
330
220
102
}
330
220
100
AcDbDictionary
  0
XRECORD
  5
BA6
102
{ACAD_REACTORS
330
BA5
102
}
330
BA5
100
AcDbXrecord
340
1F
  0
XRECORD
  5
BA4
102
{ACAD_REACTORS
330
BA3
102
}
330
BA3
100
AcDbXrecord
340
1B
  0
MLINESTYLE
  5
18
102
{ACAD_REACTORS
330
17
102
}
330
17
100
AcDbMlineStyle
  2
STANDARD
 70
     0
  3

 62
   256
 51
90.0
 52
90.0
 71
     2
 49
0.5
 62
   256
  6
BYLAYER
 49
-0.5
 62
   256
  6
BYLAYER
  0
ACDBPLACEHOLDER
  5
F
102
{ACAD_REACTORS
330
E
102
}
330
E
100
AcDbPlaceHolder
280
     0
  0
XRECORD
  5
B8D
102
{ACAD_REACTORS
330
B83
102
}
330
B83
100
AcDbXrecord
 90
        0
  0
XRECORD
  5
B8E
102
{ACAD_REACTORS
330
B83
102
}
330
B83
100
AcDbXrecord
  1
{2D5DE734-4D12-4763-B1B3-B0632A1A1140}
  0
XRECORD
  5
B86
102
{ACAD_REACTORS
330
B83
102
}
330
B83
100
AcDbXrecord
  1

  0
XRECORD
  5
B8C
102
{ACAD_REACTORS
330
B83
102
}
330
B83
100
AcDbXrecord
 90
        4
  0
XRECORD
  5
B88
102
{ACAD_REACTORS
330
B83
102
}
330
B83
100
AcDbXrecord
340
1A
  0
XRECORD
  5
B8B
102
{ACAD_REACTORS
330
B83
102
}
330
B83
100
AcDbXrecord
 90
    10781
  0
XRECORD
  5
B89
102
{ACAD_REACTORS
330
B83
102
}
330
B83
100
AcDbXrecord
340
19
  0
XRECORD
  5
B8A
102
{ACAD_REACTORS
330
B83
102
}
330
B83
100
AcDbXrecord
340
E
  0
XRECORD
  5
B90
102
{ACAD_REACTORS
330
B83
102
}
330
B83
100
AcDbXrecord
 40
0.0
  0
XRECORD
  5
B93
102
{ACAD_REACTORS
330
B83
102
}
330
B83
100
AcDbXrecord
340
0
  0
XRECORD
  5
B99
102
{ACAD_REACTORS
330
B83
102
}
330
B83
100
AcDbXrecord
 10
0.0
 20
0.0
 30
0.0
  0
XRECORD
  5
B95
102
{ACAD_REACTORS
330
B83
102
}
330
B83
100
AcDbXrecord
 10
0.0
 20
0.0
 30
0.0
  0
XRECORD
  5
B98
102
{ACAD_REACTORS
330
B83
102
}
330
B83
100
AcDbXrecord
 10
0.0
 20
0.0
 30
0.0
  0
XRECORD
  5
B96
102
{ACAD_REACTORS
330
B83
102
}
330
B83
100
AcDbXrecord
 10
0.0
 20
0.0
 30
0.0
  0
XRECORD
  5
B97
102
{ACAD_REACTORS
330
B83
102
}
330
B83
100
AcDbXrecord
 10
0.0
 20
0.0
 30
0.0
  0
XRECORD
  5
B94
102
{ACAD_REACTORS
330
B83
102
}
330
B83
100
AcDbXrecord
 10
0.0
 20
0.0
 30
0.0
  0
XRECORD
  5
B91
102
{ACAD_REACTORS
330
B83
102
}
330
B83
100
AcDbXrecord
340
0
  0
XRECORD
  5
B92
102
{ACAD_REACTORS
330
B83
102
}
330
B83
100
AcDbXrecord
 70
     0
  0
XRECORD
  5
B87
102
{ACAD_REACTORS
330
B83
102
}
330
B83
100
AcDbXrecord
  1

  0
XRECORD
  5
B84
102
{ACAD_REACTORS
330
B83
102
}
330
B83
100
AcDbXrecord
 90
        1
  0
XRECORD
  5
B85
102
{ACAD_REACTORS
330
B83
102
}
330
B83
100
AcDbXrecord
 90
       70
  0
XRECORD
  5
B9C
102
{ACAD_REACTORS
330
B83
102
}
330
B83
100
AcDbXrecord
340
0
  0
XRECORD
  5
BA2
102
{ACAD_REACTORS
330
B83
102
}
330
B83
100
AcDbXrecord
 10
0.0
 20
0.0
 30
0.0
  0
XRECORD
  5
B9E
102
{ACAD_REACTORS
330
B83
102
}
330
B83
100
AcDbXrecord
 10
0.0
 20
0.0
 30
0.0
  0
XRECORD
  5
BA1
102
{ACAD_REACTORS
330
B83
102
}
330
B83
100
AcDbXrecord
 10
0.0
 20
0.0
 30
0.0
  0
XRECORD
  5
B9F
102
{ACAD_REACTORS
330
B83
102
}
330
B83
100
AcDbXrecord
 10
0.0
 20
0.0
 30
0.0
  0
XRECORD
  5
BA0
102
{ACAD_REACTORS
330
B83
102
}
330
B83
100
AcDbXrecord
 10
0.0
 20
0.0
 30
0.0
  0
XRECORD
  5
B9D
102
{ACAD_REACTORS
330
B83
102
}
330
B83
100
AcDbXrecord
 10
0.0
 20
0.0
 30
0.0
  0
XRECORD
  5
B9A
102
{ACAD_REACTORS
330
B83
102
}
330
B83
100
AcDbXrecord
340
0
  0
XRECORD
  5
B9B
102
{ACAD_REACTORS
330
B83
102
}
330
B83
100
AcDbXrecord
 70
     0
  0
XRECORD
  5
B8F
102
{ACAD_REACTORS
330
B83
102
}
330
B83
100
AcDbXrecord
  1
{18EEDF0D-F217-41E5-ADE2-2B70F4E33EA3}
  0
DICTIONARYVAR
  5
B81
102
{ACAD_REACTORS
330
B7F
102
}
330
B7F
100
DictionaryVariables
280
     0
  1
2
  0
DICTIONARYVAR
  5
B80
102
{ACAD_REACTORS
330
B7F
102
}
330
B7F
100
DictionaryVariables
280
     0
  1
1
  0
ENDSEC
  0
EOF
