  0
SECTION
  2
HEADER
  9
$ACADVER
  1
AC1014
  9
$ACADMAINTVER
 70
     9
  9
$DWGCODEPAGE
  3
ANSI_932
  9
$INSBASE
 10
0.0
 20
0.0
 30
0.0
  9
$EXTMIN
 10
-0.0128164049386896
 20
-0.0090630292066862
 30
-0.0015258207003583
  9
$EXTMAX
 10
336.9561776390255
 20
438.8336342794746
 30
0.0000000349246037
  9
$LIMMIN
 10
0.0
 20
0.0
  9
$LIMMAX
 10
420.0
 20
297.0
  9
$ORTHOMODE
 70
     0
  9
$REGENMODE
 70
     1
  9
$FILLMODE
 70
     1
  9
$QTEXTMODE
 70
     0
  9
$MIRRTEXT
 70
     1
  9
$DRAGMODE
 70
     2
  9
$LTSCALE
 40
1.0
  9
$OSMODE
 70
    55
  9
$ATTMODE
 70
     1
  9
$TEXTSIZE
 40
2.5
  9
$TRACEWID
 40
1.0
  9
$TEXTSTYLE
  7
STANDARD
  9
$CLAYER
  8
0
  9
$CELTYPE
  6
BYLAYER
  9
$CECOLOR
 62
   256
  9
$CELTSCALE
 40
1.0
  9
$DELOBJ
 70
     1
  9
$DISPSILH
 70
     0
  9
$DIMSCALE
 40
1.0
  9
$DIMASZ
 40
2.5
  9
$DIMEXO
 40
0.625
  9
$DIMDLI
 40
3.75
  9
$DIMRND
 40
0.0
  9
$DIMDLE
 40
0.0
  9
$DIMEXE
 40
1.25
  9
$DIMTP
 40
0.0
  9
$DIMTM
 40
0.0
  9
$DIMTXT
 40
2.5
  9
$DIMCEN
 40
2.5
  9
$DIMTSZ
 40
0.0
  9
$DIMTOL
 70
     0
  9
$DIMLIM
 70
     0
  9
$DIMTIH
 70
     0
  9
$DIMTOH
 70
     0
  9
$DIMSE1
 70
     0
  9
$DIMSE2
 70
     0
  9
$DIMTAD
 70
     1
  9
$DIMZIN
 70
     8
  9
$DIMBLK
  1

  9
$DIMASO
 70
     1
  9
$DIMSHO
 70
     1
  9
$DIMPOST
  1

  9
$DIMAPOST
  1

  9
$DIMALT
 70
     0
  9
$DIMALTD
 70
     3
  9
$DIMALTF
 40
0.03937007874016
  9
$DIMLFAC
 40
1.0
  9
$DIMTOFL
 70
     1
  9
$DIMTVP
 40
0.0
  9
$DIMTIX
 70
     0
  9
$DIMSOXD
 70
     0
  9
$DIMSAH
 70
     0
  9
$DIMBLK1
  1

  9
$DIMBLK2
  1

  9
$DIMSTYLE
  2
ISO-25
  9
$DIMCLRD
 70
     0
  9
$DIMCLRE
 70
     0
  9
$DIMCLRT
 70
     0
  9
$DIMTFAC
 40
1.0
  9
$DIMGAP
 40
0.625
  9
$DIMJUST
 70
     0
  9
$DIMSD1
 70
     0
  9
$DIMSD2
 70
     0
  9
$DIMTOLJ
 70
     0
  9
$DIMTZIN
 70
     8
  9
$DIMALTZ
 70
     0
  9
$DIMALTTZ
 70
     0
  9
$DIMFIT
 70
     3
  9
$DIMUPT
 70
     0
  9
$DIMUNIT
 70
     2
  9
$DIMDEC
 70
     2
  9
$DIMTDEC
 70
     2
  9
$DIMALTU
 70
     2
  9
$DIMALTTD
 70
     3
  9
$DIMTXSTY
  7
STANDARD
  9
$DIMAUNIT
 70
     0
  9
$LUNITS
 70
     2
  9
$LUPREC
 70
     4
  9
$SKETCHINC
 40
1.0
  9
$FILLETRAD
 40
10.0
  9
$AUNITS
 70
     0
  9
$AUPREC
 70
     0
  9
$MENU
  1
.
  9
$ELEVATION
 40
0.0
  9
$PELEVATION
 40
0.0
  9
$THICKNESS
 40
0.0
  9
$LIMCHECK
 70
     0
  9
$BLIPMODE
 70
     0
  9
$CHAMFERA
 40
10.0
  9
$CHAMFERB
 40
10.0
  9
$CHAMFERC
 40
20.0
  9
$CHAMFERD
 40
0.0
  9
$SKPOLY
 70
     0
  9
$TDCREATE
 40
2455006.449864143
  9
$TDUPDATE
 40
2455006.450872071
  9
$TDINDWG
 40
0.0010084722
  9
$TDUSRTIMER
 40
0.0010082870
  9
$USRTIMER
 70
     1
  9
$ANGBASE
 50
0.0
  9
$ANGDIR
 70
     0
  9
$PDMODE
 70
     0
  9
$PDSIZE
 40
0.0
  9
$PLINEWID
 40
0.0
  9
$COORDS
 70
     0
  9
$SPLFRAME
 70
     0
  9
$SPLINETYPE
 70
     6
  9
$SPLINESEGS
 70
     8
  9
$ATTDIA
 70
     0
  9
$ATTREQ
 70
     1
  9
$HANDLING
 70
 22529
  9
$HANDSEED
  5
B74
  9
$SURFTAB1
 70
     6
  9
$SURFTAB2
 70
     6
  9
$SURFTYPE
 70
     6
  9
$SURFU
 70
     6
  9
$SURFV
 70
     6
  9
$UCSNAME
  2

  9
$UCSORG
 10
0.0
 20
0.0
 30
0.0
  9
$UCSXDIR
 10
1.0
 20
0.0
 30
0.0
  9
$UCSYDIR
 10
0.0
 20
1.0
 30
0.0
  9
$PUCSNAME
  2

  9
$PUCSORG
 10
0.0
 20
0.0
 30
0.0
  9
$PUCSXDIR
 10
1.0
 20
0.0
 30
0.0
  9
$PUCSYDIR
 10
0.0
 20
1.0
 30
0.0
  9
$USERI1
 70
     0
  9
$USERI2
 70
     0
  9
$USERI3
 70
     0
  9
$USERI4
 70
     0
  9
$USERI5
 70
     0
  9
$USERR1
 40
0.0
  9
$USERR2
 40
0.0
  9
$USERR3
 40
0.0
  9
$USERR4
 40
0.0
  9
$USERR5
 40
0.0
  9
$WORLDVIEW
 70
     1
  9
$SHADEDGE
 70
     3
  9
$SHADEDIF
 70
    70
  9
$TILEMODE
 70
     1
  9
$MAXACTVP
 70
    64
  9
$PINSBASE
 10
0.0
 20
0.0
 30
0.0
  9
$PLIMCHECK
 70
     0
  9
$PEXTMIN
 10
1.000000000000000E+20
 20
1.000000000000000E+20
 30
1.000000000000000E+20
  9
$PEXTMAX
 10
-1.000000000000000E+20
 20
-1.000000000000000E+20
 30
-1.000000000000000E+20
  9
$PLIMMIN
 10
0.0
 20
0.0
  9
$PLIMMAX
 10
420.0
 20
297.0
  9
$UNITMODE
 70
     0
  9
$VISRETAIN
 70
     1
  9
$PLINEGEN
 70
     0
  9
$PSLTSCALE
 70
     1
  9
$TREEDEPTH
 70
  3020
  9
$PICKSTYLE
 70
     1
  9
$CMLSTYLE
  2
STANDARD
  9
$CMLJUST
 70
     0
  9
$CMLSCALE
 40
20.0
  9
$PROXYGRAPHICS
 70
     1
  9
$MEASUREMENT
 70
     1
  0
ENDSEC
  0
SECTION
  2
CLASSES
  0
CLASS
  1
ACDBDICTIONARYWDFLT
  2
AcDbDictionaryWithDefault
  3
AutoCAD 2000
 90
        0
280
     0
281
     0
  0
CLASS
  1
ACDBPLACEHOLDER
  2
AcDbPlaceHolder
  3
AutoCAD 2000
 90
        0
280
     0
281
     0
  0
CLASS
  1
LAYOUT
  2
AcDbLayout
  3
AutoCAD 2000
 90
        0
280
     0
281
     0
  0
CLASS
  1
DICTIONARYVAR
  2
AcDbDictionaryVar
  3
AutoCAD 2000
 90
        0
280
     0
281
     0
  0
CLASS
  1
LONG_TRANSACTION
  2
AcDbLongTransaction
  3
AutoCAD 2000
 90
        0
280
     0
281
     0
  0
CLASS
  1
LWPOLYLINE
  2
AcDbPolyline
  3
AutoCAD 2000
 90
        0
280
     0
281
     1
  0
CLASS
  1
HATCH
  2
AcDbHatch
  3
AutoCAD 2000
 90
        0
280
     0
281
     1
  0
CLASS
  1
XRECORD
  2
AcDbXrecord
  3
AutoCAD 2000
 90
        0
280
     0
281
     0
  0
ENDSEC
  0
SECTION
  2
TABLES
  0
TABLE
  2
VPORT
  5
8
330
0
100
AcDbSymbolTable
 70
     3
  0
VPORT
  5
B4D
330
8
100
AcDbSymbolTableRecord
100
AcDbViewportTableRecord
  2
*ACTIVE
 70
     0
 10
0.0
 20
0.0
 11
1.0
 21
1.0
 12
168.4716806170434
 22
219.4122856251339
 13
0.0
 23
0.0
 14
10.0
 24
10.0
 15
10.0
 25
10.0
 16
0.0
 26
0.0
 36
1.0
 17
0.0
 27
0.0
 37
0.0
 40
442.1258097573747
 41
1.504369538077402
 42
50.0
 43
0.0
 44
0.0
 50
0.0
 51
0.0
 71
     0
 72
   100
 73
     1
 74
     3
 75
     0
 76
     0
 77
     0
 78
     0
  0
ENDTAB
  0
TABLE
  2
LTYPE
  5
5
330
0
100
AcDbSymbolTable
 70
     4
  0
LTYPE
  5
14
330
5
100
AcDbSymbolTableRecord
100
AcDbLinetypeTableRecord
  2
BYBLOCK
 70
     0
  3

 72
    65
 73
     0
 40
0.0
  0
LTYPE
  5
15
330
5
100
AcDbSymbolTableRecord
100
AcDbLinetypeTableRecord
  2
BYLAYER
 70
     0
  3

 72
    65
 73
     0
 40
0.0
  0
LTYPE
  5
16
330
5
100
AcDbSymbolTableRecord
100
AcDbLinetypeTableRecord
  2
CONTINUOUS
 70
     0
  3
Solid line
 72
    65
 73
     0
 40
0.0
  0
LTYPE
  5
21D
330
5
100
AcDbSymbolTableRecord
100
AcDbLinetypeTableRecord
  2
CENTER
 70
     0
  3
____ _ ____ _ ____ _ ____ _ ____ _ ____ _ ____
 72
    65
 73
     4
 40
2.0
 49
1.25
 74
     0
 49
-0.25
 74
     0
 49
0.25
 74
     0
 49
-0.25
 74
     0
  0
LTYPE
  5
21E
330
5
100
AcDbSymbolTableRecord
100
AcDbLinetypeTableRecord
  2
HIDDEN
 70
     0
  3
__ __ __ __ __ __ __ __ __ __ __ __ __ __ __ __
 72
    65
 73
     2
 40
0.375
 49
0.25
 74
     0
 49
-0.125
 74
     0
  0
LTYPE
  5
21F
330
5
100
AcDbSymbolTableRecord
100
AcDbLinetypeTableRecord
  2
DIVIDE
 70
     0
  3
__ . . __ . . __ . . __ . . __ . . __ . . __
 72
    65
 73
     6
 40
1.25
 49
0.0
 74
     0
 49
-0.25
 74
     0
 49
0.0
 74
     0
 49
-0.25
 74
     0
 49
0.0
 74
     0
 49
-0.25
 74
     0
  0
ENDTAB
  0
TABLE
  2
LAYER
  5
2
102
{ACAD_XDICTIONARY
360
22D
102
}
330
0
100
AcDbSymbolTable
 70
     7
  0
LAYER
  5
10
330
2
100
AcDbSymbolTableRecord
100
AcDbLayerTableRecord
  2
0
 70
     0
 62
     7
  6
CONTINUOUS
  0
LAYER
  5
220
330
2
100
AcDbSymbolTableRecord
100
AcDbLayerTableRecord
  2
外枠
 70
     0
 62
     7
  6
CONTINUOUS
  0
LAYER
  5
222
330
2
100
AcDbSymbolTableRecord
100
AcDbLayerTableRecord
  2
DEFPOINTS
 70
     0
 62
     7
  6
CONTINUOUS
  0
LAYER
  5
223
330
2
100
AcDbSymbolTableRecord
100
AcDbLayerTableRecord
  2
CLASS1
 70
     0
 62
     7
  6
CONTINUOUS
  0
LAYER
  5
224
330
2
100
AcDbSymbolTableRecord
100
AcDbLayerTableRecord
  2
3_表示パネル
 70
     0
 62
     7
  6
DIVIDE
  0
LAYER
  5
225
330
2
100
AcDbSymbolTableRecord
100
AcDbLayerTableRecord
  2
外形
 70
     0
 62
     7
  6
CONTINUOUS
  0
ENDTAB
  0
TABLE
  2
STYLE
  5
3
330
0
100
AcDbSymbolTable
 70
     2
  0
STYLE
  5
11
330
3
100
AcDbSymbolTableRecord
100
AcDbTextStyleTableRecord
  2
STANDARD
 70
     0
 40
0.0
 41
1.0
 50
0.0
 71
     0
 42
2.5
  3
txt
  4

  0
ENDTAB
  0
TABLE
  2
VIEW
  5
6
330
0
100
AcDbSymbolTable
 70
     0
  0
ENDTAB
  0
TABLE
  2
UCS
  5
7
330
0
100
AcDbSymbolTable
 70
     0
  0
ENDTAB
  0
TABLE
  2
APPID
  5
9
330
0
100
AcDbSymbolTable
 70
     1
  0
APPID
  5
12
330
9
100
AcDbSymbolTableRecord
100
AcDbRegAppTableRecord
  2
ACAD
 70
     0
  0
ENDTAB
  0
TABLE
  2
DIMSTYLE
  5
A
330
0
100
AcDbSymbolTable
 70
     7
  0
DIMSTYLE
105
27
330
A
100
AcDbSymbolTableRecord
100
AcDbDimStyleTableRecord
  2
ISO-25
 70
     0
  3

  4

  5

  6

  7

 40
1.0
 41
2.5
 42
0.625
 43
3.75
 44
1.25
 45
0.0
 46
0.0
 47
0.0
 48
0.0
140
2.5
141
2.5
142
0.0
143
0.03937007874016
144
1.0
145
0.0
146
1.0
147
0.625
 71
     0
 72
     0
 73
     0
 74
     0
 75
     0
 76
     0
 77
     1
 78
     8
170
     0
171
     3
172
     1
173
     0
174
     0
175
     0
176
     0
177
     0
178
     0
270
     2
271
     2
272
     2
273
     2
274
     3
340
11
275
     0
280
     0
281
     0
282
     0
283
     0
284
     8
285
     0
286
     0
287
     3
288
     0
  0
ENDTAB
  0
TABLE
  2
BLOCK_RECORD
  5
1
330
0
100
AcDbSymbolTable
 70
    18
  0
BLOCK_RECORD
  5
1F
102
{ACAD_XDICTIONARY
360
B70
102
}
330
1
100
AcDbSymbolTableRecord
100
AcDbBlockTableRecord
  2
*MODEL_SPACE
  0
BLOCK_RECORD
  5
1B
102
{ACAD_XDICTIONARY
360
B6E
102
}
330
1
100
AcDbSymbolTableRecord
100
AcDbBlockTableRecord
  2
*PAPER_SPACE
  0
BLOCK_RECORD
  5
31
330
1
100
AcDbSymbolTableRecord
100
AcDbBlockTableRecord
  2
A$C51C20FFB
  0
BLOCK_RECORD
  5
38
330
1
100
AcDbSymbolTableRecord
100
AcDbBlockTableRecord
  2
A$C627E4F0D
  0
ENDTAB
  0
ENDSEC
  0
SECTION
  2
BLOCKS
  0
BLOCK
  5
20
330
1F
100
AcDbEntity
  8
0
100
AcDbBlockBegin
  2
*MODEL_SPACE
 70
     0
 10
0.0
 20
0.0
 30
0.0
  3
*MODEL_SPACE
  1

  0
ENDBLK
  5
21
330
1F
100
AcDbEntity
  8
0
100
AcDbBlockEnd
  0
BLOCK
  5
1C
330
1B
100
AcDbEntity
 67
     1
  8
0
100
AcDbBlockBegin
  2
*PAPER_SPACE
 70
     0
 10
0.0
 20
0.0
 30
0.0
  3
*PAPER_SPACE
  1

  0
ENDBLK
  5
1D
330
1B
100
AcDbEntity
 67
     1
  8
0
100
AcDbBlockEnd
  0
BLOCK
  5
36
330
31
100
AcDbEntity
  8
0
100
AcDbBlockBegin
  2
A$C51C20FFB
 70
     0
 10
0.0
 20
0.0
 30
0.0
  3
A$C51C20FFB
  1

  0
LINE
  5
32
330
31
100
AcDbEntity
  8
0
100
AcDbLine
 10
31.0
 20
2.499998662678081
 30
0.0
 11
0.0
 21
2.499998662678081
 31
0.0
  0
LINE
  5
33
330
31
100
AcDbEntity
  8
0
100
AcDbLine
 10
31.0
 20
-0.000001337321919
 30
0.0
 11
31.0
 21
2.499998662678081
 31
0.0
  0
LINE
  5
34
330
31
100
AcDbEntity
  8
0
100
AcDbLine
 10
0.0
 20
-0.000001337321919
 30
0.0
 11
31.0
 21
-0.000001337321919
 31
0.0
  0
LINE
  5
35
330
31
100
AcDbEntity
  8
0
100
AcDbLine
 10
0.0
 20
2.499998662678081
 30
0.0
 11
0.0
 21
-0.000001337321919
 31
0.0
  0
ENDBLK
  5
37
330
31
100
AcDbEntity
  8
0
100
AcDbBlockEnd
  0
BLOCK
  5
1D1
330
38
100
AcDbEntity
  8
0
100
AcDbBlockBegin
  2
A$C627E4F0D
 70
     0
 10
0.0
 20
0.0
 30
0.0
  3
A$C627E4F0D
  1

  0
LINE
  5
39
330
38
100
AcDbEntity
  8
0
100
AcDbLine
 10
-0.1890242188134152
 20
-0.8071067811864567
 30
0.0
 11
-0.1890242188134152
 21
-23.60710678118651
 31
0.0
  0
LINE
  5
3A
330
38
100
AcDbEntity
  8
0
100
AcDbLine
 10
-0.2928932188134468
 20
-0.7071067811864343
 30
0.0
 11
-0.2928932188134468
 21
-23.70710678118642
 31
0.0
  0
ARC
  5
3B
330
38
100
AcDbEntity
  8
0
100
AcDbCircle
 10
0.8109757811865847
 20
-23.60710678118656
 30
0.0
 40
1.0
100
AcDbArc
 50
180.0
 51
270.0
  0
ARC
  5
3C
330
38
100
AcDbEntity
  8
0
100
AcDbCircle
 10
0.7071067811865534
 20
-23.70710678118653
 30
0.0
 40
1.0
100
AcDbArc
 50
180.0
 51
270.0
  0
LINE
  5
3D
330
38
100
AcDbEntity
  8
0
100
AcDbLine
 10
46.91097578118671
 20
-10.10710678118652
 30
0.0
 11
52.61097578118675
 21
-10.10710678118652
 31
0.0
  0
LINE
  5
3E
330
38
100
AcDbEntity
  8
外枠
100
AcDbLine
 10
46.38097478118459
 20
-17.60710678118652
 30
0.0
 11
47.1309747811864
 21
-17.60710678118652
 31
0.0
  0
LINE
  5
3F
330
38
100
AcDbEntity
  8
0
100
AcDbLine
 10
18.0309747811865
 20
-4.407106781186478
 30
0.0
 11
21.1309747811864
 21
-4.407106781186478
 31
0.0
  0
CIRCLE
  5
40
330
38
100
AcDbEntity
  8
0
100
AcDbCircle
 10
19.59597478118654
 20
-9.207106781186547
 30
0.0
 40
1.564999999999999
  0
LINE
  5
41
330
38
100
AcDbEntity
  8
0
100
AcDbLine
 10
20.73097478118654
 20
-7.057106781186455
 30
0.0
 11
17.69097478118657
 21
-7.057106781186455
 31
0.0
  0
LINE
  5
42
330
38
100
AcDbEntity
  8
0
100
AcDbLine
 10
18.0309747811865
 20
-6.907106781186477
 30
0.0
 11
20.73097478118654
 21
-6.907106781186477
 31
0.0
  0
ARC
  5
43
330
38
100
AcDbEntity
  8
0
100
AcDbCircle
 10
19.59597478118654
 20
-9.207106781186547
 30
0.0
 40
0.85
100
AcDbArc
 50
270.0
 51
233.269604999998
  0
LINE
  5
44
330
38
100
AcDbEntity
  8
0
100
AcDbLine
 10
21.43097478118659
 20
-5.057106781186456
 30
0.0
 11
18.63097478118641
 21
-5.057106781186456
 31
0.0
  0
LINE
  5
45
330
38
100
AcDbEntity
  8
0
100
AcDbLine
 10
18.63097478118641
 20
-6.257106781186503
 30
0.0
 11
21.43097478118659
 21
-6.257106781186503
 31
0.0
  0
LINE
  5
46
330
38
100
AcDbEntity
  8
0
100
AcDbLine
 10
5.710975781186673
 20
-3.907106781186477
 30
0.0
 11
35.61097578118676
 21
-3.907106781186477
 31
0.0
  0
LINE
  5
47
330
38
100
AcDbEntity
  8
0
100
AcDbLine
 10
19.10097478118643
 20
-17.60710678118652
 30
0.0
 11
18.70097478118657
 21
-17.60710678118652
 31
0.0
  0
LINE
  5
48
330
38
100
AcDbEntity
  8
0
100
AcDbLine
 10
21.50097478118651
 20
-12.23710678118651
 30
0.0
 11
17.69097478118657
 21
-12.23710678118651
 31
0.0
  0
LINE
  5
49
330
38
100
AcDbEntity
  8
0
100
AcDbLine
 10
35.43097478118659
 20
-17.10710678118652
 30
0.0
 11
6.370974781186418
 21
-17.10710678118652
 31
0.0
  0
LINE
  5
4A
330
38
100
AcDbEntity
  8
外枠
100
AcDbLine
 10
36.18097478118568
 20
-17.60710678118652
 30
0.0
 11
5.710975781186673
 21
-17.60710678118652
 31
0.0
  0
LINE
  5
4B
330
38
100
AcDbEntity
  8
0
100
AcDbLine
 10
17.69097478118657
 20
-12.23710678118651
 30
0.0
 11
17.69097478118657
 21
-16.6071067811865
 31
0.0
  0
LINE
  5
4C
330
38
100
AcDbEntity
  8
0
100
AcDbLine
 10
17.69097478118657
 20
-12.23710678118651
 30
0.0
 11
17.69097478118657
 21
-12.67710678118646
 31
0.0
  0
LINE
  5
4D
330
38
100
AcDbEntity
  8
0
100
AcDbLine
 10
13.88097478118639
 20
-12.23710678118651
 30
0.0
 11
13.88097478118639
 21
-16.6071067811865
 31
0.0
  0
LINE
  5
4E
330
38
100
AcDbEntity
  8
0
100
AcDbLine
 10
13.88097478118639
 20
-12.23710678118651
 30
0.0
 11
13.88097478118639
 21
-12.67710678118646
 31
0.0
  0
LINE
  5
4F
330
38
100
AcDbEntity
  8
0
100
AcDbLine
 10
10.07097478118646
 20
-12.23710678118651
 30
0.0
 11
10.07097478118646
 21
-16.6071067811865
 31
0.0
  0
LINE
  5
50
330
38
100
AcDbEntity
  8
0
100
AcDbLine
 10
10.07097478118646
 20
-12.23710678118651
 30
0.0
 11
10.07097478118646
 21
-12.67710678118646
 31
0.0
  0
LINE
  5
51
330
38
100
AcDbEntity
  8
0
100
AcDbLine
 10
6.260974781186519
 20
-12.23710678118651
 30
0.0
 11
6.260974781186519
 21
-16.6071067811865
 31
0.0
  0
LINE
  5
52
330
38
100
AcDbEntity
  8
0
100
AcDbLine
 10
5.710975781186673
 20
-3.907106781186477
 30
0.0
 11
5.710975781186673
 21
-18.10710678118652
 31
0.0
  0
LINE
  5
53
330
38
100
AcDbEntity
  8
0
100
AcDbLine
 10
18.70097478118657
 20
-17.60710678118652
 30
0.0
 11
18.20097478118657
 21
-17.60710678118652
 31
0.0
  0
LINE
  5
54
330
38
100
AcDbEntity
  8
0
100
AcDbLine
 10
17.69097478118657
 20
-17.10710678118652
 30
0.0
 11
17.69097478118657
 21
-16.6071067811865
 31
0.0
  0
LINE
  5
55
330
38
100
AcDbEntity
  8
0
100
AcDbLine
 10
17.69097478118657
 20
-17.10710678118652
 30
0.0
 11
17.69097478118657
 21
-16.6071067811865
 31
0.0
  0
LINE
  5
56
330
38
100
AcDbEntity
  8
0
100
AcDbLine
 10
18.20097478118657
 20
-17.60710678118652
 30
0.0
 11
17.80097478118648
 21
-17.60710678118652
 31
0.0
  0
LINE
  5
57
330
38
100
AcDbEntity
  8
0
100
AcDbLine
 10
17.80097478118648
 20
-17.10710678118652
 30
0.0
 11
17.69097478118657
 21
-17.10710678118652
 31
0.0
  0
LINE
  5
58
330
38
100
AcDbEntity
  8
0
100
AcDbLine
 10
17.80097478118648
 20
-17.10710678118652
 30
0.0
 11
17.80097478118648
 21
-17.60710678118652
 31
0.0
  0
LINE
  5
59
330
38
100
AcDbEntity
  8
0
100
AcDbLine
 10
17.69097478118657
 20
-14.20710678118643
 30
0.0
 11
17.69097478118657
 21
-16.6071067811865
 31
0.0
  0
LINE
  5
5A
330
38
100
AcDbEntity
  8
0
100
AcDbLine
 10
17.69097478118657
 20
-12.67710678118646
 30
0.0
 11
17.69097478118657
 21
-12.80710678118645
 31
0.0
  0
LINE
  5
5B
330
38
100
AcDbEntity
  8
0
100
AcDbLine
 10
17.69097478118657
 20
-12.80710678118645
 30
0.0
 11
17.69097478118657
 21
-14.20710678118643
 31
0.0
  0
LINE
  5
5C
330
38
100
AcDbEntity
  8
0
100
AcDbLine
 10
11.48097478118652
 20
-17.10710678118652
 30
0.0
 11
11.48097478118652
 21
-17.60710678118652
 31
0.0
  0
LINE
  5
5D
330
38
100
AcDbEntity
  8
0
100
AcDbLine
 10
13.88097478118639
 20
-17.10710678118652
 30
0.0
 11
13.88097478118639
 21
-16.6071067811865
 31
0.0
  0
LINE
  5
5E
330
38
100
AcDbEntity
  8
0
100
AcDbLine
 10
13.88097478118639
 20
-17.10710678118652
 30
0.0
 11
13.88097478118639
 21
-16.6071067811865
 31
0.0
  0
LINE
  5
5F
330
38
100
AcDbEntity
  8
0
100
AcDbLine
 10
14.3909747811864
 20
-17.60710678118652
 30
0.0
 11
13.99097478118652
 21
-17.60710678118652
 31
0.0
  0
LINE
  5
60
330
38
100
AcDbEntity
  8
0
100
AcDbLine
 10
14.89097478118639
 20
-17.60710678118652
 30
0.0
 11
14.3909747811864
 21
-17.60710678118652
 31
0.0
  0
LINE
  5
61
330
38
100
AcDbEntity
  8
0
100
AcDbLine
 10
15.29097478118649
 20
-17.60710678118652
 30
0.0
 11
14.89097478118639
 21
-17.60710678118652
 31
0.0
  0
LINE
  5
62
330
38
100
AcDbEntity
  8
0
100
AcDbLine
 10
13.99097478118652
 20
-17.10710678118652
 30
0.0
 11
13.88097478118639
 21
-17.10710678118652
 31
0.0
  0
LINE
  5
63
330
38
100
AcDbEntity
  8
0
100
AcDbLine
 10
13.99097478118652
 20
-17.10710678118652
 30
0.0
 11
13.99097478118652
 21
-17.60710678118652
 31
0.0
  0
LINE
  5
64
330
38
100
AcDbEntity
  8
0
100
AcDbLine
 10
15.29097478118649
 20
-17.10710678118652
 30
0.0
 11
15.29097478118649
 21
-17.60710678118652
 31
0.0
  0
LINE
  5
65
330
38
100
AcDbEntity
  8
0
100
AcDbLine
 10
13.88097478118639
 20
-14.20710678118643
 30
0.0
 11
13.88097478118639
 21
-16.6071067811865
 31
0.0
  0
LINE
  5
66
330
38
100
AcDbEntity
  8
0
100
AcDbLine
 10
13.88097478118639
 20
-12.67710678118646
 30
0.0
 11
13.88097478118639
 21
-12.80710678118645
 31
0.0
  0
LINE
  5
67
330
38
100
AcDbEntity
  8
0
100
AcDbLine
 10
13.88097478118639
 20
-12.80710678118645
 30
0.0
 11
13.88097478118639
 21
-14.20710678118643
 31
0.0
  0
LINE
  5
68
330
38
100
AcDbEntity
  8
0
100
AcDbLine
 10
10.58097478118644
 20
-17.60710678118652
 30
0.0
 11
10.18097478118659
 21
-17.60710678118652
 31
0.0
  0
LINE
  5
69
330
38
100
AcDbEntity
  8
0
100
AcDbLine
 10
7.6709747811866
 20
-17.60710678118652
 30
0.0
 11
7.270974781186509
 21
-17.60710678118652
 31
0.0
  0
LINE
  5
6A
330
38
100
AcDbEntity
  8
0
100
AcDbLine
 10
7.270974781186509
 20
-17.60710678118652
 30
0.0
 11
6.770974781186509
 21
-17.60710678118652
 31
0.0
  0
LINE
  5
6B
330
38
100
AcDbEntity
  8
0
100
AcDbLine
 10
7.6709747811866
 20
-17.10710678118652
 30
0.0
 11
7.6709747811866
 21
-17.60710678118652
 31
0.0
  0
LINE
  5
6C
330
38
100
AcDbEntity
  8
0
100
AcDbLine
 10
10.07097478118646
 20
-17.10710678118652
 30
0.0
 11
10.07097478118646
 21
-16.6071067811865
 31
0.0
  0
LINE
  5
6D
330
38
100
AcDbEntity
  8
0
100
AcDbLine
 10
10.07097478118646
 20
-17.10710678118652
 30
0.0
 11
10.07097478118646
 21
-16.6071067811865
 31
0.0
  0
LINE
  5
6E
330
38
100
AcDbEntity
  8
0
100
AcDbLine
 10
10.18097478118659
 20
-17.10710678118652
 30
0.0
 11
10.07097478118646
 21
-17.10710678118652
 31
0.0
  0
LINE
  5
6F
330
38
100
AcDbEntity
  8
0
100
AcDbLine
 10
10.18097478118659
 20
-17.10710678118652
 30
0.0
 11
10.18097478118659
 21
-17.60710678118652
 31
0.0
  0
LINE
  5
70
330
38
100
AcDbEntity
  8
0
100
AcDbLine
 10
10.07097478118646
 20
-14.20710678118643
 30
0.0
 11
10.07097478118646
 21
-16.6071067811865
 31
0.0
  0
LINE
  5
71
330
38
100
AcDbEntity
  8
0
100
AcDbLine
 10
10.07097478118646
 20
-12.80710678118645
 30
0.0
 11
10.07097478118646
 21
-14.20710678118643
 31
0.0
  0
LINE
  5
72
330
38
100
AcDbEntity
  8
0
100
AcDbLine
 10
10.07097478118646
 20
-12.67710678118646
 30
0.0
 11
10.07097478118646
 21
-12.80710678118645
 31
0.0
  0
LINE
  5
73
330
38
100
AcDbEntity
  8
0
100
AcDbLine
 10
11.08097478118645
 20
-17.60710678118652
 30
0.0
 11
10.58097478118644
 21
-17.60710678118652
 31
0.0
  0
LINE
  5
74
330
38
100
AcDbEntity
  8
0
100
AcDbLine
 10
11.48097478118652
 20
-17.60710678118652
 30
0.0
 11
11.08097478118645
 21
-17.60710678118652
 31
0.0
  0
LINE
  5
75
330
38
100
AcDbEntity
  8
0
100
AcDbLine
 10
6.260974781186519
 20
-17.10710678118652
 30
0.0
 11
6.260974781186519
 21
-16.6071067811865
 31
0.0
  0
LINE
  5
76
330
38
100
AcDbEntity
  8
0
100
AcDbLine
 10
6.370974781186418
 20
-17.10710678118652
 30
0.0
 11
6.370974781186418
 21
-17.60710678118652
 31
0.0
  0
LINE
  5
77
330
38
100
AcDbEntity
  8
0
100
AcDbLine
 10
6.370974781186418
 20
-17.10710678118652
 30
0.0
 11
6.260974781186519
 21
-17.10710678118652
 31
0.0
  0
LINE
  5
78
330
38
100
AcDbEntity
  8
0
100
AcDbLine
 10
6.770974781186509
 20
-17.60710678118652
 30
0.0
 11
6.370974781186418
 21
-17.60710678118652
 31
0.0
  0
ARC
  5
79
330
38
100
AcDbEntity
  8
0
100
AcDbCircle
 10
18.0309747811865
 20
-4.707106781186547
 30
0.0
 40
0.3
100
AcDbArc
 50
90.0
 51
180.0
  0
LINE
  5
7A
330
38
100
AcDbEntity
  8
0
100
AcDbLine
 10
17.62097478118642
 20
-4.707106781186433
 30
0.0
 11
17.62097478118642
 21
-4.807106781186456
 31
0.0
  0
ARC
  5
7B
330
38
100
AcDbEntity
  8
0
100
AcDbCircle
 10
17.32097478118646
 20
-4.707106781186547
 30
0.0
 40
0.3
100
AcDbArc
 50
0.0
 51
90.0
  0
LINE
  5
7C
330
38
100
AcDbEntity
  8
0
100
AcDbLine
 10
17.73097478118653
 20
-4.707106781186433
 30
0.0
 11
17.73097478118653
 21
-4.807106781186456
 31
0.0
  0
LINE
  5
7D
330
38
100
AcDbEntity
  8
0
100
AcDbLine
 10
17.69097478118657
 20
-7.557106781186455
 30
0.0
 11
17.69097478118657
 21
-11.27710678118648
 31
0.0
  0
ARC
  5
7E
330
38
100
AcDbEntity
  8
0
100
AcDbCircle
 10
18.63097478118641
 20
-5.357106781186582
 30
0.0
 40
0.3
100
AcDbArc
 50
90.0
 51
180.0
  0
LINE
  5
7F
330
38
100
AcDbEntity
  8
0
100
AcDbLine
 10
17.62097478118642
 20
-5.357106781186525
 30
0.0
 11
17.62097478118642
 21
-5.057106781186456
 31
0.0
  0
ARC
  5
80
330
38
100
AcDbEntity
  8
0
100
AcDbCircle
 10
18.63097478118641
 20
-5.957106781186547
 30
0.0
 40
0.3
100
AcDbArc
 50
180.0
 51
270.0
  0
LINE
  5
81
330
38
100
AcDbEntity
  8
0
100
AcDbLine
 10
17.62097478118642
 20
-7.057106781186455
 30
0.0
 11
16.9209747811866
 21
-7.057106781186455
 31
0.0
  0
LINE
  5
82
330
38
100
AcDbEntity
  8
0
100
AcDbLine
 10
16.9209747811866
 20
-6.907106781186477
 30
0.0
 11
17.62097478118642
 21
-6.907106781186477
 31
0.0
  0
ARC
  5
83
330
38
100
AcDbEntity
  8
0
100
AcDbCircle
 10
18.0309747811865
 20
-6.607106781186582
 30
0.0
 40
0.3
100
AcDbArc
 50
180.0
 51
270.0
  0
LINE
  5
84
330
38
100
AcDbEntity
  8
0
100
AcDbLine
 10
17.69097478118657
 20
-7.057106781186455
 30
0.0
 11
17.62097478118642
 21
-7.057106781186455
 31
0.0
  0
LINE
  5
85
330
38
100
AcDbEntity
  8
0
100
AcDbLine
 10
17.69097478118657
 20
-7.557106781186455
 30
0.0
 11
17.69097478118657
 21
-7.057106781186455
 31
0.0
  0
LINE
  5
86
330
38
100
AcDbEntity
  8
0
100
AcDbLine
 10
17.62097478118642
 20
-6.257106781186503
 30
0.0
 11
17.62097478118642
 21
-5.957106781186434
 31
0.0
  0
LINE
  5
87
330
38
100
AcDbEntity
  8
0
100
AcDbLine
 10
17.62097478118642
 20
-6.257106781186503
 30
0.0
 11
17.62097478118642
 21
-6.507106781186503
 31
0.0
  0
LINE
  5
88
330
38
100
AcDbEntity
  8
0
100
AcDbLine
 10
17.62097478118642
 20
-6.907106781186477
 30
0.0
 11
17.62097478118642
 21
-7.057106781186455
 31
0.0
  0
LINE
  5
89
330
38
100
AcDbEntity
  8
0
100
AcDbLine
 10
17.62097478118642
 20
-6.507106781186503
 30
0.0
 11
17.62097478118642
 21
-6.907106781186477
 31
0.0
  0
LINE
  5
8A
330
38
100
AcDbEntity
  8
0
100
AcDbLine
 10
17.69097478118657
 20
-7.557106781186455
 30
0.0
 11
17.69097478118657
 21
-7.057106781186455
 31
0.0
  0
LINE
  5
8B
330
38
100
AcDbEntity
  8
0
100
AcDbLine
 10
17.73097478118653
 20
-6.507106781186503
 30
0.0
 11
17.73097478118653
 21
-6.607106781186526
 31
0.0
  0
LINE
  5
8C
330
38
100
AcDbEntity
  8
0
100
AcDbLine
 10
16.9209747811866
 20
-6.907106781186477
 30
0.0
 11
16.9209747811866
 21
-7.057106781186455
 31
0.0
  0
LINE
  5
8D
330
38
100
AcDbEntity
  8
0
100
AcDbLine
 10
17.62097478118642
 20
-5.357106781186525
 30
0.0
 11
17.62097478118642
 21
-5.957106781186434
 31
0.0
  0
LINE
  5
8E
330
38
100
AcDbEntity
  8
0
100
AcDbLine
 10
18.33097478118644
 20
-5.357106781186525
 30
0.0
 11
18.33097478118644
 21
-5.957106781186434
 31
0.0
  0
LINE
  5
8F
330
38
100
AcDbEntity
  8
0
100
AcDbLine
 10
17.62097478118642
 20
-4.807106781186456
 30
0.0
 11
17.62097478118642
 21
-5.057106781186456
 31
0.0
  0
LINE
  5
90
330
38
100
AcDbEntity
  8
0
100
AcDbLine
 10
17.73097478118653
 20
-4.807106781186456
 30
0.0
 11
17.73097478118653
 21
-6.507106781186503
 31
0.0
  0
ARC
  5
91
330
38
100
AcDbEntity
  8
0
100
AcDbCircle
 10
13.51097478118649
 20
-4.707106781186547
 30
0.0
 40
0.3
100
AcDbArc
 50
0.0
 51
90.0
  0
LINE
  5
92
330
38
100
AcDbEntity
  8
0
100
AcDbLine
 10
13.81097478118647
 20
-4.707106781186433
 30
0.0
 11
13.81097478118647
 21
-4.807106781186456
 31
0.0
  0
LINE
  5
93
330
38
100
AcDbEntity
  8
0
100
AcDbLine
 10
13.92097478118659
 20
-4.707106781186433
 30
0.0
 11
13.92097478118659
 21
-4.807106781186456
 31
0.0
  0
ARC
  5
94
330
38
100
AcDbEntity
  8
0
100
AcDbCircle
 10
14.22097478118655
 20
-4.707106781186547
 30
0.0
 40
0.3
100
AcDbArc
 50
90.0
 51
180.0
  0
LINE
  5
95
330
38
100
AcDbEntity
  8
0
100
AcDbLine
 10
6.600974781186437
 20
-4.407106781186478
 30
0.0
 11
9.700974781186571
 21
-4.407106781186478
 31
0.0
  0
ARC
  5
96
330
38
100
AcDbEntity
  8
0
100
AcDbCircle
 10
10.41097478118661
 20
-4.707106781186547
 30
0.0
 40
0.3
100
AcDbArc
 50
90.0
 51
180.0
  0
LINE
  5
97
330
38
100
AcDbEntity
  8
0
100
AcDbLine
 10
10.00097478118652
 20
-4.707106781186433
 30
0.0
 11
10.00097478118652
 21
-4.807106781186456
 31
0.0
  0
LINE
  5
98
330
38
100
AcDbEntity
  8
0
100
AcDbLine
 10
10.11097478118641
 20
-4.707106781186433
 30
0.0
 11
10.11097478118641
 21
-4.807106781186456
 31
0.0
  0
ARC
  5
99
330
38
100
AcDbEntity
  8
0
100
AcDbCircle
 10
9.700974781186571
 20
-4.707106781186547
 30
0.0
 40
0.3
100
AcDbArc
 50
0.0
 51
90.0
  0
LINE
  5
9A
330
38
100
AcDbEntity
  8
0
100
AcDbLine
 10
10.41097478118661
 20
-4.407106781186478
 30
0.0
 11
13.51097478118649
 21
-4.407106781186478
 31
0.0
  0
LINE
  5
9B
330
38
100
AcDbEntity
  8
0
100
AcDbLine
 10
13.88097478118639
 20
-7.557106781186455
 30
0.0
 11
13.88097478118639
 21
-11.27710678118648
 31
0.0
  0
LINE
  5
9C
330
38
100
AcDbEntity
  8
0
100
AcDbLine
 10
13.11097478118642
 20
-6.907106781186477
 30
0.0
 11
13.81097478118647
 21
-6.907106781186477
 31
0.0
  0
LINE
  5
9D
330
38
100
AcDbEntity
  8
0
100
AcDbLine
 10
13.81097478118647
 20
-7.057106781186455
 30
0.0
 11
13.11097478118642
 21
-7.057106781186455
 31
0.0
  0
LINE
  5
9E
330
38
100
AcDbEntity
  8
0
100
AcDbLine
 10
13.11097478118642
 20
-6.907106781186477
 30
0.0
 11
13.11097478118642
 21
-7.057106781186455
 31
0.0
  0
ARC
  5
9F
330
38
100
AcDbEntity
  8
0
100
AcDbCircle
 10
11.97597478118643
 20
-9.207106781186547
 30
0.0
 40
0.85
100
AcDbArc
 50
233.269604999998
 51
270.0
  0
LINE
  5
A0
330
38
100
AcDbEntity
  8
0
100
AcDbLine
 10
13.81097478118647
 20
-5.357106781186525
 30
0.0
 11
13.81097478118647
 21
-5.057106781186456
 31
0.0
  0
ARC
  5
A1
330
38
100
AcDbEntity
  8
0
100
AcDbCircle
 10
14.82097478118646
 20
-5.357106781186582
 30
0.0
 40
0.3
100
AcDbArc
 50
90.0
 51
180.0
  0
LINE
  5
A2
330
38
100
AcDbEntity
  8
0
100
AcDbLine
 10
13.81097478118647
 20
-6.257106781186503
 30
0.0
 11
13.81097478118647
 21
-5.957106781186434
 31
0.0
  0
LINE
  5
A3
330
38
100
AcDbEntity
  8
0
100
AcDbLine
 10
13.81097478118647
 20
-6.257106781186503
 30
0.0
 11
13.81097478118647
 21
-6.507106781186503
 31
0.0
  0
LINE
  5
A4
330
38
100
AcDbEntity
  8
0
100
AcDbLine
 10
13.81097478118647
 20
-6.907106781186477
 30
0.0
 11
13.81097478118647
 21
-7.057106781186455
 31
0.0
  0
LINE
  5
A5
330
38
100
AcDbEntity
  8
0
100
AcDbLine
 10
13.81097478118647
 20
-6.507106781186503
 30
0.0
 11
13.81097478118647
 21
-6.907106781186477
 31
0.0
  0
LINE
  5
A6
330
38
100
AcDbEntity
  8
0
100
AcDbLine
 10
13.88097478118639
 20
-7.557106781186455
 30
0.0
 11
13.88097478118639
 21
-7.057106781186455
 31
0.0
  0
LINE
  5
A7
330
38
100
AcDbEntity
  8
0
100
AcDbLine
 10
13.92097478118659
 20
-6.507106781186503
 30
0.0
 11
13.92097478118659
 21
-6.607106781186526
 31
0.0
  0
ARC
  5
A8
330
38
100
AcDbEntity
  8
0
100
AcDbCircle
 10
14.82097478118646
 20
-5.957106781186547
 30
0.0
 40
0.3
100
AcDbArc
 50
180.0
 51
270.0
  0
ARC
  5
A9
330
38
100
AcDbEntity
  8
0
100
AcDbCircle
 10
14.22097478118655
 20
-6.607106781186582
 30
0.0
 40
0.3
100
AcDbArc
 50
180.0
 51
270.0
  0
LINE
  5
AA
330
38
100
AcDbEntity
  8
0
100
AcDbLine
 10
13.88097478118639
 20
-7.557106781186455
 30
0.0
 11
13.88097478118639
 21
-7.057106781186455
 31
0.0
  0
LINE
  5
AB
330
38
100
AcDbEntity
  8
0
100
AcDbLine
 10
13.88097478118639
 20
-7.057106781186455
 30
0.0
 11
13.81097478118647
 21
-7.057106781186455
 31
0.0
  0
ARC
  5
AC
330
38
100
AcDbEntity
  8
0
100
AcDbCircle
 10
15.78597478118661
 20
-9.207106781186547
 30
0.0
 40
0.85
100
AcDbArc
 50
233.269604999998
 51
270.0
  0
LINE
  5
AD
330
38
100
AcDbEntity
  8
0
100
AcDbLine
 10
13.81097478118647
 20
-5.357106781186525
 30
0.0
 11
13.81097478118647
 21
-5.957106781186434
 31
0.0
  0
LINE
  5
AE
330
38
100
AcDbEntity
  8
0
100
AcDbLine
 10
14.52097478118651
 20
-5.357106781186525
 30
0.0
 11
14.52097478118651
 21
-5.957106781186434
 31
0.0
  0
LINE
  5
AF
330
38
100
AcDbEntity
  8
0
100
AcDbLine
 10
10.07097478118646
 20
-7.557106781186455
 30
0.0
 11
10.07097478118646
 21
-11.27710678118648
 31
0.0
  0
CIRCLE
  5
B0
330
38
100
AcDbEntity
  8
0
100
AcDbCircle
 10
8.165974781186491
 20
-9.207106781186547
 30
0.0
 40
1.564999999999999
  0
LINE
  5
B1
330
38
100
AcDbEntity
  8
0
100
AcDbLine
 10
10.00097478118652
 20
-5.057106781186456
 30
0.0
 11
7.200974781186572
 21
-5.057106781186456
 31
0.0
  0
LINE
  5
B2
330
38
100
AcDbEntity
  8
0
100
AcDbLine
 10
6.600974781186437
 20
-6.907106781186477
 30
0.0
 11
9.300974781186482
 21
-6.907106781186477
 31
0.0
  0
ARC
  5
B3
330
38
100
AcDbEntity
  8
0
100
AcDbCircle
 10
8.165974781186491
 20
-9.207106781186547
 30
0.0
 40
0.85
100
AcDbArc
 50
270.0
 51
233.269604999998
  0
LINE
  5
B4
330
38
100
AcDbEntity
  8
0
100
AcDbLine
 10
7.200974781186572
 20
-6.257106781186503
 30
0.0
 11
10.00097478118652
 21
-6.257106781186503
 31
0.0
  0
ARC
  5
B5
330
38
100
AcDbEntity
  8
0
100
AcDbCircle
 10
7.200974781186572
 20
-5.357106781186582
 30
0.0
 40
0.3
100
AcDbArc
 50
90.0
 51
180.0
  0
ARC
  5
B6
330
38
100
AcDbEntity
  8
0
100
AcDbCircle
 10
8.165974781186491
 20
-9.207106781186547
 30
0.0
 40
0.85
100
AcDbArc
 50
233.269604999998
 51
270.0
  0
ARC
  5
B7
330
38
100
AcDbEntity
  8
0
100
AcDbCircle
 10
7.200974781186572
 20
-5.957106781186547
 30
0.0
 40
0.3
100
AcDbArc
 50
180.0
 51
270.0
  0
LINE
  5
B8
330
38
100
AcDbEntity
  8
0
100
AcDbLine
 10
6.900974781186619
 20
-5.357106781186525
 30
0.0
 11
6.900974781186619
 21
-5.957106781186434
 31
0.0
  0
LINE
  5
B9
330
38
100
AcDbEntity
  8
0
100
AcDbLine
 10
10.00097478118652
 20
-5.357106781186525
 30
0.0
 11
10.00097478118652
 21
-5.057106781186456
 31
0.0
  0
LINE
  5
BA
330
38
100
AcDbEntity
  8
0
100
AcDbLine
 10
9.300974781186482
 20
-6.907106781186477
 30
0.0
 11
9.300974781186482
 21
-7.057106781186455
 31
0.0
  0
ARC
  5
BB
330
38
100
AcDbEntity
  8
0
100
AcDbCircle
 10
10.41097478118661
 20
-6.607106781186582
 30
0.0
 40
0.3
100
AcDbArc
 50
180.0
 51
270.0
  0
LINE
  5
BC
330
38
100
AcDbEntity
  8
0
100
AcDbLine
 10
10.07097478118646
 20
-7.557106781186455
 30
0.0
 11
10.07097478118646
 21
-7.057106781186455
 31
0.0
  0
LINE
  5
BD
330
38
100
AcDbEntity
  8
0
100
AcDbLine
 10
10.00097478118652
 20
-6.507106781186503
 30
0.0
 11
10.00097478118652
 21
-6.907106781186477
 31
0.0
  0
LINE
  5
BE
330
38
100
AcDbEntity
  8
0
100
AcDbLine
 10
10.00097478118652
 20
-6.907106781186477
 30
0.0
 11
10.00097478118652
 21
-7.057106781186455
 31
0.0
  0
LINE
  5
BF
330
38
100
AcDbEntity
  8
0
100
AcDbLine
 10
10.00097478118652
 20
-6.257106781186503
 30
0.0
 11
10.00097478118652
 21
-6.507106781186503
 31
0.0
  0
LINE
  5
C0
330
38
100
AcDbEntity
  8
0
100
AcDbLine
 10
10.00097478118652
 20
-6.257106781186503
 30
0.0
 11
10.00097478118652
 21
-5.957106781186434
 31
0.0
  0
LINE
  5
C1
330
38
100
AcDbEntity
  8
0
100
AcDbLine
 10
10.07097478118646
 20
-7.557106781186455
 30
0.0
 11
10.07097478118646
 21
-7.057106781186455
 31
0.0
  0
LINE
  5
C2
330
38
100
AcDbEntity
  8
0
100
AcDbLine
 10
10.07097478118646
 20
-7.057106781186455
 30
0.0
 11
10.00097478118652
 21
-7.057106781186455
 31
0.0
  0
LINE
  5
C3
330
38
100
AcDbEntity
  8
0
100
AcDbLine
 10
10.11097478118641
 20
-6.507106781186503
 30
0.0
 11
10.11097478118641
 21
-6.607106781186526
 31
0.0
  0
LINE
  5
C4
330
38
100
AcDbEntity
  8
0
100
AcDbLine
 10
9.300974781186482
 20
-6.907106781186477
 30
0.0
 11
10.00097478118652
 21
-6.907106781186477
 31
0.0
  0
LINE
  5
C5
330
38
100
AcDbEntity
  8
0
100
AcDbLine
 10
10.00097478118652
 20
-7.057106781186455
 30
0.0
 11
9.300974781186482
 21
-7.057106781186455
 31
0.0
  0
LINE
  5
C6
330
38
100
AcDbEntity
  8
0
100
AcDbLine
 10
10.00097478118652
 20
-5.357106781186525
 30
0.0
 11
10.00097478118652
 21
-5.957106781186434
 31
0.0
  0
ARC
  5
C7
330
38
100
AcDbEntity
  8
0
100
AcDbCircle
 10
11.01097478118649
 20
-5.357106781186582
 30
0.0
 40
0.3
100
AcDbArc
 50
90.0
 51
180.0
  0
ARC
  5
C8
330
38
100
AcDbEntity
  8
0
100
AcDbCircle
 10
11.01097478118649
 20
-5.957106781186547
 30
0.0
 40
0.3
100
AcDbArc
 50
180.0
 51
270.0
  0
LINE
  5
C9
330
38
100
AcDbEntity
  8
0
100
AcDbLine
 10
10.71097478118656
 20
-5.357106781186525
 30
0.0
 11
10.71097478118656
 21
-5.957106781186434
 31
0.0
  0
CIRCLE
  5
CA
330
38
100
AcDbEntity
  8
0
100
AcDbCircle
 10
11.97597478118643
 20
-9.207106781186547
 30
0.0
 40
1.564999999999999
  0
LINE
  5
CB
330
38
100
AcDbEntity
  8
0
100
AcDbLine
 10
13.11097478118642
 20
-7.057106781186455
 30
0.0
 11
10.07097478118646
 21
-7.057106781186455
 31
0.0
  0
LINE
  5
CC
330
38
100
AcDbEntity
  8
0
100
AcDbLine
 10
10.41097478118661
 20
-6.907106781186477
 30
0.0
 11
13.11097478118642
 21
-6.907106781186477
 31
0.0
  0
LINE
  5
CD
330
38
100
AcDbEntity
  8
0
100
AcDbLine
 10
13.81097478118647
 20
-5.057106781186456
 30
0.0
 11
11.01097478118649
 21
-5.057106781186456
 31
0.0
  0
LINE
  5
CE
330
38
100
AcDbEntity
  8
0
100
AcDbLine
 10
11.01097478118649
 20
-6.257106781186503
 30
0.0
 11
13.81097478118647
 21
-6.257106781186503
 31
0.0
  0
ARC
  5
CF
330
38
100
AcDbEntity
  8
0
100
AcDbCircle
 10
11.97597478118643
 20
-9.207106781186547
 30
0.0
 40
0.85
100
AcDbArc
 50
270.0
 51
233.269604999998
  0
LINE
  5
D0
330
38
100
AcDbEntity
  8
0
100
AcDbLine
 10
10.00097478118652
 20
-4.807106781186456
 30
0.0
 11
10.00097478118652
 21
-5.057106781186456
 31
0.0
  0
LINE
  5
D1
330
38
100
AcDbEntity
  8
0
100
AcDbLine
 10
10.11097478118641
 20
-4.807106781186456
 30
0.0
 11
10.11097478118641
 21
-6.507106781186503
 31
0.0
  0
LINE
  5
D2
330
38
100
AcDbEntity
  8
0
100
AcDbLine
 10
13.81097478118647
 20
-4.807106781186456
 30
0.0
 11
13.81097478118647
 21
-5.057106781186456
 31
0.0
  0
LINE
  5
D3
330
38
100
AcDbEntity
  8
0
100
AcDbLine
 10
13.92097478118659
 20
-4.807106781186456
 30
0.0
 11
13.92097478118659
 21
-6.507106781186503
 31
0.0
  0
CIRCLE
  5
D4
330
38
100
AcDbEntity
  8
0
100
AcDbCircle
 10
15.78597478118661
 20
-9.207106781186547
 30
0.0
 40
1.564999999999999
  0
LINE
  5
D5
330
38
100
AcDbEntity
  8
0
100
AcDbLine
 10
17.62097478118642
 20
-5.057106781186456
 30
0.0
 11
14.82097478118646
 21
-5.057106781186456
 31
0.0
  0
LINE
  5
D6
330
38
100
AcDbEntity
  8
0
100
AcDbLine
 10
14.82097478118646
 20
-6.257106781186503
 30
0.0
 11
17.62097478118642
 21
-6.257106781186503
 31
0.0
  0
LINE
  5
D7
330
38
100
AcDbEntity
  8
0
100
AcDbLine
 10
16.9209747811866
 20
-7.057106781186455
 30
0.0
 11
13.88097478118639
 21
-7.057106781186455
 31
0.0
  0
LINE
  5
D8
330
38
100
AcDbEntity
  8
0
100
AcDbLine
 10
14.22097478118655
 20
-6.907106781186477
 30
0.0
 11
16.9209747811866
 21
-6.907106781186477
 31
0.0
  0
ARC
  5
D9
330
38
100
AcDbEntity
  8
0
100
AcDbCircle
 10
15.78597478118661
 20
-9.207106781186547
 30
0.0
 40
0.85
100
AcDbArc
 50
270.0
 51
233.269604999998
  0
LINE
  5
DA
330
38
100
AcDbEntity
  8
0
100
AcDbLine
 10
14.22097478118655
 20
-4.407106781186478
 30
0.0
 11
17.32097478118646
 21
-4.407106781186478
 31
0.0
  0
LINE
  5
DB
330
38
100
AcDbEntity
  8
0
100
AcDbLine
 10
6.300974781186482
 20
-4.707106781186433
 30
0.0
 11
6.300974781186482
 21
-4.807106781186456
 31
0.0
  0
LINE
  5
DC
330
38
100
AcDbEntity
  8
0
100
AcDbLine
 10
6.300974781186482
 20
-6.507106781186503
 30
0.0
 11
6.300974781186482
 21
-6.607106781186526
 31
0.0
  0
LINE
  5
DD
330
38
100
AcDbEntity
  8
0
100
AcDbLine
 10
6.260974781186519
 20
-7.557106781186455
 30
0.0
 11
6.260974781186519
 21
-7.057106781186455
 31
0.0
  0
LINE
  5
DE
330
38
100
AcDbEntity
  8
0
100
AcDbLine
 10
6.300974781186482
 20
-4.807106781186456
 30
0.0
 11
6.300974781186482
 21
-6.507106781186503
 31
0.0
  0
LINE
  5
DF
330
38
100
AcDbEntity
  8
0
100
AcDbLine
 10
9.300974781186482
 20
-7.057106781186455
 30
0.0
 11
6.260974781186519
 21
-7.057106781186455
 31
0.0
  0
ARC
  5
E0
330
38
100
AcDbEntity
  8
0
100
AcDbCircle
 10
6.600974781186437
 20
-6.607106781186582
 30
0.0
 40
0.3
100
AcDbArc
 50
180.0
 51
270.0
  0
ARC
  5
E1
330
38
100
AcDbEntity
  8
0
100
AcDbCircle
 10
6.600974781186437
 20
-4.707106781186547
 30
0.0
 40
0.3
100
AcDbArc
 50
90.0
 51
180.0
  0
LINE
  5
E2
330
38
100
AcDbEntity
  8
0
100
AcDbLine
 10
17.69097478118657
 20
-12.23710678118651
 30
0.0
 11
17.69097478118657
 21
-12.03710678118647
 31
0.0
  0
LINE
  5
E3
330
38
100
AcDbEntity
  8
0
100
AcDbLine
 10
17.69097478118657
 20
-12.23710678118651
 30
0.0
 11
17.69097478118657
 21
-12.03710678118647
 31
0.0
  0
LINE
  5
E4
330
38
100
AcDbEntity
  8
0
100
AcDbLine
 10
13.88097478118639
 20
-12.23710678118651
 30
0.0
 11
13.88097478118639
 21
-12.03710678118647
 31
0.0
  0
LINE
  5
E5
330
38
100
AcDbEntity
  8
0
100
AcDbLine
 10
13.88097478118639
 20
-12.23710678118651
 30
0.0
 11
13.88097478118639
 21
-12.03710678118647
 31
0.0
  0
LINE
  5
E6
330
38
100
AcDbEntity
  8
0
100
AcDbLine
 10
10.07097478118646
 20
-12.23710678118651
 30
0.0
 11
10.07097478118646
 21
-12.03710678118647
 31
0.0
  0
LINE
  5
E7
330
38
100
AcDbEntity
  8
0
100
AcDbLine
 10
10.07097478118646
 20
-12.23710678118651
 30
0.0
 11
10.07097478118646
 21
-12.03710678118647
 31
0.0
  0
LINE
  5
E8
330
38
100
AcDbEntity
  8
0
100
AcDbLine
 10
13.88097478118639
 20
-12.23710678118651
 30
0.0
 11
10.07097478118646
 21
-12.23710678118651
 31
0.0
  0
LINE
  5
E9
330
38
100
AcDbEntity
  8
0
100
AcDbLine
 10
17.69097478118657
 20
-12.23710678118651
 30
0.0
 11
13.88097478118639
 21
-12.23710678118651
 31
0.0
  0
LINE
  5
EA
330
38
100
AcDbEntity
  8
0
100
AcDbLine
 10
6.260974781186519
 20
-12.23710678118651
 30
0.0
 11
6.260974781186519
 21
-12.03710678118647
 31
0.0
  0
LINE
  5
EB
330
38
100
AcDbEntity
  8
0
100
AcDbLine
 10
10.07097478118646
 20
-12.23710678118651
 30
0.0
 11
6.260974781186519
 21
-12.23710678118651
 31
0.0
  0
LINE
  5
EC
330
38
100
AcDbEntity
  8
0
100
AcDbLine
 10
17.69097478118657
 20
-7.557106781186455
 30
0.0
 11
17.69097478118657
 21
-12.03710678118647
 31
0.0
  0
LINE
  5
ED
330
38
100
AcDbEntity
  8
0
100
AcDbLine
 10
13.88097478118639
 20
-7.557106781186455
 30
0.0
 11
13.88097478118639
 21
-12.03710678118647
 31
0.0
  0
LINE
  5
EE
330
38
100
AcDbEntity
  8
0
100
AcDbLine
 10
10.07097478118646
 20
-7.557106781186455
 30
0.0
 11
10.07097478118646
 21
-12.03710678118647
 31
0.0
  0
LINE
  5
EF
330
38
100
AcDbEntity
  8
0
100
AcDbLine
 10
6.260974781186519
 20
-7.557106781186455
 30
0.0
 11
6.260974781186519
 21
-12.03710678118647
 31
0.0
  0
LINE
  5
F0
330
38
100
AcDbEntity
  8
0
100
AcDbLine
 10
10.07097478118646
 20
-11.27710678118648
 30
0.0
 11
10.07097478118646
 21
-12.03710678118647
 31
0.0
  0
LINE
  5
F1
330
38
100
AcDbEntity
  8
0
100
AcDbLine
 10
13.88097478118639
 20
-11.27710678118648
 30
0.0
 11
13.88097478118639
 21
-12.03710678118647
 31
0.0
  0
LINE
  5
F2
330
38
100
AcDbEntity
  8
0
100
AcDbLine
 10
17.69097478118657
 20
-11.27710678118648
 30
0.0
 11
17.69097478118657
 21
-12.03710678118647
 31
0.0
  0
LINE
  5
F3
330
38
100
AcDbEntity
  8
0
100
AcDbLine
 10
29.12097478118642
 20
-12.23710678118651
 30
0.0
 11
29.12097478118642
 21
-16.6071067811865
 31
0.0
  0
LINE
  5
F4
330
38
100
AcDbEntity
  8
0
100
AcDbLine
 10
29.12097478118642
 20
-12.23710678118651
 30
0.0
 11
29.12097478118642
 21
-12.67710678118646
 31
0.0
  0
LINE
  5
F5
330
38
100
AcDbEntity
  8
0
100
AcDbLine
 10
21.50097478118651
 20
-12.23710678118651
 30
0.0
 11
21.50097478118651
 21
-16.6071067811865
 31
0.0
  0
LINE
  5
F6
330
38
100
AcDbEntity
  8
0
100
AcDbLine
 10
21.50097478118651
 20
-12.23710678118651
 30
0.0
 11
21.50097478118651
 21
-12.67710678118646
 31
0.0
  0
LINE
  5
F7
330
38
100
AcDbEntity
  8
0
100
AcDbLine
 10
25.31097478118647
 20
-12.23710678118651
 30
0.0
 11
25.31097478118647
 21
-16.6071067811865
 31
0.0
  0
LINE
  5
F8
330
38
100
AcDbEntity
  8
0
100
AcDbLine
 10
25.31097478118647
 20
-12.23710678118651
 30
0.0
 11
25.31097478118647
 21
-12.67710678118646
 31
0.0
  0
LINE
  5
F9
330
38
100
AcDbEntity
  8
0
100
AcDbLine
 10
35.43097478118659
 20
-17.10710678118652
 30
0.0
 11
35.43097478118659
 21
-7.057106781186455
 31
0.0
  0
LINE
  5
FA
330
38
100
AcDbEntity
  8
0
100
AcDbLine
 10
32.93097478118659
 20
-17.10710678118652
 30
0.0
 11
32.93097478118659
 21
-7.057106781186455
 31
0.0
  0
LINE
  5
FB
330
38
100
AcDbEntity
  8
0
100
AcDbLine
 10
36.28097478119059
 20
-10.157106781185
 30
0.0
 11
36.28097478119059
 21
-17.10710678118572
 31
0.0
  0
LINE
  5
FC
330
38
100
AcDbEntity
  8
0
100
AcDbLine
 10
46.28097478119059
 20
-17.10710678118572
 30
0.0
 11
46.28097478119059
 21
-10.157106781185
 31
0.0
  0
LINE
  5
FD
330
38
100
AcDbEntity
  8
0
100
AcDbLine
 10
36.68097478119021
 20
-16.407106781185
 30
0.0
 11
36.68097478119021
 21
-11.407106781185
 31
0.0
  0
LINE
  5
FE
330
38
100
AcDbEntity
  8
0
100
AcDbLine
 10
45.88097478119093
 20
-11.407106781185
 30
0.0
 11
45.88097478119093
 21
-12.907106781185
 31
0.0
  0
LINE
  5
FF
330
38
100
AcDbEntity
  8
0
100
AcDbLine
 10
26.72097478118655
 20
-17.10710678118652
 30
0.0
 11
26.72097478118655
 21
-17.60710678118652
 31
0.0
  0
LINE
  5
100
330
38
100
AcDbEntity
  8
0
100
AcDbLine
 10
29.12097478118642
 20
-17.10710678118652
 30
0.0
 11
29.12097478118642
 21
-16.6071067811865
 31
0.0
  0
LINE
  5
101
330
38
100
AcDbEntity
  8
0
100
AcDbLine
 10
29.12097478118642
 20
-17.10710678118652
 30
0.0
 11
29.12097478118642
 21
-16.6071067811865
 31
0.0
  0
LINE
  5
102
330
38
100
AcDbEntity
  8
0
100
AcDbLine
 10
30.13097478118641
 20
-17.60710678118652
 30
0.0
 11
29.6309747811864
 21
-17.60710678118652
 31
0.0
  0
LINE
  5
103
330
38
100
AcDbEntity
  8
0
100
AcDbLine
 10
29.6309747811864
 20
-17.60710678118652
 30
0.0
 11
29.23097478118654
 21
-17.60710678118652
 31
0.0
  0
LINE
  5
104
330
38
100
AcDbEntity
  8
0
100
AcDbLine
 10
29.23097478118654
 20
-17.10710678118652
 30
0.0
 11
29.12097478118642
 21
-17.10710678118652
 31
0.0
  0
LINE
  5
105
330
38
100
AcDbEntity
  8
0
100
AcDbLine
 10
29.23097478118654
 20
-17.10710678118652
 30
0.0
 11
29.23097478118654
 21
-17.60710678118652
 31
0.0
  0
LINE
  5
106
330
38
100
AcDbEntity
  8
0
100
AcDbLine
 10
30.5309747811865
 20
-17.10710678118652
 30
0.0
 11
30.5309747811865
 21
-17.60710678118652
 31
0.0
  0
LINE
  5
107
330
38
100
AcDbEntity
  8
0
100
AcDbLine
 10
30.5309747811865
 20
-17.10710678118652
 30
0.0
 11
29.23097478118654
 21
-17.10710678118652
 31
0.0
  0
LINE
  5
108
330
38
100
AcDbEntity
  8
0
100
AcDbLine
 10
30.5309747811865
 20
-17.60710678118652
 30
0.0
 11
30.13097478118641
 21
-17.60710678118652
 31
0.0
  0
LINE
  5
109
330
38
100
AcDbEntity
  8
0
100
AcDbLine
 10
29.12097478118642
 20
-14.20710678118643
 30
0.0
 11
29.12097478118642
 21
-16.6071067811865
 31
0.0
  0
LINE
  5
10A
330
38
100
AcDbEntity
  8
0
100
AcDbLine
 10
29.12097478118642
 20
-12.80710678118645
 30
0.0
 11
29.12097478118642
 21
-14.20710678118643
 31
0.0
  0
LINE
  5
10B
330
38
100
AcDbEntity
  8
0
100
AcDbLine
 10
29.12097478118642
 20
-12.67710678118646
 30
0.0
 11
29.12097478118642
 21
-12.80710678118645
 31
0.0
  0
LINE
  5
10C
330
38
100
AcDbEntity
  8
0
100
AcDbLine
 10
22.91097478118661
 20
-17.60710678118652
 30
0.0
 11
22.51097478118651
 21
-17.60710678118652
 31
0.0
  0
LINE
  5
10D
330
38
100
AcDbEntity
  8
0
100
AcDbLine
 10
21.50097478118651
 20
-17.10710678118652
 30
0.0
 11
21.50097478118651
 21
-16.6071067811865
 31
0.0
  0
LINE
  5
10E
330
38
100
AcDbEntity
  8
0
100
AcDbLine
 10
21.50097478118651
 20
-17.10710678118652
 30
0.0
 11
21.50097478118651
 21
-16.6071067811865
 31
0.0
  0
LINE
  5
10F
330
38
100
AcDbEntity
  8
0
100
AcDbLine
 10
22.51097478118651
 20
-17.60710678118652
 30
0.0
 11
22.01097478118652
 21
-17.60710678118652
 31
0.0
  0
LINE
  5
110
330
38
100
AcDbEntity
  8
0
100
AcDbLine
 10
22.01097478118652
 20
-17.60710678118652
 30
0.0
 11
21.61097478118642
 21
-17.60710678118652
 31
0.0
  0
LINE
  5
111
330
38
100
AcDbEntity
  8
0
100
AcDbLine
 10
21.61097478118642
 20
-17.10710678118652
 30
0.0
 11
21.50097478118651
 21
-17.10710678118652
 31
0.0
  0
LINE
  5
112
330
38
100
AcDbEntity
  8
0
100
AcDbLine
 10
21.61097478118642
 20
-17.10710678118652
 30
0.0
 11
21.61097478118642
 21
-17.60710678118652
 31
0.0
  0
LINE
  5
113
330
38
100
AcDbEntity
  8
0
100
AcDbLine
 10
21.50097478118651
 20
-14.20710678118643
 30
0.0
 11
21.50097478118651
 21
-16.6071067811865
 31
0.0
  0
LINE
  5
114
330
38
100
AcDbEntity
  8
0
100
AcDbLine
 10
21.50097478118651
 20
-12.80710678118645
 30
0.0
 11
21.50097478118651
 21
-14.20710678118643
 31
0.0
  0
LINE
  5
115
330
38
100
AcDbEntity
  8
0
100
AcDbLine
 10
21.50097478118651
 20
-12.67710678118646
 30
0.0
 11
21.50097478118651
 21
-12.80710678118645
 31
0.0
  0
LINE
  5
116
330
38
100
AcDbEntity
  8
0
100
AcDbLine
 10
22.91097478118661
 20
-17.10710678118652
 30
0.0
 11
22.91097478118661
 21
-17.60710678118652
 31
0.0
  0
LINE
  5
117
330
38
100
AcDbEntity
  8
0
100
AcDbLine
 10
25.31097478118647
 20
-17.10710678118652
 30
0.0
 11
25.31097478118647
 21
-16.6071067811865
 31
0.0
  0
LINE
  5
118
330
38
100
AcDbEntity
  8
0
100
AcDbLine
 10
25.31097478118647
 20
-17.10710678118652
 30
0.0
 11
25.31097478118647
 21
-16.6071067811865
 31
0.0
  0
LINE
  5
119
330
38
100
AcDbEntity
  8
0
100
AcDbLine
 10
26.32097478118646
 20
-17.60710678118652
 30
0.0
 11
25.82097478118646
 21
-17.60710678118652
 31
0.0
  0
LINE
  5
11A
330
38
100
AcDbEntity
  8
0
100
AcDbLine
 10
25.82097478118646
 20
-17.60710678118652
 30
0.0
 11
25.4209747811866
 21
-17.60710678118652
 31
0.0
  0
LINE
  5
11B
330
38
100
AcDbEntity
  8
0
100
AcDbLine
 10
25.4209747811866
 20
-17.10710678118652
 30
0.0
 11
25.31097478118647
 21
-17.10710678118652
 31
0.0
  0
LINE
  5
11C
330
38
100
AcDbEntity
  8
0
100
AcDbLine
 10
25.4209747811866
 20
-17.10710678118652
 30
0.0
 11
25.4209747811866
 21
-17.60710678118652
 31
0.0
  0
LINE
  5
11D
330
38
100
AcDbEntity
  8
0
100
AcDbLine
 10
25.31097478118647
 20
-14.20710678118643
 30
0.0
 11
25.31097478118647
 21
-16.6071067811865
 31
0.0
  0
LINE
  5
11E
330
38
100
AcDbEntity
  8
0
100
AcDbLine
 10
25.31097478118647
 20
-12.67710678118646
 30
0.0
 11
25.31097478118647
 21
-12.80710678118645
 31
0.0
  0
LINE
  5
11F
330
38
100
AcDbEntity
  8
0
100
AcDbLine
 10
25.31097478118647
 20
-12.80710678118645
 30
0.0
 11
25.31097478118647
 21
-14.20710678118643
 31
0.0
  0
LINE
  5
120
330
38
100
AcDbEntity
  8
0
100
AcDbLine
 10
19.10097478118643
 20
-17.10710678118652
 30
0.0
 11
19.10097478118643
 21
-17.60710678118652
 31
0.0
  0
LINE
  5
121
330
38
100
AcDbEntity
  8
0
100
AcDbLine
 10
26.72097478118655
 20
-17.60710678118652
 30
0.0
 11
26.32097478118646
 21
-17.60710678118652
 31
0.0
  0
CIRCLE
  5
122
330
38
100
AcDbEntity
  8
0
100
AcDbCircle
 10
43.7809747811907
 20
-13.63210678118559
 30
0.0
 40
0.32
  0
LINE
  5
123
330
38
100
AcDbEntity
  8
0
100
AcDbLine
 10
44.28097478119059
 20
-17.60710678118571
 30
0.0
 11
46.28097478119059
 21
-17.60710678118571
 31
0.0
  0
LINE
  5
124
330
38
100
AcDbEntity
  8
0
100
AcDbLine
 10
46.28097478119059
 20
-17.60710678118571
 30
0.0
 11
46.28097478119059
 21
-17.10710678118572
 31
0.0
  0
LINE
  5
125
330
38
100
AcDbEntity
  8
0
100
AcDbLine
 10
44.28097478119059
 20
-17.10710678118572
 30
0.0
 11
44.28097478119059
 21
-17.60710678118571
 31
0.0
  0
LINE
  5
126
330
38
100
AcDbEntity
  8
0
100
AcDbLine
 10
45.88097478119093
 20
-16.407106781185
 30
0.0
 11
45.88097478119093
 21
-14.407106781185
 31
0.0
  0
LINE
  5
127
330
38
100
AcDbEntity
  8
0
100
AcDbLine
 10
45.88097478119093
 20
-14.407106781185
 30
0.0
 11
46.28097478119059
 21
-14.407106781185
 31
0.0
  0
LINE
  5
128
330
38
100
AcDbEntity
  8
0
100
AcDbLine
 10
45.88097478119093
 20
-12.907106781185
 30
0.0
 11
46.28097478119059
 21
-12.907106781185
 31
0.0
  0
LINE
  5
129
330
38
100
AcDbEntity
  8
0
100
AcDbLine
 10
41.28097478119059
 20
-16.407106781185
 30
0.0
 11
36.68097478119021
 21
-16.407106781185
 31
0.0
  0
CIRCLE
  5
12A
330
38
100
AcDbEntity
  8
0
100
AcDbCircle
 10
38.7809747811907
 20
-13.63210678118559
 30
0.0
 40
0.32
  0
LINE
  5
12B
330
38
100
AcDbEntity
  8
0
100
AcDbLine
 10
38.28097478119059
 20
-17.60710678118571
 30
0.0
 11
38.28097478119059
 21
-17.10710678118572
 31
0.0
  0
LINE
  5
12C
330
38
100
AcDbEntity
  8
0
100
AcDbLine
 10
38.28097478119059
 20
-17.10710678118572
 30
0.0
 11
44.28097478119059
 21
-17.10710678118572
 31
0.0
  0
LINE
  5
12D
330
38
100
AcDbEntity
  8
0
100
AcDbLine
 10
41.28097478119059
 20
-16.407106781185
 30
0.0
 11
45.88097478119093
 21
-16.407106781185
 31
0.0
  0
CIRCLE
  5
12E
330
38
100
AcDbEntity
  8
0
100
AcDbCircle
 10
41.2809747811907
 20
-13.63210678118559
 30
0.0
 40
0.32
  0
LINE
  5
12F
330
38
100
AcDbEntity
  8
0
100
AcDbLine
 10
36.28097478119059
 20
-17.10710678118572
 30
0.0
 11
36.28097478119059
 21
-17.60710678118571
 31
0.0
  0
LINE
  5
130
330
38
100
AcDbEntity
  8
0
100
AcDbLine
 10
36.28097478119059
 20
-17.60710678118571
 30
0.0
 11
38.28097478119059
 21
-17.60710678118571
 31
0.0
  0
ARC
  5
131
330
38
100
AcDbEntity
  8
0
100
AcDbCircle
 10
32.56097478118647
 20
-4.707106781186547
 30
0.0
 40
0.3
100
AcDbArc
 50
0.0
 51
90.0
  0
LINE
  5
132
330
38
100
AcDbEntity
  8
0
100
AcDbLine
 10
32.93097478118659
 20
-7.057106781186455
 30
0.0
 11
32.86097478118643
 21
-7.057106781186455
 31
0.0
  0
LINE
  5
133
330
38
100
AcDbEntity
  8
0
100
AcDbLine
 10
32.93097478118659
 20
-12.23710678118651
 30
0.0
 11
29.12097478118642
 21
-12.23710678118651
 31
0.0
  0
LINE
  5
134
330
38
100
AcDbEntity
  8
0
100
AcDbLine
 10
32.86097478118643
 20
-4.707106781186433
 30
0.0
 11
32.86097478118643
 21
-4.807106781186456
 31
0.0
  0
ARC
  5
135
330
38
100
AcDbEntity
  8
0
100
AcDbCircle
 10
28.75097478118652
 20
-4.707106781186547
 30
0.0
 40
0.3
100
AcDbArc
 50
0.0
 51
90.0
  0
ARC
  5
136
330
38
100
AcDbEntity
  8
0
100
AcDbCircle
 10
29.46097478118655
 20
-4.707106781186547
 30
0.0
 40
0.3
100
AcDbArc
 50
90.0
 51
180.0
  0
LINE
  5
137
330
38
100
AcDbEntity
  8
0
100
AcDbLine
 10
29.16097478118661
 20
-4.707106781186433
 30
0.0
 11
29.16097478118661
 21
-4.807106781186456
 31
0.0
  0
LINE
  5
138
330
38
100
AcDbEntity
  8
0
100
AcDbLine
 10
29.05097478118648
 20
-4.707106781186433
 30
0.0
 11
29.05097478118648
 21
-4.807106781186456
 31
0.0
  0
LINE
  5
139
330
38
100
AcDbEntity
  8
0
100
AcDbLine
 10
29.46097478118655
 20
-4.407106781186478
 30
0.0
 11
32.56097478118647
 21
-4.407106781186478
 31
0.0
  0
LINE
  5
13A
330
38
100
AcDbEntity
  8
0
100
AcDbLine
 10
32.86097478118643
 20
-5.357106781186525
 30
0.0
 11
32.86097478118643
 21
-5.057106781186456
 31
0.0
  0
LINE
  5
13B
330
38
100
AcDbEntity
  8
0
100
AcDbLine
 10
32.16097478118661
 20
-6.907106781186477
 30
0.0
 11
32.86097478118643
 21
-6.907106781186477
 31
0.0
  0
LINE
  5
13C
330
38
100
AcDbEntity
  8
0
100
AcDbLine
 10
32.16097478118661
 20
-6.907106781186477
 30
0.0
 11
32.16097478118661
 21
-7.057106781186455
 31
0.0
  0
LINE
  5
13D
330
38
100
AcDbEntity
  8
0
100
AcDbLine
 10
32.86097478118643
 20
-6.507106781186503
 30
0.0
 11
32.86097478118643
 21
-6.907106781186477
 31
0.0
  0
LINE
  5
13E
330
38
100
AcDbEntity
  8
0
100
AcDbLine
 10
32.86097478118643
 20
-6.907106781186477
 30
0.0
 11
32.86097478118643
 21
-7.057106781186455
 31
0.0
  0
LINE
  5
13F
330
38
100
AcDbEntity
  8
0
100
AcDbLine
 10
32.86097478118643
 20
-6.257106781186503
 30
0.0
 11
32.86097478118643
 21
-6.507106781186503
 31
0.0
  0
LINE
  5
140
330
38
100
AcDbEntity
  8
0
100
AcDbLine
 10
32.86097478118643
 20
-6.257106781186503
 30
0.0
 11
32.86097478118643
 21
-5.957106781186434
 31
0.0
  0
LINE
  5
141
330
38
100
AcDbEntity
  8
0
100
AcDbLine
 10
32.86097478118643
 20
-7.057106781186455
 30
0.0
 11
32.16097478118661
 21
-7.057106781186455
 31
0.0
  0
LINE
  5
142
330
38
100
AcDbEntity
  8
0
100
AcDbLine
 10
32.86097478118643
 20
-5.357106781186525
 30
0.0
 11
32.86097478118643
 21
-5.957106781186434
 31
0.0
  0
LINE
  5
143
330
38
100
AcDbEntity
  8
0
100
AcDbLine
 10
29.12097478118642
 20
-7.557106781186455
 30
0.0
 11
29.12097478118642
 21
-11.27710678118648
 31
0.0
  0
LINE
  5
144
330
38
100
AcDbEntity
  8
0
100
AcDbLine
 10
28.35097478118644
 20
-6.907106781186477
 30
0.0
 11
29.05097478118648
 21
-6.907106781186477
 31
0.0
  0
LINE
  5
145
330
38
100
AcDbEntity
  8
0
100
AcDbLine
 10
29.05097478118648
 20
-7.057106781186455
 30
0.0
 11
28.35097478118644
 21
-7.057106781186455
 31
0.0
  0
LINE
  5
146
330
38
100
AcDbEntity
  8
0
100
AcDbLine
 10
28.35097478118644
 20
-6.907106781186477
 30
0.0
 11
28.35097478118644
 21
-7.057106781186455
 31
0.0
  0
ARC
  5
147
330
38
100
AcDbEntity
  8
0
100
AcDbCircle
 10
27.21597478118644
 20
-9.207106781186547
 30
0.0
 40
0.85
100
AcDbArc
 50
233.269604999998
 51
270.0
  0
ARC
  5
148
330
38
100
AcDbEntity
  8
0
100
AcDbCircle
 10
30.06097478118647
 20
-5.357106781186582
 30
0.0
 40
0.3
100
AcDbArc
 50
90.0
 51
180.0
  0
LINE
  5
149
330
38
100
AcDbEntity
  8
0
100
AcDbLine
 10
29.05097478118648
 20
-5.357106781186525
 30
0.0
 11
29.05097478118648
 21
-5.057106781186456
 31
0.0
  0
LINE
  5
14A
330
38
100
AcDbEntity
  8
0
100
AcDbLine
 10
29.05097478118648
 20
-6.507106781186503
 30
0.0
 11
29.05097478118648
 21
-6.907106781186477
 31
0.0
  0
LINE
  5
14B
330
38
100
AcDbEntity
  8
0
100
AcDbLine
 10
29.05097478118648
 20
-6.907106781186477
 30
0.0
 11
29.05097478118648
 21
-7.057106781186455
 31
0.0
  0
LINE
  5
14C
330
38
100
AcDbEntity
  8
0
100
AcDbLine
 10
29.05097478118648
 20
-6.257106781186503
 30
0.0
 11
29.05097478118648
 21
-6.507106781186503
 31
0.0
  0
LINE
  5
14D
330
38
100
AcDbEntity
  8
0
100
AcDbLine
 10
29.05097478118648
 20
-6.257106781186503
 30
0.0
 11
29.05097478118648
 21
-5.957106781186434
 31
0.0
  0
ARC
  5
14E
330
38
100
AcDbEntity
  8
0
100
AcDbCircle
 10
29.46097478118655
 20
-6.607106781186582
 30
0.0
 40
0.3
100
AcDbArc
 50
180.0
 51
270.0
  0
ARC
  5
14F
330
38
100
AcDbEntity
  8
0
100
AcDbCircle
 10
30.06097478118647
 20
-5.957106781186547
 30
0.0
 40
0.3
100
AcDbArc
 50
180.0
 51
270.0
  0
LINE
  5
150
330
38
100
AcDbEntity
  8
0
100
AcDbLine
 10
29.16097478118661
 20
-6.507106781186503
 30
0.0
 11
29.16097478118661
 21
-6.607106781186526
 31
0.0
  0
LINE
  5
151
330
38
100
AcDbEntity
  8
0
100
AcDbLine
 10
29.12097478118642
 20
-7.557106781186455
 30
0.0
 11
29.12097478118642
 21
-7.057106781186455
 31
0.0
  0
LINE
  5
152
330
38
100
AcDbEntity
  8
0
100
AcDbLine
 10
29.12097478118642
 20
-7.557106781186455
 30
0.0
 11
29.12097478118642
 21
-7.057106781186455
 31
0.0
  0
LINE
  5
153
330
38
100
AcDbEntity
  8
0
100
AcDbLine
 10
29.12097478118642
 20
-7.057106781186455
 30
0.0
 11
29.05097478118648
 21
-7.057106781186455
 31
0.0
  0
ARC
  5
154
330
38
100
AcDbEntity
  8
0
100
AcDbCircle
 10
31.02597478118662
 20
-9.207106781186547
 30
0.0
 40
0.85
100
AcDbArc
 50
233.269604999998
 51
270.0
  0
LINE
  5
155
330
38
100
AcDbEntity
  8
0
100
AcDbLine
 10
29.76097478118651
 20
-5.357106781186525
 30
0.0
 11
29.76097478118651
 21
-5.957106781186434
 31
0.0
  0
LINE
  5
156
330
38
100
AcDbEntity
  8
0
100
AcDbLine
 10
29.05097478118648
 20
-5.357106781186525
 30
0.0
 11
29.05097478118648
 21
-5.957106781186434
 31
0.0
  0
CIRCLE
  5
157
330
38
100
AcDbEntity
  8
0
100
AcDbCircle
 10
31.02597478118662
 20
-9.207106781186547
 30
0.0
 40
1.564999999999999
  0
LINE
  5
158
330
38
100
AcDbEntity
  8
0
100
AcDbLine
 10
32.86097478118643
 20
-5.057106781186456
 30
0.0
 11
30.06097478118647
 21
-5.057106781186456
 31
0.0
  0
LINE
  5
159
330
38
100
AcDbEntity
  8
0
100
AcDbLine
 10
30.06097478118647
 20
-6.257106781186503
 30
0.0
 11
32.86097478118643
 21
-6.257106781186503
 31
0.0
  0
LINE
  5
15A
330
38
100
AcDbEntity
  8
0
100
AcDbLine
 10
29.46097478118655
 20
-6.907106781186477
 30
0.0
 11
32.16097478118661
 21
-6.907106781186477
 31
0.0
  0
LINE
  5
15B
330
38
100
AcDbEntity
  8
0
100
AcDbLine
 10
32.16097478118661
 20
-7.057106781186455
 30
0.0
 11
29.12097478118642
 21
-7.057106781186455
 31
0.0
  0
ARC
  5
15C
330
38
100
AcDbEntity
  8
0
100
AcDbCircle
 10
31.02597478118662
 20
-9.207106781186547
 30
0.0
 40
0.85
100
AcDbArc
 50
270.0
 51
233.269604999998
  0
LINE
  5
15D
330
38
100
AcDbEntity
  8
0
100
AcDbLine
 10
29.05097478118648
 20
-4.807106781186456
 30
0.0
 11
29.05097478118648
 21
-5.057106781186456
 31
0.0
  0
LINE
  5
15E
330
38
100
AcDbEntity
  8
0
100
AcDbLine
 10
32.86097478118643
 20
-4.807106781186456
 30
0.0
 11
32.86097478118643
 21
-5.057106781186456
 31
0.0
  0
LINE
  5
15F
330
38
100
AcDbEntity
  8
0
100
AcDbLine
 10
29.16097478118661
 20
-4.807106781186456
 30
0.0
 11
29.16097478118661
 21
-6.507106781186503
 31
0.0
  0
LINE
  5
160
330
38
100
AcDbEntity
  8
0
100
AcDbLine
 10
21.84097478118644
 20
-4.407106781186478
 30
0.0
 11
24.94097478118657
 21
-4.407106781186478
 31
0.0
  0
LINE
  5
161
330
38
100
AcDbEntity
  8
0
100
AcDbLine
 10
21.54097478118649
 20
-4.707106781186433
 30
0.0
 11
21.54097478118649
 21
-4.807106781186456
 31
0.0
  0
ARC
  5
162
330
38
100
AcDbEntity
  8
0
100
AcDbCircle
 10
21.84097478118644
 20
-4.707106781186547
 30
0.0
 40
0.3
100
AcDbArc
 50
90.0
 51
180.0
  0
LINE
  5
163
330
38
100
AcDbEntity
  8
0
100
AcDbLine
 10
21.43097478118659
 20
-4.707106781186433
 30
0.0
 11
21.43097478118659
 21
-4.807106781186456
 31
0.0
  0
LINE
  5
164
330
38
100
AcDbEntity
  8
0
100
AcDbLine
 10
25.24097478118653
 20
-4.707106781186433
 30
0.0
 11
25.24097478118653
 21
-4.807106781186456
 31
0.0
  0
ARC
  5
165
330
38
100
AcDbEntity
  8
0
100
AcDbCircle
 10
25.65097478118662
 20
-4.707106781186547
 30
0.0
 40
0.3
100
AcDbArc
 50
90.0
 51
180.0
  0
LINE
  5
166
330
38
100
AcDbEntity
  8
0
100
AcDbLine
 10
25.35097478118642
 20
-4.707106781186433
 30
0.0
 11
25.35097478118642
 21
-4.807106781186456
 31
0.0
  0
ARC
  5
167
330
38
100
AcDbEntity
  8
0
100
AcDbCircle
 10
24.94097478118657
 20
-4.707106781186547
 30
0.0
 40
0.3
100
AcDbArc
 50
0.0
 51
90.0
  0
ARC
  5
168
330
38
100
AcDbEntity
  8
0
100
AcDbCircle
 10
21.1309747811864
 20
-4.707106781186547
 30
0.0
 40
0.3
100
AcDbArc
 50
0.0
 51
90.0
  0
CIRCLE
  5
169
330
38
100
AcDbEntity
  8
0
100
AcDbCircle
 10
23.4059747811865
 20
-9.207106781186547
 30
0.0
 40
1.564999999999999
  0
LINE
  5
16A
330
38
100
AcDbEntity
  8
0
100
AcDbLine
 10
25.24097478118653
 20
-5.057106781186456
 30
0.0
 11
22.44097478118657
 21
-5.057106781186456
 31
0.0
  0
LINE
  5
16B
330
38
100
AcDbEntity
  8
0
100
AcDbLine
 10
24.54097478118649
 20
-7.057106781186455
 30
0.0
 11
21.50097478118651
 21
-7.057106781186455
 31
0.0
  0
LINE
  5
16C
330
38
100
AcDbEntity
  8
0
100
AcDbLine
 10
21.84097478118644
 20
-6.907106781186477
 30
0.0
 11
24.54097478118649
 21
-6.907106781186477
 31
0.0
  0
LINE
  5
16D
330
38
100
AcDbEntity
  8
0
100
AcDbLine
 10
22.44097478118657
 20
-6.257106781186503
 30
0.0
 11
25.24097478118653
 21
-6.257106781186503
 31
0.0
  0
LINE
  5
16E
330
38
100
AcDbEntity
  8
0
100
AcDbLine
 10
21.50097478118651
 20
-7.557106781186455
 30
0.0
 11
21.50097478118651
 21
-11.27710678118648
 31
0.0
  0
ARC
  5
16F
330
38
100
AcDbEntity
  8
0
100
AcDbCircle
 10
22.44097478118657
 20
-5.357106781186582
 30
0.0
 40
0.3
100
AcDbArc
 50
90.0
 51
180.0
  0
LINE
  5
170
330
38
100
AcDbEntity
  8
0
100
AcDbLine
 10
21.43097478118659
 20
-5.357106781186525
 30
0.0
 11
21.43097478118659
 21
-5.057106781186456
 31
0.0
  0
ARC
  5
171
330
38
100
AcDbEntity
  8
0
100
AcDbCircle
 10
22.44097478118657
 20
-5.957106781186547
 30
0.0
 40
0.3
100
AcDbArc
 50
180.0
 51
270.0
  0
LINE
  5
172
330
38
100
AcDbEntity
  8
0
100
AcDbLine
 10
21.50097478118651
 20
-7.557106781186455
 30
0.0
 11
21.50097478118651
 21
-7.057106781186455
 31
0.0
  0
LINE
  5
173
330
38
100
AcDbEntity
  8
0
100
AcDbLine
 10
21.54097478118649
 20
-6.507106781186503
 30
0.0
 11
21.54097478118649
 21
-6.607106781186526
 31
0.0
  0
ARC
  5
174
330
38
100
AcDbEntity
  8
0
100
AcDbCircle
 10
21.84097478118644
 20
-6.607106781186582
 30
0.0
 40
0.3
100
AcDbArc
 50
180.0
 51
270.0
  0
LINE
  5
175
330
38
100
AcDbEntity
  8
0
100
AcDbLine
 10
21.50097478118651
 20
-7.557106781186455
 30
0.0
 11
21.50097478118651
 21
-7.057106781186455
 31
0.0
  0
LINE
  5
176
330
38
100
AcDbEntity
  8
0
100
AcDbLine
 10
21.50097478118651
 20
-7.057106781186455
 30
0.0
 11
21.43097478118659
 21
-7.057106781186455
 31
0.0
  0
LINE
  5
177
330
38
100
AcDbEntity
  8
0
100
AcDbLine
 10
21.43097478118659
 20
-6.507106781186503
 30
0.0
 11
21.43097478118659
 21
-6.907106781186477
 31
0.0
  0
LINE
  5
178
330
38
100
AcDbEntity
  8
0
100
AcDbLine
 10
21.43097478118659
 20
-6.907106781186477
 30
0.0
 11
21.43097478118659
 21
-7.057106781186455
 31
0.0
  0
LINE
  5
179
330
38
100
AcDbEntity
  8
0
100
AcDbLine
 10
21.43097478118659
 20
-6.257106781186503
 30
0.0
 11
21.43097478118659
 21
-6.507106781186503
 31
0.0
  0
LINE
  5
17A
330
38
100
AcDbEntity
  8
0
100
AcDbLine
 10
21.43097478118659
 20
-6.257106781186503
 30
0.0
 11
21.43097478118659
 21
-5.957106781186434
 31
0.0
  0
LINE
  5
17B
330
38
100
AcDbEntity
  8
0
100
AcDbLine
 10
21.43097478118659
 20
-5.357106781186525
 30
0.0
 11
21.43097478118659
 21
-5.957106781186434
 31
0.0
  0
LINE
  5
17C
330
38
100
AcDbEntity
  8
0
100
AcDbLine
 10
22.14097478118639
 20
-5.357106781186525
 30
0.0
 11
22.14097478118639
 21
-5.957106781186434
 31
0.0
  0
LINE
  5
17D
330
38
100
AcDbEntity
  8
0
100
AcDbLine
 10
25.31097478118647
 20
-7.557106781186455
 30
0.0
 11
25.31097478118647
 21
-11.27710678118648
 31
0.0
  0
ARC
  5
17E
330
38
100
AcDbEntity
  8
0
100
AcDbCircle
 10
23.4059747811865
 20
-9.207106781186547
 30
0.0
 40
0.85
100
AcDbArc
 50
270.0
 51
233.269604999998
  0
ARC
  5
17F
330
38
100
AcDbEntity
  8
0
100
AcDbCircle
 10
23.4059747811865
 20
-9.207106781186547
 30
0.0
 40
0.85
100
AcDbArc
 50
233.269604999998
 51
270.0
  0
LINE
  5
180
330
38
100
AcDbEntity
  8
0
100
AcDbLine
 10
25.24097478118653
 20
-5.357106781186525
 30
0.0
 11
25.24097478118653
 21
-5.057106781186456
 31
0.0
  0
ARC
  5
181
330
38
100
AcDbEntity
  8
0
100
AcDbCircle
 10
26.25097478118652
 20
-5.357106781186582
 30
0.0
 40
0.3
100
AcDbArc
 50
90.0
 51
180.0
  0
LINE
  5
182
330
38
100
AcDbEntity
  8
0
100
AcDbLine
 10
25.24097478118653
 20
-7.057106781186455
 30
0.0
 11
24.54097478118649
 21
-7.057106781186455
 31
0.0
  0
LINE
  5
183
330
38
100
AcDbEntity
  8
0
100
AcDbLine
 10
25.24097478118653
 20
-6.257106781186503
 30
0.0
 11
25.24097478118653
 21
-5.957106781186434
 31
0.0
  0
LINE
  5
184
330
38
100
AcDbEntity
  8
0
100
AcDbLine
 10
25.24097478118653
 20
-6.257106781186503
 30
0.0
 11
25.24097478118653
 21
-6.507106781186503
 31
0.0
  0
LINE
  5
185
330
38
100
AcDbEntity
  8
0
100
AcDbLine
 10
25.24097478118653
 20
-6.907106781186477
 30
0.0
 11
25.24097478118653
 21
-7.057106781186455
 31
0.0
  0
LINE
  5
186
330
38
100
AcDbEntity
  8
0
100
AcDbLine
 10
25.24097478118653
 20
-6.507106781186503
 30
0.0
 11
25.24097478118653
 21
-6.907106781186477
 31
0.0
  0
LINE
  5
187
330
38
100
AcDbEntity
  8
0
100
AcDbLine
 10
24.54097478118649
 20
-6.907106781186477
 30
0.0
 11
24.54097478118649
 21
-7.057106781186455
 31
0.0
  0
LINE
  5
188
330
38
100
AcDbEntity
  8
0
100
AcDbLine
 10
24.54097478118649
 20
-6.907106781186477
 30
0.0
 11
25.24097478118653
 21
-6.907106781186477
 31
0.0
  0
ARC
  5
189
330
38
100
AcDbEntity
  8
0
100
AcDbCircle
 10
25.65097478118662
 20
-6.607106781186582
 30
0.0
 40
0.3
100
AcDbArc
 50
180.0
 51
270.0
  0
ARC
  5
18A
330
38
100
AcDbEntity
  8
0
100
AcDbCircle
 10
26.25097478118652
 20
-5.957106781186547
 30
0.0
 40
0.3
100
AcDbArc
 50
180.0
 51
270.0
  0
LINE
  5
18B
330
38
100
AcDbEntity
  8
0
100
AcDbLine
 10
25.31097478118647
 20
-7.557106781186455
 30
0.0
 11
25.31097478118647
 21
-7.057106781186455
 31
0.0
  0
LINE
  5
18C
330
38
100
AcDbEntity
  8
0
100
AcDbLine
 10
25.31097478118647
 20
-7.557106781186455
 30
0.0
 11
25.31097478118647
 21
-7.057106781186455
 31
0.0
  0
LINE
  5
18D
330
38
100
AcDbEntity
  8
0
100
AcDbLine
 10
25.35097478118642
 20
-6.507106781186503
 30
0.0
 11
25.35097478118642
 21
-6.607106781186526
 31
0.0
  0
LINE
  5
18E
330
38
100
AcDbEntity
  8
0
100
AcDbLine
 10
25.31097478118647
 20
-7.057106781186455
 30
0.0
 11
25.24097478118653
 21
-7.057106781186455
 31
0.0
  0
LINE
  5
18F
330
38
100
AcDbEntity
  8
0
100
AcDbLine
 10
25.24097478118653
 20
-5.357106781186525
 30
0.0
 11
25.24097478118653
 21
-5.957106781186434
 31
0.0
  0
LINE
  5
190
330
38
100
AcDbEntity
  8
0
100
AcDbLine
 10
25.95097478118657
 20
-5.357106781186525
 30
0.0
 11
25.95097478118657
 21
-5.957106781186434
 31
0.0
  0
ARC
  5
191
330
38
100
AcDbEntity
  8
0
100
AcDbCircle
 10
19.59597478118654
 20
-9.207106781186547
 30
0.0
 40
0.85
100
AcDbArc
 50
233.269604999998
 51
270.0
  0
LINE
  5
192
330
38
100
AcDbEntity
  8
0
100
AcDbLine
 10
20.73097478118654
 20
-6.907106781186477
 30
0.0
 11
20.73097478118654
 21
-7.057106781186455
 31
0.0
  0
LINE
  5
193
330
38
100
AcDbEntity
  8
0
100
AcDbLine
 10
21.43097478118659
 20
-7.057106781186455
 30
0.0
 11
20.73097478118654
 21
-7.057106781186455
 31
0.0
  0
LINE
  5
194
330
38
100
AcDbEntity
  8
0
100
AcDbLine
 10
20.73097478118654
 20
-6.907106781186477
 30
0.0
 11
21.43097478118659
 21
-6.907106781186477
 31
0.0
  0
LINE
  5
195
330
38
100
AcDbEntity
  8
0
100
AcDbLine
 10
21.43097478118659
 20
-4.807106781186456
 30
0.0
 11
21.43097478118659
 21
-5.057106781186456
 31
0.0
  0
LINE
  5
196
330
38
100
AcDbEntity
  8
0
100
AcDbLine
 10
21.54097478118649
 20
-4.807106781186456
 30
0.0
 11
21.54097478118649
 21
-6.507106781186503
 31
0.0
  0
LINE
  5
197
330
38
100
AcDbEntity
  8
0
100
AcDbLine
 10
25.24097478118653
 20
-4.807106781186456
 30
0.0
 11
25.24097478118653
 21
-5.057106781186456
 31
0.0
  0
LINE
  5
198
330
38
100
AcDbEntity
  8
0
100
AcDbLine
 10
25.35097478118642
 20
-4.807106781186456
 30
0.0
 11
25.35097478118642
 21
-6.507106781186503
 31
0.0
  0
LINE
  5
199
330
38
100
AcDbEntity
  8
0
100
AcDbLine
 10
29.05097478118648
 20
-5.057106781186456
 30
0.0
 11
26.25097478118652
 21
-5.057106781186456
 31
0.0
  0
LINE
  5
19A
330
38
100
AcDbEntity
  8
0
100
AcDbLine
 10
26.25097478118652
 20
-6.257106781186503
 30
0.0
 11
29.05097478118648
 21
-6.257106781186503
 31
0.0
  0
CIRCLE
  5
19B
330
38
100
AcDbEntity
  8
0
100
AcDbCircle
 10
27.21597478118644
 20
-9.207106781186547
 30
0.0
 40
1.564999999999999
  0
LINE
  5
19C
330
38
100
AcDbEntity
  8
0
100
AcDbLine
 10
25.65097478118662
 20
-4.407106781186478
 30
0.0
 11
28.75097478118652
 21
-4.407106781186478
 31
0.0
  0
LINE
  5
19D
330
38
100
AcDbEntity
  8
0
100
AcDbLine
 10
28.35097478118644
 20
-7.057106781186455
 30
0.0
 11
25.31097478118647
 21
-7.057106781186455
 31
0.0
  0
LINE
  5
19E
330
38
100
AcDbEntity
  8
0
100
AcDbLine
 10
25.65097478118662
 20
-6.907106781186477
 30
0.0
 11
28.35097478118644
 21
-6.907106781186477
 31
0.0
  0
ARC
  5
19F
330
38
100
AcDbEntity
  8
0
100
AcDbCircle
 10
27.21597478118644
 20
-9.207106781186547
 30
0.0
 40
0.85
100
AcDbArc
 50
270.0
 51
233.269604999998
  0
LINE
  5
1A0
330
38
100
AcDbEntity
  8
0
100
AcDbLine
 10
29.12097478118642
 20
-12.23710678118651
 30
0.0
 11
29.12097478118642
 21
-12.03710678118647
 31
0.0
  0
LINE
  5
1A1
330
38
100
AcDbEntity
  8
0
100
AcDbLine
 10
29.12097478118642
 20
-12.23710678118651
 30
0.0
 11
29.12097478118642
 21
-12.03710678118647
 31
0.0
  0
LINE
  5
1A2
330
38
100
AcDbEntity
  8
0
100
AcDbLine
 10
25.31097478118647
 20
-12.23710678118651
 30
0.0
 11
21.50097478118651
 21
-12.23710678118651
 31
0.0
  0
LINE
  5
1A3
330
38
100
AcDbEntity
  8
0
100
AcDbLine
 10
21.50097478118651
 20
-12.23710678118651
 30
0.0
 11
21.50097478118651
 21
-12.03710678118647
 31
0.0
  0
LINE
  5
1A4
330
38
100
AcDbEntity
  8
0
100
AcDbLine
 10
21.50097478118651
 20
-12.23710678118651
 30
0.0
 11
21.50097478118651
 21
-12.03710678118647
 31
0.0
  0
LINE
  5
1A5
330
38
100
AcDbEntity
  8
0
100
AcDbLine
 10
25.31097478118647
 20
-12.23710678118651
 30
0.0
 11
25.31097478118647
 21
-12.03710678118647
 31
0.0
  0
LINE
  5
1A6
330
38
100
AcDbEntity
  8
0
100
AcDbLine
 10
25.31097478118647
 20
-12.23710678118651
 30
0.0
 11
25.31097478118647
 21
-12.03710678118647
 31
0.0
  0
LINE
  5
1A7
330
38
100
AcDbEntity
  8
0
100
AcDbLine
 10
29.12097478118642
 20
-12.23710678118651
 30
0.0
 11
25.31097478118647
 21
-12.23710678118651
 31
0.0
  0
LINE
  5
1A8
330
38
100
AcDbEntity
  8
0
100
AcDbLine
 10
21.50097478118651
 20
-7.557106781186455
 30
0.0
 11
21.50097478118651
 21
-12.03710678118647
 31
0.0
  0
LINE
  5
1A9
330
38
100
AcDbEntity
  8
0
100
AcDbLine
 10
21.50097478118651
 20
-11.27710678118648
 30
0.0
 11
21.50097478118651
 21
-12.03710678118647
 31
0.0
  0
LINE
  5
1AA
330
38
100
AcDbEntity
  8
0
100
AcDbLine
 10
29.12097478118642
 20
-7.557106781186455
 30
0.0
 11
29.12097478118642
 21
-12.03710678118647
 31
0.0
  0
LINE
  5
1AB
330
38
100
AcDbEntity
  8
0
100
AcDbLine
 10
25.31097478118647
 20
-7.557106781186455
 30
0.0
 11
25.31097478118647
 21
-12.03710678118647
 31
0.0
  0
LINE
  5
1AC
330
38
100
AcDbEntity
  8
0
100
AcDbLine
 10
25.31097478118647
 20
-11.27710678118648
 30
0.0
 11
25.31097478118647
 21
-12.03710678118647
 31
0.0
  0
LINE
  5
1AD
330
38
100
AcDbEntity
  8
0
100
AcDbLine
 10
29.12097478118642
 20
-11.27710678118648
 30
0.0
 11
29.12097478118642
 21
-12.03710678118647
 31
0.0
  0
LINE
  5
1AE
330
38
100
AcDbEntity
  8
0
100
AcDbLine
 10
46.91097578118671
 20
-10.10710678118652
 30
0.0
 11
46.91097578118671
 21
-8.607106781186525
 31
0.0
  0
LINE
  5
1AF
330
38
100
AcDbEntity
  8
0
100
AcDbLine
 10
45.68097478119021
 20
-10.60710678118572
 30
0.0
 11
45.68097478119021
 21
-11.407106781185
 31
0.0
  0
LINE
  5
1B0
330
38
100
AcDbEntity
  8
0
100
AcDbLine
 10
45.78097478119059
 20
-11.407106781185
 30
0.0
 11
45.88097478119093
 21
-11.407106781185
 31
0.0
  0
LINE
  5
1B1
330
38
100
AcDbEntity
  8
0
100
AcDbLine
 10
45.68097478119021
 20
-11.407106781185
 30
0.0
 11
45.78097478119059
 21
-11.407106781185
 31
0.0
  0
LINE
  5
1B2
330
38
100
AcDbEntity
  8
0
100
AcDbLine
 10
43.4809747811895
 20
-10.60710678118572
 30
0.0
 11
45.68097478119021
 21
-10.60710678118572
 31
0.0
  0
LINE
  5
1B3
330
38
100
AcDbEntity
  8
0
100
AcDbLine
 10
46.28097478119059
 20
-10.157106781185
 30
0.0
 11
43.9809747811895
 21
-10.157106781185
 31
0.0
  0
LINE
  5
1B4
330
38
100
AcDbEntity
  8
0
100
AcDbLine
 10
43.9809747811895
 20
-10.157106781185
 30
0.0
 11
43.9809747811895
 21
-9.107106781185727
 31
0.0
  0
LINE
  5
1B5
330
38
100
AcDbEntity
  8
0
100
AcDbLine
 10
43.38097478119093
 20
-9.807106781184636
 30
0.0
 11
43.38097478119093
 21
-10.80710678118463
 31
0.0
  0
LINE
  5
1B6
330
38
100
AcDbEntity
  8
0
100
AcDbLine
 10
43.38097478119093
 20
-10.80710678118463
 30
0.0
 11
43.4809747811895
 21
-10.80710678118463
 31
0.0
  0
LINE
  5
1B7
330
38
100
AcDbEntity
  8
0
100
AcDbLine
 10
43.4809747811895
 20
-10.80710678118463
 30
0.0
 11
43.4809747811895
 21
-10.60710678118572
 31
0.0
  0
LINE
  5
1B8
330
38
100
AcDbEntity
  8
0
100
AcDbLine
 10
36.88097478119095
 20
-11.407106781185
 30
0.0
 11
36.88097478119095
 21
-10.60710678118572
 31
0.0
  0
LINE
  5
1B9
330
38
100
AcDbEntity
  8
0
100
AcDbLine
 10
36.68097478119021
 20
-11.407106781185
 30
0.0
 11
36.88097478119095
 21
-11.407106781185
 31
0.0
  0
LINE
  5
1BA
330
38
100
AcDbEntity
  8
0
100
AcDbLine
 10
36.88097478119095
 20
-10.60710678118572
 30
0.0
 11
39.08097478119167
 21
-10.60710678118572
 31
0.0
  0
LINE
  5
1BB
330
38
100
AcDbEntity
  8
0
100
AcDbLine
 10
38.58097478119168
 20
-9.107106781185727
 30
0.0
 11
38.58097478119168
 21
-10.157106781185
 31
0.0
  0
LINE
  5
1BC
330
38
100
AcDbEntity
  8
0
100
AcDbLine
 10
39.18097478119021
 20
-10.80710678118463
 30
0.0
 11
39.18097478119021
 21
-9.807106781184636
 31
0.0
  0
LINE
  5
1BD
330
38
100
AcDbEntity
  8
0
100
AcDbLine
 10
39.08097478119167
 20
-10.80710678118463
 30
0.0
 11
39.18097478119021
 21
-10.80710678118463
 31
0.0
  0
LINE
  5
1BE
330
38
100
AcDbEntity
  8
0
100
AcDbLine
 10
39.08097478119167
 20
-10.60710678118572
 30
0.0
 11
39.08097478119167
 21
-10.80710678118463
 31
0.0
  0
LINE
  5
1BF
330
38
100
AcDbEntity
  8
0
100
AcDbLine
 10
43.9809747811895
 20
-9.107106781185727
 30
0.0
 11
38.58097478119168
 21
-9.107106781185727
 31
0.0
  0
LINE
  5
1C0
330
38
100
AcDbEntity
  8
0
100
AcDbLine
 10
39.18097478119021
 20
-9.807106781184636
 30
0.0
 11
43.38097478119093
 21
-9.807106781184636
 31
0.0
  0
LINE
  5
1C1
330
38
100
AcDbEntity
  8
0
100
AcDbLine
 10
32.93097478118659
 20
-7.057106781186455
 30
0.0
 11
35.43097478118659
 21
-7.057106781186455
 31
0.0
  0
LINE
  5
1C2
330
38
100
AcDbEntity
  8
3_表示パネル
  6
CONTINUOUS
100
AcDbLine
 10
35.61097578118676
 20
-8.607106781186466
 30
0.0
 11
35.61097578118676
 21
-3.907106781186477
 31
0.0
  0
LINE
  5
1C3
330
38
100
AcDbEntity
  8
0
100
AcDbLine
 10
38.58097478119168
 20
-10.157106781185
 30
0.0
 11
36.28097478119059
 21
-10.157106781185
 31
0.0
  0
LINE
  5
1C4
330
38
100
AcDbEntity
  8
3_表示パネル
  6
CONTINUOUS
100
AcDbLine
 10
35.61097578118676
 20
-8.607106781186466
 30
0.0
 11
46.91097578118696
 21
-8.607106781186525
 31
0.0
  0
LINE
  5
1C5
330
38
100
AcDbEntity
  8
0
100
AcDbLine
 10
32.93097478118659
 20
-12.23710678118651
 30
0.0
 11
35.43097478118659
 21
-12.23710678118651
 31
0.0
  0
ARC
  5
1C6
330
38
100
AcDbEntity
  8
0
100
AcDbCircle
 10
0.8109757811865847
 20
-0.8071067811865706
 30
0.0
 40
1.0
100
AcDbArc
 50
90.0
 51
180.0
  0
ARC
  5
1C7
330
38
100
AcDbEntity
  8
0
100
AcDbCircle
 10
0.7071067811865534
 20
-0.7071067811865479
 30
0.0
 40
1.0
100
AcDbArc
 50
90.0
 51
180.0
  0
LINE
  5
1C8
330
38
100
AcDbEntity
  8
0
100
AcDbLine
 10
47.1309747811864
 20
-10.60710678118651
 30
0.0
 11
47.1309747811864
 21
-17.60710678118652
 31
0.0
  0
LINE
  5
1C9
330
38
100
AcDbEntity
  8
0
100
AcDbLine
 10
52.1309747811864
 20
-10.60710678118651
 30
0.0
 11
52.1309747811864
 21
-17.60710678118652
 31
0.0
  0
LINE
  5
1CA
330
38
100
AcDbEntity
  8
0
100
AcDbLine
 10
51.13097478118641
 20
-13.02794178118651
 30
0.0
 11
48.13097478118641
 21
-13.02794178118651
 31
0.0
  0
LINE
  5
1CB
330
38
100
AcDbEntity
  8
0
100
AcDbLine
 10
51.13097478118641
 20
-14.99286378118651
 30
0.0
 11
48.13097478118641
 21
-14.99286378118651
 31
0.0
  0
LINE
  5
1CC
330
38
100
AcDbEntity
  8
0
100
AcDbLine
 10
48.13097478118641
 20
-13.02794178118651
 30
0.0
 11
48.13097478118641
 21
-14.99286378118651
 31
0.0
  0
LINE
  5
1CD
330
38
100
AcDbEntity
  8
0
100
AcDbLine
 10
51.13097478118641
 20
-13.02794178118651
 30
0.0
 11
51.13097478118641
 21
-14.99286378118651
 31
0.0
  0
LINE
  5
1CE
330
38
100
AcDbEntity
  8
0
100
AcDbLine
 10
52.1309747811864
 20
-17.60710678118652
 30
0.0
 11
47.1309747811864
 21
-17.60710678118652
 31
0.0
  0
LINE
  5
1CF
330
38
100
AcDbEntity
  8
0
100
AcDbLine
 10
47.1309747811864
 20
-10.60710678118651
 30
0.0
 11
52.1309747811864
 21
-10.60710678118651
 31
0.0
  0
LINE
  5
1D0
330
38
100
AcDbEntity
  8
0
100
AcDbLine
 10
52.61097578118675
 20
-10.10710678118652
 30
0.0
 11
52.61097578118675
 21
-12.1071067811865
 31
0.0
  0
ENDBLK
  5
1D2
330
38
100
AcDbEntity
  8
0
100
AcDbBlockEnd
  0
ENDSEC
  0
SECTION
  2
ENTITIES
  0
INSERT
  5
678
330
1F
100
AcDbEntity
  8
外枠
  6
BYBLOCK
100
AcDbBlockReference
  2
A$C627E4F0D
 10
156.2672334315516
 20
138.1221651501507
 30
0.0
 50
90.0
  0
LINE
  5
680
330
1F
100
AcDbEntity
  8
0
 62
     0
100
AcDbLine
 10
156.0743402127391
 20
244.5114458937823
 30
0.0
 11
156.0743402127391
 21
291.7331399313388
 31
0.0
  0
LINE
  5
681
330
1F
100
AcDbEntity
  8
CLASS1
100
AcDbLine
 10
156.0743402127391
 20
244.5114458937823
 30
0.0
 11
156.0743402127391
 21
138.9331399313396
 31
0.0
  0
LINE
  5
682
330
1F
100
AcDbEntity
  8
0
 62
     0
100
AcDbLine
 10
173.8743402127384
 20
280.6940523697303
 30
0.0
 11
173.8743402127384
 21
279.3940523697308
 31
0.0
  0
LINE
  5
683
330
1F
100
AcDbEntity
  8
0
 62
     0
100
AcDbLine
 10
173.8743402127384
 20
286.1940523697303
 30
0.0
 11
173.8743402127384
 21
284.8940523697309
 31
0.0
  0
LINE
  5
684
330
1F
100
AcDbEntity
  8
外枠
 62
     0
100
AcDbLine
 10
172.7743402127366
 20
284.8940523697327
 30
0.0
 11
172.7743402127366
 21
286.194052369732
 31
0.0
  0
LINE
  5
685
330
1F
100
AcDbEntity
  8
外枠
 62
     0
100
AcDbLine
 10
172.7743402127366
 20
284.8940523697309
 30
0.0
 11
173.8743402127384
 21
284.8940523697309
 31
0.0
  0
LINE
  5
686
330
1F
100
AcDbEntity
  8
外枠
 62
     0
100
AcDbLine
 10
172.7743402127366
 20
286.1940523697303
 30
0.0
 11
173.8743402127384
 21
286.1940523697303
 31
0.0
  0
LINE
  5
687
330
1F
100
AcDbEntity
  8
外枠
 62
     0
100
AcDbLine
 10
172.7743402127366
 20
286.1940523697303
 30
0.0
 11
173.8743402127384
 21
286.1940523697303
 31
0.0
  0
LINE
  5
688
330
1F
100
AcDbEntity
  8
外枠
 62
     0
100
AcDbLine
 10
172.7743402127366
 20
284.8940523697309
 30
0.0
 11
173.8743402127384
 21
284.8940523697309
 31
0.0
  0
LINE
  5
689
330
1F
100
AcDbEntity
  8
外枠
 62
     0
100
AcDbLine
 10
172.7743402127366
 20
279.3940523697327
 30
0.0
 11
172.7743402127366
 21
280.6940523697321
 31
0.0
  0
LINE
  5
68A
330
1F
100
AcDbEntity
  8
外枠
 62
     0
100
AcDbLine
 10
172.7743402127366
 20
279.3940523697308
 30
0.0
 11
173.8743402127384
 21
279.3940523697308
 31
0.0
  0
LINE
  5
68B
330
1F
100
AcDbEntity
  8
外枠
 62
     0
100
AcDbLine
 10
172.7743402127366
 20
280.6940523697303
 30
0.0
 11
173.8743402127384
 21
280.6940523697303
 31
0.0
  0
LINE
  5
68C
330
1F
100
AcDbEntity
  8
外枠
 62
     0
100
AcDbLine
 10
172.7743402127366
 20
280.6940523697303
 30
0.0
 11
173.8743402127384
 21
280.6940523697303
 31
0.0
  0
LINE
  5
68D
330
1F
100
AcDbEntity
  8
外枠
 62
     0
100
AcDbLine
 10
172.7743402127366
 20
279.3940523697308
 30
0.0
 11
173.8743402127384
 21
279.3940523697308
 31
0.0
  0
LINE
  5
68E
330
1F
100
AcDbEntity
  8
0
 62
     0
100
AcDbLine
 10
174.0742659001893
 20
278.6940523697321
 30
0.0
 11
172.4742659001895
 21
278.6940523697321
 31
0.0
  0
LINE
  5
68F
330
1F
100
AcDbEntity
  8
0
 62
     0
100
AcDbLine
 10
174.0742659001893
 20
281.3940523697327
 30
0.0
 11
172.4742659001895
 21
281.3940523697327
 31
0.0
  0
LINE
  5
690
330
1F
100
AcDbEntity
  8
0
 62
     0
100
AcDbLine
 10
172.4742659001895
 20
278.6940523697321
 30
0.0
 11
172.4742659001895
 21
281.3940523697327
 31
0.0
  0
LINE
  5
691
330
1F
100
AcDbEntity
  8
0
 62
     0
100
AcDbLine
 10
174.0742659001893
 20
281.3940523697327
 30
0.0
 11
174.0742659001893
 21
278.6940523697321
 31
0.0
  0
LINE
  5
692
330
1F
100
AcDbEntity
  8
0
 62
     0
100
AcDbLine
 10
174.0742659001893
 20
284.1940483696924
 30
0.0
 11
172.4742659001895
 21
284.1940483696924
 31
0.0
  0
LINE
  5
693
330
1F
100
AcDbEntity
  8
0
 62
     0
100
AcDbLine
 10
174.0742659001893
 20
286.8940483696934
 30
0.0
 11
172.4742659001895
 21
286.8940483696934
 31
0.0
  0
LINE
  5
694
330
1F
100
AcDbEntity
  8
0
 62
     0
100
AcDbLine
 10
172.4742659001895
 20
284.1940483696924
 30
0.0
 11
172.4742659001895
 21
286.8940483696934
 31
0.0
  0
LINE
  5
695
330
1F
100
AcDbEntity
  8
0
 62
     0
100
AcDbLine
 10
174.0742659001893
 20
286.8940483696934
 30
0.0
 11
174.0742659001893
 21
284.1940483696924
 31
0.0
  0
LINE
  5
696
330
1F
100
AcDbEntity
  8
外枠
100
AcDbLine
 10
173.8743402127384
 20
231.4071279313375
 30
0.0
 11
173.8743402127384
 21
231.8071279313376
 31
0.0
  0
LINE
  5
697
330
1F
100
AcDbEntity
  8
外枠
100
AcDbLine
 10
173.8743402127384
 20
225.6571279313375
 30
0.0
 11
173.8743402127384
 21
226.4071279313375
 31
0.0
  0
LINE
  5
698
330
1F
100
AcDbEntity
  8
外枠
100
AcDbLine
 10
173.8743402127384
 20
210.0771132722846
 30
0.0
 11
173.8743402127384
 21
211.6571279313375
 31
0.0
  0
LINE
  5
699
330
1F
100
AcDbEntity
  8
外枠
100
AcDbLine
 10
173.8743402127384
 20
190.2531399313372
 30
0.0
 11
173.8743402127384
 21
192.1771132722847
 31
0.0
  0
LINE
  5
69A
330
1F
100
AcDbEntity
  8
外枠
100
AcDbLine
 10
168.8743402127383
 20
192.1771132722847
 30
0.0
 11
173.8743402127384
 21
192.1771132722847
 31
0.0
  0
LINE
  5
69B
330
1F
100
AcDbEntity
  8
0
100
AcDbLine
 10
168.8743402127383
 20
192.1771132722847
 30
0.0
 11
173.8743402127384
 21
192.1771132722847
 31
0.0
  0
LINE
  5
69C
330
1F
100
AcDbEntity
  8
外枠
100
AcDbLine
 10
168.8743402127383
 20
210.0771132722846
 30
0.0
 11
173.8743402127384
 21
210.0771132722846
 31
0.0
  0
LINE
  5
69D
330
1F
100
AcDbEntity
  8
0
100
AcDbLine
 10
176.8743402127384
 20
284.2331409313375
 30
0.0
 11
176.8743402127384
 21
286.9331409313375
 31
0.0
  0
LINE
  5
69E
330
1F
100
AcDbEntity
  8
0
100
AcDbLine
 10
175.2743402127384
 20
286.9331409313375
 30
0.0
 11
175.2743402127384
 21
284.2331409313375
 31
0.0
  0
LINE
  5
69F
330
1F
100
AcDbEntity
  8
0
100
AcDbLine
 10
175.2743402127384
 20
286.9331409313375
 30
0.0
 11
176.8743402127384
 21
286.9331409313375
 31
0.0
  0
LINE
  5
6A0
330
1F
100
AcDbEntity
  8
0
100
AcDbLine
 10
176.5743402127372
 20
284.7881399313372
 30
0.0
 11
176.5743402127372
 21
286.3881399313372
 31
0.0
  0
LINE
  5
6A1
330
1F
100
AcDbEntity
  8
0
100
AcDbLine
 10
176.5743402127372
 20
284.7881399313372
 30
0.0
 11
176.5743402127372
 21
286.3881399313372
 31
0.0
  0
LINE
  5
6A2
330
1F
100
AcDbEntity
  8
0
100
AcDbLine
 10
176.5743402127372
 20
284.7881399313372
 30
0.0
 11
176.5743402127372
 21
286.3881399313372
 31
0.0
  0
LINE
  5
6A3
330
1F
100
AcDbEntity
  8
0
100
AcDbLine
 10
175.4743402127374
 20
284.7881399313372
 30
0.0
 11
176.5743402127372
 21
284.7881399313372
 31
0.0
  0
LINE
  5
6A4
330
1F
100
AcDbEntity
  8
0
100
AcDbLine
 10
175.4743402127374
 20
284.7881399313372
 30
0.0
 11
176.5743402127372
 21
284.7881399313372
 31
0.0
  0
LINE
  5
6A5
330
1F
100
AcDbEntity
  8
0
100
AcDbLine
 10
175.4743402127374
 20
286.3881399313372
 30
0.0
 11
176.5743402127372
 21
286.3881399313372
 31
0.0
  0
LINE
  5
6A6
330
1F
100
AcDbEntity
  8
0
100
AcDbLine
 10
175.4743402127374
 20
286.3881399313372
 30
0.0
 11
176.5743402127372
 21
286.3881399313372
 31
0.0
  0
LINE
  5
6A7
330
1F
100
AcDbEntity
  8
0
100
AcDbLine
 10
175.2743402127384
 20
284.2331409313375
 30
0.0
 11
176.8743402127384
 21
284.2331409313375
 31
0.0
  0
LINE
  5
6A8
330
1F
100
AcDbEntity
  8
0
100
AcDbLine
 10
175.4743402127374
 20
286.3881399313372
 30
0.0
 11
175.4743402127374
 21
284.7881399313372
 31
0.0
  0
LINE
  5
6A9
330
1F
100
AcDbEntity
  8
0
100
AcDbLine
 10
171.7259462127372
 20
236.2681779313377
 30
0.0
 11
171.7259462127372
 21
235.9460769313375
 31
0.0
  0
LINE
  5
6AA
330
1F
100
AcDbEntity
  8
0
100
AcDbLine
 10
168.0169032127382
 20
236.1071279313375
 30
0.0
 11
168.8924112127383
 21
236.6873179313373
 31
0.0
  0
LINE
  5
6AB
330
1F
100
AcDbEntity
  8
0
100
AcDbLine
 10
168.8924112127383
 20
236.6873179313373
 30
0.0
 11
168.8924112127383
 21
236.2681779313377
 31
0.0
  0
LINE
  5
6AC
330
1F
100
AcDbEntity
  8
0
100
AcDbLine
 10
168.8924112127383
 20
236.2681779313377
 30
0.0
 11
171.7259462127372
 21
236.2681779313377
 31
0.0
  0
CIRCLE
  5
6AD
330
1F
100
AcDbEntity
  8
0
100
AcDbCircle
 10
169.9243402127381
 20
236.1071279313375
 30
0.0
 40
1.907437032355004
  0
LINE
  5
6AF
330
1F
100
AcDbEntity
  8
0
100
AcDbLine
 10
168.8924116728935
 20
236.2681784074969
 30
0.0
 11
171.7259461209273
 21
236.2681784074969
 31
0.0
  0
LINE
  5
6B0
330
1F
100
AcDbEntity
  8
0
100
AcDbLine
 10
168.0169031803834
 20
236.1071279313375
 30
0.0
 11
168.8924116728935
 21
236.6873179635633
 31
0.0
  0
LINE
  5
6B1
330
1F
100
AcDbEntity
  8
0
100
AcDbLine
 10
168.8924116728935
 20
236.6873179635633
 30
0.0
 11
168.8924116728935
 21
236.2681784074969
 31
0.0
  0
LINE
  5
6B2
330
1F
100
AcDbEntity
  8
0
100
AcDbLine
 10
171.7259461209273
 20
236.2681784074969
 30
0.0
 11
171.7259461209273
 21
235.9460774551746
 31
0.0
  0
LINE
  5
6B9
330
1F
100
AcDbEntity
  8
0
100
AcDbLine
 10
173.6243402127383
 20
236.1071279313375
 30
0.0
 11
173.6243402127383
 21
231.8071279313376
 31
0.0
  0
LINE
  5
6BA
330
1F
100
AcDbEntity
  8
0
100
AcDbLine
 10
168.8924116728935
 20
235.9460774551746
 30
0.0
 11
171.7259461209273
 21
235.9460774551746
 31
0.0
  0
LINE
  5
6BC
330
1F
100
AcDbEntity
  8
0
100
AcDbLine
 10
168.8924116728935
 20
235.9460774551746
 30
0.0
 11
168.8924116728935
 21
235.5269378991117
 31
0.0
  0
LINE
  5
6BD
330
1F
100
AcDbEntity
  8
0
100
AcDbLine
 10
168.0169031803834
 20
236.1071279313375
 30
0.0
 11
168.8924116728935
 21
235.5269378991117
 31
0.0
  0
LINE
  5
6C3
330
1F
100
AcDbEntity
  8
0
100
AcDbLine
 10
173.6243402127383
 20
233.8671279313375
 30
0.0
 11
173.4743402127383
 21
233.8671279313375
 31
0.0
  0
LINE
  5
6C4
330
1F
100
AcDbEntity
  8
0
100
AcDbLine
 10
173.6243402127383
 20
233.2671279313375
 30
0.0
 11
173.4743402127383
 21
233.2671279313375
 31
0.0
  0
LINE
  5
6C5
330
1F
100
AcDbEntity
  8
0
100
AcDbLine
 10
173.4743402127383
 20
235.1172631269593
 30
0.0
 11
173.4743402127383
 21
232.3571279313375
 31
0.0
  0
LINE
  5
6C6
330
1F
100
AcDbEntity
  8
0
100
AcDbLine
 10
173.6243402127383
 20
231.8071279313376
 30
0.0
 11
174.3743402127383
 21
231.8071279313376
 31
0.0
  0
LINE
  5
6C7
330
1F
100
AcDbEntity
  8
0
100
AcDbLine
 10
168.8924112127383
 20
235.9460769313375
 30
0.0
 11
168.8924112127383
 21
235.5269379313374
 31
0.0
  0
LINE
  5
6C8
330
1F
100
AcDbEntity
  8
0
100
AcDbLine
 10
168.0169032127382
 20
236.1071279313375
 30
0.0
 11
168.8924112127383
 21
235.5269379313374
 31
0.0
  0
LINE
  5
6C9
330
1F
100
AcDbEntity
  8
0
100
AcDbLine
 10
168.8924112127383
 20
235.9460769313375
 30
0.0
 11
171.7259462127372
 21
235.9460769313375
 31
0.0
  0
LINE
  5
6CA
330
1F
100
AcDbEntity
  8
0
100
AcDbLine
 10
173.8743402127384
 20
231.4071279313375
 30
0.0
 11
173.8743402127384
 21
226.4071279313375
 31
0.0
  0
LINE
  5
6CB
330
1F
100
AcDbEntity
  8
0
100
AcDbLine
 10
169.2951752127382
 20
227.4071279313375
 30
0.0
 11
171.2600972127374
 21
227.4071279313375
 31
0.0
  0
LINE
  5
6CC
330
1F
100
AcDbEntity
  8
0
100
AcDbLine
 10
169.2951752127382
 20
230.4071279313375
 30
0.0
 11
171.2600972127374
 21
230.4071279313375
 31
0.0
  0
LINE
  5
6CD
330
1F
100
AcDbEntity
  8
0
100
AcDbLine
 10
171.2600972127374
 20
230.4071279313375
 30
0.0
 11
171.2600972127374
 21
227.4071279313375
 31
0.0
  0
LINE
  5
6CE
330
1F
100
AcDbEntity
  8
0
100
AcDbLine
 10
169.2951752127382
 20
230.4071279313375
 30
0.0
 11
169.2951752127382
 21
227.4071279313375
 31
0.0
  0
LINE
  5
6CF
330
1F
100
AcDbEntity
  8
0
100
AcDbLine
 10
166.2243402127383
 20
236.1071279313375
 30
0.0
 11
166.2243402127383
 21
231.4071279313375
 31
0.0
  0
LINE
  5
6D0
330
1F
100
AcDbEntity
  8
0
100
AcDbLine
 10
166.2243402127383
 20
226.1331409313374
 30
0.0
 11
166.2243402127383
 21
231.4071279313375
 31
0.0
  0
LINE
  5
6D1
330
1F
100
AcDbEntity
  8
0
100
AcDbLine
 10
160.5743402127373
 20
226.1331409313374
 30
0.0
 11
166.2243402127383
 21
226.1331409313374
 31
0.0
  0
LINE
  5
6D2
330
1F
100
AcDbEntity
  8
0
100
AcDbLine
 10
166.8743402127383
 20
226.4071279313375
 30
0.0
 11
166.8743402127383
 21
231.4071279313375
 31
0.0
  0
ARC
  5
6D3
330
1F
100
AcDbEntity
  8
0
100
AcDbCircle
 10
169.9243402127381
 20
236.1071279313375
 30
0.0
 40
3.69999999999993
100
AcDbArc
 50
0.0
 51
180.0
  0
CIRCLE
  5
6D4
330
1F
100
AcDbEntity
  8
0
100
AcDbCircle
 10
169.9243402127381
 20
236.1071279313375
 30
0.0
 40
3.7
  0
CIRCLE
  5
6D5
330
1F
100
AcDbEntity
  8
0
100
AcDbCircle
 10
169.9243402127381
 20
236.1071279313375
 30
0.0
 40
3.7
  0
LINE
  5
6D8
330
1F
100
AcDbEntity
  8
0
100
AcDbLine
 10
166.2243402127383
 20
232.3571279313375
 30
0.0
 11
173.6243402127383
 21
232.3571279313375
 31
0.0
  0
LINE
  5
6DA
330
1F
100
AcDbEntity
  8
0
100
AcDbLine
 10
166.2243402127383
 20
232.3571279313379
 30
0.0
 11
173.6243402127383
 21
232.3571279313375
 31
0.0
  0
LINE
  5
6DB
330
1F
100
AcDbEntity
  8
0
100
AcDbLine
 10
161.0743402127382
 20
225.6571279313375
 30
0.0
 11
173.8743402127384
 21
225.6571279313375
 31
0.0
  0
LINE
  5
6DC
330
1F
100
AcDbEntity
  8
0
100
AcDbLine
 10
166.8743402127383
 20
231.4071279313375
 30
0.0
 11
173.8743402127384
 21
231.4071279313375
 31
0.0
  0
LINE
  5
6DD
330
1F
100
AcDbEntity
  8
0
100
AcDbLine
 10
166.8743402127383
 20
226.4071279313375
 30
0.0
 11
173.8743402127384
 21
226.4071279313375
 31
0.0
  0
LINE
  5
6DE
330
1F
100
AcDbEntity
  8
0
100
AcDbLine
 10
168.6036432127384
 20
221.5714079313372
 30
0.0
 11
167.1356872127375
 21
221.5714079313372
 31
0.0
  0
LINE
  5
6DF
330
1F
100
AcDbEntity
  8
0
100
AcDbLine
 10
168.6036432127384
 20
220.2093889313375
 30
0.0
 11
168.6036432127384
 21
221.5714079313372
 31
0.0
  0
LINE
  5
6E0
330
1F
100
AcDbEntity
  8
0
100
AcDbLine
 10
167.1356872127375
 20
221.5714079313372
 30
0.0
 11
167.1356872127375
 21
220.2093889313375
 31
0.0
  0
LINE
  5
6E1
330
1F
100
AcDbEntity
  8
0
100
AcDbLine
 10
167.1356872127375
 20
221.5714079313372
 30
0.0
 11
167.5730422127376
 21
221.1900359313374
 31
0.0
  0
LINE
  5
6E2
330
1F
100
AcDbEntity
  8
0
100
AcDbLine
 10
168.6036432127384
 20
221.5714079313372
 30
0.0
 11
168.1661162127384
 21
221.1900359313374
 31
0.0
  0
LINE
  5
6E3
330
1F
100
AcDbEntity
  8
0
100
AcDbLine
 10
168.6036432127384
 20
218.3886559313374
 30
0.0
 11
168.6036432127384
 21
219.7506749313373
 31
0.0
  0
LINE
  5
6E4
330
1F
100
AcDbEntity
  8
0
100
AcDbLine
 10
168.6036432127384
 20
219.7506749313373
 30
0.0
 11
167.1356872127375
 21
219.7506749313373
 31
0.0
  0
LINE
  5
6E5
330
1F
100
AcDbEntity
  8
0
100
AcDbLine
 10
167.1356872127375
 20
219.7506749313373
 30
0.0
 11
167.1356872127375
 21
218.3886559313374
 31
0.0
  0
LINE
  5
6E6
330
1F
100
AcDbEntity
  8
0
100
AcDbLine
 10
167.1356872127375
 20
218.3886559313374
 30
0.0
 11
168.6036432127384
 21
218.3886559313374
 31
0.0
  0
LINE
  5
6E7
330
1F
100
AcDbEntity
  8
0
100
AcDbLine
 10
168.1661162127384
 20
218.3886559313374
 30
0.0
 11
168.1661162127384
 21
219.3696469313374
 31
0.0
  0
LINE
  5
6E8
330
1F
100
AcDbEntity
  8
0
100
AcDbLine
 10
168.1661162127384
 20
219.3696469313374
 30
0.0
 11
167.5735592127384
 21
219.3696469313374
 31
0.0
  0
LINE
  5
6E9
330
1F
100
AcDbEntity
  8
0
100
AcDbLine
 10
167.5735592127384
 20
219.3696469313374
 30
0.0
 11
167.5735592127384
 21
218.3886559313374
 31
0.0
  0
LINE
  5
6EA
330
1F
100
AcDbEntity
  8
0
100
AcDbLine
 10
167.5735592127384
 20
218.3886559313374
 30
0.0
 11
168.1661162127384
 21
218.3886559313374
 31
0.0
  0
LINE
  5
6EB
330
1F
100
AcDbEntity
  8
0
100
AcDbLine
 10
168.1657712127385
 20
216.0454739313372
 30
0.0
 11
168.1657712127385
 21
217.0266379313375
 31
0.0
  0
LINE
  5
6EC
330
1F
100
AcDbEntity
  8
0
100
AcDbLine
 10
168.1657712127385
 20
217.0266379313375
 30
0.0
 11
167.5730422127376
 21
217.0266379313375
 31
0.0
  0
LINE
  5
6ED
330
1F
100
AcDbEntity
  8
0
100
AcDbLine
 10
167.5730422127376
 20
217.0266379313375
 30
0.0
 11
167.5730422127376
 21
216.0454739313372
 31
0.0
  0
LINE
  5
6EE
330
1F
100
AcDbEntity
  8
0
100
AcDbLine
 10
167.5730422127376
 20
216.0454739313372
 30
0.0
 11
168.1657712127385
 21
216.0454739313372
 31
0.0
  0
LINE
  5
6EF
330
1F
100
AcDbEntity
  8
0
100
AcDbLine
 10
168.6036432127384
 20
215.6644469313374
 30
0.0
 11
168.1657712127385
 21
216.0454739313372
 31
0.0
  0
LINE
  5
6F0
330
1F
100
AcDbEntity
  8
0
100
AcDbLine
 10
167.1356872127375
 20
215.6644469313374
 30
0.0
 11
167.5730422127376
 21
216.0454739313372
 31
0.0
  0
LINE
  5
6F1
330
1F
100
AcDbEntity
  8
0
100
AcDbLine
 10
170.3537512127381
 20
217.0548869313376
 30
0.0
 11
170.3537512127381
 21
218.4169059313374
 31
0.0
  0
LINE
  5
6F2
330
1F
100
AcDbEntity
  8
0
100
AcDbLine
 10
170.3537512127381
 20
218.4169059313374
 30
0.0
 11
168.8857962127381
 21
218.4169059313374
 31
0.0
  0
LINE
  5
6F3
330
1F
100
AcDbEntity
  8
0
100
AcDbLine
 10
168.8857962127381
 20
218.4169059313374
 30
0.0
 11
168.8857962127381
 21
217.0548869313376
 31
0.0
  0
LINE
  5
6F4
330
1F
100
AcDbEntity
  8
0
100
AcDbLine
 10
168.8857962127381
 20
217.0548869313376
 30
0.0
 11
170.3537512127381
 21
217.0548869313376
 31
0.0
  0
LINE
  5
6F5
330
1F
100
AcDbEntity
  8
0
100
AcDbLine
 10
169.9158802127381
 20
217.4357429313373
 30
0.0
 11
169.9158802127381
 21
218.4169059313374
 31
0.0
  0
LINE
  5
6F6
330
1F
100
AcDbEntity
  8
0
100
AcDbLine
 10
169.9158802127381
 20
218.4169059313374
 30
0.0
 11
169.3233232127381
 21
218.4169059313374
 31
0.0
  0
LINE
  5
6F7
330
1F
100
AcDbEntity
  8
0
100
AcDbLine
 10
169.3233232127381
 20
218.4169059313374
 30
0.0
 11
169.3233232127381
 21
217.4357429313373
 31
0.0
  0
LINE
  5
6F8
330
1F
100
AcDbEntity
  8
0
100
AcDbLine
 10
169.3233232127381
 20
217.4357429313373
 30
0.0
 11
169.9158802127381
 21
217.4357429313373
 31
0.0
  0
LINE
  5
6F9
330
1F
100
AcDbEntity
  8
0
100
AcDbLine
 10
168.6036432127384
 20
215.6644469313374
 30
0.0
 11
168.6036432127384
 21
217.0266379313375
 31
0.0
  0
LINE
  5
6FA
330
1F
100
AcDbEntity
  8
0
100
AcDbLine
 10
168.6036432127384
 20
217.0266379313375
 30
0.0
 11
167.1356872127375
 21
217.0266379313375
 31
0.0
  0
LINE
  5
6FB
330
1F
100
AcDbEntity
  8
0
100
AcDbLine
 10
167.1356872127375
 20
217.0266379313375
 30
0.0
 11
167.1356872127375
 21
215.6644469313374
 31
0.0
  0
LINE
  5
6FC
330
1F
100
AcDbEntity
  8
0
100
AcDbLine
 10
167.1356872127375
 20
215.6644469313374
 30
0.0
 11
168.6036432127384
 21
215.6644469313374
 31
0.0
  0
LINE
  5
6FD
330
1F
100
AcDbEntity
  8
0
100
AcDbLine
 10
170.3537512127381
 20
217.0548869313376
 30
0.0
 11
169.9158802127381
 21
217.4357429313373
 31
0.0
  0
LINE
  5
6FE
330
1F
100
AcDbEntity
  8
0
100
AcDbLine
 10
168.8857962127381
 20
217.0548869313376
 30
0.0
 11
169.3233232127381
 21
217.4357429313373
 31
0.0
  0
LINE
  5
6FF
330
1F
100
AcDbEntity
  8
0
100
AcDbLine
 10
168.8857962127381
 20
218.8825109313373
 30
0.0
 11
168.8857962127381
 21
220.2447009313374
 31
0.0
  0
LINE
  5
700
330
1F
100
AcDbEntity
  8
0
100
AcDbLine
 10
168.8857962127381
 20
220.2447009313374
 30
0.0
 11
170.3537512127381
 21
220.2447009313374
 31
0.0
  0
LINE
  5
701
330
1F
100
AcDbEntity
  8
0
100
AcDbLine
 10
170.3537512127381
 20
220.2447009313374
 30
0.0
 11
170.3537512127381
 21
218.8825109313373
 31
0.0
  0
LINE
  5
702
330
1F
100
AcDbEntity
  8
0
100
AcDbLine
 10
170.3537512127381
 20
218.8825109313373
 30
0.0
 11
168.8857962127381
 21
218.8825109313373
 31
0.0
  0
LINE
  5
703
330
1F
100
AcDbEntity
  8
0
100
AcDbLine
 10
169.3233232127381
 20
218.8825109313373
 30
0.0
 11
169.3233232127381
 21
219.8636739313374
 31
0.0
  0
LINE
  5
704
330
1F
100
AcDbEntity
  8
0
100
AcDbLine
 10
169.3233232127381
 20
219.8636739313374
 30
0.0
 11
169.9158802127381
 21
219.8636739313374
 31
0.0
  0
LINE
  5
705
330
1F
100
AcDbEntity
  8
0
100
AcDbLine
 10
169.9158802127381
 20
219.8636739313374
 30
0.0
 11
169.9158802127381
 21
218.8825109313373
 31
0.0
  0
LINE
  5
706
330
1F
100
AcDbEntity
  8
0
100
AcDbLine
 10
169.9158802127381
 20
218.8825109313373
 30
0.0
 11
169.3233232127381
 21
218.8825109313373
 31
0.0
  0
LINE
  5
707
330
1F
100
AcDbEntity
  8
0
100
AcDbLine
 10
170.3537512127381
 20
220.2447009313374
 30
0.0
 11
169.9158802127381
 21
219.8636739313374
 31
0.0
  0
LINE
  5
708
330
1F
100
AcDbEntity
  8
0
100
AcDbLine
 10
168.8857962127381
 20
220.2447009313374
 30
0.0
 11
169.3233232127381
 21
219.8636739313374
 31
0.0
  0
LINE
  5
709
330
1F
100
AcDbEntity
  8
0
100
AcDbLine
 10
168.6036432127384
 20
219.7506749313373
 30
0.0
 11
168.1661162127384
 21
219.3693029313375
 31
0.0
  0
LINE
  5
70A
330
1F
100
AcDbEntity
  8
0
100
AcDbLine
 10
167.1356872127375
 20
220.2093889313375
 30
0.0
 11
168.6036432127384
 21
220.2093889313375
 31
0.0
  0
LINE
  5
70B
330
1F
100
AcDbEntity
  8
0
100
AcDbLine
 10
168.1661162127384
 20
220.2093889313375
 30
0.0
 11
168.1661162127384
 21
221.1903799313375
 31
0.0
  0
LINE
  5
70C
330
1F
100
AcDbEntity
  8
0
100
AcDbLine
 10
168.1661162127384
 20
221.1903799313375
 30
0.0
 11
167.5735592127384
 21
221.1903799313375
 31
0.0
  0
LINE
  5
70D
330
1F
100
AcDbEntity
  8
0
100
AcDbLine
 10
167.5735592127384
 20
221.1903799313375
 30
0.0
 11
167.5735592127384
 21
220.2093889313375
 31
0.0
  0
LINE
  5
70E
330
1F
100
AcDbEntity
  8
0
100
AcDbLine
 10
167.5735592127384
 20
220.2093889313375
 30
0.0
 11
168.1661162127384
 21
220.2093889313375
 31
0.0
  0
LINE
  5
70F
330
1F
100
AcDbEntity
  8
0
100
AcDbLine
 10
167.1356872127375
 20
219.7506749313373
 30
0.0
 11
167.5730422127376
 21
219.3693029313375
 31
0.0
  0
LINE
  5
710
330
1F
100
AcDbEntity
  8
0
100
AcDbLine
 10
170.1243402127383
 20
207.7071279313376
 30
0.0
 11
170.6243402127384
 21
207.7071279313376
 31
0.0
  0
LINE
  5
711
330
1F
100
AcDbEntity
  8
0
100
AcDbLine
 10
170.4643402127385
 20
207.8670759313372
 30
0.0
 11
170.3743402127383
 21
207.8670759313372
 31
0.0
  0
LINE
  5
712
330
1F
100
AcDbEntity
  8
0
100
AcDbLine
 10
170.4643402127385
 20
207.8670759313372
 30
0.0
 11
170.3743402127383
 21
207.8670759313372
 31
0.0
  0
LINE
  5
713
330
1F
100
AcDbEntity
  8
0
100
AcDbLine
 10
170.2843402127382
 20
207.8670759313372
 30
0.0
 11
170.3743402127383
 21
207.8670759313372
 31
0.0
  0
LINE
  5
714
330
1F
100
AcDbEntity
  8
0
100
AcDbLine
 10
170.2843402127382
 20
207.8670759313372
 30
0.0
 11
170.3743402127383
 21
207.8670759313372
 31
0.0
  0
LINE
  5
715
330
1F
100
AcDbEntity
  8
0
100
AcDbLine
 10
170.1243402127383
 20
208.2071279313375
 30
0.0
 11
170.6243402127384
 21
208.2071279313375
 31
0.0
  0
LINE
  5
716
330
1F
100
AcDbEntity
  8
0
100
AcDbLine
 10
170.4643402127385
 20
208.0471799313373
 30
0.0
 11
170.3743402127383
 21
208.0471799313373
 31
0.0
  0
LINE
  5
717
330
1F
100
AcDbEntity
  8
0
100
AcDbLine
 10
170.2843402127382
 20
208.0471799313373
 30
0.0
 11
170.3743402127383
 21
208.0471799313373
 31
0.0
  0
LINE
  5
718
330
1F
100
AcDbEntity
  8
0
100
AcDbLine
 10
170.4643402127385
 20
208.0471799313373
 30
0.0
 11
170.4643402127385
 21
207.8670759313372
 31
0.0
  0
LINE
  5
719
330
1F
100
AcDbEntity
  8
0
100
AcDbLine
 10
170.2843402127382
 20
208.0471799313373
 30
0.0
 11
170.2843402127382
 21
207.8670759313372
 31
0.0
  0
LINE
  5
71A
330
1F
100
AcDbEntity
  8
0
100
AcDbLine
 10
170.6243402127384
 20
207.7071279313376
 30
0.0
 11
170.6243402127384
 21
208.2071279313375
 31
0.0
  0
LINE
  5
71B
330
1F
100
AcDbEntity
  8
0
100
AcDbLine
 10
170.1243402127383
 20
208.2071279313375
 30
0.0
 11
170.1243402127383
 21
207.7071279313376
 31
0.0
  0
LINE
  5
71C
330
1F
100
AcDbEntity
  8
0
100
AcDbLine
 10
172.2843402127373
 20
207.8670759313372
 30
0.0
 11
172.3743402127374
 21
207.8670759313372
 31
0.0
  0
LINE
  5
71D
330
1F
100
AcDbEntity
  8
0
100
AcDbLine
 10
172.2843402127373
 20
207.8670759313372
 30
0.0
 11
172.3743402127374
 21
207.8670759313372
 31
0.0
  0
LINE
  5
71E
330
1F
100
AcDbEntity
  8
0
100
AcDbLine
 10
172.4643402127385
 20
207.8670759313372
 30
0.0
 11
172.3743402127374
 21
207.8670759313372
 31
0.0
  0
LINE
  5
71F
330
1F
100
AcDbEntity
  8
0
100
AcDbLine
 10
172.4643402127385
 20
207.8670759313372
 30
0.0
 11
172.3743402127374
 21
207.8670759313372
 31
0.0
  0
LINE
  5
720
330
1F
100
AcDbEntity
  8
0
100
AcDbLine
 10
172.2843402127373
 20
208.0471799313373
 30
0.0
 11
172.3743402127374
 21
208.0471799313373
 31
0.0
  0
LINE
  5
721
330
1F
100
AcDbEntity
  8
0
100
AcDbLine
 10
172.4643402127385
 20
208.0471799313373
 30
0.0
 11
172.3743402127374
 21
208.0471799313373
 31
0.0
  0
LINE
  5
722
330
1F
100
AcDbEntity
  8
0
100
AcDbLine
 10
172.2843402127373
 20
208.0471799313373
 30
0.0
 11
172.2843402127373
 21
207.8670759313372
 31
0.0
  0
LINE
  5
723
330
1F
100
AcDbEntity
  8
0
100
AcDbLine
 10
172.4643402127385
 20
208.0471799313373
 30
0.0
 11
172.4643402127385
 21
207.8670759313372
 31
0.0
  0
LINE
  5
724
330
1F
100
AcDbEntity
  8
0
100
AcDbLine
 10
172.6243402127384
 20
207.7071279313376
 30
0.0
 11
172.6243402127384
 21
208.2071279313375
 31
0.0
  0
LINE
  5
725
330
1F
100
AcDbEntity
  8
0
100
AcDbLine
 10
172.1243402127383
 20
208.2071279313375
 30
0.0
 11
172.1243402127383
 21
207.7071279313376
 31
0.0
  0
LINE
  5
726
330
1F
100
AcDbEntity
  8
0
100
AcDbLine
 10
172.1243402127383
 20
207.7071279313376
 30
0.0
 11
172.6243402127384
 21
207.7071279313376
 31
0.0
  0
LINE
  5
727
330
1F
100
AcDbEntity
  8
0
100
AcDbLine
 10
172.1243402127383
 20
208.2071279313375
 30
0.0
 11
172.6243402127384
 21
208.2071279313375
 31
0.0
  0
LINE
  5
728
330
1F
100
AcDbEntity
  8
0
100
AcDbLine
 10
168.8743402127383
 20
210.0771132722846
 30
0.0
 11
173.8743402127384
 21
210.0771132722846
 31
0.0
  0
LINE
  5
729
330
1F
100
AcDbEntity
  8
0
100
AcDbLine
 10
170.2843402127382
 20
199.8670759313371
 30
0.0
 11
170.3743402127383
 21
199.8670759313371
 31
0.0
  0
LINE
  5
72A
330
1F
100
AcDbEntity
  8
0
100
AcDbLine
 10
170.2843402127382
 20
199.8670759313371
 30
0.0
 11
170.3743402127383
 21
199.8670759313371
 31
0.0
  0
LINE
  5
72B
330
1F
100
AcDbEntity
  8
0
100
AcDbLine
 10
170.2843402127382
 20
200.0471799313373
 30
0.0
 11
170.3743402127383
 21
200.0471799313373
 31
0.0
  0
LINE
  5
72C
330
1F
100
AcDbEntity
  8
0
100
AcDbLine
 10
170.4643402127385
 20
200.0471799313373
 30
0.0
 11
170.3743402127383
 21
200.0471799313373
 31
0.0
  0
LINE
  5
72D
330
1F
100
AcDbEntity
  8
0
100
AcDbLine
 10
170.4643402127385
 20
199.8670759313371
 30
0.0
 11
170.3743402127383
 21
199.8670759313371
 31
0.0
  0
LINE
  5
72E
330
1F
100
AcDbEntity
  8
0
100
AcDbLine
 10
170.4643402127385
 20
199.8670759313371
 30
0.0
 11
170.3743402127383
 21
199.8670759313371
 31
0.0
  0
LINE
  5
72F
330
1F
100
AcDbEntity
  8
0
100
AcDbLine
 10
170.4643402127385
 20
200.0471799313373
 30
0.0
 11
170.4643402127385
 21
199.8670759313371
 31
0.0
  0
LINE
  5
730
330
1F
100
AcDbEntity
  8
0
100
AcDbLine
 10
170.1243402127383
 20
199.7071279313376
 30
0.0
 11
170.6243402127384
 21
199.7071279313376
 31
0.0
  0
LINE
  5
731
330
1F
100
AcDbEntity
  8
0
100
AcDbLine
 10
170.1243402127383
 20
200.2071279313375
 30
0.0
 11
170.1243402127383
 21
199.7071279313376
 31
0.0
  0
LINE
  5
732
330
1F
100
AcDbEntity
  8
0
100
AcDbLine
 10
170.6243402127384
 20
199.7071279313376
 30
0.0
 11
170.6243402127384
 21
200.2071279313375
 31
0.0
  0
LINE
  5
733
330
1F
100
AcDbEntity
  8
0
100
AcDbLine
 10
170.1243402127383
 20
202.2071279313377
 30
0.0
 11
170.1243402127383
 21
201.7071279313376
 31
0.0
  0
LINE
  5
734
330
1F
100
AcDbEntity
  8
0
100
AcDbLine
 10
170.6243402127384
 20
201.7071279313376
 30
0.0
 11
170.6243402127384
 21
202.2071279313377
 31
0.0
  0
LINE
  5
735
330
1F
100
AcDbEntity
  8
0
100
AcDbLine
 10
170.2843402127382
 20
202.0471799313376
 30
0.0
 11
170.2843402127382
 21
201.8670759313372
 31
0.0
  0
LINE
  5
736
330
1F
100
AcDbEntity
  8
0
100
AcDbLine
 10
170.2843402127382
 20
201.8670759313372
 30
0.0
 11
170.3743402127383
 21
201.8670759313372
 31
0.0
  0
LINE
  5
737
330
1F
100
AcDbEntity
  8
0
100
AcDbLine
 10
170.2843402127382
 20
201.8670759313372
 30
0.0
 11
170.3743402127383
 21
201.8670759313372
 31
0.0
  0
LINE
  5
738
330
1F
100
AcDbEntity
  8
0
100
AcDbLine
 10
170.2843402127382
 20
202.0471799313376
 30
0.0
 11
170.3743402127383
 21
202.0471799313376
 31
0.0
  0
LINE
  5
739
330
1F
100
AcDbEntity
  8
0
100
AcDbLine
 10
170.4643402127385
 20
202.0471799313376
 30
0.0
 11
170.3743402127383
 21
202.0471799313376
 31
0.0
  0
LINE
  5
73A
330
1F
100
AcDbEntity
  8
0
100
AcDbLine
 10
170.4643402127385
 20
201.8670759313372
 30
0.0
 11
170.3743402127383
 21
201.8670759313372
 31
0.0
  0
LINE
  5
73B
330
1F
100
AcDbEntity
  8
0
100
AcDbLine
 10
170.4643402127385
 20
201.8670759313372
 30
0.0
 11
170.3743402127383
 21
201.8670759313372
 31
0.0
  0
LINE
  5
73C
330
1F
100
AcDbEntity
  8
0
100
AcDbLine
 10
170.4643402127385
 20
202.0471799313376
 30
0.0
 11
170.4643402127385
 21
201.8670759313372
 31
0.0
  0
LINE
  5
73D
330
1F
100
AcDbEntity
  8
0
100
AcDbLine
 10
170.1243402127383
 20
202.2071279313377
 30
0.0
 11
170.6243402127384
 21
202.2071279313377
 31
0.0
  0
LINE
  5
73E
330
1F
100
AcDbEntity
  8
0
100
AcDbLine
 10
170.1243402127383
 20
201.7071279313376
 30
0.0
 11
170.6243402127384
 21
201.7071279313376
 31
0.0
  0
LINE
  5
73F
330
1F
100
AcDbEntity
  8
0
100
AcDbLine
 10
170.1243402127383
 20
200.2071279313375
 30
0.0
 11
170.6243402127384
 21
200.2071279313375
 31
0.0
  0
LINE
  5
740
330
1F
100
AcDbEntity
  8
0
100
AcDbLine
 10
170.2843402127382
 20
200.0471799313373
 30
0.0
 11
170.2843402127382
 21
199.8670759313371
 31
0.0
  0
LINE
  5
741
330
1F
100
AcDbEntity
  8
0
100
AcDbLine
 10
170.1243402127383
 20
204.2071279313375
 30
0.0
 11
170.1243402127383
 21
203.7071279313376
 31
0.0
  0
LINE
  5
742
330
1F
100
AcDbEntity
  8
0
100
AcDbLine
 10
170.6243402127384
 20
203.7071279313376
 30
0.0
 11
170.6243402127384
 21
204.2071279313375
 31
0.0
  0
LINE
  5
743
330
1F
100
AcDbEntity
  8
0
100
AcDbLine
 10
170.2843402127382
 20
204.0471799313373
 30
0.0
 11
170.2843402127382
 21
203.8670759313371
 31
0.0
  0
LINE
  5
744
330
1F
100
AcDbEntity
  8
0
100
AcDbLine
 10
170.2843402127382
 20
203.8670759313371
 30
0.0
 11
170.3743402127383
 21
203.8670759313371
 31
0.0
  0
LINE
  5
745
330
1F
100
AcDbEntity
  8
0
100
AcDbLine
 10
170.2843402127382
 20
203.8670759313371
 30
0.0
 11
170.3743402127383
 21
203.8670759313371
 31
0.0
  0
LINE
  5
746
330
1F
100
AcDbEntity
  8
0
100
AcDbLine
 10
170.2843402127382
 20
204.0471799313373
 30
0.0
 11
170.3743402127383
 21
204.0471799313373
 31
0.0
  0
LINE
  5
747
330
1F
100
AcDbEntity
  8
0
100
AcDbLine
 10
170.4643402127385
 20
204.0471799313373
 30
0.0
 11
170.3743402127383
 21
204.0471799313373
 31
0.0
  0
LINE
  5
748
330
1F
100
AcDbEntity
  8
0
100
AcDbLine
 10
170.4643402127385
 20
203.8670759313371
 30
0.0
 11
170.3743402127383
 21
203.8670759313371
 31
0.0
  0
LINE
  5
749
330
1F
100
AcDbEntity
  8
0
100
AcDbLine
 10
170.4643402127385
 20
203.8670759313371
 30
0.0
 11
170.3743402127383
 21
203.8670759313371
 31
0.0
  0
LINE
  5
74A
330
1F
100
AcDbEntity
  8
0
100
AcDbLine
 10
170.4643402127385
 20
204.0471799313373
 30
0.0
 11
170.4643402127385
 21
203.8670759313371
 31
0.0
  0
LINE
  5
74B
330
1F
100
AcDbEntity
  8
0
100
AcDbLine
 10
170.1243402127383
 20
204.2071279313375
 30
0.0
 11
170.6243402127384
 21
204.2071279313375
 31
0.0
  0
LINE
  5
74C
330
1F
100
AcDbEntity
  8
0
100
AcDbLine
 10
170.1243402127383
 20
203.7071279313376
 30
0.0
 11
170.6243402127384
 21
203.7071279313376
 31
0.0
  0
LINE
  5
74D
330
1F
100
AcDbEntity
  8
0
100
AcDbLine
 10
172.4643402127385
 20
202.0471799313376
 30
0.0
 11
172.4643402127385
 21
201.8670759313372
 31
0.0
  0
LINE
  5
74E
330
1F
100
AcDbEntity
  8
0
100
AcDbLine
 10
172.4643402127385
 20
201.8670759313372
 30
0.0
 11
172.3743402127374
 21
201.8670759313372
 31
0.0
  0
LINE
  5
74F
330
1F
100
AcDbEntity
  8
0
100
AcDbLine
 10
172.4643402127385
 20
201.8670759313372
 30
0.0
 11
172.3743402127374
 21
201.8670759313372
 31
0.0
  0
LINE
  5
750
330
1F
100
AcDbEntity
  8
0
100
AcDbLine
 10
172.4643402127385
 20
202.0471799313376
 30
0.0
 11
172.3743402127374
 21
202.0471799313376
 31
0.0
  0
LINE
  5
751
330
1F
100
AcDbEntity
  8
0
100
AcDbLine
 10
172.2843402127373
 20
202.0471799313376
 30
0.0
 11
172.3743402127374
 21
202.0471799313376
 31
0.0
  0
LINE
  5
752
330
1F
100
AcDbEntity
  8
0
100
AcDbLine
 10
172.2843402127373
 20
201.8670759313372
 30
0.0
 11
172.3743402127374
 21
201.8670759313372
 31
0.0
  0
LINE
  5
753
330
1F
100
AcDbEntity
  8
0
100
AcDbLine
 10
172.2843402127373
 20
201.8670759313372
 30
0.0
 11
172.3743402127374
 21
201.8670759313372
 31
0.0
  0
LINE
  5
754
330
1F
100
AcDbEntity
  8
0
100
AcDbLine
 10
172.2843402127373
 20
202.0471799313376
 30
0.0
 11
172.2843402127373
 21
201.8670759313372
 31
0.0
  0
LINE
  5
755
330
1F
100
AcDbEntity
  8
0
100
AcDbLine
 10
172.6243402127384
 20
201.7071279313376
 30
0.0
 11
172.6243402127384
 21
202.2071279313377
 31
0.0
  0
LINE
  5
756
330
1F
100
AcDbEntity
  8
0
100
AcDbLine
 10
172.4643402127385
 20
200.0471799313373
 30
0.0
 11
172.4643402127385
 21
199.8670759313371
 31
0.0
  0
LINE
  5
757
330
1F
100
AcDbEntity
  8
0
100
AcDbLine
 10
172.4643402127385
 20
199.8670759313371
 30
0.0
 11
172.3743402127374
 21
199.8670759313371
 31
0.0
  0
LINE
  5
758
330
1F
100
AcDbEntity
  8
0
100
AcDbLine
 10
172.4643402127385
 20
199.8670759313371
 30
0.0
 11
172.3743402127374
 21
199.8670759313371
 31
0.0
  0
LINE
  5
759
330
1F
100
AcDbEntity
  8
0
100
AcDbLine
 10
172.4643402127385
 20
200.0471799313373
 30
0.0
 11
172.3743402127374
 21
200.0471799313373
 31
0.0
  0
LINE
  5
75A
330
1F
100
AcDbEntity
  8
0
100
AcDbLine
 10
172.2843402127373
 20
200.0471799313373
 30
0.0
 11
172.3743402127374
 21
200.0471799313373
 31
0.0
  0
LINE
  5
75B
330
1F
100
AcDbEntity
  8
0
100
AcDbLine
 10
172.2843402127373
 20
199.8670759313371
 30
0.0
 11
172.3743402127374
 21
199.8670759313371
 31
0.0
  0
LINE
  5
75C
330
1F
100
AcDbEntity
  8
0
100
AcDbLine
 10
172.2843402127373
 20
199.8670759313371
 30
0.0
 11
172.3743402127374
 21
199.8670759313371
 31
0.0
  0
LINE
  5
75D
330
1F
100
AcDbEntity
  8
0
100
AcDbLine
 10
172.2843402127373
 20
200.0471799313373
 30
0.0
 11
172.2843402127373
 21
199.8670759313371
 31
0.0
  0
LINE
  5
75E
330
1F
100
AcDbEntity
  8
0
100
AcDbLine
 10
172.6243402127384
 20
199.7071279313376
 30
0.0
 11
172.6243402127384
 21
200.2071279313375
 31
0.0
  0
LINE
  5
75F
330
1F
100
AcDbEntity
  8
0
100
AcDbLine
 10
172.1243402127383
 20
202.2071279313377
 30
0.0
 11
172.1243402127383
 21
201.7071279313376
 31
0.0
  0
LINE
  5
760
330
1F
100
AcDbEntity
  8
0
100
AcDbLine
 10
172.1243402127383
 20
200.2071279313375
 30
0.0
 11
172.1243402127383
 21
199.7071279313376
 31
0.0
  0
LINE
  5
761
330
1F
100
AcDbEntity
  8
0
100
AcDbLine
 10
172.1243402127383
 20
201.7071279313376
 30
0.0
 11
172.6243402127384
 21
201.7071279313376
 31
0.0
  0
LINE
  5
762
330
1F
100
AcDbEntity
  8
0
100
AcDbLine
 10
172.1243402127383
 20
202.2071279313377
 30
0.0
 11
172.6243402127384
 21
202.2071279313377
 31
0.0
  0
LINE
  5
763
330
1F
100
AcDbEntity
  8
0
100
AcDbLine
 10
172.1243402127383
 20
200.2071279313375
 30
0.0
 11
172.6243402127384
 21
200.2071279313375
 31
0.0
  0
LINE
  5
764
330
1F
100
AcDbEntity
  8
0
100
AcDbLine
 10
172.1243402127383
 20
199.7071279313376
 30
0.0
 11
172.6243402127384
 21
199.7071279313376
 31
0.0
  0
LINE
  5
765
330
1F
100
AcDbEntity
  8
0
100
AcDbLine
 10
172.4643402127385
 20
204.0471799313373
 30
0.0
 11
172.4643402127385
 21
203.8670759313371
 31
0.0
  0
LINE
  5
766
330
1F
100
AcDbEntity
  8
0
100
AcDbLine
 10
172.4643402127385
 20
203.8670759313371
 30
0.0
 11
172.3743402127374
 21
203.8670759313371
 31
0.0
  0
LINE
  5
767
330
1F
100
AcDbEntity
  8
0
100
AcDbLine
 10
172.4643402127385
 20
203.8670759313371
 30
0.0
 11
172.3743402127374
 21
203.8670759313371
 31
0.0
  0
LINE
  5
768
330
1F
100
AcDbEntity
  8
0
100
AcDbLine
 10
172.4643402127385
 20
204.0471799313373
 30
0.0
 11
172.3743402127374
 21
204.0471799313373
 31
0.0
  0
LINE
  5
769
330
1F
100
AcDbEntity
  8
0
100
AcDbLine
 10
172.2843402127373
 20
204.0471799313373
 30
0.0
 11
172.3743402127374
 21
204.0471799313373
 31
0.0
  0
LINE
  5
76A
330
1F
100
AcDbEntity
  8
0
100
AcDbLine
 10
172.2843402127373
 20
203.8670759313371
 30
0.0
 11
172.3743402127374
 21
203.8670759313371
 31
0.0
  0
LINE
  5
76B
330
1F
100
AcDbEntity
  8
0
100
AcDbLine
 10
172.2843402127373
 20
203.8670759313371
 30
0.0
 11
172.3743402127374
 21
203.8670759313371
 31
0.0
  0
LINE
  5
76C
330
1F
100
AcDbEntity
  8
0
100
AcDbLine
 10
172.2843402127373
 20
204.0471799313373
 30
0.0
 11
172.2843402127373
 21
203.8670759313371
 31
0.0
  0
LINE
  5
76D
330
1F
100
AcDbEntity
  8
0
100
AcDbLine
 10
172.6243402127384
 20
203.7071279313376
 30
0.0
 11
172.6243402127384
 21
204.2071279313375
 31
0.0
  0
LINE
  5
76E
330
1F
100
AcDbEntity
  8
0
100
AcDbLine
 10
172.1243402127383
 20
204.2071279313375
 30
0.0
 11
172.1243402127383
 21
203.7071279313376
 31
0.0
  0
LINE
  5
76F
330
1F
100
AcDbEntity
  8
0
100
AcDbLine
 10
172.1243402127383
 20
203.7071279313376
 30
0.0
 11
172.6243402127384
 21
203.7071279313376
 31
0.0
  0
LINE
  5
770
330
1F
100
AcDbEntity
  8
0
100
AcDbLine
 10
172.1243402127383
 20
204.2071279313375
 30
0.0
 11
172.6243402127384
 21
204.2071279313375
 31
0.0
  0
LINE
  5
771
330
1F
100
AcDbEntity
  8
0
100
AcDbLine
 10
169.2951752127382
 20
189.2531399313372
 30
0.0
 11
171.2600972127374
 21
189.2531399313372
 31
0.0
  0
LINE
  5
772
330
1F
100
AcDbEntity
  8
0
100
AcDbLine
 10
170.1243402127383
 20
194.2071279313377
 30
0.0
 11
170.6243402127384
 21
194.2071279313377
 31
0.0
  0
LINE
  5
773
330
1F
100
AcDbEntity
  8
0
100
AcDbLine
 10
170.2843402127382
 20
194.0471799313376
 30
0.0
 11
170.3743402127383
 21
194.0471799313376
 31
0.0
  0
LINE
  5
774
330
1F
100
AcDbEntity
  8
0
100
AcDbLine
 10
170.4643402127385
 20
194.0471799313376
 30
0.0
 11
170.3743402127383
 21
194.0471799313376
 31
0.0
  0
LINE
  5
775
330
1F
100
AcDbEntity
  8
0
100
AcDbLine
 10
170.2843402127382
 20
193.8670759313372
 30
0.0
 11
170.3743402127383
 21
193.8670759313372
 31
0.0
  0
LINE
  5
776
330
1F
100
AcDbEntity
  8
0
100
AcDbLine
 10
170.2843402127382
 20
193.8670759313372
 30
0.0
 11
170.3743402127383
 21
193.8670759313372
 31
0.0
  0
LINE
  5
777
330
1F
100
AcDbEntity
  8
0
100
AcDbLine
 10
170.4643402127385
 20
193.8670759313372
 30
0.0
 11
170.3743402127383
 21
193.8670759313372
 31
0.0
  0
LINE
  5
778
330
1F
100
AcDbEntity
  8
0
100
AcDbLine
 10
170.4643402127385
 20
193.8670759313372
 30
0.0
 11
170.3743402127383
 21
193.8670759313372
 31
0.0
  0
LINE
  5
779
330
1F
100
AcDbEntity
  8
0
100
AcDbLine
 10
170.1243402127383
 20
193.7071279313377
 30
0.0
 11
170.6243402127384
 21
193.7071279313377
 31
0.0
  0
LINE
  5
77A
330
1F
100
AcDbEntity
  8
0
100
AcDbLine
 10
170.2843402127382
 20
194.0471799313376
 30
0.0
 11
170.2843402127382
 21
193.8670759313372
 31
0.0
  0
LINE
  5
77B
330
1F
100
AcDbEntity
  8
0
100
AcDbLine
 10
170.4643402127385
 20
194.0471799313376
 30
0.0
 11
170.4643402127385
 21
193.8670759313372
 31
0.0
  0
LINE
  5
77C
330
1F
100
AcDbEntity
  8
0
100
AcDbLine
 10
170.1243402127383
 20
194.2071279313377
 30
0.0
 11
170.1243402127383
 21
193.7071279313377
 31
0.0
  0
LINE
  5
77D
330
1F
100
AcDbEntity
  8
0
100
AcDbLine
 10
170.6243402127384
 20
193.7071279313377
 30
0.0
 11
170.6243402127384
 21
194.2071279313377
 31
0.0
  0
LINE
  5
77E
330
1F
100
AcDbEntity
  8
0
100
AcDbLine
 10
172.4643402127385
 20
194.0471799313376
 30
0.0
 11
172.3743402127374
 21
194.0471799313376
 31
0.0
  0
LINE
  5
77F
330
1F
100
AcDbEntity
  8
0
100
AcDbLine
 10
172.2843402127373
 20
194.0471799313376
 30
0.0
 11
172.3743402127374
 21
194.0471799313376
 31
0.0
  0
LINE
  5
780
330
1F
100
AcDbEntity
  8
0
100
AcDbLine
 10
172.1243402127383
 20
194.2071279313377
 30
0.0
 11
172.6243402127384
 21
194.2071279313377
 31
0.0
  0
LINE
  5
781
330
1F
100
AcDbEntity
  8
0
100
AcDbLine
 10
172.4643402127385
 20
193.8670759313372
 30
0.0
 11
172.3743402127374
 21
193.8670759313372
 31
0.0
  0
LINE
  5
782
330
1F
100
AcDbEntity
  8
0
100
AcDbLine
 10
172.4643402127385
 20
193.8670759313372
 30
0.0
 11
172.3743402127374
 21
193.8670759313372
 31
0.0
  0
LINE
  5
783
330
1F
100
AcDbEntity
  8
0
100
AcDbLine
 10
172.2843402127373
 20
193.8670759313372
 30
0.0
 11
172.3743402127374
 21
193.8670759313372
 31
0.0
  0
LINE
  5
784
330
1F
100
AcDbEntity
  8
0
100
AcDbLine
 10
172.2843402127373
 20
193.8670759313372
 30
0.0
 11
172.3743402127374
 21
193.8670759313372
 31
0.0
  0
LINE
  5
785
330
1F
100
AcDbEntity
  8
0
100
AcDbLine
 10
172.1243402127383
 20
193.7071279313377
 30
0.0
 11
172.6243402127384
 21
193.7071279313377
 31
0.0
  0
LINE
  5
786
330
1F
100
AcDbEntity
  8
0
100
AcDbLine
 10
172.4643402127385
 20
194.0471799313376
 30
0.0
 11
172.4643402127385
 21
193.8670759313372
 31
0.0
  0
LINE
  5
787
330
1F
100
AcDbEntity
  8
0
100
AcDbLine
 10
172.2843402127373
 20
194.0471799313376
 30
0.0
 11
172.2843402127373
 21
193.8670759313372
 31
0.0
  0
LINE
  5
788
330
1F
100
AcDbEntity
  8
0
100
AcDbLine
 10
172.6243402127384
 20
193.7071279313377
 30
0.0
 11
172.6243402127384
 21
194.2071279313377
 31
0.0
  0
LINE
  5
789
330
1F
100
AcDbEntity
  8
0
100
AcDbLine
 10
172.1243402127383
 20
194.2071279313377
 30
0.0
 11
172.1243402127383
 21
193.7071279313377
 31
0.0
  0
LINE
  5
78A
330
1F
100
AcDbEntity
  8
0
100
AcDbLine
 10
170.6243402127384
 20
195.7071279313375
 30
0.0
 11
170.6243402127384
 21
196.2071279313376
 31
0.0
  0
LINE
  5
78B
330
1F
100
AcDbEntity
  8
0
100
AcDbLine
 10
170.1243402127383
 20
196.2071279313376
 30
0.0
 11
170.1243402127383
 21
195.7071279313375
 31
0.0
  0
LINE
  5
78C
330
1F
100
AcDbEntity
  8
0
100
AcDbLine
 10
170.1243402127383
 20
195.7071279313375
 30
0.0
 11
170.6243402127384
 21
195.7071279313375
 31
0.0
  0
LINE
  5
78D
330
1F
100
AcDbEntity
  8
0
100
AcDbLine
 10
170.4643402127385
 20
196.0471799313373
 30
0.0
 11
170.3743402127383
 21
196.0471799313373
 31
0.0
  0
LINE
  5
78E
330
1F
100
AcDbEntity
  8
0
100
AcDbLine
 10
170.2843402127382
 20
196.0471799313373
 30
0.0
 11
170.3743402127383
 21
196.0471799313373
 31
0.0
  0
LINE
  5
78F
330
1F
100
AcDbEntity
  8
0
100
AcDbLine
 10
170.1243402127383
 20
196.2071279313376
 30
0.0
 11
170.6243402127384
 21
196.2071279313376
 31
0.0
  0
LINE
  5
790
330
1F
100
AcDbEntity
  8
0
100
AcDbLine
 10
170.4643402127385
 20
195.8670759313372
 30
0.0
 11
170.3743402127383
 21
195.8670759313372
 31
0.0
  0
LINE
  5
791
330
1F
100
AcDbEntity
  8
0
100
AcDbLine
 10
170.4643402127385
 20
195.8670759313372
 30
0.0
 11
170.3743402127383
 21
195.8670759313372
 31
0.0
  0
LINE
  5
792
330
1F
100
AcDbEntity
  8
0
100
AcDbLine
 10
170.2843402127382
 20
195.8670759313372
 30
0.0
 11
170.3743402127383
 21
195.8670759313372
 31
0.0
  0
LINE
  5
793
330
1F
100
AcDbEntity
  8
0
100
AcDbLine
 10
170.2843402127382
 20
195.8670759313372
 30
0.0
 11
170.3743402127383
 21
195.8670759313372
 31
0.0
  0
LINE
  5
794
330
1F
100
AcDbEntity
  8
0
100
AcDbLine
 10
170.4643402127385
 20
196.0471799313373
 30
0.0
 11
170.4643402127385
 21
195.8670759313372
 31
0.0
  0
LINE
  5
795
330
1F
100
AcDbEntity
  8
0
100
AcDbLine
 10
170.2843402127382
 20
196.0471799313373
 30
0.0
 11
170.2843402127382
 21
195.8670759313372
 31
0.0
  0
LINE
  5
796
330
1F
100
AcDbEntity
  8
0
100
AcDbLine
 10
170.6243402127384
 20
197.7071279313377
 30
0.0
 11
170.6243402127384
 21
198.2071279313377
 31
0.0
  0
LINE
  5
797
330
1F
100
AcDbEntity
  8
0
100
AcDbLine
 10
170.1243402127383
 20
198.2071279313377
 30
0.0
 11
170.1243402127383
 21
197.7071279313377
 31
0.0
  0
LINE
  5
798
330
1F
100
AcDbEntity
  8
0
100
AcDbLine
 10
170.1243402127383
 20
197.7071279313377
 30
0.0
 11
170.6243402127384
 21
197.7071279313377
 31
0.0
  0
LINE
  5
799
330
1F
100
AcDbEntity
  8
0
100
AcDbLine
 10
170.4643402127385
 20
198.0471799313376
 30
0.0
 11
170.3743402127383
 21
198.0471799313376
 31
0.0
  0
LINE
  5
79A
330
1F
100
AcDbEntity
  8
0
100
AcDbLine
 10
170.2843402127382
 20
198.0471799313376
 30
0.0
 11
170.3743402127383
 21
198.0471799313376
 31
0.0
  0
LINE
  5
79B
330
1F
100
AcDbEntity
  8
0
100
AcDbLine
 10
170.1243402127383
 20
198.2071279313377
 30
0.0
 11
170.6243402127384
 21
198.2071279313377
 31
0.0
  0
LINE
  5
79C
330
1F
100
AcDbEntity
  8
0
100
AcDbLine
 10
170.4643402127385
 20
197.8670759313372
 30
0.0
 11
170.3743402127383
 21
197.8670759313372
 31
0.0
  0
LINE
  5
79D
330
1F
100
AcDbEntity
  8
0
100
AcDbLine
 10
170.4643402127385
 20
197.8670759313372
 30
0.0
 11
170.3743402127383
 21
197.8670759313372
 31
0.0
  0
LINE
  5
79E
330
1F
100
AcDbEntity
  8
0
100
AcDbLine
 10
170.2843402127382
 20
197.8670759313372
 30
0.0
 11
170.3743402127383
 21
197.8670759313372
 31
0.0
  0
LINE
  5
79F
330
1F
100
AcDbEntity
  8
0
100
AcDbLine
 10
170.2843402127382
 20
197.8670759313372
 30
0.0
 11
170.3743402127383
 21
197.8670759313372
 31
0.0
  0
LINE
  5
7A0
330
1F
100
AcDbEntity
  8
0
100
AcDbLine
 10
170.4643402127385
 20
198.0471799313376
 30
0.0
 11
170.4643402127385
 21
197.8670759313372
 31
0.0
  0
LINE
  5
7A1
330
1F
100
AcDbEntity
  8
0
100
AcDbLine
 10
170.2843402127382
 20
198.0471799313376
 30
0.0
 11
170.2843402127382
 21
197.8670759313372
 31
0.0
  0
LINE
  5
7A2
330
1F
100
AcDbEntity
  8
0
100
AcDbLine
 10
172.6243402127384
 20
195.7071279313375
 30
0.0
 11
172.6243402127384
 21
196.2071279313376
 31
0.0
  0
LINE
  5
7A3
330
1F
100
AcDbEntity
  8
0
100
AcDbLine
 10
172.1243402127383
 20
196.2071279313376
 30
0.0
 11
172.1243402127383
 21
195.7071279313375
 31
0.0
  0
LINE
  5
7A4
330
1F
100
AcDbEntity
  8
0
100
AcDbLine
 10
172.1243402127383
 20
195.7071279313375
 30
0.0
 11
172.6243402127384
 21
195.7071279313375
 31
0.0
  0
LINE
  5
7A5
330
1F
100
AcDbEntity
  8
0
100
AcDbLine
 10
172.2843402127373
 20
196.0471799313373
 30
0.0
 11
172.3743402127374
 21
196.0471799313373
 31
0.0
  0
LINE
  5
7A6
330
1F
100
AcDbEntity
  8
0
100
AcDbLine
 10
172.4643402127385
 20
196.0471799313373
 30
0.0
 11
172.3743402127374
 21
196.0471799313373
 31
0.0
  0
LINE
  5
7A7
330
1F
100
AcDbEntity
  8
0
100
AcDbLine
 10
172.1243402127383
 20
196.2071279313376
 30
0.0
 11
172.6243402127384
 21
196.2071279313376
 31
0.0
  0
LINE
  5
7A8
330
1F
100
AcDbEntity
  8
0
100
AcDbLine
 10
172.2843402127373
 20
195.8670759313372
 30
0.0
 11
172.3743402127374
 21
195.8670759313372
 31
0.0
  0
LINE
  5
7A9
330
1F
100
AcDbEntity
  8
0
100
AcDbLine
 10
172.2843402127373
 20
195.8670759313372
 30
0.0
 11
172.3743402127374
 21
195.8670759313372
 31
0.0
  0
LINE
  5
7AA
330
1F
100
AcDbEntity
  8
0
100
AcDbLine
 10
172.4643402127385
 20
195.8670759313372
 30
0.0
 11
172.3743402127374
 21
195.8670759313372
 31
0.0
  0
LINE
  5
7AB
330
1F
100
AcDbEntity
  8
0
100
AcDbLine
 10
172.4643402127385
 20
195.8670759313372
 30
0.0
 11
172.3743402127374
 21
195.8670759313372
 31
0.0
  0
LINE
  5
7AC
330
1F
100
AcDbEntity
  8
0
100
AcDbLine
 10
172.2843402127373
 20
196.0471799313373
 30
0.0
 11
172.2843402127373
 21
195.8670759313372
 31
0.0
  0
LINE
  5
7AD
330
1F
100
AcDbEntity
  8
0
100
AcDbLine
 10
172.4643402127385
 20
196.0471799313373
 30
0.0
 11
172.4643402127385
 21
195.8670759313372
 31
0.0
  0
LINE
  5
7AE
330
1F
100
AcDbEntity
  8
0
100
AcDbLine
 10
172.6243402127384
 20
197.7071279313377
 30
0.0
 11
172.6243402127384
 21
198.2071279313377
 31
0.0
  0
LINE
  5
7AF
330
1F
100
AcDbEntity
  8
0
100
AcDbLine
 10
172.1243402127383
 20
198.2071279313377
 30
0.0
 11
172.1243402127383
 21
197.7071279313377
 31
0.0
  0
LINE
  5
7B0
330
1F
100
AcDbEntity
  8
0
100
AcDbLine
 10
172.1243402127383
 20
197.7071279313377
 30
0.0
 11
172.6243402127384
 21
197.7071279313377
 31
0.0
  0
LINE
  5
7B1
330
1F
100
AcDbEntity
  8
0
100
AcDbLine
 10
172.2843402127373
 20
198.0471799313376
 30
0.0
 11
172.3743402127374
 21
198.0471799313376
 31
0.0
  0
LINE
  5
7B2
330
1F
100
AcDbEntity
  8
0
100
AcDbLine
 10
172.4643402127385
 20
198.0471799313376
 30
0.0
 11
172.3743402127374
 21
198.0471799313376
 31
0.0
  0
LINE
  5
7B3
330
1F
100
AcDbEntity
  8
0
100
AcDbLine
 10
172.1243402127383
 20
198.2071279313377
 30
0.0
 11
172.6243402127384
 21
198.2071279313377
 31
0.0
  0
LINE
  5
7B4
330
1F
100
AcDbEntity
  8
0
100
AcDbLine
 10
172.2843402127373
 20
197.8670759313372
 30
0.0
 11
172.3743402127374
 21
197.8670759313372
 31
0.0
  0
LINE
  5
7B5
330
1F
100
AcDbEntity
  8
0
100
AcDbLine
 10
172.2843402127373
 20
197.8670759313372
 30
0.0
 11
172.3743402127374
 21
197.8670759313372
 31
0.0
  0
LINE
  5
7B6
330
1F
100
AcDbEntity
  8
0
100
AcDbLine
 10
172.4643402127385
 20
197.8670759313372
 30
0.0
 11
172.3743402127374
 21
197.8670759313372
 31
0.0
  0
LINE
  5
7B7
330
1F
100
AcDbEntity
  8
0
100
AcDbLine
 10
172.4643402127385
 20
197.8670759313372
 30
0.0
 11
172.3743402127374
 21
197.8670759313372
 31
0.0
  0
LINE
  5
7B8
330
1F
100
AcDbEntity
  8
0
100
AcDbLine
 10
172.2843402127373
 20
198.0471799313376
 30
0.0
 11
172.2843402127373
 21
197.8670759313372
 31
0.0
  0
LINE
  5
7B9
330
1F
100
AcDbEntity
  8
0
100
AcDbLine
 10
172.4643402127385
 20
198.0471799313376
 30
0.0
 11
172.4643402127385
 21
197.8670759313372
 31
0.0
  0
LINE
  5
7BA
330
1F
100
AcDbEntity
  8
0
100
AcDbLine
 10
170.1243402127383
 20
206.2071279313377
 30
0.0
 11
170.1243402127383
 21
205.7071279313376
 31
0.0
  0
LINE
  5
7BB
330
1F
100
AcDbEntity
  8
0
100
AcDbLine
 10
170.6243402127384
 20
205.7071279313376
 30
0.0
 11
170.6243402127384
 21
206.2071279313377
 31
0.0
  0
LINE
  5
7BC
330
1F
100
AcDbEntity
  8
0
100
AcDbLine
 10
170.2843402127382
 20
206.0471799313376
 30
0.0
 11
170.2843402127382
 21
205.8670759313372
 31
0.0
  0
LINE
  5
7BD
330
1F
100
AcDbEntity
  8
0
100
AcDbLine
 10
170.2843402127382
 20
205.8670759313372
 30
0.0
 11
170.3743402127383
 21
205.8670759313372
 31
0.0
  0
LINE
  5
7BE
330
1F
100
AcDbEntity
  8
0
100
AcDbLine
 10
170.2843402127382
 20
205.8670759313372
 30
0.0
 11
170.3743402127383
 21
205.8670759313372
 31
0.0
  0
LINE
  5
7BF
330
1F
100
AcDbEntity
  8
0
100
AcDbLine
 10
170.2843402127382
 20
206.0471799313376
 30
0.0
 11
170.3743402127383
 21
206.0471799313376
 31
0.0
  0
LINE
  5
7C0
330
1F
100
AcDbEntity
  8
0
100
AcDbLine
 10
170.4643402127385
 20
206.0471799313376
 30
0.0
 11
170.3743402127383
 21
206.0471799313376
 31
0.0
  0
LINE
  5
7C1
330
1F
100
AcDbEntity
  8
0
100
AcDbLine
 10
170.4643402127385
 20
205.8670759313372
 30
0.0
 11
170.3743402127383
 21
205.8670759313372
 31
0.0
  0
LINE
  5
7C2
330
1F
100
AcDbEntity
  8
0
100
AcDbLine
 10
170.4643402127385
 20
205.8670759313372
 30
0.0
 11
170.3743402127383
 21
205.8670759313372
 31
0.0
  0
LINE
  5
7C3
330
1F
100
AcDbEntity
  8
0
100
AcDbLine
 10
170.4643402127385
 20
206.0471799313376
 30
0.0
 11
170.4643402127385
 21
205.8670759313372
 31
0.0
  0
LINE
  5
7C4
330
1F
100
AcDbEntity
  8
0
100
AcDbLine
 10
170.1243402127383
 20
206.2071279313377
 30
0.0
 11
170.6243402127384
 21
206.2071279313377
 31
0.0
  0
LINE
  5
7C5
330
1F
100
AcDbEntity
  8
0
100
AcDbLine
 10
170.1243402127383
 20
205.7071279313376
 30
0.0
 11
170.6243402127384
 21
205.7071279313376
 31
0.0
  0
LINE
  5
7C6
330
1F
100
AcDbEntity
  8
0
100
AcDbLine
 10
172.4643402127385
 20
206.0471799313376
 30
0.0
 11
172.4643402127385
 21
205.8670759313372
 31
0.0
  0
LINE
  5
7C7
330
1F
100
AcDbEntity
  8
0
100
AcDbLine
 10
172.4643402127385
 20
205.8670759313372
 30
0.0
 11
172.3743402127374
 21
205.8670759313372
 31
0.0
  0
LINE
  5
7C8
330
1F
100
AcDbEntity
  8
0
100
AcDbLine
 10
172.4643402127385
 20
205.8670759313372
 30
0.0
 11
172.3743402127374
 21
205.8670759313372
 31
0.0
  0
LINE
  5
7C9
330
1F
100
AcDbEntity
  8
0
100
AcDbLine
 10
172.4643402127385
 20
206.0471799313376
 30
0.0
 11
172.3743402127374
 21
206.0471799313376
 31
0.0
  0
LINE
  5
7CA
330
1F
100
AcDbEntity
  8
0
100
AcDbLine
 10
172.2843402127373
 20
206.0471799313376
 30
0.0
 11
172.3743402127374
 21
206.0471799313376
 31
0.0
  0
LINE
  5
7CB
330
1F
100
AcDbEntity
  8
0
100
AcDbLine
 10
172.2843402127373
 20
205.8670759313372
 30
0.0
 11
172.3743402127374
 21
205.8670759313372
 31
0.0
  0
LINE
  5
7CC
330
1F
100
AcDbEntity
  8
0
100
AcDbLine
 10
172.2843402127373
 20
205.8670759313372
 30
0.0
 11
172.3743402127374
 21
205.8670759313372
 31
0.0
  0
LINE
  5
7CD
330
1F
100
AcDbEntity
  8
0
100
AcDbLine
 10
172.2843402127373
 20
206.0471799313376
 30
0.0
 11
172.2843402127373
 21
205.8670759313372
 31
0.0
  0
LINE
  5
7CE
330
1F
100
AcDbEntity
  8
0
100
AcDbLine
 10
172.6243402127384
 20
205.7071279313376
 30
0.0
 11
172.6243402127384
 21
206.2071279313377
 31
0.0
  0
LINE
  5
7CF
330
1F
100
AcDbEntity
  8
0
100
AcDbLine
 10
172.1243402127383
 20
206.2071279313377
 30
0.0
 11
172.1243402127383
 21
205.7071279313376
 31
0.0
  0
LINE
  5
7D0
330
1F
100
AcDbEntity
  8
0
100
AcDbLine
 10
172.1243402127383
 20
205.7071279313376
 30
0.0
 11
172.6243402127384
 21
205.7071279313376
 31
0.0
  0
LINE
  5
7D1
330
1F
100
AcDbEntity
  8
0
100
AcDbLine
 10
172.1243402127383
 20
206.2071279313377
 30
0.0
 11
172.6243402127384
 21
206.2071279313377
 31
0.0
  0
LINE
  5
7D2
330
1F
100
AcDbEntity
  8
0
100
AcDbLine
 10
168.3743402127383
 20
211.1331409313375
 30
0.0
 11
168.3743402127383
 21
190.7331409313375
 31
0.0
  0
LINE
  5
7D3
330
1F
100
AcDbEntity
  8
0
100
AcDbLine
 10
168.8743402127383
 20
210.0771132722846
 30
0.0
 11
168.8743402127383
 21
192.1771132722847
 31
0.0
  0
LINE
  5
7D4
330
1F
100
AcDbEntity
  8
0
100
AcDbLine
 10
173.8743402127384
 20
210.0771132722846
 30
0.0
 11
173.8743402127384
 21
192.1771132722847
 31
0.0
  0
LINE
  5
7D5
330
1F
100
AcDbEntity
  8
0
100
AcDbLine
 10
166.7190032127382
 20
219.4258019313374
 30
0.0
 11
165.3569852127384
 21
219.4258019313374
 31
0.0
  0
LINE
  5
7D6
330
1F
100
AcDbEntity
  8
0
100
AcDbLine
 10
165.3569852127384
 20
217.9578469313373
 30
0.0
 11
166.7190032127382
 21
217.9578469313373
 31
0.0
  0
LINE
  5
7D7
330
1F
100
AcDbEntity
  8
0
100
AcDbLine
 10
166.7190032127382
 20
218.9884469313374
 30
0.0
 11
165.7380122127383
 21
218.9884469313374
 31
0.0
  0
LINE
  5
7D8
330
1F
100
AcDbEntity
  8
0
100
AcDbLine
 10
165.7380122127383
 20
218.3957189313375
 30
0.0
 11
166.7190032127382
 21
218.3957189313375
 31
0.0
  0
LINE
  5
7D9
330
1F
100
AcDbEntity
  8
0
100
AcDbLine
 10
166.7190032127382
 20
217.5840539313373
 30
0.0
 11
165.3569852127384
 21
217.5840539313373
 31
0.0
  0
LINE
  5
7DA
330
1F
100
AcDbEntity
  8
0
100
AcDbLine
 10
165.3569852127384
 20
216.1160989313374
 30
0.0
 11
166.7190032127382
 21
216.1160989313374
 31
0.0
  0
LINE
  5
7DB
330
1F
100
AcDbEntity
  8
0
100
AcDbLine
 10
166.7190032127382
 20
217.1465269313376
 30
0.0
 11
165.7380122127383
 21
217.1465269313376
 31
0.0
  0
LINE
  5
7DC
330
1F
100
AcDbEntity
  8
0
100
AcDbLine
 10
165.7380122127383
 20
216.5537979313376
 30
0.0
 11
166.7190032127382
 21
216.5537979313376
 31
0.0
  0
LINE
  5
7DD
330
1F
100
AcDbEntity
  8
0
100
AcDbLine
 10
166.7190032127382
 20
221.2680669313372
 30
0.0
 11
165.3569852127384
 21
221.2680669313372
 31
0.0
  0
LINE
  5
7DE
330
1F
100
AcDbEntity
  8
0
100
AcDbLine
 10
165.3569852127384
 20
219.8001119313376
 30
0.0
 11
166.7190032127382
 21
219.8001119313376
 31
0.0
  0
LINE
  5
7DF
330
1F
100
AcDbEntity
  8
0
100
AcDbLine
 10
166.7190032127382
 20
220.8301949313375
 30
0.0
 11
165.7380122127383
 21
220.8301949313375
 31
0.0
  0
LINE
  5
7E0
330
1F
100
AcDbEntity
  8
0
100
AcDbLine
 10
165.7380122127383
 20
220.2376389313375
 30
0.0
 11
166.7190032127382
 21
220.2376389313375
 31
0.0
  0
LINE
  5
7E1
330
1F
100
AcDbEntity
  8
0
100
AcDbLine
 10
165.3569852127384
 20
219.4258019313374
 30
0.0
 11
165.3569852127384
 21
217.9578469313373
 31
0.0
  0
LINE
  5
7E2
330
1F
100
AcDbEntity
  8
0
100
AcDbLine
 10
165.7380122127383
 20
218.9884469313374
 30
0.0
 11
165.7380122127383
 21
218.3957189313375
 31
0.0
  0
LINE
  5
7E3
330
1F
100
AcDbEntity
  8
0
100
AcDbLine
 10
165.3573292127384
 20
217.9578469313373
 30
0.0
 11
165.7383572127382
 21
218.3957189313375
 31
0.0
  0
LINE
  5
7E4
330
1F
100
AcDbEntity
  8
0
100
AcDbLine
 10
165.3569852127384
 20
217.5840539313373
 30
0.0
 11
165.3569852127384
 21
216.1160989313374
 31
0.0
  0
LINE
  5
7E5
330
1F
100
AcDbEntity
  8
0
100
AcDbLine
 10
165.7380122127383
 20
217.1465269313376
 30
0.0
 11
165.7380122127383
 21
216.5537979313376
 31
0.0
  0
LINE
  5
7E6
330
1F
100
AcDbEntity
  8
0
100
AcDbLine
 10
165.3573292127384
 20
216.1160989313374
 30
0.0
 11
165.7383572127382
 21
216.5537979313376
 31
0.0
  0
LINE
  5
7E7
330
1F
100
AcDbEntity
  8
0
100
AcDbLine
 10
165.3573292127384
 20
217.5840539313373
 30
0.0
 11
165.7383572127382
 21
217.1465269313376
 31
0.0
  0
LINE
  5
7E8
330
1F
100
AcDbEntity
  8
0
100
AcDbLine
 10
165.3573292127384
 20
219.4258019313374
 30
0.0
 11
165.7383572127382
 21
218.9884469313374
 31
0.0
  0
LINE
  5
7E9
330
1F
100
AcDbEntity
  8
0
100
AcDbLine
 10
165.3569852127384
 20
221.2680669313372
 30
0.0
 11
165.3569852127384
 21
219.8001119313376
 31
0.0
  0
LINE
  5
7EA
330
1F
100
AcDbEntity
  8
0
100
AcDbLine
 10
165.7380122127383
 20
220.8301949313375
 30
0.0
 11
165.7380122127383
 21
220.2376389313375
 31
0.0
  0
LINE
  5
7EB
330
1F
100
AcDbEntity
  8
0
100
AcDbLine
 10
165.3573292127384
 20
219.8001119313376
 30
0.0
 11
165.7383572127382
 21
220.2376389313375
 31
0.0
  0
LINE
  5
7EC
330
1F
100
AcDbEntity
  8
0
100
AcDbLine
 10
165.3573292127384
 20
221.2677219313373
 30
0.0
 11
165.7383572127382
 21
220.8301949313375
 31
0.0
  0
LINE
  5
7ED
330
1F
100
AcDbEntity
  8
0
100
AcDbLine
 10
164.7360062127381
 20
217.9227069313375
 30
0.0
 11
164.7360062127381
 21
219.3904899313373
 31
0.0
  0
LINE
  5
7EE
330
1F
100
AcDbEntity
  8
0
100
AcDbLine
 10
164.7360062127381
 20
219.3904899313373
 30
0.0
 11
162.8165712127383
 21
219.3904899313373
 31
0.0
  0
LINE
  5
7EF
330
1F
100
AcDbEntity
  8
0
100
AcDbLine
 10
162.8165712127383
 20
219.3904899313373
 30
0.0
 11
162.8165712127383
 21
217.9227069313375
 31
0.0
  0
LINE
  5
7F0
330
1F
100
AcDbEntity
  8
0
100
AcDbLine
 10
162.8165712127383
 20
217.9227069313375
 30
0.0
 11
164.7360062127381
 21
217.9227069313375
 31
0.0
  0
LINE
  5
7F1
330
1F
100
AcDbEntity
  8
0
100
AcDbLine
 10
164.7360062127381
 20
217.9227069313375
 30
0.0
 11
164.7360062127381
 21
219.3904899313373
 31
0.0
  0
LINE
  5
7F2
330
1F
100
AcDbEntity
  8
0
100
AcDbLine
 10
164.7360062127381
 20
219.3904899313373
 30
0.0
 11
162.8165712127383
 21
219.3904899313373
 31
0.0
  0
LINE
  5
7F3
330
1F
100
AcDbEntity
  8
0
100
AcDbLine
 10
162.8165712127383
 20
219.3904899313373
 30
0.0
 11
162.8165712127383
 21
217.9227069313375
 31
0.0
  0
LINE
  5
7F4
330
1F
100
AcDbEntity
  8
0
100
AcDbLine
 10
162.8165712127383
 20
217.9227069313375
 30
0.0
 11
164.7360062127381
 21
217.9227069313375
 31
0.0
  0
LINE
  5
7F5
330
1F
100
AcDbEntity
  8
0
100
AcDbLine
 10
166.7190032127382
 20
217.9578469313373
 30
0.0
 11
166.7190032127382
 21
219.4258019313374
 31
0.0
  0
LINE
  5
7F6
330
1F
100
AcDbEntity
  8
0
100
AcDbLine
 10
166.7190032127382
 20
218.3957189313375
 30
0.0
 11
166.7190032127382
 21
218.9884469313374
 31
0.0
  0
LINE
  5
7F7
330
1F
100
AcDbEntity
  8
0
100
AcDbLine
 10
166.7190032127382
 20
216.1160989313374
 30
0.0
 11
166.7190032127382
 21
217.5840539313373
 31
0.0
  0
LINE
  5
7F8
330
1F
100
AcDbEntity
  8
0
100
AcDbLine
 10
166.7190032127382
 20
216.5537979313376
 30
0.0
 11
166.7190032127382
 21
217.1465269313376
 31
0.0
  0
LINE
  5
7F9
330
1F
100
AcDbEntity
  8
0
100
AcDbLine
 10
166.7190032127382
 20
219.8001119313376
 30
0.0
 11
166.7190032127382
 21
221.2680669313372
 31
0.0
  0
LINE
  5
7FA
330
1F
100
AcDbEntity
  8
0
100
AcDbLine
 10
166.7190032127382
 20
220.2376389313375
 30
0.0
 11
166.7190032127382
 21
220.8301949313375
 31
0.0
  0
CIRCLE
  5
7FB
330
1F
100
AcDbEntity
  8
0
100
AcDbCircle
 10
167.4740822127382
 20
218.6568569313375
 30
0.0
 40
4.448566
  0
CIRCLE
  5
7FC
330
1F
100
AcDbEntity
  8
0
100
AcDbCircle
 10
167.4743402127383
 20
218.6568569313375
 30
0.0
 40
5.029838999999999
  0
CIRCLE
  5
7FD
330
1F
100
AcDbEntity
  8
0
100
AcDbCircle
 10
167.4743402127383
 20
218.6568569313375
 30
0.0
 40
5.029838999999999
  0
LINE
  5
7FE
330
1F
100
AcDbEntity
  8
0
100
AcDbLine
 10
166.3743402127384
 20
190.7331409313375
 30
0.0
 11
168.3743402127383
 21
190.7331409313375
 31
0.0
  0
LINE
  5
7FF
330
1F
100
AcDbEntity
  8
0
100
AcDbLine
 10
166.8743402127383
 20
190.2531399313372
 30
0.0
 11
173.8743402127384
 21
190.2531399313372
 31
0.0
  0
LINE
  5
800
330
1F
100
AcDbEntity
  8
0
100
AcDbLine
 10
160.5743402127373
 20
211.1331409313375
 30
0.0
 11
168.3743402127383
 21
211.1331409313375
 31
0.0
  0
LINE
  5
801
330
1F
100
AcDbEntity
  8
0
100
AcDbLine
 10
161.0743402127382
 20
211.6571279313375
 30
0.0
 11
173.8743402127384
 21
211.6571279313375
 31
0.0
  0
LINE
  5
802
330
1F
100
AcDbEntity
  8
0
100
AcDbLine
 10
173.8743402127384
 20
190.2531399313372
 30
0.0
 11
173.8743402127384
 21
185.2531399313372
 31
0.0
  0
LINE
  5
803
330
1F
100
AcDbEntity
  8
0
100
AcDbLine
 10
166.3743402127384
 20
185.0331409313375
 30
0.0
 11
166.3743402127384
 21
190.7331409313375
 31
0.0
  0
LINE
  5
804
330
1F
100
AcDbEntity
  8
0
100
AcDbLine
 10
166.8743402127383
 20
185.2531399313372
 30
0.0
 11
166.8743402127383
 21
190.2531399313372
 31
0.0
  0
LINE
  5
805
330
1F
100
AcDbEntity
  8
0
100
AcDbLine
 10
171.2600972127374
 20
189.2531399313372
 30
0.0
 11
171.2600972127374
 21
186.2531399313372
 31
0.0
  0
LINE
  5
806
330
1F
100
AcDbEntity
  8
0
100
AcDbLine
 10
169.2951752127382
 20
189.2531399313372
 30
0.0
 11
169.2951752127382
 21
186.2531399313372
 31
0.0
  0
LINE
  5
807
330
1F
100
AcDbEntity
  8
0
100
AcDbLine
 10
173.8743402127384
 20
211.6571279313375
 30
0.0
 11
173.8743402127384
 21
225.6571279313375
 31
0.0
  0
LINE
  5
808
330
1F
100
AcDbEntity
  8
0
100
AcDbLine
 10
160.5743402127373
 20
226.1331409313374
 30
0.0
 11
160.5743402127373
 21
211.1331409313375
 31
0.0
  0
LINE
  5
809
330
1F
100
AcDbEntity
  8
0
100
AcDbLine
 10
161.0743402127382
 20
225.6571279313375
 30
0.0
 11
161.0743402127382
 21
211.6571279313375
 31
0.0
  0
LINE
  5
80A
330
1F
100
AcDbEntity
  8
0
100
AcDbLine
 10
174.3743402127383
 20
231.8071279313376
 30
0.0
 11
174.3743402127383
 21
143.8331409313375
 31
0.0
  0
ARC
  5
80B
330
1F
100
AcDbEntity
  8
0
100
AcDbCircle
 10
154.4741312127384
 20
303.8290129313372
 30
0.0
 40
1.5
100
AcDbArc
 50
90.0
 51
180.0
  0
CIRCLE
  5
80C
330
1F
100
AcDbEntity
  8
0
100
AcDbCircle
 10
168.4743402127383
 20
300.5790129313373
 30
0.0
 40
2.5
  0
LINE
  5
80D
330
1F
100
AcDbEntity
  8
0
  6
CENTER
 62
     5
100
AcDbLine
 10
175.9743402127383
 20
300.5790129313373
 30
0.0
 11
160.9743402127373
 21
300.5790129313373
 31
0.0
  0
ARC
  5
80E
330
1F
100
AcDbEntity
  8
0
100
AcDbCircle
 10
182.4745492127371
 20
303.8290129313372
 30
0.0
 40
1.5
100
AcDbArc
 50
0.0
 51
90.0
  0
LINE
  5
80F
330
1F
100
AcDbEntity
  8
0
100
AcDbLine
 10
154.4741312127384
 20
305.3290129313373
 30
0.0
 11
182.4745492127371
 21
305.3290129313373
 31
0.0
  0
LINE
  5
810
330
1F
100
AcDbEntity
  8
0
100
AcDbLine
 10
153.9741312127384
 20
296.8292719313371
 30
0.0
 11
157.4746642127383
 21
296.8292719313371
 31
0.0
  0
ARC
  5
811
330
1F
100
AcDbEntity
  8
0
100
AcDbCircle
 10
154.9820582127381
 20
294.3179089313375
 30
0.0
 40
1.0
100
AcDbArc
 50
90.0
 51
180.0
  0
ARC
  5
812
330
1F
100
AcDbEntity
  8
0
100
AcDbCircle
 10
156.9743402127383
 20
291.8292719313372
 30
0.0
 40
1.0
100
AcDbArc
 50
90.0
 51
180.0
  0
ARC
  5
813
330
1F
100
AcDbEntity
  8
0
100
AcDbCircle
 10
157.0743402127382
 20
291.7331409313374
 30
0.0
 40
1.0
100
AcDbArc
 50
90.0
 51
180.0
  0
LINE
  5
814
330
1F
100
AcDbEntity
  8
0
100
AcDbLine
 10
158.1021712127385
 20
295.8954999313374
 30
0.0
 11
157.4746642127383
 21
296.8292719313371
 31
0.0
  0
LINE
  5
815
330
1F
100
AcDbEntity
  8
0
100
AcDbLine
 10
152.9741312127384
 20
295.8292719313368
 30
0.0
 11
152.9741312127384
 21
291.8049949313375
 31
0.0
  0
ARC
  5
816
330
1F
100
AcDbEntity
  8
0
100
AcDbCircle
 10
151.9892212127383
 20
290.8049949313374
 30
0.0
 40
1.0
100
AcDbArc
 50
90.0
 51
180.0
  0
LINE
  5
817
330
1F
100
AcDbEntity
  8
0
100
AcDbLine
 10
152.9741312127384
 20
291.8049949313375
 30
0.0
 11
153.9050582127383
 21
290.4542369313375
 31
0.0
  0
LINE
  5
818
330
1F
100
AcDbEntity
  8
0
100
AcDbLine
 10
152.9741312127384
 20
291.8049949313375
 30
0.0
 11
153.9050582127383
 21
290.4542369313375
 31
0.0
  0
LINE
  5
819
330
1F
100
AcDbEntity
  8
0
100
AcDbLine
 10
152.9046292127381
 20
290.4542369313375
 30
0.0
 11
153.9050582127383
 21
290.4542369313375
 31
0.0
  0
LINE
  5
81A
330
1F
100
AcDbEntity
  8
0
100
AcDbLine
 10
152.9046292127381
 20
290.4542369313375
 30
0.0
 11
153.9050582127383
 21
290.4542369313375
 31
0.0
  0
ARC
  5
81B
330
1F
100
AcDbEntity
  8
0
100
AcDbCircle
 10
152.9046292127381
 20
289.4542369313376
 30
0.0
 40
1.0
100
AcDbArc
 50
90.0
 51
180.0
  0
ARC
  5
81C
330
1F
100
AcDbEntity
  8
0
100
AcDbCircle
 10
152.9046292127381
 20
289.4542369313376
 30
0.0
 40
1.0
100
AcDbArc
 50
90.0
 51
180.0
  0
LINE
  5
81D
330
1F
100
AcDbEntity
  8
0
100
AcDbLine
 10
152.9741312127384
 20
291.8049949313375
 30
0.0
 11
151.9892212127383
 21
291.8049949313375
 31
0.0
  0
ARC
  5
81E
330
1F
100
AcDbEntity
  8
0
100
AcDbCircle
 10
153.9741312127384
 20
295.8292719313368
 30
0.0
 40
1.0
100
AcDbArc
 50
90.0
 51
180.0
  0
LINE
  5
81F
330
1F
100
AcDbEntity
  8
0
100
AcDbLine
 10
155.9743402127383
 20
291.8292719313372
 30
0.0
 11
155.9743402127383
 21
277.8881409313376
 31
0.0
  0
ARC
  5
820
330
1F
100
AcDbEntity
  8
0
100
AcDbCircle
 10
178.0165122127373
 20
296.4532679313374
 30
0.0
 40
1.0
100
AcDbArc
 50
270.1244089999682
 51
326.0984159999928
  0
ARC
  5
821
330
1F
100
AcDbEntity
  8
0
100
AcDbCircle
 10
168.4743402127405
 20
4691.038566931336
 30
0.0
 40
4395.595658
100
AcDbArc
 50
269.8755909999796
 51
270.1244089999682
  0
LINE
  5
822
330
1F
100
AcDbEntity
  8
0
100
AcDbLine
 10
158.1507412127384
 20
295.8292719313368
 30
0.0
 11
178.8020032127383
 21
295.8292719313368
 31
0.0
  0
ARC
  5
823
330
1F
100
AcDbEntity
  8
0
100
AcDbCircle
 10
158.9321682127392
 20
296.4532679313374
 30
0.0
 40
1.0
100
AcDbArc
 50
213.9015840000071
 51
269.8755909999796
  0
LINE
  5
824
330
1F
100
AcDbEntity
  8
0
100
AcDbLine
 10
153.9741312127384
 20
133.8292719313373
 30
0.0
 11
157.4746642127383
 21
133.8292719313373
 31
0.0
  0
ARC
  5
825
330
1F
100
AcDbEntity
  8
0
100
AcDbCircle
 10
154.9820582127381
 20
136.3523929313373
 30
0.0
 40
1.0
100
AcDbArc
 50
180.0
 51
270.0
  0
LINE
  5
826
330
1F
100
AcDbEntity
  8
0
100
AcDbLine
 10
158.1021712127385
 20
134.7630439313377
 30
0.0
 11
157.4746642127383
 21
133.8292719313373
 31
0.0
  0
ARC
  5
827
330
1F
100
AcDbEntity
  8
0
100
AcDbCircle
 10
153.9741312127384
 20
134.8292719313373
 30
0.0
 40
1.0
100
AcDbArc
 50
180.0
 51
270.0
  0
ARC
  5
828
330
1F
100
AcDbEntity
  8
0
100
AcDbCircle
 10
151.9892212127383
 20
139.8658469313375
 30
0.0
 40
1.0
100
AcDbArc
 50
180.0
 51
270.0
  0
LINE
  5
829
330
1F
100
AcDbEntity
  8
0
100
AcDbLine
 10
152.9741312127384
 20
138.8535489313372
 30
0.0
 11
153.9050582127383
 21
140.2043079313373
 31
0.0
  0
LINE
  5
82A
330
1F
100
AcDbEntity
  8
0
100
AcDbLine
 10
152.9741312127384
 20
138.8658469313375
 30
0.0
 11
151.9892212127383
 21
138.8658469313375
 31
0.0
  0
LINE
  5
82B
330
1F
100
AcDbEntity
  8
0
100
AcDbLine
 10
152.9741312127384
 20
134.8292719313373
 30
0.0
 11
152.9741312127384
 21
138.8658469313375
 31
0.0
  0
LINE
  5
82C
330
1F
100
AcDbEntity
  8
0
100
AcDbLine
 10
152.9046292127381
 20
140.2043079313373
 30
0.0
 11
153.9050582127383
 21
140.2043079313373
 31
0.0
  0
ARC
  5
82D
330
1F
100
AcDbEntity
  8
0
100
AcDbCircle
 10
152.9046292127381
 20
141.2043079313373
 30
0.0
 40
1.0
100
AcDbArc
 50
180.0
 51
270.0
  0
ARC
  5
82E
330
1F
100
AcDbEntity
  8
0
100
AcDbCircle
 10
178.0165122127373
 20
134.2052759313373
 30
0.0
 40
1.0
100
AcDbArc
 50
33.90158400000709
 51
89.87559099997964
  0
LINE
  5
82F
330
1F
100
AcDbEntity
  8
0
  6
CENTER
 62
     5
100
AcDbLine
 10
175.9743402127383
 20
130.0790069313372
 30
0.0
 11
160.9743402127373
 21
130.0790069313372
 31
0.0
  0
ARC
  5
830
330
1F
100
AcDbEntity
  8
0
100
AcDbCircle
 10
168.4743402127364
 20
-4260.380023068663
 30
0.0
 40
4395.595658
100
AcDbArc
 50
89.87559099997964
 51
90.12440900002031
  0
ARC
  5
831
330
1F
100
AcDbEntity
  8
0
100
AcDbCircle
 10
168.4743402127383
 20
130.0790069313372
 30
0.0
 40
2.5
100
AcDbArc
 50
0.0
 51
180.0
  0
LINE
  5
832
330
1F
100
AcDbEntity
  8
0
100
AcDbLine
 10
158.1507412127384
 20
134.8292719313373
 30
0.0
 11
178.8020032127383
 21
134.8292719313373
 31
0.0
  0
ARC
  5
833
330
1F
100
AcDbEntity
  8
0
100
AcDbCircle
 10
158.9321682127383
 20
134.2052759313373
 30
0.0
 40
1.0
100
AcDbArc
 50
90.12440900002031
 51
146.0984159999928
  0
ARC
  5
834
330
1F
100
AcDbEntity
  8
0
100
AcDbCircle
 10
154.4741312127384
 20
128.3290069313375
 30
0.0
 40
1.5
100
AcDbArc
 50
180.0
 51
270.0
  0
ARC
  5
835
330
1F
100
AcDbEntity
  8
0
100
AcDbCircle
 10
164.4743402127383
 20
128.3290069313375
 30
0.0
 40
1.5
100
AcDbArc
 50
270.0
 51
0.0
  0
ARC
  5
836
330
1F
100
AcDbEntity
  8
0
100
AcDbCircle
 10
172.4743402127383
 20
128.3290069313375
 30
0.0
 40
1.5
100
AcDbArc
 50
180.0
 51
270.0
  0
LINE
  5
837
330
1F
100
AcDbEntity
  8
0
100
AcDbLine
 10
154.4741312127384
 20
126.8290069313375
 30
0.0
 11
164.4743402127383
 21
126.8290069313375
 31
0.0
  0
LINE
  5
838
330
1F
100
AcDbEntity
  8
0
  6
CENTER
 62
     5
100
AcDbLine
 10
168.4743402127383
 20
137.5790069313372
 30
0.0
 11
168.4743402127383
 21
122.5790069313375
 31
0.0
  0
LINE
  5
839
330
1F
100
AcDbEntity
  8
0
100
AcDbLine
 10
170.9743402127382
 20
130.0790069313372
 30
0.0
 11
170.9743402127382
 21
128.3290069313375
 31
0.0
  0
LINE
  5
83A
330
1F
100
AcDbEntity
  8
0
100
AcDbLine
 10
165.9743402127382
 20
130.0790069313372
 30
0.0
 11
165.9743402127382
 21
128.3290069313375
 31
0.0
  0
LINE
  5
83B
330
1F
100
AcDbEntity
  8
0
100
AcDbLine
 10
152.9741312127384
 20
128.3290069313375
 30
0.0
 11
152.9741312127384
 21
134.8292719313373
 31
0.0
  0
LINE
  5
83C
330
1F
100
AcDbEntity
  8
0
100
AcDbLine
 10
153.9820582127381
 20
294.3179089313375
 30
0.0
 11
153.9820582127381
 21
136.3523929313373
 31
0.0
  0
LINE
  5
83D
330
1F
100
AcDbEntity
  8
0
100
AcDbLine
 10
150.9892212127383
 20
139.8658469313375
 30
0.0
 11
150.9892212127383
 21
290.8049949313374
 31
0.0
  0
LINE
  5
83E
330
1F
100
AcDbEntity
  8
0
100
AcDbLine
 10
155.9743402127383
 20
138.8292719313372
 30
0.0
 11
155.9743402127383
 21
291.8292719313372
 31
0.0
  0
LINE
  5
83F
330
1F
100
AcDbEntity
  8
0
100
AcDbLine
 10
151.9046292127372
 20
289.4542369313376
 30
0.0
 11
151.9046292127372
 21
141.2043079313373
 31
0.0
  0
LINE
  5
840
330
1F
100
AcDbEntity
  8
0
100
AcDbLine
 10
156.0743402127391
 20
244.5114458937823
 30
0.0
 11
156.0743402127391
 21
138.9331409313372
 31
0.0
  0
LINE
  5
841
330
1F
100
AcDbEntity
  8
0
100
AcDbLine
 10
179.4740152127383
 20
296.8292719313371
 30
0.0
 11
182.9745482127382
 21
296.8292719313371
 31
0.0
  0
ARC
  5
842
330
1F
100
AcDbEntity
  8
0
100
AcDbCircle
 10
179.9743402127383
 20
291.8292719313372
 30
0.0
 40
1.0
100
AcDbArc
 50
0.0
 51
90.0
  0
ARC
  5
843
330
1F
100
AcDbEntity
  8
0
100
AcDbCircle
 10
179.8743402127383
 20
291.7331409313374
 30
0.0
 40
1.0
100
AcDbArc
 50
0.0
 51
90.0
  0
LINE
  5
844
330
1F
100
AcDbEntity
  8
0
100
AcDbLine
 10
183.9745482127382
 20
295.8292719313368
 30
0.0
 11
183.9745482127382
 21
291.8049949313375
 31
0.0
  0
LINE
  5
845
330
1F
100
AcDbEntity
  8
0
100
AcDbLine
 10
183.9745492127372
 20
291.8049949313375
 30
0.0
 11
183.0436232127381
 21
290.4542369313375
 31
0.0
  0
LINE
  5
846
330
1F
100
AcDbEntity
  8
0
100
AcDbLine
 10
183.9745492127372
 20
291.8049949313375
 30
0.0
 11
183.0436232127381
 21
290.4542369313375
 31
0.0
  0
ARC
  5
847
330
1F
100
AcDbEntity
  8
0
100
AcDbCircle
 10
184.0440512127383
 20
289.4542369313376
 30
0.0
 40
1.0
100
AcDbArc
 50
0.0
 51
90.0
  0
ARC
  5
848
330
1F
100
AcDbEntity
  8
0
100
AcDbCircle
 10
184.0440512127383
 20
289.4542369313376
 30
0.0
 40
1.0
100
AcDbArc
 50
0.0
 51
90.0
  0
ARC
  5
849
330
1F
100
AcDbEntity
  8
0
100
AcDbCircle
 10
184.9593392127385
 20
290.8049949313374
 30
0.0
 40
1.0
100
AcDbArc
 50
0.0
 51
90.0
  0
LINE
  5
84A
330
1F
100
AcDbEntity
  8
0
100
AcDbLine
 10
183.9745492127372
 20
291.8049949313375
 30
0.0
 11
184.9593392127385
 21
291.8049949313375
 31
0.0
  0
LINE
  5
84B
330
1F
100
AcDbEntity
  8
0
100
AcDbLine
 10
184.0440512127383
 20
290.4542369313375
 30
0.0
 11
183.0436232127381
 21
290.4542369313375
 31
0.0
  0
LINE
  5
84C
330
1F
100
AcDbEntity
  8
0
100
AcDbLine
 10
184.0440512127383
 20
290.4542369313375
 30
0.0
 11
183.0436232127381
 21
290.4542369313375
 31
0.0
  0
ARC
  5
84D
330
1F
100
AcDbEntity
  8
0
100
AcDbCircle
 10
182.9745482127382
 20
295.8292719313368
 30
0.0
 40
1.0
100
AcDbArc
 50
0.0
 51
90.0
  0
ARC
  5
84E
330
1F
100
AcDbEntity
  8
0
100
AcDbCircle
 10
181.9666232127374
 20
294.3179089313375
 30
0.0
 40
1.0
100
AcDbArc
 50
0.0
 51
90.0
  0
LINE
  5
84F
330
1F
100
AcDbEntity
  8
0
100
AcDbLine
 10
179.4740152127374
 20
133.8292719313373
 30
0.0
 11
182.9745482127382
 21
133.8292719313373
 31
0.0
  0
ARC
  5
850
330
1F
100
AcDbEntity
  8
0
100
AcDbCircle
 10
182.9745482127382
 20
134.8292719313373
 30
0.0
 40
1.0
100
AcDbArc
 50
270.0
 51
0.0
  0
ARC
  5
851
330
1F
100
AcDbEntity
  8
0
100
AcDbCircle
 10
184.9593392127385
 20
139.8658469313372
 30
0.0
 40
1.0
100
AcDbArc
 50
270.0
 51
0.0
  0
LINE
  5
852
330
1F
100
AcDbEntity
  8
0
100
AcDbLine
 10
183.9745492127372
 20
138.8535489313372
 30
0.0
 11
183.0436232127381
 21
140.2043079313373
 31
0.0
  0
LINE
  5
853
330
1F
100
AcDbEntity
  8
0
100
AcDbLine
 10
183.9745482127382
 20
138.8658469313375
 30
0.0
 11
184.9593392127385
 21
138.8658469313375
 31
0.0
  0
ARC
  5
854
330
1F
100
AcDbEntity
  8
0
100
AcDbCircle
 10
181.9666232127374
 20
136.3523929313373
 30
0.0
 40
1.0
100
AcDbArc
 50
270.0
 51
0.0
  0
LINE
  5
855
330
1F
100
AcDbEntity
  8
0
100
AcDbLine
 10
183.9745482127382
 20
134.8292719313373
 30
0.0
 11
183.9745482127382
 21
138.8658469313375
 31
0.0
  0
LINE
  5
856
330
1F
100
AcDbEntity
  8
0
100
AcDbLine
 10
184.0440512127383
 20
140.2043079313373
 30
0.0
 11
183.0436232127381
 21
140.2043079313373
 31
0.0
  0
ARC
  5
857
330
1F
100
AcDbEntity
  8
0
100
AcDbCircle
 10
184.0440512127383
 20
141.2043079313368
 30
0.0
 40
1.0
100
AcDbArc
 50
270.0
 51
0.0
  0
ARC
  5
858
330
1F
100
AcDbEntity
  8
0
100
AcDbCircle
 10
182.4745492127371
 20
128.3290069313375
 30
0.0
 40
1.5
100
AcDbArc
 50
270.0
 51
0.0
  0
LINE
  5
859
330
1F
100
AcDbEntity
  8
0
100
AcDbLine
 10
183.9745492127372
 20
128.3290069313375
 30
0.0
 11
183.9745492127372
 21
138.8881399313372
 31
0.0
  0
LINE
  5
85A
330
1F
100
AcDbEntity
  8
0
100
AcDbLine
 10
180.9743402127383
 20
138.8292719313372
 30
0.0
 11
180.9743402127383
 21
291.8292719313372
 31
0.0
  0
LINE
  5
85B
330
1F
100
AcDbEntity
  8
0
100
AcDbLine
 10
185.0440512127383
 20
289.4542369313376
 30
0.0
 11
185.0440512127383
 21
141.2043079313373
 31
0.0
  0
LINE
  5
85C
330
1F
100
AcDbEntity
  8
0
100
AcDbLine
 10
185.9593392127385
 20
139.8658469313375
 30
0.0
 11
185.9593392127385
 21
290.8049949313374
 31
0.0
  0
LINE
  5
85D
330
1F
100
AcDbEntity
  8
0
100
AcDbLine
 10
180.8743402127383
 20
291.7331409313374
 30
0.0
 11
180.8743402127383
 21
138.8331409313375
 31
0.0
  0
LINE
  5
85E
330
1F
100
AcDbEntity
  8
0
100
AcDbLine
 10
182.9666232127383
 20
294.3179089313375
 30
0.0
 11
182.9666232127383
 21
136.3523929313373
 31
0.0
  0
LINE
  5
85F
330
1F
100
AcDbEntity
  8
0
100
AcDbLine
 10
154.9820582127381
 20
135.3523929313373
 30
0.0
 11
181.9666232127374
 21
135.3523929313373
 31
0.0
  0
LINE
  5
860
330
1F
100
AcDbEntity
  8
0
100
AcDbLine
 10
172.4743402127383
 20
126.8290069313375
 30
0.0
 11
182.4745492127371
 21
126.8290069313375
 31
0.0
  0
LINE
  5
861
330
1F
100
AcDbEntity
  8
0
100
AcDbLine
 10
178.8465092127385
 20
134.7630439313377
 30
0.0
 11
179.4740152127374
 21
133.8292719313373
 31
0.0
  0
LINE
  5
862
330
1F
100
AcDbEntity
  8
0
100
AcDbLine
 10
157.0743402127382
 20
292.7331409313373
 30
0.0
 11
179.8743402127383
 21
292.7331409313373
 31
0.0
  0
LINE
  5
863
330
1F
100
AcDbEntity
  8
0
100
AcDbLine
 10
156.9743402127383
 20
292.8292719313373
 30
0.0
 11
179.9743402127383
 21
292.8292719313373
 31
0.0
  0
LINE
  5
864
330
1F
100
AcDbEntity
  8
0
100
AcDbLine
 10
154.9820582127381
 20
295.3179089313374
 30
0.0
 11
181.9666232127374
 21
295.3179089313374
 31
0.0
  0
LINE
  5
865
330
1F
100
AcDbEntity
  8
0
100
AcDbLine
 10
178.8465092127385
 20
295.8954999313374
 30
0.0
 11
179.4740152127383
 21
296.8292719313371
 31
0.0
  0
LINE
  5
866
330
1F
100
AcDbEntity
  8
0
  6
CENTER
 62
     5
100
AcDbLine
 10
168.4743402127383
 20
308.0790129313372
 30
0.0
 11
168.4743402127383
 21
293.0790129313372
 31
0.0
  0
LINE
  5
867
330
1F
100
AcDbEntity
  8
0
100
AcDbLine
 10
183.9745492127372
 20
294.8881399313371
 30
0.0
 11
183.9745492127372
 21
303.8290129313372
 31
0.0
  0
LINE
  5
868
330
1F
100
AcDbEntity
  8
0
100
AcDbLine
 10
152.9741312127384
 20
295.8292719313368
 30
0.0
 11
152.9741312127384
 21
303.8290129313372
 31
0.0
  0
LINE
  5
869
330
1F
100
AcDbEntity
  8
0
100
AcDbLine
 10
173.8743402127384
 20
267.7700663697352
 30
0.0
 11
173.8743402127384
 21
271.3200663697349
 31
0.0
  0
LINE
  5
86A
330
1F
100
AcDbEntity
  8
0
100
AcDbLine
 10
174.3743402127383
 20
271.3200663697354
 30
0.0
 11
174.3743402127383
 21
251.3200663697352
 31
0.0
  0
LINE
  5
86B
330
1F
100
AcDbEntity
  8
外形
100
AcDbLine
 10
174.6742653962342
 20
271.3200663697354
 30
0.0
 11
174.6742653962342
 21
251.3200663697352
 31
0.0
  0
LINE
  5
86C
330
1F
100
AcDbEntity
  8
0
  6
CONTINUOUS
100
AcDbLine
 10
157.9843402127394
 20
271.3200663697341
 30
0.0
 11
157.9843402127394
 21
265.9400663697352
 31
0.0
  0
LINE
  5
86D
330
1F
100
AcDbEntity
  8
0
  6
CONTINUOUS
100
AcDbLine
 10
156.3843402127381
 20
271.3200663697341
 30
0.0
 11
156.3843402127381
 21
265.9400663697352
 31
0.0
  0
LINE
  5
86E
330
1F
100
AcDbEntity
  8
0
100
AcDbLine
 10
159.9149002127383
 20
255.0700663697353
 30
0.0
 11
164.3949002127383
 21
255.0700663697353
 31
0.0
  0
LINE
  5
86F
330
1F
100
AcDbEntity
  8
0
100
AcDbLine
 10
159.9149002127383
 20
267.5700663697357
 30
0.0
 11
164.3949002127383
 21
267.5700663697353
 31
0.0
  0
LINE
  5
870
330
1F
100
AcDbEntity
  8
0
  6
CONTINUOUS
100
AcDbLine
 10
164.3949002127383
 20
268.5700663697357
 30
0.0
 11
159.9149002127383
 21
268.5700663697355
 31
0.0
  0
LINE
  5
871
330
1F
100
AcDbEntity
  8
外形
100
AcDbLine
 10
156.0743402127404
 20
251.3200663697343
 30
0.0
 11
174.6742653962342
 21
251.3200663697352
 31
0.0
  0
LINE
  5
872
330
1F
100
AcDbEntity
  8
0
  6
CONTINUOUS
100
AcDbLine
 10
159.9149002127383
 20
254.0700663697354
 30
0.0
 11
164.3949002127383
 21
254.0700663697355
 31
0.0
  0
LINE
  5
873
330
1F
100
AcDbEntity
  8
0
  6
CONTINUOUS
100
AcDbLine
 10
159.5543402127382
 20
267.5700663697353
 30
0.0
 11
164.7554602127383
 21
267.5700663697353
 31
0.0
  0
LINE
  5
874
330
1F
100
AcDbEntity
  8
0
  6
CONTINUOUS
100
AcDbLine
 10
164.7554602127383
 20
255.0700663697353
 30
0.0
 11
159.5543402127382
 21
255.0700663697353
 31
0.0
  0
LINE
  5
875
330
1F
100
AcDbEntity
  8
0
100
AcDbLine
 10
159.5543402127382
 20
260.6806663697355
 30
0.0
 11
159.5543402127382
 21
255.4306663697354
 31
0.0
  0
LINE
  5
876
330
1F
100
AcDbEntity
  8
0
  6
CONTINUOUS
100
AcDbLine
 10
163.3943402127383
 20
266.2900663697354
 30
0.0
 11
163.3943402127383
 21
256.3500663697353
 31
0.0
  0
LINE
  5
877
330
1F
100
AcDbEntity
  8
0
  6
CONTINUOUS
100
AcDbLine
 10
158.5543402127382
 20
260.6806663697355
 30
0.0
 11
158.5543402127382
 21
255.4306663697354
 31
0.0
  0
LINE
  5
878
330
1F
100
AcDbEntity
  8
0
  6
CONTINUOUS
100
AcDbLine
 10
156.3843402127381
 20
265.9400663697352
 30
0.0
 11
156.3843402127381
 21
256.7000663697355
 31
0.0
  0
LINE
  5
879
330
1F
100
AcDbEntity
  8
0
  6
CONTINUOUS
100
AcDbLine
 10
162.1143402127372
 20
266.2900663697354
 30
0.0
 11
162.1143402127372
 21
256.3500663697353
 31
0.0
  0
LINE
  5
87A
330
1F
100
AcDbEntity
  8
0
  6
CONTINUOUS
100
AcDbLine
 10
157.9843402127394
 20
265.9400663697352
 30
0.0
 11
157.9843402127394
 21
256.7000663697355
 31
0.0
  0
LINE
  5
87B
330
1F
100
AcDbEntity
  8
0
  6
CONTINUOUS
100
AcDbLine
 10
157.9843402127394
 20
255.0700663697353
 30
0.0
 11
157.9843402127394
 21
267.5700663697353
 31
0.0
  0
LINE
  5
87C
330
1F
100
AcDbEntity
  8
0
  6
CONTINUOUS
100
AcDbLine
 10
159.5543402127382
 20
255.0700663697353
 30
0.0
 11
159.5543402127382
 21
267.5700663697353
 31
0.0
  0
LINE
  5
87D
330
1F
100
AcDbEntity
  8
0
  6
CONTINUOUS
100
AcDbLine
 10
156.3843402127381
 20
253.6000663697349
 30
0.0
 11
156.0743402127382
 21
253.7449606832669
 31
0.0
  0
LINE
  5
87E
330
1F
100
AcDbEntity
  8
0
  6
CONTINUOUS
100
AcDbLine
 10
157.9843402127394
 20
256.7000663697355
 30
0.0
 11
157.9843402127394
 21
251.3200663697343
 31
0.0
  0
LINE
  5
87F
330
1F
100
AcDbEntity
  8
0
  6
CONTINUOUS
100
AcDbLine
 10
157.9843402127394
 20
255.9000663697354
 30
0.0
 11
157.9843402127394
 21
253.6000663697349
 31
0.0
  0
LINE
  5
880
330
1F
100
AcDbEntity
  8
0
  6
CONTINUOUS
100
AcDbLine
 10
156.3843402127381
 20
256.7000663697355
 30
0.0
 11
156.3843402127381
 21
251.3200663697343
 31
0.0
  0
LINE
  5
881
330
1F
100
AcDbEntity
  8
0
  6
CONTINUOUS
100
AcDbLine
 10
156.3843402127381
 20
255.9000663697354
 30
0.0
 11
156.3843402127381
 21
253.6000663697349
 31
0.0
  0
ARC
  5
882
330
1F
100
AcDbEntity
  8
0
100
AcDbCircle
 10
159.3543402127384
 20
254.8700663697355
 30
0.0
 40
0.5
100
AcDbArc
 50
180.0
 51
270.0
  0
ARC
  5
883
330
1F
100
AcDbEntity
  8
0
  6
CONTINUOUS
100
AcDbCircle
 10
159.3543402127384
 20
254.8700663697353
 30
0.0
 40
0.2
100
AcDbArc
 50
180.0
 51
270.0
  0
LINE
  5
884
330
1F
100
AcDbEntity
  8
0
  6
CONTINUOUS
100
AcDbLine
 10
159.154340212739
 20
255.4306663697354
 30
0.0
 11
159.154340212739
 21
254.8700663697353
 31
0.0
  0
LINE
  5
885
330
1F
100
AcDbEntity
  8
0
100
AcDbLine
 10
158.8543402127384
 20
254.8700663697355
 30
0.0
 11
158.8543402127384
 21
255.4306663697354
 31
0.0
  0
LINE
  5
886
330
1F
100
AcDbEntity
  8
0
100
AcDbLine
 10
159.3543402127384
 20
254.3700663697356
 30
0.0
 11
159.9149002127383
 21
254.3700663697356
 31
0.0
  0
LINE
  5
887
330
1F
100
AcDbEntity
  8
0
100
AcDbLine
 10
159.5543402127382
 20
255.4306663697354
 30
0.0
 11
158.5543402127382
 21
255.4306663697354
 31
0.0
  0
LINE
  5
888
330
1F
100
AcDbEntity
  8
0
100
AcDbLine
 10
159.9149002127383
 20
255.0700663697353
 30
0.0
 11
159.9149002127383
 21
254.0700663697354
 31
0.0
  0
LINE
  5
889
330
1F
100
AcDbEntity
  8
0
  6
CONTINUOUS
100
AcDbLine
 10
157.9843402127394
 20
254.0988517948367
 30
0.0
 11
159.0922825427323
 21
254.4442427236203
 31
0.0
  0
LINE
  5
88A
330
1F
100
AcDbEntity
  8
0
  6
CONTINUOUS
100
AcDbLine
 10
156.0743402127382
 20
254.5000663697355
 30
0.0
 11
156.3843402127381
 21
254.5000663697355
 31
0.0
  0
LINE
  5
88B
330
1F
100
AcDbEntity
  8
0
  6
CONTINUOUS
100
AcDbLine
 10
156.0743402127382
 20
255.0000663697356
 30
0.0
 11
156.3843402127381
 21
255.0000663697356
 31
0.0
  0
LINE
  5
88C
330
1F
100
AcDbEntity
  8
0
  6
CONTINUOUS
100
AcDbLine
 10
156.0743402127382
 20
257.5700663697353
 30
0.0
 11
156.3843402127381
 21
257.5700663697353
 31
0.0
  0
LINE
  5
88D
330
1F
100
AcDbEntity
  8
0
  6
CONTINUOUS
100
AcDbLine
 10
156.0743402127382
 20
258.0700663697354
 30
0.0
 11
156.3843402127381
 21
258.0700663697354
 31
0.0
  0
LINE
  5
88E
330
1F
100
AcDbEntity
  8
0
  6
CONTINUOUS
100
AcDbLine
 10
157.9843402127394
 20
258.2800663697354
 30
0.0
 11
157.9843402127394
 21
257.3600663697353
 31
0.0
  0
LINE
  5
88F
330
1F
100
AcDbEntity
  8
0
  6
CONTINUOUS
100
AcDbLine
 10
158.5543402127382
 20
256.8600663697353
 30
0.0
 11
157.9843402127394
 21
256.8600663697353
 31
0.0
  0
LINE
  5
890
330
1F
100
AcDbEntity
  8
0
  6
CONTINUOUS
100
AcDbLine
 10
159.3543402127384
 20
254.6700663697354
 30
0.0
 11
159.9149002127383
 21
254.6700663697354
 31
0.0
  0
LINE
  5
891
330
1F
100
AcDbEntity
  8
0
100
AcDbLine
 10
162.1143402127372
 20
256.3500663697353
 30
0.0
 11
163.3943402127383
 21
256.3500663697353
 31
0.0
  0
LINE
  5
892
330
1F
100
AcDbEntity
  8
0
  6
CONTINUOUS
100
AcDbLine
 10
161.7143402127385
 20
257.3600663697353
 30
0.0
 11
162.1143402127372
 21
257.3600663697353
 31
0.0
  0
LINE
  5
893
330
1F
100
AcDbEntity
  8
0
  6
CONTINUOUS
100
AcDbLine
 10
161.7143402127385
 20
258.2800663697354
 30
0.0
 11
162.1143402127372
 21
258.2800663697354
 31
0.0
  0
LINE
  5
894
330
1F
100
AcDbEntity
  8
0
  6
CONTINUOUS
100
AcDbLine
 10
161.7143402127385
 20
258.2800663697354
 30
0.0
 11
161.7143402127385
 21
257.3600663697353
 31
0.0
  0
LINE
  5
895
330
1F
100
AcDbEntity
  8
0
100
AcDbLine
 10
159.5543402127382
 20
267.2094663697354
 30
0.0
 11
159.5543402127382
 21
261.9594663697354
 31
0.0
  0
LINE
  5
896
330
1F
100
AcDbEntity
  8
0
  6
CONTINUOUS
100
AcDbLine
 10
157.9843402127394
 20
265.2800663697354
 30
0.0
 11
157.9843402127394
 21
264.3600663697353
 31
0.0
  0
LINE
  5
897
330
1F
100
AcDbEntity
  8
0
  6
CONTINUOUS
100
AcDbLine
 10
161.7143402127385
 20
265.2800663697354
 30
0.0
 11
161.7143402127385
 21
264.3600663697353
 31
0.0
  0
LINE
  5
898
330
1F
100
AcDbEntity
  8
0
  6
CONTINUOUS
100
AcDbLine
 10
158.5543402127382
 20
267.2094663697354
 30
0.0
 11
158.5543402127382
 21
261.9594663697354
 31
0.0
  0
LINE
  5
899
330
1F
100
AcDbEntity
  8
0
  6
CONTINUOUS
100
AcDbLine
 10
159.154340212739
 20
261.9594663697354
 30
0.0
 11
159.154340212739
 21
260.6806663697355
 31
0.0
  0
LINE
  5
89A
330
1F
100
AcDbEntity
  8
0
100
AcDbLine
 10
159.154340212739
 20
261.9594663697354
 30
0.0
 11
159.5543402127382
 21
261.9594663697354
 31
0.0
  0
LINE
  5
89B
330
1F
100
AcDbEntity
  8
0
100
AcDbLine
 10
159.154340212739
 20
260.6806663697355
 30
0.0
 11
159.5543402127382
 21
260.6806663697355
 31
0.0
  0
LINE
  5
89C
330
1F
100
AcDbEntity
  8
0
  6
CONTINUOUS
100
AcDbLine
 10
156.0743402127382
 20
260.0700663697354
 30
0.0
 11
156.3843402127381
 21
260.0700663697354
 31
0.0
  0
LINE
  5
89D
330
1F
100
AcDbEntity
  8
0
  6
CONTINUOUS
100
AcDbLine
 10
156.0743402127382
 20
260.5700663697354
 30
0.0
 11
156.3843402127381
 21
260.5700663697354
 31
0.0
  0
LINE
  5
89E
330
1F
100
AcDbEntity
  8
0
  6
CONTINUOUS
100
AcDbLine
 10
156.0743402127382
 20
262.0700663697354
 30
0.0
 11
156.3843402127381
 21
262.0700663697354
 31
0.0
  0
LINE
  5
89F
330
1F
100
AcDbEntity
  8
0
  6
CONTINUOUS
100
AcDbLine
 10
156.0743402127382
 20
262.5700663697354
 30
0.0
 11
156.3843402127381
 21
262.5700663697354
 31
0.0
  0
LINE
  5
8A0
330
1F
100
AcDbEntity
  8
0
  6
CONTINUOUS
100
AcDbLine
 10
156.0743402127382
 20
264.5700663697354
 30
0.0
 11
156.3843402127381
 21
264.5700663697354
 31
0.0
  0
LINE
  5
8A1
330
1F
100
AcDbEntity
  8
0
  6
CONTINUOUS
100
AcDbLine
 10
156.0743402127382
 20
265.0700663697355
 30
0.0
 11
156.3843402127381
 21
265.0700663697355
 31
0.0
  0
LINE
  5
8A2
330
1F
100
AcDbEntity
  8
0
  6
CONTINUOUS
100
AcDbLine
 10
158.8543402127384
 20
260.6806663697355
 30
0.0
 11
158.8543402127384
 21
261.9594663697354
 31
0.0
  0
LINE
  5
8A3
330
1F
100
AcDbEntity
  8
0
100
AcDbLine
 10
158.5543402127382
 20
260.6806663697355
 30
0.0
 11
159.154340212739
 21
260.6806663697355
 31
0.0
  0
LINE
  5
8A4
330
1F
100
AcDbEntity
  8
0
100
AcDbLine
 10
158.5543402127382
 20
261.9594663697354
 30
0.0
 11
159.154340212739
 21
261.9594663697354
 31
0.0
  0
LINE
  5
8A5
330
1F
100
AcDbEntity
  8
0
  6
CONTINUOUS
100
AcDbLine
 10
157.9843402127394
 20
260.7800663697354
 30
0.0
 11
157.9843402127394
 21
259.8600663697353
 31
0.0
  0
LINE
  5
8A6
330
1F
100
AcDbEntity
  8
0
  6
CONTINUOUS
100
AcDbLine
 10
157.9843402127394
 20
262.7800663697354
 30
0.0
 11
157.9843402127394
 21
261.8600663697353
 31
0.0
  0
LINE
  5
8A7
330
1F
100
AcDbEntity
  8
0
  6
CONTINUOUS
100
AcDbLine
 10
161.7143402127385
 20
259.8600663697353
 30
0.0
 11
162.1143402127372
 21
259.8600663697353
 31
0.0
  0
LINE
  5
8A8
330
1F
100
AcDbEntity
  8
0
  6
CONTINUOUS
100
AcDbLine
 10
161.7143402127385
 20
260.7800663697354
 30
0.0
 11
162.1143402127372
 21
260.7800663697354
 31
0.0
  0
LINE
  5
8A9
330
1F
100
AcDbEntity
  8
0
  6
CONTINUOUS
100
AcDbLine
 10
161.7143402127385
 20
261.8600663697353
 30
0.0
 11
162.1143402127372
 21
261.8600663697353
 31
0.0
  0
LINE
  5
8AA
330
1F
100
AcDbEntity
  8
0
  6
CONTINUOUS
100
AcDbLine
 10
161.7143402127385
 20
262.7800663697354
 30
0.0
 11
162.1143402127372
 21
262.7800663697354
 31
0.0
  0
LINE
  5
8AB
330
1F
100
AcDbEntity
  8
0
  6
CONTINUOUS
100
AcDbLine
 10
161.7143402127385
 20
264.3600663697353
 30
0.0
 11
162.1143402127372
 21
264.3600663697353
 31
0.0
  0
LINE
  5
8AC
330
1F
100
AcDbEntity
  8
0
  6
CONTINUOUS
100
AcDbLine
 10
161.7143402127385
 20
260.7800663697354
 30
0.0
 11
161.7143402127385
 21
259.8600663697353
 31
0.0
  0
LINE
  5
8AD
330
1F
100
AcDbEntity
  8
0
  6
CONTINUOUS
100
AcDbLine
 10
161.7143402127385
 20
262.7800663697354
 30
0.0
 11
161.7143402127385
 21
261.8600663697353
 31
0.0
  0
ARC
  5
8AE
330
1F
100
AcDbEntity
  8
0
100
AcDbCircle
 10
159.3543402127384
 20
267.7700663697352
 30
0.0
 40
0.5
100
AcDbArc
 50
90.0
 51
180.0
  0
ARC
  5
8AF
330
1F
100
AcDbEntity
  8
0
  6
CONTINUOUS
100
AcDbCircle
 10
159.3543402127384
 20
267.7700663697351
 30
0.0
 40
0.2
100
AcDbArc
 50
89.99999999997395
 51
180.0
  0
LINE
  5
8B0
330
1F
100
AcDbEntity
  8
0
  6
CONTINUOUS
100
AcDbLine
 10
159.9149002127383
 20
267.9700663697349
 30
0.0
 11
159.3543402127384
 21
267.9700663697349
 31
0.0
  0
LINE
  5
8B1
330
1F
100
AcDbEntity
  8
0
100
AcDbLine
 10
159.3543402127384
 20
268.270066369735
 30
0.0
 11
159.9149002127383
 21
268.270066369735
 31
0.0
  0
LINE
  5
8B2
330
1F
100
AcDbEntity
  8
0
100
AcDbLine
 10
158.8543402127384
 20
267.7700663697352
 30
0.0
 11
158.8543402127384
 21
267.2094663697354
 31
0.0
  0
LINE
  5
8B3
330
1F
100
AcDbEntity
  8
0
100
AcDbLine
 10
159.5543402127382
 20
267.2094663697354
 30
0.0
 11
158.5543402127382
 21
267.2094663697354
 31
0.0
  0
LINE
  5
8B4
330
1F
100
AcDbEntity
  8
0
100
AcDbLine
 10
159.9149002127383
 20
267.5700663697357
 30
0.0
 11
159.9149002127383
 21
268.5700663697355
 31
0.0
  0
LINE
  5
8B5
330
1F
100
AcDbEntity
  8
0
  6
CONTINUOUS
100
AcDbLine
 10
156.0743402127382
 20
267.6400663697348
 30
0.0
 11
156.3843402127381
 21
267.6400663697348
 31
0.0
  0
LINE
  5
8B6
330
1F
100
AcDbEntity
  8
0
  6
CONTINUOUS
100
AcDbLine
 10
156.0743402127382
 20
268.1400663697351
 30
0.0
 11
156.3843402127381
 21
268.1400663697351
 31
0.0
  0
LINE
  5
8B7
330
1F
100
AcDbEntity
  8
0
  6
CONTINUOUS
100
AcDbLine
 10
157.9843402127394
 20
268.5412809446341
 30
0.0
 11
159.0922825427323
 21
268.1958900158505
 31
0.0
  0
LINE
  5
8B8
330
1F
100
AcDbEntity
  8
0
  6
CONTINUOUS
100
AcDbLine
 10
156.3843402127381
 20
269.0400663697356
 30
0.0
 11
156.0743402127382
 21
268.8951720562036
 31
0.0
  0
LINE
  5
8B9
330
1F
100
AcDbEntity
  8
0
  6
CONTINUOUS
100
AcDbLine
 10
158.5543402127382
 20
265.7800663697354
 30
0.0
 11
157.9843402127394
 21
265.7800663697354
 31
0.0
  0
LINE
  5
8BA
330
1F
100
AcDbEntity
  8
0
  6
CONTINUOUS
100
AcDbLine
 10
157.9843402127394
 20
269.0400663697356
 30
0.0
 11
157.9843402127394
 21
266.7400663697355
 31
0.0
  0
LINE
  5
8BB
330
1F
100
AcDbEntity
  8
0
  6
CONTINUOUS
100
AcDbLine
 10
156.3843402127381
 20
269.0400663697356
 30
0.0
 11
156.3843402127381
 21
266.7400663697355
 31
0.0
  0
LINE
  5
8BC
330
1F
100
AcDbEntity
  8
0
  6
CONTINUOUS
100
AcDbLine
 10
159.154340212739
 20
267.7700663697351
 30
0.0
 11
159.154340212739
 21
267.2094663697354
 31
0.0
  0
LINE
  5
8BD
330
1F
100
AcDbEntity
  8
0
100
AcDbLine
 10
162.1143402127372
 20
266.2900663697354
 30
0.0
 11
163.3943402127383
 21
266.2900663697354
 31
0.0
  0
LINE
  5
8BE
330
1F
100
AcDbEntity
  8
0
  6
CONTINUOUS
100
AcDbLine
 10
162.1143402127372
 20
265.2800663697354
 30
0.0
 11
161.7143402127385
 21
265.2800663697354
 31
0.0
  0
LINE
  5
8BF
330
1F
100
AcDbEntity
  8
0
100
AcDbLine
 10
173.1743402127372
 20
260.6806663697355
 30
0.0
 11
173.1743402127372
 21
255.4306663697354
 31
0.0
  0
LINE
  5
8C0
330
1F
100
AcDbEntity
  8
0
  6
CONTINUOUS
100
AcDbLine
 10
171.8943402127383
 20
266.2900663697354
 30
0.0
 11
171.8943402127383
 21
256.3500663697353
 31
0.0
  0
LINE
  5
8C1
330
1F
100
AcDbEntity
  8
0
  6
CONTINUOUS
100
AcDbLine
 10
174.1743402127372
 20
260.6806663697355
 30
0.0
 11
174.1743402127372
 21
255.4306663697354
 31
0.0
  0
LINE
  5
8C2
330
1F
100
AcDbEntity
  8
0
  6
CONTINUOUS
100
AcDbLine
 10
170.6143402127372
 20
266.2900663697354
 30
0.0
 11
170.6143402127372
 21
256.3500663697353
 31
0.0
  0
LINE
  5
8C3
330
1F
100
AcDbEntity
  8
0
  6
CONTINUOUS
100
AcDbLine
 10
164.6743402127381
 20
267.5700663697353
 30
0.0
 11
164.6743402127381
 21
255.0700663697353
 31
0.0
  0
LINE
  5
8C4
330
1F
100
AcDbEntity
  8
0
  6
CONTINUOUS
100
AcDbLine
 10
168.0543402127382
 20
255.0700663697353
 30
0.0
 11
168.0543402127382
 21
267.5700663697353
 31
0.0
  0
LINE
  5
8C5
330
1F
100
AcDbEntity
  8
0
  6
CONTINUOUS
100
AcDbLine
 10
173.1743402127372
 20
267.5700663697353
 30
0.0
 11
173.1743402127372
 21
255.0700663697353
 31
0.0
  0
LINE
  5
8C6
330
1F
100
AcDbEntity
  8
0
  6
CONTINUOUS
100
AcDbLine
 10
172.8137802127385
 20
254.6700663697354
 30
0.0
 11
173.3743402127383
 21
254.6700663697354
 31
0.0
  0
LINE
  5
8C7
330
1F
100
AcDbEntity
  8
0
100
AcDbLine
 10
173.3743402127383
 20
254.3700663697353
 30
0.0
 11
172.8137802127385
 21
254.3700663697353
 31
0.0
  0
LINE
  5
8C8
330
1F
100
AcDbEntity
  8
0
  6
CONTINUOUS
100
AcDbLine
 10
173.1743402127372
 20
255.0700663697353
 30
0.0
 11
167.9732202127393
 21
255.0700663697353
 31
0.0
  0
LINE
  5
8C9
330
1F
100
AcDbEntity
  8
0
100
AcDbLine
 10
168.3337802127384
 20
255.0700663697353
 30
0.0
 11
172.8137802127385
 21
255.0700663697353
 31
0.0
  0
LINE
  5
8CA
330
1F
100
AcDbEntity
  8
0
  6
CONTINUOUS
100
AcDbLine
 10
168.3337802127384
 20
254.0700663697355
 30
0.0
 11
172.8137802127385
 21
254.0700663697354
 31
0.0
  0
ARC
  5
8CB
330
1F
100
AcDbEntity
  8
0
100
AcDbCircle
 10
165.6724428529373
 20
257.6950663697354
 30
0.0
 40
0.2
100
AcDbArc
 50
90.0
 51
164.8690659402162
  0
ARC
  5
8CC
330
1F
100
AcDbEntity
  8
0
100
AcDbCircle
 10
167.0562375725385
 20
257.6950663697354
 30
0.0
 40
0.2
100
AcDbArc
 50
15.13093405978374
 51
90.0
  0
ARC
  5
8CD
330
1F
100
AcDbEntity
  8
0
100
AcDbCircle
 10
167.0562375725394
 20
257.2950663697354
 30
0.0
 40
0.2
100
AcDbArc
 50
15.13093405978374
 51
90.0
  0
ARC
  5
8CE
330
1F
100
AcDbEntity
  8
0
100
AcDbCircle
 10
165.6724428529373
 20
257.2950663697354
 30
0.0
 40
0.2
100
AcDbArc
 50
90.0
 51
164.8690659402162
  0
LINE
  5
8CF
330
1F
100
AcDbEntity
  8
0
  6
CONTINUOUS
100
AcDbLine
 10
167.9732202127383
 20
254.6700663697354
 30
0.0
 11
168.3337802127384
 21
254.6700663697354
 31
0.0
  0
LINE
  5
8D0
330
1F
100
AcDbEntity
  8
0
100
AcDbLine
 10
166.3643402127381
 20
257.4950663697353
 30
0.0
 11
165.6724428529373
 21
257.4950663697353
 31
0.0
  0
LINE
  5
8D1
330
1F
100
AcDbEntity
  8
0
100
AcDbLine
 10
166.3643402127381
 20
257.4950663697353
 30
0.0
 11
167.0562375725394
 21
257.4950663697353
 31
0.0
  0
LINE
  5
8D2
330
1F
100
AcDbEntity
  8
0
100
AcDbLine
 10
168.0543402127382
 20
254.3700663697353
 30
0.0
 11
167.2493039412342
 21
257.3472715158303
 31
0.0
  0
LINE
  5
8D3
330
1F
100
AcDbEntity
  8
0
100
AcDbLine
 10
164.6743402127381
 20
254.3700663697353
 30
0.0
 11
165.4793764842411
 21
257.3472715158303
 31
0.0
  0
LINE
  5
8D4
330
1F
100
AcDbEntity
  8
0
100
AcDbLine
 10
166.3643402127381
 20
257.8950663697354
 30
0.0
 11
165.6724428529373
 21
257.8950663697354
 31
0.0
  0
LINE
  5
8D5
330
1F
100
AcDbEntity
  8
0
100
AcDbLine
 10
166.3643402127381
 20
257.8950663697354
 30
0.0
 11
167.0562375725385
 21
257.8950663697354
 31
0.0
  0
LINE
  5
8D6
330
1F
100
AcDbEntity
  8
0
100
AcDbLine
 10
167.9732202127393
 20
255.0700663697353
 30
0.0
 11
167.2493039412342
 21
257.7472715158307
 31
0.0
  0
LINE
  5
8D7
330
1F
100
AcDbEntity
  8
0
100
AcDbLine
 10
164.7554602127383
 20
255.0700663697353
 30
0.0
 11
165.4793764842411
 21
257.7472715158307
 31
0.0
  0
LINE
  5
8D8
330
1F
100
AcDbEntity
  8
0
  6
CONTINUOUS
100
AcDbLine
 10
164.3949002127383
 20
254.6700663697354
 30
0.0
 11
164.7554602127383
 21
254.6700663697354
 31
0.0
  0
LINE
  5
8D9
330
1F
100
AcDbEntity
  8
0
  6
CONTINUOUS
100
AcDbLine
 10
168.3337802127384
 20
254.3700663697353
 30
0.0
 11
164.3949002127383
 21
254.3700663697356
 31
0.0
  0
LINE
  5
8DA
330
1F
100
AcDbEntity
  8
0
100
AcDbLine
 10
168.3337802127384
 20
255.0700663697353
 30
0.0
 11
168.3337802127384
 21
254.0700663697355
 31
0.0
  0
LINE
  5
8DB
330
1F
100
AcDbEntity
  8
0
100
AcDbLine
 10
164.3949002127383
 20
255.0700663697353
 30
0.0
 11
164.3949002127383
 21
254.0700663697354
 31
0.0
  0
LINE
  5
8DC
330
1F
100
AcDbEntity
  8
0
100
AcDbLine
 10
172.8137802127385
 20
255.0700663697353
 30
0.0
 11
172.8137802127385
 21
254.0700663697354
 31
0.0
  0
LINE
  5
8DD
330
1F
100
AcDbEntity
  8
0
100
AcDbLine
 10
170.6143402127372
 20
256.3500663697353
 30
0.0
 11
171.8943402127383
 21
256.3500663697353
 31
0.0
  0
LINE
  5
8DE
330
1F
100
AcDbEntity
  8
0
  6
CONTINUOUS
100
AcDbLine
 10
170.1143402127381
 20
257.3600663697353
 30
0.0
 11
170.6143402127372
 21
257.3600663697353
 31
0.0
  0
LINE
  5
8DF
330
1F
100
AcDbEntity
  8
0
  6
CONTINUOUS
100
AcDbLine
 10
170.1143402127381
 20
258.2800663697354
 30
0.0
 11
170.6143402127372
 21
258.2800663697354
 31
0.0
  0
LINE
  5
8E0
330
1F
100
AcDbEntity
  8
0
  6
CONTINUOUS
100
AcDbLine
 10
170.1143402127381
 20
258.2800663697354
 30
0.0
 11
170.1143402127381
 21
257.3600663697353
 31
0.0
  0
LINE
  5
8E1
330
1F
100
AcDbEntity
  8
0
100
AcDbLine
 10
173.8743402127384
 20
251.3200663697349
 30
0.0
 11
173.8743402127384
 21
254.8700663697355
 31
0.0
  0
ARC
  5
8E2
330
1F
100
AcDbEntity
  8
0
100
AcDbCircle
 10
173.3743402127383
 20
254.8700663697355
 30
0.0
 40
0.5
100
AcDbArc
 50
270.0
 51
0.0
  0
ARC
  5
8E3
330
1F
100
AcDbEntity
  8
0
  6
CONTINUOUS
100
AcDbCircle
 10
173.3743402127383
 20
254.8700663697353
 30
0.0
 40
0.2
100
AcDbArc
 50
270.0
 51
0.0000000000195413
  0
LINE
  5
8E4
330
1F
100
AcDbEntity
  8
0
  6
CONTINUOUS
100
AcDbLine
 10
173.5743402127382
 20
255.4306663697354
 30
0.0
 11
173.5743402127382
 21
254.8700663697353
 31
0.0
  0
LINE
  5
8E5
330
1F
100
AcDbEntity
  8
0
100
AcDbLine
 10
173.8743402127384
 20
254.8700663697355
 30
0.0
 11
173.8743402127384
 21
255.4306663697354
 31
0.0
  0
LINE
  5
8E6
330
1F
100
AcDbEntity
  8
0
100
AcDbLine
 10
173.1743402127372
 20
255.4306663697354
 30
0.0
 11
174.1743402127372
 21
255.4306663697354
 31
0.0
  0
LINE
  5
8E7
330
1F
100
AcDbEntity
  8
0
100
AcDbLine
 10
173.3743402127383
 20
268.270066369735
 30
0.0
 11
172.8137802127385
 21
268.270066369735
 31
0.0
  0
LINE
  5
8E8
330
1F
100
AcDbEntity
  8
0
  6
CONTINUOUS
100
AcDbLine
 10
173.3743402127383
 20
267.9700663697349
 30
0.0
 11
172.8137802127385
 21
267.9700663697349
 31
0.0
  0
LINE
  5
8E9
330
1F
100
AcDbEntity
  8
0
  6
CONTINUOUS
100
AcDbLine
 10
167.9732202127383
 20
267.5700663697353
 30
0.0
 11
173.1743402127372
 21
267.5700663697353
 31
0.0
  0
ARC
  5
8EA
330
1F
100
AcDbEntity
  8
0
100
AcDbCircle
 10
165.6724428529373
 20
265.3450663697352
 30
0.0
 40
0.2
100
AcDbArc
 50
195.1309340597837
 51
270.0
  0
ARC
  5
8EB
330
1F
100
AcDbEntity
  8
0
100
AcDbCircle
 10
167.0562375725394
 20
265.3450663697352
 30
0.0
 40
0.2
100
AcDbArc
 50
270.0
 51
344.8690659402162
  0
LINE
  5
8EC
330
1F
100
AcDbEntity
  8
0
100
AcDbLine
 10
165.4793764842411
 20
264.8928612236404
 30
0.0
 11
164.7554602127383
 21
267.5700663697353
 31
0.0
  0
LINE
  5
8ED
330
1F
100
AcDbEntity
  8
0
100
AcDbLine
 10
167.2493039412342
 20
264.8928612236404
 30
0.0
 11
167.9732202127383
 21
267.5700663697353
 31
0.0
  0
LINE
  5
8EE
330
1F
100
AcDbEntity
  8
0
  6
CONTINUOUS
100
AcDbLine
 10
170.1143402127381
 20
265.2800663697354
 30
0.0
 11
170.1143402127381
 21
264.3600663697353
 31
0.0
  0
ARC
  5
8EF
330
1F
100
AcDbEntity
  8
0
100
AcDbCircle
 10
167.0562375725394
 20
264.9450663697354
 30
0.0
 40
0.2
100
AcDbArc
 50
270.0
 51
344.8690659402162
  0
ARC
  5
8F0
330
1F
100
AcDbEntity
  8
0
100
AcDbCircle
 10
165.6724428529373
 20
264.9450663697354
 30
0.0
 40
0.2
100
AcDbArc
 50
195.1309340597837
 51
270.0
  0
LINE
  5
8F1
330
1F
100
AcDbEntity
  8
0
100
AcDbLine
 10
166.3643402127381
 20
265.145066369735
 30
0.0
 11
165.6724428529373
 21
265.1450663697354
 31
0.0
  0
LINE
  5
8F2
330
1F
100
AcDbEntity
  8
0
100
AcDbLine
 10
166.3643402127381
 20
265.145066369735
 30
0.0
 11
167.0562375725394
 21
265.1450663697354
 31
0.0
  0
LINE
  5
8F3
330
1F
100
AcDbEntity
  8
0
100
AcDbLine
 10
166.3643402127381
 20
264.7450663697355
 30
0.0
 11
165.6724428529373
 21
264.7450663697355
 31
0.0
  0
LINE
  5
8F4
330
1F
100
AcDbEntity
  8
0
100
AcDbLine
 10
166.3643402127381
 20
264.7450663697355
 30
0.0
 11
167.0562375725394
 21
264.7450663697355
 31
0.0
  0
LINE
  5
8F5
330
1F
100
AcDbEntity
  8
0
  6
CONTINUOUS
100
AcDbLine
 10
170.1143402127381
 20
259.8600663697353
 30
0.0
 11
170.6143402127372
 21
259.8600663697353
 31
0.0
  0
LINE
  5
8F6
330
1F
100
AcDbEntity
  8
0
  6
CONTINUOUS
100
AcDbLine
 10
170.1143402127381
 20
260.7800663697354
 30
0.0
 11
170.6143402127372
 21
260.7800663697354
 31
0.0
  0
LINE
  5
8F7
330
1F
100
AcDbEntity
  8
0
  6
CONTINUOUS
100
AcDbLine
 10
170.1143402127381
 20
261.8600663697353
 30
0.0
 11
170.6143402127372
 21
261.8600663697353
 31
0.0
  0
LINE
  5
8F8
330
1F
100
AcDbEntity
  8
0
  6
CONTINUOUS
100
AcDbLine
 10
170.1143402127381
 20
262.7800663697354
 30
0.0
 11
170.6143402127372
 21
262.7800663697354
 31
0.0
  0
LINE
  5
8F9
330
1F
100
AcDbEntity
  8
0
  6
CONTINUOUS
100
AcDbLine
 10
170.1143402127381
 20
264.3600663697353
 30
0.0
 11
170.6143402127372
 21
264.3600663697353
 31
0.0
  0
LINE
  5
8FA
330
1F
100
AcDbEntity
  8
0
  6
CONTINUOUS
100
AcDbLine
 10
170.1143402127381
 20
260.7800663697354
 30
0.0
 11
170.1143402127381
 21
259.8600663697353
 31
0.0
  0
LINE
  5
8FB
330
1F
100
AcDbEntity
  8
0
  6
CONTINUOUS
100
AcDbLine
 10
170.1143402127381
 20
262.7800663697354
 30
0.0
 11
170.1143402127381
 21
261.8600663697353
 31
0.0
  0
LINE
  5
8FC
330
1F
100
AcDbEntity
  8
0
100
AcDbLine
 10
168.3337802127384
 20
267.5700663697353
 30
0.0
 11
172.8137802127385
 21
267.5700663697353
 31
0.0
  0
LINE
  5
8FD
330
1F
100
AcDbEntity
  8
0
  6
CONTINUOUS
100
AcDbLine
 10
172.8137802127385
 20
268.5700663697355
 30
0.0
 11
168.3337802127384
 21
268.5700663697354
 31
0.0
  0
LINE
  5
8FE
330
1F
100
AcDbEntity
  8
0
  6
CONTINUOUS
100
AcDbLine
 10
164.7554602127383
 20
267.9700663697349
 30
0.0
 11
164.3949002127383
 21
267.9700663697349
 31
0.0
  0
LINE
  5
8FF
330
1F
100
AcDbEntity
  8
0
100
AcDbLine
 10
165.4793764842411
 20
265.29286122364
 30
0.0
 11
164.6743402127381
 21
268.270066369735
 31
0.0
  0
LINE
  5
900
330
1F
100
AcDbEntity
  8
0
100
AcDbLine
 10
167.2493039412342
 20
265.29286122364
 30
0.0
 11
168.0543402127382
 21
268.270066369735
 31
0.0
  0
LINE
  5
901
330
1F
100
AcDbEntity
  8
0
  6
CONTINUOUS
100
AcDbLine
 10
168.3337802127384
 20
267.9700663697349
 30
0.0
 11
167.9732202127383
 21
267.9700663697349
 31
0.0
  0
LINE
  5
902
330
1F
100
AcDbEntity
  8
0
  6
CONTINUOUS
100
AcDbLine
 10
164.3949002127383
 20
268.270066369735
 30
0.0
 11
168.3337802127384
 21
268.270066369735
 31
0.0
  0
LINE
  5
903
330
1F
100
AcDbEntity
  8
0
100
AcDbLine
 10
168.3337802127384
 20
267.5700663697353
 30
0.0
 11
168.3337802127384
 21
268.5700663697354
 31
0.0
  0
LINE
  5
904
330
1F
100
AcDbEntity
  8
0
100
AcDbLine
 10
164.3949002127383
 20
267.5700663697355
 30
0.0
 11
164.3949002127383
 21
268.5700663697357
 31
0.0
  0
LINE
  5
905
330
1F
100
AcDbEntity
  8
0
100
AcDbLine
 10
172.8137802127385
 20
267.5700663697353
 30
0.0
 11
172.8137802127385
 21
268.5700663697355
 31
0.0
  0
LINE
  5
906
330
1F
100
AcDbEntity
  8
0
100
AcDbLine
 10
170.6143402127372
 20
266.2900663697354
 30
0.0
 11
171.8943402127383
 21
266.2900663697354
 31
0.0
  0
LINE
  5
907
330
1F
100
AcDbEntity
  8
0
  6
CONTINUOUS
100
AcDbLine
 10
170.1143402127381
 20
265.2800663697354
 30
0.0
 11
170.6143402127372
 21
265.2800663697354
 31
0.0
  0
LINE
  5
908
330
1F
100
AcDbEntity
  8
0
100
AcDbLine
 10
173.1743402127372
 20
267.2094663697354
 30
0.0
 11
173.1743402127372
 21
261.9594663697354
 31
0.0
  0
LINE
  5
909
330
1F
100
AcDbEntity
  8
0
  6
CONTINUOUS
100
AcDbLine
 10
174.1743402127372
 20
261.9594663697354
 30
0.0
 11
174.1743402127372
 21
267.2094663697354
 31
0.0
  0
LINE
  5
90A
330
1F
100
AcDbEntity
  8
0
  6
CONTINUOUS
100
AcDbLine
 10
173.5743402127382
 20
261.9594663697354
 30
0.0
 11
173.5743402127382
 21
260.6806663697355
 31
0.0
  0
LINE
  5
90B
330
1F
100
AcDbEntity
  8
0
100
AcDbLine
 10
173.8743402127384
 20
260.6806663697355
 30
0.0
 11
173.8743402127384
 21
261.9594663697354
 31
0.0
  0
LINE
  5
90C
330
1F
100
AcDbEntity
  8
0
100
AcDbLine
 10
174.1743402127372
 20
260.6806663697355
 30
0.0
 11
173.1743402127372
 21
260.6806663697355
 31
0.0
  0
LINE
  5
90D
330
1F
100
AcDbEntity
  8
0
100
AcDbLine
 10
174.1743402127372
 20
261.9594663697354
 30
0.0
 11
173.1743402127372
 21
261.9594663697354
 31
0.0
  0
ARC
  5
90E
330
1F
100
AcDbEntity
  8
0
100
AcDbCircle
 10
173.3743402127383
 20
267.7700663697352
 30
0.0
 40
0.5
100
AcDbArc
 50
0.0
 51
90.0
  0
ARC
  5
90F
330
1F
100
AcDbEntity
  8
0
  6
CONTINUOUS
100
AcDbCircle
 10
173.3743402127383
 20
267.7700663697351
 30
0.0
 40
0.2
100
AcDbArc
 50
0.0
 51
90.0
  0
LINE
  5
910
330
1F
100
AcDbEntity
  8
0
100
AcDbLine
 10
173.8743402127384
 20
267.7700663697352
 30
0.0
 11
173.8743402127384
 21
267.2094663697354
 31
0.0
  0
LINE
  5
911
330
1F
100
AcDbEntity
  8
0
100
AcDbLine
 10
173.1743402127372
 20
267.2094663697354
 30
0.0
 11
174.1743402127372
 21
267.2094663697354
 31
0.0
  0
LINE
  5
912
330
1F
100
AcDbEntity
  8
0
  6
CONTINUOUS
100
AcDbLine
 10
173.5743402127382
 20
267.7700663697351
 30
0.0
 11
173.5743402127382
 21
267.2094663697354
 31
0.0
  0
LINE
  5
913
330
1F
100
AcDbEntity
  8
外形
100
AcDbLine
 10
156.0743402127391
 20
271.3200663697341
 30
0.0
 11
174.6742653962342
 21
271.3200663697354
 31
0.0
  0
LINE
  5
914
330
1F
100
AcDbEntity
  8
CLASS1
100
AcDbLine
 10
2.499997938481556
 20
298.3305619313371
 30
0.0
 11
2.499997938481556
 21
293.3292719313374
 31
0.0
  0
LINE
  5
915
330
1F
100
AcDbEntity
  8
CLASS1
100
AcDbLine
 10
68.12251493848134
 20
296.8525769313371
 30
0.0
 11
2.499997938481556
 21
298.3305619313371
 31
0.0
  0
LINE
  5
916
330
1F
100
AcDbEntity
  8
CLASS1
100
AcDbLine
 10
-0.0000020615198082
 20
126.8290129313373
 30
0.0
 11
-0.0000020615198082
 21
305.3290129313373
 31
0.0
  0
LINE
  5
918
330
1F
100
AcDbEntity
  8
CLASS1
100
AcDbLine
 10
61.96772593848163
 20
141.7001109313372
 30
0.0
 11
2.522999938481461
 21
140.3324149313372
 31
0.0
  0
LINE
  5
919
330
1F
100
AcDbEntity
  8
CLASS1
100
AcDbLine
 10
68.12251493848134
 20
136.8085469313371
 30
0.0
 11
2.499997938481556
 21
135.3305619313371
 31
0.0
  0
LINE
  5
91A
330
1F
100
AcDbEntity
  8
CLASS1
100
AcDbLine
 10
2.522718938481375
 20
293.3287549313373
 30
0.0
 11
61.96744593848143
 21
291.9777379313373
 31
0.0
  0
LINE
  5
91B
330
1F
100
AcDbEntity
  8
CLASS1
100
AcDbLine
 10
62.94472393848036
 20
142.6998459313373
 30
0.0
 11
62.94472393848036
 21
290.9779959313372
 31
0.0
  0
LINE
  5
91C
330
1F
100
AcDbEntity
  8
CLASS1
100
AcDbLine
 10
68.79999793848037
 20
294.3305619313372
 30
0.0
 11
68.79999793848037
 21
139.3305619313371
 31
0.0
  0
LINE
  5
91D
330
1F
100
AcDbEntity
  8
CLASS1
100
AcDbLine
 10
68.3156719384815
 20
294.3305619313372
 30
0.0
 11
68.3156719384815
 21
139.3305619313371
 31
0.0
  0
LINE
  5
91E
330
1F
100
AcDbEntity
  8
CLASS1
100
AcDbLine
 10
68.04452093848249
 20
295.8766029313372
 30
0.0
 11
68.04452093848249
 21
137.7845209313372
 31
0.0
  0
ARC
  5
91F
330
1F
100
AcDbEntity
  8
CLASS1
100
AcDbCircle
 10
68.09999793848146
 20
137.8082929313372
 30
0.0
 40
1.0
100
AcDbArc
 50
271.2902270000052
 51
0.0
  0
LINE
  5
920
330
1F
100
AcDbEntity
  8
CLASS1
100
AcDbLine
 10
68.3156719384815
 20
139.3305619313371
 30
0.0
 11
69.09999793848147
 21
139.3305619313371
 31
0.0
  0
LINE
  5
921
330
1F
100
AcDbEntity
  8
CLASS1
100
AcDbLine
 10
69.09999793848147
 20
137.8082929313372
 30
0.0
 11
69.09999793848147
 21
139.3305619313371
 31
0.0
  0
ARC
  5
922
330
1F
100
AcDbEntity
  8
CLASS1
100
AcDbCircle
 10
67.04452093848158
 20
137.7845209313372
 30
0.0
 40
1.0
100
AcDbArc
 50
271.2902270000052
 51
0.0
  0
ARC
  5
923
330
1F
100
AcDbEntity
  8
CLASS1
100
AcDbCircle
 10
61.94472393848127
 20
142.6998459313373
 30
0.0
 40
1.0
100
AcDbArc
 50
271.318021000017
 51
0.0
  0
LINE
  5
924
330
1F
100
AcDbEntity
  8
0
100
AcDbLine
 10
69.29999793848129
 20
189.2544309313374
 30
0.0
 11
69.29999793848129
 21
186.2544309313373
 31
0.0
  0
LINE
  5
925
330
1F
100
AcDbEntity
  8
0
100
AcDbLine
 10
69.29999793848129
 20
189.2544309313374
 30
0.0
 11
68.3156719384815
 21
189.2544309313374
 31
0.0
  0
LINE
  5
926
330
1F
100
AcDbEntity
  8
0
100
AcDbLine
 10
69.29999793848129
 20
186.2544309313373
 30
0.0
 11
68.3156719384815
 21
186.2544309313373
 31
0.0
  0
LINE
  5
927
330
1F
100
AcDbEntity
  8
0
100
AcDbLine
 10
69.29999793848129
 20
230.4084189313374
 30
0.0
 11
69.29999793848129
 21
227.4084189313374
 31
0.0
  0
LINE
  5
928
330
1F
100
AcDbEntity
  8
0
100
AcDbLine
 10
69.29999793848129
 20
230.4084189313374
 30
0.0
 11
68.3156719384815
 21
230.4084189313375
 31
0.0
  0
LINE
  5
929
330
1F
100
AcDbEntity
  8
0
100
AcDbLine
 10
69.29999793848129
 20
227.4084189313374
 30
0.0
 11
68.3156719384815
 21
227.4084189313375
 31
0.0
  0
LINE
  5
92A
330
1F
100
AcDbEntity
  8
CLASS1
100
AcDbLine
 10
68.3156719384815
 20
294.3305619313372
 30
0.0
 11
69.09999793848147
 21
294.3305619313372
 31
0.0
  0
LINE
  5
92B
330
1F
100
AcDbEntity
  8
CLASS1
100
AcDbLine
 10
69.09999793848147
 20
295.8528309313372
 30
0.0
 11
69.09999793848147
 21
294.3305619313372
 31
0.0
  0
ARC
  5
92C
330
1F
100
AcDbEntity
  8
CLASS1
100
AcDbCircle
 10
68.09999793848238
 20
295.8528309313372
 30
0.0
 40
1.0
100
AcDbArc
 50
0.0
 51
88.70977299999479
  0
ARC
  5
92D
330
1F
100
AcDbEntity
  8
CLASS1
100
AcDbCircle
 10
67.04452093848249
 20
295.8766029313372
 30
0.0
 40
1.0
100
AcDbArc
 50
0.0
 51
88.70977299999479
  0
ARC
  5
92E
330
1F
100
AcDbEntity
  8
CLASS1
100
AcDbCircle
 10
61.94472393848127
 20
290.9779959313372
 30
0.0
 40
1.0
100
AcDbArc
 50
0.0
 51
88.69804600000646
  0
LINE
  5
92F
330
1F
100
AcDbEntity
  8
CLASS1
100
AcDbLine
 10
1.499997938481556
 20
141.3321499313373
 30
0.0
 11
1.499997938481556
 21
292.3290129313373
 31
0.0
  0
LINE
  5
930
330
1F
100
AcDbEntity
  8
0
100
AcDbLine
 10
2.499997938481556
 20
135.3305619313371
 30
0.0
 11
2.499997938481556
 21
126.8290129313373
 31
0.0
  0
LINE
  5
931
330
1F
100
AcDbEntity
  8
CLASS1
100
AcDbLine
 10
2.499997938481556
 20
126.8290129313373
 30
0.0
 11
-0.0000020615198082
 21
126.8290129313373
 31
0.0
  0
ARC
  5
932
330
1F
100
AcDbEntity
  8
CLASS1
100
AcDbCircle
 10
2.499997938481556
 20
141.3321499313373
 30
0.0
 40
1.0
100
AcDbArc
 50
180.0
 51
271.318021000017
  0
LINE
  5
933
330
1F
100
AcDbEntity
  8
CLASS1
100
AcDbLine
 10
2.499997938481556
 20
135.3305619313371
 30
0.0
 11
2.499997938481556
 21
140.3318859313372
 31
0.0
  0
ARC
  5
934
330
1F
100
AcDbEntity
  8
CLASS1
100
AcDbCircle
 10
2.499997938481556
 20
292.3290129313373
 30
0.0
 40
1.0
100
AcDbArc
 50
88.69804699999894
 51
180.0
  0
LINE
  5
935
330
1F
100
AcDbEntity
  8
CLASS1
100
AcDbLine
 10
2.499997938481556
 20
305.3290129313373
 30
0.0
 11
-0.0000020615198082
 21
305.3290129313373
 31
0.0
  0
LINE
  5
936
330
1F
100
AcDbEntity
  8
0
100
AcDbLine
 10
2.499997938481556
 20
305.3290129313373
 30
0.0
 11
2.499997938481556
 21
298.3305619313371
 31
0.0
  0
LINE
  5
937
330
1F
100
AcDbEntity
  8
CLASS1
100
AcDbLine
 10
334.4485624869944
 20
133.8274639313373
 30
0.0
 11
334.4485624869944
 21
138.8287539313373
 31
0.0
  0
LINE
  5
938
330
1F
100
AcDbEntity
  8
CLASS1
100
AcDbLine
 10
268.8260454869932
 20
135.3054489313373
 30
0.0
 11
334.4485624869944
 21
133.8274639313373
 31
0.0
  0
LINE
  5
939
330
1F
100
AcDbEntity
  8
CLASS1
100
AcDbLine
 10
336.9485624869953
 20
305.3290129313373
 30
0.0
 11
336.9485624869944
 21
126.8290129313373
 31
0.0
  0
LINE
  5
93A
330
1F
100
AcDbEntity
  8
CLASS1
100
AcDbLine
 10
288.9255607446179
 20
266.4990129313372
 30
0.0
 11
335.4485624869953
 21
267.5790129313373
 31
0.0
  0
LINE
  5
93B
330
1F
100
AcDbEntity
  8
CLASS1
100
AcDbLine
 10
289.4255604869954
 20
266.2701219313373
 30
0.0
 11
335.4485624869953
 21
267.3290129313373
 31
0.0
  0
LINE
  5
93C
330
1F
100
AcDbEntity
  8
CLASS1
100
AcDbLine
 10
310.3278874869952
 20
221.9440129313373
 30
0.0
 11
315.5537374869941
 21
221.9440129313373
 31
0.0
  0
LINE
  5
93D
330
1F
100
AcDbEntity
  8
CLASS1
100
AcDbLine
 10
310.3278874869952
 20
221.9440129313373
 30
0.0
 11
315.5537374869941
 21
221.9440129313373
 31
0.0
  0
LINE
  5
93E
330
1F
100
AcDbEntity
  8
CLASS1
100
AcDbLine
 10
313.1723374869943
 20
208.7140129313374
 30
0.0
 11
318.1335874869942
 21
208.7140129313374
 31
0.0
  0
LINE
  5
93F
330
1F
100
AcDbEntity
  8
CLASS1
100
AcDbLine
 10
313.1723374869943
 20
208.7140129313374
 30
0.0
 11
318.1335874869942
 21
208.7140129313374
 31
0.0
  0
HATCH
  5
940
330
1F
100
AcDbEntity
  8
CLASS1
100
AcDbHatch
 10
0.0
 20
0.0
 30
0.0
210
0.0
220
0.0
230
1.0
  2
SOLID
 70
     1
 71
     0
 91
        1
 92
        1
 93
       13
 72
     1
 10
307.4243747233144
 20
212.0215127662386
 11
306.2931739854852
 21
210.3131190252938
 72
     2
 10
307.2859643461943
 20
209.6557499647389
 40
1.190699999999956
 50
866.48975
 51
952.2706859999995
 73
     1
 72
     1
 10
306.5573371857331
 20
208.7140127662388
 11
301.7945373106954
 21
208.7140127662388
 72
     1
 10
301.7945373106954
 20
208.7140127662388
 11
310.5528411398545
 21
220.6300722402476
 72
     2
 10
309.8066226646947
 20
221.1785428267385
 40
0.9261000000000107
 50
1043.684112999998
 51
1135.746171999999
 73
     1
 72
     1
 10
310.3278874551042
 20
221.9440127662388
 11
315.553737310694
 21
221.9440127662388
 72
     1
 10
315.553737310694
 20
221.9440127662388
 11
318.1335873106941
 21
208.7140127662388
 72
     1
 10
318.1335873106941
 20
208.7140127662388
 11
313.1723373106956
 21
208.7140127662388
 72
     1
 10
313.1723373106956
 20
208.7140127662388
 11
312.5273748106956
 21
212.0215127662386
 72
     1
 10
312.5273748106956
 20
212.0215127662386
 11
312.1919943106941
 21
213.7414127662387
 72
     1
 10
312.1919943106941
 20
213.7414127662387
 11
311.3664423106957
 21
217.9750127662388
 72
     1
 10
311.3664423106957
 20
217.9750127662388
 11
308.5631942485574
 21
213.7414127662387
 72
     1
 10
308.5631942485574
 20
213.7414127662387
 11
307.4243747233144
 21
212.0215127662386
 97
        0
 75
     0
 76
     1
 98
        1
 10
242.5140504869932
 20
195.1147299313376
  0
HATCH
  5
941
330
1F
100
AcDbEntity
  8
CLASS1
100
AcDbHatch
 10
0.0
 20
0.0
 30
0.0
210
0.0
220
0.0
230
1.0
  2
SOLID
 70
     1
 71
     0
 91
        1
 92
        1
 93
       13
 72
     1
 10
307.4243747233131
 20
212.0215127662386
 11
306.2931739854852
 21
210.3131190252938
 72
     2
 10
307.2859643461943
 20
209.6557499647389
 40
1.190699999999956
 50
866.48975
 51
952.2706859999995
 73
     1
 72
     1
 10
306.5573371857331
 20
208.7140127662388
 11
301.7945373106954
 21
208.7140127662388
 72
     1
 10
301.7945373106931
 20
208.7140127662388
 11
310.5528411398536
 21
220.6300722402476
 72
     2
 10
309.8066226646947
 20
221.1785428267385
 40
0.9261000000000107
 50
1043.684112999998
 51
1135.746171999999
 73
     1
 72
     1
 10
310.3278874551042
 20
221.9440127662388
 11
315.553737310694
 21
221.9440127662388
 72
     1
 10
315.553737310694
 20
221.9440127662388
 11
318.1335873106941
 21
208.7140127662388
 72
     1
 10
318.1335873106941
 20
208.7140127662388
 11
313.1723373106942
 21
208.7140127662388
 72
     1
 10
313.1723373106942
 20
208.7140127662388
 11
312.5273748106942
 21
212.0215127662386
 72
     1
 10
312.5273748106942
 20
212.0215127662386
 11
312.1919943106941
 21
213.7414127662387
 72
     1
 10
312.1919943106941
 20
213.7414127662387
 11
311.3664423106943
 21
217.9750127662388
 72
     1
 10
311.3664423106943
 20
217.9750127662388
 11
308.5631942485565
 21
213.7414127662387
 72
     1
 10
308.5631942485574
 20
213.7414127662387
 11
307.4243747233131
 21
212.0215127662386
 97
        0
 75
     0
 76
     1
 98
        1
 10
242.5140504869932
 20
195.1147299313376
  0
LINE
  5
942
330
1F
100
AcDbEntity
  8
CLASS1
100
AcDbLine
 10
274.9808344869952
 20
290.4579149313375
 30
0.0
 11
334.4255604869954
 21
291.8256109313374
 31
0.0
  0
LINE
  5
943
330
1F
100
AcDbEntity
  8
CLASS1
100
AcDbLine
 10
268.8260454869941
 20
295.3494789313374
 30
0.0
 11
334.4485624869953
 21
296.8274639313374
 31
0.0
  0
LINE
  5
944
330
1F
100
AcDbEntity
  8
CLASS1
100
AcDbLine
 10
288.7375432243943
 20
164.1590129313374
 30
0.0
 11
335.4485624869944
 21
163.0790129313373
 31
0.0
  0
LINE
  5
945
330
1F
100
AcDbEntity
  8
CLASS1
100
AcDbLine
 10
289.4255604869954
 20
164.3879039313373
 30
0.0
 11
335.4485624869944
 21
163.3290129313373
 31
0.0
  0
LINE
  5
946
330
1F
100
AcDbEntity
  8
CLASS1
100
AcDbLine
 10
334.425841486995
 20
138.8292709313373
 30
0.0
 11
274.9811144869941
 21
140.1802879313373
 31
0.0
  0
LINE
  5
947
330
1F
100
AcDbEntity
  8
CLASS1
100
AcDbLine
 10
287.9485624869953
 20
265.5016692616856
 30
0.0
 11
287.9485624869944
 21
165.1414394584695
 31
0.0
  0
LINE
  5
948
330
1F
100
AcDbEntity
  8
CLASS1
100
AcDbLine
 10
288.4485624869944
 20
165.3876389313373
 30
0.0
 11
288.4485624869944
 21
265.2703869313373
 31
0.0
  0
LINE
  5
949
330
1F
100
AcDbEntity
  8
CLASS1
100
AcDbLine
 10
274.0038364869951
 20
289.4581799313375
 30
0.0
 11
274.0038364869951
 21
141.1800299313373
 31
0.0
  0
LINE
  5
94A
330
1F
100
AcDbEntity
  8
CLASS1
100
AcDbLine
 10
268.1485624869951
 20
137.8274639313373
 30
0.0
 11
268.1485624869951
 21
292.8274639313376
 31
0.0
  0
LINE
  5
94B
330
1F
100
AcDbEntity
  8
CLASS1
100
AcDbLine
 10
268.6328884869954
 20
137.8274639313373
 30
0.0
 11
268.6328884869954
 21
292.8274639313376
 31
0.0
  0
LINE
  5
94C
330
1F
100
AcDbEntity
  8
CLASS1
100
AcDbLine
 10
268.9040394869944
 20
136.2814229313373
 30
0.0
 11
268.9040394869944
 21
294.3735049313374
 31
0.0
  0
ARC
  5
94D
330
1F
100
AcDbEntity
  8
CLASS1
100
AcDbCircle
 10
268.8485624869954
 20
294.3497329313375
 30
0.0
 40
1.0
100
AcDbArc
 50
91.29022700000518
 51
180.0
  0
LINE
  5
94E
330
1F
100
AcDbEntity
  8
CLASS1
100
AcDbLine
 10
268.6328884869954
 20
292.8274639313376
 30
0.0
 11
267.8485624869954
 21
292.8274639313376
 31
0.0
  0
LINE
  5
94F
330
1F
100
AcDbEntity
  8
CLASS1
100
AcDbLine
 10
267.8485624869954
 20
294.3497329313377
 30
0.0
 11
267.8485624869954
 21
292.8274639313376
 31
0.0
  0
ARC
  5
950
330
1F
100
AcDbEntity
  8
CLASS1
100
AcDbCircle
 10
269.9040394869953
 20
294.3735049313374
 30
0.0
 40
1.0
100
AcDbArc
 50
91.29022700000518
 51
180.0
  0
ARC
  5
951
330
1F
100
AcDbEntity
  8
CLASS1
100
AcDbCircle
 10
275.0038364869951
 20
289.4581799313375
 30
0.0
 40
1.0
100
AcDbArc
 50
91.3180210000171
 51
180.0
  0
ARC
  5
952
330
1F
100
AcDbEntity
  8
CLASS1
100
AcDbCircle
 10
288.9485596265844
 20
265.4992774400108
 30
0.0
 40
1.0
100
AcDbArc
 50
91.31801899999311
 51
180.0
  0
ARC
  5
953
330
1F
100
AcDbEntity
  8
CLASS1
100
AcDbCircle
 10
289.4485624869953
 20
265.2703869313376
 30
0.0
 40
1.0
100
AcDbArc
 50
91.31801899999311
 51
180.0
  0
LINE
  5
954
330
1F
100
AcDbEntity
  8
0
100
AcDbLine
 10
267.6485624869951
 20
227.4071279313375
 30
0.0
 11
267.6485624869951
 21
230.4071279313375
 31
0.0
  0
LINE
  5
955
330
1F
100
AcDbEntity
  8
0
100
AcDbLine
 10
267.6485624869951
 20
227.4071279313375
 30
0.0
 11
268.6328884869954
 21
227.4071279313375
 31
0.0
  0
LINE
  5
956
330
1F
100
AcDbEntity
  8
0
100
AcDbLine
 10
267.6485624869951
 20
230.4071279313375
 30
0.0
 11
268.6328884869954
 21
230.4071279313375
 31
0.0
  0
LINE
  5
957
330
1F
100
AcDbEntity
  8
0
100
AcDbLine
 10
267.6485624869951
 20
186.2531399313373
 30
0.0
 11
267.6485624869951
 21
189.2531399313373
 31
0.0
  0
LINE
  5
958
330
1F
100
AcDbEntity
  8
0
100
AcDbLine
 10
267.6485624869951
 20
186.2531399313373
 30
0.0
 11
268.6328884869954
 21
186.2531399313373
 31
0.0
  0
LINE
  5
959
330
1F
100
AcDbEntity
  8
0
100
AcDbLine
 10
267.6485624869951
 20
189.2531399313373
 30
0.0
 11
268.6328884869954
 21
189.2531399313373
 31
0.0
  0
LINE
  5
95A
330
1F
100
AcDbEntity
  8
CLASS1
100
AcDbLine
 10
268.6328884869954
 20
137.8274639313373
 30
0.0
 11
267.8485624869954
 21
137.8274639313373
 31
0.0
  0
LINE
  5
95B
330
1F
100
AcDbEntity
  8
CLASS1
100
AcDbLine
 10
267.8485624869954
 20
136.3051949313375
 30
0.0
 11
267.8485624869954
 21
137.8274639313373
 31
0.0
  0
ARC
  5
95C
330
1F
100
AcDbEntity
  8
CLASS1
100
AcDbCircle
 10
268.8485624869945
 20
136.3051949313375
 30
0.0
 40
1.0
100
AcDbArc
 50
180.0
 51
268.7097729999947
  0
ARC
  5
95D
330
1F
100
AcDbEntity
  8
CLASS1
100
AcDbCircle
 10
269.9040394869935
 20
136.2814229313373
 30
0.0
 40
1.0
100
AcDbArc
 50
180.0
 51
268.7097729999947
  0
LINE
  5
95E
330
1F
100
AcDbEntity
  8
CLASS1
100
AcDbLine
 10
301.9268374869952
 20
221.9440129313373
 30
0.0
 11
299.1485374869953
 21
208.7140129313374
 31
0.0
  0
LINE
  5
95F
330
1F
100
AcDbEntity
  8
CLASS1
100
AcDbLine
 10
301.9268374869952
 20
221.9440129313373
 30
0.0
 11
299.1485374869953
 21
208.7140129313374
 31
0.0
  0
HATCH
  5
960
330
1F
100
AcDbEntity
  8
CLASS1
100
AcDbHatch
 10
0.0
 20
0.0
 30
0.0
210
0.0
220
0.0
230
1.0
  2
SOLID
 70
     1
 71
     0
 91
        1
 92
        1
 93
        5
 72
     1
 10
294.3857373106943
 20
208.7140127662388
 11
296.8400796374012
 21
220.401359919627
 72
     2
 10
295.4158456171944
 20
220.7004489937386
 40
1.455300000000043
 50
1068.140224
 51
1138.705292999999
 73
     1
 72
     1
 10
296.1717869070603
 20
221.9440127662388
 11
301.9268373106956
 21
221.9440127662388
 72
     1
 10
301.9268373106956
 20
221.9440127662388
 11
299.1485373106943
 21
208.7140127662388
 72
     1
 10
299.1485373106943
 20
208.7140127662388
 11
294.3857373106943
 21
208.7140127662388
 97
        0
 75
     0
 76
     1
 98
        1
 10
242.5140504869932
 20
195.1147299313376
  0
LINE
  5
961
330
1F
100
AcDbEntity
  8
CLASS1
100
AcDbLine
 10
296.8400794869953
 20
220.4013599313374
 30
0.0
 11
294.3857374869953
 21
208.7140129313374
 31
0.0
  0
LINE
  5
962
330
1F
100
AcDbEntity
  8
CLASS1
100
AcDbLine
 10
296.8400794869953
 20
220.4013599313374
 30
0.0
 11
294.3857374869953
 21
208.7140129313374
 31
0.0
  0
HATCH
  5
963
330
1F
100
AcDbEntity
  8
CLASS1
100
AcDbHatch
 10
0.0
 20
0.0
 30
0.0
210
0.0
220
0.0
230
1.0
  2
SOLID
 70
     1
 71
     0
 91
        1
 92
        1
 93
        5
 72
     1
 10
294.3857373106943
 20
208.7140127662388
 11
296.8400796374012
 21
220.401359919627
 72
     2
 10
295.4158456171944
 20
220.7004489937386
 40
1.455300000000043
 50
1068.140224
 51
1138.705292999999
 73
     1
 72
     1
 10
296.1717869070603
 20
221.9440127662388
 11
301.9268373106956
 21
221.9440127662388
 72
     1
 10
301.9268373106933
 20
221.9440127662388
 11
299.1485373106943
 21
208.7140127662388
 72
     1
 10
299.1485373106943
 20
208.7140127662388
 11
294.3857373106943
 21
208.7140127662388
 97
        0
 75
     0
 76
     1
 98
        1
 10
242.5140504869932
 20
195.1147299313376
  0
LINE
  5
964
330
1F
100
AcDbEntity
  8
CLASS1
100
AcDbLine
 10
310.5528404869942
 20
220.6300719313373
 30
0.0
 11
301.7945374869941
 21
208.7140129313374
 31
0.0
  0
LINE
  5
965
330
1F
100
AcDbEntity
  8
CLASS1
100
AcDbLine
 10
310.5528404869942
 20
220.6300719313373
 30
0.0
 11
301.7945374869941
 21
208.7140129313374
 31
0.0
  0
LINE
  5
966
330
1F
100
AcDbEntity
  8
CLASS1
100
AcDbLine
 10
301.9268374869952
 20
221.9440129313373
 30
0.0
 11
296.1717874869932
 21
221.9440129313373
 31
0.0
  0
LINE
  5
967
330
1F
100
AcDbEntity
  8
CLASS1
100
AcDbLine
 10
301.9268374869952
 20
221.9440129313373
 30
0.0
 11
296.1717874869932
 21
221.9440129313373
 31
0.0
  0
ARC
  5
968
330
1F
100
AcDbEntity
  8
CLASS1
100
AcDbCircle
 10
295.4158454869943
 20
220.7004489313377
 30
0.0
 40
1.4553
100
AcDbArc
 50
348.1402210000033
 51
58.70528200000129
  0
ARC
  5
969
330
1F
100
AcDbEntity
  8
CLASS1
100
AcDbCircle
 10
295.4158454869943
 20
220.7004489313377
 30
0.0
 40
1.4553
100
AcDbArc
 50
348.1402210000033
 51
58.70528200000129
  0
ARC
  5
96A
330
1F
100
AcDbEntity
  8
CLASS1
100
AcDbCircle
 10
309.8066224869944
 20
221.1785429313375
 30
0.0
 40
0.9261000000000001
100
AcDbArc
 50
323.6841139999957
 51
55.7461990000093
  0
ARC
  5
96B
330
1F
100
AcDbEntity
  8
CLASS1
100
AcDbCircle
 10
309.8066224869944
 20
221.1785429313375
 30
0.0
 40
0.9261000000000001
100
AcDbArc
 50
323.6841139999957
 51
55.7461990000093
  0
LINE
  5
96C
330
1F
100
AcDbEntity
  8
CLASS1
100
AcDbLine
 10
301.7945374869941
 20
208.7140129313374
 30
0.0
 11
306.5573374869941
 21
208.7140129313374
 31
0.0
  0
LINE
  5
96D
330
1F
100
AcDbEntity
  8
CLASS1
100
AcDbLine
 10
301.7945374869941
 20
208.7140129313374
 30
0.0
 11
306.5573374869941
 21
208.7140129313374
 31
0.0
  0
ARC
  5
96E
330
1F
100
AcDbEntity
  8
CLASS1
100
AcDbCircle
 10
305.1251724869944
 20
209.7603869313378
 30
0.0
 40
1.323
100
AcDbArc
 50
146.4897500000041
 51
232.2706919999894
  0
ARC
  5
96F
330
1F
100
AcDbEntity
  8
CLASS1
100
AcDbCircle
 10
305.1251724869944
 20
209.7603869313378
 30
0.0
 40
1.323
100
AcDbArc
 50
146.4897500000041
 51
232.2706919999894
  0
LINE
  5
970
330
1F
100
AcDbEntity
  8
CLASS1
100
AcDbLine
 10
299.1485374869953
 20
208.7140129313374
 30
0.0
 11
294.3857374869953
 21
208.7140129313374
 31
0.0
  0
LINE
  5
971
330
1F
100
AcDbEntity
  8
CLASS1
100
AcDbLine
 10
299.1485374869953
 20
208.7140129313374
 30
0.0
 11
294.3857374869953
 21
208.7140129313374
 31
0.0
  0
LINE
  5
972
330
1F
100
AcDbEntity
  8
CLASS1
100
AcDbLine
 10
311.3664424869952
 20
217.9750129313375
 30
0.0
 11
313.1723374869943
 21
208.7140129313374
 31
0.0
  0
LINE
  5
973
330
1F
100
AcDbEntity
  8
CLASS1
100
AcDbLine
 10
311.3664424869952
 20
217.9750129313375
 30
0.0
 11
313.1723374869943
 21
208.7140129313374
 31
0.0
  0
SOLID
  5
974
330
1F
100
AcDbEntity
  8
CLASS1
100
AcDbTrace
 10
307.4243744869932
 20
212.0215129313375
 30
0.0
 11
308.5631944869951
 21
213.7414129313375
 31
0.0
 12
312.5273744869941
 22
212.0215129313375
 32
0.0
 13
312.1919944869933
 23
213.7414129313375
 33
0.0
  0
SOLID
  5
975
330
1F
100
AcDbEntity
  8
CLASS1
100
AcDbTrace
 10
307.4243744869932
 20
212.0215129313375
 30
0.0
 11
308.5631944869951
 21
213.7414129313375
 31
0.0
 12
312.5273744869941
 22
212.0215129313375
 32
0.0
 13
312.1919944869933
 23
213.7414129313375
 33
0.0
  0
LINE
  5
976
330
1F
100
AcDbEntity
  8
CLASS1
100
AcDbLine
 10
311.3664424869952
 20
217.9750129313375
 30
0.0
 11
306.2931734869953
 21
210.3131189313375
 31
0.0
  0
LINE
  5
977
330
1F
100
AcDbEntity
  8
CLASS1
100
AcDbLine
 10
311.3664424869952
 20
217.9750129313375
 30
0.0
 11
306.2931734869953
 21
210.3131189313375
 31
0.0
  0
ARC
  5
978
330
1F
100
AcDbEntity
  8
CLASS1
100
AcDbCircle
 10
288.9483311788153
 20
165.13632151554
 30
0.0
 40
0.9997817914353085
100
AcDbArc
 50
179.7066981886691
 51
257.8287710899924
  0
ARC
  5
979
330
1F
100
AcDbEntity
  8
CLASS1
100
AcDbCircle
 10
289.4485624869944
 20
165.3876389313373
 30
0.0
 40
1.0
100
AcDbArc
 50
180.0
 51
268.6819810000069
  0
ARC
  5
97A
330
1F
100
AcDbEntity
  8
CLASS1
100
AcDbCircle
 10
275.0038364869951
 20
141.1800299313373
 30
0.0
 40
1.0
100
AcDbArc
 50
180.0
 51
268.6980460000064
  0
LINE
  5
97B
330
1F
100
AcDbEntity
  8
CLASS1
100
AcDbLine
 10
335.4485624869953
 20
290.8258759313374
 30
0.0
 11
335.4485624869944
 21
139.8290129313373
 31
0.0
  0
LINE
  5
97C
330
1F
100
AcDbEntity
  8
CLASS1
100
AcDbLine
 10
335.4485624869944
 20
163.3290129313373
 30
0.0
 11
335.4485624869953
 21
267.3290129313373
 31
0.0
  0
LINE
  5
97D
330
1F
100
AcDbEntity
  8
CLASS1
100
AcDbLine
 10
335.4485624869944
 20
152.3261019313374
 30
0.0
 11
335.4485624869953
 21
278.3319239313375
 31
0.0
  0
LINE
  5
97E
330
1F
100
AcDbEntity
  8
0
100
AcDbLine
 10
334.4485624869953
 20
296.8274639313374
 30
0.0
 11
334.4485624869953
 21
305.3290129313373
 31
0.0
  0
LINE
  5
97F
330
1F
100
AcDbEntity
  8
CLASS1
100
AcDbLine
 10
334.4485624869953
 20
305.3290129313373
 30
0.0
 11
336.9485624869953
 21
305.3290129313373
 31
0.0
  0
ARC
  5
980
330
1F
100
AcDbEntity
  8
CLASS1
100
AcDbCircle
 10
334.4485624869953
 20
290.8258759313374
 30
0.0
 40
1.0
100
AcDbArc
 50
0.0
 51
91.3180210000171
  0
LINE
  5
981
330
1F
100
AcDbEntity
  8
CLASS1
100
AcDbLine
 10
325.9485624869953
 20
269.8290129313373
 30
0.0
 11
325.9485624869953
 21
275.8290129313373
 31
0.0
  0
LINE
  5
982
330
1F
100
AcDbEntity
  8
CLASS1
100
AcDbLine
 10
329.4485624869953
 20
269.8290129313373
 30
0.0
 11
329.4485624869953
 21
275.8290129313373
 31
0.0
  0
LINE
  5
983
330
1F
100
AcDbEntity
  8
CLASS1
100
AcDbLine
 10
326.9381684869945
 20
275.3290129313374
 30
0.0
 11
326.9381684869945
 21
270.3290129313373
 31
0.0
  0
LINE
  5
984
330
1F
100
AcDbEntity
  8
CLASS1
100
AcDbLine
 10
328.9485624869953
 20
275.3290129313374
 30
0.0
 11
328.9485624869953
 21
270.3290129313373
 31
0.0
  0
LINE
  5
985
330
1F
100
AcDbEntity
  8
CLASS1
100
AcDbLine
 10
329.4485624869953
 20
275.3290129313374
 30
0.0
 11
329.4485624869953
 21
270.3290129313373
 31
0.0
  0
LINE
  5
986
330
1F
100
AcDbEntity
  8
CLASS1
100
AcDbLine
 10
334.4485624869953
 20
296.8274639313374
 30
0.0
 11
334.4485624869953
 21
291.8261399313372
 31
0.0
  0
LINE
  5
987
330
1F
100
AcDbEntity
  8
CLASS1
100
AcDbLine
 10
325.9485624869953
 20
275.8290129313373
 30
0.0
 11
329.4485624869953
 21
275.8290129313373
 31
0.0
  0
LINE
  5
988
330
1F
100
AcDbEntity
  8
CLASS1
100
AcDbLine
 10
329.4485624869953
 20
275.3290129313374
 30
0.0
 11
326.9381684869945
 21
275.3290129313374
 31
0.0
  0
LINE
  5
989
330
1F
100
AcDbEntity
  8
CLASS1
100
AcDbLine
 10
325.9485624869953
 20
269.8290129313373
 30
0.0
 11
329.4485624869953
 21
269.8290129313373
 31
0.0
  0
LINE
  5
98A
330
1F
100
AcDbEntity
  8
CLASS1
100
AcDbLine
 10
326.9381684869945
 20
270.3290129313373
 30
0.0
 11
329.4485624869953
 21
270.3290129313373
 31
0.0
  0
LINE
  5
98B
330
1F
100
AcDbEntity
  8
CLASS1
100
AcDbLine
 10
315.5537374869941
 20
221.9440129313373
 30
0.0
 11
318.1335874869942
 21
208.7140129313374
 31
0.0
  0
LINE
  5
98C
330
1F
100
AcDbEntity
  8
CLASS1
100
AcDbLine
 10
315.5537374869941
 20
221.9440129313373
 30
0.0
 11
318.1335874869942
 21
208.7140129313374
 31
0.0
  0
LINE
  5
98D
330
1F
100
AcDbEntity
  8
CLASS1
100
AcDbLine
 10
329.5113874869953
 20
221.9440129313373
 30
0.0
 11
326.7330874869953
 21
208.7140129313374
 31
0.0
  0
LINE
  5
98E
330
1F
100
AcDbEntity
  8
CLASS1
100
AcDbLine
 10
329.5113874869953
 20
221.9440129313373
 30
0.0
 11
326.7330874869953
 21
208.7140129313374
 31
0.0
  0
HATCH
  5
98F
330
1F
100
AcDbEntity
  8
CLASS1
100
AcDbHatch
 10
0.0
 20
0.0
 30
0.0
210
0.0
220
0.0
230
1.0
  2
SOLID
 70
     1
 71
     0
 91
        1
 92
        1
 93
        5
 72
     1
 10
321.9702873106953
 20
208.7140127662388
 11
324.4246296374003
 21
220.401359919627
 72
     2
 10
323.0003956171945
 20
220.7004489937386
 40
1.455300000000043
 50
1068.140224
 51
1138.705292999999
 73
     1
 72
     1
 10
323.7563369070612
 20
221.9440127662388
 11
329.5113873106943
 21
221.9440127662388
 72
     1
 10
329.5113873106943
 20
221.9440127662388
 11
326.7330873106952
 21
208.7140127662388
 72
     1
 10
326.7330873106952
 20
208.7140127662388
 11
321.9702873106953
 21
208.7140127662388
 97
        0
 75
     0
 76
     1
 98
        1
 10
242.5140504869932
 20
195.1147299313376
  0
HATCH
  5
990
330
1F
100
AcDbEntity
  8
CLASS1
100
AcDbHatch
 10
0.0
 20
0.0
 30
0.0
210
0.0
220
0.0
230
1.0
  2
SOLID
 70
     1
 71
     0
 91
        1
 92
        1
 93
        5
 72
     1
 10
321.9702873106943
 20
208.7140127662388
 11
324.4246296374003
 21
220.401359919627
 72
     2
 10
323.0003956171945
 20
220.7004489937386
 40
1.455300000000043
 50
1068.140224
 51
1138.705292999999
 73
     1
 72
     1
 10
323.7563369070612
 20
221.9440127662388
 11
329.5113873106943
 21
221.9440127662388
 72
     1
 10
329.5113873106943
 20
221.9440127662388
 11
326.7330873106952
 21
208.7140127662388
 72
     1
 10
326.7330873106952
 20
208.7140127662388
 11
321.9702873106943
 21
208.7140127662388
 97
        0
 75
     0
 76
     1
 98
        1
 10
242.5140504869932
 20
195.1147299313376
  0
LINE
  5
991
330
1F
100
AcDbEntity
  8
CLASS1
100
AcDbLine
 10
324.4246294869944
 20
220.4013599313374
 30
0.0
 11
321.9702874869945
 21
208.7140129313374
 31
0.0
  0
LINE
  5
992
330
1F
100
AcDbEntity
  8
CLASS1
100
AcDbLine
 10
324.4246294869944
 20
220.4013599313374
 30
0.0
 11
321.9702874869945
 21
208.7140129313374
 31
0.0
  0
LINE
  5
993
330
1F
100
AcDbEntity
  8
CLASS1
100
AcDbLine
 10
329.5113874869953
 20
221.9440129313373
 30
0.0
 11
323.7563374869941
 21
221.9440129313373
 31
0.0
  0
LINE
  5
994
330
1F
100
AcDbEntity
  8
CLASS1
100
AcDbLine
 10
329.5113874869953
 20
221.9440129313373
 30
0.0
 11
323.7563374869941
 21
221.9440129313373
 31
0.0
  0
ARC
  5
995
330
1F
100
AcDbEntity
  8
CLASS1
100
AcDbCircle
 10
323.0003954869953
 20
220.7004489313377
 30
0.0
 40
1.4553
100
AcDbArc
 50
348.1402210000033
 51
58.70528200000129
  0
ARC
  5
996
330
1F
100
AcDbEntity
  8
CLASS1
100
AcDbCircle
 10
323.0003954869953
 20
220.7004489313377
 30
0.0
 40
1.4553
100
AcDbArc
 50
348.1402210000033
 51
58.70528200000129
  0
LINE
  5
997
330
1F
100
AcDbEntity
  8
CLASS1
100
AcDbLine
 10
326.7330874869953
 20
208.7140129313374
 30
0.0
 11
321.9702874869945
 21
208.7140129313374
 31
0.0
  0
LINE
  5
998
330
1F
100
AcDbEntity
  8
CLASS1
100
AcDbLine
 10
326.7330874869953
 20
208.7140129313374
 30
0.0
 11
321.9702874869945
 21
208.7140129313374
 31
0.0
  0
ARC
  5
999
330
1F
100
AcDbEntity
  8
CLASS1
100
AcDbCircle
 10
334.4485624869944
 20
139.8290129313373
 30
0.0
 40
1.0
100
AcDbArc
 50
268.6980469999989
 51
0.0
  0
LINE
  5
99A
330
1F
100
AcDbEntity
  8
CLASS1
100
AcDbLine
 10
325.9485624869944
 20
160.8290129313374
 30
0.0
 11
325.9485624869944
 21
154.8290129313373
 31
0.0
  0
LINE
  5
99B
330
1F
100
AcDbEntity
  8
CLASS1
100
AcDbLine
 10
326.9381684869945
 20
155.3290129313373
 30
0.0
 11
326.9381684869945
 21
160.3290129313373
 31
0.0
  0
LINE
  5
99C
330
1F
100
AcDbEntity
  8
CLASS1
100
AcDbLine
 10
328.9485624869944
 20
155.3290129313373
 30
0.0
 11
328.9485624869944
 21
160.3290129313373
 31
0.0
  0
LINE
  5
99D
330
1F
100
AcDbEntity
  8
CLASS1
100
AcDbLine
 10
329.4485624869944
 20
160.8290129313374
 30
0.0
 11
329.4485624869944
 21
154.8290129313373
 31
0.0
  0
LINE
  5
99E
330
1F
100
AcDbEntity
  8
CLASS1
100
AcDbLine
 10
329.4485624869944
 20
155.3290129313373
 30
0.0
 11
329.4485624869944
 21
160.3290129313373
 31
0.0
  0
LINE
  5
99F
330
1F
100
AcDbEntity
  8
CLASS1
100
AcDbLine
 10
325.9485624869944
 20
154.8290129313373
 30
0.0
 11
329.4485624869944
 21
154.8290129313373
 31
0.0
  0
LINE
  5
9A0
330
1F
100
AcDbEntity
  8
CLASS1
100
AcDbLine
 10
325.9485624869944
 20
160.8290129313374
 30
0.0
 11
329.4485624869944
 21
160.8290129313374
 31
0.0
  0
LINE
  5
9A1
330
1F
100
AcDbEntity
  8
CLASS1
100
AcDbLine
 10
326.9381684869945
 20
160.3290129313373
 30
0.0
 11
329.4485624869944
 21
160.3290129313373
 31
0.0
  0
LINE
  5
9A2
330
1F
100
AcDbEntity
  8
CLASS1
100
AcDbLine
 10
329.4485624869944
 20
155.3290129313373
 30
0.0
 11
326.9381684869945
 21
155.3290129313373
 31
0.0
  0
LINE
  5
9A3
330
1F
100
AcDbEntity
  8
CLASS1
100
AcDbLine
 10
334.4485624869944
 20
126.8290129313373
 30
0.0
 11
336.9485624869944
 21
126.8290129313373
 31
0.0
  0
LINE
  5
9A4
330
1F
100
AcDbEntity
  8
0
100
AcDbLine
 10
334.4485624869944
 20
126.8290129313373
 30
0.0
 11
334.4485624869944
 21
133.8274639313373
 31
0.0
  0
LINE
  5
9A5
330
1F
100
AcDbEntity
  8
CLASS1
  6
CONTINUOUS
 62
     0
100
AcDbLine
 10
163.9740569001915
 20
35.10000215355842
 30
0.0
 11
163.9740569001915
 21
33.10000215355842
 31
0.0
  0
LINE
  5
9A6
330
1F
100
AcDbEntity
  8
CLASS1
  6
CONTINUOUS
 62
     0
100
AcDbLine
 10
162.4740569001914
 20
35.10000215355842
 30
0.0
 11
162.4740569001914
 21
33.10000215355842
 31
0.0
  0
LINE
  5
9A7
330
1F
100
AcDbEntity
  8
CLASS1
  6
CONTINUOUS
 62
     0
100
AcDbLine
 10
175.4740569001915
 20
35.90000215355814
 30
0.0
 11
175.4740569001915
 21
25.90000215355814
 31
0.0
  0
LINE
  5
9A8
330
1F
100
AcDbEntity
  8
CLASS1
  6
CONTINUOUS
 62
     0
100
AcDbLine
 10
165.4740569001915
 20
25.90000215355814
 30
0.0
 11
165.4740569001915
 21
35.90000215355814
 31
0.0
  0
LINE
  5
9A9
330
1F
100
AcDbEntity
  8
CLASS1
  6
CONTINUOUS
 62
     0
100
AcDbLine
 10
166.9740569001914
 20
27.90000215355814
 30
0.0
 11
166.9740569001914
 21
33.90000215355815
 31
0.0
  0
LINE
  5
9AA
330
1F
100
AcDbEntity
  8
CLASS1
  6
CONTINUOUS
 62
     0
100
AcDbLine
 10
173.9740569001915
 20
33.90000215355815
 30
0.0
 11
173.9740569001915
 21
27.90000215355814
 31
0.0
  0
LINE
  5
9AB
330
1F
100
AcDbEntity
  8
CLASS1
  6
CONTINUOUS
 62
     0
100
AcDbLine
 10
185.0589319001915
 20
61.960128153558
 30
0.0
 11
185.9744579001903
 21
2.515401153558286
 31
0.0
  0
LINE
  5
9AC
330
1F
100
AcDbEntity
  8
CLASS1
  6
CONTINUOUS
 62
     0
100
AcDbLine
 10
151.8891809001902
 20
61.960128153558
 30
0.0
 11
150.9736559001912
 21
2.515401153558286
 31
0.0
  0
LINE
  5
9AD
330
1F
100
AcDbEntity
  8
CLASS1
  6
CONTINUOUS
 62
     0
100
AcDbLine
 10
178.5604879001903
 20
61.79658715355845
 30
0.0
 11
179.4737319001915
 21
2.500002153558284
 31
0.0
  0
LINE
  5
9AE
330
1F
100
AcDbEntity
  8
CLASS1
  6
CONTINUOUS
 62
     0
100
AcDbLine
 10
158.3876569001904
 20
61.79859715355803
 30
0.0
 11
157.4743819001914
 21
2.500002153558284
 31
0.0
  0
LINE
  5
9AF
330
1F
100
AcDbEntity
  8
CLASS1
  6
CONTINUOUS
 62
     0
100
AcDbLine
 10
182.9779553219982
 20
68.19007457967882
 30
0.0
 11
183.9742659001913
 21
2.500002153558284
 31
0.0
  0
LINE
  5
9B0
330
1F
100
AcDbEntity
  8
CLASS1
  6
CONTINUOUS
 62
     0
100
AcDbLine
 10
153.9701584783833
 20
68.19007557967882
 30
0.0
 11
152.9738479001912
 21
2.500002153558284
 31
0.0
  0
INSERT
  5
9B1
330
1F
100
AcDbEntity
  8
0
100
AcDbBlockReference
  2
A$C51C20FFB
 10
152.9742659001913
 20
0.0000034908803173
 30
0.0
  0
LINE
  5
9B2
330
1F
100
AcDbEntity
  8
CLASS1
  6
CONTINUOUS
 62
     0
100
AcDbLine
 10
152.9738479001912
 20
2.500002153558284
 30
0.0
 11
183.9742659001913
 21
2.500002153558284
 31
0.0
  0
LINE
  5
9B3
330
1F
100
AcDbEntity
  8
CLASS1
  6
CONTINUOUS
 62
     0
100
AcDbLine
 10
183.9742659001913
 20
1.500002153558284
 30
0.0
 11
184.9745769001915
 21
1.500002153558284
 31
0.0
  0
ARC
  5
9B4
330
1F
100
AcDbEntity
  8
CLASS1
  6
CONTINUOUS
 62
     0
100
AcDbCircle
 10
184.9745769001915
 20
2.500002153558511
 30
0.0
 40
1.0
100
AcDbArc
 50
270.0
 51
0.8823590000054707
  0
LINE
  5
9B5
330
1F
100
AcDbEntity
  8
CLASS1
  6
CONTINUOUS
 62
     0
100
AcDbLine
 10
183.9742659001913
 20
1.500002153558284
 30
0.0
 11
183.9742659001913
 21
2.500002153558284
 31
0.0
  0
LINE
  5
9B6
330
1F
100
AcDbEntity
  8
CLASS1
  6
CONTINUOUS
 62
     0
100
AcDbLine
 10
173.4740569001915
 20
27.40000215355815
 30
0.0
 11
167.4740569001914
 21
27.40000215355815
 31
0.0
  0
LINE
  5
9B7
330
1F
100
AcDbEntity
  8
CLASS1
  6
CONTINUOUS
 62
     0
100
AcDbLine
 10
175.4740569001915
 20
25.90000215355814
 30
0.0
 11
165.4740569001915
 21
25.90000215355814
 31
0.0
  0
LINE
  5
9B8
330
1F
100
AcDbEntity
  8
CLASS1
  6
CONTINUOUS
 62
     0
100
AcDbLine
 10
174.4740569001915
 20
23.10000215355842
 30
0.0
 11
162.4740569001914
 21
23.10000215355842
 31
0.0
  0
LINE
  5
9B9
330
1F
100
AcDbEntity
  8
CLASS1
  6
CONTINUOUS
 62
     0
100
AcDbLine
 10
162.4740569001914
 20
21.10000215355842
 30
0.0
 11
174.4740569001915
 21
21.10000215355842
 31
0.0
  0
LINE
  5
9BA
330
1F
100
AcDbEntity
  8
CLASS1
  6
CONTINUOUS
 62
     0
100
AcDbLine
 10
174.4740569001915
 20
19.10000215355819
 30
0.0
 11
162.4740569001914
 21
19.10000215355819
 31
0.0
  0
LINE
  5
9BB
330
1F
100
AcDbEntity
  8
CLASS1
  6
CONTINUOUS
 62
     0
100
AcDbLine
 10
162.4740569001914
 20
17.10000215355842
 30
0.0
 11
174.4740569001915
 21
17.10000215355842
 31
0.0
  0
LINE
  5
9BC
330
1F
100
AcDbEntity
  8
CLASS1
  6
CONTINUOUS
 62
     0
100
AcDbLine
 10
174.4740569001915
 20
11.10000215355819
 30
0.0
 11
162.4740569001914
 21
11.10000215355819
 31
0.0
  0
LINE
  5
9BD
330
1F
100
AcDbEntity
  8
CLASS1
  6
CONTINUOUS
 62
     0
100
AcDbLine
 10
162.4740569001914
 20
13.10000215355842
 30
0.0
 11
174.4740569001915
 21
13.10000215355842
 31
0.0
  0
LINE
  5
9BE
330
1F
100
AcDbEntity
  8
CLASS1
  6
CONTINUOUS
 62
     0
100
AcDbLine
 10
174.4740569001915
 20
15.10000215355819
 30
0.0
 11
162.4740569001914
 21
15.10000215355819
 31
0.0
  0
LINE
  5
9BF
330
1F
100
AcDbEntity
  8
CLASS1
  6
CONTINUOUS
 62
     0
100
AcDbLine
 10
162.4740569001914
 20
9.100002153558421
 30
0.0
 11
174.4740569001915
 21
9.100002153558421
 31
0.0
  0
LINE
  5
9C0
330
1F
100
AcDbEntity
  8
CLASS1
  6
CONTINUOUS
 62
     0
100
AcDbLine
 10
174.4740569001915
 20
17.10000215355842
 30
0.0
 11
174.4740569001915
 21
19.10000215355819
 31
0.0
  0
LINE
  5
9C1
330
1F
100
AcDbEntity
  8
CLASS1
  6
CONTINUOUS
 62
     0
100
AcDbLine
 10
174.4740569001915
 20
13.10000215355842
 30
0.0
 11
174.4740569001915
 21
15.10000215355819
 31
0.0
  0
LINE
  5
9C2
330
1F
100
AcDbEntity
  8
CLASS1
  6
CONTINUOUS
 62
     0
100
AcDbLine
 10
174.4740569001915
 20
9.100002153558421
 30
0.0
 11
174.4740569001915
 21
11.10000215355819
 31
0.0
  0
LINE
  5
9C3
330
1F
100
AcDbEntity
  8
CLASS1
  6
CONTINUOUS
 62
     0
100
AcDbLine
 10
175.4740569001915
 20
30.15000215355815
 30
0.0
 11
173.9740569001915
 21
30.15000215355815
 31
0.0
  0
LINE
  5
9C4
330
1F
100
AcDbEntity
  8
CLASS1
  6
CONTINUOUS
 62
     0
100
AcDbLine
 10
175.4740569001915
 20
31.65000215355814
 30
0.0
 11
173.9740569001915
 21
31.65000215355814
 31
0.0
  0
ARC
  5
9C5
330
1F
100
AcDbEntity
  8
CLASS1
  6
CONTINUOUS
 62
     0
100
AcDbCircle
 10
173.4740569001915
 20
27.90000215355837
 30
0.0
 40
0.5
100
AcDbArc
 50
270.0
 51
0.0
  0
LINE
  5
9C6
330
1F
100
AcDbEntity
  8
CLASS1
  6
CONTINUOUS
 62
     0
100
AcDbLine
 10
174.4740569001915
 20
21.10000215355842
 30
0.0
 11
174.4740569001915
 21
23.10000215355842
 31
0.0
  0
LINE
  5
9C7
330
1F
100
AcDbEntity
  8
CLASS1
  6
CONTINUOUS
 62
     0
100
AcDbLine
 10
162.4740569001914
 20
19.10000215355819
 30
0.0
 11
162.4740569001914
 21
17.10000215355842
 31
0.0
  0
LINE
  5
9C8
330
1F
100
AcDbEntity
  8
CLASS1
  6
CONTINUOUS
 62
     0
100
AcDbLine
 10
162.4740569001914
 20
15.10000215355819
 30
0.0
 11
162.4740569001914
 21
13.10000215355842
 31
0.0
  0
LINE
  5
9C9
330
1F
100
AcDbEntity
  8
CLASS1
  6
CONTINUOUS
 62
     0
100
AcDbLine
 10
162.4740569001914
 20
11.10000215355819
 30
0.0
 11
162.4740569001914
 21
9.100002153558421
 31
0.0
  0
LINE
  5
9CA
330
1F
100
AcDbEntity
  8
CLASS1
  6
CONTINUOUS
 62
     0
100
AcDbLine
 10
162.4740569001914
 20
33.10000215355842
 30
0.0
 11
163.9740569001915
 21
33.10000215355842
 31
0.0
  0
LINE
  5
9CB
330
1F
100
AcDbEntity
  8
CLASS1
  6
CONTINUOUS
 62
     0
100
AcDbLine
 10
162.4740569001914
 20
31.10000215355842
 30
0.0
 11
162.4740569001914
 21
29.10000215355842
 31
0.0
  0
LINE
  5
9CC
330
1F
100
AcDbEntity
  8
CLASS1
  6
CONTINUOUS
 62
     0
100
AcDbLine
 10
163.9740569001915
 20
31.10000215355842
 30
0.0
 11
163.9740569001915
 21
29.10000215355842
 31
0.0
  0
LINE
  5
9CD
330
1F
100
AcDbEntity
  8
CLASS1
  6
CONTINUOUS
 62
     0
100
AcDbLine
 10
162.4740569001914
 20
29.10000215355842
 30
0.0
 11
163.9740569001915
 21
29.10000215355842
 31
0.0
  0
LINE
  5
9CE
330
1F
100
AcDbEntity
  8
CLASS1
  6
CONTINUOUS
 62
     0
100
AcDbLine
 10
163.9740569001915
 20
31.10000215355842
 30
0.0
 11
162.4740569001914
 21
31.10000215355842
 31
0.0
  0
LINE
  5
9CF
330
1F
100
AcDbEntity
  8
CLASS1
  6
CONTINUOUS
 62
     0
100
AcDbLine
 10
166.9740569001914
 20
30.15000215355815
 30
0.0
 11
165.4740569001915
 21
30.15000215355815
 31
0.0
  0
LINE
  5
9D0
330
1F
100
AcDbEntity
  8
CLASS1
  6
CONTINUOUS
 62
     0
100
AcDbLine
 10
166.9740569001914
 20
31.65000215355814
 30
0.0
 11
165.4740569001915
 21
31.65000215355814
 31
0.0
  0
ARC
  5
9D1
330
1F
100
AcDbEntity
  8
CLASS1
  6
CONTINUOUS
 62
     0
100
AcDbCircle
 10
167.4740569001914
 20
27.90000215355837
 30
0.0
 40
0.5
100
AcDbArc
 50
180.0
 51
270.0
  0
LINE
  5
9D2
330
1F
100
AcDbEntity
  8
CLASS1
  6
CONTINUOUS
 62
     0
100
AcDbLine
 10
162.4740569001914
 20
27.10000215355842
 30
0.0
 11
162.4740569001914
 21
25.10000215355842
 31
0.0
  0
LINE
  5
9D3
330
1F
100
AcDbEntity
  8
CLASS1
  6
CONTINUOUS
 62
     0
100
AcDbLine
 10
163.9740569001915
 20
27.10000215355842
 30
0.0
 11
163.9740569001915
 21
25.10000215355842
 31
0.0
  0
LINE
  5
9D4
330
1F
100
AcDbEntity
  8
CLASS1
  6
CONTINUOUS
 62
     0
100
AcDbLine
 10
163.9740569001915
 20
27.10000215355842
 30
0.0
 11
162.4740569001914
 21
27.10000215355842
 31
0.0
  0
LINE
  5
9D5
330
1F
100
AcDbEntity
  8
CLASS1
  6
CONTINUOUS
 62
     0
100
AcDbLine
 10
162.4740569001914
 20
25.10000215355842
 30
0.0
 11
163.9740569001915
 21
25.10000215355842
 31
0.0
  0
LINE
  5
9D6
330
1F
100
AcDbEntity
  8
CLASS1
  6
CONTINUOUS
 62
     0
100
AcDbLine
 10
162.4740569001914
 20
23.10000215355842
 30
0.0
 11
162.4740569001914
 21
21.10000215355842
 31
0.0
  0
LINE
  5
9D7
330
1F
100
AcDbEntity
  8
CLASS1
  6
CONTINUOUS
 62
     0
100
AcDbLine
 10
152.9738479001912
 20
1.500002153558284
 30
0.0
 11
151.9735379001913
 21
1.500002153558284
 31
0.0
  0
LINE
  5
9D8
330
1F
100
AcDbEntity
  8
CLASS1
  6
CONTINUOUS
 62
     0
100
AcDbLine
 10
152.9738479001912
 20
2.500002153558284
 30
0.0
 11
152.9738479001912
 21
1.500002153558284
 31
0.0
  0
ARC
  5
9D9
330
1F
100
AcDbEntity
  8
CLASS1
  6
CONTINUOUS
 62
     0
100
AcDbCircle
 10
151.9735379001913
 20
2.500002153558511
 30
0.0
 40
1.0
100
AcDbArc
 50
179.1176409999945
 51
270.0
  0
LINE
  5
9DA
330
1F
100
AcDbEntity
  8
CLASS1
  6
CONTINUOUS
 62
     0
100
AcDbLine
 10
184.0590499001914
 20
62.94472815355788
 30
0.0
 11
183.0433379001915
 21
62.94472815355788
 31
0.0
  0
ARC
  5
9DB
330
1F
100
AcDbEntity
  8
CLASS1
  6
CONTINUOUS
 62
     0
100
AcDbCircle
 10
184.0590499001914
 20
61.94472815355823
 30
0.0
 40
1.0
100
AcDbArc
 50
0.8823590000054707
 51
90.0
  0
ARC
  5
9DC
330
1F
100
AcDbEntity
  8
CLASS1
  6
CONTINUOUS
 62
     0
100
AcDbCircle
 10
160.3873879001912
 20
61.76578815355845
 30
0.0
 40
2.0
100
AcDbArc
 50
94.73325899998382
 51
179.1176409999945
  0
LINE
  5
9DD
330
1F
100
AcDbEntity
  8
CLASS1
  6
CONTINUOUS
 62
     0
100
AcDbLine
 10
162.4740569001914
 20
57.10000215355842
 30
0.0
 11
174.4740569001915
 21
57.10000215355842
 31
0.0
  0
LINE
  5
9DE
330
1F
100
AcDbEntity
  8
CLASS1
  6
CONTINUOUS
 62
     0
100
AcDbLine
 10
174.4740569001915
 20
59.10000215355842
 30
0.0
 11
162.4740569001914
 21
59.10000215355842
 31
0.0
  0
LINE
  5
9DF
330
1F
100
AcDbEntity
  8
CLASS1
  6
CONTINUOUS
 62
     0
100
AcDbLine
 10
174.4740569001915
 20
55.10000215355842
 30
0.0
 11
162.4740569001914
 21
55.10000215355842
 31
0.0
  0
LINE
  5
9E0
330
1F
100
AcDbEntity
  8
CLASS1
  6
CONTINUOUS
 62
     0
100
AcDbLine
 10
162.4740569001914
 20
53.10000215355842
 30
0.0
 11
174.4740569001915
 21
53.10000215355842
 31
0.0
  0
LINE
  5
9E1
330
1F
100
AcDbEntity
  8
CLASS1
  6
CONTINUOUS
 62
     0
100
AcDbLine
 10
174.4740569001915
 20
51.10000215355842
 30
0.0
 11
162.4740569001914
 21
51.10000215355842
 31
0.0
  0
LINE
  5
9E2
330
1F
100
AcDbEntity
  8
CLASS1
  6
CONTINUOUS
 62
     0
100
AcDbLine
 10
162.4740569001914
 20
49.10000215355842
 30
0.0
 11
174.4740569001915
 21
49.10000215355842
 31
0.0
  0
LINE
  5
9E3
330
1F
100
AcDbEntity
  8
CLASS1
  6
CONTINUOUS
 62
     0
100
AcDbLine
 10
174.4740569001915
 20
43.10000215355842
 30
0.0
 11
162.4740569001914
 21
43.10000215355842
 31
0.0
  0
LINE
  5
9E4
330
1F
100
AcDbEntity
  8
CLASS1
  6
CONTINUOUS
 62
     0
100
AcDbLine
 10
162.4740569001914
 20
45.10000215355842
 30
0.0
 11
174.4740569001915
 21
45.10000215355842
 31
0.0
  0
LINE
  5
9E5
330
1F
100
AcDbEntity
  8
CLASS1
  6
CONTINUOUS
 62
     0
100
AcDbLine
 10
174.4740569001915
 20
47.10000215355842
 30
0.0
 11
162.4740569001914
 21
47.10000215355842
 31
0.0
  0
LINE
  5
9E6
330
1F
100
AcDbEntity
  8
CLASS1
  6
CONTINUOUS
 62
     0
100
AcDbLine
 10
162.4740569001914
 20
41.10000215355841
 30
0.0
 11
174.4740569001915
 21
41.10000215355841
 31
0.0
  0
LINE
  5
9E7
330
1F
100
AcDbEntity
  8
CLASS1
  6
CONTINUOUS
 62
     0
100
AcDbLine
 10
165.4740569001915
 20
35.90000215355814
 30
0.0
 11
175.4740569001915
 21
35.90000215355814
 31
0.0
  0
LINE
  5
9E8
330
1F
100
AcDbEntity
  8
CLASS1
  6
CONTINUOUS
 62
     0
100
AcDbLine
 10
162.4740569001914
 20
37.10000215355842
 30
0.0
 11
174.4740569001915
 21
37.10000215355842
 31
0.0
  0
LINE
  5
9E9
330
1F
100
AcDbEntity
  8
CLASS1
  6
CONTINUOUS
 62
     0
100
AcDbLine
 10
174.4740569001915
 20
39.10000215355842
 30
0.0
 11
162.4740569001914
 21
39.10000215355842
 31
0.0
  0
LINE
  5
9EA
330
1F
100
AcDbEntity
  8
CLASS1
  6
CONTINUOUS
 62
     0
100
AcDbLine
 10
167.4740569001914
 20
34.40000215355814
 30
0.0
 11
173.4740569001915
 21
34.40000215355814
 31
0.0
  0
LINE
  5
9EB
330
1F
100
AcDbEntity
  8
CLASS1
  6
CONTINUOUS
 62
     0
100
AcDbLine
 10
174.4740569001915
 20
45.10000215355842
 30
0.0
 11
174.4740569001915
 21
47.10000215355842
 31
0.0
  0
LINE
  5
9EC
330
1F
100
AcDbEntity
  8
CLASS1
  6
CONTINUOUS
 62
     0
100
AcDbLine
 10
174.4740569001915
 20
37.10000215355842
 30
0.0
 11
174.4740569001915
 21
39.10000215355842
 31
0.0
  0
ARC
  5
9ED
330
1F
100
AcDbEntity
  8
CLASS1
  6
CONTINUOUS
 62
     0
100
AcDbCircle
 10
173.4740569001915
 20
33.90000215355837
 30
0.0
 40
0.5
100
AcDbArc
 50
0.0
 51
90.0
  0
LINE
  5
9EE
330
1F
100
AcDbEntity
  8
CLASS1
  6
CONTINUOUS
 62
     0
100
AcDbLine
 10
174.4740569001915
 20
41.10000215355841
 30
0.0
 11
174.4740569001915
 21
43.10000215355842
 31
0.0
  0
LINE
  5
9EF
330
1F
100
AcDbEntity
  8
CLASS1
  6
CONTINUOUS
 62
     0
100
AcDbLine
 10
174.4740569001915
 20
57.10000215355842
 30
0.0
 11
174.4740569001915
 21
59.10000215355842
 31
0.0
  0
LINE
  5
9F0
330
1F
100
AcDbEntity
  8
CLASS1
  6
CONTINUOUS
 62
     0
100
AcDbLine
 10
174.4740569001915
 20
49.10000215355842
 30
0.0
 11
174.4740569001915
 21
51.10000215355842
 31
0.0
  0
LINE
  5
9F1
330
1F
100
AcDbEntity
  8
CLASS1
  6
CONTINUOUS
 62
     0
100
AcDbLine
 10
174.4740569001915
 20
53.10000215355842
 30
0.0
 11
174.4740569001915
 21
55.10000215355842
 31
0.0
  0
LINE
  5
9F2
330
1F
100
AcDbEntity
  8
CLASS1
  6
CONTINUOUS
 62
     0
100
AcDbLine
 10
162.4740569001914
 20
47.10000215355842
 30
0.0
 11
162.4740569001914
 21
45.10000215355842
 31
0.0
  0
LINE
  5
9F3
330
1F
100
AcDbEntity
  8
CLASS1
  6
CONTINUOUS
 62
     0
100
AcDbLine
 10
162.4740569001914
 20
39.10000215355842
 30
0.0
 11
162.4740569001914
 21
37.10000215355842
 31
0.0
  0
ARC
  5
9F4
330
1F
100
AcDbEntity
  8
CLASS1
  6
CONTINUOUS
 62
     0
100
AcDbCircle
 10
167.4740569001914
 20
33.90000215355837
 30
0.0
 40
0.5
100
AcDbArc
 50
90.0
 51
180.0
  0
LINE
  5
9F5
330
1F
100
AcDbEntity
  8
CLASS1
  6
CONTINUOUS
 62
     0
100
AcDbLine
 10
163.9740569001915
 20
35.10000215355842
 30
0.0
 11
162.4740569001914
 21
35.10000215355842
 31
0.0
  0
LINE
  5
9F6
330
1F
100
AcDbEntity
  8
CLASS1
  6
CONTINUOUS
 62
     0
100
AcDbLine
 10
162.4740569001914
 20
43.10000215355842
 30
0.0
 11
162.4740569001914
 21
41.10000215355841
 31
0.0
  0
LINE
  5
9F7
330
1F
100
AcDbEntity
  8
CLASS1
  6
CONTINUOUS
 62
     0
100
AcDbLine
 10
162.4740569001914
 20
59.10000215355842
 30
0.0
 11
162.4740569001914
 21
57.10000215355842
 31
0.0
  0
LINE
  5
9F8
330
1F
100
AcDbEntity
  8
CLASS1
  6
CONTINUOUS
 62
     0
100
AcDbLine
 10
162.4740569001914
 20
51.10000215355842
 30
0.0
 11
162.4740569001914
 21
49.10000215355842
 31
0.0
  0
LINE
  5
9F9
330
1F
100
AcDbEntity
  8
CLASS1
  6
CONTINUOUS
 62
     0
100
AcDbLine
 10
162.4740569001914
 20
55.10000215355842
 30
0.0
 11
162.4740569001914
 21
53.10000215355842
 31
0.0
  0
ARC
  5
9FA
330
1F
100
AcDbEntity
  8
CLASS1
  6
CONTINUOUS
 62
     0
100
AcDbCircle
 10
168.4740569001915
 20
-35.89999784644158
 30
0.0
 40
100.0
100
AcDbArc
 50
85.26674100001619
 51
94.73325899998382
  0
ARC
  5
9FB
330
1F
100
AcDbEntity
  8
CLASS1
  6
CONTINUOUS
 62
     0
100
AcDbCircle
 10
176.5607239001915
 20
61.76578915355844
 30
0.0
 40
2.0
100
AcDbArc
 50
0.8823600000016778
 51
85.26674100001619
  0
LINE
  5
9FC
330
1F
100
AcDbEntity
  8
CLASS1
  6
CONTINUOUS
 62
     0
100
AcDbLine
 10
152.8890629001912
 20
62.94472815355788
 30
0.0
 11
153.9047739001912
 21
62.94472815355788
 31
0.0
  0
ARC
  5
9FD
330
1F
100
AcDbEntity
  8
CLASS1
  6
CONTINUOUS
 62
     0
100
AcDbCircle
 10
152.8890629001912
 20
61.94472815355823
 30
0.0
 40
1.0
100
AcDbArc
 50
90.0
 51
179.1176409999945
  0
LINE
  5
9FE
330
1F
100
AcDbEntity
  8
CLASS1
  6
CONTINUOUS
 62
     0
100
AcDbLine
 10
152.9738487728504
 20
435.3181827534807
 30
0.0
 11
183.9742667728505
 21
435.3181827534807
 31
0.0
  0
INSERT
  5
9FF
330
1F
100
AcDbEntity
  8
0
100
AcDbBlockReference
  2
A$C51C20FFB
 10
183.9742667728505
 20
438.8181814161588
 30
0.0
 50
180.0
  0
LINE
  5
A00
330
1F
100
AcDbEntity
  8
CLASS1
  6
CONTINUOUS
 62
     0
100
AcDbLine
 10
178.5604897728508
 20
376.0215977534808
 30
0.0
 11
179.4737327728507
 21
435.3181827534807
 31
0.0
  0
LINE
  5
A01
330
1F
100
AcDbEntity
  8
CLASS1
  6
CONTINUOUS
 62
     0
100
AcDbLine
 10
185.0589337728511
 20
375.8580567534808
 30
0.0
 11
185.9744587728514
 21
435.3027837534808
 31
0.0
  0
LINE
  5
A02
330
1F
100
AcDbEntity
  8
CLASS1
  6
CONTINUOUS
 62
     0
100
AcDbLine
 10
182.9779567728505
 20
370.6281087534811
 30
0.0
 11
183.9742667728505
 21
435.3181827534807
 31
0.0
  0
ARC
  5
A03
330
1F
100
AcDbEntity
  8
CLASS1
  6
CONTINUOUS
 62
     0
100
AcDbCircle
 10
184.0590517728505
 20
375.8734567534811
 30
0.0
 40
1.0
100
AcDbArc
 50
270.0
 51
359.1176409999945
  0
LINE
  5
A04
330
1F
100
AcDbEntity
  8
CLASS1
  6
CONTINUOUS
 62
     0
100
AcDbLine
 10
184.0590517728505
 20
374.8734567534811
 30
0.0
 11
183.0433397728511
 21
374.8734567534811
 31
0.0
  0
ARC
  5
A05
330
1F
100
AcDbEntity
  8
CLASS1
  6
CONTINUOUS
 62
     0
100
AcDbCircle
 10
184.9745777728507
 20
435.3181827534807
 30
0.0
 40
1.0
100
AcDbArc
 50
359.1176409999945
 51
90.0
  0
LINE
  5
A06
330
1F
100
AcDbEntity
  8
CLASS1
  6
CONTINUOUS
 62
     0
100
AcDbLine
 10
183.9742667728505
 20
436.3181827534807
 30
0.0
 11
183.9742667728505
 21
435.3181827534807
 31
0.0
  0
LINE
  5
A07
330
1F
100
AcDbEntity
  8
CLASS1
  6
CONTINUOUS
 62
     0
100
AcDbLine
 10
183.9742667728505
 20
436.3181827534807
 30
0.0
 11
184.9745777728507
 21
436.3181827534807
 31
0.0
  0
LINE
  5
A08
330
1F
100
AcDbEntity
  8
CLASS1
  6
CONTINUOUS
 62
     0
100
AcDbLine
 10
162.4740577728507
 20
391.7181827534808
 30
0.0
 11
162.4740577728507
 21
393.7181827534808
 31
0.0
  0
LINE
  5
A09
330
1F
100
AcDbEntity
  8
CLASS1
  6
CONTINUOUS
 62
     0
100
AcDbLine
 10
174.4740577728507
 20
393.7181827534808
 30
0.0
 11
174.4740577728507
 21
391.7181827534808
 31
0.0
  0
LINE
  5
A0A
330
1F
100
AcDbEntity
  8
CLASS1
  6
CONTINUOUS
 62
     0
100
AcDbLine
 10
151.8891827728511
 20
375.8580567534808
 30
0.0
 11
150.9736567728514
 21
435.3027837534808
 31
0.0
  0
LINE
  5
A0B
330
1F
100
AcDbEntity
  8
CLASS1
  6
CONTINUOUS
 62
     0
100
AcDbLine
 10
158.3876277728513
 20
376.0215977534808
 30
0.0
 11
157.4743827728507
 21
435.3181827534807
 31
0.0
  0
LINE
  5
A0C
330
1F
100
AcDbEntity
  8
CLASS1
  6
CONTINUOUS
 62
     0
100
AcDbLine
 10
153.9701867728513
 20
370.6264297534808
 30
0.0
 11
152.9738487728504
 21
435.3181827534807
 31
0.0
  0
ARC
  5
A0D
330
1F
100
AcDbEntity
  8
CLASS1
  6
CONTINUOUS
 62
     0
100
AcDbCircle
 10
160.3873907728507
 20
376.0523957534808
 30
0.0
 40
2.0
100
AcDbArc
 50
180.8823600000016
 51
265.2667409999902
  0
LINE
  5
A0E
330
1F
100
AcDbEntity
  8
CLASS1
  6
CONTINUOUS
 62
     0
100
AcDbLine
 10
174.4740577728507
 20
391.7181827534808
 30
0.0
 11
162.4740577728507
 21
391.7181827534808
 31
0.0
  0
LINE
  5
A0F
330
1F
100
AcDbEntity
  8
CLASS1
  6
CONTINUOUS
 62
     0
100
AcDbLine
 10
174.4740577728507
 20
387.7181827534808
 30
0.0
 11
162.4740577728507
 21
387.7181827534808
 31
0.0
  0
LINE
  5
A10
330
1F
100
AcDbEntity
  8
CLASS1
  6
CONTINUOUS
 62
     0
100
AcDbLine
 10
162.4740577728507
 20
389.7181827534808
 30
0.0
 11
174.4740577728507
 21
389.7181827534808
 31
0.0
  0
LINE
  5
A11
330
1F
100
AcDbEntity
  8
CLASS1
  6
CONTINUOUS
 62
     0
100
AcDbLine
 10
162.4740577728507
 20
385.7181827534808
 30
0.0
 11
174.4740577728507
 21
385.7181827534808
 31
0.0
  0
LINE
  5
A12
330
1F
100
AcDbEntity
  8
CLASS1
  6
CONTINUOUS
 62
     0
100
AcDbLine
 10
174.4740577728507
 20
383.7181827534808
 30
0.0
 11
162.4740577728507
 21
383.7181827534808
 31
0.0
  0
LINE
  5
A13
330
1F
100
AcDbEntity
  8
CLASS1
  6
CONTINUOUS
 62
     0
100
AcDbLine
 10
162.4740577728507
 20
381.7181827534808
 30
0.0
 11
174.4740577728507
 21
381.7181827534808
 31
0.0
  0
LINE
  5
A14
330
1F
100
AcDbEntity
  8
CLASS1
  6
CONTINUOUS
 62
     0
100
AcDbLine
 10
174.4740577728507
 20
379.7181827534808
 30
0.0
 11
162.4740577728507
 21
379.7181827534808
 31
0.0
  0
ARC
  5
A15
330
1F
100
AcDbEntity
  8
CLASS1
  6
CONTINUOUS
 62
     0
100
AcDbCircle
 10
168.4740577728512
 20
473.71818275348
 30
0.0
 40
100.0
100
AcDbArc
 50
265.2667409999902
 51
274.7332589999838
  0
ARC
  5
A16
330
1F
100
AcDbEntity
  8
CLASS1
  6
CONTINUOUS
 62
     0
100
AcDbCircle
 10
176.5607267728505
 20
376.0523967534808
 30
0.0
 40
2.0
100
AcDbArc
 50
274.7332589999838
 51
359.1176409999945
  0
LINE
  5
A17
330
1F
100
AcDbEntity
  8
CLASS1
  6
CONTINUOUS
 62
     0
100
AcDbLine
 10
174.4740577728507
 20
389.7181827534808
 30
0.0
 11
174.4740577728507
 21
387.7181827534808
 31
0.0
  0
LINE
  5
A18
330
1F
100
AcDbEntity
  8
CLASS1
  6
CONTINUOUS
 62
     0
100
AcDbLine
 10
174.4740577728507
 20
385.7181827534808
 30
0.0
 11
174.4740577728507
 21
383.7181827534808
 31
0.0
  0
LINE
  5
A19
330
1F
100
AcDbEntity
  8
CLASS1
  6
CONTINUOUS
 62
     0
100
AcDbLine
 10
174.4740577728507
 20
381.7181827534808
 30
0.0
 11
174.4740577728507
 21
379.7181827534808
 31
0.0
  0
LINE
  5
A1A
330
1F
100
AcDbEntity
  8
CLASS1
  6
CONTINUOUS
 62
     0
100
AcDbLine
 10
162.4740577728507
 20
387.7181827534808
 30
0.0
 11
162.4740577728507
 21
389.7181827534808
 31
0.0
  0
LINE
  5
A1B
330
1F
100
AcDbEntity
  8
CLASS1
  6
CONTINUOUS
 62
     0
100
AcDbLine
 10
162.4740577728507
 20
383.7181827534808
 30
0.0
 11
162.4740577728507
 21
385.7181827534808
 31
0.0
  0
LINE
  5
A1C
330
1F
100
AcDbEntity
  8
CLASS1
  6
CONTINUOUS
 62
     0
100
AcDbLine
 10
162.4740577728507
 20
379.7181827534808
 30
0.0
 11
162.4740577728507
 21
381.7181827534808
 31
0.0
  0
ARC
  5
A1D
330
1F
100
AcDbEntity
  8
CLASS1
  6
CONTINUOUS
 62
     0
100
AcDbCircle
 10
152.8890647728508
 20
375.8734567534811
 30
0.0
 40
1.0
100
AcDbArc
 50
180.8823590000054
 51
270.0
  0
LINE
  5
A1E
330
1F
100
AcDbEntity
  8
CLASS1
  6
CONTINUOUS
 62
     0
100
AcDbLine
 10
152.8890647728512
 20
374.8734567534811
 30
0.0
 11
153.9047757728512
 21
374.8734567534811
 31
0.0
  0
LINE
  5
A1F
330
1F
100
AcDbEntity
  8
CLASS1
  6
CONTINUOUS
 62
     0
100
AcDbLine
 10
162.4740577728507
 20
421.7181827534808
 30
0.0
 11
174.4740577728507
 21
421.7181827534808
 31
0.0
  0
LINE
  5
A20
330
1F
100
AcDbEntity
  8
CLASS1
  6
CONTINUOUS
 62
     0
100
AcDbLine
 10
174.4740577728507
 20
419.7181827534808
 30
0.0
 11
162.4740577728507
 21
419.7181827534808
 31
0.0
  0
LINE
  5
A21
330
1F
100
AcDbEntity
  8
CLASS1
  6
CONTINUOUS
 62
     0
100
AcDbLine
 10
162.4740577728507
 20
417.7181827534808
 30
0.0
 11
174.4740577728507
 21
417.7181827534808
 31
0.0
  0
LINE
  5
A22
330
1F
100
AcDbEntity
  8
CLASS1
  6
CONTINUOUS
 62
     0
100
AcDbLine
 10
174.4740577728507
 20
415.7181827534808
 30
0.0
 11
162.4740577728507
 21
415.7181827534808
 31
0.0
  0
LINE
  5
A23
330
1F
100
AcDbEntity
  8
CLASS1
  6
CONTINUOUS
 62
     0
100
AcDbLine
 10
168.9490577728511
 20
410.8681827534808
 30
0.0
 11
164.7990577728505
 21
410.8681827534808
 31
0.0
  0
LINE
  5
A24
330
1F
100
AcDbEntity
  8
CLASS1
  6
CONTINUOUS
 62
     0
100
AcDbLine
 10
169.5740577728506
 20
404.1181827534808
 30
0.0
 11
167.8740577728513
 21
404.1181827534808
 31
0.0
  0
LINE
  5
A25
330
1F
100
AcDbEntity
  8
CLASS1
  6
CONTINUOUS
 62
     0
100
AcDbLine
 10
169.5740577728506
 20
405.3181827534807
 30
0.0
 11
167.8740577728513
 21
405.3181827534807
 31
0.0
  0
LINE
  5
A26
330
1F
100
AcDbEntity
  8
CLASS1
  6
CONTINUOUS
 62
     0
100
AcDbLine
 10
168.9490577728511
 20
398.5681827534807
 30
0.0
 11
164.7990577728505
 21
398.5681827534807
 31
0.0
  0
LINE
  5
A27
330
1F
100
AcDbEntity
  8
CLASS1
  6
CONTINUOUS
 62
     0
100
AcDbLine
 10
162.4740577728507
 20
413.7181827534808
 30
0.0
 11
174.4740577728507
 21
413.7181827534808
 31
0.0
  0
LINE
  5
A28
330
1F
100
AcDbEntity
  8
CLASS1
  6
CONTINUOUS
 62
     0
100
AcDbLine
 10
162.4740577728507
 20
412.7181827534808
 30
0.0
 11
171.3740577728513
 21
412.7181827534808
 31
0.0
  0
LINE
  5
A29
330
1F
100
AcDbEntity
  8
CLASS1
  6
CONTINUOUS
 62
     0
100
AcDbLine
 10
171.3740577728513
 20
396.7181827534808
 30
0.0
 11
162.4740577728507
 21
396.7181827534808
 31
0.0
  0
LINE
  5
A2A
330
1F
100
AcDbEntity
  8
CLASS1
  6
CONTINUOUS
 62
     0
100
AcDbLine
 10
174.4740577728507
 20
395.7181827534808
 30
0.0
 11
162.4740577728507
 21
395.7181827534808
 31
0.0
  0
LINE
  5
A2B
330
1F
100
AcDbEntity
  8
CLASS1
  6
CONTINUOUS
 62
     0
100
AcDbLine
 10
162.4740577728507
 20
393.7181827534808
 30
0.0
 11
174.4740577728507
 21
393.7181827534808
 31
0.0
  0
LINE
  5
A2C
330
1F
100
AcDbEntity
  8
CLASS1
  6
CONTINUOUS
 62
     0
100
AcDbLine
 10
169.5740577728506
 20
399.8181827534807
 30
0.0
 11
169.5740577728506
 21
409.6181827534809
 31
0.0
  0
LINE
  5
A2D
330
1F
100
AcDbEntity
  8
CLASS1
  6
CONTINUOUS
 62
     0
100
AcDbLine
 10
171.3740577728513
 20
409.7181827534808
 30
0.0
 11
171.3740577728513
 21
407.7181827534808
 31
0.0
  0
LINE
  5
A2E
330
1F
100
AcDbEntity
  8
CLASS1
  6
CONTINUOUS
 62
     0
100
AcDbLine
 10
174.4740577728507
 20
409.7181827534808
 30
0.0
 11
174.4740577728507
 21
407.7181827534808
 31
0.0
  0
LINE
  5
A2F
330
1F
100
AcDbEntity
  8
CLASS1
  6
CONTINUOUS
 62
     0
100
AcDbLine
 10
168.9490577728511
 20
398.5681827534807
 30
0.0
 11
168.9490577728511
 21
399.8181827534807
 31
0.0
  0
LINE
  5
A30
330
1F
100
AcDbEntity
  8
CLASS1
  6
CONTINUOUS
 62
     0
100
AcDbLine
 10
169.5740577728506
 20
399.8181827534807
 30
0.0
 11
168.9490577728511
 21
399.8181827534807
 31
0.0
  0
LINE
  5
A31
330
1F
100
AcDbEntity
  8
CLASS1
  6
CONTINUOUS
 62
     0
100
AcDbLine
 10
174.4740577728507
 20
407.7181827534808
 30
0.0
 11
171.3740577728513
 21
407.7181827534808
 31
0.0
  0
LINE
  5
A32
330
1F
100
AcDbEntity
  8
CLASS1
  6
CONTINUOUS
 62
     0
100
AcDbLine
 10
174.4740577728507
 20
403.7181827534808
 30
0.0
 11
171.3740577728513
 21
403.7181827534808
 31
0.0
  0
LINE
  5
A33
330
1F
100
AcDbEntity
  8
CLASS1
  6
CONTINUOUS
 62
     0
100
AcDbLine
 10
171.3740577728513
 20
405.7181827534808
 30
0.0
 11
171.3740577728513
 21
403.7181827534808
 31
0.0
  0
LINE
  5
A34
330
1F
100
AcDbEntity
  8
CLASS1
  6
CONTINUOUS
 62
     0
100
AcDbLine
 10
174.4740577728507
 20
405.7181827534808
 30
0.0
 11
174.4740577728507
 21
403.7181827534808
 31
0.0
  0
LINE
  5
A35
330
1F
100
AcDbEntity
  8
CLASS1
  6
CONTINUOUS
 62
     0
100
AcDbLine
 10
171.3740577728513
 20
405.7181827534808
 30
0.0
 11
174.4740577728507
 21
405.7181827534808
 31
0.0
  0
LINE
  5
A36
330
1F
100
AcDbEntity
  8
CLASS1
  6
CONTINUOUS
 62
     0
100
AcDbLine
 10
174.4740577728507
 20
401.7181827534808
 30
0.0
 11
174.4740577728507
 21
399.7181827534808
 31
0.0
  0
LINE
  5
A37
330
1F
100
AcDbEntity
  8
CLASS1
  6
CONTINUOUS
 62
     0
100
AcDbLine
 10
171.3740577728513
 20
401.7181827534808
 30
0.0
 11
171.3740577728513
 21
399.7181827534808
 31
0.0
  0
LINE
  5
A38
330
1F
100
AcDbEntity
  8
CLASS1
  6
CONTINUOUS
 62
     0
100
AcDbLine
 10
171.3740577728513
 20
401.7181827534808
 30
0.0
 11
174.4740577728507
 21
401.7181827534808
 31
0.0
  0
LINE
  5
A39
330
1F
100
AcDbEntity
  8
CLASS1
  6
CONTINUOUS
 62
     0
100
AcDbLine
 10
174.4740577728507
 20
399.7181827534808
 30
0.0
 11
171.3740577728513
 21
399.7181827534808
 31
0.0
  0
LINE
  5
A3A
330
1F
100
AcDbEntity
  8
CLASS1
  6
CONTINUOUS
 62
     0
100
AcDbLine
 10
171.3740577728513
 20
397.7181827534808
 30
0.0
 11
174.4740577728507
 21
397.7181827534808
 31
0.0
  0
LINE
  5
A3B
330
1F
100
AcDbEntity
  8
CLASS1
  6
CONTINUOUS
 62
     0
100
AcDbLine
 10
171.3740577728513
 20
397.7181827534808
 30
0.0
 11
171.3740577728513
 21
396.7181827534808
 31
0.0
  0
LINE
  5
A3C
330
1F
100
AcDbEntity
  8
CLASS1
  6
CONTINUOUS
 62
     0
100
AcDbLine
 10
174.4740577728507
 20
397.7181827534808
 30
0.0
 11
174.4740577728507
 21
395.7181827534808
 31
0.0
  0
LINE
  5
A3D
330
1F
100
AcDbEntity
  8
CLASS1
  6
CONTINUOUS
 62
     0
100
AcDbLine
 10
174.4740577728507
 20
421.7181827534808
 30
0.0
 11
174.4740577728507
 21
419.7181827534808
 31
0.0
  0
LINE
  5
A3E
330
1F
100
AcDbEntity
  8
CLASS1
  6
CONTINUOUS
 62
     0
100
AcDbLine
 10
174.4740577728507
 20
417.7181827534808
 30
0.0
 11
174.4740577728507
 21
415.7181827534808
 31
0.0
  0
LINE
  5
A3F
330
1F
100
AcDbEntity
  8
CLASS1
  6
CONTINUOUS
 62
     0
100
AcDbLine
 10
169.5740577728506
 20
409.6181827534809
 30
0.0
 11
168.9490577728511
 21
409.6181827534809
 31
0.0
  0
LINE
  5
A40
330
1F
100
AcDbEntity
  8
CLASS1
  6
CONTINUOUS
 62
     0
100
AcDbLine
 10
168.9490577728511
 20
409.6181827534809
 30
0.0
 11
168.9490577728511
 21
410.8681827534808
 31
0.0
  0
LINE
  5
A41
330
1F
100
AcDbEntity
  8
CLASS1
  6
CONTINUOUS
 62
     0
100
AcDbLine
 10
174.4740577728507
 20
413.7181827534808
 30
0.0
 11
174.4740577728507
 21
411.7181827534808
 31
0.0
  0
LINE
  5
A42
330
1F
100
AcDbEntity
  8
CLASS1
  6
CONTINUOUS
 62
     0
100
AcDbLine
 10
174.4740577728507
 20
411.7181827534808
 30
0.0
 11
171.3740577728513
 21
411.7181827534808
 31
0.0
  0
LINE
  5
A43
330
1F
100
AcDbEntity
  8
CLASS1
  6
CONTINUOUS
 62
     0
100
AcDbLine
 10
171.3740577728513
 20
412.7181827534808
 30
0.0
 11
171.3740577728513
 21
411.7181827534808
 31
0.0
  0
LINE
  5
A44
330
1F
100
AcDbEntity
  8
CLASS1
  6
CONTINUOUS
 62
     0
100
AcDbLine
 10
171.3740577728513
 20
409.7181827534808
 30
0.0
 11
174.4740577728507
 21
409.7181827534808
 31
0.0
  0
LINE
  5
A45
330
1F
100
AcDbEntity
  8
CLASS1
  6
CONTINUOUS
 62
     0
100
AcDbLine
 10
167.8740577728513
 20
401.2181827534808
 30
0.0
 11
167.8740577728513
 21
408.2181827534808
 31
0.0
  0
LINE
  5
A46
330
1F
100
AcDbEntity
  8
CLASS1
  6
CONTINUOUS
 62
     0
100
AcDbLine
 10
165.8740577728508
 20
401.2181827534808
 30
0.0
 11
165.8740577728508
 21
408.2181827534808
 31
0.0
  0
LINE
  5
A47
330
1F
100
AcDbEntity
  8
CLASS1
  6
CENTER
 62
     0
100
AcDbLine
 10
166.8740577728513
 20
399.7181827534808
 30
0.0
 11
166.8740577728513
 21
411.7519247534808
 31
0.0
  0
LINE
  5
A48
330
1F
100
AcDbEntity
  8
CLASS1
  6
CONTINUOUS
 62
     0
100
AcDbLine
 10
164.2740577728504
 20
406.7181827534808
 30
0.0
 11
164.2740577728504
 21
409.6181827534809
 31
0.0
  0
LINE
  5
A49
330
1F
100
AcDbEntity
  8
CLASS1
  6
CONTINUOUS
 62
     0
100
AcDbLine
 10
162.5740577728511
 20
402.7181827534808
 30
0.0
 11
162.5740577728511
 21
406.7181827534808
 31
0.0
  0
LINE
  5
A4A
330
1F
100
AcDbEntity
  8
CLASS1
  6
CONTINUOUS
 62
     0
100
AcDbLine
 10
164.2740577728504
 20
406.7181827534808
 30
0.0
 11
162.5740577728511
 21
406.7181827534808
 31
0.0
  0
LINE
  5
A4B
330
1F
100
AcDbEntity
  8
CLASS1
  6
CONTINUOUS
 62
     0
100
AcDbLine
 10
165.8740577728508
 20
405.3181827534807
 30
0.0
 11
162.5740577728511
 21
405.3181827534807
 31
0.0
  0
LINE
  5
A4C
330
1F
100
AcDbEntity
  8
CLASS1
  6
CONTINUOUS
 62
     0
100
AcDbLine
 10
165.8740577728508
 20
404.1181827534808
 30
0.0
 11
162.5740577728511
 21
404.1181827534808
 31
0.0
  0
LINE
  5
A4D
330
1F
100
AcDbEntity
  8
CLASS1
  6
CONTINUOUS
 62
     0
100
AcDbLine
 10
164.299057772851
 20
402.7181827534808
 30
0.0
 11
162.5740577728511
 21
402.7181827534808
 31
0.0
  0
ARC
  5
A4E
330
1F
100
AcDbEntity
  8
CLASS1
  6
CONTINUOUS
 62
     0
100
AcDbCircle
 10
167.3740577728508
 20
401.2181827534808
 30
0.0
 40
0.5
100
AcDbArc
 50
270.0
 51
0.0
  0
ARC
  5
A4F
330
1F
100
AcDbEntity
  8
CLASS1
  6
CONTINUOUS
 62
     0
100
AcDbCircle
 10
166.3740577728508
 20
401.2181827534808
 30
0.0
 40
0.5
100
AcDbArc
 50
180.0
 51
270.0
  0
LINE
  5
A50
330
1F
100
AcDbEntity
  8
CLASS1
  6
CONTINUOUS
 62
     0
100
AcDbLine
 10
164.7990577728505
 20
399.8181827534807
 30
0.0
 11
164.299057772851
 21
399.8181827534807
 31
0.0
  0
LINE
  5
A51
330
1F
100
AcDbEntity
  8
CLASS1
  6
CONTINUOUS
 62
     0
100
AcDbLine
 10
164.299057772851
 20
399.8181827534807
 30
0.0
 11
164.299057772851
 21
402.7181827534808
 31
0.0
  0
LINE
  5
A52
330
1F
100
AcDbEntity
  8
CLASS1
  6
CONTINUOUS
 62
     0
100
AcDbLine
 10
164.7990577728505
 20
398.5681827534807
 30
0.0
 11
164.7990577728505
 21
399.8181827534807
 31
0.0
  0
LINE
  5
A53
330
1F
100
AcDbEntity
  8
CLASS1
  6
CONTINUOUS
 62
     0
100
AcDbLine
 10
167.3740577728513
 20
400.7181827534808
 30
0.0
 11
166.3740577728512
 21
400.7181827534808
 31
0.0
  0
LINE
  5
A54
330
1F
100
AcDbEntity
  8
CLASS1
  6
CONTINUOUS
 62
     0
100
AcDbLine
 10
162.4740577728507
 20
395.7181827534808
 30
0.0
 11
162.4740577728507
 21
396.7181827534808
 31
0.0
  0
LINE
  5
A55
330
1F
100
AcDbEntity
  8
CLASS1
  6
CONTINUOUS
 62
     0
100
AcDbLine
 10
162.4740577728507
 20
419.7181827534808
 30
0.0
 11
162.4740577728507
 21
421.7181827534808
 31
0.0
  0
LINE
  5
A56
330
1F
100
AcDbEntity
  8
CLASS1
  6
CONTINUOUS
 62
     0
100
AcDbLine
 10
162.4740577728507
 20
415.7181827534808
 30
0.0
 11
162.4740577728507
 21
417.7181827534808
 31
0.0
  0
LINE
  5
A57
330
1F
100
AcDbEntity
  8
CLASS1
  6
CONTINUOUS
 62
     0
100
AcDbLine
 10
162.4740577728507
 20
412.7181827534808
 30
0.0
 11
162.4740577728507
 21
413.7181827534808
 31
0.0
  0
ARC
  5
A58
330
1F
100
AcDbEntity
  8
CLASS1
  6
CONTINUOUS
 62
     0
100
AcDbCircle
 10
167.3740577728508
 20
408.2181827534808
 30
0.0
 40
0.5
100
AcDbArc
 50
0.0
 51
90.0
  0
LINE
  5
A59
330
1F
100
AcDbEntity
  8
CLASS1
  6
CONTINUOUS
 62
     0
100
AcDbLine
 10
167.3740577728513
 20
408.7181827534808
 30
0.0
 11
166.3740577728512
 21
408.7181827534808
 31
0.0
  0
LINE
  5
A5A
330
1F
100
AcDbEntity
  8
CLASS1
  6
CONTINUOUS
 62
     0
100
AcDbLine
 10
164.7990577728505
 20
409.6181827534809
 30
0.0
 11
164.2740577728504
 21
409.6181827534809
 31
0.0
  0
LINE
  5
A5B
330
1F
100
AcDbEntity
  8
CLASS1
  6
CONTINUOUS
 62
     0
100
AcDbLine
 10
164.7990577728505
 20
409.6181827534809
 30
0.0
 11
164.7990577728505
 21
410.8681827534808
 31
0.0
  0
ARC
  5
A5C
330
1F
100
AcDbEntity
  8
CLASS1
  6
CONTINUOUS
 62
     0
100
AcDbCircle
 10
166.3740577728508
 20
408.2181827534808
 30
0.0
 40
0.5
100
AcDbArc
 50
90.0
 51
180.0
  0
LINE
  5
A5D
330
1F
100
AcDbEntity
  8
CLASS1
  6
CONTINUOUS
 62
     0
100
AcDbLine
 10
162.4740577728507
 20
429.7181827534808
 30
0.0
 11
174.4740577728507
 21
429.7181827534808
 31
0.0
  0
LINE
  5
A5E
330
1F
100
AcDbEntity
  8
CLASS1
  6
CONTINUOUS
 62
     0
100
AcDbLine
 10
174.4740577728507
 20
427.7181827534808
 30
0.0
 11
162.4740577728507
 21
427.7181827534808
 31
0.0
  0
LINE
  5
A5F
330
1F
100
AcDbEntity
  8
CLASS1
  6
CONTINUOUS
 62
     0
100
AcDbLine
 10
162.4740577728507
 20
425.7181827534808
 30
0.0
 11
174.4740577728507
 21
425.7181827534808
 31
0.0
  0
LINE
  5
A60
330
1F
100
AcDbEntity
  8
CLASS1
  6
CONTINUOUS
 62
     0
100
AcDbLine
 10
174.4740577728507
 20
423.7181827534808
 30
0.0
 11
162.4740577728507
 21
423.7181827534808
 31
0.0
  0
LINE
  5
A61
330
1F
100
AcDbEntity
  8
CLASS1
  6
CONTINUOUS
 62
     0
100
AcDbLine
 10
174.4740577728507
 20
429.7181827534808
 30
0.0
 11
174.4740577728507
 21
427.7181827534808
 31
0.0
  0
LINE
  5
A62
330
1F
100
AcDbEntity
  8
CLASS1
  6
CONTINUOUS
 62
     0
100
AcDbLine
 10
174.4740577728507
 20
425.7181827534808
 30
0.0
 11
174.4740577728507
 21
423.7181827534808
 31
0.0
  0
LINE
  5
A63
330
1F
100
AcDbEntity
  8
CLASS1
  6
CONTINUOUS
 62
     0
100
AcDbLine
 10
162.4740577728507
 20
427.7181827534808
 30
0.0
 11
162.4740577728507
 21
429.7181827534808
 31
0.0
  0
LINE
  5
A64
330
1F
100
AcDbEntity
  8
CLASS1
  6
CONTINUOUS
 62
     0
100
AcDbLine
 10
162.4740577728507
 20
423.7181827534808
 30
0.0
 11
162.4740577728507
 21
425.7181827534808
 31
0.0
  0
ARC
  5
A65
330
1F
100
AcDbEntity
  8
CLASS1
  6
CONTINUOUS
 62
     0
100
AcDbCircle
 10
151.9735387728506
 20
435.3181827534807
 30
0.0
 40
1.0
100
AcDbArc
 50
90.0
 51
180.8823590000054
  0
LINE
  5
A66
330
1F
100
AcDbEntity
  8
CLASS1
  6
CONTINUOUS
 62
     0
100
AcDbLine
 10
152.9738487728504
 20
435.3181827534807
 30
0.0
 11
152.9738487728504
 21
436.3181827534807
 31
0.0
  0
LINE
  5
A67
330
1F
100
AcDbEntity
  8
CLASS1
  6
CONTINUOUS
 62
     0
100
AcDbLine
 10
152.9738487728504
 20
436.3181827534807
 30
0.0
 11
151.9735387728506
 21
436.3181827534807
 31
0.0
  0
ARC
  5
A68
330
1F
100
AcDbEntity
  8
0
100
AcDbCircle
 10
168.4740577728507
 20
468.7181827534791
 30
0.0
 40
100.0
100
AcDbArc
 50
262.1601729999957
 51
277.8398260000161
  0
ARC
  5
A69
330
1F
100
AcDbEntity
  8
0
100
AcDbCircle
 10
181.9780747728504
 20
370.6435087534807
 30
0.0
 40
1.0
100
AcDbArc
 50
277.8398260000161
 51
359.1176429999999
  0
ARC
  5
A6A
330
1F
100
AcDbEntity
  8
0
100
AcDbCircle
 10
154.9700407728505
 20
370.6435097534807
 30
0.0
 40
1.0
100
AcDbArc
 50
180.882357
 51
262.1601729999957
  0
POINT
  5
A6B
330
1F
100
AcDbEntity
  8
0
100
AcDbPoint
 10
153.9833187728504
 20
369.7736597534808
 30
0.0
  0
ARC
  5
A6C
330
1F
100
AcDbEntity
  8
0
100
AcDbCircle
 10
168.4740569001915
 20
-29.89999784644158
 30
0.0
 40
100.0
100
AcDbArc
 50
82.16017299999576
 51
97.83982600001616
  0
ARC
  5
A6D
330
1F
100
AcDbEntity
  8
0
100
AcDbCircle
 10
154.9700399001912
 20
68.17467615355838
 30
0.0
 40
1.0
100
AcDbArc
 50
97.83982600001616
 51
179.1176429999999
  0
ARC
  5
A6E
330
1F
100
AcDbEntity
  8
0
100
AcDbCircle
 10
181.9780739001912
 20
68.1746751535585
 30
0.0
 40
1.0
100
AcDbArc
 50
0.8823570000000305
 51
82.16017299999576
  0
LINE
  5
A70
330
1F
100
AcDbEntity
  8
0
100
AcDbLine
 10
267.8940841375843
 20
253.5705815455178
 30
0.0
 11
267.8940841375843
 21
268.0705815455178
 31
0.0
  0
LINE
  5
A71
330
1F
100
AcDbEntity
  8
0
  6
HIDDEN
 48
10.0
100
AcDbLine
 10
264.0931657154073
 20
251.3205815455178
 30
0.0
 11
264.0931657154073
 21
270.3205815455177
 31
0.0
  0
LINE
  5
A72
330
1F
100
AcDbEntity
  8
0
  6
HIDDEN
 48
10.0
100
AcDbLine
 10
229.9031657154064
 20
253.0705815455178
 30
0.0
 11
229.9031657154064
 21
268.5705815455177
 31
0.0
  0
LINE
  5
A73
330
1F
100
AcDbEntity
  8
0
  6
HIDDEN
 48
10.0
100
AcDbLine
 10
250.3431657154073
 20
251.3205815455178
 30
0.0
 11
264.0931657154073
 21
251.3205815455178
 31
0.0
  0
ARC
  5
A74
330
1F
100
AcDbEntity
  8
0
  6
HIDDEN
 48
10.0
100
AcDbCircle
 10
238.8431657154064
 20
252.3205815455178
 30
0.0
 40
0.25
100
AcDbArc
 50
179.9999999999869
 51
270.0
  0
ARC
  5
A75
330
1F
100
AcDbEntity
  8
0
  6
HIDDEN
 48
10.0
100
AcDbCircle
 10
238.8431657154064
 20
253.3205815455178
 30
0.0
 40
0.25
100
AcDbArc
 50
90.0
 51
179.9999999999934
  0
LINE
  5
A76
330
1F
100
AcDbEntity
  8
0
  6
HIDDEN
 48
10.0
100
AcDbLine
 10
236.8431657154065
 20
254.3205815455178
 30
0.0
 11
243.4412100533204
 21
254.3205815455178
 31
0.0
  0
ARC
  5
A77
330
1F
100
AcDbEntity
  8
0
  6
HIDDEN
 48
10.0
100
AcDbCircle
 10
236.8431657154065
 20
254.0705815455178
 30
0.0
 40
0.25
100
AcDbArc
 50
90.0
 51
180.0
  0
ARC
  5
A78
330
1F
100
AcDbEntity
  8
0
  6
HIDDEN
 48
10.0
100
AcDbCircle
 10
230.1531657154064
 20
253.0705815455178
 30
0.0
 40
0.25
100
AcDbArc
 50
180.0
 51
270.0
  0
LINE
  5
A79
330
1F
100
AcDbEntity
  8
0
  6
HIDDEN
 48
10.0
100
AcDbLine
 10
236.3431657154064
 20
252.8205815455176
 30
0.0
 11
230.1531657154064
 21
252.8205815455176
 31
0.0
  0
ARC
  5
A7A
330
1F
100
AcDbEntity
  8
0
  6
HIDDEN
 48
10.0
100
AcDbCircle
 10
236.3431657154064
 20
253.0705815455178
 30
0.0
 40
0.25
100
AcDbArc
 50
270.0
 51
0.0
  0
LINE
  5
A7B
330
1F
100
AcDbEntity
  8
0
  6
HIDDEN
 48
10.0
100
AcDbLine
 10
236.5931657154074
 20
254.0705815455178
 30
0.0
 11
236.5931657154074
 21
253.0705815455178
 31
0.0
  0
LINE
  5
A7C
330
1F
100
AcDbEntity
  8
0
  6
HIDDEN
 48
10.0
100
AcDbLine
 10
243.4945018221233
 20
254.3148354858701
 30
0.0
 11
248.5901698272032
 21
252.8305567720912
 31
0.0
  0
LINE
  5
A7D
330
1F
100
AcDbEntity
  8
0
  6
HIDDEN
 48
10.0
100
AcDbLine
 10
248.6172563924142
 20
251.3216229015893
 30
0.0
 11
243.4681657154064
 21
252.0705815455178
 31
0.0
  0
LINE
  5
A7E
330
1F
100
AcDbEntity
  8
0
  6
HIDDEN
 48
10.0
100
AcDbLine
 10
248.2284066518004
 20
252.9359320398961
 30
0.0
 11
243.4681657154064
 21
253.1955815455178
 31
0.0
  0
LINE
  5
A7F
330
1F
100
AcDbEntity
  8
0
  6
HIDDEN
 48
10.0
100
AcDbLine
 10
243.4681657154064
 20
252.0705815455178
 30
0.0
 11
238.8431657154064
 21
252.0705815455178
 31
0.0
  0
LINE
  5
A80
330
1F
100
AcDbEntity
  8
0
  6
HIDDEN
 48
10.0
100
AcDbLine
 10
243.4681657154064
 20
253.5705815455178
 30
0.0
 11
238.8431657154064
 21
253.5705815455178
 31
0.0
  0
LINE
  5
A81
330
1F
100
AcDbEntity
  8
0
  6
HIDDEN
 48
10.0
100
AcDbLine
 10
238.5931657154064
 20
253.3205815455178
 30
0.0
 11
238.5931657154064
 21
252.3205815455178
 31
0.0
  0
LINE
  5
A82
330
1F
100
AcDbEntity
  8
0
  6
HIDDEN
 48
10.0
100
AcDbLine
 10
243.4681657154064
 20
253.1955815455178
 30
0.0
 11
243.4681657154064
 21
253.5705815455178
 31
0.0
  0
LINE
  5
A83
330
1F
100
AcDbEntity
  8
0
  6
HIDDEN
 48
10.0
100
AcDbLine
 10
250.3431657154073
 20
251.3205815455178
 30
0.0
 11
248.6316503769862
 21
251.3205815455178
 31
0.0
  0
LINE
  5
A84
330
1F
100
AcDbEntity
  8
0
  6
HIDDEN
 48
10.0
100
AcDbLine
 10
250.3431657154073
 20
252.8205815455176
 30
0.0
 11
248.6600848337584
 21
252.8205815455176
 31
0.0
  0
ARC
  5
A85
330
1F
100
AcDbEntity
  8
0
  6
HIDDEN
 48
10.0
100
AcDbCircle
 10
248.6316503769862
 20
251.4205815455178
 30
0.0
 40
0.1
100
AcDbArc
 50
261.724107172922
 51
270.0
  0
ARC
  5
A86
330
1F
100
AcDbEntity
  8
0
  6
HIDDEN
 48
10.0
100
AcDbCircle
 10
248.6600848337584
 20
253.0705815455178
 30
0.0
 40
0.25
100
AcDbArc
 50
253.7600849346836
 51
270.0
  0
LINE
  5
A87
330
1F
100
AcDbEntity
  8
0
  6
HIDDEN
 48
10.0
100
AcDbLine
 10
250.3431657154073
 20
252.8205815455176
 30
0.0
 11
250.3431657154073
 21
251.3205815455178
 31
0.0
  0
ARC
  5
A88
330
1F
100
AcDbEntity
  8
0
  6
HIDDEN
 48
10.0
100
AcDbCircle
 10
243.4412100533204
 20
254.0705815455178
 30
0.0
 40
0.25
100
AcDbArc
 50
77.69198418258735
 51
90.0
  0
LINE
  5
A89
330
1F
100
AcDbEntity
  8
0
100
AcDbLine
 10
267.8831657154064
 20
252.1955815455175
 30
0.0
 11
267.8831657154064
 21
252.1955815455175
 31
0.0
  0
LINE
  5
A8A
330
1F
100
AcDbEntity
  8
0
  6
HIDDEN
 48
10.0
100
AcDbLine
 10
267.6677110133204
 20
252.7705815455175
 30
0.0
 11
268.1485624869951
 21
252.7705815455175
 31
0.0
  0
LINE
  5
A8B
330
1F
100
AcDbEntity
  8
0
100
AcDbLine
 10
267.8940841375843
 20
253.5705815455178
 30
0.0
 11
268.1485624869951
 21
253.5705815455178
 31
0.0
  0
ARC
  5
A8C
330
1F
100
AcDbEntity
  8
0
  6
HIDDEN
 48
10.0
100
AcDbCircle
 10
267.0081657154064
 20
252.1955815455178
 30
0.0
 40
0.875
100
AcDbArc
 50
359.9999999999934
 51
90.0
  0
ARC
  5
A8D
330
1F
100
AcDbEntity
  8
0
  6
HIDDEN
 48
10.0
100
AcDbCircle
 10
267.0081657154064
 20
252.1955815455178
 30
0.0
 40
0.875
100
AcDbArc
 50
270.0
 51
359.9999999999934
  0
LINE
  5
A8E
330
1F
100
AcDbEntity
  8
0
  6
HIDDEN
 48
10.0
100
AcDbLine
 10
267.0081657154064
 20
253.0705815455178
 30
0.0
 11
268.1485624869951
 21
253.0705815455178
 31
0.0
  0
LINE
  5
A8F
330
1F
100
AcDbEntity
  8
0
100
AcDbLine
 10
268.1485624869951
 20
254.1705815455177
 30
0.0
 11
267.8940841375843
 21
254.1705815455177
 31
0.0
  0
LINE
  5
A90
330
1F
100
AcDbEntity
  8
0
  6
HIDDEN
 48
10.0
100
AcDbLine
 10
265.7381657154064
 20
253.9455815455178
 30
0.0
 11
264.0931657154073
 21
253.9455815455178
 31
0.0
  0
LINE
  5
A91
330
1F
100
AcDbEntity
  8
0
  6
HIDDEN
 48
10.0
100
AcDbLine
 10
265.9881657154064
 20
253.3205815455178
 30
0.0
 11
265.9881657154064
 21
253.6955815455177
 31
0.0
  0
ARC
  5
A92
330
1F
100
AcDbEntity
  8
0
  6
HIDDEN
 48
10.0
100
AcDbCircle
 10
266.2381657154064
 20
253.3205815455178
 30
0.0
 40
0.25
100
AcDbArc
 50
180.0
 51
270.0
  0
ARC
  5
A93
330
1F
100
AcDbEntity
  8
0
  6
HIDDEN
 48
10.0
100
AcDbCircle
 10
265.7381657154064
 20
253.6955815455177
 30
0.0
 40
0.25
100
AcDbArc
 50
0.0
 51
90.0
  0
LINE
  5
A94
330
1F
100
AcDbEntity
  8
0
  6
HIDDEN
 48
10.0
100
AcDbLine
 10
264.0931657154073
 20
251.3205815455178
 30
0.0
 11
267.0081657154064
 21
251.3205815455178
 31
0.0
  0
LINE
  5
A95
330
1F
100
AcDbEntity
  8
0
  6
HIDDEN
 48
10.0
100
AcDbLine
 10
267.0081657154064
 20
253.0705815455178
 30
0.0
 11
266.2381657154064
 21
253.0705815455178
 31
0.0
  0
LINE
  5
A96
330
1F
100
AcDbEntity
  8
0
  6
HIDDEN
 48
10.0
100
AcDbLine
 10
268.1485624869951
 20
254.8205815455178
 30
0.0
 11
264.0931657154073
 21
254.8205815455178
 31
0.0
  0
LINE
  5
A97
330
1F
100
AcDbEntity
  8
0
  6
HIDDEN
 48
10.0
100
AcDbLine
 10
264.0931657154073
 20
270.3205815455177
 30
0.0
 11
250.3431657154073
 21
270.3205815455177
 31
0.0
  0
ARC
  5
A98
330
1F
100
AcDbEntity
  8
0
  6
HIDDEN
 48
10.0
100
AcDbCircle
 10
238.8431657154064
 20
269.3205815455177
 30
0.0
 40
0.25
100
AcDbArc
 50
90.0
 51
180.0
  0
ARC
  5
A99
330
1F
100
AcDbEntity
  8
0
  6
HIDDEN
 48
10.0
100
AcDbCircle
 10
238.8431657154064
 20
268.3205815455178
 30
0.0
 40
0.25
100
AcDbArc
 50
179.9999999999934
 51
270.0
  0
LINE
  5
A9A
330
1F
100
AcDbEntity
  8
0
  6
HIDDEN
 48
10.0
100
AcDbLine
 10
243.4412100533204
 20
267.3205815455178
 30
0.0
 11
236.8431657154065
 21
267.3205815455178
 31
0.0
  0
ARC
  5
A9B
330
1F
100
AcDbEntity
  8
0
  6
HIDDEN
 48
10.0
100
AcDbCircle
 10
230.1531657154064
 20
268.5705815455177
 30
0.0
 40
0.25
100
AcDbArc
 50
90.0
 51
180.0
  0
LINE
  5
A9C
330
1F
100
AcDbEntity
  8
0
  6
HIDDEN
 48
10.0
100
AcDbLine
 10
236.3431657154064
 20
268.8205815455178
 30
0.0
 11
230.1531657154064
 21
268.8205815455178
 31
0.0
  0
ARC
  5
A9D
330
1F
100
AcDbEntity
  8
0
  6
HIDDEN
 48
10.0
100
AcDbCircle
 10
236.3431657154064
 20
268.5705815455177
 30
0.0
 40
0.25
100
AcDbArc
 50
0.0
 51
90.0
  0
ARC
  5
A9E
330
1F
100
AcDbEntity
  8
0
  6
HIDDEN
 48
10.0
100
AcDbCircle
 10
236.8431657154065
 20
267.5705815455177
 30
0.0
 40
0.25
100
AcDbArc
 50
180.0
 51
270.0
  0
LINE
  5
A9F
330
1F
100
AcDbEntity
  8
0
  6
HIDDEN
 48
10.0
100
AcDbLine
 10
236.5931657154074
 20
267.5705815455177
 30
0.0
 11
236.5931657154074
 21
268.5705815455177
 31
0.0
  0
LINE
  5
AA0
330
1F
100
AcDbEntity
  8
0
  6
HIDDEN
 48
10.0
100
AcDbLine
 10
248.6238492654811
 20
270.3195428025665
 30
0.0
 11
243.4681657154064
 21
269.5705815455176
 31
0.0
  0
LINE
  5
AA1
330
1F
100
AcDbEntity
  8
0
  6
HIDDEN
 48
10.0
100
AcDbLine
 10
243.4945018221233
 20
267.3263276051653
 30
0.0
 11
248.5967925751051
 21
268.8106303696685
 31
0.0
  0
LINE
  5
AA2
330
1F
100
AcDbEntity
  8
0
  6
HIDDEN
 48
10.0
100
AcDbLine
 10
248.2358845174744
 20
268.7056389347213
 30
0.0
 11
243.4681657154064
 21
268.4455815455178
 31
0.0
  0
LINE
  5
AA3
330
1F
100
AcDbEntity
  8
0
  6
HIDDEN
 48
10.0
100
AcDbLine
 10
243.4681657154064
 20
269.5705815455176
 30
0.0
 11
238.8431657154064
 21
269.5705815455176
 31
0.0
  0
LINE
  5
AA4
330
1F
100
AcDbEntity
  8
0
  6
HIDDEN
 48
10.0
100
AcDbLine
 10
243.4681657154064
 20
268.0705815455178
 30
0.0
 11
238.8431657154064
 21
268.0705815455178
 31
0.0
  0
LINE
  5
AA5
330
1F
100
AcDbEntity
  8
0
  6
HIDDEN
 48
10.0
100
AcDbLine
 10
238.5931657154064
 20
268.3205815455178
 30
0.0
 11
238.5931657154064
 21
269.3205815455177
 31
0.0
  0
LINE
  5
AA6
330
1F
100
AcDbEntity
  8
0
  6
HIDDEN
 48
10.0
100
AcDbLine
 10
243.4681657154064
 20
268.4455815455178
 30
0.0
 11
243.4681657154064
 21
268.0705815455178
 31
0.0
  0
ARC
  5
AA7
330
1F
100
AcDbEntity
  8
0
  6
HIDDEN
 48
10.0
100
AcDbCircle
 10
243.4412100533204
 20
267.5705815455177
 30
0.0
 40
0.25
100
AcDbArc
 50
270.0
 51
282.3080158174126
  0
LINE
  5
AA8
330
1F
100
AcDbEntity
  8
0
  6
HIDDEN
 48
10.0
100
AcDbLine
 10
250.3431657154073
 20
270.3205815455177
 30
0.0
 11
248.6382252733874
 21
270.3205815455177
 31
0.0
  0
LINE
  5
AA9
330
1F
100
AcDbEntity
  8
0
  6
HIDDEN
 48
10.0
100
AcDbLine
 10
250.3431657154073
 20
268.8205815455178
 30
0.0
 11
248.6666249603126
 21
268.8205815455178
 31
0.0
  0
ARC
  5
AAA
330
1F
100
AcDbEntity
  8
0
  6
HIDDEN
 48
10.0
100
AcDbCircle
 10
248.6382252733874
 20
270.2205815455179
 30
0.0
 40
0.1
100
AcDbArc
 50
90.0
 51
98.26548470710926
  0
ARC
  5
AAB
330
1F
100
AcDbEntity
  8
0
  6
HIDDEN
 48
10.0
100
AcDbCircle
 10
248.6666249603126
 20
268.5705815455177
 30
0.0
 40
0.25
100
AcDbArc
 50
90.0
 51
106.2201936955991
  0
LINE
  5
AAC
330
1F
100
AcDbEntity
  8
0
  6
HIDDEN
 48
10.0
100
AcDbLine
 10
250.3431657154073
 20
270.3205815455177
 30
0.0
 11
250.3431657154073
 21
268.8205815455178
 31
0.0
  0
LINE
  5
AAD
330
1F
100
AcDbEntity
  8
0
100
AcDbLine
 10
267.8831657154064
 20
269.4455815455178
 30
0.0
 11
267.8831657154064
 21
269.4455815455178
 31
0.0
  0
LINE
  5
AAE
330
1F
100
AcDbEntity
  8
0
  6
HIDDEN
 48
10.0
100
AcDbLine
 10
267.6677110133204
 20
268.8705815455175
 30
0.0
 11
268.1485624869951
 21
268.8705815455175
 31
0.0
  0
LINE
  5
AAF
330
1F
100
AcDbEntity
  8
0
  6
HIDDEN
 48
10.0
100
AcDbLine
 10
267.0081657154064
 20
268.5705815455177
 30
0.0
 11
268.1485624869951
 21
268.5705815455177
 31
0.0
  0
ARC
  5
AB0
330
1F
100
AcDbEntity
  8
0
  6
HIDDEN
 48
10.0
100
AcDbCircle
 10
267.0081657154064
 20
269.4455815455178
 30
0.0
 40
0.875
100
AcDbArc
 50
0.0
 51
90.0
  0
LINE
  5
AB1
330
1F
100
AcDbEntity
  8
0
  6
HIDDEN
 48
10.0
100
AcDbLine
 10
264.0931657154073
 20
270.3205815455177
 30
0.0
 11
267.0081657154064
 21
270.3205815455177
 31
0.0
  0
LINE
  5
AB2
330
1F
100
AcDbEntity
  8
0
  6
HIDDEN
 48
10.0
100
AcDbLine
 10
267.0081657154064
 20
268.5705815455177
 30
0.0
 11
266.2381657154064
 21
268.5705815455177
 31
0.0
  0
LINE
  5
AB3
330
1F
100
AcDbEntity
  8
0
100
AcDbLine
 10
267.8940841375843
 20
267.4705815455173
 30
0.0
 11
268.1485624869951
 21
267.4705815455173
 31
0.0
  0
LINE
  5
AB4
330
1F
100
AcDbEntity
  8
0
100
AcDbLine
 10
267.8940841375843
 20
268.0705815455178
 30
0.0
 11
268.1485624869951
 21
268.0705815455178
 31
0.0
  0
ARC
  5
AB5
330
1F
100
AcDbEntity
  8
0
  6
HIDDEN
 48
10.0
100
AcDbCircle
 10
265.7381657154064
 20
267.9455815455178
 30
0.0
 40
0.25
100
AcDbArc
 50
270.0
 51
0.0
  0
LINE
  5
AB6
330
1F
100
AcDbEntity
  8
0
  6
HIDDEN
 48
10.0
100
AcDbLine
 10
265.7381657154064
 20
267.6955815455178
 30
0.0
 11
264.0931657154073
 21
267.6955815455178
 31
0.0
  0
LINE
  5
AB7
330
1F
100
AcDbEntity
  8
0
  6
HIDDEN
 48
10.0
100
AcDbLine
 10
265.9881657154064
 20
268.3205815455178
 30
0.0
 11
265.9881657154064
 21
267.9455815455178
 31
0.0
  0
LINE
  5
AB8
330
1F
100
AcDbEntity
  8
0
  6
HIDDEN
 48
10.0
100
AcDbLine
 10
268.1485624869951
 20
266.8205815455177
 30
0.0
 11
264.0931657154073
 21
266.8205815455177
 31
0.0
  0
ARC
  5
AB9
330
1F
100
AcDbEntity
  8
0
  6
HIDDEN
 48
10.0
100
AcDbCircle
 10
266.2381657154064
 20
268.3205815455178
 30
0.0
 40
0.25
100
AcDbArc
 50
90.0
 51
180.0
  0
ARC
  5
ABA
330
1F
100
AcDbEntity
  8
0
  6
HIDDEN
 48
10.0
100
AcDbCircle
 10
267.0081657154064
 20
269.4455815455178
 30
0.0
 40
0.875
100
AcDbArc
 50
270.0
 51
0.0000000000065138
  0
ENDSEC
  0
SECTION
  2
OBJECTS
  0
DICTIONARY
  5
C
330
0
100
AcDbDictionary
  3
ACAD_GROUP
350
D
  3
ACAD_LAYOUT
350
1A
  3
ACAD_MLINESTYLE
350
17
  3
ACAD_PLOTSETTINGS
350
19
  3
ACAD_PLOTSTYLENAME
350
E
  3
ACDBHEADERROUNDTRIPXREC
350
B4E
  3
ACDBVARIABLEDICTIONARY
350
B4A
  0
DICTIONARY
  5
22D
330
2
100
AcDbDictionary
280
     1
  3
ACAD_LAYERSTATES
360
22E
  0
DICTIONARY
  5
B70
330
1F
100
AcDbDictionary
280
     1
  3
ACAD_LAYOUTSELFREF
360
B71
  0
DICTIONARY
  5
B6E
330
1B
100
AcDbDictionary
280
     1
  3
ACAD_LAYOUTSELFREF
360
B6F
  0
DICTIONARY
  5
D
102
{ACAD_REACTORS
330
C
102
}
330
C
100
AcDbDictionary
  0
DICTIONARY
  5
1A
102
{ACAD_REACTORS
330
C
102
}
330
C
100
AcDbDictionary
  0
DICTIONARY
  5
17
102
{ACAD_REACTORS
330
C
102
}
330
C
100
AcDbDictionary
  3
STANDARD
350
18
  0
DICTIONARY
  5
19
102
{ACAD_REACTORS
330
C
102
}
330
C
100
AcDbDictionary
  0
ACDBDICTIONARYWDFLT
  5
E
102
{ACAD_REACTORS
330
C
102
}
330
C
100
AcDbDictionary
281
     1
  3
Normal
350
F
100
AcDbDictionaryWithDefault
340
F
  0
DICTIONARY
  5
B4E
102
{ACAD_REACTORS
330
C
102
}
330
C
100
AcDbDictionary
  3
CEPSNTYPE
350
B58
  3
FINGERPRINTGUID
350
B59
  3
HYPERLINKBASE
350
B51
  3
INSUNITS
350
B57
  3
LAYOUTDICT
350
B53
  3
LWETCUNION
350
B56
  3
PLOTSETDICT
350
B54
  3
PLOTSTYLNAMDICT
350
B55
  3
PSVPSCALE
350
B5B
  3
PUCSBASE
350
B5E
  3
PUCSORGBACK
350
B64
  3
PUCSORGBOTTOM
350
B60
  3
PUCSORGFRONT
350
B63
  3
PUCSORGLEFT
350
B61
  3
PUCSORGRIGHT
350
B62
  3
PUCSORGTOP
350
B5F
  3
PUCSORTHOREF
350
B5C
  3
PUCSORTHOVIEW
350
B5D
  3
STYLESHEET
350
B52
  3
TSTACKALIGN
350
B4F
  3
TSTACKSIZE
350
B50
  3
UCSBASE
350
B67
  3
UCSORGBACK
350
B6D
  3
UCSORGBOTTOM
350
B69
  3
UCSORGFRONT
350
B6C
  3
UCSORGLEFT
350
B6A
  3
UCSORGRIGHT
350
B6B
  3
UCSORGTOP
350
B68
  3
UCSORTHOREF
350
B65
  3
UCSORTHOVIEW
350
B66
  3
VERSIONGUID
350
B5A
  0
DICTIONARY
  5
B4A
102
{ACAD_REACTORS
330
C
102
}
330
C
100
AcDbDictionary
  3
DIMASSOC
350
B4C
  3
HIDETEXT
350
B4B
  0
DICTIONARY
  5
22E
102
{ACAD_REACTORS
330
22D
102
}
330
22D
100
AcDbDictionary
  0
XRECORD
  5
B71
102
{ACAD_REACTORS
330
B70
102
}
330
B70
100
AcDbXrecord
340
1F
  0
XRECORD
  5
B6F
102
{ACAD_REACTORS
330
B6E
102
}
330
B6E
100
AcDbXrecord
340
1B
  0
MLINESTYLE
  5
18
102
{ACAD_REACTORS
330
17
102
}
330
17
100
AcDbMlineStyle
  2
STANDARD
 70
     0
  3

 62
   256
 51
90.0
 52
90.0
 71
     2
 49
0.5
 62
   256
  6
BYLAYER
 49
-0.5
 62
   256
  6
BYLAYER
  0
ACDBPLACEHOLDER
  5
F
102
{ACAD_REACTORS
330
E
102
}
330
E
100
AcDbPlaceHolder
280
     0
  0
XRECORD
  5
B58
102
{ACAD_REACTORS
330
B4E
102
}
330
B4E
100
AcDbXrecord
 90
        0
  0
XRECORD
  5
B59
102
{ACAD_REACTORS
330
B4E
102
}
330
B4E
100
AcDbXrecord
  1
{001477D0-87D8-4FB5-B9F1-58E7EAE6032A}
  0
XRECORD
  5
B51
102
{ACAD_REACTORS
330
B4E
102
}
330
B4E
100
AcDbXrecord
  1

  0
XRECORD
  5
B57
102
{ACAD_REACTORS
330
B4E
102
}
330
B4E
100
AcDbXrecord
 90
        4
  0
XRECORD
  5
B53
102
{ACAD_REACTORS
330
B4E
102
}
330
B4E
100
AcDbXrecord
340
1A
  0
XRECORD
  5
B56
102
{ACAD_REACTORS
330
B4E
102
}
330
B4E
100
AcDbXrecord
 90
    10781
  0
XRECORD
  5
B54
102
{ACAD_REACTORS
330
B4E
102
}
330
B4E
100
AcDbXrecord
340
19
  0
XRECORD
  5
B55
102
{ACAD_REACTORS
330
B4E
102
}
330
B4E
100
AcDbXrecord
340
E
  0
XRECORD
  5
B5B
102
{ACAD_REACTORS
330
B4E
102
}
330
B4E
100
AcDbXrecord
 40
0.0
  0
XRECORD
  5
B5E
102
{ACAD_REACTORS
330
B4E
102
}
330
B4E
100
AcDbXrecord
340
0
  0
XRECORD
  5
B64
102
{ACAD_REACTORS
330
B4E
102
}
330
B4E
100
AcDbXrecord
 10
0.0
 20
0.0
 30
0.0
  0
XRECORD
  5
B60
102
{ACAD_REACTORS
330
B4E
102
}
330
B4E
100
AcDbXrecord
 10
0.0
 20
0.0
 30
0.0
  0
XRECORD
  5
B63
102
{ACAD_REACTORS
330
B4E
102
}
330
B4E
100
AcDbXrecord
 10
0.0
 20
0.0
 30
0.0
  0
XRECORD
  5
B61
102
{ACAD_REACTORS
330
B4E
102
}
330
B4E
100
AcDbXrecord
 10
0.0
 20
0.0
 30
0.0
  0
XRECORD
  5
B62
102
{ACAD_REACTORS
330
B4E
102
}
330
B4E
100
AcDbXrecord
 10
0.0
 20
0.0
 30
0.0
  0
XRECORD
  5
B5F
102
{ACAD_REACTORS
330
B4E
102
}
330
B4E
100
AcDbXrecord
 10
0.0
 20
0.0
 30
0.0
  0
XRECORD
  5
B5C
102
{ACAD_REACTORS
330
B4E
102
}
330
B4E
100
AcDbXrecord
340
0
  0
XRECORD
  5
B5D
102
{ACAD_REACTORS
330
B4E
102
}
330
B4E
100
AcDbXrecord
 70
     0
  0
XRECORD
  5
B52
102
{ACAD_REACTORS
330
B4E
102
}
330
B4E
100
AcDbXrecord
  1

  0
XRECORD
  5
B4F
102
{ACAD_REACTORS
330
B4E
102
}
330
B4E
100
AcDbXrecord
 90
        1
  0
XRECORD
  5
B50
102
{ACAD_REACTORS
330
B4E
102
}
330
B4E
100
AcDbXrecord
 90
       70
  0
XRECORD
  5
B67
102
{ACAD_REACTORS
330
B4E
102
}
330
B4E
100
AcDbXrecord
340
0
  0
XRECORD
  5
B6D
102
{ACAD_REACTORS
330
B4E
102
}
330
B4E
100
AcDbXrecord
 10
0.0
 20
0.0
 30
0.0
  0
XRECORD
  5
B69
102
{ACAD_REACTORS
330
B4E
102
}
330
B4E
100
AcDbXrecord
 10
0.0
 20
0.0
 30
0.0
  0
XRECORD
  5
B6C
102
{ACAD_REACTORS
330
B4E
102
}
330
B4E
100
AcDbXrecord
 10
0.0
 20
0.0
 30
0.0
  0
XRECORD
  5
B6A
102
{ACAD_REACTORS
330
B4E
102
}
330
B4E
100
AcDbXrecord
 10
0.0
 20
0.0
 30
0.0
  0
XRECORD
  5
B6B
102
{ACAD_REACTORS
330
B4E
102
}
330
B4E
100
AcDbXrecord
 10
0.0
 20
0.0
 30
0.0
  0
XRECORD
  5
B68
102
{ACAD_REACTORS
330
B4E
102
}
330
B4E
100
AcDbXrecord
 10
0.0
 20
0.0
 30
0.0
  0
XRECORD
  5
B65
102
{ACAD_REACTORS
330
B4E
102
}
330
B4E
100
AcDbXrecord
340
0
  0
XRECORD
  5
B66
102
{ACAD_REACTORS
330
B4E
102
}
330
B4E
100
AcDbXrecord
 70
     0
  0
XRECORD
  5
B5A
102
{ACAD_REACTORS
330
B4E
102
}
330
B4E
100
AcDbXrecord
  1
{B56F448B-5361-4EC0-854D-D6731FCB48B1}
  0
DICTIONARYVAR
  5
B4C
102
{ACAD_REACTORS
330
B4A
102
}
330
B4A
100
DictionaryVariables
280
     0
  1
2
  0
DICTIONARYVAR
  5
B4B
102
{ACAD_REACTORS
330
B4A
102
}
330
B4A
100
DictionaryVariables
280
     0
  1
1
  0
ENDSEC
  0
EOF
