  0
SECTION
  2
HEADER
  9
$ACADVER
  1
AC1014
  9
$ACADMAINTVER
 70
     9
  9
$DWGCODEPAGE
  3
ANSI_932
  9
$INSBASE
 10
0.0
 20
0.0
 30
0.0
  9
$EXTMIN
 10
-0.0128164049386896
 20
-0.0090630292066862
 30
-0.0015258207003583
  9
$EXTMAX
 10
336.9561776390255
 20
438.8336342794746
 30
0.0000000349246037
  9
$LIMMIN
 10
0.0
 20
0.0
  9
$LIMMAX
 10
420.0
 20
297.0
  9
$ORTHOMODE
 70
     0
  9
$REGENMODE
 70
     1
  9
$FILLMODE
 70
     1
  9
$QTEXTMODE
 70
     0
  9
$MIRRTEXT
 70
     1
  9
$DRAGMODE
 70
     2
  9
$LTSCALE
 40
1.0
  9
$OSMODE
 70
   567
  9
$ATTMODE
 70
     1
  9
$TEXTSIZE
 40
2.5
  9
$TRACEWID
 40
1.0
  9
$TEXTSTYLE
  7
STANDARD
  9
$CLAYER
  8
0
  9
$CELTYPE
  6
BYLAYER
  9
$CECOLOR
 62
   256
  9
$CELTSCALE
 40
1.0
  9
$DELOBJ
 70
     1
  9
$DISPSILH
 70
     0
  9
$DIMSCALE
 40
1.0
  9
$DIMASZ
 40
2.5
  9
$DIMEXO
 40
0.625
  9
$DIMDLI
 40
3.75
  9
$DIMRND
 40
0.0
  9
$DIMDLE
 40
0.0
  9
$DIMEXE
 40
1.25
  9
$DIMTP
 40
0.0
  9
$DIMTM
 40
0.0
  9
$DIMTXT
 40
2.5
  9
$DIMCEN
 40
2.5
  9
$DIMTSZ
 40
0.0
  9
$DIMTOL
 70
     0
  9
$DIMLIM
 70
     0
  9
$DIMTIH
 70
     0
  9
$DIMTOH
 70
     0
  9
$DIMSE1
 70
     0
  9
$DIMSE2
 70
     0
  9
$DIMTAD
 70
     1
  9
$DIMZIN
 70
     8
  9
$DIMBLK
  1

  9
$DIMASO
 70
     1
  9
$DIMSHO
 70
     1
  9
$DIMPOST
  1

  9
$DIMAPOST
  1

  9
$DIMALT
 70
     0
  9
$DIMALTD
 70
     3
  9
$DIMALTF
 40
0.03937007874016
  9
$DIMLFAC
 40
1.0
  9
$DIMTOFL
 70
     1
  9
$DIMTVP
 40
0.0
  9
$DIMTIX
 70
     0
  9
$DIMSOXD
 70
     0
  9
$DIMSAH
 70
     0
  9
$DIMBLK1
  1

  9
$DIMBLK2
  1

  9
$DIMSTYLE
  2
ISO-25
  9
$DIMCLRD
 70
     0
  9
$DIMCLRE
 70
     0
  9
$DIMCLRT
 70
     0
  9
$DIMTFAC
 40
1.0
  9
$DIMGAP
 40
0.625
  9
$DIMJUST
 70
     0
  9
$DIMSD1
 70
     0
  9
$DIMSD2
 70
     0
  9
$DIMTOLJ
 70
     0
  9
$DIMTZIN
 70
     8
  9
$DIMALTZ
 70
     0
  9
$DIMALTTZ
 70
     0
  9
$DIMFIT
 70
     3
  9
$DIMUPT
 70
     0
  9
$DIMUNIT
 70
     2
  9
$DIMDEC
 70
     2
  9
$DIMTDEC
 70
     2
  9
$DIMALTU
 70
     2
  9
$DIMALTTD
 70
     3
  9
$DIMTXSTY
  7
STANDARD
  9
$DIMAUNIT
 70
     0
  9
$LUNITS
 70
     2
  9
$LUPREC
 70
     4
  9
$SKETCHINC
 40
1.0
  9
$FILLETRAD
 40
10.0
  9
$AUNITS
 70
     0
  9
$AUPREC
 70
     0
  9
$MENU
  1
.
  9
$ELEVATION
 40
0.0
  9
$PELEVATION
 40
0.0
  9
$THICKNESS
 40
0.0
  9
$LIMCHECK
 70
     0
  9
$BLIPMODE
 70
     0
  9
$CHAMFERA
 40
10.0
  9
$CHAMFERB
 40
10.0
  9
$CHAMFERC
 40
20.0
  9
$CHAMFERD
 40
0.0
  9
$SKPOLY
 70
     0
  9
$TDCREATE
 40
2455162.816761921
  9
$TDUPDATE
 40
2455162.817664421
  9
$TDINDWG
 40
0.0009028588
  9
$TDUSRTIMER
 40
0.0009028588
  9
$USRTIMER
 70
     1
  9
$ANGBASE
 50
0.0
  9
$ANGDIR
 70
     0
  9
$PDMODE
 70
     0
  9
$PDSIZE
 40
0.0
  9
$PLINEWID
 40
0.0
  9
$COORDS
 70
     0
  9
$SPLFRAME
 70
     0
  9
$SPLINETYPE
 70
     6
  9
$SPLINESEGS
 70
     8
  9
$ATTDIA
 70
     0
  9
$ATTREQ
 70
     1
  9
$HANDLING
 70
 22529
  9
$HANDSEED
  5
A88
  9
$SURFTAB1
 70
     6
  9
$SURFTAB2
 70
     6
  9
$SURFTYPE
 70
     6
  9
$SURFU
 70
     6
  9
$SURFV
 70
     6
  9
$UCSNAME
  2

  9
$UCSORG
 10
0.0
 20
0.0
 30
0.0
  9
$UCSXDIR
 10
1.0
 20
0.0
 30
0.0
  9
$UCSYDIR
 10
0.0
 20
1.0
 30
0.0
  9
$PUCSNAME
  2

  9
$PUCSORG
 10
0.0
 20
0.0
 30
0.0
  9
$PUCSXDIR
 10
1.0
 20
0.0
 30
0.0
  9
$PUCSYDIR
 10
0.0
 20
1.0
 30
0.0
  9
$USERI1
 70
     0
  9
$USERI2
 70
     0
  9
$USERI3
 70
     0
  9
$USERI4
 70
     0
  9
$USERI5
 70
     0
  9
$USERR1
 40
0.0
  9
$USERR2
 40
0.0
  9
$USERR3
 40
0.0
  9
$USERR4
 40
0.0
  9
$USERR5
 40
0.0
  9
$WORLDVIEW
 70
     1
  9
$SHADEDGE
 70
     3
  9
$SHADEDIF
 70
    70
  9
$TILEMODE
 70
     1
  9
$MAXACTVP
 70
    64
  9
$PINSBASE
 10
0.0
 20
0.0
 30
0.0
  9
$PLIMCHECK
 70
     0
  9
$PEXTMIN
 10
1.000000000000000E+20
 20
1.000000000000000E+20
 30
1.000000000000000E+20
  9
$PEXTMAX
 10
-1.000000000000000E+20
 20
-1.000000000000000E+20
 30
-1.000000000000000E+20
  9
$PLIMMIN
 10
0.0
 20
0.0
  9
$PLIMMAX
 10
420.0
 20
297.0
  9
$UNITMODE
 70
     0
  9
$VISRETAIN
 70
     1
  9
$PLINEGEN
 70
     0
  9
$PSLTSCALE
 70
     1
  9
$TREEDEPTH
 70
  3020
  9
$PICKSTYLE
 70
     1
  9
$CMLSTYLE
  2
STANDARD
  9
$CMLJUST
 70
     0
  9
$CMLSCALE
 40
20.0
  9
$PROXYGRAPHICS
 70
     1
  9
$MEASUREMENT
 70
     1
  0
ENDSEC
  0
SECTION
  2
CLASSES
  0
CLASS
  1
ACDBDICTIONARYWDFLT
  2
AcDbDictionaryWithDefault
  3
AutoCAD 2000
 90
        0
280
     0
281
     0
  0
CLASS
  1
ACDBPLACEHOLDER
  2
AcDbPlaceHolder
  3
AutoCAD 2000
 90
        0
280
     0
281
     0
  0
CLASS
  1
LAYOUT
  2
AcDbLayout
  3
AutoCAD 2000
 90
        0
280
     0
281
     0
  0
CLASS
  1
DICTIONARYVAR
  2
AcDbDictionaryVar
  3
AutoCAD 2000
 90
        0
280
     0
281
     0
  0
CLASS
  1
LONG_TRANSACTION
  2
AcDbLongTransaction
  3
AutoCAD 2000
 90
        0
280
     0
281
     0
  0
CLASS
  1
LWPOLYLINE
  2
AcDbPolyline
  3
AutoCAD 2000
 90
        0
280
     0
281
     1
  0
CLASS
  1
HATCH
  2
AcDbHatch
  3
AutoCAD 2000
 90
        0
280
     0
281
     1
  0
CLASS
  1
XRECORD
  2
AcDbXrecord
  3
AutoCAD 2000
 90
        0
280
     0
281
     0
  0
ENDSEC
  0
SECTION
  2
TABLES
  0
TABLE
  2
VPORT
  5
8
330
0
100
AcDbSymbolTable
 70
     3
  0
VPORT
  5
A61
330
8
100
AcDbSymbolTableRecord
100
AcDbViewportTableRecord
  2
*ACTIVE
 70
     0
 10
0.0
 20
0.0
 11
1.0
 21
1.0
 12
168.4716806170434
 22
219.4122856251339
 13
0.0
 23
0.0
 14
10.0
 24
10.0
 15
10.0
 25
10.0
 16
0.0
 26
0.0
 36
1.0
 17
0.0
 27
0.0
 37
0.0
 40
442.4845454191268
 41
1.668975069252077
 42
50.0
 43
0.0
 44
0.0
 50
0.0
 51
0.0
 71
     0
 72
   100
 73
     1
 74
     3
 75
     0
 76
     0
 77
     0
 78
     0
  0
ENDTAB
  0
TABLE
  2
LTYPE
  5
5
330
0
100
AcDbSymbolTable
 70
     3
  0
LTYPE
  5
14
330
5
100
AcDbSymbolTableRecord
100
AcDbLinetypeTableRecord
  2
BYBLOCK
 70
     0
  3

 72
    65
 73
     0
 40
0.0
  0
LTYPE
  5
15
330
5
100
AcDbSymbolTableRecord
100
AcDbLinetypeTableRecord
  2
BYLAYER
 70
     0
  3

 72
    65
 73
     0
 40
0.0
  0
LTYPE
  5
16
330
5
100
AcDbSymbolTableRecord
100
AcDbLinetypeTableRecord
  2
CONTINUOUS
 70
     0
  3
Solid line
 72
    65
 73
     0
 40
0.0
  0
LTYPE
  5
21D
330
5
100
AcDbSymbolTableRecord
100
AcDbLinetypeTableRecord
  2
CENTER
 70
     0
  3
____ _ ____ _ ____ _ ____ _ ____ _ ____ _ ____
 72
    65
 73
     4
 40
2.0
 49
1.25
 74
     0
 49
-0.25
 74
     0
 49
0.25
 74
     0
 49
-0.25
 74
     0
  0
LTYPE
  5
21E
330
5
100
AcDbSymbolTableRecord
100
AcDbLinetypeTableRecord
  2
DIVIDE
 70
     0
  3
__ . . __ . . __ . . __ . . __ . . __ . . __
 72
    65
 73
     6
 40
1.25
 49
0.0
 74
     0
 49
-0.25
 74
     0
 49
0.0
 74
     0
 49
-0.25
 74
     0
 49
0.0
 74
     0
 49
-0.25
 74
     0
  0
ENDTAB
  0
TABLE
  2
LAYER
  5
2
102
{ACAD_XDICTIONARY
360
22C
102
}
330
0
100
AcDbSymbolTable
 70
     7
  0
LAYER
  5
10
330
2
100
AcDbSymbolTableRecord
100
AcDbLayerTableRecord
  2
0
 70
     0
 62
     7
  6
CONTINUOUS
  0
LAYER
  5
21F
330
2
100
AcDbSymbolTableRecord
100
AcDbLayerTableRecord
  2
外枠
 70
     0
 62
     7
  6
CONTINUOUS
  0
LAYER
  5
221
330
2
100
AcDbSymbolTableRecord
100
AcDbLayerTableRecord
  2
DEFPOINTS
 70
     0
 62
     7
  6
CONTINUOUS
  0
LAYER
  5
222
330
2
100
AcDbSymbolTableRecord
100
AcDbLayerTableRecord
  2
CLASS1
 70
     0
 62
     7
  6
CONTINUOUS
  0
LAYER
  5
223
330
2
100
AcDbSymbolTableRecord
100
AcDbLayerTableRecord
  2
WORKLAYER
 70
     0
 62
     7
  6
CONTINUOUS
  0
LAYER
  5
224
330
2
100
AcDbSymbolTableRecord
100
AcDbLayerTableRecord
  2
3_表示パネル
 70
     0
 62
     7
  6
DIVIDE
  0
ENDTAB
  0
TABLE
  2
STYLE
  5
3
330
0
100
AcDbSymbolTable
 70
     2
  0
STYLE
  5
11
330
3
100
AcDbSymbolTableRecord
100
AcDbTextStyleTableRecord
  2
STANDARD
 70
     0
 40
0.0
 41
1.0
 50
0.0
 71
     0
 42
2.5
  3
txt
  4

  0
ENDTAB
  0
TABLE
  2
VIEW
  5
6
330
0
100
AcDbSymbolTable
 70
     0
  0
ENDTAB
  0
TABLE
  2
UCS
  5
7
330
0
100
AcDbSymbolTable
 70
     0
  0
ENDTAB
  0
TABLE
  2
APPID
  5
9
330
0
100
AcDbSymbolTable
 70
     1
  0
APPID
  5
12
330
9
100
AcDbSymbolTableRecord
100
AcDbRegAppTableRecord
  2
ACAD
 70
     0
  0
ENDTAB
  0
TABLE
  2
DIMSTYLE
  5
A
330
0
100
AcDbSymbolTable
 70
     7
  0
DIMSTYLE
105
27
330
A
100
AcDbSymbolTableRecord
100
AcDbDimStyleTableRecord
  2
ISO-25
 70
     0
  3

  4

  5

  6

  7

 40
1.0
 41
2.5
 42
0.625
 43
3.75
 44
1.25
 45
0.0
 46
0.0
 47
0.0
 48
0.0
140
2.5
141
2.5
142
0.0
143
0.03937007874016
144
1.0
145
0.0
146
1.0
147
0.625
 71
     0
 72
     0
 73
     0
 74
     0
 75
     0
 76
     0
 77
     1
 78
     8
170
     0
171
     3
172
     1
173
     0
174
     0
175
     0
176
     0
177
     0
178
     0
270
     2
271
     2
272
     2
273
     2
274
     3
340
11
275
     0
280
     0
281
     0
282
     0
283
     0
284
     8
285
     0
286
     0
287
     3
288
     0
  0
ENDTAB
  0
TABLE
  2
BLOCK_RECORD
  5
1
330
0
100
AcDbSymbolTable
 70
    17
  0
BLOCK_RECORD
  5
1F
102
{ACAD_XDICTIONARY
360
A84
102
}
330
1
100
AcDbSymbolTableRecord
100
AcDbBlockTableRecord
  2
*MODEL_SPACE
  0
BLOCK_RECORD
  5
1B
102
{ACAD_XDICTIONARY
360
A82
102
}
330
1
100
AcDbSymbolTableRecord
100
AcDbBlockTableRecord
  2
*PAPER_SPACE
  0
BLOCK_RECORD
  5
31
330
1
100
AcDbSymbolTableRecord
100
AcDbBlockTableRecord
  2
A$C51C20FFB
  0
BLOCK_RECORD
  5
82
330
1
100
AcDbSymbolTableRecord
100
AcDbBlockTableRecord
  2
A$C627E4F0D
  0
ENDTAB
  0
ENDSEC
  0
SECTION
  2
BLOCKS
  0
BLOCK
  5
20
330
1F
100
AcDbEntity
  8
0
100
AcDbBlockBegin
  2
*MODEL_SPACE
 70
     0
 10
0.0
 20
0.0
 30
0.0
  3
*MODEL_SPACE
  1

  0
ENDBLK
  5
21
330
1F
100
AcDbEntity
  8
0
100
AcDbBlockEnd
  0
BLOCK
  5
1C
330
1B
100
AcDbEntity
 67
     1
  8
0
100
AcDbBlockBegin
  2
*PAPER_SPACE
 70
     0
 10
0.0
 20
0.0
 30
0.0
  3
*PAPER_SPACE
  1

  0
ENDBLK
  5
1D
330
1B
100
AcDbEntity
 67
     1
  8
0
100
AcDbBlockEnd
  0
BLOCK
  5
36
330
31
100
AcDbEntity
  8
0
100
AcDbBlockBegin
  2
A$C51C20FFB
 70
     0
 10
0.0
 20
0.0
 30
0.0
  3
A$C51C20FFB
  1

  0
LINE
  5
32
330
31
100
AcDbEntity
  8
0
100
AcDbLine
 10
31.0
 20
2.499998662678081
 30
0.0
 11
0.0
 21
2.499998662678081
 31
0.0
  0
LINE
  5
33
330
31
100
AcDbEntity
  8
0
100
AcDbLine
 10
31.0
 20
-0.000001337321919
 30
0.0
 11
31.0
 21
2.499998662678081
 31
0.0
  0
LINE
  5
34
330
31
100
AcDbEntity
  8
0
100
AcDbLine
 10
0.0
 20
-0.000001337321919
 30
0.0
 11
31.0
 21
-0.000001337321919
 31
0.0
  0
LINE
  5
35
330
31
100
AcDbEntity
  8
0
100
AcDbLine
 10
0.0
 20
2.499998662678081
 30
0.0
 11
0.0
 21
-0.000001337321919
 31
0.0
  0
ENDBLK
  5
37
330
31
100
AcDbEntity
  8
0
100
AcDbBlockEnd
  0
BLOCK
  5
21B
330
82
100
AcDbEntity
  8
0
100
AcDbBlockBegin
  2
A$C627E4F0D
 70
     0
 10
0.0
 20
0.0
 30
0.0
  3
A$C627E4F0D
  1

  0
LINE
  5
83
330
82
100
AcDbEntity
  8
0
100
AcDbLine
 10
-0.1890242188134152
 20
-0.8071067811864569
 30
0.0
 11
-0.1890242188134152
 21
-23.60710678118652
 31
0.0
  0
LINE
  5
84
330
82
100
AcDbEntity
  8
0
100
AcDbLine
 10
-0.2928932188134468
 20
-0.7071067811864343
 30
0.0
 11
-0.2928932188134468
 21
-23.70710678118643
 31
0.0
  0
ARC
  5
85
330
82
100
AcDbEntity
  8
0
100
AcDbCircle
 10
0.8109757811865847
 20
-23.60710678118658
 30
0.0
 40
1.0
100
AcDbArc
 50
180.0
 51
270.0
  0
ARC
  5
86
330
82
100
AcDbEntity
  8
0
100
AcDbCircle
 10
0.7071067811865533
 20
-23.70710678118654
 30
0.0
 40
1.0
100
AcDbArc
 50
180.0
 51
270.0
  0
LINE
  5
87
330
82
100
AcDbEntity
  8
0
100
AcDbLine
 10
46.91097578118672
 20
-10.10710678118652
 30
0.0
 11
52.61097578118676
 21
-10.10710678118652
 31
0.0
  0
LINE
  5
88
330
82
100
AcDbEntity
  8
外枠
100
AcDbLine
 10
46.38097478118459
 20
-17.60710678118652
 30
0.0
 11
47.1309747811864
 21
-17.60710678118652
 31
0.0
  0
LINE
  5
89
330
82
100
AcDbEntity
  8
0
100
AcDbLine
 10
18.0309747811865
 20
-4.407106781186479
 30
0.0
 11
21.1309747811864
 21
-4.407106781186479
 31
0.0
  0
CIRCLE
  5
8A
330
82
100
AcDbEntity
  8
0
100
AcDbCircle
 10
19.59597478118655
 20
-9.207106781186547
 30
0.0
 40
1.564999999999999
  0
LINE
  5
8B
330
82
100
AcDbEntity
  8
0
100
AcDbLine
 10
20.73097478118654
 20
-7.057106781186456
 30
0.0
 11
17.69097478118658
 21
-7.057106781186456
 31
0.0
  0
LINE
  5
8C
330
82
100
AcDbEntity
  8
0
100
AcDbLine
 10
18.0309747811865
 20
-6.907106781186479
 30
0.0
 11
20.73097478118654
 21
-6.907106781186479
 31
0.0
  0
ARC
  5
8D
330
82
100
AcDbEntity
  8
0
100
AcDbCircle
 10
19.59597478118655
 20
-9.207106781186547
 30
0.0
 40
0.85
100
AcDbArc
 50
270.0
 51
233.269604999998
  0
LINE
  5
8E
330
82
100
AcDbEntity
  8
0
100
AcDbLine
 10
21.43097478118659
 20
-5.057106781186456
 30
0.0
 11
18.63097478118641
 21
-5.057106781186456
 31
0.0
  0
LINE
  5
8F
330
82
100
AcDbEntity
  8
0
100
AcDbLine
 10
18.63097478118641
 20
-6.257106781186502
 30
0.0
 11
21.43097478118659
 21
-6.257106781186502
 31
0.0
  0
LINE
  5
90
330
82
100
AcDbEntity
  8
0
100
AcDbLine
 10
5.710975781186675
 20
-3.907106781186479
 30
0.0
 11
35.61097578118676
 21
-3.907106781186479
 31
0.0
  0
LINE
  5
91
330
82
100
AcDbEntity
  8
0
100
AcDbLine
 10
19.10097478118643
 20
-17.60710678118652
 30
0.0
 11
18.70097478118657
 21
-17.60710678118652
 31
0.0
  0
LINE
  5
92
330
82
100
AcDbEntity
  8
0
100
AcDbLine
 10
21.50097478118652
 20
-12.23710678118652
 30
0.0
 11
17.69097478118658
 21
-12.23710678118652
 31
0.0
  0
LINE
  5
93
330
82
100
AcDbEntity
  8
0
100
AcDbLine
 10
35.43097478118659
 20
-17.10710678118652
 30
0.0
 11
6.370974781186419
 21
-17.10710678118652
 31
0.0
  0
LINE
  5
94
330
82
100
AcDbEntity
  8
外枠
100
AcDbLine
 10
36.18097478118568
 20
-17.60710678118652
 30
0.0
 11
5.710975781186675
 21
-17.60710678118652
 31
0.0
  0
LINE
  5
95
330
82
100
AcDbEntity
  8
0
100
AcDbLine
 10
17.69097478118658
 20
-12.23710678118652
 30
0.0
 11
17.69097478118658
 21
-16.60710678118652
 31
0.0
  0
LINE
  5
96
330
82
100
AcDbEntity
  8
0
100
AcDbLine
 10
17.69097478118658
 20
-12.23710678118652
 30
0.0
 11
17.69097478118658
 21
-12.67710678118646
 31
0.0
  0
LINE
  5
97
330
82
100
AcDbEntity
  8
0
100
AcDbLine
 10
13.88097478118641
 20
-12.23710678118652
 30
0.0
 11
13.88097478118641
 21
-16.60710678118652
 31
0.0
  0
LINE
  5
98
330
82
100
AcDbEntity
  8
0
100
AcDbLine
 10
13.88097478118641
 20
-12.23710678118652
 30
0.0
 11
13.88097478118641
 21
-12.67710678118646
 31
0.0
  0
LINE
  5
99
330
82
100
AcDbEntity
  8
0
100
AcDbLine
 10
10.07097478118646
 20
-12.23710678118652
 30
0.0
 11
10.07097478118646
 21
-16.60710678118652
 31
0.0
  0
LINE
  5
9A
330
82
100
AcDbEntity
  8
0
100
AcDbLine
 10
10.07097478118646
 20
-12.23710678118652
 30
0.0
 11
10.07097478118646
 21
-12.67710678118646
 31
0.0
  0
LINE
  5
9B
330
82
100
AcDbEntity
  8
0
100
AcDbLine
 10
6.260974781186519
 20
-12.23710678118652
 30
0.0
 11
6.260974781186519
 21
-16.60710678118652
 31
0.0
  0
LINE
  5
9C
330
82
100
AcDbEntity
  8
0
100
AcDbLine
 10
5.710975781186675
 20
-3.907106781186479
 30
0.0
 11
5.710975781186675
 21
-18.10710678118652
 31
0.0
  0
LINE
  5
9D
330
82
100
AcDbEntity
  8
0
100
AcDbLine
 10
18.70097478118657
 20
-17.60710678118652
 30
0.0
 11
18.20097478118657
 21
-17.60710678118652
 31
0.0
  0
LINE
  5
9E
330
82
100
AcDbEntity
  8
0
100
AcDbLine
 10
17.69097478118658
 20
-17.10710678118652
 30
0.0
 11
17.69097478118658
 21
-16.60710678118652
 31
0.0
  0
LINE
  5
9F
330
82
100
AcDbEntity
  8
0
100
AcDbLine
 10
17.69097478118658
 20
-17.10710678118652
 30
0.0
 11
17.69097478118658
 21
-16.60710678118652
 31
0.0
  0
LINE
  5
A0
330
82
100
AcDbEntity
  8
0
100
AcDbLine
 10
18.20097478118657
 20
-17.60710678118652
 30
0.0
 11
17.80097478118648
 21
-17.60710678118652
 31
0.0
  0
LINE
  5
A1
330
82
100
AcDbEntity
  8
0
100
AcDbLine
 10
17.80097478118648
 20
-17.10710678118652
 30
0.0
 11
17.69097478118658
 21
-17.10710678118652
 31
0.0
  0
LINE
  5
A2
330
82
100
AcDbEntity
  8
0
100
AcDbLine
 10
17.80097478118648
 20
-17.10710678118652
 30
0.0
 11
17.80097478118648
 21
-17.60710678118652
 31
0.0
  0
LINE
  5
A3
330
82
100
AcDbEntity
  8
0
100
AcDbLine
 10
17.69097478118658
 20
-14.20710678118643
 30
0.0
 11
17.69097478118658
 21
-16.60710678118652
 31
0.0
  0
LINE
  5
A4
330
82
100
AcDbEntity
  8
0
100
AcDbLine
 10
17.69097478118658
 20
-12.67710678118646
 30
0.0
 11
17.69097478118658
 21
-12.80710678118645
 31
0.0
  0
LINE
  5
A5
330
82
100
AcDbEntity
  8
0
100
AcDbLine
 10
17.69097478118658
 20
-12.80710678118645
 30
0.0
 11
17.69097478118658
 21
-14.20710678118643
 31
0.0
  0
LINE
  5
A6
330
82
100
AcDbEntity
  8
0
100
AcDbLine
 10
11.48097478118654
 20
-17.10710678118652
 30
0.0
 11
11.48097478118654
 21
-17.60710678118652
 31
0.0
  0
LINE
  5
A7
330
82
100
AcDbEntity
  8
0
100
AcDbLine
 10
13.88097478118641
 20
-17.10710678118652
 30
0.0
 11
13.88097478118641
 21
-16.60710678118652
 31
0.0
  0
LINE
  5
A8
330
82
100
AcDbEntity
  8
0
100
AcDbLine
 10
13.88097478118641
 20
-17.10710678118652
 30
0.0
 11
13.88097478118641
 21
-16.60710678118652
 31
0.0
  0
LINE
  5
A9
330
82
100
AcDbEntity
  8
0
100
AcDbLine
 10
14.3909747811864
 20
-17.60710678118652
 30
0.0
 11
13.99097478118653
 21
-17.60710678118652
 31
0.0
  0
LINE
  5
AA
330
82
100
AcDbEntity
  8
0
100
AcDbLine
 10
14.8909747811864
 20
-17.60710678118652
 30
0.0
 11
14.3909747811864
 21
-17.60710678118652
 31
0.0
  0
LINE
  5
AB
330
82
100
AcDbEntity
  8
0
100
AcDbLine
 10
15.29097478118649
 20
-17.60710678118652
 30
0.0
 11
14.8909747811864
 21
-17.60710678118652
 31
0.0
  0
LINE
  5
AC
330
82
100
AcDbEntity
  8
0
100
AcDbLine
 10
13.99097478118653
 20
-17.10710678118652
 30
0.0
 11
13.88097478118641
 21
-17.10710678118652
 31
0.0
  0
LINE
  5
AD
330
82
100
AcDbEntity
  8
0
100
AcDbLine
 10
13.99097478118653
 20
-17.10710678118652
 30
0.0
 11
13.99097478118653
 21
-17.60710678118652
 31
0.0
  0
LINE
  5
AE
330
82
100
AcDbEntity
  8
0
100
AcDbLine
 10
15.29097478118649
 20
-17.10710678118652
 30
0.0
 11
15.29097478118649
 21
-17.60710678118652
 31
0.0
  0
LINE
  5
AF
330
82
100
AcDbEntity
  8
0
100
AcDbLine
 10
13.88097478118641
 20
-14.20710678118643
 30
0.0
 11
13.88097478118641
 21
-16.60710678118652
 31
0.0
  0
LINE
  5
B0
330
82
100
AcDbEntity
  8
0
100
AcDbLine
 10
13.88097478118641
 20
-12.67710678118646
 30
0.0
 11
13.88097478118641
 21
-12.80710678118645
 31
0.0
  0
LINE
  5
B1
330
82
100
AcDbEntity
  8
0
100
AcDbLine
 10
13.88097478118641
 20
-12.80710678118645
 30
0.0
 11
13.88097478118641
 21
-14.20710678118643
 31
0.0
  0
LINE
  5
B2
330
82
100
AcDbEntity
  8
0
100
AcDbLine
 10
10.58097478118645
 20
-17.60710678118652
 30
0.0
 11
10.18097478118659
 21
-17.60710678118652
 31
0.0
  0
LINE
  5
B3
330
82
100
AcDbEntity
  8
0
100
AcDbLine
 10
7.6709747811866
 20
-17.60710678118652
 30
0.0
 11
7.270974781186509
 21
-17.60710678118652
 31
0.0
  0
LINE
  5
B4
330
82
100
AcDbEntity
  8
0
100
AcDbLine
 10
7.270974781186509
 20
-17.60710678118652
 30
0.0
 11
6.770974781186509
 21
-17.60710678118652
 31
0.0
  0
LINE
  5
B5
330
82
100
AcDbEntity
  8
0
100
AcDbLine
 10
7.6709747811866
 20
-17.10710678118652
 30
0.0
 11
7.6709747811866
 21
-17.60710678118652
 31
0.0
  0
LINE
  5
B6
330
82
100
AcDbEntity
  8
0
100
AcDbLine
 10
10.07097478118646
 20
-17.10710678118652
 30
0.0
 11
10.07097478118646
 21
-16.60710678118652
 31
0.0
  0
LINE
  5
B7
330
82
100
AcDbEntity
  8
0
100
AcDbLine
 10
10.07097478118646
 20
-17.10710678118652
 30
0.0
 11
10.07097478118646
 21
-16.60710678118652
 31
0.0
  0
LINE
  5
B8
330
82
100
AcDbEntity
  8
0
100
AcDbLine
 10
10.18097478118659
 20
-17.10710678118652
 30
0.0
 11
10.07097478118646
 21
-17.10710678118652
 31
0.0
  0
LINE
  5
B9
330
82
100
AcDbEntity
  8
0
100
AcDbLine
 10
10.18097478118659
 20
-17.10710678118652
 30
0.0
 11
10.18097478118659
 21
-17.60710678118652
 31
0.0
  0
LINE
  5
BA
330
82
100
AcDbEntity
  8
0
100
AcDbLine
 10
10.07097478118646
 20
-14.20710678118643
 30
0.0
 11
10.07097478118646
 21
-16.60710678118652
 31
0.0
  0
LINE
  5
BB
330
82
100
AcDbEntity
  8
0
100
AcDbLine
 10
10.07097478118646
 20
-12.80710678118645
 30
0.0
 11
10.07097478118646
 21
-14.20710678118643
 31
0.0
  0
LINE
  5
BC
330
82
100
AcDbEntity
  8
0
100
AcDbLine
 10
10.07097478118646
 20
-12.67710678118646
 30
0.0
 11
10.07097478118646
 21
-12.80710678118645
 31
0.0
  0
LINE
  5
BD
330
82
100
AcDbEntity
  8
0
100
AcDbLine
 10
11.08097478118645
 20
-17.60710678118652
 30
0.0
 11
10.58097478118645
 21
-17.60710678118652
 31
0.0
  0
LINE
  5
BE
330
82
100
AcDbEntity
  8
0
100
AcDbLine
 10
11.48097478118654
 20
-17.60710678118652
 30
0.0
 11
11.08097478118645
 21
-17.60710678118652
 31
0.0
  0
LINE
  5
BF
330
82
100
AcDbEntity
  8
0
100
AcDbLine
 10
6.260974781186519
 20
-17.10710678118652
 30
0.0
 11
6.260974781186519
 21
-16.60710678118652
 31
0.0
  0
LINE
  5
C0
330
82
100
AcDbEntity
  8
0
100
AcDbLine
 10
6.370974781186419
 20
-17.10710678118652
 30
0.0
 11
6.370974781186419
 21
-17.60710678118652
 31
0.0
  0
LINE
  5
C1
330
82
100
AcDbEntity
  8
0
100
AcDbLine
 10
6.370974781186419
 20
-17.10710678118652
 30
0.0
 11
6.260974781186519
 21
-17.10710678118652
 31
0.0
  0
LINE
  5
C2
330
82
100
AcDbEntity
  8
0
100
AcDbLine
 10
6.770974781186509
 20
-17.60710678118652
 30
0.0
 11
6.370974781186419
 21
-17.60710678118652
 31
0.0
  0
ARC
  5
C3
330
82
100
AcDbEntity
  8
0
100
AcDbCircle
 10
18.0309747811865
 20
-4.707106781186547
 30
0.0
 40
0.3
100
AcDbArc
 50
90.0
 51
180.0
  0
LINE
  5
C4
330
82
100
AcDbEntity
  8
0
100
AcDbLine
 10
17.62097478118642
 20
-4.707106781186434
 30
0.0
 11
17.62097478118642
 21
-4.807106781186456
 31
0.0
  0
ARC
  5
C5
330
82
100
AcDbEntity
  8
0
100
AcDbCircle
 10
17.32097478118646
 20
-4.707106781186547
 30
0.0
 40
0.3
100
AcDbArc
 50
0.0
 51
90.0
  0
LINE
  5
C6
330
82
100
AcDbEntity
  8
0
100
AcDbLine
 10
17.73097478118654
 20
-4.707106781186434
 30
0.0
 11
17.73097478118654
 21
-4.807106781186456
 31
0.0
  0
LINE
  5
C7
330
82
100
AcDbEntity
  8
0
100
AcDbLine
 10
17.69097478118658
 20
-7.557106781186456
 30
0.0
 11
17.69097478118658
 21
-11.27710678118648
 31
0.0
  0
ARC
  5
C8
330
82
100
AcDbEntity
  8
0
100
AcDbCircle
 10
18.63097478118641
 20
-5.357106781186582
 30
0.0
 40
0.3
100
AcDbArc
 50
90.0
 51
180.0
  0
LINE
  5
C9
330
82
100
AcDbEntity
  8
0
100
AcDbLine
 10
17.62097478118642
 20
-5.357106781186525
 30
0.0
 11
17.62097478118642
 21
-5.057106781186456
 31
0.0
  0
ARC
  5
CA
330
82
100
AcDbEntity
  8
0
100
AcDbCircle
 10
18.63097478118641
 20
-5.957106781186547
 30
0.0
 40
0.3
100
AcDbArc
 50
180.0
 51
270.0
  0
LINE
  5
CB
330
82
100
AcDbEntity
  8
0
100
AcDbLine
 10
17.62097478118642
 20
-7.057106781186456
 30
0.0
 11
16.9209747811866
 21
-7.057106781186456
 31
0.0
  0
LINE
  5
CC
330
82
100
AcDbEntity
  8
0
100
AcDbLine
 10
16.9209747811866
 20
-6.907106781186479
 30
0.0
 11
17.62097478118642
 21
-6.907106781186479
 31
0.0
  0
ARC
  5
CD
330
82
100
AcDbEntity
  8
0
100
AcDbCircle
 10
18.0309747811865
 20
-6.607106781186582
 30
0.0
 40
0.3
100
AcDbArc
 50
180.0
 51
270.0
  0
LINE
  5
CE
330
82
100
AcDbEntity
  8
0
100
AcDbLine
 10
17.69097478118658
 20
-7.057106781186456
 30
0.0
 11
17.62097478118642
 21
-7.057106781186456
 31
0.0
  0
LINE
  5
CF
330
82
100
AcDbEntity
  8
0
100
AcDbLine
 10
17.69097478118658
 20
-7.557106781186456
 30
0.0
 11
17.69097478118658
 21
-7.057106781186456
 31
0.0
  0
LINE
  5
D0
330
82
100
AcDbEntity
  8
0
100
AcDbLine
 10
17.62097478118642
 20
-6.257106781186502
 30
0.0
 11
17.62097478118642
 21
-5.957106781186434
 31
0.0
  0
LINE
  5
D1
330
82
100
AcDbEntity
  8
0
100
AcDbLine
 10
17.62097478118642
 20
-6.257106781186502
 30
0.0
 11
17.62097478118642
 21
-6.507106781186502
 31
0.0
  0
LINE
  5
D2
330
82
100
AcDbEntity
  8
0
100
AcDbLine
 10
17.62097478118642
 20
-6.907106781186479
 30
0.0
 11
17.62097478118642
 21
-7.057106781186456
 31
0.0
  0
LINE
  5
D3
330
82
100
AcDbEntity
  8
0
100
AcDbLine
 10
17.62097478118642
 20
-6.507106781186502
 30
0.0
 11
17.62097478118642
 21
-6.907106781186479
 31
0.0
  0
LINE
  5
D4
330
82
100
AcDbEntity
  8
0
100
AcDbLine
 10
17.69097478118658
 20
-7.557106781186456
 30
0.0
 11
17.69097478118658
 21
-7.057106781186456
 31
0.0
  0
LINE
  5
D5
330
82
100
AcDbEntity
  8
0
100
AcDbLine
 10
17.73097478118654
 20
-6.507106781186502
 30
0.0
 11
17.73097478118654
 21
-6.607106781186525
 31
0.0
  0
LINE
  5
D6
330
82
100
AcDbEntity
  8
0
100
AcDbLine
 10
16.9209747811866
 20
-6.907106781186479
 30
0.0
 11
16.9209747811866
 21
-7.057106781186456
 31
0.0
  0
LINE
  5
D7
330
82
100
AcDbEntity
  8
0
100
AcDbLine
 10
17.62097478118642
 20
-5.357106781186525
 30
0.0
 11
17.62097478118642
 21
-5.957106781186434
 31
0.0
  0
LINE
  5
D8
330
82
100
AcDbEntity
  8
0
100
AcDbLine
 10
18.33097478118645
 20
-5.357106781186525
 30
0.0
 11
18.33097478118645
 21
-5.957106781186434
 31
0.0
  0
LINE
  5
D9
330
82
100
AcDbEntity
  8
0
100
AcDbLine
 10
17.62097478118642
 20
-4.807106781186456
 30
0.0
 11
17.62097478118642
 21
-5.057106781186456
 31
0.0
  0
LINE
  5
DA
330
82
100
AcDbEntity
  8
0
100
AcDbLine
 10
17.73097478118654
 20
-4.807106781186456
 30
0.0
 11
17.73097478118654
 21
-6.507106781186502
 31
0.0
  0
ARC
  5
DB
330
82
100
AcDbEntity
  8
0
100
AcDbCircle
 10
13.51097478118651
 20
-4.707106781186547
 30
0.0
 40
0.3
100
AcDbArc
 50
0.0
 51
90.0
  0
LINE
  5
DC
330
82
100
AcDbEntity
  8
0
100
AcDbLine
 10
13.81097478118647
 20
-4.707106781186434
 30
0.0
 11
13.81097478118647
 21
-4.807106781186456
 31
0.0
  0
LINE
  5
DD
330
82
100
AcDbEntity
  8
0
100
AcDbLine
 10
13.9209747811866
 20
-4.707106781186434
 30
0.0
 11
13.9209747811866
 21
-4.807106781186456
 31
0.0
  0
ARC
  5
DE
330
82
100
AcDbEntity
  8
0
100
AcDbCircle
 10
14.22097478118655
 20
-4.707106781186547
 30
0.0
 40
0.3
100
AcDbArc
 50
90.0
 51
180.0
  0
LINE
  5
DF
330
82
100
AcDbEntity
  8
0
100
AcDbLine
 10
6.600974781186437
 20
-4.407106781186479
 30
0.0
 11
9.700974781186573
 21
-4.407106781186479
 31
0.0
  0
ARC
  5
E0
330
82
100
AcDbEntity
  8
0
100
AcDbCircle
 10
10.41097478118661
 20
-4.707106781186547
 30
0.0
 40
0.3
100
AcDbArc
 50
90.0
 51
180.0
  0
LINE
  5
E1
330
82
100
AcDbEntity
  8
0
100
AcDbLine
 10
10.00097478118652
 20
-4.707106781186434
 30
0.0
 11
10.00097478118652
 21
-4.807106781186456
 31
0.0
  0
LINE
  5
E2
330
82
100
AcDbEntity
  8
0
100
AcDbLine
 10
10.11097478118642
 20
-4.707106781186434
 30
0.0
 11
10.11097478118642
 21
-4.807106781186456
 31
0.0
  0
ARC
  5
E3
330
82
100
AcDbEntity
  8
0
100
AcDbCircle
 10
9.700974781186573
 20
-4.707106781186547
 30
0.0
 40
0.3
100
AcDbArc
 50
0.0
 51
90.0
  0
LINE
  5
E4
330
82
100
AcDbEntity
  8
0
100
AcDbLine
 10
10.41097478118661
 20
-4.407106781186479
 30
0.0
 11
13.51097478118651
 21
-4.407106781186479
 31
0.0
  0
LINE
  5
E5
330
82
100
AcDbEntity
  8
0
100
AcDbLine
 10
13.88097478118641
 20
-7.557106781186456
 30
0.0
 11
13.88097478118641
 21
-11.27710678118648
 31
0.0
  0
LINE
  5
E6
330
82
100
AcDbEntity
  8
0
100
AcDbLine
 10
13.11097478118642
 20
-6.907106781186479
 30
0.0
 11
13.81097478118647
 21
-6.907106781186479
 31
0.0
  0
LINE
  5
E7
330
82
100
AcDbEntity
  8
0
100
AcDbLine
 10
13.81097478118647
 20
-7.057106781186456
 30
0.0
 11
13.11097478118642
 21
-7.057106781186456
 31
0.0
  0
LINE
  5
E8
330
82
100
AcDbEntity
  8
0
100
AcDbLine
 10
13.11097478118642
 20
-6.907106781186479
 30
0.0
 11
13.11097478118642
 21
-7.057106781186456
 31
0.0
  0
ARC
  5
E9
330
82
100
AcDbEntity
  8
0
100
AcDbCircle
 10
11.97597478118643
 20
-9.207106781186547
 30
0.0
 40
0.85
100
AcDbArc
 50
233.269604999998
 51
270.0
  0
LINE
  5
EA
330
82
100
AcDbEntity
  8
0
100
AcDbLine
 10
13.81097478118647
 20
-5.357106781186525
 30
0.0
 11
13.81097478118647
 21
-5.057106781186456
 31
0.0
  0
ARC
  5
EB
330
82
100
AcDbEntity
  8
0
100
AcDbCircle
 10
14.82097478118646
 20
-5.357106781186582
 30
0.0
 40
0.3
100
AcDbArc
 50
90.0
 51
180.0
  0
LINE
  5
EC
330
82
100
AcDbEntity
  8
0
100
AcDbLine
 10
13.81097478118647
 20
-6.257106781186502
 30
0.0
 11
13.81097478118647
 21
-5.957106781186434
 31
0.0
  0
LINE
  5
ED
330
82
100
AcDbEntity
  8
0
100
AcDbLine
 10
13.81097478118647
 20
-6.257106781186502
 30
0.0
 11
13.81097478118647
 21
-6.507106781186502
 31
0.0
  0
LINE
  5
EE
330
82
100
AcDbEntity
  8
0
100
AcDbLine
 10
13.81097478118647
 20
-6.907106781186479
 30
0.0
 11
13.81097478118647
 21
-7.057106781186456
 31
0.0
  0
LINE
  5
EF
330
82
100
AcDbEntity
  8
0
100
AcDbLine
 10
13.81097478118647
 20
-6.507106781186502
 30
0.0
 11
13.81097478118647
 21
-6.907106781186479
 31
0.0
  0
LINE
  5
F0
330
82
100
AcDbEntity
  8
0
100
AcDbLine
 10
13.88097478118641
 20
-7.557106781186456
 30
0.0
 11
13.88097478118641
 21
-7.057106781186456
 31
0.0
  0
LINE
  5
F1
330
82
100
AcDbEntity
  8
0
100
AcDbLine
 10
13.9209747811866
 20
-6.507106781186502
 30
0.0
 11
13.9209747811866
 21
-6.607106781186525
 31
0.0
  0
ARC
  5
F2
330
82
100
AcDbEntity
  8
0
100
AcDbCircle
 10
14.82097478118646
 20
-5.957106781186547
 30
0.0
 40
0.3
100
AcDbArc
 50
180.0
 51
270.0
  0
ARC
  5
F3
330
82
100
AcDbEntity
  8
0
100
AcDbCircle
 10
14.22097478118655
 20
-6.607106781186582
 30
0.0
 40
0.3
100
AcDbArc
 50
180.0
 51
270.0
  0
LINE
  5
F4
330
82
100
AcDbEntity
  8
0
100
AcDbLine
 10
13.88097478118641
 20
-7.557106781186456
 30
0.0
 11
13.88097478118641
 21
-7.057106781186456
 31
0.0
  0
LINE
  5
F5
330
82
100
AcDbEntity
  8
0
100
AcDbLine
 10
13.88097478118641
 20
-7.057106781186456
 30
0.0
 11
13.81097478118647
 21
-7.057106781186456
 31
0.0
  0
ARC
  5
F6
330
82
100
AcDbEntity
  8
0
100
AcDbCircle
 10
15.78597478118661
 20
-9.207106781186547
 30
0.0
 40
0.85
100
AcDbArc
 50
233.269604999998
 51
270.0
  0
LINE
  5
F7
330
82
100
AcDbEntity
  8
0
100
AcDbLine
 10
13.81097478118647
 20
-5.357106781186525
 30
0.0
 11
13.81097478118647
 21
-5.957106781186434
 31
0.0
  0
LINE
  5
F8
330
82
100
AcDbEntity
  8
0
100
AcDbLine
 10
14.52097478118651
 20
-5.357106781186525
 30
0.0
 11
14.52097478118651
 21
-5.957106781186434
 31
0.0
  0
LINE
  5
F9
330
82
100
AcDbEntity
  8
0
100
AcDbLine
 10
10.07097478118646
 20
-7.557106781186456
 30
0.0
 11
10.07097478118646
 21
-11.27710678118648
 31
0.0
  0
CIRCLE
  5
FA
330
82
100
AcDbEntity
  8
0
100
AcDbCircle
 10
8.165974781186491
 20
-9.207106781186547
 30
0.0
 40
1.564999999999999
  0
LINE
  5
FB
330
82
100
AcDbEntity
  8
0
100
AcDbLine
 10
10.00097478118652
 20
-5.057106781186456
 30
0.0
 11
7.200974781186573
 21
-5.057106781186456
 31
0.0
  0
LINE
  5
FC
330
82
100
AcDbEntity
  8
0
100
AcDbLine
 10
6.600974781186437
 20
-6.907106781186479
 30
0.0
 11
9.300974781186482
 21
-6.907106781186479
 31
0.0
  0
ARC
  5
FD
330
82
100
AcDbEntity
  8
0
100
AcDbCircle
 10
8.165974781186491
 20
-9.207106781186547
 30
0.0
 40
0.85
100
AcDbArc
 50
270.0
 51
233.269604999998
  0
LINE
  5
FE
330
82
100
AcDbEntity
  8
0
100
AcDbLine
 10
7.200974781186573
 20
-6.257106781186502
 30
0.0
 11
10.00097478118652
 21
-6.257106781186502
 31
0.0
  0
ARC
  5
FF
330
82
100
AcDbEntity
  8
0
100
AcDbCircle
 10
7.200974781186573
 20
-5.357106781186582
 30
0.0
 40
0.3
100
AcDbArc
 50
90.0
 51
180.0
  0
ARC
  5
100
330
82
100
AcDbEntity
  8
0
100
AcDbCircle
 10
8.165974781186491
 20
-9.207106781186547
 30
0.0
 40
0.85
100
AcDbArc
 50
233.269604999998
 51
270.0
  0
ARC
  5
101
330
82
100
AcDbEntity
  8
0
100
AcDbCircle
 10
7.200974781186573
 20
-5.957106781186547
 30
0.0
 40
0.3
100
AcDbArc
 50
180.0
 51
270.0
  0
LINE
  5
102
330
82
100
AcDbEntity
  8
0
100
AcDbLine
 10
6.900974781186619
 20
-5.357106781186525
 30
0.0
 11
6.900974781186619
 21
-5.957106781186434
 31
0.0
  0
LINE
  5
103
330
82
100
AcDbEntity
  8
0
100
AcDbLine
 10
10.00097478118652
 20
-5.357106781186525
 30
0.0
 11
10.00097478118652
 21
-5.057106781186456
 31
0.0
  0
LINE
  5
104
330
82
100
AcDbEntity
  8
0
100
AcDbLine
 10
9.300974781186482
 20
-6.907106781186479
 30
0.0
 11
9.300974781186482
 21
-7.057106781186456
 31
0.0
  0
ARC
  5
105
330
82
100
AcDbEntity
  8
0
100
AcDbCircle
 10
10.41097478118661
 20
-6.607106781186582
 30
0.0
 40
0.3
100
AcDbArc
 50
180.0
 51
270.0
  0
LINE
  5
106
330
82
100
AcDbEntity
  8
0
100
AcDbLine
 10
10.07097478118646
 20
-7.557106781186456
 30
0.0
 11
10.07097478118646
 21
-7.057106781186456
 31
0.0
  0
LINE
  5
107
330
82
100
AcDbEntity
  8
0
100
AcDbLine
 10
10.00097478118652
 20
-6.507106781186502
 30
0.0
 11
10.00097478118652
 21
-6.907106781186479
 31
0.0
  0
LINE
  5
108
330
82
100
AcDbEntity
  8
0
100
AcDbLine
 10
10.00097478118652
 20
-6.907106781186479
 30
0.0
 11
10.00097478118652
 21
-7.057106781186456
 31
0.0
  0
LINE
  5
109
330
82
100
AcDbEntity
  8
0
100
AcDbLine
 10
10.00097478118652
 20
-6.257106781186502
 30
0.0
 11
10.00097478118652
 21
-6.507106781186502
 31
0.0
  0
LINE
  5
10A
330
82
100
AcDbEntity
  8
0
100
AcDbLine
 10
10.00097478118652
 20
-6.257106781186502
 30
0.0
 11
10.00097478118652
 21
-5.957106781186434
 31
0.0
  0
LINE
  5
10B
330
82
100
AcDbEntity
  8
0
100
AcDbLine
 10
10.07097478118646
 20
-7.557106781186456
 30
0.0
 11
10.07097478118646
 21
-7.057106781186456
 31
0.0
  0
LINE
  5
10C
330
82
100
AcDbEntity
  8
0
100
AcDbLine
 10
10.07097478118646
 20
-7.057106781186456
 30
0.0
 11
10.00097478118652
 21
-7.057106781186456
 31
0.0
  0
LINE
  5
10D
330
82
100
AcDbEntity
  8
0
100
AcDbLine
 10
10.11097478118642
 20
-6.507106781186502
 30
0.0
 11
10.11097478118642
 21
-6.607106781186525
 31
0.0
  0
LINE
  5
10E
330
82
100
AcDbEntity
  8
0
100
AcDbLine
 10
9.300974781186482
 20
-6.907106781186479
 30
0.0
 11
10.00097478118652
 21
-6.907106781186479
 31
0.0
  0
LINE
  5
10F
330
82
100
AcDbEntity
  8
0
100
AcDbLine
 10
10.00097478118652
 20
-7.057106781186456
 30
0.0
 11
9.300974781186482
 21
-7.057106781186456
 31
0.0
  0
LINE
  5
110
330
82
100
AcDbEntity
  8
0
100
AcDbLine
 10
10.00097478118652
 20
-5.357106781186525
 30
0.0
 11
10.00097478118652
 21
-5.957106781186434
 31
0.0
  0
ARC
  5
111
330
82
100
AcDbEntity
  8
0
100
AcDbCircle
 10
11.01097478118651
 20
-5.357106781186582
 30
0.0
 40
0.3
100
AcDbArc
 50
90.0
 51
180.0
  0
ARC
  5
112
330
82
100
AcDbEntity
  8
0
100
AcDbCircle
 10
11.01097478118651
 20
-5.957106781186547
 30
0.0
 40
0.3
100
AcDbArc
 50
180.0
 51
270.0
  0
LINE
  5
113
330
82
100
AcDbEntity
  8
0
100
AcDbLine
 10
10.71097478118656
 20
-5.357106781186525
 30
0.0
 11
10.71097478118656
 21
-5.957106781186434
 31
0.0
  0
CIRCLE
  5
114
330
82
100
AcDbEntity
  8
0
100
AcDbCircle
 10
11.97597478118643
 20
-9.207106781186547
 30
0.0
 40
1.564999999999999
  0
LINE
  5
115
330
82
100
AcDbEntity
  8
0
100
AcDbLine
 10
13.11097478118642
 20
-7.057106781186456
 30
0.0
 11
10.07097478118646
 21
-7.057106781186456
 31
0.0
  0
LINE
  5
116
330
82
100
AcDbEntity
  8
0
100
AcDbLine
 10
10.41097478118661
 20
-6.907106781186479
 30
0.0
 11
13.11097478118642
 21
-6.907106781186479
 31
0.0
  0
LINE
  5
117
330
82
100
AcDbEntity
  8
0
100
AcDbLine
 10
13.81097478118647
 20
-5.057106781186456
 30
0.0
 11
11.01097478118651
 21
-5.057106781186456
 31
0.0
  0
LINE
  5
118
330
82
100
AcDbEntity
  8
0
100
AcDbLine
 10
11.01097478118651
 20
-6.257106781186502
 30
0.0
 11
13.81097478118647
 21
-6.257106781186502
 31
0.0
  0
ARC
  5
119
330
82
100
AcDbEntity
  8
0
100
AcDbCircle
 10
11.97597478118643
 20
-9.207106781186547
 30
0.0
 40
0.85
100
AcDbArc
 50
270.0
 51
233.269604999998
  0
LINE
  5
11A
330
82
100
AcDbEntity
  8
0
100
AcDbLine
 10
10.00097478118652
 20
-4.807106781186456
 30
0.0
 11
10.00097478118652
 21
-5.057106781186456
 31
0.0
  0
LINE
  5
11B
330
82
100
AcDbEntity
  8
0
100
AcDbLine
 10
10.11097478118642
 20
-4.807106781186456
 30
0.0
 11
10.11097478118642
 21
-6.507106781186502
 31
0.0
  0
LINE
  5
11C
330
82
100
AcDbEntity
  8
0
100
AcDbLine
 10
13.81097478118647
 20
-4.807106781186456
 30
0.0
 11
13.81097478118647
 21
-5.057106781186456
 31
0.0
  0
LINE
  5
11D
330
82
100
AcDbEntity
  8
0
100
AcDbLine
 10
13.9209747811866
 20
-4.807106781186456
 30
0.0
 11
13.9209747811866
 21
-6.507106781186502
 31
0.0
  0
CIRCLE
  5
11E
330
82
100
AcDbEntity
  8
0
100
AcDbCircle
 10
15.78597478118661
 20
-9.207106781186547
 30
0.0
 40
1.564999999999999
  0
LINE
  5
11F
330
82
100
AcDbEntity
  8
0
100
AcDbLine
 10
17.62097478118642
 20
-5.057106781186456
 30
0.0
 11
14.82097478118646
 21
-5.057106781186456
 31
0.0
  0
LINE
  5
120
330
82
100
AcDbEntity
  8
0
100
AcDbLine
 10
14.82097478118646
 20
-6.257106781186502
 30
0.0
 11
17.62097478118642
 21
-6.257106781186502
 31
0.0
  0
LINE
  5
121
330
82
100
AcDbEntity
  8
0
100
AcDbLine
 10
16.9209747811866
 20
-7.057106781186456
 30
0.0
 11
13.88097478118641
 21
-7.057106781186456
 31
0.0
  0
LINE
  5
122
330
82
100
AcDbEntity
  8
0
100
AcDbLine
 10
14.22097478118655
 20
-6.907106781186479
 30
0.0
 11
16.9209747811866
 21
-6.907106781186479
 31
0.0
  0
ARC
  5
123
330
82
100
AcDbEntity
  8
0
100
AcDbCircle
 10
15.78597478118661
 20
-9.207106781186547
 30
0.0
 40
0.85
100
AcDbArc
 50
270.0
 51
233.269604999998
  0
LINE
  5
124
330
82
100
AcDbEntity
  8
0
100
AcDbLine
 10
14.22097478118655
 20
-4.407106781186479
 30
0.0
 11
17.32097478118646
 21
-4.407106781186479
 31
0.0
  0
LINE
  5
125
330
82
100
AcDbEntity
  8
0
100
AcDbLine
 10
6.300974781186482
 20
-4.707106781186434
 30
0.0
 11
6.300974781186482
 21
-4.807106781186456
 31
0.0
  0
LINE
  5
126
330
82
100
AcDbEntity
  8
0
100
AcDbLine
 10
6.300974781186482
 20
-6.507106781186502
 30
0.0
 11
6.300974781186482
 21
-6.607106781186525
 31
0.0
  0
LINE
  5
127
330
82
100
AcDbEntity
  8
0
100
AcDbLine
 10
6.260974781186519
 20
-7.557106781186456
 30
0.0
 11
6.260974781186519
 21
-7.057106781186456
 31
0.0
  0
LINE
  5
128
330
82
100
AcDbEntity
  8
0
100
AcDbLine
 10
6.300974781186482
 20
-4.807106781186456
 30
0.0
 11
6.300974781186482
 21
-6.507106781186502
 31
0.0
  0
LINE
  5
129
330
82
100
AcDbEntity
  8
0
100
AcDbLine
 10
9.300974781186482
 20
-7.057106781186456
 30
0.0
 11
6.260974781186519
 21
-7.057106781186456
 31
0.0
  0
ARC
  5
12A
330
82
100
AcDbEntity
  8
0
100
AcDbCircle
 10
6.600974781186437
 20
-6.607106781186582
 30
0.0
 40
0.3
100
AcDbArc
 50
180.0
 51
270.0
  0
ARC
  5
12B
330
82
100
AcDbEntity
  8
0
100
AcDbCircle
 10
6.600974781186437
 20
-4.707106781186547
 30
0.0
 40
0.3
100
AcDbArc
 50
90.0
 51
180.0
  0
LINE
  5
12C
330
82
100
AcDbEntity
  8
0
100
AcDbLine
 10
17.69097478118658
 20
-12.23710678118652
 30
0.0
 11
17.69097478118658
 21
-12.03710678118647
 31
0.0
  0
LINE
  5
12D
330
82
100
AcDbEntity
  8
0
100
AcDbLine
 10
17.69097478118658
 20
-12.23710678118652
 30
0.0
 11
17.69097478118658
 21
-12.03710678118647
 31
0.0
  0
LINE
  5
12E
330
82
100
AcDbEntity
  8
0
100
AcDbLine
 10
13.88097478118641
 20
-12.23710678118652
 30
0.0
 11
13.88097478118641
 21
-12.03710678118647
 31
0.0
  0
LINE
  5
12F
330
82
100
AcDbEntity
  8
0
100
AcDbLine
 10
13.88097478118641
 20
-12.23710678118652
 30
0.0
 11
13.88097478118641
 21
-12.03710678118647
 31
0.0
  0
LINE
  5
130
330
82
100
AcDbEntity
  8
0
100
AcDbLine
 10
10.07097478118646
 20
-12.23710678118652
 30
0.0
 11
10.07097478118646
 21
-12.03710678118647
 31
0.0
  0
LINE
  5
131
330
82
100
AcDbEntity
  8
0
100
AcDbLine
 10
10.07097478118646
 20
-12.23710678118652
 30
0.0
 11
10.07097478118646
 21
-12.03710678118647
 31
0.0
  0
LINE
  5
132
330
82
100
AcDbEntity
  8
0
100
AcDbLine
 10
13.88097478118641
 20
-12.23710678118652
 30
0.0
 11
10.07097478118646
 21
-12.23710678118652
 31
0.0
  0
LINE
  5
133
330
82
100
AcDbEntity
  8
0
100
AcDbLine
 10
17.69097478118658
 20
-12.23710678118652
 30
0.0
 11
13.88097478118641
 21
-12.23710678118652
 31
0.0
  0
LINE
  5
134
330
82
100
AcDbEntity
  8
0
100
AcDbLine
 10
6.260974781186519
 20
-12.23710678118652
 30
0.0
 11
6.260974781186519
 21
-12.03710678118647
 31
0.0
  0
LINE
  5
135
330
82
100
AcDbEntity
  8
0
100
AcDbLine
 10
10.07097478118646
 20
-12.23710678118652
 30
0.0
 11
6.260974781186519
 21
-12.23710678118652
 31
0.0
  0
LINE
  5
136
330
82
100
AcDbEntity
  8
0
100
AcDbLine
 10
17.69097478118658
 20
-7.557106781186456
 30
0.0
 11
17.69097478118658
 21
-12.03710678118647
 31
0.0
  0
LINE
  5
137
330
82
100
AcDbEntity
  8
0
100
AcDbLine
 10
13.88097478118641
 20
-7.557106781186456
 30
0.0
 11
13.88097478118641
 21
-12.03710678118647
 31
0.0
  0
LINE
  5
138
330
82
100
AcDbEntity
  8
0
100
AcDbLine
 10
10.07097478118646
 20
-7.557106781186456
 30
0.0
 11
10.07097478118646
 21
-12.03710678118647
 31
0.0
  0
LINE
  5
139
330
82
100
AcDbEntity
  8
0
100
AcDbLine
 10
6.260974781186519
 20
-7.557106781186456
 30
0.0
 11
6.260974781186519
 21
-12.03710678118647
 31
0.0
  0
LINE
  5
13A
330
82
100
AcDbEntity
  8
0
100
AcDbLine
 10
10.07097478118646
 20
-11.27710678118648
 30
0.0
 11
10.07097478118646
 21
-12.03710678118647
 31
0.0
  0
LINE
  5
13B
330
82
100
AcDbEntity
  8
0
100
AcDbLine
 10
13.88097478118641
 20
-11.27710678118648
 30
0.0
 11
13.88097478118641
 21
-12.03710678118647
 31
0.0
  0
LINE
  5
13C
330
82
100
AcDbEntity
  8
0
100
AcDbLine
 10
17.69097478118658
 20
-11.27710678118648
 30
0.0
 11
17.69097478118658
 21
-12.03710678118647
 31
0.0
  0
LINE
  5
13D
330
82
100
AcDbEntity
  8
0
100
AcDbLine
 10
29.12097478118642
 20
-12.23710678118652
 30
0.0
 11
29.12097478118642
 21
-16.60710678118652
 31
0.0
  0
LINE
  5
13E
330
82
100
AcDbEntity
  8
0
100
AcDbLine
 10
29.12097478118642
 20
-12.23710678118652
 30
0.0
 11
29.12097478118642
 21
-12.67710678118646
 31
0.0
  0
LINE
  5
13F
330
82
100
AcDbEntity
  8
0
100
AcDbLine
 10
21.50097478118652
 20
-12.23710678118652
 30
0.0
 11
21.50097478118652
 21
-16.60710678118652
 31
0.0
  0
LINE
  5
140
330
82
100
AcDbEntity
  8
0
100
AcDbLine
 10
21.50097478118652
 20
-12.23710678118652
 30
0.0
 11
21.50097478118652
 21
-12.67710678118646
 31
0.0
  0
LINE
  5
141
330
82
100
AcDbEntity
  8
0
100
AcDbLine
 10
25.31097478118647
 20
-12.23710678118652
 30
0.0
 11
25.31097478118647
 21
-16.60710678118652
 31
0.0
  0
LINE
  5
142
330
82
100
AcDbEntity
  8
0
100
AcDbLine
 10
25.31097478118647
 20
-12.23710678118652
 30
0.0
 11
25.31097478118647
 21
-12.67710678118646
 31
0.0
  0
LINE
  5
143
330
82
100
AcDbEntity
  8
0
100
AcDbLine
 10
35.43097478118659
 20
-17.10710678118652
 30
0.0
 11
35.43097478118659
 21
-7.057106781186456
 31
0.0
  0
LINE
  5
144
330
82
100
AcDbEntity
  8
0
100
AcDbLine
 10
32.93097478118659
 20
-17.10710678118652
 30
0.0
 11
32.93097478118659
 21
-7.057106781186456
 31
0.0
  0
LINE
  5
145
330
82
100
AcDbEntity
  8
0
100
AcDbLine
 10
36.28097478119059
 20
-10.157106781185
 30
0.0
 11
36.28097478119059
 21
-17.10710678118572
 31
0.0
  0
LINE
  5
146
330
82
100
AcDbEntity
  8
0
100
AcDbLine
 10
46.28097478119059
 20
-17.10710678118572
 30
0.0
 11
46.28097478119059
 21
-10.157106781185
 31
0.0
  0
LINE
  5
147
330
82
100
AcDbEntity
  8
0
100
AcDbLine
 10
36.68097478119022
 20
-16.407106781185
 30
0.0
 11
36.68097478119022
 21
-11.407106781185
 31
0.0
  0
LINE
  5
148
330
82
100
AcDbEntity
  8
0
100
AcDbLine
 10
45.88097478119095
 20
-11.407106781185
 30
0.0
 11
45.88097478119095
 21
-12.907106781185
 31
0.0
  0
LINE
  5
149
330
82
100
AcDbEntity
  8
0
100
AcDbLine
 10
26.72097478118655
 20
-17.10710678118652
 30
0.0
 11
26.72097478118655
 21
-17.60710678118652
 31
0.0
  0
LINE
  5
14A
330
82
100
AcDbEntity
  8
0
100
AcDbLine
 10
29.12097478118642
 20
-17.10710678118652
 30
0.0
 11
29.12097478118642
 21
-16.60710678118652
 31
0.0
  0
LINE
  5
14B
330
82
100
AcDbEntity
  8
0
100
AcDbLine
 10
29.12097478118642
 20
-17.10710678118652
 30
0.0
 11
29.12097478118642
 21
-16.60710678118652
 31
0.0
  0
LINE
  5
14C
330
82
100
AcDbEntity
  8
0
100
AcDbLine
 10
30.13097478118641
 20
-17.60710678118652
 30
0.0
 11
29.6309747811864
 21
-17.60710678118652
 31
0.0
  0
LINE
  5
14D
330
82
100
AcDbEntity
  8
0
100
AcDbLine
 10
29.6309747811864
 20
-17.60710678118652
 30
0.0
 11
29.23097478118654
 21
-17.60710678118652
 31
0.0
  0
LINE
  5
14E
330
82
100
AcDbEntity
  8
0
100
AcDbLine
 10
29.23097478118654
 20
-17.10710678118652
 30
0.0
 11
29.12097478118642
 21
-17.10710678118652
 31
0.0
  0
LINE
  5
14F
330
82
100
AcDbEntity
  8
0
100
AcDbLine
 10
29.23097478118654
 20
-17.10710678118652
 30
0.0
 11
29.23097478118654
 21
-17.60710678118652
 31
0.0
  0
LINE
  5
150
330
82
100
AcDbEntity
  8
0
100
AcDbLine
 10
30.5309747811865
 20
-17.10710678118652
 30
0.0
 11
30.5309747811865
 21
-17.60710678118652
 31
0.0
  0
LINE
  5
151
330
82
100
AcDbEntity
  8
0
100
AcDbLine
 10
30.5309747811865
 20
-17.10710678118652
 30
0.0
 11
29.23097478118654
 21
-17.10710678118652
 31
0.0
  0
LINE
  5
152
330
82
100
AcDbEntity
  8
0
100
AcDbLine
 10
30.5309747811865
 20
-17.60710678118652
 30
0.0
 11
30.13097478118641
 21
-17.60710678118652
 31
0.0
  0
LINE
  5
153
330
82
100
AcDbEntity
  8
0
100
AcDbLine
 10
29.12097478118642
 20
-14.20710678118643
 30
0.0
 11
29.12097478118642
 21
-16.60710678118652
 31
0.0
  0
LINE
  5
154
330
82
100
AcDbEntity
  8
0
100
AcDbLine
 10
29.12097478118642
 20
-12.80710678118645
 30
0.0
 11
29.12097478118642
 21
-14.20710678118643
 31
0.0
  0
LINE
  5
155
330
82
100
AcDbEntity
  8
0
100
AcDbLine
 10
29.12097478118642
 20
-12.67710678118646
 30
0.0
 11
29.12097478118642
 21
-12.80710678118645
 31
0.0
  0
LINE
  5
156
330
82
100
AcDbEntity
  8
0
100
AcDbLine
 10
22.91097478118661
 20
-17.60710678118652
 30
0.0
 11
22.51097478118651
 21
-17.60710678118652
 31
0.0
  0
LINE
  5
157
330
82
100
AcDbEntity
  8
0
100
AcDbLine
 10
21.50097478118652
 20
-17.10710678118652
 30
0.0
 11
21.50097478118652
 21
-16.60710678118652
 31
0.0
  0
LINE
  5
158
330
82
100
AcDbEntity
  8
0
100
AcDbLine
 10
21.50097478118652
 20
-17.10710678118652
 30
0.0
 11
21.50097478118652
 21
-16.60710678118652
 31
0.0
  0
LINE
  5
159
330
82
100
AcDbEntity
  8
0
100
AcDbLine
 10
22.51097478118651
 20
-17.60710678118652
 30
0.0
 11
22.01097478118652
 21
-17.60710678118652
 31
0.0
  0
LINE
  5
15A
330
82
100
AcDbEntity
  8
0
100
AcDbLine
 10
22.01097478118652
 20
-17.60710678118652
 30
0.0
 11
21.61097478118642
 21
-17.60710678118652
 31
0.0
  0
LINE
  5
15B
330
82
100
AcDbEntity
  8
0
100
AcDbLine
 10
21.61097478118642
 20
-17.10710678118652
 30
0.0
 11
21.50097478118652
 21
-17.10710678118652
 31
0.0
  0
LINE
  5
15C
330
82
100
AcDbEntity
  8
0
100
AcDbLine
 10
21.61097478118642
 20
-17.10710678118652
 30
0.0
 11
21.61097478118642
 21
-17.60710678118652
 31
0.0
  0
LINE
  5
15D
330
82
100
AcDbEntity
  8
0
100
AcDbLine
 10
21.50097478118652
 20
-14.20710678118643
 30
0.0
 11
21.50097478118652
 21
-16.60710678118652
 31
0.0
  0
LINE
  5
15E
330
82
100
AcDbEntity
  8
0
100
AcDbLine
 10
21.50097478118652
 20
-12.80710678118645
 30
0.0
 11
21.50097478118652
 21
-14.20710678118643
 31
0.0
  0
LINE
  5
15F
330
82
100
AcDbEntity
  8
0
100
AcDbLine
 10
21.50097478118652
 20
-12.67710678118646
 30
0.0
 11
21.50097478118652
 21
-12.80710678118645
 31
0.0
  0
LINE
  5
160
330
82
100
AcDbEntity
  8
0
100
AcDbLine
 10
22.91097478118661
 20
-17.10710678118652
 30
0.0
 11
22.91097478118661
 21
-17.60710678118652
 31
0.0
  0
LINE
  5
161
330
82
100
AcDbEntity
  8
0
100
AcDbLine
 10
25.31097478118647
 20
-17.10710678118652
 30
0.0
 11
25.31097478118647
 21
-16.60710678118652
 31
0.0
  0
LINE
  5
162
330
82
100
AcDbEntity
  8
0
100
AcDbLine
 10
25.31097478118647
 20
-17.10710678118652
 30
0.0
 11
25.31097478118647
 21
-16.60710678118652
 31
0.0
  0
LINE
  5
163
330
82
100
AcDbEntity
  8
0
100
AcDbLine
 10
26.32097478118646
 20
-17.60710678118652
 30
0.0
 11
25.82097478118646
 21
-17.60710678118652
 31
0.0
  0
LINE
  5
164
330
82
100
AcDbEntity
  8
0
100
AcDbLine
 10
25.82097478118646
 20
-17.60710678118652
 30
0.0
 11
25.4209747811866
 21
-17.60710678118652
 31
0.0
  0
LINE
  5
165
330
82
100
AcDbEntity
  8
0
100
AcDbLine
 10
25.4209747811866
 20
-17.10710678118652
 30
0.0
 11
25.31097478118647
 21
-17.10710678118652
 31
0.0
  0
LINE
  5
166
330
82
100
AcDbEntity
  8
0
100
AcDbLine
 10
25.4209747811866
 20
-17.10710678118652
 30
0.0
 11
25.4209747811866
 21
-17.60710678118652
 31
0.0
  0
LINE
  5
167
330
82
100
AcDbEntity
  8
0
100
AcDbLine
 10
25.31097478118647
 20
-14.20710678118643
 30
0.0
 11
25.31097478118647
 21
-16.60710678118652
 31
0.0
  0
LINE
  5
168
330
82
100
AcDbEntity
  8
0
100
AcDbLine
 10
25.31097478118647
 20
-12.67710678118646
 30
0.0
 11
25.31097478118647
 21
-12.80710678118645
 31
0.0
  0
LINE
  5
169
330
82
100
AcDbEntity
  8
0
100
AcDbLine
 10
25.31097478118647
 20
-12.80710678118645
 30
0.0
 11
25.31097478118647
 21
-14.20710678118643
 31
0.0
  0
LINE
  5
16A
330
82
100
AcDbEntity
  8
0
100
AcDbLine
 10
19.10097478118643
 20
-17.10710678118652
 30
0.0
 11
19.10097478118643
 21
-17.60710678118652
 31
0.0
  0
LINE
  5
16B
330
82
100
AcDbEntity
  8
0
100
AcDbLine
 10
26.72097478118655
 20
-17.60710678118652
 30
0.0
 11
26.32097478118646
 21
-17.60710678118652
 31
0.0
  0
CIRCLE
  5
16C
330
82
100
AcDbEntity
  8
0
100
AcDbCircle
 10
43.7809747811907
 20
-13.63210678118559
 30
0.0
 40
0.32
  0
LINE
  5
16D
330
82
100
AcDbEntity
  8
0
100
AcDbLine
 10
44.28097478119059
 20
-17.60710678118572
 30
0.0
 11
46.28097478119059
 21
-17.60710678118572
 31
0.0
  0
LINE
  5
16E
330
82
100
AcDbEntity
  8
0
100
AcDbLine
 10
46.28097478119059
 20
-17.60710678118572
 30
0.0
 11
46.28097478119059
 21
-17.10710678118572
 31
0.0
  0
LINE
  5
16F
330
82
100
AcDbEntity
  8
0
100
AcDbLine
 10
44.28097478119059
 20
-17.10710678118572
 30
0.0
 11
44.28097478119059
 21
-17.60710678118572
 31
0.0
  0
LINE
  5
170
330
82
100
AcDbEntity
  8
0
100
AcDbLine
 10
45.88097478119095
 20
-16.407106781185
 30
0.0
 11
45.88097478119095
 21
-14.407106781185
 31
0.0
  0
LINE
  5
171
330
82
100
AcDbEntity
  8
0
100
AcDbLine
 10
45.88097478119095
 20
-14.407106781185
 30
0.0
 11
46.28097478119059
 21
-14.407106781185
 31
0.0
  0
LINE
  5
172
330
82
100
AcDbEntity
  8
0
100
AcDbLine
 10
45.88097478119095
 20
-12.907106781185
 30
0.0
 11
46.28097478119059
 21
-12.907106781185
 31
0.0
  0
LINE
  5
173
330
82
100
AcDbEntity
  8
0
100
AcDbLine
 10
41.28097478119059
 20
-16.407106781185
 30
0.0
 11
36.68097478119022
 21
-16.407106781185
 31
0.0
  0
CIRCLE
  5
174
330
82
100
AcDbEntity
  8
0
100
AcDbCircle
 10
38.7809747811907
 20
-13.63210678118559
 30
0.0
 40
0.32
  0
LINE
  5
175
330
82
100
AcDbEntity
  8
0
100
AcDbLine
 10
38.28097478119059
 20
-17.60710678118572
 30
0.0
 11
38.28097478119059
 21
-17.10710678118572
 31
0.0
  0
LINE
  5
176
330
82
100
AcDbEntity
  8
0
100
AcDbLine
 10
38.28097478119059
 20
-17.10710678118572
 30
0.0
 11
44.28097478119059
 21
-17.10710678118572
 31
0.0
  0
LINE
  5
177
330
82
100
AcDbEntity
  8
0
100
AcDbLine
 10
41.28097478119059
 20
-16.407106781185
 30
0.0
 11
45.88097478119095
 21
-16.407106781185
 31
0.0
  0
CIRCLE
  5
178
330
82
100
AcDbEntity
  8
0
100
AcDbCircle
 10
41.2809747811907
 20
-13.63210678118559
 30
0.0
 40
0.32
  0
LINE
  5
179
330
82
100
AcDbEntity
  8
0
100
AcDbLine
 10
36.28097478119059
 20
-17.10710678118572
 30
0.0
 11
36.28097478119059
 21
-17.60710678118572
 31
0.0
  0
LINE
  5
17A
330
82
100
AcDbEntity
  8
0
100
AcDbLine
 10
36.28097478119059
 20
-17.60710678118572
 30
0.0
 11
38.28097478119059
 21
-17.60710678118572
 31
0.0
  0
ARC
  5
17B
330
82
100
AcDbEntity
  8
0
100
AcDbCircle
 10
32.56097478118647
 20
-4.707106781186547
 30
0.0
 40
0.3
100
AcDbArc
 50
0.0
 51
90.0
  0
LINE
  5
17C
330
82
100
AcDbEntity
  8
0
100
AcDbLine
 10
32.93097478118659
 20
-7.057106781186456
 30
0.0
 11
32.86097478118643
 21
-7.057106781186456
 31
0.0
  0
LINE
  5
17D
330
82
100
AcDbEntity
  8
0
100
AcDbLine
 10
32.93097478118659
 20
-12.23710678118652
 30
0.0
 11
29.12097478118642
 21
-12.23710678118652
 31
0.0
  0
LINE
  5
17E
330
82
100
AcDbEntity
  8
0
100
AcDbLine
 10
32.86097478118643
 20
-4.707106781186434
 30
0.0
 11
32.86097478118643
 21
-4.807106781186456
 31
0.0
  0
ARC
  5
17F
330
82
100
AcDbEntity
  8
0
100
AcDbCircle
 10
28.75097478118652
 20
-4.707106781186547
 30
0.0
 40
0.3
100
AcDbArc
 50
0.0
 51
90.0
  0
ARC
  5
180
330
82
100
AcDbEntity
  8
0
100
AcDbCircle
 10
29.46097478118656
 20
-4.707106781186547
 30
0.0
 40
0.3
100
AcDbArc
 50
90.0
 51
180.0
  0
LINE
  5
181
330
82
100
AcDbEntity
  8
0
100
AcDbLine
 10
29.16097478118661
 20
-4.707106781186434
 30
0.0
 11
29.16097478118661
 21
-4.807106781186456
 31
0.0
  0
LINE
  5
182
330
82
100
AcDbEntity
  8
0
100
AcDbLine
 10
29.05097478118648
 20
-4.707106781186434
 30
0.0
 11
29.05097478118648
 21
-4.807106781186456
 31
0.0
  0
LINE
  5
183
330
82
100
AcDbEntity
  8
0
100
AcDbLine
 10
29.46097478118656
 20
-4.407106781186479
 30
0.0
 11
32.56097478118647
 21
-4.407106781186479
 31
0.0
  0
LINE
  5
184
330
82
100
AcDbEntity
  8
0
100
AcDbLine
 10
32.86097478118643
 20
-5.357106781186525
 30
0.0
 11
32.86097478118643
 21
-5.057106781186456
 31
0.0
  0
LINE
  5
185
330
82
100
AcDbEntity
  8
0
100
AcDbLine
 10
32.16097478118661
 20
-6.907106781186479
 30
0.0
 11
32.86097478118643
 21
-6.907106781186479
 31
0.0
  0
LINE
  5
186
330
82
100
AcDbEntity
  8
0
100
AcDbLine
 10
32.16097478118661
 20
-6.907106781186479
 30
0.0
 11
32.16097478118661
 21
-7.057106781186456
 31
0.0
  0
LINE
  5
187
330
82
100
AcDbEntity
  8
0
100
AcDbLine
 10
32.86097478118643
 20
-6.507106781186502
 30
0.0
 11
32.86097478118643
 21
-6.907106781186479
 31
0.0
  0
LINE
  5
188
330
82
100
AcDbEntity
  8
0
100
AcDbLine
 10
32.86097478118643
 20
-6.907106781186479
 30
0.0
 11
32.86097478118643
 21
-7.057106781186456
 31
0.0
  0
LINE
  5
189
330
82
100
AcDbEntity
  8
0
100
AcDbLine
 10
32.86097478118643
 20
-6.257106781186502
 30
0.0
 11
32.86097478118643
 21
-6.507106781186502
 31
0.0
  0
LINE
  5
18A
330
82
100
AcDbEntity
  8
0
100
AcDbLine
 10
32.86097478118643
 20
-6.257106781186502
 30
0.0
 11
32.86097478118643
 21
-5.957106781186434
 31
0.0
  0
LINE
  5
18B
330
82
100
AcDbEntity
  8
0
100
AcDbLine
 10
32.86097478118643
 20
-7.057106781186456
 30
0.0
 11
32.16097478118661
 21
-7.057106781186456
 31
0.0
  0
LINE
  5
18C
330
82
100
AcDbEntity
  8
0
100
AcDbLine
 10
32.86097478118643
 20
-5.357106781186525
 30
0.0
 11
32.86097478118643
 21
-5.957106781186434
 31
0.0
  0
LINE
  5
18D
330
82
100
AcDbEntity
  8
0
100
AcDbLine
 10
29.12097478118642
 20
-7.557106781186456
 30
0.0
 11
29.12097478118642
 21
-11.27710678118648
 31
0.0
  0
LINE
  5
18E
330
82
100
AcDbEntity
  8
0
100
AcDbLine
 10
28.35097478118644
 20
-6.907106781186479
 30
0.0
 11
29.05097478118648
 21
-6.907106781186479
 31
0.0
  0
LINE
  5
18F
330
82
100
AcDbEntity
  8
0
100
AcDbLine
 10
29.05097478118648
 20
-7.057106781186456
 30
0.0
 11
28.35097478118644
 21
-7.057106781186456
 31
0.0
  0
LINE
  5
190
330
82
100
AcDbEntity
  8
0
100
AcDbLine
 10
28.35097478118644
 20
-6.907106781186479
 30
0.0
 11
28.35097478118644
 21
-7.057106781186456
 31
0.0
  0
ARC
  5
191
330
82
100
AcDbEntity
  8
0
100
AcDbCircle
 10
27.21597478118644
 20
-9.207106781186547
 30
0.0
 40
0.85
100
AcDbArc
 50
233.269604999998
 51
270.0
  0
ARC
  5
192
330
82
100
AcDbEntity
  8
0
100
AcDbCircle
 10
30.06097478118647
 20
-5.357106781186582
 30
0.0
 40
0.3
100
AcDbArc
 50
90.0
 51
180.0
  0
LINE
  5
193
330
82
100
AcDbEntity
  8
0
100
AcDbLine
 10
29.05097478118648
 20
-5.357106781186525
 30
0.0
 11
29.05097478118648
 21
-5.057106781186456
 31
0.0
  0
LINE
  5
194
330
82
100
AcDbEntity
  8
0
100
AcDbLine
 10
29.05097478118648
 20
-6.507106781186502
 30
0.0
 11
29.05097478118648
 21
-6.907106781186479
 31
0.0
  0
LINE
  5
195
330
82
100
AcDbEntity
  8
0
100
AcDbLine
 10
29.05097478118648
 20
-6.907106781186479
 30
0.0
 11
29.05097478118648
 21
-7.057106781186456
 31
0.0
  0
LINE
  5
196
330
82
100
AcDbEntity
  8
0
100
AcDbLine
 10
29.05097478118648
 20
-6.257106781186502
 30
0.0
 11
29.05097478118648
 21
-6.507106781186502
 31
0.0
  0
LINE
  5
197
330
82
100
AcDbEntity
  8
0
100
AcDbLine
 10
29.05097478118648
 20
-6.257106781186502
 30
0.0
 11
29.05097478118648
 21
-5.957106781186434
 31
0.0
  0
ARC
  5
198
330
82
100
AcDbEntity
  8
0
100
AcDbCircle
 10
29.46097478118656
 20
-6.607106781186582
 30
0.0
 40
0.3
100
AcDbArc
 50
180.0
 51
270.0
  0
ARC
  5
199
330
82
100
AcDbEntity
  8
0
100
AcDbCircle
 10
30.06097478118647
 20
-5.957106781186547
 30
0.0
 40
0.3
100
AcDbArc
 50
180.0
 51
270.0
  0
LINE
  5
19A
330
82
100
AcDbEntity
  8
0
100
AcDbLine
 10
29.16097478118661
 20
-6.507106781186502
 30
0.0
 11
29.16097478118661
 21
-6.607106781186525
 31
0.0
  0
LINE
  5
19B
330
82
100
AcDbEntity
  8
0
100
AcDbLine
 10
29.12097478118642
 20
-7.557106781186456
 30
0.0
 11
29.12097478118642
 21
-7.057106781186456
 31
0.0
  0
LINE
  5
19C
330
82
100
AcDbEntity
  8
0
100
AcDbLine
 10
29.12097478118642
 20
-7.557106781186456
 30
0.0
 11
29.12097478118642
 21
-7.057106781186456
 31
0.0
  0
LINE
  5
19D
330
82
100
AcDbEntity
  8
0
100
AcDbLine
 10
29.12097478118642
 20
-7.057106781186456
 30
0.0
 11
29.05097478118648
 21
-7.057106781186456
 31
0.0
  0
ARC
  5
19E
330
82
100
AcDbEntity
  8
0
100
AcDbCircle
 10
31.02597478118662
 20
-9.207106781186547
 30
0.0
 40
0.85
100
AcDbArc
 50
233.269604999998
 51
270.0
  0
LINE
  5
19F
330
82
100
AcDbEntity
  8
0
100
AcDbLine
 10
29.76097478118651
 20
-5.357106781186525
 30
0.0
 11
29.76097478118651
 21
-5.957106781186434
 31
0.0
  0
LINE
  5
1A0
330
82
100
AcDbEntity
  8
0
100
AcDbLine
 10
29.05097478118648
 20
-5.357106781186525
 30
0.0
 11
29.05097478118648
 21
-5.957106781186434
 31
0.0
  0
CIRCLE
  5
1A1
330
82
100
AcDbEntity
  8
0
100
AcDbCircle
 10
31.02597478118662
 20
-9.207106781186547
 30
0.0
 40
1.564999999999999
  0
LINE
  5
1A2
330
82
100
AcDbEntity
  8
0
100
AcDbLine
 10
32.86097478118643
 20
-5.057106781186456
 30
0.0
 11
30.06097478118647
 21
-5.057106781186456
 31
0.0
  0
LINE
  5
1A3
330
82
100
AcDbEntity
  8
0
100
AcDbLine
 10
30.06097478118647
 20
-6.257106781186502
 30
0.0
 11
32.86097478118643
 21
-6.257106781186502
 31
0.0
  0
LINE
  5
1A4
330
82
100
AcDbEntity
  8
0
100
AcDbLine
 10
29.46097478118656
 20
-6.907106781186479
 30
0.0
 11
32.16097478118661
 21
-6.907106781186479
 31
0.0
  0
LINE
  5
1A5
330
82
100
AcDbEntity
  8
0
100
AcDbLine
 10
32.16097478118661
 20
-7.057106781186456
 30
0.0
 11
29.12097478118642
 21
-7.057106781186456
 31
0.0
  0
ARC
  5
1A6
330
82
100
AcDbEntity
  8
0
100
AcDbCircle
 10
31.02597478118662
 20
-9.207106781186547
 30
0.0
 40
0.85
100
AcDbArc
 50
270.0
 51
233.269604999998
  0
LINE
  5
1A7
330
82
100
AcDbEntity
  8
0
100
AcDbLine
 10
29.05097478118648
 20
-4.807106781186456
 30
0.0
 11
29.05097478118648
 21
-5.057106781186456
 31
0.0
  0
LINE
  5
1A8
330
82
100
AcDbEntity
  8
0
100
AcDbLine
 10
32.86097478118643
 20
-4.807106781186456
 30
0.0
 11
32.86097478118643
 21
-5.057106781186456
 31
0.0
  0
LINE
  5
1A9
330
82
100
AcDbEntity
  8
0
100
AcDbLine
 10
29.16097478118661
 20
-4.807106781186456
 30
0.0
 11
29.16097478118661
 21
-6.507106781186502
 31
0.0
  0
LINE
  5
1AA
330
82
100
AcDbEntity
  8
0
100
AcDbLine
 10
21.84097478118644
 20
-4.407106781186479
 30
0.0
 11
24.94097478118658
 21
-4.407106781186479
 31
0.0
  0
LINE
  5
1AB
330
82
100
AcDbEntity
  8
0
100
AcDbLine
 10
21.54097478118649
 20
-4.707106781186434
 30
0.0
 11
21.54097478118649
 21
-4.807106781186456
 31
0.0
  0
ARC
  5
1AC
330
82
100
AcDbEntity
  8
0
100
AcDbCircle
 10
21.84097478118644
 20
-4.707106781186547
 30
0.0
 40
0.3
100
AcDbArc
 50
90.0
 51
180.0
  0
LINE
  5
1AD
330
82
100
AcDbEntity
  8
0
100
AcDbLine
 10
21.43097478118659
 20
-4.707106781186434
 30
0.0
 11
21.43097478118659
 21
-4.807106781186456
 31
0.0
  0
LINE
  5
1AE
330
82
100
AcDbEntity
  8
0
100
AcDbLine
 10
25.24097478118653
 20
-4.707106781186434
 30
0.0
 11
25.24097478118653
 21
-4.807106781186456
 31
0.0
  0
ARC
  5
1AF
330
82
100
AcDbEntity
  8
0
100
AcDbCircle
 10
25.65097478118662
 20
-4.707106781186547
 30
0.0
 40
0.3
100
AcDbArc
 50
90.0
 51
180.0
  0
LINE
  5
1B0
330
82
100
AcDbEntity
  8
0
100
AcDbLine
 10
25.35097478118643
 20
-4.707106781186434
 30
0.0
 11
25.35097478118643
 21
-4.807106781186456
 31
0.0
  0
ARC
  5
1B1
330
82
100
AcDbEntity
  8
0
100
AcDbCircle
 10
24.94097478118658
 20
-4.707106781186547
 30
0.0
 40
0.3
100
AcDbArc
 50
0.0
 51
90.0
  0
ARC
  5
1B2
330
82
100
AcDbEntity
  8
0
100
AcDbCircle
 10
21.1309747811864
 20
-4.707106781186547
 30
0.0
 40
0.3
100
AcDbArc
 50
0.0
 51
90.0
  0
CIRCLE
  5
1B3
330
82
100
AcDbEntity
  8
0
100
AcDbCircle
 10
23.4059747811865
 20
-9.207106781186547
 30
0.0
 40
1.564999999999999
  0
LINE
  5
1B4
330
82
100
AcDbEntity
  8
0
100
AcDbLine
 10
25.24097478118653
 20
-5.057106781186456
 30
0.0
 11
22.44097478118658
 21
-5.057106781186456
 31
0.0
  0
LINE
  5
1B5
330
82
100
AcDbEntity
  8
0
100
AcDbLine
 10
24.54097478118649
 20
-7.057106781186456
 30
0.0
 11
21.50097478118652
 21
-7.057106781186456
 31
0.0
  0
LINE
  5
1B6
330
82
100
AcDbEntity
  8
0
100
AcDbLine
 10
21.84097478118644
 20
-6.907106781186479
 30
0.0
 11
24.54097478118649
 21
-6.907106781186479
 31
0.0
  0
LINE
  5
1B7
330
82
100
AcDbEntity
  8
0
100
AcDbLine
 10
22.44097478118658
 20
-6.257106781186502
 30
0.0
 11
25.24097478118653
 21
-6.257106781186502
 31
0.0
  0
LINE
  5
1B8
330
82
100
AcDbEntity
  8
0
100
AcDbLine
 10
21.50097478118652
 20
-7.557106781186456
 30
0.0
 11
21.50097478118652
 21
-11.27710678118648
 31
0.0
  0
ARC
  5
1B9
330
82
100
AcDbEntity
  8
0
100
AcDbCircle
 10
22.44097478118658
 20
-5.357106781186582
 30
0.0
 40
0.3
100
AcDbArc
 50
90.0
 51
180.0
  0
LINE
  5
1BA
330
82
100
AcDbEntity
  8
0
100
AcDbLine
 10
21.43097478118659
 20
-5.357106781186525
 30
0.0
 11
21.43097478118659
 21
-5.057106781186456
 31
0.0
  0
ARC
  5
1BB
330
82
100
AcDbEntity
  8
0
100
AcDbCircle
 10
22.44097478118658
 20
-5.957106781186547
 30
0.0
 40
0.3
100
AcDbArc
 50
180.0
 51
270.0
  0
LINE
  5
1BC
330
82
100
AcDbEntity
  8
0
100
AcDbLine
 10
21.50097478118652
 20
-7.557106781186456
 30
0.0
 11
21.50097478118652
 21
-7.057106781186456
 31
0.0
  0
LINE
  5
1BD
330
82
100
AcDbEntity
  8
0
100
AcDbLine
 10
21.54097478118649
 20
-6.507106781186502
 30
0.0
 11
21.54097478118649
 21
-6.607106781186525
 31
0.0
  0
ARC
  5
1BE
330
82
100
AcDbEntity
  8
0
100
AcDbCircle
 10
21.84097478118644
 20
-6.607106781186582
 30
0.0
 40
0.3
100
AcDbArc
 50
180.0
 51
270.0
  0
LINE
  5
1BF
330
82
100
AcDbEntity
  8
0
100
AcDbLine
 10
21.50097478118652
 20
-7.557106781186456
 30
0.0
 11
21.50097478118652
 21
-7.057106781186456
 31
0.0
  0
LINE
  5
1C0
330
82
100
AcDbEntity
  8
0
100
AcDbLine
 10
21.50097478118652
 20
-7.057106781186456
 30
0.0
 11
21.43097478118659
 21
-7.057106781186456
 31
0.0
  0
LINE
  5
1C1
330
82
100
AcDbEntity
  8
0
100
AcDbLine
 10
21.43097478118659
 20
-6.507106781186502
 30
0.0
 11
21.43097478118659
 21
-6.907106781186479
 31
0.0
  0
LINE
  5
1C2
330
82
100
AcDbEntity
  8
0
100
AcDbLine
 10
21.43097478118659
 20
-6.907106781186479
 30
0.0
 11
21.43097478118659
 21
-7.057106781186456
 31
0.0
  0
LINE
  5
1C3
330
82
100
AcDbEntity
  8
0
100
AcDbLine
 10
21.43097478118659
 20
-6.257106781186502
 30
0.0
 11
21.43097478118659
 21
-6.507106781186502
 31
0.0
  0
LINE
  5
1C4
330
82
100
AcDbEntity
  8
0
100
AcDbLine
 10
21.43097478118659
 20
-6.257106781186502
 30
0.0
 11
21.43097478118659
 21
-5.957106781186434
 31
0.0
  0
LINE
  5
1C5
330
82
100
AcDbEntity
  8
0
100
AcDbLine
 10
21.43097478118659
 20
-5.357106781186525
 30
0.0
 11
21.43097478118659
 21
-5.957106781186434
 31
0.0
  0
LINE
  5
1C6
330
82
100
AcDbEntity
  8
0
100
AcDbLine
 10
22.14097478118639
 20
-5.357106781186525
 30
0.0
 11
22.14097478118639
 21
-5.957106781186434
 31
0.0
  0
LINE
  5
1C7
330
82
100
AcDbEntity
  8
0
100
AcDbLine
 10
25.31097478118647
 20
-7.557106781186456
 30
0.0
 11
25.31097478118647
 21
-11.27710678118648
 31
0.0
  0
ARC
  5
1C8
330
82
100
AcDbEntity
  8
0
100
AcDbCircle
 10
23.4059747811865
 20
-9.207106781186547
 30
0.0
 40
0.85
100
AcDbArc
 50
270.0
 51
233.269604999998
  0
ARC
  5
1C9
330
82
100
AcDbEntity
  8
0
100
AcDbCircle
 10
23.4059747811865
 20
-9.207106781186547
 30
0.0
 40
0.85
100
AcDbArc
 50
233.269604999998
 51
270.0
  0
LINE
  5
1CA
330
82
100
AcDbEntity
  8
0
100
AcDbLine
 10
25.24097478118653
 20
-5.357106781186525
 30
0.0
 11
25.24097478118653
 21
-5.057106781186456
 31
0.0
  0
ARC
  5
1CB
330
82
100
AcDbEntity
  8
0
100
AcDbCircle
 10
26.25097478118652
 20
-5.357106781186582
 30
0.0
 40
0.3
100
AcDbArc
 50
90.0
 51
180.0
  0
LINE
  5
1CC
330
82
100
AcDbEntity
  8
0
100
AcDbLine
 10
25.24097478118653
 20
-7.057106781186456
 30
0.0
 11
24.54097478118649
 21
-7.057106781186456
 31
0.0
  0
LINE
  5
1CD
330
82
100
AcDbEntity
  8
0
100
AcDbLine
 10
25.24097478118653
 20
-6.257106781186502
 30
0.0
 11
25.24097478118653
 21
-5.957106781186434
 31
0.0
  0
LINE
  5
1CE
330
82
100
AcDbEntity
  8
0
100
AcDbLine
 10
25.24097478118653
 20
-6.257106781186502
 30
0.0
 11
25.24097478118653
 21
-6.507106781186502
 31
0.0
  0
LINE
  5
1CF
330
82
100
AcDbEntity
  8
0
100
AcDbLine
 10
25.24097478118653
 20
-6.907106781186479
 30
0.0
 11
25.24097478118653
 21
-7.057106781186456
 31
0.0
  0
LINE
  5
1D0
330
82
100
AcDbEntity
  8
0
100
AcDbLine
 10
25.24097478118653
 20
-6.507106781186502
 30
0.0
 11
25.24097478118653
 21
-6.907106781186479
 31
0.0
  0
LINE
  5
1D1
330
82
100
AcDbEntity
  8
0
100
AcDbLine
 10
24.54097478118649
 20
-6.907106781186479
 30
0.0
 11
24.54097478118649
 21
-7.057106781186456
 31
0.0
  0
LINE
  5
1D2
330
82
100
AcDbEntity
  8
0
100
AcDbLine
 10
24.54097478118649
 20
-6.907106781186479
 30
0.0
 11
25.24097478118653
 21
-6.907106781186479
 31
0.0
  0
ARC
  5
1D3
330
82
100
AcDbEntity
  8
0
100
AcDbCircle
 10
25.65097478118662
 20
-6.607106781186582
 30
0.0
 40
0.3
100
AcDbArc
 50
180.0
 51
270.0
  0
ARC
  5
1D4
330
82
100
AcDbEntity
  8
0
100
AcDbCircle
 10
26.25097478118652
 20
-5.957106781186547
 30
0.0
 40
0.3
100
AcDbArc
 50
180.0
 51
270.0
  0
LINE
  5
1D5
330
82
100
AcDbEntity
  8
0
100
AcDbLine
 10
25.31097478118647
 20
-7.557106781186456
 30
0.0
 11
25.31097478118647
 21
-7.057106781186456
 31
0.0
  0
LINE
  5
1D6
330
82
100
AcDbEntity
  8
0
100
AcDbLine
 10
25.31097478118647
 20
-7.557106781186456
 30
0.0
 11
25.31097478118647
 21
-7.057106781186456
 31
0.0
  0
LINE
  5
1D7
330
82
100
AcDbEntity
  8
0
100
AcDbLine
 10
25.35097478118643
 20
-6.507106781186502
 30
0.0
 11
25.35097478118643
 21
-6.607106781186525
 31
0.0
  0
LINE
  5
1D8
330
82
100
AcDbEntity
  8
0
100
AcDbLine
 10
25.31097478118647
 20
-7.057106781186456
 30
0.0
 11
25.24097478118653
 21
-7.057106781186456
 31
0.0
  0
LINE
  5
1D9
330
82
100
AcDbEntity
  8
0
100
AcDbLine
 10
25.24097478118653
 20
-5.357106781186525
 30
0.0
 11
25.24097478118653
 21
-5.957106781186434
 31
0.0
  0
LINE
  5
1DA
330
82
100
AcDbEntity
  8
0
100
AcDbLine
 10
25.95097478118657
 20
-5.357106781186525
 30
0.0
 11
25.95097478118657
 21
-5.957106781186434
 31
0.0
  0
ARC
  5
1DB
330
82
100
AcDbEntity
  8
0
100
AcDbCircle
 10
19.59597478118655
 20
-9.207106781186547
 30
0.0
 40
0.85
100
AcDbArc
 50
233.269604999998
 51
270.0
  0
LINE
  5
1DC
330
82
100
AcDbEntity
  8
0
100
AcDbLine
 10
20.73097478118654
 20
-6.907106781186479
 30
0.0
 11
20.73097478118654
 21
-7.057106781186456
 31
0.0
  0
LINE
  5
1DD
330
82
100
AcDbEntity
  8
0
100
AcDbLine
 10
21.43097478118659
 20
-7.057106781186456
 30
0.0
 11
20.73097478118654
 21
-7.057106781186456
 31
0.0
  0
LINE
  5
1DE
330
82
100
AcDbEntity
  8
0
100
AcDbLine
 10
20.73097478118654
 20
-6.907106781186479
 30
0.0
 11
21.43097478118659
 21
-6.907106781186479
 31
0.0
  0
LINE
  5
1DF
330
82
100
AcDbEntity
  8
0
100
AcDbLine
 10
21.43097478118659
 20
-4.807106781186456
 30
0.0
 11
21.43097478118659
 21
-5.057106781186456
 31
0.0
  0
LINE
  5
1E0
330
82
100
AcDbEntity
  8
0
100
AcDbLine
 10
21.54097478118649
 20
-4.807106781186456
 30
0.0
 11
21.54097478118649
 21
-6.507106781186502
 31
0.0
  0
LINE
  5
1E1
330
82
100
AcDbEntity
  8
0
100
AcDbLine
 10
25.24097478118653
 20
-4.807106781186456
 30
0.0
 11
25.24097478118653
 21
-5.057106781186456
 31
0.0
  0
LINE
  5
1E2
330
82
100
AcDbEntity
  8
0
100
AcDbLine
 10
25.35097478118643
 20
-4.807106781186456
 30
0.0
 11
25.35097478118643
 21
-6.507106781186502
 31
0.0
  0
LINE
  5
1E3
330
82
100
AcDbEntity
  8
0
100
AcDbLine
 10
29.05097478118648
 20
-5.057106781186456
 30
0.0
 11
26.25097478118652
 21
-5.057106781186456
 31
0.0
  0
LINE
  5
1E4
330
82
100
AcDbEntity
  8
0
100
AcDbLine
 10
26.25097478118652
 20
-6.257106781186502
 30
0.0
 11
29.05097478118648
 21
-6.257106781186502
 31
0.0
  0
CIRCLE
  5
1E5
330
82
100
AcDbEntity
  8
0
100
AcDbCircle
 10
27.21597478118644
 20
-9.207106781186547
 30
0.0
 40
1.564999999999999
  0
LINE
  5
1E6
330
82
100
AcDbEntity
  8
0
100
AcDbLine
 10
25.65097478118662
 20
-4.407106781186479
 30
0.0
 11
28.75097478118652
 21
-4.407106781186479
 31
0.0
  0
LINE
  5
1E7
330
82
100
AcDbEntity
  8
0
100
AcDbLine
 10
28.35097478118644
 20
-7.057106781186456
 30
0.0
 11
25.31097478118647
 21
-7.057106781186456
 31
0.0
  0
LINE
  5
1E8
330
82
100
AcDbEntity
  8
0
100
AcDbLine
 10
25.65097478118662
 20
-6.907106781186479
 30
0.0
 11
28.35097478118644
 21
-6.907106781186479
 31
0.0
  0
ARC
  5
1E9
330
82
100
AcDbEntity
  8
0
100
AcDbCircle
 10
27.21597478118644
 20
-9.207106781186547
 30
0.0
 40
0.85
100
AcDbArc
 50
270.0
 51
233.269604999998
  0
LINE
  5
1EA
330
82
100
AcDbEntity
  8
0
100
AcDbLine
 10
29.12097478118642
 20
-12.23710678118652
 30
0.0
 11
29.12097478118642
 21
-12.03710678118647
 31
0.0
  0
LINE
  5
1EB
330
82
100
AcDbEntity
  8
0
100
AcDbLine
 10
29.12097478118642
 20
-12.23710678118652
 30
0.0
 11
29.12097478118642
 21
-12.03710678118647
 31
0.0
  0
LINE
  5
1EC
330
82
100
AcDbEntity
  8
0
100
AcDbLine
 10
25.31097478118647
 20
-12.23710678118652
 30
0.0
 11
21.50097478118652
 21
-12.23710678118652
 31
0.0
  0
LINE
  5
1ED
330
82
100
AcDbEntity
  8
0
100
AcDbLine
 10
21.50097478118652
 20
-12.23710678118652
 30
0.0
 11
21.50097478118652
 21
-12.03710678118647
 31
0.0
  0
LINE
  5
1EE
330
82
100
AcDbEntity
  8
0
100
AcDbLine
 10
21.50097478118652
 20
-12.23710678118652
 30
0.0
 11
21.50097478118652
 21
-12.03710678118647
 31
0.0
  0
LINE
  5
1EF
330
82
100
AcDbEntity
  8
0
100
AcDbLine
 10
25.31097478118647
 20
-12.23710678118652
 30
0.0
 11
25.31097478118647
 21
-12.03710678118647
 31
0.0
  0
LINE
  5
1F0
330
82
100
AcDbEntity
  8
0
100
AcDbLine
 10
25.31097478118647
 20
-12.23710678118652
 30
0.0
 11
25.31097478118647
 21
-12.03710678118647
 31
0.0
  0
LINE
  5
1F1
330
82
100
AcDbEntity
  8
0
100
AcDbLine
 10
29.12097478118642
 20
-12.23710678118652
 30
0.0
 11
25.31097478118647
 21
-12.23710678118652
 31
0.0
  0
LINE
  5
1F2
330
82
100
AcDbEntity
  8
0
100
AcDbLine
 10
21.50097478118652
 20
-7.557106781186456
 30
0.0
 11
21.50097478118652
 21
-12.03710678118647
 31
0.0
  0
LINE
  5
1F3
330
82
100
AcDbEntity
  8
0
100
AcDbLine
 10
21.50097478118652
 20
-11.27710678118648
 30
0.0
 11
21.50097478118652
 21
-12.03710678118647
 31
0.0
  0
LINE
  5
1F4
330
82
100
AcDbEntity
  8
0
100
AcDbLine
 10
29.12097478118642
 20
-7.557106781186456
 30
0.0
 11
29.12097478118642
 21
-12.03710678118647
 31
0.0
  0
LINE
  5
1F5
330
82
100
AcDbEntity
  8
0
100
AcDbLine
 10
25.31097478118647
 20
-7.557106781186456
 30
0.0
 11
25.31097478118647
 21
-12.03710678118647
 31
0.0
  0
LINE
  5
1F6
330
82
100
AcDbEntity
  8
0
100
AcDbLine
 10
25.31097478118647
 20
-11.27710678118648
 30
0.0
 11
25.31097478118647
 21
-12.03710678118647
 31
0.0
  0
LINE
  5
1F7
330
82
100
AcDbEntity
  8
0
100
AcDbLine
 10
29.12097478118642
 20
-11.27710678118648
 30
0.0
 11
29.12097478118642
 21
-12.03710678118647
 31
0.0
  0
LINE
  5
1F8
330
82
100
AcDbEntity
  8
0
100
AcDbLine
 10
46.91097578118672
 20
-10.10710678118652
 30
0.0
 11
46.91097578118672
 21
-8.607106781186525
 31
0.0
  0
LINE
  5
1F9
330
82
100
AcDbEntity
  8
0
100
AcDbLine
 10
45.68097478119023
 20
-10.60710678118572
 30
0.0
 11
45.68097478119023
 21
-11.407106781185
 31
0.0
  0
LINE
  5
1FA
330
82
100
AcDbEntity
  8
0
100
AcDbLine
 10
45.78097478119059
 20
-11.407106781185
 30
0.0
 11
45.88097478119095
 21
-11.407106781185
 31
0.0
  0
LINE
  5
1FB
330
82
100
AcDbEntity
  8
0
100
AcDbLine
 10
45.68097478119023
 20
-11.407106781185
 30
0.0
 11
45.78097478119059
 21
-11.407106781185
 31
0.0
  0
LINE
  5
1FC
330
82
100
AcDbEntity
  8
0
100
AcDbLine
 10
43.4809747811895
 20
-10.60710678118572
 30
0.0
 11
45.68097478119023
 21
-10.60710678118572
 31
0.0
  0
LINE
  5
1FD
330
82
100
AcDbEntity
  8
0
100
AcDbLine
 10
46.28097478119059
 20
-10.157106781185
 30
0.0
 11
43.9809747811895
 21
-10.157106781185
 31
0.0
  0
LINE
  5
1FE
330
82
100
AcDbEntity
  8
0
100
AcDbLine
 10
43.9809747811895
 20
-10.157106781185
 30
0.0
 11
43.9809747811895
 21
-9.107106781185729
 31
0.0
  0
LINE
  5
1FF
330
82
100
AcDbEntity
  8
0
100
AcDbLine
 10
43.38097478119095
 20
-9.807106781184637
 30
0.0
 11
43.38097478119095
 21
-10.80710678118463
 31
0.0
  0
LINE
  5
200
330
82
100
AcDbEntity
  8
0
100
AcDbLine
 10
43.38097478119095
 20
-10.80710678118463
 30
0.0
 11
43.4809747811895
 21
-10.80710678118463
 31
0.0
  0
LINE
  5
201
330
82
100
AcDbEntity
  8
0
100
AcDbLine
 10
43.4809747811895
 20
-10.80710678118463
 30
0.0
 11
43.4809747811895
 21
-10.60710678118572
 31
0.0
  0
LINE
  5
202
330
82
100
AcDbEntity
  8
0
100
AcDbLine
 10
36.88097478119095
 20
-11.407106781185
 30
0.0
 11
36.88097478119095
 21
-10.60710678118572
 31
0.0
  0
LINE
  5
203
330
82
100
AcDbEntity
  8
0
100
AcDbLine
 10
36.68097478119022
 20
-11.407106781185
 30
0.0
 11
36.88097478119095
 21
-11.407106781185
 31
0.0
  0
LINE
  5
204
330
82
100
AcDbEntity
  8
0
100
AcDbLine
 10
36.88097478119095
 20
-10.60710678118572
 30
0.0
 11
39.08097478119168
 21
-10.60710678118572
 31
0.0
  0
LINE
  5
205
330
82
100
AcDbEntity
  8
0
100
AcDbLine
 10
38.58097478119168
 20
-9.107106781185729
 30
0.0
 11
38.58097478119168
 21
-10.157106781185
 31
0.0
  0
LINE
  5
206
330
82
100
AcDbEntity
  8
0
100
AcDbLine
 10
39.18097478119022
 20
-10.80710678118463
 30
0.0
 11
39.18097478119022
 21
-9.807106781184637
 31
0.0
  0
LINE
  5
207
330
82
100
AcDbEntity
  8
0
100
AcDbLine
 10
39.08097478119168
 20
-10.80710678118463
 30
0.0
 11
39.18097478119022
 21
-10.80710678118463
 31
0.0
  0
LINE
  5
208
330
82
100
AcDbEntity
  8
0
100
AcDbLine
 10
39.08097478119168
 20
-10.60710678118572
 30
0.0
 11
39.08097478119168
 21
-10.80710678118463
 31
0.0
  0
LINE
  5
209
330
82
100
AcDbEntity
  8
0
100
AcDbLine
 10
43.9809747811895
 20
-9.107106781185729
 30
0.0
 11
38.58097478119168
 21
-9.107106781185729
 31
0.0
  0
LINE
  5
20A
330
82
100
AcDbEntity
  8
0
100
AcDbLine
 10
39.18097478119022
 20
-9.807106781184637
 30
0.0
 11
43.38097478119095
 21
-9.807106781184637
 31
0.0
  0
LINE
  5
20B
330
82
100
AcDbEntity
  8
0
100
AcDbLine
 10
32.93097478118659
 20
-7.057106781186456
 30
0.0
 11
35.43097478118659
 21
-7.057106781186456
 31
0.0
  0
LINE
  5
20C
330
82
100
AcDbEntity
  8
3_表示パネル
  6
CONTINUOUS
100
AcDbLine
 10
35.61097578118676
 20
-8.607106781186468
 30
0.0
 11
35.61097578118676
 21
-3.907106781186479
 31
0.0
  0
LINE
  5
20D
330
82
100
AcDbEntity
  8
0
100
AcDbLine
 10
38.58097478119168
 20
-10.157106781185
 30
0.0
 11
36.28097478119059
 21
-10.157106781185
 31
0.0
  0
LINE
  5
20E
330
82
100
AcDbEntity
  8
3_表示パネル
  6
CONTINUOUS
100
AcDbLine
 10
35.61097578118676
 20
-8.607106781186468
 30
0.0
 11
46.91097578118695
 21
-8.607106781186525
 31
0.0
  0
LINE
  5
20F
330
82
100
AcDbEntity
  8
0
100
AcDbLine
 10
32.93097478118659
 20
-12.23710678118652
 30
0.0
 11
35.43097478118659
 21
-12.23710678118652
 31
0.0
  0
ARC
  5
210
330
82
100
AcDbEntity
  8
0
100
AcDbCircle
 10
0.8109757811865847
 20
-0.8071067811865706
 30
0.0
 40
1.0
100
AcDbArc
 50
90.0
 51
180.0
  0
ARC
  5
211
330
82
100
AcDbEntity
  8
0
100
AcDbCircle
 10
0.7071067811865533
 20
-0.7071067811865479
 30
0.0
 40
1.0
100
AcDbArc
 50
90.0
 51
180.0
  0
LINE
  5
212
330
82
100
AcDbEntity
  8
0
100
AcDbLine
 10
47.1309747811864
 20
-10.60710678118652
 30
0.0
 11
47.1309747811864
 21
-17.60710678118652
 31
0.0
  0
LINE
  5
213
330
82
100
AcDbEntity
  8
0
100
AcDbLine
 10
52.1309747811864
 20
-10.60710678118652
 30
0.0
 11
52.1309747811864
 21
-17.60710678118652
 31
0.0
  0
LINE
  5
214
330
82
100
AcDbEntity
  8
0
100
AcDbLine
 10
51.13097478118641
 20
-13.02794178118653
 30
0.0
 11
48.13097478118641
 21
-13.02794178118653
 31
0.0
  0
LINE
  5
215
330
82
100
AcDbEntity
  8
0
100
AcDbLine
 10
51.13097478118641
 20
-14.99286378118653
 30
0.0
 11
48.13097478118641
 21
-14.99286378118653
 31
0.0
  0
LINE
  5
216
330
82
100
AcDbEntity
  8
0
100
AcDbLine
 10
48.13097478118641
 20
-13.02794178118653
 30
0.0
 11
48.13097478118641
 21
-14.99286378118653
 31
0.0
  0
LINE
  5
217
330
82
100
AcDbEntity
  8
0
100
AcDbLine
 10
51.13097478118641
 20
-13.02794178118653
 30
0.0
 11
51.13097478118641
 21
-14.99286378118653
 31
0.0
  0
LINE
  5
218
330
82
100
AcDbEntity
  8
0
100
AcDbLine
 10
52.1309747811864
 20
-17.60710678118652
 30
0.0
 11
47.1309747811864
 21
-17.60710678118652
 31
0.0
  0
LINE
  5
219
330
82
100
AcDbEntity
  8
0
100
AcDbLine
 10
47.1309747811864
 20
-10.60710678118652
 30
0.0
 11
52.1309747811864
 21
-10.60710678118652
 31
0.0
  0
LINE
  5
21A
330
82
100
AcDbEntity
  8
0
100
AcDbLine
 10
52.61097578118676
 20
-10.10710678118652
 30
0.0
 11
52.61097578118676
 21
-12.10710678118652
 31
0.0
  0
ENDBLK
  5
21C
330
82
100
AcDbEntity
  8
0
100
AcDbBlockEnd
  0
ENDSEC
  0
SECTION
  2
ENTITIES
  0
LINE
  5
608
330
1F
100
AcDbEntity
  8
0
100
AcDbLine
 10
152.9741341255389
 20
295.8292684768466
 30
0.0
 11
152.9741341255389
 21
303.8290094768467
 31
0.0
  0
LINE
  5
609
330
1F
100
AcDbEntity
  8
0
100
AcDbLine
 10
183.974552125539
 20
294.8881364768467
 30
0.0
 11
183.974552125539
 21
303.8290094768467
 31
0.0
  0
LINE
  5
60A
330
1F
100
AcDbEntity
  8
0
  6
CENTER
 62
     5
100
AcDbLine
 10
168.474343125539
 20
308.0790094768467
 30
0.0
 11
168.474343125539
 21
293.0790094768467
 31
0.0
  0
LINE
  5
60E
330
1F
100
AcDbEntity
  8
CLASS1
  6
CONTINUOUS
 62
     0
100
AcDbLine
 10
163.9741341255389
 20
35.09999869906778
 30
0.0
 11
163.9741341255389
 21
33.09999869906778
 31
0.0
  0
LINE
  5
60F
330
1F
100
AcDbEntity
  8
CLASS1
  6
CONTINUOUS
 62
     0
100
AcDbLine
 10
162.4741341255389
 20
35.09999869906778
 30
0.0
 11
162.4741341255389
 21
33.09999869906778
 31
0.0
  0
LINE
  5
610
330
1F
100
AcDbEntity
  8
CLASS1
  6
CONTINUOUS
 62
     0
100
AcDbLine
 10
175.4741341255389
 20
35.89999869906751
 30
0.0
 11
175.4741341255389
 21
25.89999869906751
 31
0.0
  0
LINE
  5
611
330
1F
100
AcDbEntity
  8
CLASS1
  6
CONTINUOUS
 62
     0
100
AcDbLine
 10
165.4741341255389
 20
25.89999869906751
 30
0.0
 11
165.4741341255389
 21
35.89999869906751
 31
0.0
  0
LINE
  5
612
330
1F
100
AcDbEntity
  8
CLASS1
  6
CONTINUOUS
 62
     0
100
AcDbLine
 10
166.9741341255389
 20
27.8999986990675
 30
0.0
 11
166.9741341255389
 21
33.89999869906751
 31
0.0
  0
LINE
  5
613
330
1F
100
AcDbEntity
  8
CLASS1
  6
CONTINUOUS
 62
     0
100
AcDbLine
 10
173.9741341255389
 20
33.89999869906751
 30
0.0
 11
173.9741341255389
 21
27.8999986990675
 31
0.0
  0
LINE
  5
614
330
1F
100
AcDbEntity
  8
CLASS1
  6
CONTINUOUS
 62
     0
100
AcDbLine
 10
185.059009125539
 20
61.96012469906759
 30
0.0
 11
185.9745351255387
 21
2.515397699067534
 31
0.0
  0
LINE
  5
615
330
1F
100
AcDbEntity
  8
CLASS1
  6
CONTINUOUS
 62
     0
100
AcDbLine
 10
151.8892581255388
 20
61.96012469906759
 30
0.0
 11
150.9737331255387
 21
2.515397699067534
 31
0.0
  0
LINE
  5
616
330
1F
100
AcDbEntity
  8
CLASS1
  6
CONTINUOUS
 62
     0
100
AcDbLine
 10
178.5605651255389
 20
61.79658369906769
 30
0.0
 11
179.4738091255389
 21
2.499998699067646
 31
0.0
  0
LINE
  5
617
330
1F
100
AcDbEntity
  8
CLASS1
  6
CONTINUOUS
 62
     0
100
AcDbLine
 10
158.3877341255388
 20
61.7985936990674
 30
0.0
 11
157.4744591255389
 21
2.499998699067646
 31
0.0
  0
LINE
  5
618
330
1F
100
AcDbEntity
  8
CLASS1
  6
CONTINUOUS
 62
     0
100
AcDbLine
 10
182.9780325473462
 20
68.19007112518829
 30
0.0
 11
183.9743431255387
 21
2.499998699067646
 31
0.0
  0
LINE
  5
619
330
1F
100
AcDbEntity
  8
CLASS1
  6
CONTINUOUS
 62
     0
100
AcDbLine
 10
153.9702357037318
 20
68.19007212518818
 30
0.0
 11
152.9739251255389
 21
2.499998699067646
 31
0.0
  0
INSERT
  5
61A
330
1F
100
AcDbEntity
  8
0
100
AcDbBlockReference
  2
A$C51C20FFB
 10
152.9743431255387
 20
0.0000000363897925
 30
0.0
  0
LINE
  5
61B
330
1F
100
AcDbEntity
  8
CLASS1
  6
CONTINUOUS
 62
     0
100
AcDbLine
 10
152.9739251255389
 20
2.499998699067646
 30
0.0
 11
183.9743431255387
 21
2.499998699067646
 31
0.0
  0
LINE
  5
61C
330
1F
100
AcDbEntity
  8
CLASS1
  6
CONTINUOUS
 62
     0
100
AcDbLine
 10
183.9743431255387
 20
1.499998699067646
 30
0.0
 11
184.974654125539
 21
1.499998699067646
 31
0.0
  0
ARC
  5
61D
330
1F
100
AcDbEntity
  8
CLASS1
  6
CONTINUOUS
 62
     0
100
AcDbCircle
 10
184.974654125539
 20
2.499998699067873
 30
0.0
 40
1.0
100
AcDbArc
 50
270.0
 51
0.8823590000053327
  0
LINE
  5
61E
330
1F
100
AcDbEntity
  8
CLASS1
  6
CONTINUOUS
 62
     0
100
AcDbLine
 10
183.9743431255387
 20
1.499998699067646
 30
0.0
 11
183.9743431255387
 21
2.499998699067646
 31
0.0
  0
LINE
  5
61F
330
1F
100
AcDbEntity
  8
CLASS1
  6
CONTINUOUS
 62
     0
100
AcDbLine
 10
173.4741341255389
 20
27.39999869906751
 30
0.0
 11
167.4741341255389
 21
27.39999869906751
 31
0.0
  0
LINE
  5
620
330
1F
100
AcDbEntity
  8
CLASS1
  6
CONTINUOUS
 62
     0
100
AcDbLine
 10
175.4741341255389
 20
25.89999869906751
 30
0.0
 11
165.4741341255389
 21
25.89999869906751
 31
0.0
  0
LINE
  5
621
330
1F
100
AcDbEntity
  8
CLASS1
  6
CONTINUOUS
 62
     0
100
AcDbLine
 10
174.4741341255389
 20
23.09999869906778
 30
0.0
 11
162.4741341255389
 21
23.09999869906778
 31
0.0
  0
LINE
  5
622
330
1F
100
AcDbEntity
  8
CLASS1
  6
CONTINUOUS
 62
     0
100
AcDbLine
 10
162.4741341255389
 20
21.09999869906778
 30
0.0
 11
174.4741341255389
 21
21.09999869906778
 31
0.0
  0
LINE
  5
623
330
1F
100
AcDbEntity
  8
CLASS1
  6
CONTINUOUS
 62
     0
100
AcDbLine
 10
174.4741341255389
 20
19.09999869906778
 30
0.0
 11
162.4741341255389
 21
19.09999869906778
 31
0.0
  0
LINE
  5
624
330
1F
100
AcDbEntity
  8
CLASS1
  6
CONTINUOUS
 62
     0
100
AcDbLine
 10
162.4741341255389
 20
17.09999869906778
 30
0.0
 11
174.4741341255389
 21
17.09999869906778
 31
0.0
  0
LINE
  5
625
330
1F
100
AcDbEntity
  8
CLASS1
  6
CONTINUOUS
 62
     0
100
AcDbLine
 10
174.4741341255389
 20
11.09999869906778
 30
0.0
 11
162.4741341255389
 21
11.09999869906778
 31
0.0
  0
LINE
  5
626
330
1F
100
AcDbEntity
  8
CLASS1
  6
CONTINUOUS
 62
     0
100
AcDbLine
 10
162.4741341255389
 20
13.09999869906778
 30
0.0
 11
174.4741341255389
 21
13.09999869906778
 31
0.0
  0
LINE
  5
627
330
1F
100
AcDbEntity
  8
CLASS1
  6
CONTINUOUS
 62
     0
100
AcDbLine
 10
174.4741341255389
 20
15.09999869906778
 30
0.0
 11
162.4741341255389
 21
15.09999869906778
 31
0.0
  0
LINE
  5
628
330
1F
100
AcDbEntity
  8
CLASS1
  6
CONTINUOUS
 62
     0
100
AcDbLine
 10
162.4741341255389
 20
9.099998699067782
 30
0.0
 11
174.4741341255389
 21
9.099998699067782
 31
0.0
  0
LINE
  5
629
330
1F
100
AcDbEntity
  8
CLASS1
  6
CONTINUOUS
 62
     0
100
AcDbLine
 10
174.4741341255389
 20
17.09999869906778
 30
0.0
 11
174.4741341255389
 21
19.09999869906778
 31
0.0
  0
LINE
  5
62A
330
1F
100
AcDbEntity
  8
CLASS1
  6
CONTINUOUS
 62
     0
100
AcDbLine
 10
174.4741341255389
 20
13.09999869906778
 30
0.0
 11
174.4741341255389
 21
15.09999869906778
 31
0.0
  0
LINE
  5
62B
330
1F
100
AcDbEntity
  8
CLASS1
  6
CONTINUOUS
 62
     0
100
AcDbLine
 10
174.4741341255389
 20
9.099998699067782
 30
0.0
 11
174.4741341255389
 21
11.09999869906778
 31
0.0
  0
LINE
  5
62C
330
1F
100
AcDbEntity
  8
CLASS1
  6
CONTINUOUS
 62
     0
100
AcDbLine
 10
175.4741341255389
 20
30.14999869906751
 30
0.0
 11
173.9741341255389
 21
30.14999869906751
 31
0.0
  0
LINE
  5
62D
330
1F
100
AcDbEntity
  8
CLASS1
  6
CONTINUOUS
 62
     0
100
AcDbLine
 10
175.4741341255389
 20
31.6499986990675
 30
0.0
 11
173.9741341255389
 21
31.6499986990675
 31
0.0
  0
ARC
  5
62E
330
1F
100
AcDbEntity
  8
CLASS1
  6
CONTINUOUS
 62
     0
100
AcDbCircle
 10
173.4741341255389
 20
27.89999869906774
 30
0.0
 40
0.5
100
AcDbArc
 50
270.0
 51
0.0
  0
LINE
  5
62F
330
1F
100
AcDbEntity
  8
CLASS1
  6
CONTINUOUS
 62
     0
100
AcDbLine
 10
174.4741341255389
 20
21.09999869906778
 30
0.0
 11
174.4741341255389
 21
23.09999869906778
 31
0.0
  0
LINE
  5
630
330
1F
100
AcDbEntity
  8
CLASS1
  6
CONTINUOUS
 62
     0
100
AcDbLine
 10
162.4741341255389
 20
19.09999869906778
 30
0.0
 11
162.4741341255389
 21
17.09999869906778
 31
0.0
  0
LINE
  5
631
330
1F
100
AcDbEntity
  8
CLASS1
  6
CONTINUOUS
 62
     0
100
AcDbLine
 10
162.4741341255389
 20
15.09999869906778
 30
0.0
 11
162.4741341255389
 21
13.09999869906778
 31
0.0
  0
LINE
  5
632
330
1F
100
AcDbEntity
  8
CLASS1
  6
CONTINUOUS
 62
     0
100
AcDbLine
 10
162.4741341255389
 20
11.09999869906778
 30
0.0
 11
162.4741341255389
 21
9.099998699067782
 31
0.0
  0
LINE
  5
633
330
1F
100
AcDbEntity
  8
CLASS1
  6
CONTINUOUS
 62
     0
100
AcDbLine
 10
162.4741341255389
 20
33.09999869906778
 30
0.0
 11
163.9741341255389
 21
33.09999869906778
 31
0.0
  0
LINE
  5
634
330
1F
100
AcDbEntity
  8
CLASS1
  6
CONTINUOUS
 62
     0
100
AcDbLine
 10
162.4741341255389
 20
31.09999869906778
 30
0.0
 11
162.4741341255389
 21
29.09999869906778
 31
0.0
  0
LINE
  5
635
330
1F
100
AcDbEntity
  8
CLASS1
  6
CONTINUOUS
 62
     0
100
AcDbLine
 10
163.9741341255389
 20
31.09999869906778
 30
0.0
 11
163.9741341255389
 21
29.09999869906778
 31
0.0
  0
LINE
  5
636
330
1F
100
AcDbEntity
  8
CLASS1
  6
CONTINUOUS
 62
     0
100
AcDbLine
 10
162.4741341255389
 20
29.09999869906778
 30
0.0
 11
163.9741341255389
 21
29.09999869906778
 31
0.0
  0
LINE
  5
637
330
1F
100
AcDbEntity
  8
CLASS1
  6
CONTINUOUS
 62
     0
100
AcDbLine
 10
163.9741341255389
 20
31.09999869906778
 30
0.0
 11
162.4741341255389
 21
31.09999869906778
 31
0.0
  0
LINE
  5
638
330
1F
100
AcDbEntity
  8
CLASS1
  6
CONTINUOUS
 62
     0
100
AcDbLine
 10
166.9741341255389
 20
30.14999869906751
 30
0.0
 11
165.4741341255389
 21
30.14999869906751
 31
0.0
  0
LINE
  5
639
330
1F
100
AcDbEntity
  8
CLASS1
  6
CONTINUOUS
 62
     0
100
AcDbLine
 10
166.9741341255389
 20
31.6499986990675
 30
0.0
 11
165.4741341255389
 21
31.6499986990675
 31
0.0
  0
ARC
  5
63A
330
1F
100
AcDbEntity
  8
CLASS1
  6
CONTINUOUS
 62
     0
100
AcDbCircle
 10
167.4741341255389
 20
27.89999869906774
 30
0.0
 40
0.5
100
AcDbArc
 50
180.0
 51
270.0
  0
LINE
  5
63B
330
1F
100
AcDbEntity
  8
CLASS1
  6
CONTINUOUS
 62
     0
100
AcDbLine
 10
162.4741341255389
 20
27.09999869906778
 30
0.0
 11
162.4741341255389
 21
25.09999869906778
 31
0.0
  0
LINE
  5
63C
330
1F
100
AcDbEntity
  8
CLASS1
  6
CONTINUOUS
 62
     0
100
AcDbLine
 10
163.9741341255389
 20
27.09999869906778
 30
0.0
 11
163.9741341255389
 21
25.09999869906778
 31
0.0
  0
LINE
  5
63D
330
1F
100
AcDbEntity
  8
CLASS1
  6
CONTINUOUS
 62
     0
100
AcDbLine
 10
163.9741341255389
 20
27.09999869906778
 30
0.0
 11
162.4741341255389
 21
27.09999869906778
 31
0.0
  0
LINE
  5
63E
330
1F
100
AcDbEntity
  8
CLASS1
  6
CONTINUOUS
 62
     0
100
AcDbLine
 10
162.4741341255389
 20
25.09999869906778
 30
0.0
 11
163.9741341255389
 21
25.09999869906778
 31
0.0
  0
LINE
  5
63F
330
1F
100
AcDbEntity
  8
CLASS1
  6
CONTINUOUS
 62
     0
100
AcDbLine
 10
162.4741341255389
 20
23.09999869906778
 30
0.0
 11
162.4741341255389
 21
21.09999869906778
 31
0.0
  0
LINE
  5
640
330
1F
100
AcDbEntity
  8
CLASS1
  6
CONTINUOUS
 62
     0
100
AcDbLine
 10
152.9739251255389
 20
1.499998699067646
 30
0.0
 11
151.9736151255387
 21
1.499998699067646
 31
0.0
  0
LINE
  5
641
330
1F
100
AcDbEntity
  8
CLASS1
  6
CONTINUOUS
 62
     0
100
AcDbLine
 10
152.9739251255389
 20
2.499998699067646
 30
0.0
 11
152.9739251255389
 21
1.499998699067646
 31
0.0
  0
ARC
  5
642
330
1F
100
AcDbEntity
  8
CLASS1
  6
CONTINUOUS
 62
     0
100
AcDbCircle
 10
151.9736151255387
 20
2.499998699067873
 30
0.0
 40
1.0
100
AcDbArc
 50
179.1176409999946
 51
270.0
  0
LINE
  5
643
330
1F
100
AcDbEntity
  8
0
100
AcDbLine
 10
178.8465121255389
 20
295.8954964768468
 30
0.0
 11
179.474018125539
 21
296.8292684768466
 31
0.0
  0
LINE
  5
644
330
1F
100
AcDbEntity
  8
0
100
AcDbLine
 10
154.982061125539
 20
295.317905476847
 30
0.0
 11
181.966626125539
 21
295.317905476847
 31
0.0
  0
LINE
  5
645
330
1F
100
AcDbEntity
  8
0
100
AcDbLine
 10
156.9743431255389
 20
292.8292684768466
 30
0.0
 11
179.974343125539
 21
292.8292684768466
 31
0.0
  0
LINE
  5
646
330
1F
100
AcDbEntity
  8
0
100
AcDbLine
 10
157.0743431255389
 20
292.7331374768468
 30
0.0
 11
179.8743431255389
 21
292.7331374768468
 31
0.0
  0
LINE
  5
647
330
1F
100
AcDbEntity
  8
0
100
AcDbLine
 10
178.8465121255389
 20
134.7630404768472
 30
0.0
 11
179.4740181255389
 21
133.8292684768468
 31
0.0
  0
LINE
  5
648
330
1F
100
AcDbEntity
  8
0
100
AcDbLine
 10
172.4743431255388
 20
126.829003476847
 30
0.0
 11
182.4745521255389
 21
126.829003476847
 31
0.0
  0
LINE
  5
649
330
1F
100
AcDbEntity
  8
0
100
AcDbLine
 10
154.982061125539
 20
135.352389476847
 30
0.0
 11
181.9666261255389
 21
135.352389476847
 31
0.0
  0
LINE
  5
64A
330
1F
100
AcDbEntity
  8
0
100
AcDbLine
 10
182.966626125539
 20
294.317905476847
 30
0.0
 11
182.9666261255389
 21
136.352389476847
 31
0.0
  0
LINE
  5
64B
330
1F
100
AcDbEntity
  8
0
100
AcDbLine
 10
180.8743431255389
 20
291.7331374768469
 30
0.0
 11
180.8743431255389
 21
138.833137476847
 31
0.0
  0
LINE
  5
64C
330
1F
100
AcDbEntity
  8
0
100
AcDbLine
 10
185.959342125539
 20
139.8658434768469
 30
0.0
 11
185.959342125539
 21
290.8049914768471
 31
0.0
  0
LINE
  5
64D
330
1F
100
AcDbEntity
  8
0
100
AcDbLine
 10
185.0440541255389
 20
289.4542334768471
 30
0.0
 11
185.0440541255389
 21
141.2043044768467
 31
0.0
  0
LINE
  5
64E
330
1F
100
AcDbEntity
  8
0
100
AcDbLine
 10
180.9743431255389
 20
138.8292684768468
 30
0.0
 11
180.974343125539
 21
291.8292684768466
 31
0.0
  0
LINE
  5
64F
330
1F
100
AcDbEntity
  8
0
100
AcDbLine
 10
183.9745521255389
 20
128.3290034768469
 30
0.0
 11
183.9745521255389
 21
138.8881364768467
 31
0.0
  0
LINE
  5
650
330
1F
100
AcDbEntity
  8
CLASS1
  6
CONTINUOUS
 62
     0
100
AcDbLine
 10
184.0591271255389
 20
62.94472469906736
 30
0.0
 11
183.043415125539
 21
62.94472469906736
 31
0.0
  0
ARC
  5
651
330
1F
100
AcDbEntity
  8
CLASS1
  6
CONTINUOUS
 62
     0
100
AcDbCircle
 10
184.0591271255389
 20
61.94472469906759
 30
0.0
 40
1.0
100
AcDbArc
 50
0.8823590000053327
 51
90.0
  0
ARC
  5
652
330
1F
100
AcDbEntity
  8
0
100
AcDbCircle
 10
182.474552125539
 20
128.3290034768469
 30
0.0
 40
1.5
100
AcDbArc
 50
270.0
 51
0.0
  0
ARC
  5
653
330
1F
100
AcDbEntity
  8
0
100
AcDbCircle
 10
184.044054125539
 20
141.2043044768467
 30
0.0
 40
1.0
100
AcDbArc
 50
270.0
 51
0.0
  0
LINE
  5
654
330
1F
100
AcDbEntity
  8
0
100
AcDbLine
 10
184.0440541255389
 20
140.2043044768467
 30
0.0
 11
183.0436261255389
 21
140.2043044768467
 31
0.0
  0
LINE
  5
655
330
1F
100
AcDbEntity
  8
0
100
AcDbLine
 10
183.9745511255389
 20
134.8292684768468
 30
0.0
 11
183.9745511255389
 21
138.8658434768469
 31
0.0
  0
ARC
  5
656
330
1F
100
AcDbEntity
  8
0
100
AcDbCircle
 10
181.966626125539
 20
136.352389476847
 30
0.0
 40
1.0
100
AcDbArc
 50
270.0
 51
0.0
  0
LINE
  5
657
330
1F
100
AcDbEntity
  8
0
100
AcDbLine
 10
183.9745511255389
 20
138.8658434768469
 30
0.0
 11
184.959342125539
 21
138.8658434768469
 31
0.0
  0
LINE
  5
658
330
1F
100
AcDbEntity
  8
0
100
AcDbLine
 10
183.9745521255389
 20
138.8535454768468
 30
0.0
 11
183.0436261255389
 21
140.2043044768467
 31
0.0
  0
ARC
  5
659
330
1F
100
AcDbEntity
  8
0
100
AcDbCircle
 10
184.959342125539
 20
139.8658434768469
 30
0.0
 40
1.0
100
AcDbArc
 50
270.0
 51
0.0
  0
ARC
  5
65A
330
1F
100
AcDbEntity
  8
0
100
AcDbCircle
 10
182.974551125539
 20
134.8292684768468
 30
0.0
 40
1.0
100
AcDbArc
 50
270.0
 51
0.0
  0
LINE
  5
65B
330
1F
100
AcDbEntity
  8
0
100
AcDbLine
 10
179.4740181255389
 20
133.8292684768468
 30
0.0
 11
182.9745511255389
 21
133.8292684768468
 31
0.0
  0
ARC
  5
65C
330
1F
100
AcDbEntity
  8
0
100
AcDbCircle
 10
181.9666261255391
 20
294.317905476847
 30
0.0
 40
1.0
100
AcDbArc
 50
0.0
 51
90.0
  0
ARC
  5
65D
330
1F
100
AcDbEntity
  8
0
100
AcDbCircle
 10
182.9745511255391
 20
295.8292684768466
 30
0.0
 40
1.0
100
AcDbArc
 50
0.0
 51
90.0
  0
LINE
  5
65E
330
1F
100
AcDbEntity
  8
0
100
AcDbLine
 10
184.0440541255389
 20
290.454233476847
 30
0.0
 11
183.043626125539
 21
290.454233476847
 31
0.0
  0
LINE
  5
65F
330
1F
100
AcDbEntity
  8
0
100
AcDbLine
 10
184.0440541255389
 20
290.454233476847
 30
0.0
 11
183.043626125539
 21
290.454233476847
 31
0.0
  0
LINE
  5
660
330
1F
100
AcDbEntity
  8
0
100
AcDbLine
 10
183.974552125539
 20
291.8049914768471
 30
0.0
 11
184.959342125539
 21
291.8049914768471
 31
0.0
  0
ARC
  5
661
330
1F
100
AcDbEntity
  8
0
100
AcDbCircle
 10
184.9593421255391
 20
290.8049914768471
 30
0.0
 40
1.0
100
AcDbArc
 50
0.0
 51
90.0
  0
ARC
  5
662
330
1F
100
AcDbEntity
  8
0
100
AcDbCircle
 10
184.044054125539
 20
289.4542334768471
 30
0.0
 40
1.0
100
AcDbArc
 50
0.0
 51
90.0
  0
ARC
  5
663
330
1F
100
AcDbEntity
  8
0
100
AcDbCircle
 10
184.044054125539
 20
289.4542334768471
 30
0.0
 40
1.0
100
AcDbArc
 50
0.0
 51
90.0
  0
LINE
  5
664
330
1F
100
AcDbEntity
  8
0
100
AcDbLine
 10
183.974552125539
 20
291.8049914768471
 30
0.0
 11
183.043626125539
 21
290.454233476847
 31
0.0
  0
LINE
  5
665
330
1F
100
AcDbEntity
  8
0
100
AcDbLine
 10
183.974552125539
 20
291.8049914768471
 30
0.0
 11
183.043626125539
 21
290.454233476847
 31
0.0
  0
LINE
  5
666
330
1F
100
AcDbEntity
  8
0
100
AcDbLine
 10
183.974551125539
 20
295.8292684768466
 30
0.0
 11
183.974551125539
 21
291.8049914768471
 31
0.0
  0
ARC
  5
667
330
1F
100
AcDbEntity
  8
0
100
AcDbCircle
 10
179.874343125539
 20
291.7331374768469
 30
0.0
 40
1.0
100
AcDbArc
 50
0.0
 51
90.0
  0
ARC
  5
668
330
1F
100
AcDbEntity
  8
0
100
AcDbCircle
 10
179.9743431255391
 20
291.8292684768466
 30
0.0
 40
1.0
100
AcDbArc
 50
0.0
 51
90.0
  0
LINE
  5
669
330
1F
100
AcDbEntity
  8
0
100
AcDbLine
 10
179.474018125539
 20
296.8292684768466
 30
0.0
 11
182.974551125539
 21
296.8292684768466
 31
0.0
  0
LINE
  5
66A
330
1F
100
AcDbEntity
  8
0
100
AcDbLine
 10
156.0743431255394
 20
244.5114424392918
 30
0.0
 11
156.074343125539
 21
138.9331374768469
 31
0.0
  0
LINE
  5
66B
330
1F
100
AcDbEntity
  8
0
100
AcDbLine
 10
151.904632125539
 20
289.4542334768471
 30
0.0
 11
151.904632125539
 21
141.2043044768467
 31
0.0
  0
LINE
  5
66C
330
1F
100
AcDbEntity
  8
0
100
AcDbLine
 10
155.974343125539
 20
138.8292684768468
 30
0.0
 11
155.974343125539
 21
291.8292684768466
 31
0.0
  0
LINE
  5
66D
330
1F
100
AcDbEntity
  8
0
100
AcDbLine
 10
150.989224125539
 20
139.8658434768469
 30
0.0
 11
150.989224125539
 21
290.8049914768471
 31
0.0
  0
LINE
  5
66E
330
1F
100
AcDbEntity
  8
0
100
AcDbLine
 10
153.982061125539
 20
294.317905476847
 30
0.0
 11
153.982061125539
 21
136.352389476847
 31
0.0
  0
LINE
  5
66F
330
1F
100
AcDbEntity
  8
0
100
AcDbLine
 10
152.9741341255389
 20
128.3290034768469
 30
0.0
 11
152.9741341255389
 21
134.8292684768468
 31
0.0
  0
LINE
  5
670
330
1F
100
AcDbEntity
  8
0
100
AcDbLine
 10
165.9743431255388
 20
130.0790034768469
 30
0.0
 11
165.9743431255388
 21
128.3290034768469
 31
0.0
  0
LINE
  5
671
330
1F
100
AcDbEntity
  8
0
100
AcDbLine
 10
170.9743431255389
 20
130.0790034768469
 30
0.0
 11
170.9743431255389
 21
128.3290034768469
 31
0.0
  0
LINE
  5
672
330
1F
100
AcDbEntity
  8
0
  6
CENTER
 62
     5
100
AcDbLine
 10
168.4743431255389
 20
137.5790034768469
 30
0.0
 11
168.4743431255389
 21
122.579003476847
 31
0.0
  0
ARC
  5
673
330
1F
100
AcDbEntity
  8
CLASS1
  6
CONTINUOUS
 62
     0
100
AcDbCircle
 10
160.3874651255389
 20
61.76578469906781
 30
0.0
 40
2.0
100
AcDbArc
 50
94.73325899999677
 51
179.1176409999946
  0
LINE
  5
674
330
1F
100
AcDbEntity
  8
0
100
AcDbLine
 10
154.4741341255389
 20
126.829003476847
 30
0.0
 11
164.4743431255388
 21
126.829003476847
 31
0.0
  0
LINE
  5
675
330
1F
100
AcDbEntity
  8
CLASS1
  6
CONTINUOUS
 62
     0
100
AcDbLine
 10
162.474134125539
 20
57.09999869906778
 30
0.0
 11
174.474134125539
 21
57.09999869906778
 31
0.0
  0
LINE
  5
676
330
1F
100
AcDbEntity
  8
CLASS1
  6
CONTINUOUS
 62
     0
100
AcDbLine
 10
174.474134125539
 20
59.09999869906778
 30
0.0
 11
162.474134125539
 21
59.09999869906778
 31
0.0
  0
LINE
  5
677
330
1F
100
AcDbEntity
  8
CLASS1
  6
CONTINUOUS
 62
     0
100
AcDbLine
 10
174.474134125539
 20
55.09999869906778
 30
0.0
 11
162.474134125539
 21
55.09999869906778
 31
0.0
  0
LINE
  5
678
330
1F
100
AcDbEntity
  8
CLASS1
  6
CONTINUOUS
 62
     0
100
AcDbLine
 10
162.474134125539
 20
53.09999869906778
 30
0.0
 11
174.474134125539
 21
53.09999869906778
 31
0.0
  0
LINE
  5
679
330
1F
100
AcDbEntity
  8
CLASS1
  6
CONTINUOUS
 62
     0
100
AcDbLine
 10
174.474134125539
 20
51.09999869906778
 30
0.0
 11
162.474134125539
 21
51.09999869906778
 31
0.0
  0
LINE
  5
67A
330
1F
100
AcDbEntity
  8
CLASS1
  6
CONTINUOUS
 62
     0
100
AcDbLine
 10
162.4741341255389
 20
49.09999869906778
 30
0.0
 11
174.4741341255389
 21
49.09999869906778
 31
0.0
  0
LINE
  5
67B
330
1F
100
AcDbEntity
  8
CLASS1
  6
CONTINUOUS
 62
     0
100
AcDbLine
 10
174.4741341255389
 20
43.09999869906778
 30
0.0
 11
162.4741341255389
 21
43.09999869906778
 31
0.0
  0
LINE
  5
67C
330
1F
100
AcDbEntity
  8
CLASS1
  6
CONTINUOUS
 62
     0
100
AcDbLine
 10
162.4741341255389
 20
45.09999869906778
 30
0.0
 11
174.4741341255389
 21
45.09999869906778
 31
0.0
  0
LINE
  5
67D
330
1F
100
AcDbEntity
  8
CLASS1
  6
CONTINUOUS
 62
     0
100
AcDbLine
 10
174.4741341255389
 20
47.09999869906778
 30
0.0
 11
162.4741341255389
 21
47.09999869906778
 31
0.0
  0
LINE
  5
67E
330
1F
100
AcDbEntity
  8
CLASS1
  6
CONTINUOUS
 62
     0
100
AcDbLine
 10
162.4741341255389
 20
41.09999869906778
 30
0.0
 11
174.4741341255389
 21
41.09999869906778
 31
0.0
  0
LINE
  5
67F
330
1F
100
AcDbEntity
  8
CLASS1
  6
CONTINUOUS
 62
     0
100
AcDbLine
 10
165.4741341255389
 20
35.89999869906751
 30
0.0
 11
175.4741341255389
 21
35.89999869906751
 31
0.0
  0
LINE
  5
680
330
1F
100
AcDbEntity
  8
CLASS1
  6
CONTINUOUS
 62
     0
100
AcDbLine
 10
162.4741341255389
 20
37.09999869906778
 30
0.0
 11
174.4741341255389
 21
37.09999869906778
 31
0.0
  0
LINE
  5
681
330
1F
100
AcDbEntity
  8
CLASS1
  6
CONTINUOUS
 62
     0
100
AcDbLine
 10
174.4741341255389
 20
39.09999869906778
 30
0.0
 11
162.4741341255389
 21
39.09999869906778
 31
0.0
  0
LINE
  5
682
330
1F
100
AcDbEntity
  8
CLASS1
  6
CONTINUOUS
 62
     0
100
AcDbLine
 10
167.4741341255389
 20
34.39999869906751
 30
0.0
 11
173.4741341255389
 21
34.39999869906751
 31
0.0
  0
LINE
  5
683
330
1F
100
AcDbEntity
  8
CLASS1
  6
CONTINUOUS
 62
     0
100
AcDbLine
 10
174.4741341255389
 20
45.09999869906778
 30
0.0
 11
174.4741341255389
 21
47.09999869906778
 31
0.0
  0
LINE
  5
684
330
1F
100
AcDbEntity
  8
CLASS1
  6
CONTINUOUS
 62
     0
100
AcDbLine
 10
174.4741341255389
 20
37.09999869906778
 30
0.0
 11
174.4741341255389
 21
39.09999869906778
 31
0.0
  0
ARC
  5
685
330
1F
100
AcDbEntity
  8
CLASS1
  6
CONTINUOUS
 62
     0
100
AcDbCircle
 10
173.474134125539
 20
33.89999869906773
 30
0.0
 40
0.5
100
AcDbArc
 50
0.0
 51
90.0
  0
LINE
  5
686
330
1F
100
AcDbEntity
  8
CLASS1
  6
CONTINUOUS
 62
     0
100
AcDbLine
 10
174.4741341255389
 20
41.09999869906778
 30
0.0
 11
174.4741341255389
 21
43.09999869906778
 31
0.0
  0
LINE
  5
687
330
1F
100
AcDbEntity
  8
CLASS1
  6
CONTINUOUS
 62
     0
100
AcDbLine
 10
174.474134125539
 20
57.09999869906778
 30
0.0
 11
174.474134125539
 21
59.09999869906778
 31
0.0
  0
LINE
  5
688
330
1F
100
AcDbEntity
  8
CLASS1
  6
CONTINUOUS
 62
     0
100
AcDbLine
 10
174.4741341255389
 20
49.09999869906778
 30
0.0
 11
174.474134125539
 21
51.09999869906778
 31
0.0
  0
LINE
  5
689
330
1F
100
AcDbEntity
  8
CLASS1
  6
CONTINUOUS
 62
     0
100
AcDbLine
 10
174.474134125539
 20
53.09999869906778
 30
0.0
 11
174.474134125539
 21
55.09999869906778
 31
0.0
  0
LINE
  5
68A
330
1F
100
AcDbEntity
  8
CLASS1
  6
CONTINUOUS
 62
     0
100
AcDbLine
 10
162.4741341255389
 20
47.09999869906778
 30
0.0
 11
162.4741341255389
 21
45.09999869906778
 31
0.0
  0
LINE
  5
68B
330
1F
100
AcDbEntity
  8
CLASS1
  6
CONTINUOUS
 62
     0
100
AcDbLine
 10
162.4741341255389
 20
39.09999869906778
 30
0.0
 11
162.4741341255389
 21
37.09999869906778
 31
0.0
  0
ARC
  5
68C
330
1F
100
AcDbEntity
  8
CLASS1
  6
CONTINUOUS
 62
     0
100
AcDbCircle
 10
167.4741341255389
 20
33.89999869906773
 30
0.0
 40
0.5
100
AcDbArc
 50
90.0
 51
180.0
  0
LINE
  5
68D
330
1F
100
AcDbEntity
  8
CLASS1
  6
CONTINUOUS
 62
     0
100
AcDbLine
 10
163.9741341255389
 20
35.09999869906778
 30
0.0
 11
162.4741341255389
 21
35.09999869906778
 31
0.0
  0
LINE
  5
68E
330
1F
100
AcDbEntity
  8
CLASS1
  6
CONTINUOUS
 62
     0
100
AcDbLine
 10
162.4741341255389
 20
43.09999869906778
 30
0.0
 11
162.4741341255389
 21
41.09999869906778
 31
0.0
  0
LINE
  5
68F
330
1F
100
AcDbEntity
  8
CLASS1
  6
CONTINUOUS
 62
     0
100
AcDbLine
 10
162.474134125539
 20
59.09999869906778
 30
0.0
 11
162.474134125539
 21
57.09999869906778
 31
0.0
  0
LINE
  5
690
330
1F
100
AcDbEntity
  8
CLASS1
  6
CONTINUOUS
 62
     0
100
AcDbLine
 10
162.474134125539
 20
51.09999869906778
 30
0.0
 11
162.4741341255389
 21
49.09999869906778
 31
0.0
  0
LINE
  5
691
330
1F
100
AcDbEntity
  8
CLASS1
  6
CONTINUOUS
 62
     0
100
AcDbLine
 10
162.474134125539
 20
55.09999869906778
 30
0.0
 11
162.474134125539
 21
53.09999869906778
 31
0.0
  0
ARC
  5
692
330
1F
100
AcDbEntity
  8
CLASS1
  6
CONTINUOUS
 62
     0
100
AcDbCircle
 10
168.4741341255389
 20
-35.90000130093221
 30
0.0
 40
100.0
100
AcDbArc
 50
85.2667410000032
 51
94.73325899999677
  0
ARC
  5
693
330
1F
100
AcDbEntity
  8
CLASS1
  6
CONTINUOUS
 62
     0
100
AcDbCircle
 10
176.560801125539
 20
61.76578569906769
 30
0.0
 40
2.0
100
AcDbArc
 50
0.8823600000015524
 51
85.2667410000032
  0
ARC
  5
694
330
1F
100
AcDbEntity
  8
0
100
AcDbCircle
 10
172.474343125539
 20
128.3290034768469
 30
0.0
 40
1.5
100
AcDbArc
 50
180.0
 51
270.0
  0
ARC
  5
695
330
1F
100
AcDbEntity
  8
0
100
AcDbCircle
 10
164.474343125539
 20
128.3290034768469
 30
0.0
 40
1.5
100
AcDbArc
 50
270.0
 51
0.0
  0
LINE
  5
696
330
1F
100
AcDbEntity
  8
CLASS1
  6
CONTINUOUS
 62
     0
100
AcDbLine
 10
152.8891401255389
 20
62.94472469906736
 30
0.0
 11
153.9048511255389
 21
62.94472469906736
 31
0.0
  0
ARC
  5
697
330
1F
100
AcDbEntity
  8
CLASS1
  6
CONTINUOUS
 62
     0
100
AcDbCircle
 10
152.8891401255389
 20
61.94472469906759
 30
0.0
 40
1.0
100
AcDbArc
 50
90.0
 51
179.1176409999946
  0
ARC
  5
698
330
1F
100
AcDbEntity
  8
0
100
AcDbCircle
 10
154.4741341255389
 20
128.3290034768469
 30
0.0
 40
1.5
100
AcDbArc
 50
180.0
 51
270.0
  0
ARC
  5
699
330
1F
100
AcDbEntity
  8
0
100
AcDbCircle
 10
158.932171125539
 20
134.2052724768468
 30
0.0
 40
1.0
100
AcDbArc
 50
90.12440900000083
 51
146.0984159999947
  0
LINE
  5
69A
330
1F
100
AcDbEntity
  8
0
100
AcDbLine
 10
158.1507441255389
 20
134.8292684768468
 30
0.0
 11
178.8020061255389
 21
134.8292684768468
 31
0.0
  0
ARC
  5
69B
330
1F
100
AcDbEntity
  8
0
100
AcDbCircle
 10
168.474343125539
 20
130.0790034768469
 30
0.0
 40
2.5
100
AcDbArc
 50
0.0
 51
180.0
  0
ARC
  5
69C
330
1F
100
AcDbEntity
  8
0
100
AcDbCircle
 10
168.4743431255368
 20
-4260.380026523157
 30
0.0
 40
4395.595658
100
AcDbArc
 50
89.87559099999918
 51
90.12440900000083
  0
LINE
  5
69D
330
1F
100
AcDbEntity
  8
0
  6
CENTER
 62
     5
100
AcDbLine
 10
175.9743431255389
 20
130.0790034768469
 30
0.0
 11
160.9743431255388
 21
130.0790034768469
 31
0.0
  0
ARC
  5
69E
330
1F
100
AcDbEntity
  8
0
100
AcDbCircle
 10
178.016515125539
 20
134.2052724768468
 30
0.0
 40
1.0
100
AcDbArc
 50
33.90158400000528
 51
89.87559099999918
  0
ARC
  5
69F
330
1F
100
AcDbEntity
  8
0
100
AcDbCircle
 10
152.904632125539
 20
141.2043044768467
 30
0.0
 40
1.0
100
AcDbArc
 50
180.0
 51
270.0
  0
LINE
  5
6A0
330
1F
100
AcDbEntity
  8
0
100
AcDbLine
 10
152.904632125539
 20
140.2043044768467
 30
0.0
 11
153.905061125539
 21
140.2043044768467
 31
0.0
  0
LINE
  5
6A1
330
1F
100
AcDbEntity
  8
0
100
AcDbLine
 10
152.9741341255389
 20
134.8292684768468
 30
0.0
 11
152.9741341255389
 21
138.8658434768469
 31
0.0
  0
LINE
  5
6A2
330
1F
100
AcDbEntity
  8
0
100
AcDbLine
 10
152.9741341255389
 20
138.8658434768469
 30
0.0
 11
151.989224125539
 21
138.8658434768469
 31
0.0
  0
LINE
  5
6A3
330
1F
100
AcDbEntity
  8
0
100
AcDbLine
 10
152.9741341255389
 20
138.8535454768468
 30
0.0
 11
153.905061125539
 21
140.2043044768467
 31
0.0
  0
ARC
  5
6A4
330
1F
100
AcDbEntity
  8
0
100
AcDbCircle
 10
151.989224125539
 20
139.8658434768469
 30
0.0
 40
1.0
100
AcDbArc
 50
180.0
 51
270.0
  0
ARC
  5
6A5
330
1F
100
AcDbEntity
  8
0
100
AcDbCircle
 10
153.9741341255389
 20
134.8292684768468
 30
0.0
 40
1.0
100
AcDbArc
 50
180.0
 51
270.0
  0
LINE
  5
6A6
330
1F
100
AcDbEntity
  8
0
100
AcDbLine
 10
158.1021741255389
 20
134.7630404768472
 30
0.0
 11
157.4746671255389
 21
133.8292684768468
 31
0.0
  0
ARC
  5
6A7
330
1F
100
AcDbEntity
  8
0
100
AcDbCircle
 10
154.982061125539
 20
136.352389476847
 30
0.0
 40
1.0
100
AcDbArc
 50
180.0
 51
270.0
  0
LINE
  5
6A8
330
1F
100
AcDbEntity
  8
0
100
AcDbLine
 10
153.9741341255389
 20
133.8292684768468
 30
0.0
 11
157.4746671255389
 21
133.8292684768468
 31
0.0
  0
LINE
  5
6A9
330
1F
100
AcDbEntity
  8
0
100
AcDbLine
 10
155.974343125539
 20
243.2752204768469
 30
0.0
 11
155.974343125539
 21
235.907124476847
 31
0.0
  0
ARC
  5
6AA
330
1F
100
AcDbEntity
  8
0
100
AcDbCircle
 10
158.9321711255391
 20
296.4532644768469
 30
0.0
 40
1.0
100
AcDbArc
 50
213.9015840000052
 51
269.8755909999992
  0
LINE
  5
6AB
330
1F
100
AcDbEntity
  8
0
100
AcDbLine
 10
158.150744125539
 20
295.8292684768466
 30
0.0
 11
178.802006125539
 21
295.8292684768466
 31
0.0
  0
ARC
  5
6AC
330
1F
100
AcDbEntity
  8
0
100
AcDbCircle
 10
168.4743431255412
 20
4691.038563476844
 30
0.0
 40
4395.595658
100
AcDbArc
 50
269.8755909999992
 51
270.1244089999975
  0
ARC
  5
6AD
330
1F
100
AcDbEntity
  8
0
100
AcDbCircle
 10
178.0165151255391
 20
296.4532644768469
 30
0.0
 40
1.0
100
AcDbArc
 50
270.1244089999975
 51
326.0984159999947
  0
LINE
  5
6AE
330
1F
100
AcDbEntity
  8
0
100
AcDbLine
 10
155.974343125539
 20
291.8292684768466
 30
0.0
 11
155.974343125539
 21
277.888137476847
 31
0.0
  0
ARC
  5
6AF
330
1F
100
AcDbEntity
  8
0
100
AcDbCircle
 10
153.974134125539
 20
295.8292684768466
 30
0.0
 40
1.0
100
AcDbArc
 50
90.0
 51
180.0
  0
LINE
  5
6B0
330
1F
100
AcDbEntity
  8
0
100
AcDbLine
 10
152.9741341255389
 20
291.8049914768471
 30
0.0
 11
151.989224125539
 21
291.8049914768471
 31
0.0
  0
ARC
  5
6B1
330
1F
100
AcDbEntity
  8
0
100
AcDbCircle
 10
152.9046321255391
 20
289.4542334768471
 30
0.0
 40
1.0
100
AcDbArc
 50
90.0
 51
180.0
  0
ARC
  5
6B2
330
1F
100
AcDbEntity
  8
0
100
AcDbCircle
 10
152.9046321255391
 20
289.4542334768471
 30
0.0
 40
1.0
100
AcDbArc
 50
90.0
 51
180.0
  0
LINE
  5
6B3
330
1F
100
AcDbEntity
  8
0
100
AcDbLine
 10
152.904632125539
 20
290.454233476847
 30
0.0
 11
153.905061125539
 21
290.454233476847
 31
0.0
  0
LINE
  5
6B4
330
1F
100
AcDbEntity
  8
0
100
AcDbLine
 10
152.904632125539
 20
290.454233476847
 30
0.0
 11
153.905061125539
 21
290.454233476847
 31
0.0
  0
LINE
  5
6B5
330
1F
100
AcDbEntity
  8
0
100
AcDbLine
 10
152.9741341255389
 20
291.8049914768471
 30
0.0
 11
153.905061125539
 21
290.454233476847
 31
0.0
  0
LINE
  5
6B6
330
1F
100
AcDbEntity
  8
0
100
AcDbLine
 10
152.9741341255389
 20
291.8049914768471
 30
0.0
 11
153.905061125539
 21
290.454233476847
 31
0.0
  0
ARC
  5
6B7
330
1F
100
AcDbEntity
  8
0
100
AcDbCircle
 10
151.9892241255391
 20
290.8049914768471
 30
0.0
 40
1.0
100
AcDbArc
 50
90.0
 51
180.0
  0
LINE
  5
6B8
330
1F
100
AcDbEntity
  8
0
100
AcDbLine
 10
152.9741341255389
 20
295.8292684768466
 30
0.0
 11
152.9741341255389
 21
291.8049914768471
 31
0.0
  0
LINE
  5
6B9
330
1F
100
AcDbEntity
  8
0
100
AcDbLine
 10
158.102174125539
 20
295.8954964768468
 30
0.0
 11
157.4746671255389
 21
296.8292684768466
 31
0.0
  0
ARC
  5
6BA
330
1F
100
AcDbEntity
  8
0
100
AcDbCircle
 10
157.0743431255391
 20
291.7331374768469
 30
0.0
 40
1.0
100
AcDbArc
 50
90.0
 51
180.0
  0
ARC
  5
6BB
330
1F
100
AcDbEntity
  8
0
100
AcDbCircle
 10
156.9743431255391
 20
291.8292684768466
 30
0.0
 40
1.0
100
AcDbArc
 50
90.0
 51
180.0
  0
ARC
  5
6BC
330
1F
100
AcDbEntity
  8
0
100
AcDbCircle
 10
154.9820611255391
 20
294.317905476847
 30
0.0
 40
1.0
100
AcDbArc
 50
90.0
 51
180.0
  0
LINE
  5
6BD
330
1F
100
AcDbEntity
  8
0
100
AcDbLine
 10
153.9741341255389
 20
296.8292684768466
 30
0.0
 11
157.4746671255389
 21
296.8292684768466
 31
0.0
  0
LINE
  5
6BE
330
1F
100
AcDbEntity
  8
0
100
AcDbLine
 10
154.4741341255389
 20
305.3290094768467
 30
0.0
 11
182.474552125539
 21
305.3290094768467
 31
0.0
  0
LINE
  5
6BF
330
1F
100
AcDbEntity
  8
CLASS1
  6
CONTINUOUS
 62
     0
100
AcDbLine
 10
152.9739259981986
 20
435.3181792989901
 30
0.0
 11
183.9743439981985
 21
435.3181792989901
 31
0.0
  0
INSERT
  5
6C0
330
1F
100
AcDbEntity
  8
0
100
AcDbBlockReference
  2
A$C51C20FFB
 10
183.9743439981983
 20
438.8181779616681
 30
0.0
 50
180.0
  0
LINE
  5
6C1
330
1F
100
AcDbEntity
  8
CLASS1
  6
CONTINUOUS
 62
     0
100
AcDbLine
 10
178.5605669981985
 20
376.02159429899
 30
0.0
 11
179.4738099981985
 21
435.3181792989901
 31
0.0
  0
LINE
  5
6C2
330
1F
100
AcDbEntity
  8
CLASS1
  6
CONTINUOUS
 62
     0
100
AcDbLine
 10
185.0590109981985
 20
375.8580532989901
 30
0.0
 11
185.9745359981985
 21
435.3027802989902
 31
0.0
  0
LINE
  5
6C3
330
1F
100
AcDbEntity
  8
CLASS1
  6
CONTINUOUS
 62
     0
100
AcDbLine
 10
182.9780339981985
 20
370.6281052989904
 30
0.0
 11
183.9743439981985
 21
435.3181792989901
 31
0.0
  0
ARC
  5
6C4
330
1F
100
AcDbEntity
  8
0
100
AcDbCircle
 10
182.4745521255391
 20
303.8290094768467
 30
0.0
 40
1.5
100
AcDbArc
 50
0.0
 51
90.0
  0
ARC
  5
6C5
330
1F
100
AcDbEntity
  8
CLASS1
  6
CONTINUOUS
 62
     0
100
AcDbCircle
 10
184.0591289981983
 20
375.8734532989904
 30
0.0
 40
1.0
100
AcDbArc
 50
270.0
 51
359.1176409999946
  0
LINE
  5
6C6
330
1F
100
AcDbEntity
  8
CLASS1
  6
CONTINUOUS
 62
     0
100
AcDbLine
 10
184.0591289981984
 20
374.8734532989904
 30
0.0
 11
183.0434169981986
 21
374.8734532989904
 31
0.0
  0
ARC
  5
6C7
330
1F
100
AcDbEntity
  8
CLASS1
  6
CONTINUOUS
 62
     0
100
AcDbCircle
 10
184.9746549981983
 20
435.3181792989901
 30
0.0
 40
1.0
100
AcDbArc
 50
359.1176409999946
 51
90.0
  0
LINE
  5
6C8
330
1F
100
AcDbEntity
  8
CLASS1
  6
CONTINUOUS
 62
     0
100
AcDbLine
 10
183.9743439981985
 20
436.3181792989901
 30
0.0
 11
183.9743439981985
 21
435.3181792989901
 31
0.0
  0
LINE
  5
6C9
330
1F
100
AcDbEntity
  8
CLASS1
  6
CONTINUOUS
 62
     0
100
AcDbLine
 10
183.9743439981985
 20
436.3181792989901
 30
0.0
 11
184.9746549981985
 21
436.3181792989901
 31
0.0
  0
LINE
  5
6CA
330
1F
100
AcDbEntity
  8
CLASS1
  6
CONTINUOUS
 62
     0
100
AcDbLine
 10
162.4741349981985
 20
391.7181792989902
 30
0.0
 11
162.4741349981985
 21
393.7181792989902
 31
0.0
  0
LINE
  5
6CB
330
1F
100
AcDbEntity
  8
CLASS1
  6
CONTINUOUS
 62
     0
100
AcDbLine
 10
174.4741349981984
 20
393.7181792989902
 30
0.0
 11
174.4741349981984
 21
391.7181792989902
 31
0.0
  0
LINE
  5
6CC
330
1F
100
AcDbEntity
  8
CLASS1
  6
CONTINUOUS
 62
     0
100
AcDbLine
 10
151.8892599981984
 20
375.8580532989901
 30
0.0
 11
150.9737339981986
 21
435.3027802989902
 31
0.0
  0
LINE
  5
6CD
330
1F
100
AcDbEntity
  8
CLASS1
  6
CONTINUOUS
 62
     0
100
AcDbLine
 10
158.3877049981986
 20
376.02159429899
 30
0.0
 11
157.4744599981984
 21
435.3181792989901
 31
0.0
  0
LINE
  5
6CE
330
1F
100
AcDbEntity
  8
CLASS1
  6
CONTINUOUS
 62
     0
100
AcDbLine
 10
153.9702639981985
 20
370.6264262989904
 30
0.0
 11
152.9739259981986
 21
435.3181792989901
 31
0.0
  0
ARC
  5
6CF
330
1F
100
AcDbEntity
  8
CLASS1
  6
CONTINUOUS
 62
     0
100
AcDbCircle
 10
160.3874679981984
 20
376.0523922989903
 30
0.0
 40
2.0
100
AcDbArc
 50
180.8823600000015
 51
265.2667410000032
  0
LINE
  5
6D0
330
1F
100
AcDbEntity
  8
0
  6
CENTER
 62
     5
100
AcDbLine
 10
175.974343125539
 20
300.5790094768467
 30
0.0
 11
160.974343125539
 21
300.5790094768467
 31
0.0
  0
CIRCLE
  5
6D1
330
1F
100
AcDbEntity
  8
0
100
AcDbCircle
 10
168.4743431255391
 20
300.5790094768467
 30
0.0
 40
2.5
  0
LINE
  5
6D2
330
1F
100
AcDbEntity
  8
CLASS1
  6
CONTINUOUS
 62
     0
100
AcDbLine
 10
174.4741349981984
 20
391.7181792989902
 30
0.0
 11
162.4741349981985
 21
391.7181792989902
 31
0.0
  0
LINE
  5
6D3
330
1F
100
AcDbEntity
  8
CLASS1
  6
CONTINUOUS
 62
     0
100
AcDbLine
 10
174.4741349981984
 20
387.7181792989901
 30
0.0
 11
162.4741349981985
 21
387.7181792989901
 31
0.0
  0
LINE
  5
6D4
330
1F
100
AcDbEntity
  8
CLASS1
  6
CONTINUOUS
 62
     0
100
AcDbLine
 10
162.4741349981985
 20
389.7181792989901
 30
0.0
 11
174.4741349981984
 21
389.7181792989901
 31
0.0
  0
LINE
  5
6D5
330
1F
100
AcDbEntity
  8
CLASS1
  6
CONTINUOUS
 62
     0
100
AcDbLine
 10
162.4741349981985
 20
385.7181792989902
 30
0.0
 11
174.4741349981984
 21
385.7181792989902
 31
0.0
  0
LINE
  5
6D6
330
1F
100
AcDbEntity
  8
CLASS1
  6
CONTINUOUS
 62
     0
100
AcDbLine
 10
174.4741349981984
 20
383.7181792989902
 30
0.0
 11
162.4741349981985
 21
383.7181792989902
 31
0.0
  0
LINE
  5
6D7
330
1F
100
AcDbEntity
  8
CLASS1
  6
CONTINUOUS
 62
     0
100
AcDbLine
 10
162.4741349981985
 20
381.7181792989902
 30
0.0
 11
174.4741349981984
 21
381.7181792989902
 31
0.0
  0
LINE
  5
6D8
330
1F
100
AcDbEntity
  8
CLASS1
  6
CONTINUOUS
 62
     0
100
AcDbLine
 10
174.4741349981984
 20
379.7181792989902
 30
0.0
 11
162.4741349981985
 21
379.7181792989902
 31
0.0
  0
ARC
  5
6D9
330
1F
100
AcDbEntity
  8
CLASS1
  6
CONTINUOUS
 62
     0
100
AcDbCircle
 10
168.4741349981985
 20
473.7181792989901
 30
0.0
 40
100.0
100
AcDbArc
 50
265.2667410000032
 51
274.7332589999968
  0
ARC
  5
6DA
330
1F
100
AcDbEntity
  8
CLASS1
  6
CONTINUOUS
 62
     0
100
AcDbCircle
 10
176.5608039981983
 20
376.0523932989901
 30
0.0
 40
2.0
100
AcDbArc
 50
274.7332589999968
 51
359.1176409999946
  0
LINE
  5
6DB
330
1F
100
AcDbEntity
  8
CLASS1
  6
CONTINUOUS
 62
     0
100
AcDbLine
 10
174.4741349981984
 20
389.7181792989901
 30
0.0
 11
174.4741349981984
 21
387.7181792989901
 31
0.0
  0
LINE
  5
6DC
330
1F
100
AcDbEntity
  8
CLASS1
  6
CONTINUOUS
 62
     0
100
AcDbLine
 10
174.4741349981984
 20
385.7181792989902
 30
0.0
 11
174.4741349981984
 21
383.7181792989902
 31
0.0
  0
LINE
  5
6DD
330
1F
100
AcDbEntity
  8
CLASS1
  6
CONTINUOUS
 62
     0
100
AcDbLine
 10
174.4741349981984
 20
381.7181792989902
 30
0.0
 11
174.4741349981984
 21
379.7181792989902
 31
0.0
  0
LINE
  5
6DE
330
1F
100
AcDbEntity
  8
CLASS1
  6
CONTINUOUS
 62
     0
100
AcDbLine
 10
162.4741349981985
 20
387.7181792989901
 30
0.0
 11
162.4741349981985
 21
389.7181792989901
 31
0.0
  0
LINE
  5
6DF
330
1F
100
AcDbEntity
  8
CLASS1
  6
CONTINUOUS
 62
     0
100
AcDbLine
 10
162.4741349981985
 20
383.7181792989902
 30
0.0
 11
162.4741349981985
 21
385.7181792989902
 31
0.0
  0
LINE
  5
6E0
330
1F
100
AcDbEntity
  8
CLASS1
  6
CONTINUOUS
 62
     0
100
AcDbLine
 10
162.4741349981985
 20
379.7181792989902
 30
0.0
 11
162.4741349981985
 21
381.7181792989902
 31
0.0
  0
ARC
  5
6E1
330
1F
100
AcDbEntity
  8
0
100
AcDbCircle
 10
154.474134125539
 20
303.8290094768467
 30
0.0
 40
1.5
100
AcDbArc
 50
90.0
 51
180.0
  0
ARC
  5
6E2
330
1F
100
AcDbEntity
  8
CLASS1
  6
CONTINUOUS
 62
     0
100
AcDbCircle
 10
152.8891419981983
 20
375.8734532989904
 30
0.0
 40
1.0
100
AcDbArc
 50
180.8823590000053
 51
270.0
  0
LINE
  5
6E3
330
1F
100
AcDbEntity
  8
CLASS1
  6
CONTINUOUS
 62
     0
100
AcDbLine
 10
152.8891419981985
 20
374.8734532989904
 30
0.0
 11
153.9048529981985
 21
374.8734532989904
 31
0.0
  0
LINE
  5
6E4
330
1F
100
AcDbEntity
  8
CLASS1
  6
CONTINUOUS
 62
     0
100
AcDbLine
 10
162.4741349981985
 20
421.7181792989902
 30
0.0
 11
174.4741349981984
 21
421.7181792989902
 31
0.0
  0
LINE
  5
6E5
330
1F
100
AcDbEntity
  8
CLASS1
  6
CONTINUOUS
 62
     0
100
AcDbLine
 10
174.4741349981984
 20
419.7181792989901
 30
0.0
 11
162.4741349981985
 21
419.7181792989901
 31
0.0
  0
LINE
  5
6E6
330
1F
100
AcDbEntity
  8
CLASS1
  6
CONTINUOUS
 62
     0
100
AcDbLine
 10
162.4741349981985
 20
417.7181792989902
 30
0.0
 11
174.4741349981984
 21
417.7181792989902
 31
0.0
  0
LINE
  5
6E7
330
1F
100
AcDbEntity
  8
CLASS1
  6
CONTINUOUS
 62
     0
100
AcDbLine
 10
174.4741349981984
 20
415.7181792989901
 30
0.0
 11
162.4741349981985
 21
415.7181792989901
 31
0.0
  0
LINE
  5
6E8
330
1F
100
AcDbEntity
  8
CLASS1
  6
CONTINUOUS
 62
     0
100
AcDbLine
 10
168.9491349981985
 20
410.8681792989902
 30
0.0
 11
164.7991349981985
 21
410.8681792989902
 31
0.0
  0
LINE
  5
6E9
330
1F
100
AcDbEntity
  8
CLASS1
  6
CONTINUOUS
 62
     0
100
AcDbLine
 10
169.5741349981986
 20
404.1181792989902
 30
0.0
 11
167.8741349981985
 21
404.1181792989902
 31
0.0
  0
LINE
  5
6EA
330
1F
100
AcDbEntity
  8
CLASS1
  6
CONTINUOUS
 62
     0
100
AcDbLine
 10
169.5741349981986
 20
405.3181792989901
 30
0.0
 11
167.8741349981985
 21
405.3181792989901
 31
0.0
  0
LINE
  5
6EB
330
1F
100
AcDbEntity
  8
CLASS1
  6
CONTINUOUS
 62
     0
100
AcDbLine
 10
168.9491349981985
 20
398.5681792989901
 30
0.0
 11
164.7991349981985
 21
398.5681792989901
 31
0.0
  0
LINE
  5
6EC
330
1F
100
AcDbEntity
  8
CLASS1
  6
CONTINUOUS
 62
     0
100
AcDbLine
 10
162.4741349981985
 20
413.7181792989902
 30
0.0
 11
174.4741349981984
 21
413.7181792989902
 31
0.0
  0
LINE
  5
6ED
330
1F
100
AcDbEntity
  8
CLASS1
  6
CONTINUOUS
 62
     0
100
AcDbLine
 10
162.4741349981985
 20
412.7181792989902
 30
0.0
 11
171.3741349981985
 21
412.7181792989902
 31
0.0
  0
LINE
  5
6EE
330
1F
100
AcDbEntity
  8
CLASS1
  6
CONTINUOUS
 62
     0
100
AcDbLine
 10
171.3741349981985
 20
396.7181792989902
 30
0.0
 11
162.4741349981985
 21
396.7181792989902
 31
0.0
  0
LINE
  5
6EF
330
1F
100
AcDbEntity
  8
CLASS1
  6
CONTINUOUS
 62
     0
100
AcDbLine
 10
174.4741349981984
 20
395.7181792989901
 30
0.0
 11
162.4741349981985
 21
395.7181792989901
 31
0.0
  0
LINE
  5
6F0
330
1F
100
AcDbEntity
  8
CLASS1
  6
CONTINUOUS
 62
     0
100
AcDbLine
 10
162.4741349981985
 20
393.7181792989902
 30
0.0
 11
174.4741349981984
 21
393.7181792989902
 31
0.0
  0
LINE
  5
6F1
330
1F
100
AcDbEntity
  8
CLASS1
  6
CONTINUOUS
 62
     0
100
AcDbLine
 10
169.5741349981986
 20
399.8181792989901
 30
0.0
 11
169.5741349981986
 21
409.6181792989902
 31
0.0
  0
LINE
  5
6F2
330
1F
100
AcDbEntity
  8
CLASS1
  6
CONTINUOUS
 62
     0
100
AcDbLine
 10
171.3741349981985
 20
409.7181792989902
 30
0.0
 11
171.3741349981985
 21
407.7181792989902
 31
0.0
  0
LINE
  5
6F3
330
1F
100
AcDbEntity
  8
CLASS1
  6
CONTINUOUS
 62
     0
100
AcDbLine
 10
174.4741349981984
 20
409.7181792989902
 30
0.0
 11
174.4741349981984
 21
407.7181792989902
 31
0.0
  0
LINE
  5
6F4
330
1F
100
AcDbEntity
  8
CLASS1
  6
CONTINUOUS
 62
     0
100
AcDbLine
 10
168.9491349981985
 20
398.5681792989901
 30
0.0
 11
168.9491349981985
 21
399.8181792989901
 31
0.0
  0
LINE
  5
6F5
330
1F
100
AcDbEntity
  8
CLASS1
  6
CONTINUOUS
 62
     0
100
AcDbLine
 10
169.5741349981986
 20
399.8181792989901
 30
0.0
 11
168.9491349981985
 21
399.8181792989901
 31
0.0
  0
LINE
  5
6F6
330
1F
100
AcDbEntity
  8
CLASS1
  6
CONTINUOUS
 62
     0
100
AcDbLine
 10
174.4741349981984
 20
407.7181792989902
 30
0.0
 11
171.3741349981985
 21
407.7181792989902
 31
0.0
  0
LINE
  5
6F7
330
1F
100
AcDbEntity
  8
CLASS1
  6
CONTINUOUS
 62
     0
100
AcDbLine
 10
174.4741349981984
 20
403.7181792989902
 30
0.0
 11
171.3741349981985
 21
403.7181792989902
 31
0.0
  0
LINE
  5
6F8
330
1F
100
AcDbEntity
  8
CLASS1
  6
CONTINUOUS
 62
     0
100
AcDbLine
 10
171.3741349981985
 20
405.7181792989902
 30
0.0
 11
171.3741349981985
 21
403.7181792989902
 31
0.0
  0
LINE
  5
6F9
330
1F
100
AcDbEntity
  8
CLASS1
  6
CONTINUOUS
 62
     0
100
AcDbLine
 10
174.4741349981984
 20
405.7181792989902
 30
0.0
 11
174.4741349981984
 21
403.7181792989902
 31
0.0
  0
LINE
  5
6FA
330
1F
100
AcDbEntity
  8
CLASS1
  6
CONTINUOUS
 62
     0
100
AcDbLine
 10
171.3741349981985
 20
405.7181792989902
 30
0.0
 11
174.4741349981984
 21
405.7181792989902
 31
0.0
  0
LINE
  5
6FB
330
1F
100
AcDbEntity
  8
CLASS1
  6
CONTINUOUS
 62
     0
100
AcDbLine
 10
174.4741349981984
 20
401.7181792989902
 30
0.0
 11
174.4741349981984
 21
399.7181792989902
 31
0.0
  0
LINE
  5
6FC
330
1F
100
AcDbEntity
  8
CLASS1
  6
CONTINUOUS
 62
     0
100
AcDbLine
 10
171.3741349981985
 20
401.7181792989902
 30
0.0
 11
171.3741349981985
 21
399.7181792989902
 31
0.0
  0
LINE
  5
6FD
330
1F
100
AcDbEntity
  8
CLASS1
  6
CONTINUOUS
 62
     0
100
AcDbLine
 10
171.3741349981985
 20
401.7181792989902
 30
0.0
 11
174.4741349981984
 21
401.7181792989902
 31
0.0
  0
LINE
  5
6FE
330
1F
100
AcDbEntity
  8
CLASS1
  6
CONTINUOUS
 62
     0
100
AcDbLine
 10
174.4741349981984
 20
399.7181792989902
 30
0.0
 11
171.3741349981985
 21
399.7181792989902
 31
0.0
  0
LINE
  5
6FF
330
1F
100
AcDbEntity
  8
CLASS1
  6
CONTINUOUS
 62
     0
100
AcDbLine
 10
171.3741349981985
 20
397.7181792989902
 30
0.0
 11
174.4741349981984
 21
397.7181792989902
 31
0.0
  0
LINE
  5
700
330
1F
100
AcDbEntity
  8
CLASS1
  6
CONTINUOUS
 62
     0
100
AcDbLine
 10
171.3741349981985
 20
397.7181792989902
 30
0.0
 11
171.3741349981985
 21
396.7181792989902
 31
0.0
  0
LINE
  5
701
330
1F
100
AcDbEntity
  8
CLASS1
  6
CONTINUOUS
 62
     0
100
AcDbLine
 10
174.4741349981984
 20
397.7181792989902
 30
0.0
 11
174.4741349981984
 21
395.7181792989901
 31
0.0
  0
LINE
  5
702
330
1F
100
AcDbEntity
  8
CLASS1
  6
CONTINUOUS
 62
     0
100
AcDbLine
 10
174.4741349981984
 20
421.7181792989902
 30
0.0
 11
174.4741349981984
 21
419.7181792989901
 31
0.0
  0
LINE
  5
703
330
1F
100
AcDbEntity
  8
CLASS1
  6
CONTINUOUS
 62
     0
100
AcDbLine
 10
174.4741349981984
 20
417.7181792989902
 30
0.0
 11
174.4741349981984
 21
415.7181792989901
 31
0.0
  0
LINE
  5
704
330
1F
100
AcDbEntity
  8
CLASS1
  6
CONTINUOUS
 62
     0
100
AcDbLine
 10
169.5741349981986
 20
409.6181792989902
 30
0.0
 11
168.9491349981985
 21
409.6181792989902
 31
0.0
  0
LINE
  5
705
330
1F
100
AcDbEntity
  8
CLASS1
  6
CONTINUOUS
 62
     0
100
AcDbLine
 10
168.9491349981985
 20
409.6181792989902
 30
0.0
 11
168.9491349981985
 21
410.8681792989902
 31
0.0
  0
LINE
  5
706
330
1F
100
AcDbEntity
  8
CLASS1
  6
CONTINUOUS
 62
     0
100
AcDbLine
 10
174.4741349981984
 20
413.7181792989902
 30
0.0
 11
174.4741349981984
 21
411.7181792989901
 31
0.0
  0
LINE
  5
707
330
1F
100
AcDbEntity
  8
CLASS1
  6
CONTINUOUS
 62
     0
100
AcDbLine
 10
174.4741349981984
 20
411.7181792989901
 30
0.0
 11
171.3741349981985
 21
411.7181792989901
 31
0.0
  0
LINE
  5
708
330
1F
100
AcDbEntity
  8
CLASS1
  6
CONTINUOUS
 62
     0
100
AcDbLine
 10
171.3741349981985
 20
412.7181792989902
 30
0.0
 11
171.3741349981985
 21
411.7181792989901
 31
0.0
  0
LINE
  5
709
330
1F
100
AcDbEntity
  8
CLASS1
  6
CONTINUOUS
 62
     0
100
AcDbLine
 10
171.3741349981985
 20
409.7181792989902
 30
0.0
 11
174.4741349981984
 21
409.7181792989902
 31
0.0
  0
LINE
  5
70A
330
1F
100
AcDbEntity
  8
CLASS1
  6
CONTINUOUS
 62
     0
100
AcDbLine
 10
167.8741349981985
 20
401.2181792989902
 30
0.0
 11
167.8741349981985
 21
408.2181792989902
 31
0.0
  0
LINE
  5
70B
330
1F
100
AcDbEntity
  8
CLASS1
  6
CONTINUOUS
 62
     0
100
AcDbLine
 10
165.8741349981985
 20
401.2181792989902
 30
0.0
 11
165.8741349981985
 21
408.2181792989902
 31
0.0
  0
LINE
  5
70C
330
1F
100
AcDbEntity
  8
CLASS1
  6
CENTER
 62
     0
100
AcDbLine
 10
166.8741349981985
 20
399.7181792989902
 30
0.0
 11
166.8741349981985
 21
411.7519212989902
 31
0.0
  0
LINE
  5
70D
330
1F
100
AcDbEntity
  8
CLASS1
  6
CONTINUOUS
 62
     0
100
AcDbLine
 10
164.2741349981986
 20
406.7181792989901
 30
0.0
 11
164.2741349981986
 21
409.6181792989902
 31
0.0
  0
LINE
  5
70E
330
1F
100
AcDbEntity
  8
CLASS1
  6
CONTINUOUS
 62
     0
100
AcDbLine
 10
162.5741349981986
 20
402.7181792989901
 30
0.0
 11
162.5741349981986
 21
406.7181792989901
 31
0.0
  0
LINE
  5
70F
330
1F
100
AcDbEntity
  8
CLASS1
  6
CONTINUOUS
 62
     0
100
AcDbLine
 10
164.2741349981986
 20
406.7181792989901
 30
0.0
 11
162.5741349981986
 21
406.7181792989901
 31
0.0
  0
LINE
  5
710
330
1F
100
AcDbEntity
  8
CLASS1
  6
CONTINUOUS
 62
     0
100
AcDbLine
 10
165.8741349981985
 20
405.3181792989901
 30
0.0
 11
162.5741349981986
 21
405.3181792989901
 31
0.0
  0
LINE
  5
711
330
1F
100
AcDbEntity
  8
CLASS1
  6
CONTINUOUS
 62
     0
100
AcDbLine
 10
165.8741349981985
 20
404.1181792989902
 30
0.0
 11
162.5741349981986
 21
404.1181792989902
 31
0.0
  0
LINE
  5
712
330
1F
100
AcDbEntity
  8
CLASS1
  6
CONTINUOUS
 62
     0
100
AcDbLine
 10
164.2991349981985
 20
402.7181792989901
 30
0.0
 11
162.5741349981986
 21
402.7181792989901
 31
0.0
  0
ARC
  5
713
330
1F
100
AcDbEntity
  8
CLASS1
  6
CONTINUOUS
 62
     0
100
AcDbCircle
 10
167.3741349981983
 20
401.2181792989902
 30
0.0
 40
0.5
100
AcDbArc
 50
270.0
 51
0.0
  0
ARC
  5
714
330
1F
100
AcDbEntity
  8
CLASS1
  6
CONTINUOUS
 62
     0
100
AcDbCircle
 10
166.3741349981983
 20
401.2181792989902
 30
0.0
 40
0.5
100
AcDbArc
 50
180.0
 51
270.0
  0
LINE
  5
715
330
1F
100
AcDbEntity
  8
CLASS1
  6
CONTINUOUS
 62
     0
100
AcDbLine
 10
164.7991349981985
 20
399.8181792989901
 30
0.0
 11
164.2991349981985
 21
399.8181792989901
 31
0.0
  0
LINE
  5
716
330
1F
100
AcDbEntity
  8
CLASS1
  6
CONTINUOUS
 62
     0
100
AcDbLine
 10
164.2991349981985
 20
399.8181792989901
 30
0.0
 11
164.2991349981985
 21
402.7181792989901
 31
0.0
  0
LINE
  5
717
330
1F
100
AcDbEntity
  8
CLASS1
  6
CONTINUOUS
 62
     0
100
AcDbLine
 10
164.7991349981985
 20
398.5681792989901
 30
0.0
 11
164.7991349981985
 21
399.8181792989901
 31
0.0
  0
LINE
  5
718
330
1F
100
AcDbEntity
  8
CLASS1
  6
CONTINUOUS
 62
     0
100
AcDbLine
 10
167.3741349981985
 20
400.7181792989902
 30
0.0
 11
166.3741349981985
 21
400.7181792989902
 31
0.0
  0
LINE
  5
719
330
1F
100
AcDbEntity
  8
CLASS1
  6
CONTINUOUS
 62
     0
100
AcDbLine
 10
162.4741349981985
 20
395.7181792989901
 30
0.0
 11
162.4741349981985
 21
396.7181792989902
 31
0.0
  0
LINE
  5
71A
330
1F
100
AcDbEntity
  8
CLASS1
  6
CONTINUOUS
 62
     0
100
AcDbLine
 10
162.4741349981985
 20
419.7181792989901
 30
0.0
 11
162.4741349981985
 21
421.7181792989902
 31
0.0
  0
LINE
  5
71B
330
1F
100
AcDbEntity
  8
CLASS1
  6
CONTINUOUS
 62
     0
100
AcDbLine
 10
162.4741349981985
 20
415.7181792989901
 30
0.0
 11
162.4741349981985
 21
417.7181792989902
 31
0.0
  0
LINE
  5
71C
330
1F
100
AcDbEntity
  8
CLASS1
  6
CONTINUOUS
 62
     0
100
AcDbLine
 10
162.4741349981985
 20
412.7181792989902
 30
0.0
 11
162.4741349981985
 21
413.7181792989902
 31
0.0
  0
ARC
  5
71D
330
1F
100
AcDbEntity
  8
CLASS1
  6
CONTINUOUS
 62
     0
100
AcDbCircle
 10
167.3741349981983
 20
408.2181792989902
 30
0.0
 40
0.5
100
AcDbArc
 50
0.0
 51
90.0
  0
LINE
  5
71E
330
1F
100
AcDbEntity
  8
CLASS1
  6
CONTINUOUS
 62
     0
100
AcDbLine
 10
167.3741349981985
 20
408.7181792989902
 30
0.0
 11
166.3741349981985
 21
408.7181792989902
 31
0.0
  0
LINE
  5
71F
330
1F
100
AcDbEntity
  8
CLASS1
  6
CONTINUOUS
 62
     0
100
AcDbLine
 10
164.7991349981985
 20
409.6181792989902
 30
0.0
 11
164.2741349981986
 21
409.6181792989902
 31
0.0
  0
LINE
  5
720
330
1F
100
AcDbEntity
  8
CLASS1
  6
CONTINUOUS
 62
     0
100
AcDbLine
 10
164.7991349981985
 20
409.6181792989902
 30
0.0
 11
164.7991349981985
 21
410.8681792989902
 31
0.0
  0
ARC
  5
721
330
1F
100
AcDbEntity
  8
CLASS1
  6
CONTINUOUS
 62
     0
100
AcDbCircle
 10
166.3741349981983
 20
408.2181792989902
 30
0.0
 40
0.5
100
AcDbArc
 50
90.0
 51
180.0
  0
LINE
  5
722
330
1F
100
AcDbEntity
  8
CLASS1
  6
CONTINUOUS
 62
     0
100
AcDbLine
 10
162.4741349981985
 20
429.7181792989902
 30
0.0
 11
174.4741349981984
 21
429.7181792989902
 31
0.0
  0
LINE
  5
723
330
1F
100
AcDbEntity
  8
CLASS1
  6
CONTINUOUS
 62
     0
100
AcDbLine
 10
174.4741349981984
 20
427.7181792989901
 30
0.0
 11
162.4741349981985
 21
427.7181792989901
 31
0.0
  0
LINE
  5
724
330
1F
100
AcDbEntity
  8
CLASS1
  6
CONTINUOUS
 62
     0
100
AcDbLine
 10
162.4741349981985
 20
425.7181792989902
 30
0.0
 11
174.4741349981984
 21
425.7181792989902
 31
0.0
  0
LINE
  5
725
330
1F
100
AcDbEntity
  8
CLASS1
  6
CONTINUOUS
 62
     0
100
AcDbLine
 10
174.4741349981984
 20
423.7181792989901
 30
0.0
 11
162.4741349981985
 21
423.7181792989901
 31
0.0
  0
LINE
  5
726
330
1F
100
AcDbEntity
  8
CLASS1
  6
CONTINUOUS
 62
     0
100
AcDbLine
 10
174.4741349981984
 20
429.7181792989902
 30
0.0
 11
174.4741349981984
 21
427.7181792989901
 31
0.0
  0
LINE
  5
727
330
1F
100
AcDbEntity
  8
CLASS1
  6
CONTINUOUS
 62
     0
100
AcDbLine
 10
174.4741349981984
 20
425.7181792989902
 30
0.0
 11
174.4741349981984
 21
423.7181792989901
 31
0.0
  0
LINE
  5
728
330
1F
100
AcDbEntity
  8
CLASS1
  6
CONTINUOUS
 62
     0
100
AcDbLine
 10
162.4741349981985
 20
427.7181792989901
 30
0.0
 11
162.4741349981985
 21
429.7181792989902
 31
0.0
  0
LINE
  5
729
330
1F
100
AcDbEntity
  8
CLASS1
  6
CONTINUOUS
 62
     0
100
AcDbLine
 10
162.4741349981985
 20
423.7181792989901
 30
0.0
 11
162.4741349981985
 21
425.7181792989902
 31
0.0
  0
ARC
  5
72A
330
1F
100
AcDbEntity
  8
CLASS1
  6
CONTINUOUS
 62
     0
100
AcDbCircle
 10
151.9736159981984
 20
435.3181792989901
 30
0.0
 40
1.0
100
AcDbArc
 50
90.0
 51
180.8823590000053
  0
LINE
  5
72B
330
1F
100
AcDbEntity
  8
CLASS1
  6
CONTINUOUS
 62
     0
100
AcDbLine
 10
152.9739259981986
 20
435.3181792989901
 30
0.0
 11
152.9739259981986
 21
436.3181792989901
 31
0.0
  0
LINE
  5
72C
330
1F
100
AcDbEntity
  8
CLASS1
  6
CONTINUOUS
 62
     0
100
AcDbLine
 10
152.9739259981986
 20
436.3181792989901
 30
0.0
 11
151.9736159981985
 21
436.3181792989901
 31
0.0
  0
LINE
  5
72D
330
1F
100
AcDbEntity
  8
0
100
AcDbLine
 10
174.374343125539
 20
231.8071244768471
 30
0.0
 11
174.374343125539
 21
143.8331374768471
 31
0.0
  0
LINE
  5
72E
330
1F
100
AcDbEntity
  8
0
100
AcDbLine
 10
161.0743431255391
 20
225.6571244768471
 30
0.0
 11
161.074343125539
 21
211.6571244768471
 31
0.0
  0
LINE
  5
72F
330
1F
100
AcDbEntity
  8
0
100
AcDbLine
 10
160.5743431255391
 20
226.133137476847
 30
0.0
 11
160.574343125539
 21
211.133137476847
 31
0.0
  0
LINE
  5
730
330
1F
100
AcDbEntity
  8
0
100
AcDbLine
 10
173.8743431255391
 20
211.6571244768471
 30
0.0
 11
173.8743431255391
 21
225.6571244768471
 31
0.0
  0
LINE
  5
731
330
1F
100
AcDbEntity
  8
0
100
AcDbLine
 10
169.2951781255391
 20
189.2531364768468
 30
0.0
 11
169.2951781255391
 21
186.2531364768468
 31
0.0
  0
LINE
  5
732
330
1F
100
AcDbEntity
  8
0
100
AcDbLine
 10
171.2601001255391
 20
189.2531364768468
 30
0.0
 11
171.2601001255391
 21
186.2531364768468
 31
0.0
  0
LINE
  5
733
330
1F
100
AcDbEntity
  8
0
100
AcDbLine
 10
166.8743431255391
 20
185.2531364768468
 30
0.0
 11
166.8743431255391
 21
190.2531364768468
 31
0.0
  0
LINE
  5
734
330
1F
100
AcDbEntity
  8
0
100
AcDbLine
 10
166.374343125539
 20
185.0331374768471
 30
0.0
 11
166.374343125539
 21
190.7331374768472
 31
0.0
  0
LINE
  5
735
330
1F
100
AcDbEntity
  8
0
100
AcDbLine
 10
173.8743431255391
 20
190.2531364768468
 30
0.0
 11
173.8743431255391
 21
185.2531364768468
 31
0.0
  0
LINE
  5
736
330
1F
100
AcDbEntity
  8
0
100
AcDbLine
 10
169.2951781255391
 20
186.2531364768468
 30
0.0
 11
171.2601001255391
 21
186.2531364768468
 31
0.0
  0
LINE
  5
737
330
1F
100
AcDbEntity
  8
0
100
AcDbLine
 10
161.074343125539
 20
211.6571244768471
 30
0.0
 11
173.8743431255391
 21
211.6571244768471
 31
0.0
  0
LINE
  5
738
330
1F
100
AcDbEntity
  8
0
100
AcDbLine
 10
160.574343125539
 20
211.133137476847
 30
0.0
 11
168.374343125539
 21
211.133137476847
 31
0.0
  0
LINE
  5
739
330
1F
100
AcDbEntity
  8
0
100
AcDbLine
 10
166.8743431255391
 20
190.2531364768468
 30
0.0
 11
173.8743431255391
 21
190.2531364768468
 31
0.0
  0
LINE
  5
73A
330
1F
100
AcDbEntity
  8
0
100
AcDbLine
 10
166.374343125539
 20
190.7331374768472
 30
0.0
 11
168.374343125539
 21
190.7331374768472
 31
0.0
  0
CIRCLE
  5
73B
330
1F
100
AcDbEntity
  8
0
100
AcDbCircle
 10
167.4743431255391
 20
218.6568534768472
 30
0.0
 40
5.029838999999999
  0
CIRCLE
  5
73C
330
1F
100
AcDbEntity
  8
0
100
AcDbCircle
 10
167.4743431255391
 20
218.6568534768472
 30
0.0
 40
5.029838999999999
  0
CIRCLE
  5
73D
330
1F
100
AcDbEntity
  8
0
100
AcDbCircle
 10
167.4740851255392
 20
218.6568534768472
 30
0.0
 40
4.448566
  0
LINE
  5
73E
330
1F
100
AcDbEntity
  8
0
100
AcDbLine
 10
166.719006125539
 20
220.2376354768472
 30
0.0
 11
166.719006125539
 21
220.830191476847
 31
0.0
  0
LINE
  5
73F
330
1F
100
AcDbEntity
  8
0
100
AcDbLine
 10
166.719006125539
 20
219.8001084768471
 30
0.0
 11
166.719006125539
 21
221.2680634768468
 31
0.0
  0
LINE
  5
740
330
1F
100
AcDbEntity
  8
0
100
AcDbLine
 10
166.719006125539
 20
216.5537944768471
 30
0.0
 11
166.719006125539
 21
217.1465234768471
 31
0.0
  0
LINE
  5
741
330
1F
100
AcDbEntity
  8
0
100
AcDbLine
 10
166.719006125539
 20
216.1160954768468
 30
0.0
 11
166.719006125539
 21
217.5840504768469
 31
0.0
  0
LINE
  5
742
330
1F
100
AcDbEntity
  8
0
100
AcDbLine
 10
166.719006125539
 20
218.3957154768471
 30
0.0
 11
166.719006125539
 21
218.988443476847
 31
0.0
  0
LINE
  5
743
330
1F
100
AcDbEntity
  8
0
100
AcDbLine
 10
166.719006125539
 20
217.9578434768469
 30
0.0
 11
166.719006125539
 21
219.425798476847
 31
0.0
  0
LINE
  5
744
330
1F
100
AcDbEntity
  8
0
100
AcDbLine
 10
162.816574125539
 20
217.9227034768472
 30
0.0
 11
164.7360091255391
 21
217.9227034768472
 31
0.0
  0
LINE
  5
745
330
1F
100
AcDbEntity
  8
0
100
AcDbLine
 10
162.816574125539
 20
219.390486476847
 30
0.0
 11
162.816574125539
 21
217.9227034768472
 31
0.0
  0
LINE
  5
746
330
1F
100
AcDbEntity
  8
0
100
AcDbLine
 10
164.7360091255391
 20
219.390486476847
 30
0.0
 11
162.816574125539
 21
219.390486476847
 31
0.0
  0
LINE
  5
747
330
1F
100
AcDbEntity
  8
0
100
AcDbLine
 10
164.7360091255391
 20
217.9227034768472
 30
0.0
 11
164.7360091255391
 21
219.390486476847
 31
0.0
  0
LINE
  5
748
330
1F
100
AcDbEntity
  8
0
100
AcDbLine
 10
162.816574125539
 20
217.9227034768472
 30
0.0
 11
164.7360091255391
 21
217.9227034768472
 31
0.0
  0
LINE
  5
749
330
1F
100
AcDbEntity
  8
0
100
AcDbLine
 10
162.816574125539
 20
219.390486476847
 30
0.0
 11
162.816574125539
 21
217.9227034768472
 31
0.0
  0
LINE
  5
74A
330
1F
100
AcDbEntity
  8
0
100
AcDbLine
 10
164.7360091255391
 20
219.390486476847
 30
0.0
 11
162.816574125539
 21
219.390486476847
 31
0.0
  0
LINE
  5
74B
330
1F
100
AcDbEntity
  8
0
100
AcDbLine
 10
164.7360091255391
 20
217.9227034768472
 30
0.0
 11
164.7360091255391
 21
219.390486476847
 31
0.0
  0
LINE
  5
74C
330
1F
100
AcDbEntity
  8
0
100
AcDbLine
 10
165.3573321255391
 20
221.2677184768468
 30
0.0
 11
165.738360125539
 21
220.830191476847
 31
0.0
  0
LINE
  5
74D
330
1F
100
AcDbEntity
  8
0
100
AcDbLine
 10
165.3573321255391
 20
219.8001084768471
 30
0.0
 11
165.738360125539
 21
220.2376354768472
 31
0.0
  0
LINE
  5
74E
330
1F
100
AcDbEntity
  8
0
100
AcDbLine
 10
165.7380151255391
 20
220.830191476847
 30
0.0
 11
165.7380151255391
 21
220.2376354768472
 31
0.0
  0
LINE
  5
74F
330
1F
100
AcDbEntity
  8
0
100
AcDbLine
 10
165.356988125539
 20
221.2680634768468
 30
0.0
 11
165.356988125539
 21
219.8001084768471
 31
0.0
  0
LINE
  5
750
330
1F
100
AcDbEntity
  8
0
100
AcDbLine
 10
165.3573321255391
 20
219.425798476847
 30
0.0
 11
165.738360125539
 21
218.988443476847
 31
0.0
  0
LINE
  5
751
330
1F
100
AcDbEntity
  8
0
100
AcDbLine
 10
165.3573321255391
 20
217.5840504768469
 30
0.0
 11
165.738360125539
 21
217.1465234768471
 31
0.0
  0
LINE
  5
752
330
1F
100
AcDbEntity
  8
0
100
AcDbLine
 10
165.3573321255391
 20
216.1160954768468
 30
0.0
 11
165.738360125539
 21
216.5537944768471
 31
0.0
  0
LINE
  5
753
330
1F
100
AcDbEntity
  8
0
100
AcDbLine
 10
165.7380151255391
 20
217.1465234768471
 30
0.0
 11
165.7380151255391
 21
216.5537944768471
 31
0.0
  0
LINE
  5
754
330
1F
100
AcDbEntity
  8
0
100
AcDbLine
 10
165.356988125539
 20
217.5840504768469
 30
0.0
 11
165.356988125539
 21
216.1160954768468
 31
0.0
  0
LINE
  5
755
330
1F
100
AcDbEntity
  8
0
100
AcDbLine
 10
165.3573321255391
 20
217.9578434768469
 30
0.0
 11
165.738360125539
 21
218.3957154768471
 31
0.0
  0
LINE
  5
756
330
1F
100
AcDbEntity
  8
0
100
AcDbLine
 10
165.7380151255391
 20
218.988443476847
 30
0.0
 11
165.7380151255391
 21
218.3957154768471
 31
0.0
  0
LINE
  5
757
330
1F
100
AcDbEntity
  8
0
100
AcDbLine
 10
165.356988125539
 20
219.425798476847
 30
0.0
 11
165.356988125539
 21
217.9578434768469
 31
0.0
  0
LINE
  5
758
330
1F
100
AcDbEntity
  8
0
100
AcDbLine
 10
165.7380151255391
 20
220.2376354768472
 30
0.0
 11
166.719006125539
 21
220.2376354768472
 31
0.0
  0
LINE
  5
759
330
1F
100
AcDbEntity
  8
0
100
AcDbLine
 10
166.719006125539
 20
220.830191476847
 30
0.0
 11
165.7380151255391
 21
220.830191476847
 31
0.0
  0
LINE
  5
75A
330
1F
100
AcDbEntity
  8
0
100
AcDbLine
 10
165.356988125539
 20
219.8001084768471
 30
0.0
 11
166.719006125539
 21
219.8001084768471
 31
0.0
  0
LINE
  5
75B
330
1F
100
AcDbEntity
  8
0
100
AcDbLine
 10
166.719006125539
 20
221.2680634768468
 30
0.0
 11
165.356988125539
 21
221.2680634768468
 31
0.0
  0
LINE
  5
75C
330
1F
100
AcDbEntity
  8
0
100
AcDbLine
 10
165.7380151255391
 20
216.5537944768471
 30
0.0
 11
166.719006125539
 21
216.5537944768471
 31
0.0
  0
LINE
  5
75D
330
1F
100
AcDbEntity
  8
0
100
AcDbLine
 10
166.719006125539
 20
217.1465234768471
 30
0.0
 11
165.7380151255391
 21
217.1465234768471
 31
0.0
  0
LINE
  5
75E
330
1F
100
AcDbEntity
  8
0
100
AcDbLine
 10
165.356988125539
 20
216.1160954768468
 30
0.0
 11
166.719006125539
 21
216.1160954768468
 31
0.0
  0
LINE
  5
75F
330
1F
100
AcDbEntity
  8
0
100
AcDbLine
 10
166.719006125539
 20
217.5840504768469
 30
0.0
 11
165.356988125539
 21
217.5840504768469
 31
0.0
  0
LINE
  5
760
330
1F
100
AcDbEntity
  8
0
100
AcDbLine
 10
165.7380151255391
 20
218.3957154768471
 30
0.0
 11
166.719006125539
 21
218.3957154768471
 31
0.0
  0
LINE
  5
761
330
1F
100
AcDbEntity
  8
0
100
AcDbLine
 10
166.719006125539
 20
218.988443476847
 30
0.0
 11
165.7380151255391
 21
218.988443476847
 31
0.0
  0
LINE
  5
762
330
1F
100
AcDbEntity
  8
0
100
AcDbLine
 10
165.356988125539
 20
217.9578434768469
 30
0.0
 11
166.719006125539
 21
217.9578434768469
 31
0.0
  0
LINE
  5
763
330
1F
100
AcDbEntity
  8
0
100
AcDbLine
 10
166.719006125539
 20
219.425798476847
 30
0.0
 11
165.356988125539
 21
219.425798476847
 31
0.0
  0
LINE
  5
764
330
1F
100
AcDbEntity
  8
0
100
AcDbLine
 10
173.8743431255391
 20
210.0771098177941
 30
0.0
 11
173.8743431255391
 21
192.1771098177941
 31
0.0
  0
LINE
  5
765
330
1F
100
AcDbEntity
  8
0
100
AcDbLine
 10
168.8743431255391
 20
210.0771098177941
 30
0.0
 11
168.874343125539
 21
192.1771098177941
 31
0.0
  0
LINE
  5
766
330
1F
100
AcDbEntity
  8
0
100
AcDbLine
 10
168.374343125539
 20
211.133137476847
 30
0.0
 11
168.374343125539
 21
190.7331374768472
 31
0.0
  0
LINE
  5
767
330
1F
100
AcDbEntity
  8
0
100
AcDbLine
 10
172.124343125539
 20
206.2071244768471
 30
0.0
 11
172.624343125539
 21
206.2071244768471
 31
0.0
  0
LINE
  5
768
330
1F
100
AcDbEntity
  8
0
100
AcDbLine
 10
172.124343125539
 20
205.7071244768471
 30
0.0
 11
172.624343125539
 21
205.7071244768471
 31
0.0
  0
LINE
  5
769
330
1F
100
AcDbEntity
  8
0
100
AcDbLine
 10
172.124343125539
 20
206.2071244768471
 30
0.0
 11
172.124343125539
 21
205.7071244768471
 31
0.0
  0
LINE
  5
76A
330
1F
100
AcDbEntity
  8
0
100
AcDbLine
 10
172.624343125539
 20
205.7071244768471
 30
0.0
 11
172.624343125539
 21
206.2071244768471
 31
0.0
  0
LINE
  5
76B
330
1F
100
AcDbEntity
  8
0
100
AcDbLine
 10
172.284343125539
 20
206.0471764768469
 30
0.0
 11
172.284343125539
 21
205.8670724768467
 31
0.0
  0
LINE
  5
76C
330
1F
100
AcDbEntity
  8
0
100
AcDbLine
 10
172.284343125539
 20
205.8670724768467
 30
0.0
 11
172.3743431255391
 21
205.8670724768467
 31
0.0
  0
LINE
  5
76D
330
1F
100
AcDbEntity
  8
0
100
AcDbLine
 10
172.284343125539
 20
205.8670724768467
 30
0.0
 11
172.3743431255391
 21
205.8670724768467
 31
0.0
  0
LINE
  5
76E
330
1F
100
AcDbEntity
  8
0
100
AcDbLine
 10
172.284343125539
 20
206.0471764768469
 30
0.0
 11
172.3743431255391
 21
206.0471764768469
 31
0.0
  0
LINE
  5
76F
330
1F
100
AcDbEntity
  8
0
100
AcDbLine
 10
172.464343125539
 20
206.0471764768469
 30
0.0
 11
172.3743431255391
 21
206.0471764768469
 31
0.0
  0
LINE
  5
770
330
1F
100
AcDbEntity
  8
0
100
AcDbLine
 10
172.464343125539
 20
205.8670724768467
 30
0.0
 11
172.3743431255391
 21
205.8670724768467
 31
0.0
  0
LINE
  5
771
330
1F
100
AcDbEntity
  8
0
100
AcDbLine
 10
172.464343125539
 20
205.8670724768467
 30
0.0
 11
172.3743431255391
 21
205.8670724768467
 31
0.0
  0
LINE
  5
772
330
1F
100
AcDbEntity
  8
0
100
AcDbLine
 10
172.464343125539
 20
206.0471764768469
 30
0.0
 11
172.464343125539
 21
205.8670724768467
 31
0.0
  0
LINE
  5
773
330
1F
100
AcDbEntity
  8
0
100
AcDbLine
 10
170.1243431255391
 20
205.7071244768471
 30
0.0
 11
170.6243431255391
 21
205.7071244768471
 31
0.0
  0
LINE
  5
774
330
1F
100
AcDbEntity
  8
0
100
AcDbLine
 10
170.1243431255391
 20
206.2071244768471
 30
0.0
 11
170.6243431255391
 21
206.2071244768471
 31
0.0
  0
LINE
  5
775
330
1F
100
AcDbEntity
  8
0
100
AcDbLine
 10
170.464343125539
 20
206.0471764768469
 30
0.0
 11
170.464343125539
 21
205.8670724768467
 31
0.0
  0
LINE
  5
776
330
1F
100
AcDbEntity
  8
0
100
AcDbLine
 10
170.464343125539
 20
205.8670724768467
 30
0.0
 11
170.374343125539
 21
205.8670724768467
 31
0.0
  0
LINE
  5
777
330
1F
100
AcDbEntity
  8
0
100
AcDbLine
 10
170.464343125539
 20
205.8670724768467
 30
0.0
 11
170.374343125539
 21
205.8670724768467
 31
0.0
  0
LINE
  5
778
330
1F
100
AcDbEntity
  8
0
100
AcDbLine
 10
170.464343125539
 20
206.0471764768469
 30
0.0
 11
170.374343125539
 21
206.0471764768469
 31
0.0
  0
LINE
  5
779
330
1F
100
AcDbEntity
  8
0
100
AcDbLine
 10
170.284343125539
 20
206.0471764768469
 30
0.0
 11
170.374343125539
 21
206.0471764768469
 31
0.0
  0
LINE
  5
77A
330
1F
100
AcDbEntity
  8
0
100
AcDbLine
 10
170.284343125539
 20
205.8670724768467
 30
0.0
 11
170.374343125539
 21
205.8670724768467
 31
0.0
  0
LINE
  5
77B
330
1F
100
AcDbEntity
  8
0
100
AcDbLine
 10
170.284343125539
 20
205.8670724768467
 30
0.0
 11
170.374343125539
 21
205.8670724768467
 31
0.0
  0
LINE
  5
77C
330
1F
100
AcDbEntity
  8
0
100
AcDbLine
 10
170.284343125539
 20
206.0471764768469
 30
0.0
 11
170.284343125539
 21
205.8670724768467
 31
0.0
  0
LINE
  5
77D
330
1F
100
AcDbEntity
  8
0
100
AcDbLine
 10
170.6243431255391
 20
205.7071244768471
 30
0.0
 11
170.6243431255391
 21
206.2071244768471
 31
0.0
  0
LINE
  5
77E
330
1F
100
AcDbEntity
  8
0
100
AcDbLine
 10
170.1243431255391
 20
206.2071244768471
 30
0.0
 11
170.1243431255391
 21
205.7071244768471
 31
0.0
  0
LINE
  5
77F
330
1F
100
AcDbEntity
  8
0
100
AcDbLine
 10
172.464343125539
 20
198.0471764768469
 30
0.0
 11
172.464343125539
 21
197.8670724768467
 31
0.0
  0
LINE
  5
780
330
1F
100
AcDbEntity
  8
0
100
AcDbLine
 10
172.284343125539
 20
198.0471764768469
 30
0.0
 11
172.284343125539
 21
197.8670724768467
 31
0.0
  0
LINE
  5
781
330
1F
100
AcDbEntity
  8
0
100
AcDbLine
 10
172.464343125539
 20
197.8670724768467
 30
0.0
 11
172.3743431255391
 21
197.8670724768467
 31
0.0
  0
LINE
  5
782
330
1F
100
AcDbEntity
  8
0
100
AcDbLine
 10
172.464343125539
 20
197.8670724768467
 30
0.0
 11
172.3743431255391
 21
197.8670724768467
 31
0.0
  0
LINE
  5
783
330
1F
100
AcDbEntity
  8
0
100
AcDbLine
 10
172.284343125539
 20
197.8670724768467
 30
0.0
 11
172.3743431255391
 21
197.8670724768467
 31
0.0
  0
LINE
  5
784
330
1F
100
AcDbEntity
  8
0
100
AcDbLine
 10
172.284343125539
 20
197.8670724768467
 30
0.0
 11
172.3743431255391
 21
197.8670724768467
 31
0.0
  0
LINE
  5
785
330
1F
100
AcDbEntity
  8
0
100
AcDbLine
 10
172.124343125539
 20
198.2071244768471
 30
0.0
 11
172.624343125539
 21
198.2071244768471
 31
0.0
  0
LINE
  5
786
330
1F
100
AcDbEntity
  8
0
100
AcDbLine
 10
172.464343125539
 20
198.0471764768469
 30
0.0
 11
172.3743431255391
 21
198.0471764768469
 31
0.0
  0
LINE
  5
787
330
1F
100
AcDbEntity
  8
0
100
AcDbLine
 10
172.284343125539
 20
198.0471764768469
 30
0.0
 11
172.3743431255391
 21
198.0471764768469
 31
0.0
  0
LINE
  5
788
330
1F
100
AcDbEntity
  8
0
100
AcDbLine
 10
172.124343125539
 20
197.7071244768471
 30
0.0
 11
172.624343125539
 21
197.7071244768471
 31
0.0
  0
LINE
  5
789
330
1F
100
AcDbEntity
  8
0
100
AcDbLine
 10
172.124343125539
 20
198.2071244768471
 30
0.0
 11
172.124343125539
 21
197.7071244768471
 31
0.0
  0
LINE
  5
78A
330
1F
100
AcDbEntity
  8
0
100
AcDbLine
 10
172.624343125539
 20
197.7071244768471
 30
0.0
 11
172.624343125539
 21
198.2071244768471
 31
0.0
  0
LINE
  5
78B
330
1F
100
AcDbEntity
  8
0
100
AcDbLine
 10
172.464343125539
 20
196.0471764768469
 30
0.0
 11
172.464343125539
 21
195.8670724768467
 31
0.0
  0
LINE
  5
78C
330
1F
100
AcDbEntity
  8
0
100
AcDbLine
 10
172.284343125539
 20
196.0471764768469
 30
0.0
 11
172.284343125539
 21
195.8670724768467
 31
0.0
  0
LINE
  5
78D
330
1F
100
AcDbEntity
  8
0
100
AcDbLine
 10
172.464343125539
 20
195.8670724768467
 30
0.0
 11
172.3743431255391
 21
195.8670724768467
 31
0.0
  0
LINE
  5
78E
330
1F
100
AcDbEntity
  8
0
100
AcDbLine
 10
172.464343125539
 20
195.8670724768467
 30
0.0
 11
172.3743431255391
 21
195.8670724768467
 31
0.0
  0
LINE
  5
78F
330
1F
100
AcDbEntity
  8
0
100
AcDbLine
 10
172.284343125539
 20
195.8670724768467
 30
0.0
 11
172.3743431255391
 21
195.8670724768467
 31
0.0
  0
LINE
  5
790
330
1F
100
AcDbEntity
  8
0
100
AcDbLine
 10
172.284343125539
 20
195.8670724768467
 30
0.0
 11
172.3743431255391
 21
195.8670724768467
 31
0.0
  0
LINE
  5
791
330
1F
100
AcDbEntity
  8
0
100
AcDbLine
 10
172.124343125539
 20
196.2071244768471
 30
0.0
 11
172.624343125539
 21
196.2071244768471
 31
0.0
  0
LINE
  5
792
330
1F
100
AcDbEntity
  8
0
100
AcDbLine
 10
172.464343125539
 20
196.0471764768469
 30
0.0
 11
172.3743431255391
 21
196.0471764768469
 31
0.0
  0
LINE
  5
793
330
1F
100
AcDbEntity
  8
0
100
AcDbLine
 10
172.284343125539
 20
196.0471764768469
 30
0.0
 11
172.3743431255391
 21
196.0471764768469
 31
0.0
  0
LINE
  5
794
330
1F
100
AcDbEntity
  8
0
100
AcDbLine
 10
172.124343125539
 20
195.7071244768471
 30
0.0
 11
172.624343125539
 21
195.7071244768471
 31
0.0
  0
LINE
  5
795
330
1F
100
AcDbEntity
  8
0
100
AcDbLine
 10
172.124343125539
 20
196.2071244768471
 30
0.0
 11
172.124343125539
 21
195.7071244768471
 31
0.0
  0
LINE
  5
796
330
1F
100
AcDbEntity
  8
0
100
AcDbLine
 10
172.624343125539
 20
195.7071244768471
 30
0.0
 11
172.624343125539
 21
196.2071244768471
 31
0.0
  0
LINE
  5
797
330
1F
100
AcDbEntity
  8
0
100
AcDbLine
 10
170.284343125539
 20
198.0471764768469
 30
0.0
 11
170.284343125539
 21
197.8670724768467
 31
0.0
  0
LINE
  5
798
330
1F
100
AcDbEntity
  8
0
100
AcDbLine
 10
170.464343125539
 20
198.0471764768469
 30
0.0
 11
170.464343125539
 21
197.8670724768467
 31
0.0
  0
LINE
  5
799
330
1F
100
AcDbEntity
  8
0
100
AcDbLine
 10
170.284343125539
 20
197.8670724768467
 30
0.0
 11
170.374343125539
 21
197.8670724768467
 31
0.0
  0
LINE
  5
79A
330
1F
100
AcDbEntity
  8
0
100
AcDbLine
 10
170.284343125539
 20
197.8670724768467
 30
0.0
 11
170.374343125539
 21
197.8670724768467
 31
0.0
  0
LINE
  5
79B
330
1F
100
AcDbEntity
  8
0
100
AcDbLine
 10
170.464343125539
 20
197.8670724768467
 30
0.0
 11
170.374343125539
 21
197.8670724768467
 31
0.0
  0
LINE
  5
79C
330
1F
100
AcDbEntity
  8
0
100
AcDbLine
 10
170.464343125539
 20
197.8670724768467
 30
0.0
 11
170.374343125539
 21
197.8670724768467
 31
0.0
  0
LINE
  5
79D
330
1F
100
AcDbEntity
  8
0
100
AcDbLine
 10
170.1243431255391
 20
198.2071244768471
 30
0.0
 11
170.6243431255391
 21
198.2071244768471
 31
0.0
  0
LINE
  5
79E
330
1F
100
AcDbEntity
  8
0
100
AcDbLine
 10
170.284343125539
 20
198.0471764768469
 30
0.0
 11
170.374343125539
 21
198.0471764768469
 31
0.0
  0
LINE
  5
79F
330
1F
100
AcDbEntity
  8
0
100
AcDbLine
 10
170.464343125539
 20
198.0471764768469
 30
0.0
 11
170.374343125539
 21
198.0471764768469
 31
0.0
  0
LINE
  5
7A0
330
1F
100
AcDbEntity
  8
0
100
AcDbLine
 10
170.1243431255391
 20
197.7071244768471
 30
0.0
 11
170.6243431255391
 21
197.7071244768471
 31
0.0
  0
LINE
  5
7A1
330
1F
100
AcDbEntity
  8
0
100
AcDbLine
 10
170.1243431255391
 20
198.2071244768471
 30
0.0
 11
170.1243431255391
 21
197.7071244768471
 31
0.0
  0
LINE
  5
7A2
330
1F
100
AcDbEntity
  8
0
100
AcDbLine
 10
170.6243431255391
 20
197.7071244768471
 30
0.0
 11
170.6243431255391
 21
198.2071244768471
 31
0.0
  0
LINE
  5
7A3
330
1F
100
AcDbEntity
  8
0
100
AcDbLine
 10
170.284343125539
 20
196.0471764768469
 30
0.0
 11
170.284343125539
 21
195.8670724768467
 31
0.0
  0
LINE
  5
7A4
330
1F
100
AcDbEntity
  8
0
100
AcDbLine
 10
170.464343125539
 20
196.0471764768469
 30
0.0
 11
170.464343125539
 21
195.8670724768467
 31
0.0
  0
LINE
  5
7A5
330
1F
100
AcDbEntity
  8
0
100
AcDbLine
 10
170.284343125539
 20
195.8670724768467
 30
0.0
 11
170.374343125539
 21
195.8670724768467
 31
0.0
  0
LINE
  5
7A6
330
1F
100
AcDbEntity
  8
0
100
AcDbLine
 10
170.284343125539
 20
195.8670724768467
 30
0.0
 11
170.374343125539
 21
195.8670724768467
 31
0.0
  0
LINE
  5
7A7
330
1F
100
AcDbEntity
  8
0
100
AcDbLine
 10
170.464343125539
 20
195.8670724768467
 30
0.0
 11
170.374343125539
 21
195.8670724768467
 31
0.0
  0
LINE
  5
7A8
330
1F
100
AcDbEntity
  8
0
100
AcDbLine
 10
170.464343125539
 20
195.8670724768467
 30
0.0
 11
170.374343125539
 21
195.8670724768467
 31
0.0
  0
LINE
  5
7A9
330
1F
100
AcDbEntity
  8
0
100
AcDbLine
 10
170.1243431255391
 20
196.2071244768471
 30
0.0
 11
170.6243431255391
 21
196.2071244768471
 31
0.0
  0
LINE
  5
7AA
330
1F
100
AcDbEntity
  8
0
100
AcDbLine
 10
170.284343125539
 20
196.0471764768469
 30
0.0
 11
170.374343125539
 21
196.0471764768469
 31
0.0
  0
LINE
  5
7AB
330
1F
100
AcDbEntity
  8
0
100
AcDbLine
 10
170.464343125539
 20
196.0471764768469
 30
0.0
 11
170.374343125539
 21
196.0471764768469
 31
0.0
  0
LINE
  5
7AC
330
1F
100
AcDbEntity
  8
0
100
AcDbLine
 10
170.1243431255391
 20
195.7071244768471
 30
0.0
 11
170.6243431255391
 21
195.7071244768471
 31
0.0
  0
LINE
  5
7AD
330
1F
100
AcDbEntity
  8
0
100
AcDbLine
 10
170.1243431255391
 20
196.2071244768471
 30
0.0
 11
170.1243431255391
 21
195.7071244768471
 31
0.0
  0
LINE
  5
7AE
330
1F
100
AcDbEntity
  8
0
100
AcDbLine
 10
170.6243431255391
 20
195.7071244768471
 30
0.0
 11
170.6243431255391
 21
196.2071244768471
 31
0.0
  0
LINE
  5
7AF
330
1F
100
AcDbEntity
  8
0
100
AcDbLine
 10
172.124343125539
 20
194.2071244768471
 30
0.0
 11
172.124343125539
 21
193.7071244768471
 31
0.0
  0
LINE
  5
7B0
330
1F
100
AcDbEntity
  8
0
100
AcDbLine
 10
172.624343125539
 20
193.7071244768471
 30
0.0
 11
172.624343125539
 21
194.2071244768471
 31
0.0
  0
LINE
  5
7B1
330
1F
100
AcDbEntity
  8
0
100
AcDbLine
 10
172.284343125539
 20
194.0471764768469
 30
0.0
 11
172.284343125539
 21
193.8670724768467
 31
0.0
  0
LINE
  5
7B2
330
1F
100
AcDbEntity
  8
0
100
AcDbLine
 10
172.464343125539
 20
194.0471764768469
 30
0.0
 11
172.464343125539
 21
193.8670724768467
 31
0.0
  0
LINE
  5
7B3
330
1F
100
AcDbEntity
  8
0
100
AcDbLine
 10
172.124343125539
 20
193.7071244768471
 30
0.0
 11
172.624343125539
 21
193.7071244768471
 31
0.0
  0
LINE
  5
7B4
330
1F
100
AcDbEntity
  8
0
100
AcDbLine
 10
172.284343125539
 20
193.8670724768467
 30
0.0
 11
172.3743431255391
 21
193.8670724768467
 31
0.0
  0
LINE
  5
7B5
330
1F
100
AcDbEntity
  8
0
100
AcDbLine
 10
172.284343125539
 20
193.8670724768467
 30
0.0
 11
172.3743431255391
 21
193.8670724768467
 31
0.0
  0
LINE
  5
7B6
330
1F
100
AcDbEntity
  8
0
100
AcDbLine
 10
172.464343125539
 20
193.8670724768467
 30
0.0
 11
172.3743431255391
 21
193.8670724768467
 31
0.0
  0
LINE
  5
7B7
330
1F
100
AcDbEntity
  8
0
100
AcDbLine
 10
172.464343125539
 20
193.8670724768467
 30
0.0
 11
172.3743431255391
 21
193.8670724768467
 31
0.0
  0
LINE
  5
7B8
330
1F
100
AcDbEntity
  8
0
100
AcDbLine
 10
172.124343125539
 20
194.2071244768471
 30
0.0
 11
172.624343125539
 21
194.2071244768471
 31
0.0
  0
LINE
  5
7B9
330
1F
100
AcDbEntity
  8
0
100
AcDbLine
 10
172.284343125539
 20
194.0471764768469
 30
0.0
 11
172.3743431255391
 21
194.0471764768469
 31
0.0
  0
LINE
  5
7BA
330
1F
100
AcDbEntity
  8
0
100
AcDbLine
 10
172.464343125539
 20
194.0471764768469
 30
0.0
 11
172.3743431255391
 21
194.0471764768469
 31
0.0
  0
LINE
  5
7BB
330
1F
100
AcDbEntity
  8
0
100
AcDbLine
 10
170.6243431255391
 20
193.7071244768471
 30
0.0
 11
170.6243431255391
 21
194.2071244768471
 31
0.0
  0
LINE
  5
7BC
330
1F
100
AcDbEntity
  8
0
100
AcDbLine
 10
170.1243431255391
 20
194.2071244768471
 30
0.0
 11
170.1243431255391
 21
193.7071244768471
 31
0.0
  0
LINE
  5
7BD
330
1F
100
AcDbEntity
  8
0
100
AcDbLine
 10
170.464343125539
 20
194.0471764768469
 30
0.0
 11
170.464343125539
 21
193.8670724768467
 31
0.0
  0
LINE
  5
7BE
330
1F
100
AcDbEntity
  8
0
100
AcDbLine
 10
170.284343125539
 20
194.0471764768469
 30
0.0
 11
170.284343125539
 21
193.8670724768467
 31
0.0
  0
LINE
  5
7BF
330
1F
100
AcDbEntity
  8
0
100
AcDbLine
 10
170.1243431255391
 20
193.7071244768471
 30
0.0
 11
170.6243431255391
 21
193.7071244768471
 31
0.0
  0
LINE
  5
7C0
330
1F
100
AcDbEntity
  8
0
100
AcDbLine
 10
170.464343125539
 20
193.8670724768467
 30
0.0
 11
170.374343125539
 21
193.8670724768467
 31
0.0
  0
LINE
  5
7C1
330
1F
100
AcDbEntity
  8
0
100
AcDbLine
 10
170.464343125539
 20
193.8670724768467
 30
0.0
 11
170.374343125539
 21
193.8670724768467
 31
0.0
  0
LINE
  5
7C2
330
1F
100
AcDbEntity
  8
0
100
AcDbLine
 10
170.284343125539
 20
193.8670724768467
 30
0.0
 11
170.374343125539
 21
193.8670724768467
 31
0.0
  0
LINE
  5
7C3
330
1F
100
AcDbEntity
  8
0
100
AcDbLine
 10
170.284343125539
 20
193.8670724768467
 30
0.0
 11
170.374343125539
 21
193.8670724768467
 31
0.0
  0
LINE
  5
7C4
330
1F
100
AcDbEntity
  8
0
100
AcDbLine
 10
170.464343125539
 20
194.0471764768469
 30
0.0
 11
170.374343125539
 21
194.0471764768469
 31
0.0
  0
LINE
  5
7C5
330
1F
100
AcDbEntity
  8
0
100
AcDbLine
 10
170.284343125539
 20
194.0471764768469
 30
0.0
 11
170.374343125539
 21
194.0471764768469
 31
0.0
  0
LINE
  5
7C6
330
1F
100
AcDbEntity
  8
0
100
AcDbLine
 10
170.1243431255391
 20
194.2071244768471
 30
0.0
 11
170.6243431255391
 21
194.2071244768471
 31
0.0
  0
LINE
  5
7C7
330
1F
100
AcDbEntity
  8
0
100
AcDbLine
 10
169.2951781255391
 20
189.2531364768468
 30
0.0
 11
171.2601001255391
 21
189.2531364768468
 31
0.0
  0
LINE
  5
7C8
330
1F
100
AcDbEntity
  8
0
100
AcDbLine
 10
172.124343125539
 20
204.2071244768471
 30
0.0
 11
172.624343125539
 21
204.2071244768471
 31
0.0
  0
LINE
  5
7C9
330
1F
100
AcDbEntity
  8
0
100
AcDbLine
 10
172.124343125539
 20
203.7071244768471
 30
0.0
 11
172.624343125539
 21
203.7071244768471
 31
0.0
  0
LINE
  5
7CA
330
1F
100
AcDbEntity
  8
0
100
AcDbLine
 10
172.124343125539
 20
204.2071244768471
 30
0.0
 11
172.124343125539
 21
203.7071244768471
 31
0.0
  0
LINE
  5
7CB
330
1F
100
AcDbEntity
  8
0
100
AcDbLine
 10
172.624343125539
 20
203.7071244768471
 30
0.0
 11
172.624343125539
 21
204.2071244768471
 31
0.0
  0
LINE
  5
7CC
330
1F
100
AcDbEntity
  8
0
100
AcDbLine
 10
172.284343125539
 20
204.0471764768469
 30
0.0
 11
172.284343125539
 21
203.8670724768467
 31
0.0
  0
LINE
  5
7CD
330
1F
100
AcDbEntity
  8
0
100
AcDbLine
 10
172.284343125539
 20
203.8670724768467
 30
0.0
 11
172.3743431255391
 21
203.8670724768467
 31
0.0
  0
LINE
  5
7CE
330
1F
100
AcDbEntity
  8
0
100
AcDbLine
 10
172.284343125539
 20
203.8670724768467
 30
0.0
 11
172.3743431255391
 21
203.8670724768467
 31
0.0
  0
LINE
  5
7CF
330
1F
100
AcDbEntity
  8
0
100
AcDbLine
 10
172.284343125539
 20
204.0471764768469
 30
0.0
 11
172.3743431255391
 21
204.0471764768469
 31
0.0
  0
LINE
  5
7D0
330
1F
100
AcDbEntity
  8
0
100
AcDbLine
 10
172.464343125539
 20
204.0471764768469
 30
0.0
 11
172.3743431255391
 21
204.0471764768469
 31
0.0
  0
LINE
  5
7D1
330
1F
100
AcDbEntity
  8
0
100
AcDbLine
 10
172.464343125539
 20
203.8670724768467
 30
0.0
 11
172.3743431255391
 21
203.8670724768467
 31
0.0
  0
LINE
  5
7D2
330
1F
100
AcDbEntity
  8
0
100
AcDbLine
 10
172.464343125539
 20
203.8670724768467
 30
0.0
 11
172.3743431255391
 21
203.8670724768467
 31
0.0
  0
LINE
  5
7D3
330
1F
100
AcDbEntity
  8
0
100
AcDbLine
 10
172.464343125539
 20
204.0471764768469
 30
0.0
 11
172.464343125539
 21
203.8670724768467
 31
0.0
  0
LINE
  5
7D4
330
1F
100
AcDbEntity
  8
0
100
AcDbLine
 10
172.124343125539
 20
199.7071244768472
 30
0.0
 11
172.624343125539
 21
199.7071244768472
 31
0.0
  0
LINE
  5
7D5
330
1F
100
AcDbEntity
  8
0
100
AcDbLine
 10
172.124343125539
 20
200.2071244768472
 30
0.0
 11
172.624343125539
 21
200.2071244768472
 31
0.0
  0
LINE
  5
7D6
330
1F
100
AcDbEntity
  8
0
100
AcDbLine
 10
172.124343125539
 20
202.2071244768471
 30
0.0
 11
172.624343125539
 21
202.2071244768471
 31
0.0
  0
LINE
  5
7D7
330
1F
100
AcDbEntity
  8
0
100
AcDbLine
 10
172.124343125539
 20
201.7071244768471
 30
0.0
 11
172.624343125539
 21
201.7071244768471
 31
0.0
  0
LINE
  5
7D8
330
1F
100
AcDbEntity
  8
0
100
AcDbLine
 10
172.124343125539
 20
200.2071244768472
 30
0.0
 11
172.124343125539
 21
199.7071244768472
 31
0.0
  0
LINE
  5
7D9
330
1F
100
AcDbEntity
  8
0
100
AcDbLine
 10
172.124343125539
 20
202.2071244768471
 30
0.0
 11
172.124343125539
 21
201.7071244768471
 31
0.0
  0
LINE
  5
7DA
330
1F
100
AcDbEntity
  8
0
100
AcDbLine
 10
172.624343125539
 20
199.7071244768472
 30
0.0
 11
172.624343125539
 21
200.2071244768472
 31
0.0
  0
LINE
  5
7DB
330
1F
100
AcDbEntity
  8
0
100
AcDbLine
 10
172.284343125539
 20
200.0471764768469
 30
0.0
 11
172.284343125539
 21
199.8670724768467
 31
0.0
  0
LINE
  5
7DC
330
1F
100
AcDbEntity
  8
0
100
AcDbLine
 10
172.284343125539
 20
199.8670724768467
 30
0.0
 11
172.3743431255391
 21
199.8670724768467
 31
0.0
  0
LINE
  5
7DD
330
1F
100
AcDbEntity
  8
0
100
AcDbLine
 10
172.284343125539
 20
199.8670724768467
 30
0.0
 11
172.3743431255391
 21
199.8670724768467
 31
0.0
  0
LINE
  5
7DE
330
1F
100
AcDbEntity
  8
0
100
AcDbLine
 10
172.284343125539
 20
200.0471764768469
 30
0.0
 11
172.3743431255391
 21
200.0471764768469
 31
0.0
  0
LINE
  5
7DF
330
1F
100
AcDbEntity
  8
0
100
AcDbLine
 10
172.464343125539
 20
200.0471764768469
 30
0.0
 11
172.3743431255391
 21
200.0471764768469
 31
0.0
  0
LINE
  5
7E0
330
1F
100
AcDbEntity
  8
0
100
AcDbLine
 10
172.464343125539
 20
199.8670724768467
 30
0.0
 11
172.3743431255391
 21
199.8670724768467
 31
0.0
  0
LINE
  5
7E1
330
1F
100
AcDbEntity
  8
0
100
AcDbLine
 10
172.464343125539
 20
199.8670724768467
 30
0.0
 11
172.3743431255391
 21
199.8670724768467
 31
0.0
  0
LINE
  5
7E2
330
1F
100
AcDbEntity
  8
0
100
AcDbLine
 10
172.464343125539
 20
200.0471764768469
 30
0.0
 11
172.464343125539
 21
199.8670724768467
 31
0.0
  0
LINE
  5
7E3
330
1F
100
AcDbEntity
  8
0
100
AcDbLine
 10
172.624343125539
 20
201.7071244768471
 30
0.0
 11
172.624343125539
 21
202.2071244768471
 31
0.0
  0
LINE
  5
7E4
330
1F
100
AcDbEntity
  8
0
100
AcDbLine
 10
172.284343125539
 20
202.0471764768469
 30
0.0
 11
172.284343125539
 21
201.8670724768467
 31
0.0
  0
LINE
  5
7E5
330
1F
100
AcDbEntity
  8
0
100
AcDbLine
 10
172.284343125539
 20
201.8670724768467
 30
0.0
 11
172.3743431255391
 21
201.8670724768467
 31
0.0
  0
LINE
  5
7E6
330
1F
100
AcDbEntity
  8
0
100
AcDbLine
 10
172.284343125539
 20
201.8670724768467
 30
0.0
 11
172.3743431255391
 21
201.8670724768467
 31
0.0
  0
LINE
  5
7E7
330
1F
100
AcDbEntity
  8
0
100
AcDbLine
 10
172.284343125539
 20
202.0471764768469
 30
0.0
 11
172.3743431255391
 21
202.0471764768469
 31
0.0
  0
LINE
  5
7E8
330
1F
100
AcDbEntity
  8
0
100
AcDbLine
 10
172.464343125539
 20
202.0471764768469
 30
0.0
 11
172.3743431255391
 21
202.0471764768469
 31
0.0
  0
LINE
  5
7E9
330
1F
100
AcDbEntity
  8
0
100
AcDbLine
 10
172.464343125539
 20
201.8670724768467
 30
0.0
 11
172.3743431255391
 21
201.8670724768467
 31
0.0
  0
LINE
  5
7EA
330
1F
100
AcDbEntity
  8
0
100
AcDbLine
 10
172.464343125539
 20
201.8670724768467
 30
0.0
 11
172.3743431255391
 21
201.8670724768467
 31
0.0
  0
LINE
  5
7EB
330
1F
100
AcDbEntity
  8
0
100
AcDbLine
 10
172.464343125539
 20
202.0471764768469
 30
0.0
 11
172.464343125539
 21
201.8670724768467
 31
0.0
  0
LINE
  5
7EC
330
1F
100
AcDbEntity
  8
0
100
AcDbLine
 10
170.1243431255391
 20
203.7071244768471
 30
0.0
 11
170.6243431255391
 21
203.7071244768471
 31
0.0
  0
LINE
  5
7ED
330
1F
100
AcDbEntity
  8
0
100
AcDbLine
 10
170.1243431255391
 20
204.2071244768471
 30
0.0
 11
170.6243431255391
 21
204.2071244768471
 31
0.0
  0
LINE
  5
7EE
330
1F
100
AcDbEntity
  8
0
100
AcDbLine
 10
170.464343125539
 20
204.0471764768469
 30
0.0
 11
170.464343125539
 21
203.8670724768467
 31
0.0
  0
LINE
  5
7EF
330
1F
100
AcDbEntity
  8
0
100
AcDbLine
 10
170.464343125539
 20
203.8670724768467
 30
0.0
 11
170.374343125539
 21
203.8670724768467
 31
0.0
  0
LINE
  5
7F0
330
1F
100
AcDbEntity
  8
0
100
AcDbLine
 10
170.464343125539
 20
203.8670724768467
 30
0.0
 11
170.374343125539
 21
203.8670724768467
 31
0.0
  0
LINE
  5
7F1
330
1F
100
AcDbEntity
  8
0
100
AcDbLine
 10
170.464343125539
 20
204.0471764768469
 30
0.0
 11
170.374343125539
 21
204.0471764768469
 31
0.0
  0
LINE
  5
7F2
330
1F
100
AcDbEntity
  8
0
100
AcDbLine
 10
170.284343125539
 20
204.0471764768469
 30
0.0
 11
170.374343125539
 21
204.0471764768469
 31
0.0
  0
LINE
  5
7F3
330
1F
100
AcDbEntity
  8
0
100
AcDbLine
 10
170.284343125539
 20
203.8670724768467
 30
0.0
 11
170.374343125539
 21
203.8670724768467
 31
0.0
  0
LINE
  5
7F4
330
1F
100
AcDbEntity
  8
0
100
AcDbLine
 10
170.284343125539
 20
203.8670724768467
 30
0.0
 11
170.374343125539
 21
203.8670724768467
 31
0.0
  0
LINE
  5
7F5
330
1F
100
AcDbEntity
  8
0
100
AcDbLine
 10
170.284343125539
 20
204.0471764768469
 30
0.0
 11
170.284343125539
 21
203.8670724768467
 31
0.0
  0
LINE
  5
7F6
330
1F
100
AcDbEntity
  8
0
100
AcDbLine
 10
170.6243431255391
 20
203.7071244768471
 30
0.0
 11
170.6243431255391
 21
204.2071244768471
 31
0.0
  0
LINE
  5
7F7
330
1F
100
AcDbEntity
  8
0
100
AcDbLine
 10
170.1243431255391
 20
204.2071244768471
 30
0.0
 11
170.1243431255391
 21
203.7071244768471
 31
0.0
  0
LINE
  5
7F8
330
1F
100
AcDbEntity
  8
0
100
AcDbLine
 10
170.284343125539
 20
200.0471764768469
 30
0.0
 11
170.284343125539
 21
199.8670724768467
 31
0.0
  0
LINE
  5
7F9
330
1F
100
AcDbEntity
  8
0
100
AcDbLine
 10
170.1243431255391
 20
200.2071244768472
 30
0.0
 11
170.6243431255391
 21
200.2071244768472
 31
0.0
  0
LINE
  5
7FA
330
1F
100
AcDbEntity
  8
0
100
AcDbLine
 10
170.1243431255391
 20
201.7071244768471
 30
0.0
 11
170.6243431255391
 21
201.7071244768471
 31
0.0
  0
LINE
  5
7FB
330
1F
100
AcDbEntity
  8
0
100
AcDbLine
 10
170.1243431255391
 20
202.2071244768471
 30
0.0
 11
170.6243431255391
 21
202.2071244768471
 31
0.0
  0
LINE
  5
7FC
330
1F
100
AcDbEntity
  8
0
100
AcDbLine
 10
170.464343125539
 20
202.0471764768469
 30
0.0
 11
170.464343125539
 21
201.8670724768467
 31
0.0
  0
LINE
  5
7FD
330
1F
100
AcDbEntity
  8
0
100
AcDbLine
 10
170.464343125539
 20
201.8670724768467
 30
0.0
 11
170.374343125539
 21
201.8670724768467
 31
0.0
  0
LINE
  5
7FE
330
1F
100
AcDbEntity
  8
0
100
AcDbLine
 10
170.464343125539
 20
201.8670724768467
 30
0.0
 11
170.374343125539
 21
201.8670724768467
 31
0.0
  0
LINE
  5
7FF
330
1F
100
AcDbEntity
  8
0
100
AcDbLine
 10
170.464343125539
 20
202.0471764768469
 30
0.0
 11
170.374343125539
 21
202.0471764768469
 31
0.0
  0
LINE
  5
800
330
1F
100
AcDbEntity
  8
0
100
AcDbLine
 10
170.284343125539
 20
202.0471764768469
 30
0.0
 11
170.374343125539
 21
202.0471764768469
 31
0.0
  0
LINE
  5
801
330
1F
100
AcDbEntity
  8
0
100
AcDbLine
 10
170.284343125539
 20
201.8670724768467
 30
0.0
 11
170.374343125539
 21
201.8670724768467
 31
0.0
  0
LINE
  5
802
330
1F
100
AcDbEntity
  8
0
100
AcDbLine
 10
170.284343125539
 20
201.8670724768467
 30
0.0
 11
170.374343125539
 21
201.8670724768467
 31
0.0
  0
LINE
  5
803
330
1F
100
AcDbEntity
  8
0
100
AcDbLine
 10
170.284343125539
 20
202.0471764768469
 30
0.0
 11
170.284343125539
 21
201.8670724768467
 31
0.0
  0
LINE
  5
804
330
1F
100
AcDbEntity
  8
0
100
AcDbLine
 10
170.6243431255391
 20
201.7071244768471
 30
0.0
 11
170.6243431255391
 21
202.2071244768471
 31
0.0
  0
LINE
  5
805
330
1F
100
AcDbEntity
  8
0
100
AcDbLine
 10
170.1243431255391
 20
202.2071244768471
 30
0.0
 11
170.1243431255391
 21
201.7071244768471
 31
0.0
  0
LINE
  5
806
330
1F
100
AcDbEntity
  8
0
100
AcDbLine
 10
170.6243431255391
 20
199.7071244768472
 30
0.0
 11
170.6243431255391
 21
200.2071244768472
 31
0.0
  0
LINE
  5
807
330
1F
100
AcDbEntity
  8
0
100
AcDbLine
 10
170.1243431255391
 20
200.2071244768472
 30
0.0
 11
170.1243431255391
 21
199.7071244768472
 31
0.0
  0
LINE
  5
808
330
1F
100
AcDbEntity
  8
0
100
AcDbLine
 10
170.1243431255391
 20
199.7071244768472
 30
0.0
 11
170.6243431255391
 21
199.7071244768472
 31
0.0
  0
LINE
  5
809
330
1F
100
AcDbEntity
  8
0
100
AcDbLine
 10
170.464343125539
 20
200.0471764768469
 30
0.0
 11
170.464343125539
 21
199.8670724768467
 31
0.0
  0
LINE
  5
80A
330
1F
100
AcDbEntity
  8
0
100
AcDbLine
 10
170.464343125539
 20
199.8670724768467
 30
0.0
 11
170.374343125539
 21
199.8670724768467
 31
0.0
  0
LINE
  5
80B
330
1F
100
AcDbEntity
  8
0
100
AcDbLine
 10
170.464343125539
 20
199.8670724768467
 30
0.0
 11
170.374343125539
 21
199.8670724768467
 31
0.0
  0
LINE
  5
80C
330
1F
100
AcDbEntity
  8
0
100
AcDbLine
 10
170.464343125539
 20
200.0471764768469
 30
0.0
 11
170.374343125539
 21
200.0471764768469
 31
0.0
  0
LINE
  5
80D
330
1F
100
AcDbEntity
  8
0
100
AcDbLine
 10
170.284343125539
 20
200.0471764768469
 30
0.0
 11
170.374343125539
 21
200.0471764768469
 31
0.0
  0
LINE
  5
80E
330
1F
100
AcDbEntity
  8
0
100
AcDbLine
 10
170.284343125539
 20
199.8670724768467
 30
0.0
 11
170.374343125539
 21
199.8670724768467
 31
0.0
  0
LINE
  5
80F
330
1F
100
AcDbEntity
  8
0
100
AcDbLine
 10
170.284343125539
 20
199.8670724768467
 30
0.0
 11
170.374343125539
 21
199.8670724768467
 31
0.0
  0
LINE
  5
810
330
1F
100
AcDbEntity
  8
0
100
AcDbLine
 10
168.8743431255391
 20
210.0771098177941
 30
0.0
 11
173.8743431255391
 21
210.0771098177941
 31
0.0
  0
LINE
  5
811
330
1F
100
AcDbEntity
  8
0
100
AcDbLine
 10
172.124343125539
 20
208.2071244768471
 30
0.0
 11
172.624343125539
 21
208.2071244768471
 31
0.0
  0
LINE
  5
812
330
1F
100
AcDbEntity
  8
0
100
AcDbLine
 10
172.124343125539
 20
207.7071244768471
 30
0.0
 11
172.624343125539
 21
207.7071244768471
 31
0.0
  0
LINE
  5
813
330
1F
100
AcDbEntity
  8
0
100
AcDbLine
 10
172.124343125539
 20
208.2071244768471
 30
0.0
 11
172.124343125539
 21
207.7071244768471
 31
0.0
  0
LINE
  5
814
330
1F
100
AcDbEntity
  8
0
100
AcDbLine
 10
172.624343125539
 20
207.7071244768471
 30
0.0
 11
172.624343125539
 21
208.2071244768471
 31
0.0
  0
LINE
  5
815
330
1F
100
AcDbEntity
  8
0
100
AcDbLine
 10
172.464343125539
 20
208.0471764768469
 30
0.0
 11
172.464343125539
 21
207.8670724768467
 31
0.0
  0
LINE
  5
816
330
1F
100
AcDbEntity
  8
0
100
AcDbLine
 10
172.284343125539
 20
208.0471764768469
 30
0.0
 11
172.284343125539
 21
207.8670724768467
 31
0.0
  0
LINE
  5
817
330
1F
100
AcDbEntity
  8
0
100
AcDbLine
 10
172.464343125539
 20
208.0471764768469
 30
0.0
 11
172.3743431255391
 21
208.0471764768469
 31
0.0
  0
LINE
  5
818
330
1F
100
AcDbEntity
  8
0
100
AcDbLine
 10
172.284343125539
 20
208.0471764768469
 30
0.0
 11
172.3743431255391
 21
208.0471764768469
 31
0.0
  0
LINE
  5
819
330
1F
100
AcDbEntity
  8
0
100
AcDbLine
 10
172.464343125539
 20
207.8670724768467
 30
0.0
 11
172.3743431255391
 21
207.8670724768467
 31
0.0
  0
LINE
  5
81A
330
1F
100
AcDbEntity
  8
0
100
AcDbLine
 10
172.464343125539
 20
207.8670724768467
 30
0.0
 11
172.3743431255391
 21
207.8670724768467
 31
0.0
  0
LINE
  5
81B
330
1F
100
AcDbEntity
  8
0
100
AcDbLine
 10
172.284343125539
 20
207.8670724768467
 30
0.0
 11
172.3743431255391
 21
207.8670724768467
 31
0.0
  0
LINE
  5
81C
330
1F
100
AcDbEntity
  8
0
100
AcDbLine
 10
172.284343125539
 20
207.8670724768467
 30
0.0
 11
172.3743431255391
 21
207.8670724768467
 31
0.0
  0
LINE
  5
81D
330
1F
100
AcDbEntity
  8
0
100
AcDbLine
 10
170.1243431255391
 20
208.2071244768471
 30
0.0
 11
170.1243431255391
 21
207.7071244768471
 31
0.0
  0
LINE
  5
81E
330
1F
100
AcDbEntity
  8
0
100
AcDbLine
 10
170.6243431255391
 20
207.7071244768471
 30
0.0
 11
170.6243431255391
 21
208.2071244768471
 31
0.0
  0
LINE
  5
81F
330
1F
100
AcDbEntity
  8
0
100
AcDbLine
 10
170.284343125539
 20
208.0471764768469
 30
0.0
 11
170.284343125539
 21
207.8670724768467
 31
0.0
  0
LINE
  5
820
330
1F
100
AcDbEntity
  8
0
100
AcDbLine
 10
170.464343125539
 20
208.0471764768469
 30
0.0
 11
170.464343125539
 21
207.8670724768467
 31
0.0
  0
LINE
  5
821
330
1F
100
AcDbEntity
  8
0
100
AcDbLine
 10
170.284343125539
 20
208.0471764768469
 30
0.0
 11
170.374343125539
 21
208.0471764768469
 31
0.0
  0
LINE
  5
822
330
1F
100
AcDbEntity
  8
0
100
AcDbLine
 10
170.464343125539
 20
208.0471764768469
 30
0.0
 11
170.374343125539
 21
208.0471764768469
 31
0.0
  0
LINE
  5
823
330
1F
100
AcDbEntity
  8
0
100
AcDbLine
 10
170.1243431255391
 20
208.2071244768471
 30
0.0
 11
170.6243431255391
 21
208.2071244768471
 31
0.0
  0
LINE
  5
824
330
1F
100
AcDbEntity
  8
0
100
AcDbLine
 10
170.284343125539
 20
207.8670724768467
 30
0.0
 11
170.374343125539
 21
207.8670724768467
 31
0.0
  0
LINE
  5
825
330
1F
100
AcDbEntity
  8
0
100
AcDbLine
 10
170.284343125539
 20
207.8670724768467
 30
0.0
 11
170.374343125539
 21
207.8670724768467
 31
0.0
  0
LINE
  5
826
330
1F
100
AcDbEntity
  8
0
100
AcDbLine
 10
170.464343125539
 20
207.8670724768467
 30
0.0
 11
170.374343125539
 21
207.8670724768467
 31
0.0
  0
LINE
  5
827
330
1F
100
AcDbEntity
  8
0
100
AcDbLine
 10
170.464343125539
 20
207.8670724768467
 30
0.0
 11
170.374343125539
 21
207.8670724768467
 31
0.0
  0
LINE
  5
828
330
1F
100
AcDbEntity
  8
0
100
AcDbLine
 10
170.1243431255391
 20
207.7071244768471
 30
0.0
 11
170.6243431255391
 21
207.7071244768471
 31
0.0
  0
LINE
  5
829
330
1F
100
AcDbEntity
  8
0
100
AcDbLine
 10
167.1356901255391
 20
219.750671476847
 30
0.0
 11
167.573045125539
 21
219.3692994768472
 31
0.0
  0
LINE
  5
82A
330
1F
100
AcDbEntity
  8
0
100
AcDbLine
 10
167.573562125539
 20
220.2093854768471
 30
0.0
 11
168.1661191255391
 21
220.2093854768471
 31
0.0
  0
LINE
  5
82B
330
1F
100
AcDbEntity
  8
0
100
AcDbLine
 10
167.573562125539
 20
221.1903764768472
 30
0.0
 11
167.573562125539
 21
220.2093854768471
 31
0.0
  0
LINE
  5
82C
330
1F
100
AcDbEntity
  8
0
100
AcDbLine
 10
168.1661191255391
 20
221.1903764768472
 30
0.0
 11
167.573562125539
 21
221.1903764768472
 31
0.0
  0
LINE
  5
82D
330
1F
100
AcDbEntity
  8
0
100
AcDbLine
 10
168.1661191255391
 20
220.2093854768471
 30
0.0
 11
168.1661191255391
 21
221.1903764768472
 31
0.0
  0
LINE
  5
82E
330
1F
100
AcDbEntity
  8
0
100
AcDbLine
 10
167.1356901255391
 20
220.2093854768471
 30
0.0
 11
168.6036461255391
 21
220.2093854768471
 31
0.0
  0
LINE
  5
82F
330
1F
100
AcDbEntity
  8
0
100
AcDbLine
 10
168.6036461255391
 20
219.750671476847
 30
0.0
 11
168.1661191255391
 21
219.3692994768472
 31
0.0
  0
LINE
  5
830
330
1F
100
AcDbEntity
  8
0
100
AcDbLine
 10
168.8857991255391
 20
220.2446974768469
 30
0.0
 11
169.3233261255391
 21
219.863670476847
 31
0.0
  0
LINE
  5
831
330
1F
100
AcDbEntity
  8
0
100
AcDbLine
 10
170.353754125539
 20
220.2446974768469
 30
0.0
 11
169.915883125539
 21
219.863670476847
 31
0.0
  0
LINE
  5
832
330
1F
100
AcDbEntity
  8
0
100
AcDbLine
 10
169.915883125539
 20
218.882507476847
 30
0.0
 11
169.3233261255391
 21
218.882507476847
 31
0.0
  0
LINE
  5
833
330
1F
100
AcDbEntity
  8
0
100
AcDbLine
 10
169.915883125539
 20
219.863670476847
 30
0.0
 11
169.915883125539
 21
218.882507476847
 31
0.0
  0
LINE
  5
834
330
1F
100
AcDbEntity
  8
0
100
AcDbLine
 10
169.3233261255391
 20
219.863670476847
 30
0.0
 11
169.915883125539
 21
219.863670476847
 31
0.0
  0
LINE
  5
835
330
1F
100
AcDbEntity
  8
0
100
AcDbLine
 10
169.3233261255391
 20
218.882507476847
 30
0.0
 11
169.3233261255391
 21
219.863670476847
 31
0.0
  0
LINE
  5
836
330
1F
100
AcDbEntity
  8
0
100
AcDbLine
 10
170.353754125539
 20
218.882507476847
 30
0.0
 11
168.8857991255391
 21
218.882507476847
 31
0.0
  0
LINE
  5
837
330
1F
100
AcDbEntity
  8
0
100
AcDbLine
 10
170.353754125539
 20
220.2446974768469
 30
0.0
 11
170.353754125539
 21
218.882507476847
 31
0.0
  0
LINE
  5
838
330
1F
100
AcDbEntity
  8
0
100
AcDbLine
 10
168.8857991255391
 20
220.2446974768469
 30
0.0
 11
170.353754125539
 21
220.2446974768469
 31
0.0
  0
LINE
  5
839
330
1F
100
AcDbEntity
  8
0
100
AcDbLine
 10
168.8857991255391
 20
218.882507476847
 30
0.0
 11
168.8857991255391
 21
220.2446974768469
 31
0.0
  0
LINE
  5
83A
330
1F
100
AcDbEntity
  8
0
100
AcDbLine
 10
168.8857991255391
 20
217.0548834768473
 30
0.0
 11
169.3233261255391
 21
217.435739476847
 31
0.0
  0
LINE
  5
83B
330
1F
100
AcDbEntity
  8
0
100
AcDbLine
 10
170.353754125539
 20
217.0548834768473
 30
0.0
 11
169.915883125539
 21
217.435739476847
 31
0.0
  0
LINE
  5
83C
330
1F
100
AcDbEntity
  8
0
100
AcDbLine
 10
167.1356901255391
 20
215.6644434768469
 30
0.0
 11
168.6036461255391
 21
215.6644434768469
 31
0.0
  0
LINE
  5
83D
330
1F
100
AcDbEntity
  8
0
100
AcDbLine
 10
167.1356901255391
 20
217.026634476847
 30
0.0
 11
167.1356901255391
 21
215.6644434768469
 31
0.0
  0
LINE
  5
83E
330
1F
100
AcDbEntity
  8
0
100
AcDbLine
 10
168.6036461255391
 20
217.026634476847
 30
0.0
 11
167.1356901255391
 21
217.026634476847
 31
0.0
  0
LINE
  5
83F
330
1F
100
AcDbEntity
  8
0
100
AcDbLine
 10
168.6036461255391
 20
215.6644434768469
 30
0.0
 11
168.6036461255391
 21
217.026634476847
 31
0.0
  0
LINE
  5
840
330
1F
100
AcDbEntity
  8
0
100
AcDbLine
 10
169.3233261255391
 20
217.435739476847
 30
0.0
 11
169.915883125539
 21
217.435739476847
 31
0.0
  0
LINE
  5
841
330
1F
100
AcDbEntity
  8
0
100
AcDbLine
 10
169.3233261255391
 20
218.4169024768469
 30
0.0
 11
169.3233261255391
 21
217.435739476847
 31
0.0
  0
LINE
  5
842
330
1F
100
AcDbEntity
  8
0
100
AcDbLine
 10
169.915883125539
 20
218.4169024768469
 30
0.0
 11
169.3233261255391
 21
218.4169024768469
 31
0.0
  0
LINE
  5
843
330
1F
100
AcDbEntity
  8
0
100
AcDbLine
 10
169.915883125539
 20
217.435739476847
 30
0.0
 11
169.915883125539
 21
218.4169024768469
 31
0.0
  0
LINE
  5
844
330
1F
100
AcDbEntity
  8
0
100
AcDbLine
 10
168.8857991255391
 20
217.0548834768473
 30
0.0
 11
170.353754125539
 21
217.0548834768473
 31
0.0
  0
LINE
  5
845
330
1F
100
AcDbEntity
  8
0
100
AcDbLine
 10
168.8857991255391
 20
218.4169024768469
 30
0.0
 11
168.8857991255391
 21
217.0548834768473
 31
0.0
  0
LINE
  5
846
330
1F
100
AcDbEntity
  8
0
100
AcDbLine
 10
170.353754125539
 20
218.4169024768469
 30
0.0
 11
168.8857991255391
 21
218.4169024768469
 31
0.0
  0
LINE
  5
847
330
1F
100
AcDbEntity
  8
0
100
AcDbLine
 10
170.353754125539
 20
217.0548834768473
 30
0.0
 11
170.353754125539
 21
218.4169024768469
 31
0.0
  0
LINE
  5
848
330
1F
100
AcDbEntity
  8
0
100
AcDbLine
 10
167.1356901255391
 20
215.6644434768469
 30
0.0
 11
167.573045125539
 21
216.0454704768468
 31
0.0
  0
LINE
  5
849
330
1F
100
AcDbEntity
  8
0
100
AcDbLine
 10
168.6036461255391
 20
215.6644434768469
 30
0.0
 11
168.165774125539
 21
216.0454704768468
 31
0.0
  0
LINE
  5
84A
330
1F
100
AcDbEntity
  8
0
100
AcDbLine
 10
167.573045125539
 20
216.0454704768468
 30
0.0
 11
168.165774125539
 21
216.0454704768468
 31
0.0
  0
LINE
  5
84B
330
1F
100
AcDbEntity
  8
0
100
AcDbLine
 10
167.573045125539
 20
217.026634476847
 30
0.0
 11
167.573045125539
 21
216.0454704768468
 31
0.0
  0
LINE
  5
84C
330
1F
100
AcDbEntity
  8
0
100
AcDbLine
 10
168.165774125539
 20
217.026634476847
 30
0.0
 11
167.573045125539
 21
217.026634476847
 31
0.0
  0
LINE
  5
84D
330
1F
100
AcDbEntity
  8
0
100
AcDbLine
 10
168.165774125539
 20
216.0454704768468
 30
0.0
 11
168.165774125539
 21
217.026634476847
 31
0.0
  0
LINE
  5
84E
330
1F
100
AcDbEntity
  8
0
100
AcDbLine
 10
167.573562125539
 20
218.3886524768469
 30
0.0
 11
168.1661191255391
 21
218.3886524768469
 31
0.0
  0
LINE
  5
84F
330
1F
100
AcDbEntity
  8
0
100
AcDbLine
 10
167.573562125539
 20
219.369643476847
 30
0.0
 11
167.573562125539
 21
218.3886524768469
 31
0.0
  0
LINE
  5
850
330
1F
100
AcDbEntity
  8
0
100
AcDbLine
 10
168.1661191255391
 20
219.369643476847
 30
0.0
 11
167.573562125539
 21
219.369643476847
 31
0.0
  0
LINE
  5
851
330
1F
100
AcDbEntity
  8
0
100
AcDbLine
 10
168.1661191255391
 20
218.3886524768469
 30
0.0
 11
168.1661191255391
 21
219.369643476847
 31
0.0
  0
LINE
  5
852
330
1F
100
AcDbEntity
  8
0
100
AcDbLine
 10
167.1356901255391
 20
218.3886524768469
 30
0.0
 11
168.6036461255391
 21
218.3886524768469
 31
0.0
  0
LINE
  5
853
330
1F
100
AcDbEntity
  8
0
100
AcDbLine
 10
167.1356901255391
 20
219.750671476847
 30
0.0
 11
167.1356901255391
 21
218.3886524768469
 31
0.0
  0
LINE
  5
854
330
1F
100
AcDbEntity
  8
0
100
AcDbLine
 10
168.6036461255391
 20
219.750671476847
 30
0.0
 11
167.1356901255391
 21
219.750671476847
 31
0.0
  0
LINE
  5
855
330
1F
100
AcDbEntity
  8
0
100
AcDbLine
 10
168.6036461255391
 20
218.3886524768469
 30
0.0
 11
168.6036461255391
 21
219.750671476847
 31
0.0
  0
LINE
  5
856
330
1F
100
AcDbEntity
  8
0
100
AcDbLine
 10
168.6036461255391
 20
221.5714044768468
 30
0.0
 11
168.1661191255391
 21
221.190032476847
 31
0.0
  0
LINE
  5
857
330
1F
100
AcDbEntity
  8
0
100
AcDbLine
 10
167.1356901255391
 20
221.5714044768468
 30
0.0
 11
167.573045125539
 21
221.190032476847
 31
0.0
  0
LINE
  5
858
330
1F
100
AcDbEntity
  8
0
100
AcDbLine
 10
167.1356901255391
 20
221.5714044768468
 30
0.0
 11
167.1356901255391
 21
220.2093854768471
 31
0.0
  0
LINE
  5
859
330
1F
100
AcDbEntity
  8
0
100
AcDbLine
 10
168.6036461255391
 20
220.2093854768471
 30
0.0
 11
168.6036461255391
 21
221.5714044768468
 31
0.0
  0
LINE
  5
85A
330
1F
100
AcDbEntity
  8
0
100
AcDbLine
 10
168.6036461255391
 20
221.5714044768468
 30
0.0
 11
167.1356901255391
 21
221.5714044768468
 31
0.0
  0
LINE
  5
85B
330
1F
100
AcDbEntity
  8
0
100
AcDbLine
 10
166.8743431255391
 20
226.4071244768471
 30
0.0
 11
173.8743431255391
 21
226.4071244768471
 31
0.0
  0
LINE
  5
85C
330
1F
100
AcDbEntity
  8
0
100
AcDbLine
 10
166.8743431255391
 20
231.4071244768471
 30
0.0
 11
173.8743431255391
 21
231.4071244768471
 31
0.0
  0
LINE
  5
85D
330
1F
100
AcDbEntity
  8
0
100
AcDbLine
 10
161.0743431255391
 20
225.6571244768471
 30
0.0
 11
173.8743431255391
 21
225.6571244768471
 31
0.0
  0
LINE
  5
85E
330
1F
100
AcDbEntity
  8
0
100
AcDbLine
 10
166.224343125539
 20
232.3571244768472
 30
0.0
 11
173.624343125539
 21
232.3571244768471
 31
0.0
  0
LINE
  5
860
330
1F
100
AcDbEntity
  8
0
100
AcDbLine
 10
166.224343125539
 20
232.3571244768471
 30
0.0
 11
173.624343125539
 21
232.3571244768471
 31
0.0
  0
CIRCLE
  5
863
330
1F
100
AcDbEntity
  8
0
100
AcDbCircle
 10
169.9243431255391
 20
236.1071244768471
 30
0.0
 40
3.7
  0
CIRCLE
  5
864
330
1F
100
AcDbEntity
  8
0
100
AcDbCircle
 10
169.9243431255391
 20
236.1071244768471
 30
0.0
 40
3.7
  0
ARC
  5
865
330
1F
100
AcDbEntity
  8
0
100
AcDbCircle
 10
169.9243431255391
 20
236.1071244768471
 30
0.0
 40
3.699999999999931
100
AcDbArc
 50
0.0
 51
180.0
  0
LINE
  5
866
330
1F
100
AcDbEntity
  8
0
100
AcDbLine
 10
166.8743431255391
 20
226.4071244768471
 30
0.0
 11
166.8743431255391
 21
231.4071244768471
 31
0.0
  0
LINE
  5
867
330
1F
100
AcDbEntity
  8
0
100
AcDbLine
 10
160.5743431255391
 20
226.133137476847
 30
0.0
 11
166.2243431255391
 21
226.133137476847
 31
0.0
  0
LINE
  5
868
330
1F
100
AcDbEntity
  8
0
100
AcDbLine
 10
166.2243431255391
 20
226.133137476847
 30
0.0
 11
166.2243431255391
 21
231.4071244768471
 31
0.0
  0
LINE
  5
869
330
1F
100
AcDbEntity
  8
0
100
AcDbLine
 10
166.2243431255391
 20
236.1071244768471
 30
0.0
 11
166.2243431255391
 21
231.4071244768471
 31
0.0
  0
LINE
  5
86A
330
1F
100
AcDbEntity
  8
0
100
AcDbLine
 10
169.2951781255391
 20
230.4071244768471
 30
0.0
 11
169.2951781255391
 21
227.4071244768471
 31
0.0
  0
LINE
  5
86B
330
1F
100
AcDbEntity
  8
0
100
AcDbLine
 10
171.2601001255391
 20
230.4071244768471
 30
0.0
 11
171.2601001255391
 21
227.4071244768471
 31
0.0
  0
LINE
  5
86C
330
1F
100
AcDbEntity
  8
0
100
AcDbLine
 10
169.2951781255391
 20
230.4071244768471
 30
0.0
 11
171.2601001255391
 21
230.4071244768471
 31
0.0
  0
LINE
  5
86D
330
1F
100
AcDbEntity
  8
0
100
AcDbLine
 10
169.2951781255391
 20
227.4071244768471
 30
0.0
 11
171.2601001255391
 21
227.4071244768471
 31
0.0
  0
LINE
  5
86E
330
1F
100
AcDbEntity
  8
0
100
AcDbLine
 10
173.8743431255391
 20
231.4071244768471
 30
0.0
 11
173.8743431255391
 21
226.4071244768471
 31
0.0
  0
LINE
  5
86F
330
1F
100
AcDbEntity
  8
0
100
AcDbLine
 10
168.892414125539
 20
235.9460734768471
 30
0.0
 11
171.7259491255391
 21
235.9460734768471
 31
0.0
  0
LINE
  5
870
330
1F
100
AcDbEntity
  8
0
100
AcDbLine
 10
168.0169061255391
 20
236.1071244768471
 30
0.0
 11
168.892414125539
 21
235.526934476847
 31
0.0
  0
LINE
  5
871
330
1F
100
AcDbEntity
  8
0
100
AcDbLine
 10
168.892414125539
 20
235.9460734768471
 30
0.0
 11
168.892414125539
 21
235.526934476847
 31
0.0
  0
LINE
  5
872
330
1F
100
AcDbEntity
  8
0
100
AcDbLine
 10
173.624343125539
 20
231.8071244768471
 30
0.0
 11
174.374343125539
 21
231.8071244768471
 31
0.0
  0
LINE
  5
873
330
1F
100
AcDbEntity
  8
0
100
AcDbLine
 10
173.4743431255391
 20
235.117259672469
 30
0.0
 11
173.4743431255391
 21
232.3571244768471
 31
0.0
  0
LINE
  5
874
330
1F
100
AcDbEntity
  8
0
100
AcDbLine
 10
173.624343125539
 20
233.2671244768472
 30
0.0
 11
173.4743431255391
 21
233.2671244768472
 31
0.0
  0
LINE
  5
875
330
1F
100
AcDbEntity
  8
0
100
AcDbLine
 10
173.624343125539
 20
233.8671244768472
 30
0.0
 11
173.4743431255391
 21
233.8671244768471
 31
0.0
  0
LINE
  5
87B
330
1F
100
AcDbEntity
  8
0
100
AcDbLine
 10
168.0169060931849
 20
236.1071244768471
 30
0.0
 11
168.8924145856937
 21
235.5269344446213
 31
0.0
  0
LINE
  5
87C
330
1F
100
AcDbEntity
  8
0
100
AcDbLine
 10
168.8924145856937
 20
235.9460740006842
 30
0.0
 11
168.8924145856937
 21
235.5269344446213
 31
0.0
  0
LINE
  5
87E
330
1F
100
AcDbEntity
  8
0
100
AcDbLine
 10
168.8924145856937
 20
235.9460740006842
 30
0.0
 11
171.7259490337283
 21
235.9460740006842
 31
0.0
  0
LINE
  5
87F
330
1F
100
AcDbEntity
  8
0
100
AcDbLine
 10
173.624343125539
 20
236.1071244768471
 30
0.0
 11
173.624343125539
 21
231.8071244768471
 31
0.0
  0
LINE
  5
886
330
1F
100
AcDbEntity
  8
0
100
AcDbLine
 10
171.7259490337283
 20
236.2681749530064
 30
0.0
 11
171.7259490337283
 21
235.9460740006842
 31
0.0
  0
LINE
  5
887
330
1F
100
AcDbEntity
  8
0
100
AcDbLine
 10
168.8924145856937
 20
236.6873145090729
 30
0.0
 11
168.8924145856937
 21
236.2681749530064
 31
0.0
  0
LINE
  5
888
330
1F
100
AcDbEntity
  8
0
100
AcDbLine
 10
168.0169060931849
 20
236.1071244768471
 30
0.0
 11
168.8924145856937
 21
236.6873145090729
 31
0.0
  0
LINE
  5
889
330
1F
100
AcDbEntity
  8
0
100
AcDbLine
 10
168.8924145856937
 20
236.2681749530064
 30
0.0
 11
171.7259490337283
 21
236.2681749530064
 31
0.0
  0
CIRCLE
  5
88B
330
1F
100
AcDbEntity
  8
0
100
AcDbCircle
 10
169.9243431255391
 20
236.1071244768471
 30
0.0
 40
1.907437032355005
  0
LINE
  5
88C
330
1F
100
AcDbEntity
  8
0
100
AcDbLine
 10
168.892414125539
 20
236.2681744768473
 30
0.0
 11
171.7259491255391
 21
236.2681744768473
 31
0.0
  0
LINE
  5
88D
330
1F
100
AcDbEntity
  8
0
100
AcDbLine
 10
168.892414125539
 20
236.687314476847
 30
0.0
 11
168.892414125539
 21
236.2681744768473
 31
0.0
  0
LINE
  5
88E
330
1F
100
AcDbEntity
  8
0
100
AcDbLine
 10
168.0169061255391
 20
236.1071244768471
 30
0.0
 11
168.892414125539
 21
236.687314476847
 31
0.0
  0
LINE
  5
88F
330
1F
100
AcDbEntity
  8
0
100
AcDbLine
 10
171.7259491255391
 20
236.2681744768473
 30
0.0
 11
171.7259491255391
 21
235.9460734768471
 31
0.0
  0
LINE
  5
890
330
1F
100
AcDbEntity
  8
外枠
100
AcDbLine
 10
168.8743431255391
 20
210.0771098177941
 30
0.0
 11
173.8743431255391
 21
210.0771098177941
 31
0.0
  0
LINE
  5
891
330
1F
100
AcDbEntity
  8
0
100
AcDbLine
 10
168.874343125539
 20
192.1771098177941
 30
0.0
 11
173.874343125539
 21
192.1771098177941
 31
0.0
  0
LINE
  5
892
330
1F
100
AcDbEntity
  8
外枠
100
AcDbLine
 10
168.874343125539
 20
192.1771098177941
 30
0.0
 11
173.8743431255391
 21
192.1771098177941
 31
0.0
  0
LINE
  5
893
330
1F
100
AcDbEntity
  8
外枠
100
AcDbLine
 10
173.8743431255391
 20
190.2531364768468
 30
0.0
 11
173.8743431255391
 21
192.1771098177941
 31
0.0
  0
LINE
  5
894
330
1F
100
AcDbEntity
  8
外枠
100
AcDbLine
 10
173.8743431255391
 20
210.0771098177941
 30
0.0
 11
173.8743431255391
 21
211.6571244768471
 31
0.0
  0
LINE
  5
895
330
1F
100
AcDbEntity
  8
外枠
100
AcDbLine
 10
173.8743431255391
 20
225.6571244768471
 30
0.0
 11
173.8743431255391
 21
226.4071244768471
 31
0.0
  0
LINE
  5
896
330
1F
100
AcDbEntity
  8
外枠
100
AcDbLine
 10
173.8743431255391
 20
231.4071244768471
 30
0.0
 11
173.8743431255391
 21
231.8071244768471
 31
0.0
  0
LINE
  5
897
330
1F
100
AcDbEntity
  8
WORKLAYER
  6
CONTINUOUS
100
AcDbLine
 10
159.7742100259291
 20
255.0513987933149
 30
0.0
 11
159.7742050255382
 21
266.2714508392923
 31
0.0
  0
CIRCLE
  5
898
330
1F
100
AcDbEntity
  8
WORKLAYER
  6
CONTINUOUS
100
AcDbCircle
 10
162.2043960255449
 20
257.9213189392917
 30
0.0
 40
1.0
  0
CIRCLE
  5
899
330
1F
100
AcDbEntity
  8
WORKLAYER
  6
CONTINUOUS
100
AcDbCircle
 10
165.044396125544
 20
259.2911997392925
 30
0.0
 40
1.0
  0
LINE
  5
89A
330
1F
100
AcDbEntity
  8
WORKLAYER
  6
CONTINUOUS
100
AcDbLine
 10
166.8239525255374
 20
255.5469420392924
 30
0.0
 11
166.8239525255374
 21
265.7764561392919
 31
0.0
  0
LINE
  5
89B
330
1F
100
AcDbEntity
  8
WORKLAYER
  6
CONTINUOUS
100
AcDbLine
 10
160.6240051255371
 20
255.031942639292
 30
0.0
 11
160.6240051255371
 21
266.2914627392924
 31
0.0
  0
LINE
  5
89C
330
1F
100
AcDbEntity
  8
0
  6
CONTINUOUS
100
AcDbLine
 10
169.974243925535
 20
244.5114424392918
 30
0.0
 11
169.974243925535
 21
276.8114460392894
 31
0.0
  0
LINE
  5
89D
330
1F
100
AcDbEntity
  8
WORKLAYER
  6
CONTINUOUS
100
AcDbLine
 10
157.424347625545
 20
246.9864428392916
 30
0.0
 11
157.424347625545
 21
274.3364428392919
 31
0.0
  0
LINE
  5
89E
330
1F
100
AcDbEntity
  8
WORKLAYER
  6
CONTINUOUS
100
AcDbLine
 10
167.6742027255366
 20
255.3059428392912
 30
0.0
 11
167.6742027255366
 21
266.0379541392917
 31
0.0
  0
LINE
  5
89F
330
1F
100
AcDbEntity
  8
WORKLAYER
  6
CONTINUOUS
100
AcDbLine
 10
166.8741539255369
 20
255.2859538392908
 30
0.0
 11
166.8741539255369
 21
266.0374577392917
 31
0.0
  0
ARC
  5
8A0
330
1F
100
AcDbEntity
  8
WORKLAYER
  6
CONTINUOUS
100
AcDbCircle
 10
162.3141971250714
 20
266.2714021370079
 30
0.0
 40
2.5399921
100
AcDbArc
 50
80.00100710000928
 51
179.9989013999862
  0
CIRCLE
  5
8A1
330
1F
100
AcDbEntity
  8
WORKLAYER
  6
CONTINUOUS
100
AcDbCircle
 10
163.6242454255442
 20
273.1559469392919
 30
0.0
 40
1.3000031
  0
ARC
  5
8A2
330
1F
100
AcDbEntity
  8
WORKLAYER
  6
CONTINUOUS
100
AcDbCircle
 10
159.1743972255443
 20
274.3114459392923
 30
0.0
 40
1.749991999999999
100
AcDbArc
 50
89.9989928999877
 51
180.0
  0
ARC
  5
8A3
330
1F
100
AcDbEntity
  8
WORKLAYER
  6
CONTINUOUS
100
AcDbCircle
 10
168.2242549255532
 20
274.3114459392923
 30
0.0
 40
1.749989
100
AcDbArc
 50
0.0002517999638526
 51
90.00100710001229
  0
CIRCLE
  5
8A4
330
1F
100
AcDbEntity
  8
WORKLAYER
  6
CONTINUOUS
100
AcDbCircle
 10
163.6243446255447
 20
273.1559469392919
 30
0.0
 40
1.5500031
  0
CIRCLE
  5
8A5
330
1F
100
AcDbEntity
  8
WORKLAYER
  6
CONTINUOUS
100
AcDbCircle
 10
163.6242454255442
 20
273.1559469392919
 30
0.0
 40
1.0
  0
CIRCLE
  5
8A6
330
1F
100
AcDbEntity
  8
WORKLAYER
  6
CONTINUOUS
100
AcDbCircle
 10
163.6242454255442
 20
273.1559469392919
 30
0.0
 40
2.5114751
  0
LINE
  5
8A7
330
1F
100
AcDbEntity
  8
WORKLAYER
  6
CONTINUOUS
100
AcDbLine
 10
160.7242553255435
 20
273.1559519392917
 30
0.0
 11
162.1742446255447
 21
275.667445939292
 31
0.0
  0
LINE
  5
8A8
330
1F
100
AcDbEntity
  8
WORKLAYER
  6
CONTINUOUS
100
AcDbLine
 10
162.1742446255447
 20
270.6444490392909
 30
0.0
 11
160.7242477255439
 21
273.1559459392915
 31
0.0
  0
LINE
  5
8A9
330
1F
100
AcDbEntity
  8
WORKLAYER
  6
CONTINUOUS
100
AcDbLine
 10
165.0742462255437
 20
270.6444500392913
 30
0.0
 11
162.1742446255447
 21
270.6444500392913
 31
0.0
  0
LINE
  5
8AA
330
1F
100
AcDbEntity
  8
WORKLAYER
  6
CONTINUOUS
100
AcDbLine
 10
162.1742446255447
 20
275.6674450392925
 30
0.0
 11
165.0742462255437
 21
275.6674450392925
 31
0.0
  0
LINE
  5
8AB
330
1F
100
AcDbEntity
  8
WORKLAYER
  6
CONTINUOUS
100
AcDbLine
 10
159.1743972255443
 20
276.0614460392912
 30
0.0
 11
169.9742439255368
 21
276.0614460392912
 31
0.0
  0
LINE
  5
8AC
330
1F
100
AcDbEntity
  8
WORKLAYER
  6
CONTINUOUS
100
AcDbLine
 10
166.5242050255436
 20
273.1559449392912
 30
0.0
 11
165.0742462255437
 21
270.6444490392909
 31
0.0
  0
LINE
  5
8AD
330
1F
100
AcDbEntity
  8
WORKLAYER
  6
CONTINUOUS
100
AcDbLine
 10
165.0742462255437
 20
275.6674419392925
 30
0.0
 11
166.524197325545
 21
273.1559469392919
 31
0.0
  0
CIRCLE
  5
8AE
330
1F
100
AcDbEntity
  8
WORKLAYER
  6
CONTINUOUS
100
AcDbCircle
 10
165.044396125544
 20
259.2911997392925
 30
0.0
 40
0.5500030000000001
  0
CIRCLE
  5
8AF
330
1F
100
AcDbEntity
  8
WORKLAYER
  6
CONTINUOUS
100
AcDbCircle
 10
165.044396125544
 20
262.0310761392916
 30
0.0
 40
0.5500030000000001
  0
CIRCLE
  5
8B0
330
1F
100
AcDbEntity
  8
WORKLAYER
  6
CONTINUOUS
100
AcDbCircle
 10
165.044396125544
 20
264.7709525392924
 30
0.0
 40
1.0
  0
CIRCLE
  5
8B1
330
1F
100
AcDbEntity
  8
WORKLAYER
  6
CONTINUOUS
100
AcDbCircle
 10
165.044396125544
 20
264.7709525392924
 30
0.0
 40
0.5500030000000001
  0
CIRCLE
  5
8B2
330
1F
100
AcDbEntity
  8
WORKLAYER
  6
CONTINUOUS
100
AcDbCircle
 10
165.044396125544
 20
262.0310761392916
 30
0.0
 40
1.0
  0
CIRCLE
  5
8B3
330
1F
100
AcDbEntity
  8
WORKLAYER
  6
CONTINUOUS
100
AcDbCircle
 10
162.2043960255449
 20
263.4010717392916
 30
0.0
 40
1.0
  0
CIRCLE
  5
8B4
330
1F
100
AcDbEntity
  8
WORKLAYER
  6
CONTINUOUS
100
AcDbCircle
 10
162.2043960255449
 20
263.4010717392916
 30
0.0
 40
0.5500030000000001
  0
CIRCLE
  5
8B5
330
1F
100
AcDbEntity
  8
WORKLAYER
  6
CONTINUOUS
100
AcDbCircle
 10
162.2043960255449
 20
260.6611953392925
 30
0.0
 40
1.0
  0
CIRCLE
  5
8B6
330
1F
100
AcDbEntity
  8
WORKLAYER
  6
CONTINUOUS
100
AcDbCircle
 10
162.2043960255449
 20
260.6611953392925
 30
0.0
 40
0.5500030000000001
  0
ARC
  5
8B7
330
1F
100
AcDbEntity
  8
WORKLAYER
  6
CONTINUOUS
100
AcDbCircle
 10
165.4241977250711
 20
266.0179083370071
 30
0.0
 40
2.249988999999999
100
AcDbArc
 50
0.0002135999506279
 51
80.00090030000706
  0
ARC
  5
8B8
330
1F
100
AcDbEntity
  8
WORKLAYER
  6
CONTINUOUS
100
AcDbCircle
 10
165.4241977250711
 20
266.0379054370073
 30
0.0
 40
1.449996899999999
100
AcDbArc
 50
359.9999770999606
 51
80.00090030000706
  0
ARC
  5
8B9
330
1F
100
AcDbEntity
  8
WORKLAYER
  6
CONTINUOUS
100
AcDbCircle
 10
162.3562259925109
 20
266.1345684391049
 30
0.0
 40
1.888403919785388
100
AcDbArc
 50
82.0835676047635
 51
175.2356827658355
  0
ARC
  5
8BA
330
1F
100
AcDbEntity
  8
WORKLAYER
  6
CONTINUOUS
100
AcDbCircle
 10
162.2642475250721
 20
266.291414037008
 30
0.0
 40
1.639993
100
AcDbArc
 50
80.00090030000706
 51
180.0
  0
ARC
  5
8BB
330
1F
100
AcDbEntity
  8
WORKLAYER
  6
CONTINUOUS
100
AcDbCircle
 10
165.1841999250717
 20
265.7764074370074
 30
0.0
 40
1.639991999999999
100
AcDbArc
 50
0.0002822999643171
 51
80.00109860002964
  0
CIRCLE
  5
8BC
330
1F
100
AcDbEntity
  8
WORKLAYER
  6
CONTINUOUS
100
AcDbCircle
 10
162.2043960255449
 20
266.1409481392924
 30
0.0
 40
1.0
  0
CIRCLE
  5
8BD
330
1F
100
AcDbEntity
  8
WORKLAYER
  6
CONTINUOUS
100
AcDbCircle
 10
162.2043960255449
 20
266.1409481392924
 30
0.0
 40
0.5500030000000001
  0
LINE
  5
8BE
330
1F
100
AcDbEntity
  8
WORKLAYER
  6
CONTINUOUS
100
AcDbLine
 10
165.468848825072
 20
267.3914082370079
 30
0.0
 11
162.5488468250713
 21
267.906407137008
 31
0.0
  0
LINE
  5
8BF
330
1F
100
AcDbEntity
  8
WORKLAYER
  6
CONTINUOUS
100
AcDbLine
 10
165.8148494250725
 20
268.2334101370065
 30
0.0
 11
162.755199025072
 21
268.7729094370074
 31
0.0
  0
LINE
  5
8C0
330
1F
100
AcDbEntity
  8
WORKLAYER
  6
CONTINUOUS
100
AcDbLine
 10
165.6759372250725
 20
267.4653732370074
 30
0.0
 11
162.6162983250723
 21
268.0048711370068
 31
0.0
  0
LINE
  5
8C1
330
1F
100
AcDbEntity
  8
WORKLAYER
  6
CONTINUOUS
100
AcDbLine
 10
160.4743469255444
 20
260.6614430392923
 30
0.0
 11
160.4743469255444
 21
266.2914627392924
 31
0.0
  0
CIRCLE
  5
8C2
330
1F
100
AcDbEntity
  8
WORKLAYER
  6
CONTINUOUS
100
AcDbCircle
 10
163.7241028255374
 20
248.1664431392923
 30
0.0
 40
1.299998999999999
  0
CIRCLE
  5
8C3
330
1F
100
AcDbEntity
  8
WORKLAYER
  6
CONTINUOUS
100
AcDbCircle
 10
163.7241028255374
 20
248.1664431392923
 30
0.0
 40
1.520001099999999
  0
CIRCLE
  5
8C4
330
1F
100
AcDbEntity
  8
WORKLAYER
  6
CONTINUOUS
100
AcDbCircle
 10
163.7241028255374
 20
248.1664431392923
 30
0.0
 40
1.0
  0
CIRCLE
  5
8C5
330
1F
100
AcDbEntity
  8
WORKLAYER
  6
CONTINUOUS
100
AcDbCircle
 10
163.7241028255374
 20
248.1664431392923
 30
0.0
 40
2.5114751
  0
LINE
  5
8C6
330
1F
100
AcDbEntity
  8
WORKLAYER
  6
CONTINUOUS
100
AcDbLine
 10
162.2741020255379
 20
245.6549437392909
 30
0.0
 11
160.8241051255371
 21
248.1664336392909
 31
0.0
  0
LINE
  5
8C7
330
1F
100
AcDbEntity
  8
WORKLAYER
  6
CONTINUOUS
100
AcDbLine
 10
166.6240852255376
 20
248.1664221392925
 30
0.0
 11
165.1741341255382
 21
245.6549132392915
 31
0.0
  0
CIRCLE
  5
8C8
330
1F
100
AcDbEntity
  8
WORKLAYER
  6
CONTINUOUS
100
AcDbCircle
 10
162.2043960255449
 20
257.9213189392917
 30
0.0
 40
0.5500030000000001
  0
ARC
  5
8C9
330
1F
100
AcDbEntity
  8
WORKLAYER
  6
CONTINUOUS
100
AcDbCircle
 10
162.3562333373498
 20
255.1882778025436
 30
0.0
 40
1.888411934066741
100
AcDbArc
 50
184.7645516588018
 51
277.9162839849423
  0
ARC
  5
8CA
330
1F
100
AcDbEntity
  8
WORKLAYER
  6
CONTINUOUS
100
AcDbCircle
 10
162.2642525255377
 20
255.0314238392925
 30
0.0
 40
1.639993
100
AcDbArc
 50
180.0
 51
279.9990282000253
  0
ARC
  5
8CB
330
1F
100
AcDbEntity
  8
WORKLAYER
  6
CONTINUOUS
100
AcDbCircle
 10
165.1842049255373
 20
255.5464328392913
 30
0.0
 40
1.639991999999999
100
AcDbArc
 50
279.998890900045
 51
359.9996795999698
  0
ARC
  5
8CC
330
1F
100
AcDbEntity
  8
WORKLAYER
  6
CONTINUOUS
100
AcDbCircle
 10
165.4242027255367
 20
255.2849333392909
 30
0.0
 40
1.449996899999999
100
AcDbArc
 50
279.9990282000253
 51
359.9999770999606
  0
ARC
  5
8CD
330
1F
100
AcDbEntity
  8
WORKLAYER
  6
CONTINUOUS
100
AcDbCircle
 10
162.314202125537
 20
255.0514434392912
 30
0.0
 40
2.5399921
100
AcDbArc
 50
180.0010071000123
 51
279.9989328000399
  0
ARC
  5
8CE
330
1F
100
AcDbEntity
  8
WORKLAYER
  6
CONTINUOUS
100
AcDbCircle
 10
165.4242027255367
 20
255.3049338392916
 30
0.0
 40
2.249988999999999
100
AcDbArc
 50
279.9990282000253
 51
359.9997482000361
  0
CIRCLE
  5
8CF
330
1F
100
AcDbEntity
  8
WORKLAYER
  6
CONTINUOUS
100
AcDbCircle
 10
162.3042534255381
 20
255.1814425392908
 30
0.0
 40
0.5499990000000001
  0
CIRCLE
  5
8D0
330
1F
100
AcDbEntity
  8
WORKLAYER
  6
CONTINUOUS
100
AcDbCircle
 10
165.1442535255372
 20
256.5514434392912
 30
0.0
 40
0.5500030000000001
  0
CIRCLE
  5
8D1
330
1F
100
AcDbEntity
  8
WORKLAYER
  6
CONTINUOUS
100
AcDbCircle
 10
162.3042534255381
 20
255.1814425392908
 30
0.0
 40
1.0
  0
CIRCLE
  5
8D2
330
1F
100
AcDbEntity
  8
WORKLAYER
  6
CONTINUOUS
100
AcDbCircle
 10
165.1442535255372
 20
256.5514434392912
 30
0.0
 40
1.0
  0
LINE
  5
8D3
330
1F
100
AcDbEntity
  8
WORKLAYER
  6
CONTINUOUS
100
AcDbLine
 10
165.4688538255376
 20
253.9314330392912
 30
0.0
 11
162.5488518255368
 21
253.4164336392909
 31
0.0
  0
LINE
  5
8D4
330
1F
100
AcDbEntity
  8
WORKLAYER
  6
CONTINUOUS
100
AcDbLine
 10
165.814854425538
 20
253.0894320392921
 30
0.0
 11
162.7552040255376
 21
252.5499327392913
 31
0.0
  0
LINE
  5
8D5
330
1F
100
AcDbEntity
  8
WORKLAYER
  6
CONTINUOUS
100
AcDbLine
 10
165.675942225538
 20
253.8574736392924
 30
0.0
 11
162.6163033255378
 21
253.3179724392916
 31
0.0
  0
LINE
  5
8D6
330
1F
100
AcDbEntity
  8
WORKLAYER
  6
CONTINUOUS
100
AcDbLine
 10
165.1741341255382
 20
250.6779635392918
 30
0.0
 11
166.6240852255376
 21
248.1664622392922
 31
0.0
  0
LINE
  5
8D7
330
1F
100
AcDbEntity
  8
WORKLAYER
  6
CONTINUOUS
100
AcDbLine
 10
160.8240936255368
 20
248.1664527392926
 30
0.0
 11
162.2740944255382
 21
250.6779521392922
 31
0.0
  0
LINE
  5
8D8
330
1F
100
AcDbEntity
  8
WORKLAYER
  6
CONTINUOUS
100
AcDbLine
 10
162.2741020255379
 20
250.6779521392922
 30
0.0
 11
165.1741036255369
 21
250.6779521392922
 31
0.0
  0
ARC
  5
8D9
330
1F
100
AcDbEntity
  8
0
  6
CONTINUOUS
100
AcDbCircle
 10
168.2242439255368
 20
247.0114424392918
 30
0.0
 40
1.749989
100
AcDbArc
 50
270.0
 51
0.0003891000438531
  0
ARC
  5
8DA
330
1F
100
AcDbEntity
  8
WORKLAYER
  6
CONTINUOUS
100
AcDbCircle
 10
159.3520821042837
 20
247.1993345940004
 30
0.0
 40
1.939454335564851
100
AcDbArc
 50
186.3019934180303
 51
267.7001862741153
  0
LINE
  5
8DB
330
1F
100
AcDbEntity
  8
0
  6
CONTINUOUS
100
AcDbLine
 10
159.2742546255375
 20
245.2614424392918
 30
0.0
 11
169.9742020255379
 21
245.2614424392918
 31
0.0
  0
LINE
  5
8DC
330
1F
100
AcDbEntity
  8
WORKLAYER
  6
CONTINUOUS
100
AcDbLine
 10
165.1741036255369
 20
245.6549437392909
 30
0.0
 11
162.2741020255379
 21
245.6549437392909
 31
0.0
  0
LINE
  5
8DD
330
1F
100
AcDbEntity
  8
0
100
AcDbLine
 10
156.0743431255394
 20
244.5114424392918
 30
0.0
 11
170.4742439255386
 21
244.5114424392918
 31
0.0
  0
LINE
  5
8DE
330
1F
100
AcDbEntity
  8
0
100
AcDbLine
 10
170.4742439255386
 20
244.5114424392918
 30
0.0
 11
170.4742439255386
 21
276.8114460392894
 31
0.0
  0
LINE
  5
8DF
330
1F
100
AcDbEntity
  8
0
100
AcDbLine
 10
156.0743431255394
 20
276.8114460392894
 30
0.0
 11
170.4742439255386
 21
276.8114460392894
 31
0.0
  0
LINE
  5
8E0
330
1F
100
AcDbEntity
  8
0
 62
     0
100
AcDbLine
 10
175.2744174380858
 20
286.8940449152028
 30
0.0
 11
175.2744174380858
 21
284.1940449152021
 31
0.0
  0
LINE
  5
8E1
330
1F
100
AcDbEntity
  8
0
 62
     0
100
AcDbLine
 10
176.8744174380862
 20
284.1940449152021
 30
0.0
 11
176.8744174380862
 21
286.8940449152028
 31
0.0
  0
LINE
  5
8E2
330
1F
100
AcDbEntity
  8
0
 62
     0
100
AcDbLine
 10
175.2744174380858
 20
286.8940449152028
 30
0.0
 11
176.8744174380862
 21
286.8940449152028
 31
0.0
  0
LINE
  5
8E3
330
1F
100
AcDbEntity
  8
0
 62
     0
100
AcDbLine
 10
175.2744174380858
 20
284.1940449152021
 30
0.0
 11
176.8744174380862
 21
284.1940449152021
 31
0.0
  0
LINE
  5
8E4
330
1F
100
AcDbEntity
  8
0
 62
     0
100
AcDbLine
 10
174.0742688129902
 20
286.8940449152028
 30
0.0
 11
174.0742688129902
 21
284.1940449152021
 31
0.0
  0
LINE
  5
8E5
330
1F
100
AcDbEntity
  8
0
 62
     0
100
AcDbLine
 10
172.4742688129898
 20
284.1940449152021
 30
0.0
 11
172.4742688129898
 21
286.8940449152028
 31
0.0
  0
LINE
  5
8E6
330
1F
100
AcDbEntity
  8
0
 62
     0
100
AcDbLine
 10
174.0742688129902
 20
286.8940449152028
 30
0.0
 11
172.4742688129898
 21
286.8940449152028
 31
0.0
  0
LINE
  5
8E7
330
1F
100
AcDbEntity
  8
0
 62
     0
100
AcDbLine
 10
174.0742688129902
 20
284.1940449152021
 30
0.0
 11
172.4742688129898
 21
284.1940449152021
 31
0.0
  0
LINE
  5
8E8
330
1F
100
AcDbEntity
  8
0
 62
     0
100
AcDbLine
 10
174.0742688129902
 20
281.3940489152423
 30
0.0
 11
174.0742688129902
 21
278.6940489152416
 31
0.0
  0
LINE
  5
8E9
330
1F
100
AcDbEntity
  8
0
 62
     0
100
AcDbLine
 10
172.4742688129898
 20
278.6940489152416
 30
0.0
 11
172.4742688129898
 21
281.3940489152423
 31
0.0
  0
LINE
  5
8EA
330
1F
100
AcDbEntity
  8
0
 62
     0
100
AcDbLine
 10
174.0742688129902
 20
281.3940489152423
 30
0.0
 11
172.4742688129898
 21
281.3940489152423
 31
0.0
  0
LINE
  5
8EB
330
1F
100
AcDbEntity
  8
0
 62
     0
100
AcDbLine
 10
174.0742688129902
 20
278.6940489152416
 30
0.0
 11
172.4742688129898
 21
278.6940489152416
 31
0.0
  0
LINE
  5
8EC
330
1F
100
AcDbEntity
  8
外枠
 62
     0
100
AcDbLine
 10
172.7743431255365
 20
279.3940489152405
 30
0.0
 11
173.8743431255387
 21
279.3940489152405
 31
0.0
  0
LINE
  5
8ED
330
1F
100
AcDbEntity
  8
外枠
 62
     0
100
AcDbLine
 10
172.7743431255365
 20
280.6940489152398
 30
0.0
 11
173.8743431255387
 21
280.6940489152398
 31
0.0
  0
LINE
  5
8EE
330
1F
100
AcDbEntity
  8
外枠
 62
     0
100
AcDbLine
 10
172.7743431255365
 20
280.6940489152398
 30
0.0
 11
173.8743431255387
 21
280.6940489152398
 31
0.0
  0
LINE
  5
8EF
330
1F
100
AcDbEntity
  8
外枠
 62
     0
100
AcDbLine
 10
172.7743431255365
 20
279.3940489152405
 30
0.0
 11
173.8743431255387
 21
279.3940489152405
 31
0.0
  0
LINE
  5
8F0
330
1F
100
AcDbEntity
  8
外枠
 62
     0
100
AcDbLine
 10
172.7743431255365
 20
279.3940489152423
 30
0.0
 11
172.7743431255365
 21
280.6940489152416
 31
0.0
  0
LINE
  5
8F1
330
1F
100
AcDbEntity
  8
外枠
 62
     0
100
AcDbLine
 10
172.7743431255365
 20
284.8940489152405
 30
0.0
 11
173.8743431255387
 21
284.8940489152405
 31
0.0
  0
LINE
  5
8F2
330
1F
100
AcDbEntity
  8
外枠
 62
     0
100
AcDbLine
 10
172.7743431255365
 20
286.1940489152398
 30
0.0
 11
173.8743431255387
 21
286.1940489152398
 31
0.0
  0
LINE
  5
8F3
330
1F
100
AcDbEntity
  8
外枠
 62
     0
100
AcDbLine
 10
172.7743431255365
 20
286.1940489152398
 30
0.0
 11
173.8743431255387
 21
286.1940489152398
 31
0.0
  0
LINE
  5
8F4
330
1F
100
AcDbEntity
  8
外枠
 62
     0
100
AcDbLine
 10
172.7743431255365
 20
284.8940489152405
 30
0.0
 11
173.8743431255387
 21
284.8940489152405
 31
0.0
  0
LINE
  5
8F5
330
1F
100
AcDbEntity
  8
外枠
 62
     0
100
AcDbLine
 10
172.7743431255365
 20
284.8940489152423
 30
0.0
 11
172.7743431255365
 21
286.1940489152416
 31
0.0
  0
LINE
  5
8F6
330
1F
100
AcDbEntity
  8
外枠
 62
     0
100
AcDbLine
 10
176.5743431255394
 20
284.8940489152405
 30
0.0
 11
175.4743431255373
 21
284.8940489152405
 31
0.0
  0
LINE
  5
8F7
330
1F
100
AcDbEntity
  8
外枠
 62
     0
100
AcDbLine
 10
176.5743431255394
 20
286.1940489152398
 30
0.0
 11
175.4743431255373
 21
286.1940489152398
 31
0.0
  0
LINE
  5
8F8
330
1F
100
AcDbEntity
  8
外枠
 62
     0
100
AcDbLine
 10
176.5743431255394
 20
286.1940489152398
 30
0.0
 11
175.4743431255373
 21
286.1940489152398
 31
0.0
  0
LINE
  5
8F9
330
1F
100
AcDbEntity
  8
外枠
 62
     0
100
AcDbLine
 10
176.5743431255394
 20
284.8940489152405
 30
0.0
 11
175.4743431255373
 21
284.8940489152405
 31
0.0
  0
LINE
  5
8FA
330
1F
100
AcDbEntity
  8
外枠
 62
     0
100
AcDbLine
 10
176.5743431255413
 20
284.8940489152423
 30
0.0
 11
176.5743431255394
 21
286.1940489152416
 31
0.0
  0
LINE
  5
8FB
330
1F
100
AcDbEntity
  8
0
 62
     0
100
AcDbLine
 10
173.8743431255387
 20
286.1940489152398
 30
0.0
 11
173.8743431255387
 21
284.8940489152405
 31
0.0
  0
LINE
  5
8FC
330
1F
100
AcDbEntity
  8
0
 62
     0
100
AcDbLine
 10
175.4743431255391
 20
286.1940489152398
 30
0.0
 11
175.4743431255391
 21
284.8940489152405
 31
0.0
  0
LINE
  5
8FD
330
1F
100
AcDbEntity
  8
0
 62
     0
100
AcDbLine
 10
173.8743431255387
 20
280.6940489152398
 30
0.0
 11
173.8743431255387
 21
279.3940489152405
 31
0.0
  0
LINE
  5
8FE
330
1F
100
AcDbEntity
  8
外枠
  6
BYBLOCK
100
AcDbLine
 10
156.0743431255394
 20
276.8114460392894
 30
0.0
 11
156.0743431255391
 21
291.7331374768469
 31
0.0
  0
LINE
  5
8FF
330
1F
100
AcDbEntity
  8
WORKLAYER
  6
CONTINUOUS
100
AcDbLine
 10
160.4743469255444
 20
260.6609476392927
 30
0.0
 11
160.4743469255444
 21
255.0309279392927
 31
0.0
  0
ARC
  5
900
330
1F
100
AcDbEntity
  8
0
  6
BYBLOCK
100
AcDbCircle
 10
168.4741349981982
 20
468.7181792989902
 30
0.0
 40
100.0
100
AcDbArc
 50
262.160173000003
 51
277.8398260000032
  0
ARC
  5
901
330
1F
100
AcDbEntity
  8
0
100
AcDbCircle
 10
181.9781519981984
 20
370.6435052989902
 30
0.0
 40
1.0
100
AcDbArc
 50
277.8398260000032
 51
359.117643
  0
ARC
  5
902
330
1F
100
AcDbEntity
  8
0
100
AcDbCircle
 10
154.9701179981984
 20
370.6435062989901
 30
0.0
 40
1.0
100
AcDbArc
 50
180.8823569999998
 51
262.160173000003
  0
POINT
  5
903
330
1F
100
AcDbEntity
  8
0
100
AcDbPoint
 10
153.9833959981986
 20
369.7736562989902
 30
0.0
  0
ARC
  5
904
330
1F
100
AcDbEntity
  8
0
  6
CONTINUOUS
100
AcDbCircle
 10
165.8002699953332
 20
365.676194813824
 30
0.0
 40
0.868871
100
AcDbArc
 50
213.4440001999776
 51
303.6632804999949
  0
LINE
  5
905
330
1F
100
AcDbEntity
  8
0
  6
CONTINUOUS
100
AcDbLine
 10
166.1367415953334
 20
364.807334613824
 30
0.0
 11
166.5242050255437
 21
365.1973950138233
 31
0.0
  0
ARC
  5
906
330
1F
100
AcDbEntity
  8
0
  6
CONTINUOUS
100
AcDbCircle
 10
163.6252668953346
 20
367.6978452138226
 30
0.0
 40
2.890501
100
AcDbArc
 50
269.9992981000255
 51
300.1085205000148
  0
LINE
  5
907
330
1F
100
AcDbEntity
  8
0
  6
CONTINUOUS
100
AcDbLine
 10
161.1137846953349
 20
364.807345113821
 30
0.0
 11
160.7242553255441
 21
365.1973445138229
 31
0.0
  0
ARC
  5
908
330
1F
100
AcDbEntity
  8
0
  6
CONTINUOUS
100
AcDbCircle
 10
161.4502714953333
 20
365.6761948138214
 30
0.0
 40
0.868876
100
AcDbArc
 50
236.3349991000114
 51
326.5544281000265
  0
ARC
  5
909
330
1F
100
AcDbEntity
  8
0
  6
CONTINUOUS
100
AcDbCircle
 10
163.6252668953346
 20
367.6978452138226
 30
0.0
 40
2.890501
100
AcDbArc
 50
239.8909988000474
 51
269.9996033000292
  0
LINE
  5
90A
330
1F
100
AcDbEntity
  8
0
  6
CONTINUOUS
100
AcDbLine
 10
166.3742078255367
 20
364.8073504138229
 30
0.0
 11
161.0741924121938
 21
364.8073504138452
 31
0.0
  0
LINE
  5
90B
330
1F
100
AcDbEntity
  8
0
  6
CONTINUOUS
100
AcDbLine
 10
167.6742027255366
 20
366.1073453138219
 30
0.0
 11
167.6742027255366
 21
368.7291296478649
 31
0.0
  0
LINE
  5
90C
330
1F
100
AcDbEntity
  8
0
  6
CONTINUOUS
100
AcDbLine
 10
159.7742056487384
 20
369.102963451706
 30
0.0
 11
159.7742056487388
 21
366.1073453138209
 31
0.0
  0
ARC
  5
90D
330
1F
100
AcDbEntity
  8
0
  6
CONTINUOUS
100
AcDbCircle
 10
166.3742078255367
 20
366.1073453138229
 30
0.0
 40
1.299994899999999
100
AcDbArc
 50
269.9995575000547
 51
0.0000000000325689
  0
ARC
  5
90E
330
1F
100
AcDbEntity
  8
0
  6
CONTINUOUS
100
AcDbCircle
 10
161.074200548538
 20
366.1073453138198
 30
0.0
 40
1.299994899999999
100
AcDbArc
 50
180.0010071000448
 51
269.9996413999908
  0
LINE
  5
90F
330
1F
100
AcDbEntity
  8
0
  6
CONTINUOUS
100
AcDbLine
 10
165.0752714953327
 20
368.7774223525793
 30
0.0
 11
165.0752714953337
 21
365.1973445138236
 31
0.0
  0
LINE
  5
910
330
1F
100
AcDbEntity
  8
0
  6
CONTINUOUS
100
AcDbLine
 10
166.5242050255437
 20
365.1973950138233
 30
0.0
 11
166.5242050255427
 21
368.7400982847981
 31
0.0
  0
LINE
  5
911
330
1F
100
AcDbEntity
  8
0
  6
CONTINUOUS
100
AcDbLine
 10
160.7242553255441
 20
365.1973445138229
 30
0.0
 11
160.7242553255431
 21
369.0159189006383
 31
0.0
  0
LINE
  5
912
330
1F
100
AcDbEntity
  8
0
  6
CONTINUOUS
100
AcDbLine
 10
162.1752699953335
 20
365.1973445138219
 30
0.0
 11
162.1752699953325
 21
368.9152887707708
 31
0.0
  0
LINE
  5
913
330
1F
100
AcDbEntity
  8
CLASS1
100
AcDbLine
 10
2.500000851282536
 20
298.3305584768467
 30
0.0
 11
2.500000851282536
 21
293.3292684768467
 31
0.0
  0
LINE
  5
914
330
1F
100
AcDbEntity
  8
CLASS1
100
AcDbLine
 10
68.12251785128232
 20
296.8525734768466
 30
0.0
 11
2.500000851282536
 21
298.3305584768467
 31
0.0
  0
LINE
  5
915
330
1F
100
AcDbEntity
  8
CLASS1
100
AcDbLine
 10
0.0000008512824223
 20
126.8290094768467
 30
0.0
 11
0.000000851282536
 21
305.3290094768467
 31
0.0
  0
LINE
  5
917
330
1F
100
AcDbEntity
  8
CLASS1
100
AcDbLine
 10
61.96772885128204
 20
141.7001074768466
 30
0.0
 11
2.523002851282328
 21
140.3324114768468
 31
0.0
  0
LINE
  5
918
330
1F
100
AcDbEntity
  8
CLASS1
100
AcDbLine
 10
68.12251785128221
 20
136.8085434768465
 30
0.0
 11
2.500000851282422
 21
135.3305584768465
 31
0.0
  0
LINE
  5
919
330
1F
100
AcDbEntity
  8
CLASS1
100
AcDbLine
 10
2.522721851282355
 20
293.3287514768468
 30
0.0
 11
61.96744885128241
 21
291.9777344768467
 31
0.0
  0
LINE
  5
91A
330
1F
100
AcDbEntity
  8
CLASS1
100
AcDbLine
 10
62.94472685128214
 20
142.6998424768467
 30
0.0
 11
62.94472685128225
 21
290.9779924768465
 31
0.0
  0
LINE
  5
91B
330
1F
100
AcDbEntity
  8
CLASS1
100
AcDbLine
 10
68.80000085128227
 20
294.3305584768466
 30
0.0
 11
68.80000085128215
 21
139.3305584768465
 31
0.0
  0
LINE
  5
91C
330
1F
100
AcDbEntity
  8
CLASS1
100
AcDbLine
 10
68.31567485128248
 20
294.3305584768466
 30
0.0
 11
68.31567485128236
 21
139.3305584768465
 31
0.0
  0
LINE
  5
91D
330
1F
100
AcDbEntity
  8
CLASS1
100
AcDbLine
 10
68.04452385128256
 20
295.8765994768466
 30
0.0
 11
68.04452385128245
 21
137.7845174768467
 31
0.0
  0
ARC
  5
91E
330
1F
100
AcDbEntity
  8
CLASS1
100
AcDbCircle
 10
68.1000008512821
 20
137.8082894768465
 30
0.0
 40
1.0
100
AcDbArc
 50
271.2902270000052
 51
0.0
  0
LINE
  5
91F
330
1F
100
AcDbEntity
  8
CLASS1
100
AcDbLine
 10
68.31567485128236
 20
139.3305584768465
 30
0.0
 11
69.10000085128233
 21
139.3305584768465
 31
0.0
  0
LINE
  5
920
330
1F
100
AcDbEntity
  8
CLASS1
100
AcDbLine
 10
69.10000085128233
 20
137.8082894768465
 30
0.0
 11
69.10000085128233
 21
139.3305584768465
 31
0.0
  0
ARC
  5
921
330
1F
100
AcDbEntity
  8
CLASS1
100
AcDbCircle
 10
67.04452385128222
 20
137.7845174768467
 30
0.0
 40
1.0
100
AcDbArc
 50
271.2902270000052
 51
0.0
  0
ARC
  5
922
330
1F
100
AcDbEntity
  8
CLASS1
100
AcDbCircle
 10
61.94472685128191
 20
142.6998424768467
 30
0.0
 40
1.0
100
AcDbArc
 50
271.318021000004
 51
0.0
  0
LINE
  5
923
330
1F
100
AcDbEntity
  8
0
100
AcDbLine
 10
69.30000085128203
 20
189.2544274768465
 30
0.0
 11
69.30000085128192
 21
186.2544274768465
 31
0.0
  0
LINE
  5
924
330
1F
100
AcDbEntity
  8
0
100
AcDbLine
 10
69.30000085128203
 20
189.2544274768465
 30
0.0
 11
68.31567485128225
 21
189.2544274768466
 31
0.0
  0
LINE
  5
925
330
1F
100
AcDbEntity
  8
0
100
AcDbLine
 10
69.30000085128192
 20
186.2544274768465
 30
0.0
 11
68.31567485128214
 21
186.2544274768466
 31
0.0
  0
LINE
  5
926
330
1F
100
AcDbEntity
  8
0
100
AcDbLine
 10
69.30000085128203
 20
230.4084154768468
 30
0.0
 11
69.30000085128203
 21
227.4084154768468
 31
0.0
  0
LINE
  5
927
330
1F
100
AcDbEntity
  8
0
100
AcDbLine
 10
69.30000085128203
 20
230.4084154768468
 30
0.0
 11
68.31567485128225
 21
230.4084154768469
 31
0.0
  0
LINE
  5
928
330
1F
100
AcDbEntity
  8
0
100
AcDbLine
 10
69.30000085128203
 20
227.4084154768468
 30
0.0
 11
68.31567485128225
 21
227.4084154768469
 31
0.0
  0
LINE
  5
929
330
1F
100
AcDbEntity
  8
CLASS1
100
AcDbLine
 10
68.31567485128248
 20
294.3305584768466
 30
0.0
 11
69.10000085128245
 21
294.3305584768466
 31
0.0
  0
LINE
  5
92A
330
1F
100
AcDbEntity
  8
CLASS1
100
AcDbLine
 10
69.10000085128245
 20
295.8528274768466
 30
0.0
 11
69.10000085128245
 21
294.3305584768466
 31
0.0
  0
ARC
  5
92B
330
1F
100
AcDbEntity
  8
CLASS1
100
AcDbCircle
 10
68.10000085128256
 20
295.8528274768466
 30
0.0
 40
1.0
100
AcDbArc
 50
0.0
 51
88.70977299999479
  0
ARC
  5
92C
330
1F
100
AcDbEntity
  8
CLASS1
100
AcDbCircle
 10
67.04452385128267
 20
295.8765994768466
 30
0.0
 40
1.0
100
AcDbArc
 50
0.0
 51
88.70977299999479
  0
ARC
  5
92D
330
1F
100
AcDbEntity
  8
CLASS1
100
AcDbCircle
 10
61.94472685128237
 20
290.9779924768465
 30
0.0
 40
1.0
100
AcDbArc
 50
0.0
 51
88.69804600000646
  0
LINE
  5
92E
330
1F
100
AcDbEntity
  8
CLASS1
100
AcDbLine
 10
1.500000851282422
 20
141.3321464768466
 30
0.0
 11
1.500000851282536
 21
292.3290094768468
 31
0.0
  0
LINE
  5
92F
330
1F
100
AcDbEntity
  8
0
100
AcDbLine
 10
2.500000851282422
 20
135.3305584768465
 30
0.0
 11
2.500000851282422
 21
126.8290094768467
 31
0.0
  0
LINE
  5
930
330
1F
100
AcDbEntity
  8
CLASS1
100
AcDbLine
 10
2.500000851282422
 20
126.8290094768467
 30
0.0
 11
0.0000008512824223
 21
126.8290094768467
 31
0.0
  0
ARC
  5
931
330
1F
100
AcDbEntity
  8
CLASS1
100
AcDbCircle
 10
2.500000851282194
 20
141.3321464768466
 30
0.0
 40
1.0
100
AcDbArc
 50
180.0
 51
271.318021000004
  0
LINE
  5
932
330
1F
100
AcDbEntity
  8
CLASS1
100
AcDbLine
 10
2.500000851282422
 20
135.3305584768465
 30
0.0
 11
2.500000851282422
 21
140.3318824768466
 31
0.0
  0
ARC
  5
933
330
1F
100
AcDbEntity
  8
CLASS1
100
AcDbCircle
 10
2.500000851282649
 20
292.3290094768467
 30
0.0
 40
1.0
100
AcDbArc
 50
88.69804699999894
 51
180.0
  0
LINE
  5
934
330
1F
100
AcDbEntity
  8
CLASS1
100
AcDbLine
 10
2.500000851282536
 20
305.3290094768467
 30
0.0
 11
0.000000851282536
 21
305.3290094768467
 31
0.0
  0
LINE
  5
935
330
1F
100
AcDbEntity
  8
0
100
AcDbLine
 10
2.500000851282536
 20
305.3290094768467
 30
0.0
 11
2.500000851282536
 21
298.3305584768467
 31
0.0
  0
LINE
  5
936
330
1F
100
AcDbEntity
  8
CLASS1
100
AcDbLine
 10
334.4485653997955
 20
133.8274604768469
 30
0.0
 11
334.4485653997955
 21
138.8287504768468
 31
0.0
  0
LINE
  5
937
330
1F
100
AcDbEntity
  8
CLASS1
100
AcDbLine
 10
268.8260483997957
 20
135.305445476847
 30
0.0
 11
334.4485653997955
 21
133.8274604768469
 31
0.0
  0
LINE
  5
938
330
1F
100
AcDbEntity
  8
CLASS1
100
AcDbLine
 10
336.9485653997957
 20
305.3290094768467
 30
0.0
 11
336.9485653997955
 21
126.8290094768467
 31
0.0
  0
LINE
  5
939
330
1F
100
AcDbEntity
  8
CLASS1
100
AcDbLine
 10
288.9255636574192
 20
266.4990094768467
 30
0.0
 11
335.4485653997957
 21
267.5790094768468
 31
0.0
  0
LINE
  5
93A
330
1F
100
AcDbEntity
  8
CLASS1
100
AcDbLine
 10
289.4255633997955
 20
266.2701184768469
 30
0.0
 11
335.4485653997957
 21
267.3290094768468
 31
0.0
  0
LINE
  5
941
330
1F
100
AcDbEntity
  8
CLASS1
100
AcDbLine
 10
274.980837399796
 20
290.457911476847
 30
0.0
 11
334.4255633997958
 21
291.8256074768468
 31
0.0
  0
LINE
  5
942
330
1F
100
AcDbEntity
  8
CLASS1
100
AcDbLine
 10
268.8260483997959
 20
295.349475476847
 30
0.0
 11
334.4485653997957
 21
296.827460476847
 31
0.0
  0
LINE
  5
943
330
1F
100
AcDbEntity
  8
CLASS1
100
AcDbLine
 10
288.7375461371954
 20
164.1590094768467
 30
0.0
 11
335.4485653997955
 21
163.0790094768467
 31
0.0
  0
LINE
  5
944
330
1F
100
AcDbEntity
  8
CLASS1
100
AcDbLine
 10
289.4255633997953
 20
164.3879004768469
 30
0.0
 11
335.4485653997955
 21
163.3290094768467
 31
0.0
  0
LINE
  5
945
330
1F
100
AcDbEntity
  8
CLASS1
100
AcDbLine
 10
334.4258443997957
 20
138.8292674768467
 30
0.0
 11
274.9811173997956
 21
140.1802844768467
 31
0.0
  0
LINE
  5
946
330
1F
100
AcDbEntity
  8
CLASS1
100
AcDbLine
 10
287.9485653997956
 20
265.501665807195
 30
0.0
 11
287.9485653997955
 21
165.141436003979
 31
0.0
  0
LINE
  5
947
330
1F
100
AcDbEntity
  8
CLASS1
100
AcDbLine
 10
288.4485653997955
 20
165.3876354768468
 30
0.0
 11
288.4485653997957
 21
265.2703834768468
 31
0.0
  0
LINE
  5
948
330
1F
100
AcDbEntity
  8
CLASS1
100
AcDbLine
 10
274.0038393997959
 20
289.4581764768469
 30
0.0
 11
274.0038393997958
 21
141.1800264768469
 31
0.0
  0
LINE
  5
949
330
1F
100
AcDbEntity
  8
CLASS1
100
AcDbLine
 10
268.1485653997958
 20
137.827460476847
 30
0.0
 11
268.1485653997959
 21
292.827460476847
 31
0.0
  0
LINE
  5
94A
330
1F
100
AcDbEntity
  8
CLASS1
100
AcDbLine
 10
268.6328913997956
 20
137.827460476847
 30
0.0
 11
268.6328913997957
 21
292.827460476847
 31
0.0
  0
LINE
  5
94B
330
1F
100
AcDbEntity
  8
CLASS1
100
AcDbLine
 10
268.9040423997955
 20
136.2814194768469
 30
0.0
 11
268.9040423997957
 21
294.3735014768468
 31
0.0
  0
ARC
  5
94C
330
1F
100
AcDbEntity
  8
CLASS1
100
AcDbCircle
 10
268.8485653997959
 20
294.349729476847
 30
0.0
 40
1.0
100
AcDbArc
 50
91.29022700000518
 51
180.0
  0
LINE
  5
94D
330
1F
100
AcDbEntity
  8
CLASS1
100
AcDbLine
 10
268.6328913997957
 20
292.827460476847
 30
0.0
 11
267.8485653997958
 21
292.827460476847
 31
0.0
  0
LINE
  5
94E
330
1F
100
AcDbEntity
  8
CLASS1
100
AcDbLine
 10
267.8485653997958
 20
294.349729476847
 30
0.0
 11
267.8485653997958
 21
292.827460476847
 31
0.0
  0
ARC
  5
94F
330
1F
100
AcDbEntity
  8
CLASS1
100
AcDbCircle
 10
269.9040423997958
 20
294.3735014768468
 30
0.0
 40
1.0
100
AcDbArc
 50
91.29022700000518
 51
180.0
  0
ARC
  5
950
330
1F
100
AcDbEntity
  8
CLASS1
100
AcDbCircle
 10
275.0038393997962
 20
289.4581764768469
 30
0.0
 40
1.0
100
AcDbArc
 50
91.31802100000404
 51
180.0
  0
ARC
  5
951
330
1F
100
AcDbEntity
  8
CLASS1
100
AcDbCircle
 10
288.9485625393863
 20
265.4992739855205
 30
0.0
 40
1.0
100
AcDbArc
 50
91.31801900000615
 51
180.0
  0
ARC
  5
952
330
1F
100
AcDbEntity
  8
CLASS1
100
AcDbCircle
 10
289.4485653997958
 20
265.2703834768471
 30
0.0
 40
1.0
100
AcDbArc
 50
91.31801899999311
 51
180.0
  0
LINE
  5
953
330
1F
100
AcDbEntity
  8
0
100
AcDbLine
 10
267.6485653997959
 20
227.4071244768471
 30
0.0
 11
267.648565399796
 21
230.4071244768471
 31
0.0
  0
LINE
  5
954
330
1F
100
AcDbEntity
  8
0
100
AcDbLine
 10
267.6485653997959
 20
227.4071244768471
 30
0.0
 11
268.6328913997957
 21
227.407124476847
 31
0.0
  0
LINE
  5
955
330
1F
100
AcDbEntity
  8
0
100
AcDbLine
 10
267.648565399796
 20
230.4071244768471
 30
0.0
 11
268.6328913997958
 21
230.4071244768469
 31
0.0
  0
LINE
  5
956
330
1F
100
AcDbEntity
  8
0
100
AcDbLine
 10
267.6485653997959
 20
186.2531364768468
 30
0.0
 11
267.6485653997959
 21
189.2531364768468
 31
0.0
  0
LINE
  5
957
330
1F
100
AcDbEntity
  8
0
100
AcDbLine
 10
267.6485653997959
 20
186.2531364768468
 30
0.0
 11
268.6328913997957
 21
186.2531364768467
 31
0.0
  0
LINE
  5
958
330
1F
100
AcDbEntity
  8
0
100
AcDbLine
 10
267.6485653997959
 20
189.2531364768468
 30
0.0
 11
268.6328913997957
 21
189.2531364768467
 31
0.0
  0
LINE
  5
959
330
1F
100
AcDbEntity
  8
CLASS1
100
AcDbLine
 10
268.6328913997956
 20
137.827460476847
 30
0.0
 11
267.8485653997956
 21
137.827460476847
 31
0.0
  0
LINE
  5
95A
330
1F
100
AcDbEntity
  8
CLASS1
100
AcDbLine
 10
267.8485653997956
 20
136.3051914768469
 30
0.0
 11
267.8485653997956
 21
137.827460476847
 31
0.0
  0
ARC
  5
95B
330
1F
100
AcDbEntity
  8
CLASS1
100
AcDbCircle
 10
268.8485653997955
 20
136.3051914768469
 30
0.0
 40
1.0
100
AcDbArc
 50
180.0
 51
268.7097729999947
  0
ARC
  5
95C
330
1F
100
AcDbEntity
  8
CLASS1
100
AcDbCircle
 10
269.9040423997954
 20
136.2814194768469
 30
0.0
 40
1.0
100
AcDbArc
 50
180.0
 51
268.7097729999947
  0
ARC
  5
977
330
1F
100
AcDbEntity
  8
CLASS1
100
AcDbCircle
 10
288.9483340916168
 20
165.1363180610495
 30
0.0
 40
0.9997817914353083
100
AcDbArc
 50
179.706698188669
 51
257.8287710900051
  0
ARC
  5
978
330
1F
100
AcDbEntity
  8
CLASS1
100
AcDbCircle
 10
289.4485653997954
 20
165.387635476847
 30
0.0
 40
1.0
100
AcDbArc
 50
180.0
 51
268.6819809999938
  0
ARC
  5
979
330
1F
100
AcDbEntity
  8
CLASS1
100
AcDbCircle
 10
275.0038393997957
 20
141.180026476847
 30
0.0
 40
1.0
100
AcDbArc
 50
180.0
 51
268.6980460000064
  0
LINE
  5
97A
330
1F
100
AcDbEntity
  8
CLASS1
100
AcDbLine
 10
335.4485653997957
 20
290.8258724768469
 30
0.0
 11
335.4485653997955
 21
139.8290094768467
 31
0.0
  0
LINE
  5
97B
330
1F
100
AcDbEntity
  8
CLASS1
100
AcDbLine
 10
335.4485653997955
 20
163.3290094768467
 30
0.0
 11
335.4485653997957
 21
267.3290094768468
 31
0.0
  0
LINE
  5
97C
330
1F
100
AcDbEntity
  8
CLASS1
100
AcDbLine
 10
335.4485653997955
 20
152.3260984768467
 30
0.0
 11
335.4485653997957
 21
278.3319204768468
 31
0.0
  0
LINE
  5
97D
330
1F
100
AcDbEntity
  8
0
100
AcDbLine
 10
334.4485653997957
 20
296.827460476847
 30
0.0
 11
334.4485653997957
 21
305.3290094768467
 31
0.0
  0
LINE
  5
97E
330
1F
100
AcDbEntity
  8
CLASS1
100
AcDbLine
 10
334.4485653997957
 20
305.3290094768467
 30
0.0
 11
336.9485653997957
 21
305.3290094768467
 31
0.0
  0
ARC
  5
97F
330
1F
100
AcDbEntity
  8
CLASS1
100
AcDbCircle
 10
334.4485653997958
 20
290.8258724768468
 30
0.0
 40
1.0
100
AcDbArc
 50
0.0
 51
91.31802100000404
  0
LINE
  5
980
330
1F
100
AcDbEntity
  8
CLASS1
100
AcDbLine
 10
325.9485653997957
 20
269.8290094768468
 30
0.0
 11
325.9485653997957
 21
275.8290094768468
 31
0.0
  0
LINE
  5
981
330
1F
100
AcDbEntity
  8
CLASS1
100
AcDbLine
 10
329.4485653997957
 20
269.8290094768468
 30
0.0
 11
329.4485653997957
 21
275.8290094768468
 31
0.0
  0
LINE
  5
982
330
1F
100
AcDbEntity
  8
CLASS1
100
AcDbLine
 10
326.9381713997955
 20
275.3290094768468
 30
0.0
 11
326.9381713997955
 21
270.3290094768468
 31
0.0
  0
LINE
  5
983
330
1F
100
AcDbEntity
  8
CLASS1
100
AcDbLine
 10
328.9485653997957
 20
275.3290094768468
 30
0.0
 11
328.9485653997957
 21
270.3290094768468
 31
0.0
  0
LINE
  5
984
330
1F
100
AcDbEntity
  8
CLASS1
100
AcDbLine
 10
329.4485653997957
 20
275.3290094768468
 30
0.0
 11
329.4485653997957
 21
270.3290094768468
 31
0.0
  0
LINE
  5
985
330
1F
100
AcDbEntity
  8
CLASS1
100
AcDbLine
 10
334.4485653997957
 20
296.827460476847
 30
0.0
 11
334.4485653997957
 21
291.8261364768469
 31
0.0
  0
LINE
  5
986
330
1F
100
AcDbEntity
  8
CLASS1
100
AcDbLine
 10
325.9485653997957
 20
275.8290094768468
 30
0.0
 11
329.4485653997957
 21
275.8290094768468
 31
0.0
  0
LINE
  5
987
330
1F
100
AcDbEntity
  8
CLASS1
100
AcDbLine
 10
329.4485653997957
 20
275.3290094768468
 30
0.0
 11
326.9381713997955
 21
275.3290094768468
 31
0.0
  0
LINE
  5
988
330
1F
100
AcDbEntity
  8
CLASS1
100
AcDbLine
 10
325.9485653997957
 20
269.8290094768468
 30
0.0
 11
329.4485653997957
 21
269.8290094768468
 31
0.0
  0
LINE
  5
989
330
1F
100
AcDbEntity
  8
CLASS1
100
AcDbLine
 10
326.9381713997955
 20
270.3290094768468
 30
0.0
 11
329.4485653997957
 21
270.3290094768468
 31
0.0
  0
ARC
  5
998
330
1F
100
AcDbEntity
  8
CLASS1
100
AcDbCircle
 10
334.4485653997955
 20
139.8290094768468
 30
0.0
 40
1.0
100
AcDbArc
 50
268.6980469999989
 51
0.0
  0
LINE
  5
999
330
1F
100
AcDbEntity
  8
CLASS1
100
AcDbLine
 10
325.9485653997955
 20
160.8290094768467
 30
0.0
 11
325.9485653997955
 21
154.8290094768467
 31
0.0
  0
LINE
  5
99A
330
1F
100
AcDbEntity
  8
CLASS1
100
AcDbLine
 10
326.9381713997954
 20
155.3290094768467
 30
0.0
 11
326.9381713997954
 21
160.3290094768467
 31
0.0
  0
LINE
  5
99B
330
1F
100
AcDbEntity
  8
CLASS1
100
AcDbLine
 10
328.9485653997955
 20
155.3290094768467
 30
0.0
 11
328.9485653997955
 21
160.3290094768467
 31
0.0
  0
LINE
  5
99C
330
1F
100
AcDbEntity
  8
CLASS1
100
AcDbLine
 10
329.4485653997955
 20
160.8290094768467
 30
0.0
 11
329.4485653997955
 21
154.8290094768467
 31
0.0
  0
LINE
  5
99D
330
1F
100
AcDbEntity
  8
CLASS1
100
AcDbLine
 10
329.4485653997955
 20
155.3290094768467
 30
0.0
 11
329.4485653997955
 21
160.3290094768467
 31
0.0
  0
LINE
  5
99E
330
1F
100
AcDbEntity
  8
CLASS1
100
AcDbLine
 10
325.9485653997955
 20
154.8290094768467
 30
0.0
 11
329.4485653997955
 21
154.8290094768467
 31
0.0
  0
LINE
  5
99F
330
1F
100
AcDbEntity
  8
CLASS1
100
AcDbLine
 10
325.9485653997955
 20
160.8290094768467
 30
0.0
 11
329.4485653997955
 21
160.8290094768467
 31
0.0
  0
LINE
  5
9A0
330
1F
100
AcDbEntity
  8
CLASS1
100
AcDbLine
 10
326.9381713997954
 20
160.3290094768467
 30
0.0
 11
329.4485653997955
 21
160.3290094768467
 31
0.0
  0
LINE
  5
9A1
330
1F
100
AcDbEntity
  8
CLASS1
100
AcDbLine
 10
329.4485653997955
 20
155.3290094768467
 30
0.0
 11
326.9381713997954
 21
155.3290094768467
 31
0.0
  0
LINE
  5
9A2
330
1F
100
AcDbEntity
  8
CLASS1
100
AcDbLine
 10
334.4485653997955
 20
126.8290094768467
 30
0.0
 11
336.9485653997955
 21
126.8290094768467
 31
0.0
  0
LINE
  5
9A3
330
1F
100
AcDbEntity
  8
0
100
AcDbLine
 10
334.4485653997955
 20
126.8290094768467
 30
0.0
 11
334.4485653997955
 21
133.8274604768469
 31
0.0
  0
LINE
  5
9A4
330
1F
100
AcDbEntity
  8
外枠
  6
BYBLOCK
100
AcDbLine
 10
262.9485653997959
 20
252.5219770404333
 30
0.0
 11
262.9485653997959
 21
268.8219199381498
 31
0.0
  0
LINE
  5
9A5
330
1F
100
AcDbEntity
  8
外枠
  6
BYBLOCK
100
AcDbLine
 10
268.1485653997959
 20
275.6784275381501
 30
0.0
 11
262.9485653997959
 21
275.6784275381501
 31
0.0
  0
LINE
  5
9A6
330
1F
100
AcDbEntity
  8
外枠
  6
BYBLOCK
100
AcDbLine
 10
268.1485653997959
 20
274.422703588149
 30
0.0
 11
262.9485653997959
 21
274.422703588149
 31
0.0
  0
LINE
  5
9A7
330
1F
100
AcDbEntity
  8
外枠
  6
BYBLOCK
100
AcDbLine
 10
268.1485653997959
 20
271.911158388149
 30
0.0
 11
262.9485653997959
 21
271.911158388149
 31
0.0
  0
LINE
  5
9A8
330
1F
100
AcDbEntity
  8
外枠
  6
BYBLOCK
100
AcDbLine
 10
268.1485653997959
 20
270.6554077381492
 30
0.0
 11
262.9485348997947
 21
270.6554077381492
 31
0.0
  0
LINE
  5
9A9
330
1F
100
AcDbEntity
  8
外枠
  6
BYBLOCK
100
AcDbLine
 10
268.1485653997959
 20
268.8219199381498
 30
0.0
 11
262.9485653997959
 21
268.8219199381498
 31
0.0
  0
LINE
  5
9AA
330
1F
100
AcDbEntity
  8
外枠
  6
BYBLOCK
100
AcDbLine
 10
268.1485653997959
 20
252.5219770404333
 30
0.0
 11
262.9485653997959
 21
252.5219770404333
 31
0.0
  0
LINE
  5
9AB
330
1F
100
AcDbEntity
  8
外枠
  6
BYBLOCK
100
AcDbLine
 10
268.1485653997959
 20
250.6889491381493
 30
0.0
 11
262.9485653997959
 21
250.6889491381493
 31
0.0
  0
LINE
  5
9AC
330
1F
100
AcDbEntity
  8
外枠
  6
BYBLOCK
100
AcDbLine
 10
268.1485653997959
 20
249.4332251881483
 30
0.0
 11
262.9485653997959
 21
249.4332251881483
 31
0.0
  0
LINE
  5
9AD
330
1F
100
AcDbEntity
  8
外枠
  6
BYBLOCK
100
AcDbLine
 10
268.1485653997959
 20
246.9216799881483
 30
0.0
 11
262.9485653997959
 21
246.9216799881483
 31
0.0
  0
LINE
  5
9AE
330
1F
100
AcDbEntity
  8
外枠
  6
BYBLOCK
100
AcDbLine
 10
268.1485653997959
 20
245.6659293381485
 30
0.0
 11
262.9485348997947
 21
245.6659293381485
 31
0.0
  0
LINE
  5
9AF
330
1F
100
AcDbEntity
  8
外枠
  6
BYBLOCK
100
AcDbLine
 10
262.9485653997959
 20
270.6554077381492
 30
0.0
 11
262.9485653997959
 21
275.6784275381501
 31
0.0
  0
LINE
  5
9B0
330
1F
100
AcDbEntity
  8
外枠
  6
BYBLOCK
100
AcDbLine
 10
262.9485653997959
 20
245.6659293381485
 30
0.0
 11
262.9485653997959
 21
250.6889491381493
 31
0.0
  0
LINE
  5
9B2
330
1F
100
AcDbEntity
  8
外枠
  6
BYBLOCK
100
AcDbLine
 10
74.00000085128219
 20
268.8223798358653
 30
0.0
 11
74.00000085128219
 21
252.5224369381488
 31
0.0
  0
LINE
  5
9B3
330
1F
100
AcDbEntity
  8
外枠
  6
BYBLOCK
100
AcDbLine
 10
68.80000085128215
 20
245.6659293381485
 30
0.0
 11
74.00000085128219
 21
245.6659293381485
 31
0.0
  0
LINE
  5
9B4
330
1F
100
AcDbEntity
  8
外枠
  6
BYBLOCK
100
AcDbLine
 10
68.80000085128215
 20
246.9216532881496
 30
0.0
 11
74.00000085128219
 21
246.9216532881496
 31
0.0
  0
LINE
  5
9B5
330
1F
100
AcDbEntity
  8
外枠
  6
BYBLOCK
100
AcDbLine
 10
68.80000085128215
 20
249.4331984881496
 30
0.0
 11
74.00000085128219
 21
249.4331984881496
 31
0.0
  0
LINE
  5
9B6
330
1F
100
AcDbEntity
  8
外枠
  6
BYBLOCK
100
AcDbLine
 10
68.80000085128215
 20
250.6889491381493
 30
0.0
 11
74.00003135128343
 21
250.6889491381493
 31
0.0
  0
LINE
  5
9B7
330
1F
100
AcDbEntity
  8
外枠
  6
BYBLOCK
100
AcDbLine
 10
68.80000085128215
 20
252.5224369381488
 30
0.0
 11
74.00000085128219
 21
252.5224369381488
 31
0.0
  0
LINE
  5
9B8
330
1F
100
AcDbEntity
  8
外枠
  6
BYBLOCK
100
AcDbLine
 10
68.80000085128215
 20
268.8223798358653
 30
0.0
 11
74.00000085128219
 21
268.8223798358653
 31
0.0
  0
LINE
  5
9B9
330
1F
100
AcDbEntity
  8
外枠
  6
BYBLOCK
100
AcDbLine
 10
68.80000085128215
 20
270.6554077381492
 30
0.0
 11
74.00000085128219
 21
270.6554077381492
 31
0.0
  0
LINE
  5
9BA
330
1F
100
AcDbEntity
  8
外枠
  6
BYBLOCK
100
AcDbLine
 10
68.80000085128227
 20
271.9111316881503
 30
0.0
 11
74.00000085128219
 21
271.9111316881503
 31
0.0
  0
LINE
  5
9BB
330
1F
100
AcDbEntity
  8
外枠
  6
BYBLOCK
100
AcDbLine
 10
68.80000085128227
 20
274.4226768881503
 30
0.0
 11
74.00000085128219
 21
274.4226768881503
 31
0.0
  0
LINE
  5
9BC
330
1F
100
AcDbEntity
  8
外枠
  6
BYBLOCK
100
AcDbLine
 10
68.80000085128227
 20
275.6784275381501
 30
0.0
 11
74.00003135128343
 21
275.6784275381501
 31
0.0
  0
LINE
  5
9BD
330
1F
100
AcDbEntity
  8
外枠
  6
BYBLOCK
100
AcDbLine
 10
74.00000085128219
 20
250.6889491381493
 30
0.0
 11
74.00000085128219
 21
245.6659293381485
 31
0.0
  0
LINE
  5
9BE
330
1F
100
AcDbEntity
  8
外枠
  6
BYBLOCK
100
AcDbLine
 10
74.00000085128219
 20
275.6784275381501
 30
0.0
 11
74.00000085128219
 21
270.6554077381492
 31
0.0
  0
ARC
  5
9C3
330
1F
100
AcDbEntity
  8
0
  6
CONTINUOUS
100
AcDbCircle
 10
165.8002781318784
 20
73.13115429908441
 30
0.0
 40
0.868871
100
AcDbArc
 50
56.33671950000503
 51
146.5559998000223
  0
LINE
  5
9C4
330
1F
100
AcDbEntity
  8
0
  6
CONTINUOUS
100
AcDbLine
 10
166.1367497318785
 20
74.00001449908427
 30
0.0
 11
166.5242131620888
 21
73.60995409908503
 31
0.0
  0
ARC
  5
9C5
330
1F
100
AcDbEntity
  8
0
  6
CONTINUOUS
100
AcDbCircle
 10
163.6252750318797
 20
71.10950389908578
 30
0.0
 40
2.890501
100
AcDbArc
 50
59.8914794999852
 51
90.00070189997444
  0
LINE
  5
9C6
330
1F
100
AcDbEntity
  8
0
  6
CONTINUOUS
100
AcDbLine
 10
161.11379283188
 20
74.00000399908731
 30
0.0
 11
160.7242634620892
 21
73.61000459908542
 31
0.0
  0
ARC
  5
9C7
330
1F
100
AcDbEntity
  8
0
  6
CONTINUOUS
100
AcDbCircle
 10
161.4502796318785
 20
73.13115429908703
 30
0.0
 40
0.868876
100
AcDbArc
 50
33.4455718999734
 51
123.6650008999885
  0
ARC
  5
9C8
330
1F
100
AcDbEntity
  8
0
  6
CONTINUOUS
100
AcDbCircle
 10
163.6252750318797
 20
71.10950389908578
 30
0.0
 40
2.890501
100
AcDbArc
 50
90.00039669997079
 51
120.1090011999512
  0
LINE
  5
9C9
330
1F
100
AcDbEntity
  8
0
  6
CONTINUOUS
100
AcDbLine
 10
166.3742159620817
 20
73.99999869908538
 30
0.0
 11
161.074200548739
 21
73.99999869906309
 31
0.0
  0
LINE
  5
9CA
330
1F
100
AcDbEntity
  8
0
  6
CONTINUOUS
100
AcDbLine
 10
167.6742108620818
 20
72.70000379908641
 30
0.0
 11
167.6742108620818
 21
70.07821946504339
 31
0.0
  0
LINE
  5
9CB
330
1F
100
AcDbEntity
  8
0
  6
CONTINUOUS
100
AcDbLine
 10
159.7742137852835
 20
69.70438566120231
 30
0.0
 11
159.7742137852839
 21
72.70000379908743
 31
0.0
  0
ARC
  5
9CC
330
1F
100
AcDbEntity
  8
0
  6
CONTINUOUS
100
AcDbCircle
 10
166.3742159620818
 20
72.70000379908549
 30
0.0
 40
1.299994899999999
100
AcDbArc
 50
359.9999999999674
 51
90.00044249994518
  0
ARC
  5
9CD
330
1F
100
AcDbEntity
  8
0
  6
CONTINUOUS
100
AcDbCircle
 10
161.0742086850831
 20
72.70000379908868
 30
0.0
 40
1.299994899999999
100
AcDbArc
 50
90.00035860000917
 51
179.9989928999551
  0
LINE
  5
9CE
330
1F
100
AcDbEntity
  8
0
  6
CONTINUOUS
100
AcDbLine
 10
165.0752796318778
 20
70.02992676032897
 30
0.0
 11
165.0752796318788
 21
73.61000459908473
 31
0.0
  0
LINE
  5
9CF
330
1F
100
AcDbEntity
  8
0
  6
CONTINUOUS
100
AcDbLine
 10
166.5242131620888
 20
73.60995409908503
 30
0.0
 11
166.5242131620878
 21
70.06725082811022
 31
0.0
  0
LINE
  5
9D0
330
1F
100
AcDbEntity
  8
0
  6
CONTINUOUS
100
AcDbLine
 10
160.7242634620892
 20
73.61000459908542
 30
0.0
 11
160.7242634620882
 21
69.79143021227002
 31
0.0
  0
LINE
  5
9D1
330
1F
100
AcDbEntity
  8
0
  6
CONTINUOUS
100
AcDbLine
 10
162.1752781318786
 20
73.61000459908644
 30
0.0
 11
162.1752781318776
 21
69.89206034213748
 31
0.0
  0
ARC
  5
9D2
330
1F
100
AcDbEntity
  8
0
100
AcDbCircle
 10
168.4741341255392
 20
-29.90000130093221
 30
0.0
 40
100.0
100
AcDbArc
 50
82.16017300000391
 51
97.83982600000406
  0
ARC
  5
9D3
330
1F
100
AcDbEntity
  8
0
100
AcDbCircle
 10
154.970117125539
 20
68.17467269906774
 30
0.0
 40
1.0
100
AcDbArc
 50
97.83982600000406
 51
179.1176430000001
  0
ARC
  5
9D4
330
1F
100
AcDbEntity
  8
0
100
AcDbCircle
 10
181.978151125539
 20
68.17467169906786
 30
0.0
 40
1.0
100
AcDbArc
 50
0.8823569999998676
 51
82.16017300000391
  0
LINE
  5
9D5
330
1F
100
AcDbEntity
  8
外枠
  6
BYBLOCK
100
AcDbLine
 10
169.2951781255391
 20
70.59999869906778
 30
0.0
 11
171.2601001255391
 21
70.59999869906778
 31
0.0
  0
LINE
  5
9D6
330
1F
100
AcDbEntity
  8
外枠
  6
BYBLOCK
100
AcDbLine
 10
169.2951781255391
 20
70.59999869906778
 30
0.0
 11
169.2951781255391
 21
70.09662807601262
 31
0.0
  0
LINE
  5
9D7
330
1F
100
AcDbEntity
  8
外枠
  6
BYBLOCK
100
AcDbLine
 10
171.2601001255391
 20
70.59999869906778
 30
0.0
 11
171.2601001255391
 21
70.03614417837571
 31
0.0
  0
LINE
  5
9D8
330
1F
100
AcDbEntity
  8
外枠
  6
BYBLOCK
100
AcDbLine
 10
169.2951781255391
 20
368.2181792989902
 30
0.0
 11
171.2601001255391
 21
368.2181792989902
 31
0.0
  0
LINE
  5
9D9
330
1F
100
AcDbEntity
  8
外枠
  6
BYBLOCK
100
AcDbLine
 10
169.2951781255391
 20
368.2181792989902
 30
0.0
 11
169.2951781255391
 21
368.7215499148802
 31
0.0
  0
LINE
  5
9DA
330
1F
100
AcDbEntity
  8
外枠
  6
BYBLOCK
100
AcDbLine
 10
171.2601001255391
 20
368.2181792989902
 30
0.0
 11
171.2601001255391
 21
368.7569948406753
 31
0.0
  0
INSERT
  5
9DB
330
1F
100
AcDbEntity
  8
外枠
  6
BYBLOCK
100
AcDbBlockReference
  2
A$C627E4F0D
 10
156.2672363443524
 20
138.1221616956603
 30
0.0
 50
90.0
  0
ENDSEC
  0
SECTION
  2
OBJECTS
  0
DICTIONARY
  5
C
330
0
100
AcDbDictionary
  3
ACAD_GROUP
350
D
  3
ACAD_LAYOUT
350
1A
  3
ACAD_MLINESTYLE
350
17
  3
ACAD_PLOTSETTINGS
350
19
  3
ACAD_PLOTSTYLENAME
350
E
  3
ACDBHEADERROUNDTRIPXREC
350
A62
  3
ACDBVARIABLEDICTIONARY
350
A5E
  0
DICTIONARY
  5
22C
330
2
100
AcDbDictionary
280
     1
  3
ACAD_LAYERSTATES
360
22D
  0
DICTIONARY
  5
A84
330
1F
100
AcDbDictionary
280
     1
  3
ACAD_LAYOUTSELFREF
360
A85
  0
DICTIONARY
  5
A82
330
1B
100
AcDbDictionary
280
     1
  3
ACAD_LAYOUTSELFREF
360
A83
  0
DICTIONARY
  5
D
102
{ACAD_REACTORS
330
C
102
}
330
C
100
AcDbDictionary
  0
DICTIONARY
  5
1A
102
{ACAD_REACTORS
330
C
102
}
330
C
100
AcDbDictionary
  0
DICTIONARY
  5
17
102
{ACAD_REACTORS
330
C
102
}
330
C
100
AcDbDictionary
  3
STANDARD
350
18
  0
DICTIONARY
  5
19
102
{ACAD_REACTORS
330
C
102
}
330
C
100
AcDbDictionary
  0
ACDBDICTIONARYWDFLT
  5
E
102
{ACAD_REACTORS
330
C
102
}
330
C
100
AcDbDictionary
281
     1
  3
Normal
350
F
100
AcDbDictionaryWithDefault
340
F
  0
DICTIONARY
  5
A62
102
{ACAD_REACTORS
330
C
102
}
330
C
100
AcDbDictionary
  3
CEPSNTYPE
350
A6C
  3
FINGERPRINTGUID
350
A6D
  3
HYPERLINKBASE
350
A65
  3
INSUNITS
350
A6B
  3
LAYOUTDICT
350
A67
  3
LWETCUNION
350
A6A
  3
PLOTSETDICT
350
A68
  3
PLOTSTYLNAMDICT
350
A69
  3
PSVPSCALE
350
A6F
  3
PUCSBASE
350
A72
  3
PUCSORGBACK
350
A78
  3
PUCSORGBOTTOM
350
A74
  3
PUCSORGFRONT
350
A77
  3
PUCSORGLEFT
350
A75
  3
PUCSORGRIGHT
350
A76
  3
PUCSORGTOP
350
A73
  3
PUCSORTHOREF
350
A70
  3
PUCSORTHOVIEW
350
A71
  3
STYLESHEET
350
A66
  3
TSTACKALIGN
350
A63
  3
TSTACKSIZE
350
A64
  3
UCSBASE
350
A7B
  3
UCSORGBACK
350
A81
  3
UCSORGBOTTOM
350
A7D
  3
UCSORGFRONT
350
A80
  3
UCSORGLEFT
350
A7E
  3
UCSORGRIGHT
350
A7F
  3
UCSORGTOP
350
A7C
  3
UCSORTHOREF
350
A79
  3
UCSORTHOVIEW
350
A7A
  3
VERSIONGUID
350
A6E
  0
DICTIONARY
  5
A5E
102
{ACAD_REACTORS
330
C
102
}
330
C
100
AcDbDictionary
  3
DIMASSOC
350
A60
  3
HIDETEXT
350
A5F
  0
DICTIONARY
  5
22D
102
{ACAD_REACTORS
330
22C
102
}
330
22C
100
AcDbDictionary
  0
XRECORD
  5
A85
102
{ACAD_REACTORS
330
A84
102
}
330
A84
100
AcDbXrecord
340
1F
  0
XRECORD
  5
A83
102
{ACAD_REACTORS
330
A82
102
}
330
A82
100
AcDbXrecord
340
1B
  0
MLINESTYLE
  5
18
102
{ACAD_REACTORS
330
17
102
}
330
17
100
AcDbMlineStyle
  2
STANDARD
 70
     0
  3

 62
   256
 51
90.0
 52
90.0
 71
     2
 49
0.5
 62
   256
  6
BYLAYER
 49
-0.5
 62
   256
  6
BYLAYER
  0
ACDBPLACEHOLDER
  5
F
102
{ACAD_REACTORS
330
E
102
}
330
E
100
AcDbPlaceHolder
280
     0
  0
XRECORD
  5
A6C
102
{ACAD_REACTORS
330
A62
102
}
330
A62
100
AcDbXrecord
 90
        0
  0
XRECORD
  5
A6D
102
{ACAD_REACTORS
330
A62
102
}
330
A62
100
AcDbXrecord
  1
{828A16A2-8870-46F0-AFEA-05CBD4181204}
  0
XRECORD
  5
A65
102
{ACAD_REACTORS
330
A62
102
}
330
A62
100
AcDbXrecord
  1

  0
XRECORD
  5
A6B
102
{ACAD_REACTORS
330
A62
102
}
330
A62
100
AcDbXrecord
 90
        4
  0
XRECORD
  5
A67
102
{ACAD_REACTORS
330
A62
102
}
330
A62
100
AcDbXrecord
340
1A
  0
XRECORD
  5
A6A
102
{ACAD_REACTORS
330
A62
102
}
330
A62
100
AcDbXrecord
 90
    10781
  0
XRECORD
  5
A68
102
{ACAD_REACTORS
330
A62
102
}
330
A62
100
AcDbXrecord
340
19
  0
XRECORD
  5
A69
102
{ACAD_REACTORS
330
A62
102
}
330
A62
100
AcDbXrecord
340
E
  0
XRECORD
  5
A6F
102
{ACAD_REACTORS
330
A62
102
}
330
A62
100
AcDbXrecord
 40
0.0
  0
XRECORD
  5
A72
102
{ACAD_REACTORS
330
A62
102
}
330
A62
100
AcDbXrecord
340
0
  0
XRECORD
  5
A78
102
{ACAD_REACTORS
330
A62
102
}
330
A62
100
AcDbXrecord
 10
0.0
 20
0.0
 30
0.0
  0
XRECORD
  5
A74
102
{ACAD_REACTORS
330
A62
102
}
330
A62
100
AcDbXrecord
 10
0.0
 20
0.0
 30
0.0
  0
XRECORD
  5
A77
102
{ACAD_REACTORS
330
A62
102
}
330
A62
100
AcDbXrecord
 10
0.0
 20
0.0
 30
0.0
  0
XRECORD
  5
A75
102
{ACAD_REACTORS
330
A62
102
}
330
A62
100
AcDbXrecord
 10
0.0
 20
0.0
 30
0.0
  0
XRECORD
  5
A76
102
{ACAD_REACTORS
330
A62
102
}
330
A62
100
AcDbXrecord
 10
0.0
 20
0.0
 30
0.0
  0
XRECORD
  5
A73
102
{ACAD_REACTORS
330
A62
102
}
330
A62
100
AcDbXrecord
 10
0.0
 20
0.0
 30
0.0
  0
XRECORD
  5
A70
102
{ACAD_REACTORS
330
A62
102
}
330
A62
100
AcDbXrecord
340
0
  0
XRECORD
  5
A71
102
{ACAD_REACTORS
330
A62
102
}
330
A62
100
AcDbXrecord
 70
     0
  0
XRECORD
  5
A66
102
{ACAD_REACTORS
330
A62
102
}
330
A62
100
AcDbXrecord
  1

  0
XRECORD
  5
A63
102
{ACAD_REACTORS
330
A62
102
}
330
A62
100
AcDbXrecord
 90
        1
  0
XRECORD
  5
A64
102
{ACAD_REACTORS
330
A62
102
}
330
A62
100
AcDbXrecord
 90
       70
  0
XRECORD
  5
A7B
102
{ACAD_REACTORS
330
A62
102
}
330
A62
100
AcDbXrecord
340
0
  0
XRECORD
  5
A81
102
{ACAD_REACTORS
330
A62
102
}
330
A62
100
AcDbXrecord
 10
0.0
 20
0.0
 30
0.0
  0
XRECORD
  5
A7D
102
{ACAD_REACTORS
330
A62
102
}
330
A62
100
AcDbXrecord
 10
0.0
 20
0.0
 30
0.0
  0
XRECORD
  5
A80
102
{ACAD_REACTORS
330
A62
102
}
330
A62
100
AcDbXrecord
 10
0.0
 20
0.0
 30
0.0
  0
XRECORD
  5
A7E
102
{ACAD_REACTORS
330
A62
102
}
330
A62
100
AcDbXrecord
 10
0.0
 20
0.0
 30
0.0
  0
XRECORD
  5
A7F
102
{ACAD_REACTORS
330
A62
102
}
330
A62
100
AcDbXrecord
 10
0.0
 20
0.0
 30
0.0
  0
XRECORD
  5
A7C
102
{ACAD_REACTORS
330
A62
102
}
330
A62
100
AcDbXrecord
 10
0.0
 20
0.0
 30
0.0
  0
XRECORD
  5
A79
102
{ACAD_REACTORS
330
A62
102
}
330
A62
100
AcDbXrecord
340
0
  0
XRECORD
  5
A7A
102
{ACAD_REACTORS
330
A62
102
}
330
A62
100
AcDbXrecord
 70
     0
  0
XRECORD
  5
A6E
102
{ACAD_REACTORS
330
A62
102
}
330
A62
100
AcDbXrecord
  1
{45023B0C-E647-46A2-A192-B9393D572CF0}
  0
DICTIONARYVAR
  5
A60
102
{ACAD_REACTORS
330
A5E
102
}
330
A5E
100
DictionaryVariables
280
     0
  1
2
  0
DICTIONARYVAR
  5
A5F
102
{ACAD_REACTORS
330
A5E
102
}
330
A5E
100
DictionaryVariables
280
     0
  1
1
  0
ENDSEC
  0
EOF
