  0
SECTION
  2
HEADER
  9
$ACADVER
  1
AC1014
  9
$ACADMAINTVER
 70
     9
  9
$DWGCODEPAGE
  3
ANSI_932
  9
$INSBASE
 10
0.0
 20
0.0
 30
0.0
  9
$EXTMIN
 10
-0.2435291958829566
 20
-0.014526115289641
 30
-0.0000000000000058
  9
$EXTMAX
 10
172.5655757404879
 20
382.4888149818228
 30
0.0000000000000104
  9
$LIMMIN
 10
0.0
 20
0.0
  9
$LIMMAX
 10
420.0
 20
297.0
  9
$ORTHOMODE
 70
     0
  9
$REGENMODE
 70
     1
  9
$FILLMODE
 70
     1
  9
$QTEXTMODE
 70
     0
  9
$MIRRTEXT
 70
     1
  9
$DRAGMODE
 70
     2
  9
$LTSCALE
 40
1.0
  9
$OSMODE
 70
    55
  9
$ATTMODE
 70
     1
  9
$TEXTSIZE
 40
5.0
  9
$TRACEWID
 40
1.0
  9
$TEXTSTYLE
  7
STANDARD
  9
$CLAYER
  8
0
  9
$CELTYPE
  6
BYLAYER
  9
$CECOLOR
 62
   256
  9
$CELTSCALE
 40
1.0
  9
$DELOBJ
 70
     1
  9
$DISPSILH
 70
     0
  9
$DIMSCALE
 40
1.0
  9
$DIMASZ
 40
2.5
  9
$DIMEXO
 40
0.625
  9
$DIMDLI
 40
3.75
  9
$DIMRND
 40
0.0
  9
$DIMDLE
 40
0.0
  9
$DIMEXE
 40
1.25
  9
$DIMTP
 40
0.0
  9
$DIMTM
 40
0.0
  9
$DIMTXT
 40
2.5
  9
$DIMCEN
 40
2.5
  9
$DIMTSZ
 40
0.0
  9
$DIMTOL
 70
     0
  9
$DIMLIM
 70
     0
  9
$DIMTIH
 70
     0
  9
$DIMTOH
 70
     0
  9
$DIMSE1
 70
     0
  9
$DIMSE2
 70
     0
  9
$DIMTAD
 70
     1
  9
$DIMZIN
 70
     8
  9
$DIMBLK
  1

  9
$DIMASO
 70
     1
  9
$DIMSHO
 70
     1
  9
$DIMPOST
  1

  9
$DIMAPOST
  1

  9
$DIMALT
 70
     0
  9
$DIMALTD
 70
     3
  9
$DIMALTF
 40
0.03937007874016
  9
$DIMLFAC
 40
1.0
  9
$DIMTOFL
 70
     1
  9
$DIMTVP
 40
0.0
  9
$DIMTIX
 70
     0
  9
$DIMSOXD
 70
     0
  9
$DIMSAH
 70
     0
  9
$DIMBLK1
  1

  9
$DIMBLK2
  1

  9
$DIMSTYLE
  2
ISO-25
  9
$DIMCLRD
 70
     0
  9
$DIMCLRE
 70
     0
  9
$DIMCLRT
 70
     0
  9
$DIMTFAC
 40
1.0
  9
$DIMGAP
 40
0.625
  9
$DIMJUST
 70
     0
  9
$DIMSD1
 70
     0
  9
$DIMSD2
 70
     0
  9
$DIMTOLJ
 70
     1
  9
$DIMTZIN
 70
     0
  9
$DIMALTZ
 70
     0
  9
$DIMALTTZ
 70
     0
  9
$DIMFIT
 70
     3
  9
$DIMUPT
 70
     0
  9
$DIMUNIT
 70
     2
  9
$DIMDEC
 70
     4
  9
$DIMTDEC
 70
     4
  9
$DIMALTU
 70
     2
  9
$DIMALTTD
 70
     2
  9
$DIMTXSTY
  7
STANDARD
  9
$DIMAUNIT
 70
     0
  9
$LUNITS
 70
     2
  9
$LUPREC
 70
     4
  9
$SKETCHINC
 40
1.0
  9
$FILLETRAD
 40
10.0
  9
$AUNITS
 70
     0
  9
$AUPREC
 70
     0
  9
$MENU
  1
.
  9
$ELEVATION
 40
0.0
  9
$PELEVATION
 40
0.0
  9
$THICKNESS
 40
0.0
  9
$LIMCHECK
 70
     0
  9
$BLIPMODE
 70
     0
  9
$CHAMFERA
 40
10.0
  9
$CHAMFERB
 40
10.0
  9
$CHAMFERC
 40
0.0
  9
$CHAMFERD
 40
0.0
  9
$SKPOLY
 70
     0
  9
$TDCREATE
 40
2453948.737447036
  9
$TDUPDATE
 40
2455244.734174201
  9
$TDINDWG
 40
0.0084311921
  9
$TDUSRTIMER
 40
0.0084237963
  9
$USRTIMER
 70
     1
  9
$ANGBASE
 50
0.0
  9
$ANGDIR
 70
     0
  9
$PDMODE
 70
     0
  9
$PDSIZE
 40
0.0
  9
$PLINEWID
 40
0.0
  9
$COORDS
 70
     0
  9
$SPLFRAME
 70
     0
  9
$SPLINETYPE
 70
     6
  9
$SPLINESEGS
 70
     8
  9
$ATTDIA
 70
     0
  9
$ATTREQ
 70
     1
  9
$HANDLING
 70
 22529
  9
$HANDSEED
  5
3DA1
  9
$SURFTAB1
 70
     6
  9
$SURFTAB2
 70
     6
  9
$SURFTYPE
 70
     6
  9
$SURFU
 70
     6
  9
$SURFV
 70
     6
  9
$UCSNAME
  2

  9
$UCSORG
 10
0.0
 20
0.0
 30
0.0
  9
$UCSXDIR
 10
1.0
 20
0.0
 30
0.0
  9
$UCSYDIR
 10
0.0
 20
1.0
 30
0.0
  9
$PUCSNAME
  2

  9
$PUCSORG
 10
0.0
 20
0.0
 30
0.0
  9
$PUCSXDIR
 10
1.0
 20
0.0
 30
0.0
  9
$PUCSYDIR
 10
0.0
 20
1.0
 30
0.0
  9
$USERI1
 70
     0
  9
$USERI2
 70
     0
  9
$USERI3
 70
     0
  9
$USERI4
 70
     0
  9
$USERI5
 70
     0
  9
$USERR1
 40
0.0
  9
$USERR2
 40
0.0
  9
$USERR3
 40
0.0
  9
$USERR4
 40
0.0
  9
$USERR5
 40
0.0
  9
$WORLDVIEW
 70
     1
  9
$SHADEDGE
 70
     3
  9
$SHADEDIF
 70
    70
  9
$TILEMODE
 70
     1
  9
$MAXACTVP
 70
    64
  9
$PINSBASE
 10
0.0
 20
0.0
 30
0.0
  9
$PLIMCHECK
 70
     0
  9
$PEXTMIN
 10
1.000000000000000E+20
 20
1.000000000000000E+20
 30
1.000000000000000E+20
  9
$PEXTMAX
 10
-1.000000000000000E+20
 20
-1.000000000000000E+20
 30
-1.000000000000000E+20
  9
$PLIMMIN
 10
0.0
 20
0.0
  9
$PLIMMAX
 10
420.0
 20
297.0
  9
$UNITMODE
 70
     0
  9
$VISRETAIN
 70
     1
  9
$PLINEGEN
 70
     0
  9
$PSLTSCALE
 70
     1
  9
$TREEDEPTH
 70
  3020
  9
$PICKSTYLE
 70
     1
  9
$CMLSTYLE
  2
STANDARD
  9
$CMLJUST
 70
     0
  9
$CMLSCALE
 40
1.0
  9
$PROXYGRAPHICS
 70
     1
  9
$MEASUREMENT
 70
     0
  0
ENDSEC
  0
SECTION
  2
CLASSES
  0
CLASS
  1
ACDBDICTIONARYWDFLT
  2
AcDbDictionaryWithDefault
  3
AutoCAD 2000
 90
        0
280
     0
281
     0
  0
CLASS
  1
ACDBPLACEHOLDER
  2
AcDbPlaceHolder
  3
AutoCAD 2000
 90
        0
280
     0
281
     0
  0
CLASS
  1
LAYOUT
  2
AcDbLayout
  3
AutoCAD 2000
 90
        0
280
     0
281
     0
  0
CLASS
  1
DICTIONARYVAR
  2
AcDbDictionaryVar
  3
AutoCAD 2000
 90
        0
280
     0
281
     0
  0
CLASS
  1
LONG_TRANSACTION
  2
AcDbLongTransaction
  3
AutoCAD 2000
 90
        0
280
     0
281
     0
  0
CLASS
  1
LWPOLYLINE
  2
AcDbPolyline
  3
AutoCAD 2000
 90
        0
280
     0
281
     1
  0
CLASS
  1
HATCH
  2
AcDbHatch
  3
AutoCAD 2000
 90
        0
280
     0
281
     1
  0
CLASS
  1
XRECORD
  2
AcDbXrecord
  3
AutoCAD 2000
 90
        0
280
     0
281
     0
  0
CLASS
  1
LONG_TRANSACTION
  2
AcDbLongTransaction
  3
AutoCAD 2000
 90
        0
280
     0
281
     0
  0
CLASS
  1
LWPOLYLINE
  2
AcDbPolyline
  3
AutoCAD 2000
 90
        0
280
     0
281
     1
  0
CLASS
  1
HATCH
  2
AcDbHatch
  3
AutoCAD 2000
 90
        0
280
     0
281
     1
  0
CLASS
  1
XRECORD
  2
AcDbXrecord
  3
AutoCAD 2000
 90
        0
280
     0
281
     0
  0
CLASS
  1
LONG_TRANSACTION
  2
AcDbLongTransaction
  3
AutoCAD 2000
 90
        0
280
     0
281
     0
  0
CLASS
  1
LWPOLYLINE
  2
AcDbPolyline
  3
AutoCAD 2000
 90
        0
280
     0
281
     1
  0
CLASS
  1
HATCH
  2
AcDbHatch
  3
AutoCAD 2000
 90
        0
280
     0
281
     1
  0
CLASS
  1
XRECORD
  2
AcDbXrecord
  3
AutoCAD 2000
 90
        0
280
     0
281
     0
  0
ENDSEC
  0
SECTION
  2
TABLES
  0
TABLE
  2
VPORT
  5
18A8
330
0
100
AcDbSymbolTable
 70
     2
  0
VPORT
  5
3D7D
330
18A8
100
AcDbSymbolTableRecord
100
AcDbViewportTableRecord
  2
*ACTIVE
 70
     0
 10
0.0
 20
0.0
 11
1.0
 21
1.0
 12
86.16102327230249
 22
191.2371444332666
 13
0.0
 23
0.0
 14
10.0
 24
10.0
 15
10.0
 25
10.0
 16
0.0
 26
0.0
 36
1.0
 17
0.0
 27
0.0
 37
0.0
 40
385.4994508184998
 41
1.220915032679738
 42
50.0
 43
0.0
 44
0.0
 50
0.0
 51
0.0
 71
     0
 72
   100
 73
     1
 74
     3
 75
     0
 76
     0
 77
     0
 78
     0
  0
ENDTAB
  0
TABLE
  2
LTYPE
  5
18A5
330
0
100
AcDbSymbolTable
 70
     2
  0
LTYPE
  5
18B3
330
18A5
100
AcDbSymbolTableRecord
100
AcDbLinetypeTableRecord
  2
BYBLOCK
 70
     0
  3

 72
    65
 73
     0
 40
0.0
  0
LTYPE
  5
18B4
330
18A5
100
AcDbSymbolTableRecord
100
AcDbLinetypeTableRecord
  2
BYLAYER
 70
     0
  3

 72
    65
 73
     0
 40
0.0
  0
LTYPE
  5
18B5
330
18A5
100
AcDbSymbolTableRecord
100
AcDbLinetypeTableRecord
  2
CONTINUOUS
 70
     0
  3
Solid line
 72
    65
 73
     0
 40
0.0
  0
LTYPE
  5
18C4
330
18A5
100
AcDbSymbolTableRecord
100
AcDbLinetypeTableRecord
  2
DIVIDE
 70
     0
  3
__ . . __ . . __ . . __ . . __ . . __ . . __
 72
    65
 73
     6
 40
1.25
 49
0.0
 74
     0
 49
-0.25
 74
     0
 49
0.0
 74
     0
 49
-0.25
 74
     0
 49
0.0
 74
     0
 49
-0.25
 74
     0
  0
ENDTAB
  0
TABLE
  2
LAYER
  5
18A2
102
{ACAD_XDICTIONARY
360
2C6D
102
}
330
0
100
AcDbSymbolTable
 70
     5
  0
LAYER
  5
18B0
330
18A2
100
AcDbSymbolTableRecord
100
AcDbLayerTableRecord
  2
0
 70
     0
 62
     7
  6
CONTINUOUS
  0
LAYER
  5
18C5
330
18A2
100
AcDbSymbolTableRecord
100
AcDbLayerTableRecord
  2
外枠
 70
     0
 62
     7
  6
CONTINUOUS
  0
LAYER
  5
18C7
330
18A2
100
AcDbSymbolTableRecord
100
AcDbLayerTableRecord
  2
DEFPOINTS
 70
     0
 62
     7
  6
CONTINUOUS
  0
LAYER
  5
18C8
330
18A2
100
AcDbSymbolTableRecord
100
AcDbLayerTableRecord
  2
CLASS1
 70
     0
 62
     7
  6
CONTINUOUS
  0
LAYER
  5
18C9
330
18A2
100
AcDbSymbolTableRecord
100
AcDbLayerTableRecord
  2
3_表示パネル
 70
     0
 62
     7
  6
DIVIDE
  0
ENDTAB
  0
TABLE
  2
STYLE
  5
18A3
330
0
100
AcDbSymbolTable
 70
     1
  0
STYLE
  5
18B1
330
18A3
100
AcDbSymbolTableRecord
100
AcDbTextStyleTableRecord
  2
STANDARD
 70
     0
 40
0.0
 41
1.0
 50
0.0
 71
     0
 42
5.0
  3
txt
  4

  0
ENDTAB
  0
TABLE
  2
VIEW
  5
18A6
330
0
100
AcDbSymbolTable
 70
     0
  0
ENDTAB
  0
TABLE
  2
UCS
  5
18A7
330
0
100
AcDbSymbolTable
 70
     0
  0
ENDTAB
  0
TABLE
  2
APPID
  5
18A9
330
0
100
AcDbSymbolTable
 70
     2
  0
APPID
  5
18B2
330
18A9
100
AcDbSymbolTableRecord
100
AcDbRegAppTableRecord
  2
ACAD
 70
     0
  0
APPID
  5
3D73
330
18A9
100
AcDbSymbolTableRecord
100
AcDbRegAppTableRecord
  2
CONTENTBLOCKICON
 70
     0
  0
ENDTAB
  0
TABLE
  2
DIMSTYLE
  5
18AA
330
0
100
AcDbSymbolTable
 70
     2
  0
DIMSTYLE
105
18CB
330
18AA
100
AcDbSymbolTableRecord
100
AcDbDimStyleTableRecord
  2
ISO-25
 70
     0
  3

  4

  5

  6

  7

 40
1.0
 41
2.5
 42
0.625
 43
3.75
 44
1.25
 45
0.0
 46
0.0
 47
0.0
 48
0.0
140
2.5
141
2.5
142
0.0
143
0.03937007874016
144
1.0
145
0.0
146
1.0
147
0.625
 71
     0
 72
     0
 73
     0
 74
     0
 75
     0
 76
     0
 77
     1
 78
     8
170
     0
171
     3
172
     1
173
     0
174
     0
175
     0
176
     0
177
     0
178
     0
270
     2
271
     4
272
     4
273
     2
274
     3
340
18B1
275
     0
280
     0
281
     0
282
     0
283
     1
284
     8
285
     8
286
     8
287
     3
288
     0
  0
DIMSTYLE
105
18CC
330
18AA
100
AcDbSymbolTableRecord
100
AcDbDimStyleTableRecord
  2
STANDARD
 70
     0
  3

  4

  5

  6

  7

 40
1.0
 41
2.5
 42
0.625
 43
3.75
 44
1.25
 45
0.0
 46
0.0
 47
0.0
 48
0.0
140
2.5
141
2.5
142
0.0
143
0.0394
144
1.0
145
0.0
146
1.0
147
0.625
 71
     0
 72
     0
 73
     0
 74
     0
 75
     0
 76
     0
 77
     1
 78
     8
170
     0
171
     4
172
     1
173
     0
174
     0
175
     0
176
     0
177
     0
178
     0
270
     2
271
     4
272
     4
273
     2
274
     3
340
18B1
275
     0
280
     0
281
     0
282
     0
283
     1
284
     8
285
     8
286
     8
287
     3
288
     0
  0
ENDTAB
  0
TABLE
  2
BLOCK_RECORD
  5
18A1
330
0
100
AcDbSymbolTable
 70
     1
  0
BLOCK_RECORD
  5
18BE
102
{ACAD_XDICTIONARY
360
1FA2
102
}
330
18A1
100
AcDbSymbolTableRecord
100
AcDbBlockTableRecord
  2
*MODEL_SPACE
  0
BLOCK_RECORD
  5
18BA
102
{ACAD_XDICTIONARY
360
1FA0
102
}
330
18A1
100
AcDbSymbolTableRecord
100
AcDbBlockTableRecord
  2
*PAPER_SPACE
  0
BLOCK_RECORD
  5
2BFC
330
18A1
100
AcDbSymbolTableRecord
100
AcDbBlockTableRecord
  2
カバ_横
1001
CONTENTBLOCKICON
1071
        0
1004
2800000020000000200000000100080000000000000400000000000000000000000000000000000000000000000080000080000000808000800000008000800080800000C0C0C000C0DCC000F0CAA6000020400000206000002080000020A0000020C0000020E00000400000004020000040400000406000004080000040A0
1004
000040C0000040E00000600000006020000060400000606000006080000060A0000060C0000060E00000800000008020000080400000806000008080000080A0000080C0000080E00000A0000000A0200000A0400000A0600000A0800000A0A00000A0C00000A0E00000C0000000C0200000C0400000C0600000C0800000C0
1004
A00000C0C00000C0E00000E0000000E0200000E0400000E0600000E0800000E0A00000E0C00000E0E00040000000400020004000400040006000400080004000A0004000C0004000E00040200000402020004020400040206000402080004020A0004020C0004020E000404000004040200040404000404060004040800040
1004
40A0004040C0004040E00040600000406020004060400040606000406080004060A0004060C0004060E00040800000408020004080400040806000408080004080A0004080C0004080E00040A0000040A0200040A0400040A0600040A0800040A0A00040A0C00040A0E00040C0000040C0200040C0400040C0600040C08000
1004
40C0A00040C0C00040C0E00040E0000040E0200040E0400040E0600040E0800040E0A00040E0C00040E0E00080000000800020008000400080006000800080008000A0008000C0008000E00080200000802020008020400080206000802080008020A0008020C0008020E00080400000804020008040400080406000804080
1004
008040A0008040C0008040E00080600000806020008060400080606000806080008060A0008060C0008060E00080800000808020008080400080806000808080008080A0008080C0008080E00080A0000080A0200080A0400080A0600080A0800080A0A00080A0C00080A0E00080C0000080C0200080C0400080C0600080C0
1004
800080C0A00080C0C00080C0E00080E0000080E0200080E0400080E0600080E0800080E0A00080E0C00080E0E000C0000000C0002000C0004000C0006000C0008000C000A000C000C000C000E000C0200000C0202000C0204000C0206000C0208000C020A000C020C000C020E000C0400000C0402000C0404000C0406000C0
1004
408000C040A000C040C000C040E000C0600000C0602000C0604000C0606000C0608000C060A000C060C000C060E000C0800000C0802000C0804000C0806000C0808000C080A000C080C000C080E000C0A00000C0A02000C0A04000C0A06000C0A08000C0A0A000C0A0C000C0A0E000C0C00000C0C02000C0C04000C0C06000
1004
C0C08000C0C0A000F0FBFF00A4A0A000808080000000FF0000FF000000FFFF00FF000000FF00FF00FFFF0000FFFFFF00000000000000000000000000000000000000000000000000000000000000000000000000000000000000FFFFFFFFFFFF0000000000000000000000000000000000000000000000000000FFFFFFFFFF
1004
00FFFFFFFFFFFF0000000000000000000000000000000000000000FF00000000FFFFFFFFFFFFFF0000000000000000000000000000000000000000FF000000000000000000FFFF0000000000000000000000000000000000000000FF000000000000000000FFFF0000000000000000000000000000000000000000FF000000
1004
000000000000FFFF0000000000000000000000000000000000000000FF000000000000000000FFFF0000000000000000000000000000000000000000FF000000000000000000FFFF0000000000000000000000000000000000000000FF000000000000000000FFFF0000000000000000000000000000000000000000FF0000
1004
00000000000000FFFF0000000000000000000000000000000000000000FF000000000000000000FFFF0000000000000000000000000000000000000000FF000000000000000000FFFF0000000000000000000000000000000000000000FF000000000000000000FFFF0000000000000000000000000000000000000000FFFF
1004
0000000000000000FFFF0000000000000000000000000000000000000000FFFF0000000000000000FFFF0000000000000000000000000000000000000000FFFF0000000000000000FFFF0000000000000000000000000000000000000000FFFF0000000000000000FFFF0000000000000000000000000000000000000000FF
1004
000000000000000000FFFF0000000000000000000000000000000000000000FF000000000000000000FFFF0000000000000000000000000000000000000000FF000000000000000000FFFF0000000000000000000000000000000000000000FF000000000000000000FFFF0000000000000000000000000000000000000000
1004
FF000000000000000000FFFF0000000000000000000000000000000000000000FF000000000000000000FFFF0000000000000000000000000000000000000000FF000000000000000000FFFF0000000000000000000000000000000000000000FF000000000000000000FFFF00000000000000000000000000000000000000
1004
00FF000000000000000000FFFF0000000000000000000000000000000000000000FF000000000000000000FFFF0000000000000000000000000000000000000000FF0000000000FFFFFFFFFFFF0000000000000000000000000000000000000000FFFFFFFFFFFFFFFFFFFFFFFF000000000000000000000000000000000000
1004
0000FFFFFFFFFFFF000000000000000000000000000000000000000000000000000000000000000000000000000000000000000000000000
  0
ENDTAB
  0
ENDSEC
  0
SECTION
  2
BLOCKS
  0
BLOCK
  5
18BF
330
18BE
100
AcDbEntity
  8
0
100
AcDbBlockBegin
  2
*MODEL_SPACE
 70
     0
 10
0.0
 20
0.0
 30
0.0
  3
*MODEL_SPACE
  1

  0
ENDBLK
  5
18C0
330
18BE
100
AcDbEntity
  8
0
100
AcDbBlockEnd
  0
BLOCK
  5
18BB
330
18BA
100
AcDbEntity
 67
     1
  8
0
100
AcDbBlockBegin
  2
*PAPER_SPACE
 70
     0
 10
0.0
 20
0.0
 30
0.0
  3
*PAPER_SPACE
  1

  0
ENDBLK
  5
18BC
330
18BA
100
AcDbEntity
 67
     1
  8
0
100
AcDbBlockEnd
  0
BLOCK
  5
2C1A
330
2BFC
100
AcDbEntity
  8
0
100
AcDbBlockBegin
  2
カバ_横
 70
     0
 10
0.0
 20
0.0
 30
0.0
  3
カバ_横
  1

  0
LINE
  5
2BFD
330
2BFC
100
AcDbEntity
  8
CLASS1
  6
CONTINUOUS
100
AcDbLine
 10
57.62300200000003
 20
-79.99015499999996
 30
0.0
 11
-8.0
 21
-81.5
 31
0.0
  0
LINE
  5
2BFE
330
2BFC
100
AcDbEntity
  8
CLASS1
  6
CONTINUOUS
100
AcDbLine
 10
-7.999999999999772
 20
81.5
 30
0.0
 11
57.6227220000003
 21
80.00857500000007
 31
0.0
  0
LINE
  5
2BFF
330
2BFC
100
AcDbEntity
  8
CLASS1
  6
CONTINUOUS
100
AcDbLine
 10
-7.977278999999952
 20
76.49819300000013
 30
0.0
 11
51.46744800000011
 21
75.14717599999993
 31
0.0
  0
LINE
  5
2C00
330
2BFC
100
AcDbEntity
  8
CLASS1
  6
CONTINUOUS
100
AcDbLine
 10
51.46772799999984
 20
-75.13045099999998
 30
0.0
 11
-7.976997999999866
 21
-76.49814699999978
 31
0.0
  0
LINE
  5
2C01
330
2BFC
100
AcDbEntity
  8
CLASS1
  6
CONTINUOUS
100
AcDbLine
 10
-9.0
 20
-75.49841199999993
 30
0.0
 11
-8.999999999999772
 21
75.49845099999993
 31
0.0
  0
LINE
  5
2C02
330
2BFC
100
AcDbEntity
  8
CLASS1
  6
CONTINUOUS
100
AcDbLine
 10
-7.999999999999772
 20
81.5
 30
0.0
 11
-7.999999999999772
 21
76.49871000000008
 31
0.0
  0
ARC
  5
2C03
330
2BFC
100
AcDbEntity
  8
CLASS1
  6
CONTINUOUS
100
AcDbCircle
 10
-8.0
 20
75.49845099999993
 30
0.0
 40
1.0
100
AcDbArc
 50
88.69804699999894
 51
180.0
  0
LINE
  5
2C04
330
2BFC
100
AcDbEntity
  8
CLASS1
  6
CONTINUOUS
100
AcDbLine
 10
-2.100000000000135
 20
-8.0
 30
0.0
 11
0.0
 21
-8.0
 31
0.0
  0
LINE
  5
2C05
330
2BFC
100
AcDbEntity
  8
CLASS1
  6
CONTINUOUS
100
AcDbLine
 10
0.0
 20
8.0
 30
0.0
 11
-2.100000000000135
 21
8.0
 31
0.0
  0
LINE
  5
2C06
330
2BFC
100
AcDbEntity
  8
CLASS1
  6
CONTINUOUS
100
AcDbLine
 10
-2.100000000000135
 20
8.0
 30
0.0
 11
-2.100000000000135
 21
-8.0
 31
0.0
  0
LINE
  5
2C07
330
2BFC
100
AcDbEntity
  8
CLASS1
  6
CONTINUOUS
100
AcDbLine
 10
0.0
 20
8.0
 30
0.0
 11
0.0
 21
-8.0
 31
0.0
  0
LINE
  5
2C08
330
2BFC
100
AcDbEntity
  8
CLASS1
  6
CONTINUOUS
100
AcDbLine
 10
-8.0
 20
-81.5
 30
0.0
 11
-8.0
 21
-76.49867599999993
 31
0.0
  0
ARC
  5
2C09
330
2BFC
100
AcDbEntity
  8
CLASS1
  6
CONTINUOUS
100
AcDbCircle
 10
-8.0
 20
-75.49841199999993
 30
0.0
 40
1.0
100
AcDbArc
 50
180.0
 51
271.318020999991
  0
LINE
  5
2C0A
330
2BFC
100
AcDbEntity
  8
CLASS1
  6
CONTINUOUS
100
AcDbLine
 10
52.44472599999993
 20
-74.13071599999989
 30
0.0
 11
52.44472600000017
 21
74.14743399999998
 31
0.0
  0
LINE
  5
2C0B
330
2BFC
100
AcDbEntity
  8
CLASS1
  6
CONTINUOUS
100
AcDbLine
 10
58.30000000000018
 20
77.5
 30
0.0
 11
58.29999999999995
 21
-77.5
 31
0.0
  0
LINE
  5
2C0C
330
2BFC
100
AcDbEntity
  8
CLASS1
  6
CONTINUOUS
100
AcDbLine
 10
57.81567400000017
 20
77.5
 30
0.0
 11
57.81567400000017
 21
-77.5
 31
0.0
  0
LINE
  5
2C0D
330
2BFC
100
AcDbEntity
  8
CLASS1
  6
CONTINUOUS
100
AcDbLine
 10
57.54452300000025
 20
79.03282100000024
 30
0.0
 11
57.54452300000003
 21
-79.01470399999993
 31
0.0
  0
ARC
  5
2C0E
330
2BFC
100
AcDbEntity
  8
CLASS1
  6
CONTINUOUS
100
AcDbCircle
 10
57.60000000000013
 20
79.00883299999986
 30
0.0
 40
1.0
100
AcDbArc
 50
0.0
 51
88.69804699999894
  0
LINE
  5
2C0F
330
2BFC
100
AcDbEntity
  8
CLASS1
  6
CONTINUOUS
100
AcDbLine
 10
58.60000000000013
 20
79.0088330000001
 30
0.0
 11
58.60000000000013
 21
77.5
 31
0.0
  0
LINE
  5
2C10
330
2BFC
100
AcDbEntity
  8
CLASS1
  6
CONTINUOUS
100
AcDbLine
 10
57.81567400000017
 20
77.5
 30
0.0
 11
58.60000000000013
 21
77.5
 31
0.0
  0
ARC
  5
2C11
330
2BFC
100
AcDbEntity
  8
CLASS1
  6
CONTINUOUS
100
AcDbCircle
 10
56.54452300000002
 20
79.03282100000001
 30
0.0
 40
1.0
100
AcDbArc
 50
0.0
 51
88.69804699999894
  0
POINT
  5
2C12
330
2BFC
100
AcDbEntity
  8
CLASS1
  6
CONTINUOUS
100
AcDbPoint
 10
57.54452300000025
 20
80.01035200000023
 30
0.0
  0
ARC
  5
2C13
330
2BFC
100
AcDbEntity
  8
CLASS1
  6
CONTINUOUS
100
AcDbCircle
 10
51.44472600000018
 20
74.14743399999975
 30
0.0
 40
1.0
100
AcDbArc
 50
0.0
 51
88.69804599999346
  0
ARC
  5
2C14
330
2BFC
100
AcDbEntity
  8
CLASS1
  6
CONTINUOUS
100
AcDbCircle
 10
51.44472600000018
 20
-74.13071600000012
 30
0.0
 40
1.0
100
AcDbArc
 50
271.318020999991
 51
0.0
  0
ARC
  5
2C15
330
2BFC
100
AcDbEntity
  8
CLASS1
  6
CONTINUOUS
100
AcDbCircle
 10
57.60000000000013
 20
-78.99041899999997
 30
0.0
 40
1.0
100
AcDbArc
 50
271.318020999991
 51
0.0
  0
LINE
  5
2C16
330
2BFC
100
AcDbEntity
  8
CLASS1
  6
CONTINUOUS
100
AcDbLine
 10
58.60000000000013
 20
-78.99041899999975
 30
0.0
 11
58.60000000000013
 21
-77.5
 31
0.0
  0
LINE
  5
2C17
330
2BFC
100
AcDbEntity
  8
CLASS1
  6
CONTINUOUS
100
AcDbLine
 10
57.81567400000017
 20
-77.5
 30
0.0
 11
58.60000000000013
 21
-77.5
 31
0.0
  0
ARC
  5
2C18
330
2BFC
100
AcDbEntity
  8
CLASS1
  6
CONTINUOUS
100
AcDbCircle
 10
56.54452300000002
 20
-79.01470400000015
 30
0.0
 40
1.0
100
AcDbArc
 50
271.318020999991
 51
0.0
  0
POINT
  5
2C19
330
2BFC
100
AcDbEntity
  8
CLASS1
  6
CONTINUOUS
100
AcDbPoint
 10
57.54452300000003
 20
-79.99196099999995
 30
0.0
  0
ENDBLK
  5
2C1B
330
2BFC
100
AcDbEntity
  8
0
100
AcDbBlockEnd
  0
ENDSEC
  0
SECTION
  2
ENTITIES
  0
LINE
  5
37AD
330
18BE
100
AcDbEntity
  8
0
100
AcDbLine
 10
14.40040145326024
 20
141.7797216379509
 30
0.0
 11
14.40040145326024
 21
136.3797216379531
 31
0.0
  0
LINE
  5
37AE
330
18BE
100
AcDbEntity
  8
0
100
AcDbLine
 10
15.10040145325915
 20
136.9797216379518
 30
0.0
 11
15.10040145325915
 21
141.1797216379524
 31
0.0
  0
LINE
  5
37AF
330
18BE
100
AcDbEntity
  8
3_表示パネル
  6
CONTINUOUS
100
AcDbLine
 10
13.90040145326098
 20
133.4097226379483
 30
0.0
 11
13.90040145326105
 21
144.7097226379485
 31
0.0
  0
LINE
  5
37B0
330
18BE
100
AcDbEntity
  8
0
100
AcDbLine
 10
21.70040145325953
 20
139.0797216379521
 30
0.0
 11
21.70040145325953
 21
134.4797216379518
 31
0.0
  0
LINE
  5
37B1
330
18BE
100
AcDbEntity
  8
0
100
AcDbLine
 10
22.40040145326025
 20
136.0797216379521
 30
0.0
 11
22.40040145326025
 21
142.0797216379521
 31
0.0
  0
CIRCLE
  5
37B2
330
18BE
100
AcDbEntity
  8
0
100
AcDbCircle
 10
18.92540145326012
 20
139.0797216379521
 30
0.0
 40
0.32
  0
LINE
  5
37B3
330
18BE
100
AcDbEntity
  8
0
100
AcDbLine
 10
23.40040145326105
 20
191.4837096379482
 30
0.0
 11
23.40040145326105
 21
103.5097226379481
 31
0.0
  0
LINE
  5
37B4
330
18BE
100
AcDbEntity
  8
0
100
AcDbLine
 10
156.1583014762686
 20
133.9797216379474
 30
0.0
 11
156.1583014762686
 21
144.1797216379474
 31
0.0
  0
LINE
  5
37B5
330
18BE
100
AcDbEntity
  8
0
100
AcDbLine
 10
31.99268445326115
 20
253.9944906379481
 30
0.0
 11
31.99268445326099
 21
96.02897463794832
 31
0.0
  0
LINE
  5
37B6
330
18BE
100
AcDbEntity
  8
0
100
AcDbLine
 10
3.008119453261173
 20
253.9944906379481
 30
0.0
 11
3.008119453261143
 21
96.02897463794832
 31
0.0
  0
INSERT
  5
37B7
330
18BE
100
AcDbEntity
  8
0
100
AcDbBlockReference
  2
カバ_横
 10
98.2583014762689
 20
175.0058526379481
 30
0.0
  0
LINE
  5
37B8
330
18BE
100
AcDbEntity
  8
0
100
AcDbLine
 10
88.75830147626881
 20
86.50558863794804
 30
0.0
 11
88.75830147626889
 21
265.0055946379481
 31
0.0
  0
LINE
  5
37B9
330
18BE
100
AcDbEntity
  8
0
100
AcDbLine
 10
0.0152824532611362
 20
99.54242863794826
 30
0.0
 11
0.0152824532611646
 21
250.4815766379483
 31
0.0
  0
LINE
  5
37BA
330
18BE
100
AcDbEntity
  8
0
100
AcDbLine
 10
5.000401453261075
 20
98.50585363794813
 30
0.0
 11
5.000401453261105
 21
251.5058536379477
 31
0.0
  0
LINE
  5
37BB
330
18BE
100
AcDbEntity
  8
0
100
AcDbLine
 10
0.9306904532611211
 20
249.1308186379483
 30
0.0
 11
0.9306904532610927
 21
100.880889637948
 31
0.0
  0
LINE
  5
37BC
330
18BE
100
AcDbEntity
  8
0
100
AcDbLine
 10
5.100401453261127
 20
251.409722637948
 30
0.0
 11
5.100401453261098
 21
98.60972263794815
 31
0.0
  0
LINE
  5
37BD
330
18BE
100
AcDbEntity
  8
0
100
AcDbLine
 10
30.00040145326096
 20
98.50585363794813
 30
0.0
 11
30.0004014532611
 21
251.5058536379477
 31
0.0
  0
LINE
  5
37BE
330
18BE
100
AcDbEntity
  8
0
100
AcDbLine
 10
34.07011245326108
 20
249.1308186379483
 30
0.0
 11
34.07011245326106
 21
100.880889637948
 31
0.0
  0
LINE
  5
37BF
330
18BE
100
AcDbEntity
  8
0
100
AcDbLine
 10
34.98540045326108
 20
99.54242863794821
 30
0.0
 11
34.98540045326112
 21
250.4815766379483
 31
0.0
  0
LINE
  5
37C0
330
18BE
100
AcDbEntity
  8
0
100
AcDbLine
 10
29.90040145326108
 20
251.409722637948
 30
0.0
 11
29.90040145326105
 21
98.50972263794822
 31
0.0
  0
LINE
  5
37C1
330
18BE
100
AcDbEntity
  8
0
100
AcDbLine
 10
0.9155254532608408
 20
60.96012532876581
 30
0.0
 11
0.0000004532606681
 21
1.515398328765755
 31
0.0
  0
LINE
  5
37C2
330
18BE
100
AcDbEntity
  8
0
100
AcDbLine
 10
7.414001453260822
 20
60.79859432876562
 30
0.0
 11
6.50072645326088
 21
1.499999328765581
 31
0.0
  0
LINE
  5
37C3
330
18BE
100
AcDbEntity
  8
CLASS1
100
AcDbLine
 10
10.50040095326089
 20
33.89999932876522
 30
0.0
 11
10.50040095326089
 21
23.89999932876521
 31
0.0
  0
LINE
  5
37C4
330
18BE
100
AcDbEntity
  8
0
100
AcDbLine
 10
2.996503453261026
 20
66.19007232876562
 30
0.0
 11
2.000192453260865
 21
1.499999328765581
 31
0.0
  0
LINE
  5
37C5
330
18BE
100
AcDbEntity
  8
CLASS1
100
AcDbLine
 10
22.00040095326091
 20
33.09999932876548
 30
0.0
 11
22.00040095326091
 21
31.09999932876547
 31
0.0
  0
LINE
  5
37C6
330
18BE
100
AcDbEntity
  8
CLASS1
100
AcDbLine
 10
23.50040095326089
 20
33.09999932876548
 30
0.0
 11
23.50040095326089
 21
31.09999932876547
 31
0.0
  0
LINE
  5
37C7
330
18BE
100
AcDbEntity
  8
0
100
AcDbLine
 10
27.5868324532609
 20
60.79658432876569
 30
0.0
 11
28.50007645326093
 21
1.499999328765575
 31
0.0
  0
LINE
  5
37C8
330
18BE
100
AcDbEntity
  8
CLASS1
100
AcDbLine
 10
20.50040095326089
 20
23.89999932876521
 30
0.0
 11
20.50040095326089
 21
33.89999932876522
 31
0.0
  0
LINE
  5
37C9
330
18BE
100
AcDbEntity
  8
0
100
AcDbLine
 10
34.08527645326096
 20
60.96012532876581
 30
0.0
 11
35.00080245326069
 21
1.51539832876569
 31
0.0
  0
LINE
  5
37CA
330
18BE
100
AcDbEntity
  8
0
100
AcDbLine
 10
32.0042994532609
 20
66.19007232876562
 30
0.0
 11
33.00061045326072
 21
1.499999328765575
 31
0.0
  0
LINE
  5
37CB
330
18BE
100
AcDbEntity
  8
0
100
AcDbLine
 10
2.000192453260865
 20
1.499999328765581
 30
0.0
 11
33.00061045326072
 21
1.499999328765575
 31
0.0
  0
LWPOLYLINE
  5
37CC
330
18BE
100
AcDbEntity
  8
0
100
AcDbPolyline
 90
        4
 70
     1
 43
0.0
 10
2.000192453260865
 20
1.499999328765581
 10
33.00061045326094
 20
1.499999328765575
 10
33.00061045326094
 20
-0.0000006712344209
 10
2.000192453260865
 20
-0.0000006712344209
  0
LINE
  5
37CD
330
18BE
100
AcDbEntity
  8
0
100
AcDbLine
 10
2.000192453260865
 20
1.499999328765581
 30
0.0
 11
2.000192453260865
 21
0.4999993287655792
 31
0.0
  0
ARC
  5
37CE
330
18BE
100
AcDbEntity
  8
0
100
AcDbCircle
 10
0.9998824532608525
 20
1.499999328765724
 30
0.0
 40
1.0
100
AcDbArc
 50
179.117641000001
 51
270.0
  0
LINE
  5
37CF
330
18BE
100
AcDbEntity
  8
0
100
AcDbLine
 10
2.000192453260865
 20
0.4999993287655792
 30
0.0
 11
0.9998824532607384
 21
0.4999993287655792
 31
0.0
  0
LINE
  5
37D0
330
18BE
100
AcDbEntity
  8
0
100
AcDbLine
 10
3.500192453260865
 20
1.499999328765581
 30
0.0
 11
3.500192453260865
 21
-0.0000006712344209
 31
0.0
  0
LINE
  5
37D1
330
18BE
100
AcDbEntity
  8
0
100
AcDbLine
 10
15.0004014532609
 20
1.499999328765575
 30
0.0
 11
15.0004014532609
 21
-0.0000006712344209
 31
0.0
  0
LINE
  5
37D2
330
18BE
100
AcDbEntity
  8
0
100
AcDbLine
 10
13.5004014532609
 20
1.499999328765575
 30
0.0
 11
13.5004014532609
 21
-0.0000006712344209
 31
0.0
  0
LINE
  5
37D3
330
18BE
100
AcDbEntity
  8
0
100
AcDbLine
 10
21.5004014532609
 20
1.499999328765575
 30
0.0
 11
21.5004014532609
 21
-0.0000006712344209
 31
0.0
  0
LINE
  5
37D4
330
18BE
100
AcDbEntity
  8
0
100
AcDbLine
 10
20.0004014532609
 20
1.499999328765575
 30
0.0
 11
20.0004014532609
 21
-0.0000006712344209
 31
0.0
  0
LINE
  5
37D5
330
18BE
100
AcDbEntity
  8
0
100
AcDbLine
 10
33.00061045326072
 20
0.4999993287655792
 30
0.0
 11
34.00092145326095
 21
0.4999993287655792
 31
0.0
  0
LINE
  5
37D6
330
18BE
100
AcDbEntity
  8
0
100
AcDbLine
 10
33.00061045326072
 20
0.4999993287655792
 30
0.0
 11
33.00061045326072
 21
1.499999328765575
 31
0.0
  0
LINE
  5
37D7
330
18BE
100
AcDbEntity
  8
0
100
AcDbLine
 10
31.50061045326093
 20
1.499999328765575
 30
0.0
 11
31.50061045326093
 21
-0.0000006712344209
 31
0.0
  0
ARC
  5
37D8
330
18BE
100
AcDbEntity
  8
0
100
AcDbCircle
 10
34.0009214532613
 20
1.499999328765716
 30
0.0
 40
1.0
100
AcDbArc
 50
270.0
 51
0.8823589999988325
  0
LINE
  5
37D9
330
18BE
100
AcDbEntity
  8
CLASS1
100
AcDbLine
 10
23.50040095326089
 20
31.09999932876547
 30
0.0
 11
22.00040095326091
 21
31.09999932876547
 31
0.0
  0
LINE
  5
37DA
330
18BE
100
AcDbEntity
  8
CLASS1
100
AcDbLine
 10
23.50040095326089
 20
27.09999932876547
 30
0.0
 11
22.00040095326091
 21
27.09999932876547
 31
0.0
  0
LINE
  5
37DB
330
18BE
100
AcDbEntity
  8
CLASS1
100
AcDbLine
 10
22.00040095326091
 20
29.09999932876548
 30
0.0
 11
23.50040095326089
 21
29.09999932876548
 31
0.0
  0
LINE
  5
37DC
330
18BE
100
AcDbEntity
  8
CLASS1
100
AcDbLine
 10
22.00040095326091
 20
25.09999932876548
 30
0.0
 11
23.50040095326089
 21
25.09999932876548
 31
0.0
  0
LINE
  5
37DD
330
18BE
100
AcDbEntity
  8
CLASS1
100
AcDbLine
 10
23.50040095326089
 20
23.09999932876547
 30
0.0
 11
22.00040095326091
 21
23.09999932876547
 31
0.0
  0
LINE
  5
37DE
330
18BE
100
AcDbEntity
  8
CLASS1
100
AcDbLine
 10
11.5004009532609
 20
17.09999932876549
 30
0.0
 11
23.50040095326089
 21
17.09999932876548
 31
0.0
  0
LINE
  5
37DF
330
18BE
100
AcDbEntity
  8
CLASS1
100
AcDbLine
 10
11.5004009532609
 20
21.09999932876549
 30
0.0
 11
23.50040095326089
 21
21.09999932876548
 31
0.0
  0
LINE
  5
37E0
330
18BE
100
AcDbEntity
  8
CLASS1
100
AcDbLine
 10
23.50040095326089
 20
19.09999932876548
 30
0.0
 11
11.5004009532609
 21
19.09999932876548
 31
0.0
  0
LINE
  5
37E1
330
18BE
100
AcDbEntity
  8
CLASS1
100
AcDbLine
 10
23.50040095326089
 20
11.09999932876548
 30
0.0
 11
11.5004009532609
 21
11.09999932876549
 31
0.0
  0
LINE
  5
37E2
330
18BE
100
AcDbEntity
  8
CLASS1
100
AcDbLine
 10
11.5004009532609
 20
9.099999328765491
 30
0.0
 11
23.50040095326089
 21
9.099999328765484
 31
0.0
  0
LINE
  5
37E3
330
18BE
100
AcDbEntity
  8
CLASS1
100
AcDbLine
 10
23.50040095326089
 20
7.099999328765482
 30
0.0
 11
11.5004009532609
 21
7.099999328765491
 31
0.0
  0
LINE
  5
37E4
330
18BE
100
AcDbEntity
  8
CLASS1
100
AcDbLine
 10
11.5004009532609
 20
13.09999932876549
 30
0.0
 11
23.50040095326089
 21
13.09999932876548
 31
0.0
  0
LINE
  5
37E5
330
18BE
100
AcDbEntity
  8
CLASS1
100
AcDbLine
 10
23.50040095326089
 20
15.09999932876548
 30
0.0
 11
11.5004009532609
 21
15.09999932876548
 31
0.0
  0
LINE
  5
37E6
330
18BE
100
AcDbEntity
  8
CLASS1
100
AcDbLine
 10
11.5004009532609
 20
19.09999932876548
 30
0.0
 11
11.5004009532609
 21
21.09999932876549
 31
0.0
  0
LINE
  5
37E7
330
18BE
100
AcDbEntity
  8
CLASS1
100
AcDbLine
 10
11.5004009532609
 20
11.09999932876549
 30
0.0
 11
11.5004009532609
 21
13.09999932876549
 31
0.0
  0
LINE
  5
37E8
330
18BE
100
AcDbEntity
  8
CLASS1
100
AcDbLine
 10
11.5004009532609
 20
7.099999328765491
 30
0.0
 11
11.5004009532609
 21
9.099999328765491
 31
0.0
  0
LINE
  5
37E9
330
18BE
100
AcDbEntity
  8
CLASS1
100
AcDbLine
 10
11.5004009532609
 20
15.09999932876548
 30
0.0
 11
11.5004009532609
 21
17.09999932876549
 31
0.0
  0
LINE
  5
37EA
330
18BE
100
AcDbEntity
  8
CLASS1
100
AcDbLine
 10
10.50040095326089
 20
23.89999932876521
 30
0.0
 11
20.50040095326089
 21
23.89999932876521
 31
0.0
  0
LINE
  5
37EB
330
18BE
100
AcDbEntity
  8
CLASS1
100
AcDbLine
 10
12.5004009532609
 20
25.39999932876522
 30
0.0
 11
18.50040095326089
 21
25.39999932876521
 31
0.0
  0
LINE
  5
37EC
330
18BE
100
AcDbEntity
  8
CLASS1
100
AcDbLine
 10
18.50040095326089
 20
32.39999932876521
 30
0.0
 11
12.5004009532609
 21
32.39999932876521
 31
0.0
  0
ARC
  5
37ED
330
18BE
100
AcDbEntity
  8
CLASS1
100
AcDbCircle
 10
12.50040095326096
 20
25.89999932876525
 30
0.0
 40
0.5
100
AcDbArc
 50
180.0
 51
270.0
  0
ARC
  5
37EE
330
18BE
100
AcDbEntity
  8
CLASS1
100
AcDbCircle
 10
12.50040095326096
 20
31.89999932876524
 30
0.0
 40
0.5
100
AcDbArc
 50
90.0
 51
180.0
  0
LINE
  5
37EF
330
18BE
100
AcDbEntity
  8
CLASS1
100
AcDbLine
 10
10.50040095326089
 20
29.64999932876521
 30
0.0
 11
12.0004009532609
 21
29.64999932876521
 31
0.0
  0
LINE
  5
37F0
330
18BE
100
AcDbEntity
  8
CLASS1
100
AcDbLine
 10
10.50040095326089
 20
28.14999932876522
 30
0.0
 11
12.0004009532609
 21
28.14999932876522
 31
0.0
  0
LINE
  5
37F1
330
18BE
100
AcDbEntity
  8
CLASS1
100
AcDbLine
 10
12.0004009532609
 20
31.89999932876522
 30
0.0
 11
12.0004009532609
 21
25.89999932876521
 31
0.0
  0
ARC
  5
37F2
330
18BE
100
AcDbEntity
  8
CLASS1
100
AcDbCircle
 10
18.50040095326096
 20
25.89999932876524
 30
0.0
 40
0.5
100
AcDbArc
 50
270.0
 51
0.0
  0
LINE
  5
37F3
330
18BE
100
AcDbEntity
  8
CLASS1
100
AcDbLine
 10
22.00040095326091
 20
25.09999932876548
 30
0.0
 11
22.00040095326091
 21
23.09999932876547
 31
0.0
  0
ARC
  5
37F4
330
18BE
100
AcDbEntity
  8
CLASS1
100
AcDbCircle
 10
18.50040095326096
 20
31.89999932876524
 30
0.0
 40
0.5
100
AcDbArc
 50
0.0
 51
90.0
  0
LINE
  5
37F5
330
18BE
100
AcDbEntity
  8
CLASS1
100
AcDbLine
 10
19.00040095326089
 20
29.64999932876521
 30
0.0
 11
20.50040095326089
 21
29.64999932876521
 31
0.0
  0
LINE
  5
37F6
330
18BE
100
AcDbEntity
  8
CLASS1
100
AcDbLine
 10
22.00040095326091
 20
29.09999932876548
 30
0.0
 11
22.00040095326091
 21
27.09999932876547
 31
0.0
  0
LINE
  5
37F7
330
18BE
100
AcDbEntity
  8
CLASS1
100
AcDbLine
 10
19.00040095326089
 20
28.14999932876521
 30
0.0
 11
20.50040095326089
 21
28.14999932876521
 31
0.0
  0
LINE
  5
37F8
330
18BE
100
AcDbEntity
  8
CLASS1
100
AcDbLine
 10
19.00040095326089
 20
25.89999932876521
 30
0.0
 11
19.00040095326089
 21
31.89999932876521
 31
0.0
  0
LINE
  5
37F9
330
18BE
100
AcDbEntity
  8
CLASS1
100
AcDbLine
 10
23.50040095326089
 20
21.09999932876548
 30
0.0
 11
23.50040095326089
 21
19.09999932876548
 31
0.0
  0
LINE
  5
37FA
330
18BE
100
AcDbEntity
  8
CLASS1
100
AcDbLine
 10
23.50040095326089
 20
13.09999932876548
 30
0.0
 11
23.50040095326089
 21
11.09999932876548
 31
0.0
  0
LINE
  5
37FB
330
18BE
100
AcDbEntity
  8
CLASS1
100
AcDbLine
 10
23.50040095326089
 20
9.099999328765484
 30
0.0
 11
23.50040095326089
 21
7.099999328765482
 31
0.0
  0
LINE
  5
37FC
330
18BE
100
AcDbEntity
  8
CLASS1
100
AcDbLine
 10
23.50040095326089
 20
17.09999932876548
 30
0.0
 11
23.50040095326089
 21
15.09999932876548
 31
0.0
  0
LINE
  5
37FD
330
18BE
100
AcDbEntity
  8
CLASS1
100
AcDbLine
 10
23.50040095326089
 20
25.09999932876548
 30
0.0
 11
23.50040095326089
 21
23.09999932876547
 31
0.0
  0
LINE
  5
37FE
330
18BE
100
AcDbEntity
  8
CLASS1
100
AcDbLine
 10
23.50040095326089
 20
29.09999932876548
 30
0.0
 11
23.50040095326089
 21
27.09999932876547
 31
0.0
  0
LINE
  5
37FF
330
18BE
100
AcDbEntity
  8
0
100
AcDbLine
 10
17.50040145326096
 20
97.25558863794823
 30
0.0
 11
17.50040145326096
 21
82.25558863794823
 31
0.0
  0
ARC
  5
3800
330
18BE
100
AcDbEntity
  8
0
100
AcDbCircle
 10
3.996384453261042
 20
66.17467332876572
 30
0.0
 40
1.0
100
AcDbArc
 50
97.83982600000294
 51
179.117643
  0
LINE
  5
3801
330
18BE
100
AcDbEntity
  8
0
100
AcDbLine
 10
1.91540745326091
 20
61.94472532876559
 30
0.0
 11
2.931118453260921
 21
61.94472532876559
 31
0.0
  0
ARC
  5
3802
330
18BE
100
AcDbEntity
  8
0
100
AcDbCircle
 10
1.915407453261195
 20
60.94472532876581
 30
0.0
 40
1.0
100
AcDbArc
 50
90.0
 51
179.117641000001
  0
LINE
  5
3803
330
18BE
100
AcDbEntity
  8
CLASS1
100
AcDbLine
 10
22.00040095326091
 20
33.09999932876548
 30
0.0
 11
23.50040095326089
 21
33.09999932876548
 31
0.0
  0
LINE
  5
3804
330
18BE
100
AcDbEntity
  8
0
100
AcDbLine
 10
23.50040145326095
 20
57.09999932876577
 30
0.0
 11
11.50040145326096
 21
57.09999932876577
 31
0.0
  0
LINE
  5
3805
330
18BE
100
AcDbEntity
  8
0
100
AcDbLine
 10
23.50040145326095
 20
37.09999932876577
 30
0.0
 11
11.50040145326096
 21
37.09999932876577
 31
0.0
  0
LINE
  5
3806
330
18BE
100
AcDbEntity
  8
0
100
AcDbLine
 10
11.50040145326096
 20
39.09999932876577
 30
0.0
 11
23.50040145326095
 21
39.09999932876577
 31
0.0
  0
LINE
  5
3807
330
18BE
100
AcDbEntity
  8
0
100
AcDbLine
 10
23.50040145326095
 20
41.09999932876577
 30
0.0
 11
11.50040145326096
 21
41.09999932876577
 31
0.0
  0
LINE
  5
3808
330
18BE
100
AcDbEntity
  8
0
100
AcDbLine
 10
23.50040145326095
 20
49.09999932876577
 30
0.0
 11
11.50040145326096
 21
49.09999932876577
 31
0.0
  0
LINE
  5
3809
330
18BE
100
AcDbEntity
  8
0
100
AcDbLine
 10
11.50040145326096
 20
43.09999932876578
 30
0.0
 11
23.50040145326095
 21
43.09999932876578
 31
0.0
  0
LINE
  5
380A
330
18BE
100
AcDbEntity
  8
0
100
AcDbLine
 10
23.50040145326095
 20
45.09999932876577
 30
0.0
 11
11.50040145326096
 21
45.09999932876577
 31
0.0
  0
LINE
  5
380B
330
18BE
100
AcDbEntity
  8
0
100
AcDbLine
 10
11.50040145326096
 20
47.09999932876577
 30
0.0
 11
23.50040145326095
 21
47.09999932876577
 31
0.0
  0
LINE
  5
380C
330
18BE
100
AcDbEntity
  8
0
100
AcDbLine
 10
11.50040145326096
 20
51.09999932876577
 30
0.0
 11
23.50040145326095
 21
51.09999932876577
 31
0.0
  0
LINE
  5
380D
330
18BE
100
AcDbEntity
  8
0
100
AcDbLine
 10
11.50040145326096
 20
55.09999932876578
 30
0.0
 11
23.50040145326095
 21
55.09999932876578
 31
0.0
  0
LINE
  5
380E
330
18BE
100
AcDbEntity
  8
0
100
AcDbLine
 10
23.50040145326095
 20
53.09999932876579
 30
0.0
 11
11.50040145326096
 21
53.09999932876579
 31
0.0
  0
LINE
  5
380F
330
18BE
100
AcDbEntity
  8
0
100
AcDbLine
 10
11.50040145326096
 20
35.09999932876576
 30
0.0
 11
23.50040145326095
 21
35.09999932876576
 31
0.0
  0
LINE
  5
3810
330
18BE
100
AcDbEntity
  8
CLASS1
100
AcDbLine
 10
20.50040095326089
 20
33.89999932876522
 30
0.0
 11
10.50040095326089
 21
33.89999932876522
 31
0.0
  0
LINE
  5
3811
330
18BE
100
AcDbEntity
  8
0
100
AcDbLine
 10
11.50040145326096
 20
41.09999932876577
 30
0.0
 11
11.50040145326096
 21
39.09999932876577
 31
0.0
  0
LINE
  5
3812
330
18BE
100
AcDbEntity
  8
0
100
AcDbLine
 10
11.50040145326096
 20
37.09999932876577
 30
0.0
 11
11.50040145326096
 21
35.09999932876576
 31
0.0
  0
LINE
  5
3813
330
18BE
100
AcDbEntity
  8
0
100
AcDbLine
 10
11.50040145326096
 20
45.09999932876577
 30
0.0
 11
11.50040145326096
 21
43.09999932876578
 31
0.0
  0
LINE
  5
3814
330
18BE
100
AcDbEntity
  8
0
100
AcDbLine
 10
11.50040145326096
 20
53.09999932876579
 30
0.0
 11
11.50040145326096
 21
51.09999932876577
 31
0.0
  0
LINE
  5
3815
330
18BE
100
AcDbEntity
  8
0
100
AcDbLine
 10
11.50040145326096
 20
49.09999932876577
 30
0.0
 11
11.50040145326096
 21
47.09999932876577
 31
0.0
  0
LINE
  5
3816
330
18BE
100
AcDbEntity
  8
0
100
AcDbLine
 10
11.50040145326096
 20
57.09999932876577
 30
0.0
 11
11.50040145326096
 21
55.09999932876578
 31
0.0
  0
LINE
  5
3817
330
18BE
100
AcDbEntity
  8
0
100
AcDbLine
 10
23.50040145326095
 20
39.09999932876577
 30
0.0
 11
23.50040145326095
 21
41.09999932876577
 31
0.0
  0
LINE
  5
3818
330
18BE
100
AcDbEntity
  8
0
100
AcDbLine
 10
23.50040145326095
 20
35.09999932876576
 30
0.0
 11
23.50040145326095
 21
37.09999932876577
 31
0.0
  0
LINE
  5
3819
330
18BE
100
AcDbEntity
  8
0
100
AcDbLine
 10
23.50040145326095
 20
43.09999932876578
 30
0.0
 11
23.50040145326095
 21
45.09999932876577
 31
0.0
  0
LINE
  5
381A
330
18BE
100
AcDbEntity
  8
0
100
AcDbLine
 10
23.50040145326095
 20
51.09999932876577
 30
0.0
 11
23.50040145326095
 21
53.09999932876579
 31
0.0
  0
LINE
  5
381B
330
18BE
100
AcDbEntity
  8
0
100
AcDbLine
 10
23.50040145326095
 20
47.09999932876577
 30
0.0
 11
23.50040145326095
 21
49.09999932876577
 31
0.0
  0
LINE
  5
381C
330
18BE
100
AcDbEntity
  8
0
100
AcDbLine
 10
23.50040145326095
 20
55.09999932876578
 30
0.0
 11
23.50040145326095
 21
57.09999932876577
 31
0.0
  0
ARC
  5
381D
330
18BE
100
AcDbEntity
  8
0
100
AcDbCircle
 10
17.50040145326102
 20
-31.9000006712342
 30
0.0
 40
100.0
100
AcDbArc
 50
82.16017300000274
 51
97.83982600000294
  0
ARC
  5
381E
330
18BE
100
AcDbEntity
  8
0
100
AcDbCircle
 10
17.50040145326096
 20
-36.90000067123419
 30
0.0
 40
100.0
100
AcDbArc
 50
85.26674100000319
 51
94.73325899999677
  0
ARC
  5
381F
330
18BE
100
AcDbEntity
  8
0
100
AcDbCircle
 10
9.413732453261216
 20
60.76578532876579
 30
0.0
 40
2.0
100
AcDbArc
 50
94.73325899999677
 51
179.117641000001
  0
ARC
  5
3820
330
18BE
100
AcDbEntity
  8
0
100
AcDbCircle
 10
33.08539445326118
 20
60.94472532876581
 30
0.0
 40
1.0
100
AcDbArc
 50
0.8823589999988325
 51
90.0
  0
ARC
  5
3821
330
18BE
100
AcDbEntity
  8
0
100
AcDbCircle
 10
25.58706845326128
 20
60.7657863287659
 30
0.0
 40
2.0
100
AcDbArc
 50
0.8823600000015524
 51
85.26674100000319
  0
LINE
  5
3822
330
18BE
100
AcDbEntity
  8
0
100
AcDbLine
 10
33.08539445326089
 20
61.94472532876559
 30
0.0
 11
32.06968245326101
 21
61.94472532876559
 31
0.0
  0
ARC
  5
3823
330
18BE
100
AcDbEntity
  8
0
100
AcDbCircle
 10
31.00441845326098
 20
66.17467232876585
 30
0.0
 40
1.0
100
AcDbArc
 50
0.8823569999998801
 51
82.16017300000274
  0
LINE
  5
3824
330
18BE
100
AcDbEntity
  8
0
100
AcDbLine
 10
3.000192453261036
 20
93.50585363794813
 30
0.0
 11
6.500725453261053
 21
93.50585363794813
 31
0.0
  0
ARC
  5
3825
330
18BE
100
AcDbEntity
  8
0
100
AcDbCircle
 10
4.008119453261143
 20
96.02897463794832
 30
0.0
 40
1.0
100
AcDbArc
 50
180.0
 51
270.0
  0
LINE
  5
3826
330
18BE
100
AcDbEntity
  8
0
100
AcDbLine
 10
3.500192453261036
 20
86.50558863794822
 30
0.0
 11
13.50040145326096
 21
86.50558863794822
 31
0.0
  0
LINE
  5
3827
330
18BE
100
AcDbEntity
  8
0
100
AcDbLine
 10
2.000192453261036
 20
98.53013063794813
 30
0.0
 11
2.931119453261146
 21
99.88088963794806
 31
0.0
  0
ARC
  5
3828
330
18BE
100
AcDbEntity
  8
0
100
AcDbCircle
 10
1.015282453261135
 20
99.54242863794824
 30
0.0
 40
1.0
100
AcDbArc
 50
180.0
 51
270.0
  0
LINE
  5
3829
330
18BE
100
AcDbEntity
  8
0
100
AcDbLine
 10
2.000192453261036
 20
88.00558863794822
 30
0.0
 11
2.000192453261036
 21
94.50585363794813
 31
0.0
  0
ARC
  5
382A
330
18BE
100
AcDbEntity
  8
0
100
AcDbCircle
 10
3.500192453261036
 20
88.00558863794822
 30
0.0
 40
1.5
100
AcDbArc
 50
180.0
 51
270.0
  0
LINE
  5
382B
330
18BE
100
AcDbEntity
  8
0
100
AcDbLine
 10
2.000192453261036
 20
94.50585363794813
 30
0.0
 11
2.000192453261036
 21
98.54242863794821
 31
0.0
  0
LINE
  5
382C
330
18BE
100
AcDbEntity
  8
0
100
AcDbLine
 10
2.000192453261036
 20
98.54242863794821
 30
0.0
 11
1.015282453261135
 21
98.54242863794821
 31
0.0
  0
ARC
  5
382D
330
18BE
100
AcDbEntity
  8
0
100
AcDbCircle
 10
3.000192453261036
 20
94.50585363794813
 30
0.0
 40
1.0
100
AcDbArc
 50
180.0
 51
270.0
  0
LINE
  5
382E
330
18BE
100
AcDbEntity
  8
0
100
AcDbLine
 10
1.930690453261091
 20
99.88088963794806
 30
0.0
 11
2.931119453261146
 21
99.88088963794806
 31
0.0
  0
ARC
  5
382F
330
18BE
100
AcDbEntity
  8
0
100
AcDbCircle
 10
1.930690453261091
 20
100.880889637948
 30
0.0
 40
1.0
100
AcDbArc
 50
180.0
 51
270.0
  0
CIRCLE
  5
3830
330
18BE
100
AcDbEntity
  8
0
100
AcDbCircle
 10
14.50040145326107
 20
113.5847216379482
 30
0.0
 40
1.564999999999999
  0
LINE
  5
3831
330
18BE
100
AcDbEntity
  8
0
100
AcDbLine
 10
12.200401453261
 20
112.019721637948
 30
0.0
 11
12.200401453261
 21
114.7197216379481
 31
0.0
  0
LINE
  5
3832
330
18BE
100
AcDbEntity
  8
0
100
AcDbLine
 10
12.35040145326098
 20
114.7197216379481
 30
0.0
 11
12.35040145326098
 21
111.6797216379479
 31
0.0
  0
LINE
  5
3833
330
18BE
100
AcDbEntity
  8
0
100
AcDbLine
 10
9.700401453261008
 20
112.019721637948
 30
0.0
 11
9.700401453261008
 21
115.119721637948
 31
0.0
  0
LINE
  5
3834
330
18BE
100
AcDbEntity
  8
0
100
AcDbLine
 10
9.200401453261008
 20
103.5097226379481
 30
0.0
 11
9.200401453261008
 21
133.4097226379483
 31
0.0
  0
LINE
  5
3835
330
18BE
100
AcDbEntity
  8
0
100
AcDbLine
 10
22.90040145326105
 20
112.6897216379479
 30
0.0
 11
22.90040145326105
 21
112.1897216379478
 31
0.0
  0
LINE
  5
3836
330
18BE
100
AcDbEntity
  8
0
100
AcDbLine
 10
17.53040145326105
 20
115.4897216379481
 30
0.0
 11
17.53040145326105
 21
111.6797216379479
 31
0.0
  0
LINE
  5
3837
330
18BE
100
AcDbEntity
  8
外枠
100
AcDbLine
 10
22.90040145326105
 20
133.9797216379472
 30
0.0
 11
22.90040145326105
 21
103.5097226379481
 31
0.0
  0
LINE
  5
3838
330
18BE
100
AcDbEntity
  8
0
100
AcDbLine
 10
22.40040145326104
 20
133.2297216379481
 30
0.0
 11
22.40040145326104
 21
104.1697216379479
 31
0.0
  0
LINE
  5
3839
330
18BE
100
AcDbEntity
  8
0
100
AcDbLine
 10
21.50040145326096
 20
86.50558863794822
 30
0.0
 11
31.500610453261
 21
86.50558863794822
 31
0.0
  0
LINE
  5
383A
330
18BE
100
AcDbEntity
  8
0
100
AcDbLine
 10
4.008119453261143
 20
95.0289746379483
 30
0.0
 11
30.99268445326099
 21
95.0289746379483
 31
0.0
  0
ARC
  5
383B
330
18BE
100
AcDbEntity
  8
0
100
AcDbCircle
 10
17.50040145326001
 20
-4300.703441362053
 30
0.0
 40
4395.595658
100
AcDbArc
 50
89.8755909999992
 51
90.12440900000077
  0
LINE
  5
383C
330
18BE
100
AcDbEntity
  8
0
100
AcDbLine
 10
7.176802453261017
 20
94.50585363794813
 30
0.0
 11
27.82806445326098
 21
94.50585363794813
 31
0.0
  0
LINE
  5
383D
330
18BE
100
AcDbEntity
  8
0
100
AcDbLine
 10
25.00040145326096
 20
89.75558863794821
 30
0.0
 11
10.00040145326096
 21
89.75558863794821
 31
0.0
  0
LINE
  5
383E
330
18BE
100
AcDbEntity
  8
0
100
AcDbLine
 10
6.000401453260963
 20
97.50585363794813
 30
0.0
 11
29.00040145326096
 21
97.50585363794813
 31
0.0
  0
LINE
  5
383F
330
18BE
100
AcDbEntity
  8
0
100
AcDbLine
 10
6.100401453260985
 20
97.60972263794815
 30
0.0
 11
28.90040145326105
 21
97.60972263794815
 31
0.0
  0
ARC
  5
3840
330
18BE
100
AcDbEntity
  8
0
100
AcDbCircle
 10
6.000401453261075
 20
98.50585363794815
 30
0.0
 40
1.0
100
AcDbArc
 50
180.0
 51
270.0
  0
ARC
  5
3841
330
18BE
100
AcDbEntity
  8
0
100
AcDbCircle
 10
6.100401453261098
 20
98.6097226379482
 30
0.0
 40
1.0
100
AcDbArc
 50
180.0
 51
270.0
  0
ARC
  5
3842
330
18BE
100
AcDbEntity
  8
0
100
AcDbCircle
 10
7.958229453261138
 20
93.88185763794808
 30
0.0
 40
1.0
100
AcDbArc
 50
90.12440900000077
 51
146.0984159999943
  0
LINE
  5
3843
330
18BE
100
AcDbEntity
  8
0
100
AcDbLine
 10
7.128232453260976
 20
94.43962563794846
 30
0.0
 11
6.500725453261053
 21
93.50585363794813
 31
0.0
  0
ARC
  5
3844
330
18BE
100
AcDbEntity
  8
0
100
AcDbCircle
 10
17.50040145326106
 20
89.75558863794821
 30
0.0
 40
2.5
100
AcDbArc
 50
0.0
 51
180.0
  0
ARC
  5
3845
330
18BE
100
AcDbEntity
  8
0
100
AcDbCircle
 10
13.50040145326107
 20
88.00558863794822
 30
0.0
 40
1.5
100
AcDbArc
 50
270.0
 51
0.0
  0
LINE
  5
3846
330
18BE
100
AcDbEntity
  8
0
100
AcDbLine
 10
15.00040145326096
 20
89.75558863794821
 30
0.0
 11
15.00040145326096
 21
88.00558863794822
 31
0.0
  0
ARC
  5
3847
330
18BE
100
AcDbEntity
  8
0
100
AcDbCircle
 10
21.50040145326106
 20
88.00558863794822
 30
0.0
 40
1.5
100
AcDbArc
 50
180.0
 51
270.0
  0
LINE
  5
3848
330
18BE
100
AcDbEntity
  8
0
100
AcDbLine
 10
20.00040145326095
 20
89.75558863794821
 30
0.0
 11
20.00040145326095
 21
88.00558863794822
 31
0.0
  0
LINE
  5
3849
330
18BE
100
AcDbEntity
  8
0
100
AcDbLine
 10
12.85040145326098
 20
111.6797216379479
 30
0.0
 11
16.570401453261
 21
111.6797216379479
 31
0.0
  0
LINE
  5
384A
330
18BE
100
AcDbEntity
  8
0
100
AcDbLine
 10
12.85040145326098
 20
107.869721637948
 30
0.0
 11
16.570401453261
 21
107.869721637948
 31
0.0
  0
CIRCLE
  5
384B
330
18BE
100
AcDbEntity
  8
0
100
AcDbCircle
 10
14.50040145326107
 20
105.9647216379481
 30
0.0
 40
1.564999999999999
  0
CIRCLE
  5
384C
330
18BE
100
AcDbEntity
  8
0
100
AcDbCircle
 10
14.50040145326107
 20
109.774721637948
 30
0.0
 40
1.564999999999999
  0
LINE
  5
384D
330
18BE
100
AcDbEntity
  8
0
100
AcDbLine
 10
12.85040145326098
 20
104.059721637948
 30
0.0
 11
17.330401453261
 21
104.059721637948
 31
0.0
  0
LINE
  5
384E
330
18BE
100
AcDbEntity
  8
0
100
AcDbLine
 10
12.85040145326098
 20
107.869721637948
 30
0.0
 11
17.330401453261
 21
107.869721637948
 31
0.0
  0
LINE
  5
384F
330
18BE
100
AcDbEntity
  8
0
100
AcDbLine
 10
9.200401453261008
 20
103.5097226379481
 30
0.0
 11
23.40040145326105
 21
103.5097226379481
 31
0.0
  0
LINE
  5
3850
330
18BE
100
AcDbEntity
  8
0
100
AcDbLine
 10
12.85040145326098
 20
111.6797216379479
 30
0.0
 11
17.330401453261
 21
111.6797216379479
 31
0.0
  0
LINE
  5
3851
330
18BE
100
AcDbEntity
  8
0
100
AcDbLine
 10
9.700401453261008
 20
104.399721637948
 30
0.0
 11
9.700401453261008
 21
107.499721637948
 31
0.0
  0
LINE
  5
3852
330
18BE
100
AcDbEntity
  8
0
100
AcDbLine
 10
11.55040145326102
 20
104.9997216379481
 30
0.0
 11
11.55040145326102
 21
107.7997216379481
 31
0.0
  0
LINE
  5
3853
330
18BE
100
AcDbEntity
  8
0
100
AcDbLine
 10
10.35040145326098
 20
107.7997216379481
 30
0.0
 11
10.35040145326098
 21
104.9997216379481
 31
0.0
  0
LINE
  5
3854
330
18BE
100
AcDbEntity
  8
0
100
AcDbLine
 10
12.200401453261
 20
104.399721637948
 30
0.0
 11
12.200401453261
 21
107.0997216379479
 31
0.0
  0
LINE
  5
3855
330
18BE
100
AcDbEntity
  8
0
100
AcDbLine
 10
12.35040145326098
 20
107.0997216379479
 30
0.0
 11
12.35040145326098
 21
104.059721637948
 31
0.0
  0
ARC
  5
3856
330
18BE
100
AcDbEntity
  8
0
100
AcDbCircle
 10
11.25040145326106
 20
104.9997216379481
 30
0.0
 40
0.3
100
AcDbArc
 50
270.0
 51
0.0
  0
ARC
  5
3857
330
18BE
100
AcDbEntity
  8
0
100
AcDbCircle
 10
10.6504014532611
 20
104.9997216379481
 30
0.0
 40
0.3
100
AcDbArc
 50
180.0
 51
270.0
  0
LINE
  5
3858
330
18BE
100
AcDbEntity
  8
0
100
AcDbLine
 10
10.65040145326105
 20
104.699721637948
 30
0.0
 11
11.25040145326096
 21
104.699721637948
 31
0.0
  0
LINE
  5
3859
330
18BE
100
AcDbEntity
  8
0
100
AcDbLine
 10
10.00040145326096
 20
104.099721637948
 30
0.0
 11
10.10040145326098
 21
104.099721637948
 31
0.0
  0
LINE
  5
385A
330
18BE
100
AcDbEntity
  8
0
100
AcDbLine
 10
12.85040145326098
 20
104.059721637948
 30
0.0
 11
12.35040145326098
 21
104.059721637948
 31
0.0
  0
LINE
  5
385B
330
18BE
100
AcDbEntity
  8
0
100
AcDbLine
 10
11.80040145326102
 20
104.099721637948
 30
0.0
 11
11.90040145326105
 21
104.099721637948
 31
0.0
  0
LINE
  5
385C
330
18BE
100
AcDbEntity
  8
0
100
AcDbLine
 10
10.10040145326098
 20
104.099721637948
 30
0.0
 11
11.80040145326102
 21
104.099721637948
 31
0.0
  0
ARC
  5
385D
330
18BE
100
AcDbEntity
  8
0
100
AcDbCircle
 10
11.9004014532611
 20
104.399721637948
 30
0.0
 40
0.3
100
AcDbArc
 50
270.0
 51
0.0
  0
ARC
  5
385E
330
18BE
100
AcDbEntity
  8
0
100
AcDbCircle
 10
10.00040145326106
 20
104.399721637948
 30
0.0
 40
0.3
100
AcDbArc
 50
180.0
 51
270.0
  0
ARC
  5
385F
330
18BE
100
AcDbEntity
  8
0
100
AcDbCircle
 10
10.00040145326106
 20
111.3097216379481
 30
0.0
 40
0.3
100
AcDbArc
 50
90.0
 51
180.0
  0
ARC
  5
3860
330
18BE
100
AcDbEntity
  8
0
100
AcDbCircle
 10
10.00040145326106
 20
112.019721637948
 30
0.0
 40
0.3
100
AcDbArc
 50
180.0
 51
270.0
  0
LINE
  5
3861
330
18BE
100
AcDbEntity
  8
0
100
AcDbLine
 10
10.00040145326096
 20
111.719721637948
 30
0.0
 11
10.10040145326098
 21
111.719721637948
 31
0.0
  0
LINE
  5
3862
330
18BE
100
AcDbEntity
  8
0
100
AcDbLine
 10
10.00040145326096
 20
111.609721637948
 30
0.0
 11
10.10040145326098
 21
111.609721637948
 31
0.0
  0
ARC
  5
3863
330
18BE
100
AcDbEntity
  8
0
100
AcDbCircle
 10
10.00040145326106
 20
107.499721637948
 30
0.0
 40
0.3
100
AcDbArc
 50
90.0
 51
180.0
  0
LINE
  5
3864
330
18BE
100
AcDbEntity
  8
0
100
AcDbLine
 10
10.00040145326096
 20
107.909721637948
 30
0.0
 11
10.10040145326098
 21
107.909721637948
 31
0.0
  0
LINE
  5
3865
330
18BE
100
AcDbEntity
  8
0
100
AcDbLine
 10
10.00040145326096
 20
107.7997216379481
 30
0.0
 11
10.10040145326098
 21
107.7997216379481
 31
0.0
  0
ARC
  5
3866
330
18BE
100
AcDbEntity
  8
0
100
AcDbCircle
 10
10.00040145326106
 20
108.2097216379482
 30
0.0
 40
0.3
100
AcDbArc
 50
180.0
 51
270.0
  0
LINE
  5
3867
330
18BE
100
AcDbEntity
  8
0
100
AcDbLine
 10
9.700401453261008
 20
108.209721637948
 30
0.0
 11
9.700401453261008
 21
111.3097216379481
 31
0.0
  0
LINE
  5
3868
330
18BE
100
AcDbEntity
  8
0
100
AcDbLine
 10
12.35040145326098
 20
111.6797216379479
 30
0.0
 11
12.35040145326098
 21
111.609721637948
 31
0.0
  0
LINE
  5
3869
330
18BE
100
AcDbEntity
  8
0
100
AcDbLine
 10
12.85040145326098
 20
111.6797216379479
 30
0.0
 11
12.35040145326098
 21
111.6797216379479
 31
0.0
  0
ARC
  5
386A
330
18BE
100
AcDbEntity
  8
0
100
AcDbCircle
 10
11.9004014532611
 20
112.019721637948
 30
0.0
 40
0.3
100
AcDbArc
 50
270.0
 51
0.0
  0
LINE
  5
386B
330
18BE
100
AcDbEntity
  8
0
100
AcDbLine
 10
11.80040145326102
 20
111.719721637948
 30
0.0
 11
11.90040145326105
 21
111.719721637948
 31
0.0
  0
LINE
  5
386C
330
18BE
100
AcDbEntity
  8
0
100
AcDbLine
 10
12.85040145326098
 20
111.6797216379479
 30
0.0
 11
12.35040145326098
 21
111.6797216379479
 31
0.0
  0
LINE
  5
386D
330
18BE
100
AcDbEntity
  8
0
100
AcDbLine
 10
12.35040145326098
 20
111.609721637948
 30
0.0
 11
12.35040145326098
 21
110.9097216379479
 31
0.0
  0
LINE
  5
386E
330
18BE
100
AcDbEntity
  8
0
100
AcDbLine
 10
12.200401453261
 20
110.9097216379479
 30
0.0
 11
12.200401453261
 21
111.609721637948
 31
0.0
  0
LINE
  5
386F
330
18BE
100
AcDbEntity
  8
0
100
AcDbLine
 10
12.200401453261
 20
110.9097216379479
 30
0.0
 11
12.35040145326098
 21
110.9097216379479
 31
0.0
  0
LINE
  5
3870
330
18BE
100
AcDbEntity
  8
0
100
AcDbLine
 10
11.80040145326102
 20
111.609721637948
 30
0.0
 11
12.200401453261
 21
111.609721637948
 31
0.0
  0
LINE
  5
3871
330
18BE
100
AcDbEntity
  8
0
100
AcDbLine
 10
12.200401453261
 20
111.609721637948
 30
0.0
 11
12.35040145326098
 21
111.609721637948
 31
0.0
  0
LINE
  5
3872
330
18BE
100
AcDbEntity
  8
0
100
AcDbLine
 10
11.55040145326102
 20
111.609721637948
 30
0.0
 11
11.80040145326102
 21
111.609721637948
 31
0.0
  0
LINE
  5
3873
330
18BE
100
AcDbEntity
  8
0
100
AcDbLine
 10
11.55040145326102
 20
111.609721637948
 30
0.0
 11
11.25040145326096
 21
111.609721637948
 31
0.0
  0
LINE
  5
3874
330
18BE
100
AcDbEntity
  8
0
100
AcDbLine
 10
10.65040145326105
 20
111.609721637948
 30
0.0
 11
10.35040145326098
 21
111.609721637948
 31
0.0
  0
LINE
  5
3875
330
18BE
100
AcDbEntity
  8
0
100
AcDbLine
 10
10.65040145326105
 20
111.609721637948
 30
0.0
 11
11.25040145326096
 21
111.609721637948
 31
0.0
  0
LINE
  5
3876
330
18BE
100
AcDbEntity
  8
0
100
AcDbLine
 10
12.35040145326098
 20
107.7997216379481
 30
0.0
 11
12.35040145326098
 21
107.0997216379479
 31
0.0
  0
LINE
  5
3877
330
18BE
100
AcDbEntity
  8
0
100
AcDbLine
 10
12.200401453261
 20
107.0997216379479
 30
0.0
 11
12.200401453261
 21
107.7997216379481
 31
0.0
  0
LINE
  5
3878
330
18BE
100
AcDbEntity
  8
0
100
AcDbLine
 10
11.80040145326102
 20
107.909721637948
 30
0.0
 11
11.90040145326105
 21
107.909721637948
 31
0.0
  0
LINE
  5
3879
330
18BE
100
AcDbEntity
  8
0
100
AcDbLine
 10
12.35040145326098
 20
107.869721637948
 30
0.0
 11
12.35040145326098
 21
107.7997216379481
 31
0.0
  0
LINE
  5
387A
330
18BE
100
AcDbEntity
  8
0
100
AcDbLine
 10
12.85040145326098
 20
107.869721637948
 30
0.0
 11
12.35040145326098
 21
107.869721637948
 31
0.0
  0
LINE
  5
387B
330
18BE
100
AcDbEntity
  8
0
100
AcDbLine
 10
11.55040145326102
 20
107.7997216379481
 30
0.0
 11
11.25040145326096
 21
107.7997216379481
 31
0.0
  0
LINE
  5
387C
330
18BE
100
AcDbEntity
  8
0
100
AcDbLine
 10
11.55040145326102
 20
107.7997216379481
 30
0.0
 11
11.80040145326102
 21
107.7997216379481
 31
0.0
  0
LINE
  5
387D
330
18BE
100
AcDbEntity
  8
0
100
AcDbLine
 10
12.200401453261
 20
107.7997216379481
 30
0.0
 11
12.35040145326098
 21
107.7997216379481
 31
0.0
  0
LINE
  5
387E
330
18BE
100
AcDbEntity
  8
0
100
AcDbLine
 10
11.80040145326102
 20
107.7997216379481
 30
0.0
 11
12.200401453261
 21
107.7997216379481
 31
0.0
  0
LINE
  5
387F
330
18BE
100
AcDbEntity
  8
0
100
AcDbLine
 10
12.85040145326098
 20
107.869721637948
 30
0.0
 11
12.35040145326098
 21
107.869721637948
 31
0.0
  0
LINE
  5
3880
330
18BE
100
AcDbEntity
  8
0
100
AcDbLine
 10
10.65040145326105
 20
107.7997216379481
 30
0.0
 11
10.35040145326098
 21
107.7997216379481
 31
0.0
  0
LINE
  5
3881
330
18BE
100
AcDbEntity
  8
0
100
AcDbLine
 10
10.65040145326105
 20
107.7997216379481
 30
0.0
 11
11.25040145326096
 21
107.7997216379481
 31
0.0
  0
ARC
  5
3882
330
18BE
100
AcDbEntity
  8
0
100
AcDbCircle
 10
11.25040145326106
 20
108.809721637948
 30
0.0
 40
0.3
100
AcDbArc
 50
270.0
 51
0.0
  0
ARC
  5
3883
330
18BE
100
AcDbEntity
  8
0
100
AcDbCircle
 10
10.6504014532611
 20
108.809721637948
 30
0.0
 40
0.3
100
AcDbArc
 50
180.0
 51
270.0
  0
LINE
  5
3884
330
18BE
100
AcDbEntity
  8
0
100
AcDbLine
 10
10.65040145326105
 20
108.509721637948
 30
0.0
 11
11.25040145326096
 21
108.509721637948
 31
0.0
  0
ARC
  5
3885
330
18BE
100
AcDbEntity
  8
0
100
AcDbCircle
 10
11.9004014532611
 20
108.2097216379482
 30
0.0
 40
0.3
100
AcDbArc
 50
270.0
 51
0.0
  0
LINE
  5
3886
330
18BE
100
AcDbEntity
  8
0
100
AcDbLine
 10
12.200401453261
 20
107.0997216379479
 30
0.0
 11
12.35040145326098
 21
107.0997216379479
 31
0.0
  0
LINE
  5
3887
330
18BE
100
AcDbEntity
  8
0
100
AcDbLine
 10
11.55040145326102
 20
108.8097216379479
 30
0.0
 11
11.55040145326102
 21
111.609721637948
 31
0.0
  0
LINE
  5
3888
330
18BE
100
AcDbEntity
  8
0
100
AcDbLine
 10
12.200401453261
 20
108.209721637948
 30
0.0
 11
12.200401453261
 21
110.9097216379479
 31
0.0
  0
LINE
  5
3889
330
18BE
100
AcDbEntity
  8
0
100
AcDbLine
 10
10.35040145326098
 20
111.609721637948
 30
0.0
 11
10.35040145326098
 21
108.8097216379479
 31
0.0
  0
LINE
  5
388A
330
18BE
100
AcDbEntity
  8
0
100
AcDbLine
 10
12.35040145326098
 20
110.9097216379479
 30
0.0
 11
12.35040145326098
 21
107.869721637948
 31
0.0
  0
LINE
  5
388B
330
18BE
100
AcDbEntity
  8
0
100
AcDbLine
 10
10.10040145326098
 20
107.7997216379481
 30
0.0
 11
10.35040145326098
 21
107.7997216379481
 31
0.0
  0
LINE
  5
388C
330
18BE
100
AcDbEntity
  8
0
100
AcDbLine
 10
10.10040145326098
 20
107.909721637948
 30
0.0
 11
11.80040145326102
 21
107.909721637948
 31
0.0
  0
LINE
  5
388D
330
18BE
100
AcDbEntity
  8
0
100
AcDbLine
 10
10.10040145326098
 20
111.609721637948
 30
0.0
 11
10.35040145326098
 21
111.609721637948
 31
0.0
  0
LINE
  5
388E
330
18BE
100
AcDbEntity
  8
0
100
AcDbLine
 10
10.10040145326098
 20
111.719721637948
 30
0.0
 11
11.80040145326102
 21
111.719721637948
 31
0.0
  0
ARC
  5
388F
330
18BE
100
AcDbEntity
  8
0
100
AcDbCircle
 10
14.50040145326107
 20
105.9647216379481
 30
0.0
 40
0.85
100
AcDbArc
 50
0.0
 51
323.2696049999983
  0
ARC
  5
3890
330
18BE
100
AcDbEntity
  8
0
100
AcDbCircle
 10
14.50040145326107
 20
105.9647216379481
 30
0.0
 40
0.85
100
AcDbArc
 50
323.2696049999983
 51
0.0
  0
LINE
  5
3891
330
18BE
100
AcDbEntity
  8
0
100
AcDbLine
 10
17.53040145326105
 20
107.869721637948
 30
0.0
 11
17.53040145326105
 21
104.059721637948
 31
0.0
  0
LINE
  5
3892
330
18BE
100
AcDbEntity
  8
0
100
AcDbLine
 10
17.53040145326105
 20
104.059721637948
 30
0.0
 11
21.90040145326105
 21
104.059721637948
 31
0.0
  0
LINE
  5
3893
330
18BE
100
AcDbEntity
  8
0
100
AcDbLine
 10
17.53040145326105
 20
104.059721637948
 30
0.0
 11
17.330401453261
 21
104.059721637948
 31
0.0
  0
LINE
  5
3894
330
18BE
100
AcDbEntity
  8
0
100
AcDbLine
 10
22.40040145326104
 20
105.469721637948
 30
0.0
 11
22.90040145326105
 21
105.469721637948
 31
0.0
  0
LINE
  5
3895
330
18BE
100
AcDbEntity
  8
0
100
AcDbLine
 10
22.90040145326105
 20
105.0697216379479
 30
0.0
 11
22.90040145326105
 21
104.5697216379479
 31
0.0
  0
LINE
  5
3896
330
18BE
100
AcDbEntity
  8
0
100
AcDbLine
 10
22.90040145326105
 20
105.469721637948
 30
0.0
 11
22.90040145326105
 21
105.0697216379479
 31
0.0
  0
LINE
  5
3897
330
18BE
100
AcDbEntity
  8
0
100
AcDbLine
 10
22.40040145326104
 20
104.1697216379479
 30
0.0
 11
22.90040145326105
 21
104.1697216379479
 31
0.0
  0
LINE
  5
3898
330
18BE
100
AcDbEntity
  8
0
100
AcDbLine
 10
22.40040145326104
 20
104.059721637948
 30
0.0
 11
21.90040145326105
 21
104.059721637948
 31
0.0
  0
LINE
  5
3899
330
18BE
100
AcDbEntity
  8
0
100
AcDbLine
 10
22.40040145326104
 20
104.1697216379479
 30
0.0
 11
22.40040145326104
 21
104.059721637948
 31
0.0
  0
LINE
  5
389A
330
18BE
100
AcDbEntity
  8
0
100
AcDbLine
 10
22.90040145326105
 20
104.5697216379479
 30
0.0
 11
22.90040145326105
 21
104.1697216379479
 31
0.0
  0
LINE
  5
389B
330
18BE
100
AcDbEntity
  8
0
100
AcDbLine
 10
18.10040145326097
 20
111.6797216379479
 30
0.0
 11
19.50040145326095
 21
111.6797216379479
 31
0.0
  0
LINE
  5
389C
330
18BE
100
AcDbEntity
  8
0
100
AcDbLine
 10
17.53040145326105
 20
111.6797216379479
 30
0.0
 11
21.90040145326105
 21
111.6797216379479
 31
0.0
  0
LINE
  5
389D
330
18BE
100
AcDbEntity
  8
0
100
AcDbLine
 10
18.10040145326097
 20
107.869721637948
 30
0.0
 11
19.50040145326095
 21
107.869721637948
 31
0.0
  0
LINE
  5
389E
330
18BE
100
AcDbEntity
  8
0
100
AcDbLine
 10
17.53040145326105
 20
107.869721637948
 30
0.0
 11
21.90040145326105
 21
107.869721637948
 31
0.0
  0
ARC
  5
389F
330
18BE
100
AcDbEntity
  8
0
100
AcDbCircle
 10
14.50040145326107
 20
109.774721637948
 30
0.0
 40
0.85
100
AcDbArc
 50
323.2696049999983
 51
0.0
  0
ARC
  5
38A0
330
18BE
100
AcDbEntity
  8
0
100
AcDbCircle
 10
14.50040145326107
 20
109.774721637948
 30
0.0
 40
0.85
100
AcDbArc
 50
0.0
 51
323.2696049999983
  0
LINE
  5
38A1
330
18BE
100
AcDbEntity
  8
0
100
AcDbLine
 10
17.53040145326105
 20
111.6797216379479
 30
0.0
 11
17.330401453261
 21
111.6797216379479
 31
0.0
  0
LINE
  5
38A2
330
18BE
100
AcDbEntity
  8
0
100
AcDbLine
 10
17.97040145326099
 20
111.6797216379479
 30
0.0
 11
18.10040145326097
 21
111.6797216379479
 31
0.0
  0
LINE
  5
38A3
330
18BE
100
AcDbEntity
  8
0
100
AcDbLine
 10
17.53040145326105
 20
111.6797216379479
 30
0.0
 11
17.97040145326099
 21
111.6797216379479
 31
0.0
  0
LINE
  5
38A4
330
18BE
100
AcDbEntity
  8
0
100
AcDbLine
 10
17.53040145326105
 20
111.6797216379479
 30
0.0
 11
17.330401453261
 21
111.6797216379479
 31
0.0
  0
LINE
  5
38A5
330
18BE
100
AcDbEntity
  8
0
100
AcDbLine
 10
17.53040145326105
 20
107.869721637948
 30
0.0
 11
17.97040145326099
 21
107.869721637948
 31
0.0
  0
LINE
  5
38A6
330
18BE
100
AcDbEntity
  8
0
100
AcDbLine
 10
17.97040145326099
 20
107.869721637948
 30
0.0
 11
18.10040145326097
 21
107.869721637948
 31
0.0
  0
LINE
  5
38A7
330
18BE
100
AcDbEntity
  8
0
100
AcDbLine
 10
17.53040145326105
 20
107.869721637948
 30
0.0
 11
17.330401453261
 21
107.869721637948
 31
0.0
  0
LINE
  5
38A8
330
18BE
100
AcDbEntity
  8
0
100
AcDbLine
 10
17.53040145326105
 20
107.869721637948
 30
0.0
 11
17.330401453261
 21
107.869721637948
 31
0.0
  0
LINE
  5
38A9
330
18BE
100
AcDbEntity
  8
0
100
AcDbLine
 10
17.53040145326105
 20
111.6797216379479
 30
0.0
 11
17.53040145326105
 21
107.869721637948
 31
0.0
  0
LINE
  5
38AA
330
18BE
100
AcDbEntity
  8
0
100
AcDbLine
 10
16.570401453261
 20
107.869721637948
 30
0.0
 11
17.330401453261
 21
107.869721637948
 31
0.0
  0
LINE
  5
38AB
330
18BE
100
AcDbEntity
  8
0
100
AcDbLine
 10
16.570401453261
 20
111.6797216379479
 30
0.0
 11
17.330401453261
 21
111.6797216379479
 31
0.0
  0
LINE
  5
38AC
330
18BE
100
AcDbEntity
  8
0
100
AcDbLine
 10
22.40040145326104
 20
111.789721637948
 30
0.0
 11
22.90040145326105
 21
111.789721637948
 31
0.0
  0
LINE
  5
38AD
330
18BE
100
AcDbEntity
  8
0
100
AcDbLine
 10
22.40040145326104
 20
109.2797216379481
 30
0.0
 11
22.90040145326105
 21
109.2797216379481
 31
0.0
  0
LINE
  5
38AE
330
18BE
100
AcDbEntity
  8
0
100
AcDbLine
 10
22.40040145326104
 20
111.6797216379479
 30
0.0
 11
21.90040145326105
 21
111.6797216379479
 31
0.0
  0
LINE
  5
38AF
330
18BE
100
AcDbEntity
  8
0
100
AcDbLine
 10
22.40040145326104
 20
111.6797216379479
 30
0.0
 11
21.90040145326105
 21
111.6797216379479
 31
0.0
  0
LINE
  5
38B0
330
18BE
100
AcDbEntity
  8
0
100
AcDbLine
 10
22.40040145326104
 20
111.789721637948
 30
0.0
 11
22.40040145326104
 21
111.6797216379479
 31
0.0
  0
LINE
  5
38B1
330
18BE
100
AcDbEntity
  8
0
100
AcDbLine
 10
19.50040145326095
 20
111.6797216379479
 30
0.0
 11
21.90040145326105
 21
111.6797216379479
 31
0.0
  0
LINE
  5
38B2
330
18BE
100
AcDbEntity
  8
0
100
AcDbLine
 10
22.90040145326105
 20
112.1897216379478
 30
0.0
 11
22.90040145326105
 21
111.789721637948
 31
0.0
  0
LINE
  5
38B3
330
18BE
100
AcDbEntity
  8
0
100
AcDbLine
 10
22.40040145326104
 20
107.979721637948
 30
0.0
 11
22.90040145326105
 21
107.979721637948
 31
0.0
  0
LINE
  5
38B4
330
18BE
100
AcDbEntity
  8
0
100
AcDbLine
 10
22.40040145326104
 20
107.869721637948
 30
0.0
 11
21.90040145326105
 21
107.869721637948
 31
0.0
  0
LINE
  5
38B5
330
18BE
100
AcDbEntity
  8
0
100
AcDbLine
 10
22.40040145326104
 20
107.869721637948
 30
0.0
 11
21.90040145326105
 21
107.869721637948
 31
0.0
  0
LINE
  5
38B6
330
18BE
100
AcDbEntity
  8
0
100
AcDbLine
 10
22.40040145326104
 20
107.979721637948
 30
0.0
 11
22.40040145326104
 21
107.869721637948
 31
0.0
  0
LINE
  5
38B7
330
18BE
100
AcDbEntity
  8
0
100
AcDbLine
 10
19.50040145326095
 20
107.869721637948
 30
0.0
 11
21.90040145326105
 21
107.869721637948
 31
0.0
  0
LINE
  5
38B8
330
18BE
100
AcDbEntity
  8
0
100
AcDbLine
 10
22.90040145326105
 20
108.8797216379479
 30
0.0
 11
22.90040145326105
 21
108.379721637948
 31
0.0
  0
LINE
  5
38B9
330
18BE
100
AcDbEntity
  8
0
100
AcDbLine
 10
22.90040145326105
 20
108.379721637948
 30
0.0
 11
22.90040145326105
 21
107.979721637948
 31
0.0
  0
LINE
  5
38BA
330
18BE
100
AcDbEntity
  8
0
100
AcDbLine
 10
22.90040145326105
 20
109.2797216379481
 30
0.0
 11
22.90040145326105
 21
108.8797216379479
 31
0.0
  0
ARC
  5
38BB
330
18BE
100
AcDbEntity
  8
0
100
AcDbCircle
 10
33.98540045326114
 20
99.54242863794824
 30
0.0
 40
1.0
100
AcDbArc
 50
270.0
 51
0.0
  0
LINE
  5
38BC
330
18BE
100
AcDbEntity
  8
0
100
AcDbLine
 10
33.00061045326099
 20
98.53013063794813
 30
0.0
 11
32.06968445326099
 21
99.88088963794806
 31
0.0
  0
LINE
  5
38BD
330
18BE
100
AcDbEntity
  8
0
100
AcDbLine
 10
33.000609453261
 20
98.54242863794821
 30
0.0
 11
33.98540045326108
 21
98.54242863794821
 31
0.0
  0
LINE
  5
38BE
330
18BE
100
AcDbEntity
  8
0
100
AcDbLine
 10
33.00061045326099
 20
88.00558863794822
 30
0.0
 11
33.00061045326099
 21
98.56472163794798
 31
0.0
  0
ARC
  5
38BF
330
18BE
100
AcDbEntity
  8
0
100
AcDbCircle
 10
31.5006104532611
 20
88.00558863794822
 30
0.0
 40
1.5
100
AcDbArc
 50
270.0
 51
0.0
  0
LINE
  5
38C0
330
18BE
100
AcDbEntity
  8
0
100
AcDbLine
 10
27.87257045326106
 20
94.43962563794846
 30
0.0
 11
28.50007645326098
 21
93.50585363794813
 31
0.0
  0
ARC
  5
38C1
330
18BE
100
AcDbEntity
  8
0
100
AcDbCircle
 10
27.04257345326112
 20
93.88185763794808
 30
0.0
 40
1.0
100
AcDbArc
 50
33.90158400000562
 51
89.8755909999992
  0
LINE
  5
38C2
330
18BE
100
AcDbEntity
  8
0
100
AcDbLine
 10
33.000609453261
 20
94.50585363794813
 30
0.0
 11
33.000609453261
 21
98.54242863794821
 31
0.0
  0
ARC
  5
38C3
330
18BE
100
AcDbEntity
  8
0
100
AcDbCircle
 10
30.99268445326112
 20
96.02897463794832
 30
0.0
 40
1.0
100
AcDbArc
 50
270.0
 51
0.0
  0
ARC
  5
38C4
330
18BE
100
AcDbEntity
  8
0
100
AcDbCircle
 10
32.00060945326112
 20
94.50585363794813
 30
0.0
 40
1.0
100
AcDbArc
 50
270.0
 51
0.0
  0
ARC
  5
38C5
330
18BE
100
AcDbEntity
  8
0
100
AcDbCircle
 10
29.00040145326107
 20
98.50585363794815
 30
0.0
 40
1.0
100
AcDbArc
 50
270.0
 51
0.0
  0
ARC
  5
38C6
330
18BE
100
AcDbEntity
  8
0
100
AcDbCircle
 10
28.90040145326111
 20
98.6097226379482
 30
0.0
 40
1.0
100
AcDbArc
 50
270.0
 51
0.0
  0
LINE
  5
38C7
330
18BE
100
AcDbEntity
  8
0
100
AcDbLine
 10
28.50007645326098
 20
93.50585363794813
 30
0.0
 11
32.000609453261
 21
93.50585363794813
 31
0.0
  0
ARC
  5
38C8
330
18BE
100
AcDbEntity
  8
0
100
AcDbCircle
 10
33.07011245326112
 20
100.880889637948
 30
0.0
 40
1.0
100
AcDbArc
 50
270.0
 51
0.0
  0
LINE
  5
38C9
330
18BE
100
AcDbEntity
  8
0
100
AcDbLine
 10
33.07011245326106
 20
99.88088963794806
 30
0.0
 11
32.06968445326099
 21
99.88088963794806
 31
0.0
  0
CIRCLE
  5
38CA
330
18BE
100
AcDbEntity
  8
0
100
AcDbCircle
 10
14.50040145326107
 20
125.014721637948
 30
0.0
 40
1.564999999999999
  0
ARC
  5
38CB
330
18BE
100
AcDbEntity
  8
0
100
AcDbCircle
 10
14.50040145326107
 20
125.014721637948
 30
0.0
 40
0.85
100
AcDbArc
 50
0.0
 51
323.2696049999983
  0
LINE
  5
38CC
330
18BE
100
AcDbEntity
  8
0
100
AcDbLine
 10
12.200401453261
 20
123.449721637948
 30
0.0
 11
12.200401453261
 21
126.1497216379479
 31
0.0
  0
LINE
  5
38CD
330
18BE
100
AcDbEntity
  8
0
100
AcDbLine
 10
12.35040145326098
 20
126.1497216379479
 30
0.0
 11
12.35040145326098
 21
123.1097216379479
 31
0.0
  0
LINE
  5
38CE
330
18BE
100
AcDbEntity
  8
0
100
AcDbLine
 10
11.55040145326102
 20
124.049721637948
 30
0.0
 11
11.55040145326102
 21
126.8497216379479
 31
0.0
  0
LINE
  5
38CF
330
18BE
100
AcDbEntity
  8
0
100
AcDbLine
 10
10.35040145326098
 20
126.8497216379479
 30
0.0
 11
10.35040145326098
 21
124.049721637948
 31
0.0
  0
LINE
  5
38D0
330
18BE
100
AcDbEntity
  8
0
100
AcDbLine
 10
9.700401453261008
 20
123.449721637948
 30
0.0
 11
9.700401453261008
 21
126.5497216379481
 31
0.0
  0
LINE
  5
38D1
330
18BE
100
AcDbEntity
  8
0
100
AcDbLine
 10
17.53040145326105
 20
126.9197216379479
 30
0.0
 11
17.53040145326105
 21
123.1097216379479
 31
0.0
  0
LINE
  5
38D2
330
18BE
100
AcDbEntity
  8
0
100
AcDbLine
 10
12.85040145326098
 20
119.2997216379481
 30
0.0
 11
16.570401453261
 21
119.2997216379481
 31
0.0
  0
LINE
  5
38D3
330
18BE
100
AcDbEntity
  8
0
100
AcDbLine
 10
12.85040145326098
 20
123.1097216379479
 30
0.0
 11
16.570401453261
 21
123.1097216379479
 31
0.0
  0
CIRCLE
  5
38D4
330
18BE
100
AcDbEntity
  8
0
100
AcDbCircle
 10
14.50040145326107
 20
121.2047216379479
 30
0.0
 40
1.564999999999999
  0
CIRCLE
  5
38D5
330
18BE
100
AcDbEntity
  8
0
100
AcDbCircle
 10
14.50040145326107
 20
117.3947216379481
 30
0.0
 40
1.564999999999999
  0
LINE
  5
38D6
330
18BE
100
AcDbEntity
  8
0
100
AcDbLine
 10
12.85040145326098
 20
115.4897216379481
 30
0.0
 11
16.570401453261
 21
115.4897216379481
 31
0.0
  0
LINE
  5
38D7
330
18BE
100
AcDbEntity
  8
0
100
AcDbLine
 10
12.85040145326098
 20
119.2997216379481
 30
0.0
 11
17.330401453261
 21
119.2997216379481
 31
0.0
  0
LINE
  5
38D8
330
18BE
100
AcDbEntity
  8
0
100
AcDbLine
 10
12.85040145326098
 20
123.1097216379479
 30
0.0
 11
17.330401453261
 21
123.1097216379479
 31
0.0
  0
LINE
  5
38D9
330
18BE
100
AcDbEntity
  8
0
100
AcDbLine
 10
12.85040145326098
 20
115.4897216379481
 30
0.0
 11
17.330401453261
 21
115.4897216379481
 31
0.0
  0
LINE
  5
38DA
330
18BE
100
AcDbEntity
  8
0
100
AcDbLine
 10
9.700401453261008
 20
115.829721637948
 30
0.0
 11
9.700401453261008
 21
118.9297216379479
 31
0.0
  0
LINE
  5
38DB
330
18BE
100
AcDbEntity
  8
0
100
AcDbLine
 10
11.55040145326102
 20
116.4297216379479
 30
0.0
 11
11.55040145326102
 21
119.229721637948
 31
0.0
  0
LINE
  5
38DC
330
18BE
100
AcDbEntity
  8
0
100
AcDbLine
 10
10.35040145326098
 20
119.229721637948
 30
0.0
 11
10.35040145326098
 21
116.4297216379479
 31
0.0
  0
LINE
  5
38DD
330
18BE
100
AcDbEntity
  8
0
100
AcDbLine
 10
12.200401453261
 20
118.5297216379481
 30
0.0
 11
12.200401453261
 21
119.229721637948
 31
0.0
  0
LINE
  5
38DE
330
18BE
100
AcDbEntity
  8
0
100
AcDbLine
 10
12.35040145326098
 20
119.229721637948
 30
0.0
 11
12.35040145326098
 21
118.5297216379481
 31
0.0
  0
LINE
  5
38DF
330
18BE
100
AcDbEntity
  8
0
100
AcDbLine
 10
10.00040145326096
 20
115.5297216379481
 30
0.0
 11
10.10040145326098
 21
115.5297216379481
 31
0.0
  0
ARC
  5
38E0
330
18BE
100
AcDbEntity
  8
0
100
AcDbCircle
 10
10.00040145326106
 20
115.119721637948
 30
0.0
 40
0.3
100
AcDbArc
 50
90.0
 51
180.0
  0
LINE
  5
38E1
330
18BE
100
AcDbEntity
  8
0
100
AcDbLine
 10
10.00040145326096
 20
115.4197216379479
 30
0.0
 11
10.10040145326098
 21
115.4197216379479
 31
0.0
  0
ARC
  5
38E2
330
18BE
100
AcDbEntity
  8
0
100
AcDbCircle
 10
10.00040145326106
 20
115.829721637948
 30
0.0
 40
0.3
100
AcDbArc
 50
180.0
 51
270.0
  0
LINE
  5
38E3
330
18BE
100
AcDbEntity
  8
0
100
AcDbLine
 10
12.200401453261
 20
115.829721637948
 30
0.0
 11
12.200401453261
 21
118.5297216379481
 31
0.0
  0
LINE
  5
38E4
330
18BE
100
AcDbEntity
  8
0
100
AcDbLine
 10
12.35040145326098
 20
118.5297216379481
 30
0.0
 11
12.35040145326098
 21
115.4897216379481
 31
0.0
  0
LINE
  5
38E5
330
18BE
100
AcDbEntity
  8
0
100
AcDbLine
 10
12.200401453261
 20
118.5297216379481
 30
0.0
 11
12.35040145326098
 21
118.5297216379481
 31
0.0
  0
LINE
  5
38E6
330
18BE
100
AcDbEntity
  8
0
100
AcDbLine
 10
12.200401453261
 20
114.7197216379481
 30
0.0
 11
12.35040145326098
 21
114.7197216379481
 31
0.0
  0
LINE
  5
38E7
330
18BE
100
AcDbEntity
  8
0
100
AcDbLine
 10
11.80040145326102
 20
115.5297216379481
 30
0.0
 11
11.90040145326105
 21
115.5297216379481
 31
0.0
  0
ARC
  5
38E8
330
18BE
100
AcDbEntity
  8
0
100
AcDbCircle
 10
11.25040145326106
 20
116.4297216379479
 30
0.0
 40
0.3
100
AcDbArc
 50
270.0
 51
0.0
  0
LINE
  5
38E9
330
18BE
100
AcDbEntity
  8
0
100
AcDbLine
 10
12.85040145326098
 20
115.4897216379481
 30
0.0
 11
12.35040145326098
 21
115.4897216379481
 31
0.0
  0
LINE
  5
38EA
330
18BE
100
AcDbEntity
  8
0
100
AcDbLine
 10
11.80040145326102
 20
115.4197216379479
 30
0.0
 11
12.200401453261
 21
115.4197216379479
 31
0.0
  0
LINE
  5
38EB
330
18BE
100
AcDbEntity
  8
0
100
AcDbLine
 10
12.200401453261
 20
115.4197216379479
 30
0.0
 11
12.35040145326098
 21
115.4197216379479
 31
0.0
  0
LINE
  5
38EC
330
18BE
100
AcDbEntity
  8
0
100
AcDbLine
 10
11.55040145326102
 20
115.4197216379479
 30
0.0
 11
11.80040145326102
 21
115.4197216379479
 31
0.0
  0
LINE
  5
38ED
330
18BE
100
AcDbEntity
  8
0
100
AcDbLine
 10
11.55040145326102
 20
115.4197216379479
 30
0.0
 11
11.25040145326096
 21
115.4197216379479
 31
0.0
  0
LINE
  5
38EE
330
18BE
100
AcDbEntity
  8
0
100
AcDbLine
 10
12.85040145326098
 20
115.4897216379481
 30
0.0
 11
12.35040145326098
 21
115.4897216379481
 31
0.0
  0
LINE
  5
38EF
330
18BE
100
AcDbEntity
  8
0
100
AcDbLine
 10
12.35040145326098
 20
115.4897216379481
 30
0.0
 11
12.35040145326098
 21
115.4197216379479
 31
0.0
  0
ARC
  5
38F0
330
18BE
100
AcDbEntity
  8
0
100
AcDbCircle
 10
11.9004014532611
 20
115.829721637948
 30
0.0
 40
0.3
100
AcDbArc
 50
270.0
 51
0.0
  0
LINE
  5
38F1
330
18BE
100
AcDbEntity
  8
0
100
AcDbLine
 10
12.200401453261
 20
114.7197216379481
 30
0.0
 11
12.200401453261
 21
115.4197216379479
 31
0.0
  0
LINE
  5
38F2
330
18BE
100
AcDbEntity
  8
0
100
AcDbLine
 10
12.35040145326098
 20
115.4197216379479
 30
0.0
 11
12.35040145326098
 21
114.7197216379481
 31
0.0
  0
ARC
  5
38F3
330
18BE
100
AcDbEntity
  8
0
100
AcDbCircle
 10
10.6504014532611
 20
116.4297216379479
 30
0.0
 40
0.3
100
AcDbArc
 50
180.0
 51
270.0
  0
LINE
  5
38F4
330
18BE
100
AcDbEntity
  8
0
100
AcDbLine
 10
10.65040145326105
 20
115.4197216379479
 30
0.0
 11
10.35040145326098
 21
115.4197216379479
 31
0.0
  0
LINE
  5
38F5
330
18BE
100
AcDbEntity
  8
0
100
AcDbLine
 10
10.65040145326105
 20
116.1297216379479
 30
0.0
 11
11.25040145326096
 21
116.1297216379479
 31
0.0
  0
LINE
  5
38F6
330
18BE
100
AcDbEntity
  8
0
100
AcDbLine
 10
10.65040145326105
 20
115.4197216379479
 30
0.0
 11
11.25040145326096
 21
115.4197216379479
 31
0.0
  0
LINE
  5
38F7
330
18BE
100
AcDbEntity
  8
0
100
AcDbLine
 10
10.10040145326098
 20
115.4197216379479
 30
0.0
 11
10.35040145326098
 21
115.4197216379479
 31
0.0
  0
LINE
  5
38F8
330
18BE
100
AcDbEntity
  8
0
100
AcDbLine
 10
10.10040145326098
 20
115.5297216379481
 30
0.0
 11
11.80040145326102
 21
115.5297216379481
 31
0.0
  0
ARC
  5
38F9
330
18BE
100
AcDbEntity
  8
0
100
AcDbCircle
 10
11.25040145326106
 20
112.619721637948
 30
0.0
 40
0.3
100
AcDbArc
 50
270.0
 51
0.0
  0
ARC
  5
38FA
330
18BE
100
AcDbEntity
  8
0
100
AcDbCircle
 10
10.6504014532611
 20
112.619721637948
 30
0.0
 40
0.3
100
AcDbArc
 50
180.0
 51
270.0
  0
LINE
  5
38FB
330
18BE
100
AcDbEntity
  8
0
100
AcDbLine
 10
10.65040145326105
 20
112.3197216379479
 30
0.0
 11
11.25040145326096
 21
112.3197216379479
 31
0.0
  0
LINE
  5
38FC
330
18BE
100
AcDbEntity
  8
0
100
AcDbLine
 10
11.55040145326102
 20
112.619721637948
 30
0.0
 11
11.55040145326102
 21
115.4197216379479
 31
0.0
  0
LINE
  5
38FD
330
18BE
100
AcDbEntity
  8
0
100
AcDbLine
 10
10.35040145326098
 20
115.4197216379479
 30
0.0
 11
10.35040145326098
 21
112.619721637948
 31
0.0
  0
ARC
  5
38FE
330
18BE
100
AcDbEntity
  8
0
100
AcDbCircle
 10
10.00040145326106
 20
122.7397216379481
 30
0.0
 40
0.3
100
AcDbArc
 50
90.0
 51
180.0
  0
LINE
  5
38FF
330
18BE
100
AcDbEntity
  8
0
100
AcDbLine
 10
10.00040145326096
 20
123.149721637948
 30
0.0
 11
10.10040145326098
 21
123.149721637948
 31
0.0
  0
ARC
  5
3900
330
18BE
100
AcDbEntity
  8
0
100
AcDbCircle
 10
10.00040145326106
 20
123.449721637948
 30
0.0
 40
0.3
100
AcDbArc
 50
180.0
 51
270.0
  0
LINE
  5
3901
330
18BE
100
AcDbEntity
  8
0
100
AcDbLine
 10
10.00040145326096
 20
119.229721637948
 30
0.0
 11
10.10040145326098
 21
119.229721637948
 31
0.0
  0
ARC
  5
3902
330
18BE
100
AcDbEntity
  8
0
100
AcDbCircle
 10
10.00040145326106
 20
119.639721637948
 30
0.0
 40
0.3
100
AcDbArc
 50
180.0
 51
270.0
  0
LINE
  5
3903
330
18BE
100
AcDbEntity
  8
0
100
AcDbLine
 10
10.00040145326096
 20
119.339721637948
 30
0.0
 11
10.10040145326098
 21
119.339721637948
 31
0.0
  0
LINE
  5
3904
330
18BE
100
AcDbEntity
  8
0
100
AcDbLine
 10
10.00040145326096
 20
123.039721637948
 30
0.0
 11
10.10040145326098
 21
123.039721637948
 31
0.0
  0
LINE
  5
3905
330
18BE
100
AcDbEntity
  8
0
100
AcDbLine
 10
9.700401453261008
 20
119.639721637948
 30
0.0
 11
9.700401453261008
 21
122.7397216379481
 31
0.0
  0
ARC
  5
3906
330
18BE
100
AcDbEntity
  8
0
100
AcDbCircle
 10
10.00040145326106
 20
118.9297216379479
 30
0.0
 40
0.3
100
AcDbArc
 50
90.0
 51
180.0
  0
LINE
  5
3907
330
18BE
100
AcDbEntity
  8
0
100
AcDbLine
 10
12.35040145326098
 20
123.1097216379479
 30
0.0
 11
12.35040145326098
 21
123.039721637948
 31
0.0
  0
LINE
  5
3908
330
18BE
100
AcDbEntity
  8
0
100
AcDbLine
 10
11.80040145326102
 20
123.149721637948
 30
0.0
 11
11.90040145326105
 21
123.149721637948
 31
0.0
  0
LINE
  5
3909
330
18BE
100
AcDbEntity
  8
0
100
AcDbLine
 10
12.85040145326098
 20
123.1097216379479
 30
0.0
 11
12.35040145326098
 21
123.1097216379479
 31
0.0
  0
LINE
  5
390A
330
18BE
100
AcDbEntity
  8
0
100
AcDbLine
 10
12.85040145326098
 20
123.1097216379479
 30
0.0
 11
12.35040145326098
 21
123.1097216379479
 31
0.0
  0
ARC
  5
390B
330
18BE
100
AcDbEntity
  8
0
100
AcDbCircle
 10
11.25040145326106
 20
124.049721637948
 30
0.0
 40
0.3
100
AcDbArc
 50
270.0
 51
0.0
  0
ARC
  5
390C
330
18BE
100
AcDbEntity
  8
0
100
AcDbCircle
 10
11.9004014532611
 20
123.449721637948
 30
0.0
 40
0.3
100
AcDbArc
 50
270.0
 51
0.0
  0
ARC
  5
390D
330
18BE
100
AcDbEntity
  8
0
100
AcDbCircle
 10
10.6504014532611
 20
124.049721637948
 30
0.0
 40
0.3
100
AcDbArc
 50
180.0
 51
270.0
  0
LINE
  5
390E
330
18BE
100
AcDbEntity
  8
0
100
AcDbLine
 10
10.65040145326105
 20
123.7497216379481
 30
0.0
 11
11.25040145326096
 21
123.7497216379481
 31
0.0
  0
LINE
  5
390F
330
18BE
100
AcDbEntity
  8
0
100
AcDbLine
 10
11.55040145326102
 20
119.229721637948
 30
0.0
 11
11.25040145326096
 21
119.229721637948
 31
0.0
  0
LINE
  5
3910
330
18BE
100
AcDbEntity
  8
0
100
AcDbLine
 10
11.55040145326102
 20
119.229721637948
 30
0.0
 11
11.80040145326102
 21
119.229721637948
 31
0.0
  0
LINE
  5
3911
330
18BE
100
AcDbEntity
  8
0
100
AcDbLine
 10
12.200401453261
 20
119.229721637948
 30
0.0
 11
12.35040145326098
 21
119.229721637948
 31
0.0
  0
LINE
  5
3912
330
18BE
100
AcDbEntity
  8
0
100
AcDbLine
 10
11.80040145326102
 20
119.229721637948
 30
0.0
 11
12.200401453261
 21
119.229721637948
 31
0.0
  0
LINE
  5
3913
330
18BE
100
AcDbEntity
  8
0
100
AcDbLine
 10
12.35040145326098
 20
119.2997216379481
 30
0.0
 11
12.35040145326098
 21
119.229721637948
 31
0.0
  0
LINE
  5
3914
330
18BE
100
AcDbEntity
  8
0
100
AcDbLine
 10
12.85040145326098
 20
119.2997216379481
 30
0.0
 11
12.35040145326098
 21
119.2997216379481
 31
0.0
  0
ARC
  5
3915
330
18BE
100
AcDbEntity
  8
0
100
AcDbCircle
 10
11.9004014532611
 20
119.639721637948
 30
0.0
 40
0.3
100
AcDbArc
 50
270.0
 51
0.0
  0
LINE
  5
3916
330
18BE
100
AcDbEntity
  8
0
100
AcDbLine
 10
11.80040145326102
 20
119.339721637948
 30
0.0
 11
11.90040145326105
 21
119.339721637948
 31
0.0
  0
LINE
  5
3917
330
18BE
100
AcDbEntity
  8
0
100
AcDbLine
 10
12.85040145326098
 20
119.2997216379481
 30
0.0
 11
12.35040145326098
 21
119.2997216379481
 31
0.0
  0
ARC
  5
3918
330
18BE
100
AcDbEntity
  8
0
100
AcDbCircle
 10
11.25040145326106
 20
120.239721637948
 30
0.0
 40
0.3
100
AcDbArc
 50
270.0
 51
0.0
  0
LINE
  5
3919
330
18BE
100
AcDbEntity
  8
0
100
AcDbLine
 10
12.200401453261
 20
122.3397216379479
 30
0.0
 11
12.200401453261
 21
123.039721637948
 31
0.0
  0
LINE
  5
391A
330
18BE
100
AcDbEntity
  8
0
100
AcDbLine
 10
12.200401453261
 20
122.3397216379479
 30
0.0
 11
12.35040145326098
 21
122.3397216379479
 31
0.0
  0
LINE
  5
391B
330
18BE
100
AcDbEntity
  8
0
100
AcDbLine
 10
11.80040145326102
 20
123.039721637948
 30
0.0
 11
12.200401453261
 21
123.039721637948
 31
0.0
  0
LINE
  5
391C
330
18BE
100
AcDbEntity
  8
0
100
AcDbLine
 10
12.200401453261
 20
123.039721637948
 30
0.0
 11
12.35040145326098
 21
123.039721637948
 31
0.0
  0
LINE
  5
391D
330
18BE
100
AcDbEntity
  8
0
100
AcDbLine
 10
11.55040145326102
 20
123.039721637948
 30
0.0
 11
11.80040145326102
 21
123.039721637948
 31
0.0
  0
LINE
  5
391E
330
18BE
100
AcDbEntity
  8
0
100
AcDbLine
 10
11.55040145326102
 20
123.039721637948
 30
0.0
 11
11.25040145326096
 21
123.039721637948
 31
0.0
  0
LINE
  5
391F
330
18BE
100
AcDbEntity
  8
0
100
AcDbLine
 10
12.35040145326098
 20
123.039721637948
 30
0.0
 11
12.35040145326098
 21
122.3397216379479
 31
0.0
  0
LINE
  5
3920
330
18BE
100
AcDbEntity
  8
0
100
AcDbLine
 10
11.55040145326102
 20
120.239721637948
 30
0.0
 11
11.55040145326102
 21
123.039721637948
 31
0.0
  0
LINE
  5
3921
330
18BE
100
AcDbEntity
  8
0
100
AcDbLine
 10
12.200401453261
 20
119.639721637948
 30
0.0
 11
12.200401453261
 21
122.3397216379479
 31
0.0
  0
LINE
  5
3922
330
18BE
100
AcDbEntity
  8
0
100
AcDbLine
 10
12.35040145326098
 20
122.3397216379479
 30
0.0
 11
12.35040145326098
 21
119.2997216379481
 31
0.0
  0
LINE
  5
3923
330
18BE
100
AcDbEntity
  8
0
100
AcDbLine
 10
10.65040145326105
 20
119.229721637948
 30
0.0
 11
10.35040145326098
 21
119.229721637948
 31
0.0
  0
ARC
  5
3924
330
18BE
100
AcDbEntity
  8
0
100
AcDbCircle
 10
10.6504014532611
 20
120.239721637948
 30
0.0
 40
0.3
100
AcDbArc
 50
180.0
 51
270.0
  0
LINE
  5
3925
330
18BE
100
AcDbEntity
  8
0
100
AcDbLine
 10
10.65040145326105
 20
123.039721637948
 30
0.0
 11
10.35040145326098
 21
123.039721637948
 31
0.0
  0
LINE
  5
3926
330
18BE
100
AcDbEntity
  8
0
100
AcDbLine
 10
10.35040145326098
 20
123.039721637948
 30
0.0
 11
10.35040145326098
 21
120.239721637948
 31
0.0
  0
LINE
  5
3927
330
18BE
100
AcDbEntity
  8
0
100
AcDbLine
 10
10.65040145326105
 20
119.9397216379479
 30
0.0
 11
11.25040145326096
 21
119.9397216379479
 31
0.0
  0
LINE
  5
3928
330
18BE
100
AcDbEntity
  8
0
100
AcDbLine
 10
10.65040145326105
 20
119.229721637948
 30
0.0
 11
11.25040145326096
 21
119.229721637948
 31
0.0
  0
LINE
  5
3929
330
18BE
100
AcDbEntity
  8
0
100
AcDbLine
 10
10.65040145326105
 20
123.039721637948
 30
0.0
 11
11.25040145326096
 21
123.039721637948
 31
0.0
  0
LINE
  5
392A
330
18BE
100
AcDbEntity
  8
0
100
AcDbLine
 10
10.10040145326098
 20
123.149721637948
 30
0.0
 11
11.80040145326102
 21
123.149721637948
 31
0.0
  0
LINE
  5
392B
330
18BE
100
AcDbEntity
  8
0
100
AcDbLine
 10
10.10040145326098
 20
119.229721637948
 30
0.0
 11
10.35040145326098
 21
119.229721637948
 31
0.0
  0
LINE
  5
392C
330
18BE
100
AcDbEntity
  8
0
100
AcDbLine
 10
10.10040145326098
 20
123.039721637948
 30
0.0
 11
10.35040145326098
 21
123.039721637948
 31
0.0
  0
LINE
  5
392D
330
18BE
100
AcDbEntity
  8
0
100
AcDbLine
 10
10.10040145326098
 20
119.339721637948
 30
0.0
 11
11.80040145326102
 21
119.339721637948
 31
0.0
  0
LINE
  5
392E
330
18BE
100
AcDbEntity
  8
0
100
AcDbLine
 10
17.53040145326105
 20
119.2997216379481
 30
0.0
 11
17.53040145326105
 21
115.4897216379481
 31
0.0
  0
LINE
  5
392F
330
18BE
100
AcDbEntity
  8
0
100
AcDbLine
 10
18.10040145326097
 20
115.4897216379481
 30
0.0
 11
19.50040145326095
 21
115.4897216379481
 31
0.0
  0
LINE
  5
3930
330
18BE
100
AcDbEntity
  8
0
100
AcDbLine
 10
17.53040145326105
 20
115.4897216379481
 30
0.0
 11
21.90040145326105
 21
115.4897216379481
 31
0.0
  0
ARC
  5
3931
330
18BE
100
AcDbEntity
  8
0
100
AcDbCircle
 10
14.50040145326107
 20
117.3947216379481
 30
0.0
 40
0.85
100
AcDbArc
 50
0.0
 51
323.2696049999983
  0
ARC
  5
3932
330
18BE
100
AcDbEntity
  8
0
100
AcDbCircle
 10
14.50040145326107
 20
117.3947216379481
 30
0.0
 40
0.85
100
AcDbArc
 50
323.2696049999983
 51
0.0
  0
ARC
  5
3933
330
18BE
100
AcDbEntity
  8
0
100
AcDbCircle
 10
14.50040145326107
 20
113.5847216379482
 30
0.0
 40
0.85
100
AcDbArc
 50
323.2696049999983
 51
0.0
  0
ARC
  5
3934
330
18BE
100
AcDbEntity
  8
0
100
AcDbCircle
 10
14.50040145326107
 20
113.5847216379482
 30
0.0
 40
0.85
100
AcDbArc
 50
0.0
 51
323.2696049999983
  0
LINE
  5
3935
330
18BE
100
AcDbEntity
  8
0
100
AcDbLine
 10
17.53040145326105
 20
115.4897216379481
 30
0.0
 11
17.330401453261
 21
115.4897216379481
 31
0.0
  0
LINE
  5
3936
330
18BE
100
AcDbEntity
  8
0
100
AcDbLine
 10
17.97040145326099
 20
115.4897216379481
 30
0.0
 11
18.10040145326097
 21
115.4897216379481
 31
0.0
  0
LINE
  5
3937
330
18BE
100
AcDbEntity
  8
0
100
AcDbLine
 10
17.53040145326105
 20
115.4897216379481
 30
0.0
 11
17.97040145326099
 21
115.4897216379481
 31
0.0
  0
LINE
  5
3938
330
18BE
100
AcDbEntity
  8
0
100
AcDbLine
 10
17.53040145326105
 20
115.4897216379481
 30
0.0
 11
17.330401453261
 21
115.4897216379481
 31
0.0
  0
LINE
  5
3939
330
18BE
100
AcDbEntity
  8
0
100
AcDbLine
 10
16.570401453261
 20
115.4897216379481
 30
0.0
 11
17.330401453261
 21
115.4897216379481
 31
0.0
  0
LINE
  5
393A
330
18BE
100
AcDbEntity
  8
0
100
AcDbLine
 10
22.40040145326104
 20
115.599721637948
 30
0.0
 11
22.90040145326105
 21
115.599721637948
 31
0.0
  0
LINE
  5
393B
330
18BE
100
AcDbEntity
  8
0
100
AcDbLine
 10
22.40040145326104
 20
116.899721637948
 30
0.0
 11
22.90040145326105
 21
116.899721637948
 31
0.0
  0
LINE
  5
393C
330
18BE
100
AcDbEntity
  8
0
100
AcDbLine
 10
22.40040145326104
 20
115.599721637948
 30
0.0
 11
22.40040145326104
 21
115.4897216379481
 31
0.0
  0
LINE
  5
393D
330
18BE
100
AcDbEntity
  8
0
100
AcDbLine
 10
22.40040145326104
 20
115.4897216379481
 30
0.0
 11
21.90040145326105
 21
115.4897216379481
 31
0.0
  0
LINE
  5
393E
330
18BE
100
AcDbEntity
  8
0
100
AcDbLine
 10
22.40040145326104
 20
115.4897216379481
 30
0.0
 11
21.90040145326105
 21
115.4897216379481
 31
0.0
  0
LINE
  5
393F
330
18BE
100
AcDbEntity
  8
0
100
AcDbLine
 10
19.50040145326095
 20
115.4897216379481
 30
0.0
 11
21.90040145326105
 21
115.4897216379481
 31
0.0
  0
LINE
  5
3940
330
18BE
100
AcDbEntity
  8
0
100
AcDbLine
 10
22.90040145326105
 20
115.999721637948
 30
0.0
 11
22.90040145326105
 21
115.599721637948
 31
0.0
  0
LINE
  5
3941
330
18BE
100
AcDbEntity
  8
0
100
AcDbLine
 10
22.90040145326105
 20
116.4997216379481
 30
0.0
 11
22.90040145326105
 21
115.999721637948
 31
0.0
  0
LINE
  5
3942
330
18BE
100
AcDbEntity
  8
0
100
AcDbLine
 10
22.90040145326105
 20
116.899721637948
 30
0.0
 11
22.90040145326105
 21
116.4997216379481
 31
0.0
  0
LINE
  5
3943
330
18BE
100
AcDbEntity
  8
0
100
AcDbLine
 10
22.40040145326104
 20
113.089721637948
 30
0.0
 11
22.90040145326105
 21
113.089721637948
 31
0.0
  0
LINE
  5
3944
330
18BE
100
AcDbEntity
  8
0
100
AcDbLine
 10
22.90040145326105
 20
113.089721637948
 30
0.0
 11
22.90040145326105
 21
112.6897216379479
 31
0.0
  0
LINE
  5
3945
330
18BE
100
AcDbEntity
  8
0
100
AcDbLine
 10
18.10040145326097
 20
123.1097216379479
 30
0.0
 11
19.50040145326095
 21
123.1097216379479
 31
0.0
  0
LINE
  5
3946
330
18BE
100
AcDbEntity
  8
0
100
AcDbLine
 10
17.53040145326105
 20
123.1097216379479
 30
0.0
 11
21.90040145326105
 21
123.1097216379479
 31
0.0
  0
LINE
  5
3947
330
18BE
100
AcDbEntity
  8
0
100
AcDbLine
 10
18.10040145326097
 20
119.2997216379481
 30
0.0
 11
19.50040145326095
 21
119.2997216379481
 31
0.0
  0
LINE
  5
3948
330
18BE
100
AcDbEntity
  8
0
100
AcDbLine
 10
17.53040145326105
 20
119.2997216379481
 30
0.0
 11
21.90040145326105
 21
119.2997216379481
 31
0.0
  0
ARC
  5
3949
330
18BE
100
AcDbEntity
  8
0
100
AcDbCircle
 10
14.50040145326107
 20
125.014721637948
 30
0.0
 40
0.85
100
AcDbArc
 50
323.2696049999983
 51
0.0
  0
ARC
  5
394A
330
18BE
100
AcDbEntity
  8
0
100
AcDbCircle
 10
14.50040145326107
 20
121.2047216379479
 30
0.0
 40
0.85
100
AcDbArc
 50
323.2696049999983
 51
0.0
  0
ARC
  5
394B
330
18BE
100
AcDbEntity
  8
0
100
AcDbCircle
 10
14.50040145326107
 20
121.2047216379479
 30
0.0
 40
0.85
100
AcDbArc
 50
0.0
 51
323.2696049999983
  0
LINE
  5
394C
330
18BE
100
AcDbEntity
  8
0
100
AcDbLine
 10
17.53040145326105
 20
123.1097216379479
 30
0.0
 11
17.53040145326105
 21
119.2997216379481
 31
0.0
  0
LINE
  5
394D
330
18BE
100
AcDbEntity
  8
0
100
AcDbLine
 10
17.53040145326105
 20
123.1097216379479
 30
0.0
 11
17.330401453261
 21
123.1097216379479
 31
0.0
  0
LINE
  5
394E
330
18BE
100
AcDbEntity
  8
0
100
AcDbLine
 10
17.53040145326105
 20
123.1097216379479
 30
0.0
 11
17.330401453261
 21
123.1097216379479
 31
0.0
  0
LINE
  5
394F
330
18BE
100
AcDbEntity
  8
0
100
AcDbLine
 10
17.97040145326099
 20
123.1097216379479
 30
0.0
 11
18.10040145326097
 21
123.1097216379479
 31
0.0
  0
LINE
  5
3950
330
18BE
100
AcDbEntity
  8
0
100
AcDbLine
 10
17.53040145326105
 20
123.1097216379479
 30
0.0
 11
17.97040145326099
 21
123.1097216379479
 31
0.0
  0
LINE
  5
3951
330
18BE
100
AcDbEntity
  8
0
100
AcDbLine
 10
17.53040145326105
 20
119.2997216379481
 30
0.0
 11
17.97040145326099
 21
119.2997216379481
 31
0.0
  0
LINE
  5
3952
330
18BE
100
AcDbEntity
  8
0
100
AcDbLine
 10
17.97040145326099
 20
119.2997216379481
 30
0.0
 11
18.10040145326097
 21
119.2997216379481
 31
0.0
  0
LINE
  5
3953
330
18BE
100
AcDbEntity
  8
0
100
AcDbLine
 10
17.53040145326105
 20
119.2997216379481
 30
0.0
 11
17.330401453261
 21
119.2997216379481
 31
0.0
  0
LINE
  5
3954
330
18BE
100
AcDbEntity
  8
0
100
AcDbLine
 10
17.53040145326105
 20
119.2997216379481
 30
0.0
 11
17.330401453261
 21
119.2997216379481
 31
0.0
  0
LINE
  5
3955
330
18BE
100
AcDbEntity
  8
0
100
AcDbLine
 10
16.570401453261
 20
123.1097216379479
 30
0.0
 11
17.330401453261
 21
123.1097216379479
 31
0.0
  0
LINE
  5
3956
330
18BE
100
AcDbEntity
  8
0
100
AcDbLine
 10
16.570401453261
 20
119.2997216379481
 30
0.0
 11
17.330401453261
 21
119.2997216379481
 31
0.0
  0
LINE
  5
3957
330
18BE
100
AcDbEntity
  8
0
100
AcDbLine
 10
22.40040145326104
 20
124.519721637948
 30
0.0
 11
22.90040145326105
 21
124.519721637948
 31
0.0
  0
LINE
  5
3958
330
18BE
100
AcDbEntity
  8
0
100
AcDbLine
 10
22.40040145326104
 20
120.709721637948
 30
0.0
 11
22.90040145326105
 21
120.709721637948
 31
0.0
  0
LINE
  5
3959
330
18BE
100
AcDbEntity
  8
0
100
AcDbLine
 10
22.40040145326104
 20
119.409721637948
 30
0.0
 11
22.90040145326105
 21
119.409721637948
 31
0.0
  0
LINE
  5
395A
330
18BE
100
AcDbEntity
  8
0
100
AcDbLine
 10
22.40040145326104
 20
123.219721637948
 30
0.0
 11
22.90040145326105
 21
123.219721637948
 31
0.0
  0
LINE
  5
395B
330
18BE
100
AcDbEntity
  8
0
100
AcDbLine
 10
22.40040145326104
 20
123.1097216379479
 30
0.0
 11
21.90040145326105
 21
123.1097216379479
 31
0.0
  0
LINE
  5
395C
330
18BE
100
AcDbEntity
  8
0
100
AcDbLine
 10
22.40040145326104
 20
123.1097216379479
 30
0.0
 11
21.90040145326105
 21
123.1097216379479
 31
0.0
  0
LINE
  5
395D
330
18BE
100
AcDbEntity
  8
0
100
AcDbLine
 10
22.40040145326104
 20
123.219721637948
 30
0.0
 11
22.40040145326104
 21
123.1097216379479
 31
0.0
  0
LINE
  5
395E
330
18BE
100
AcDbEntity
  8
0
100
AcDbLine
 10
19.50040145326095
 20
123.1097216379479
 30
0.0
 11
21.90040145326105
 21
123.1097216379479
 31
0.0
  0
LINE
  5
395F
330
18BE
100
AcDbEntity
  8
0
100
AcDbLine
 10
22.40040145326104
 20
119.409721637948
 30
0.0
 11
22.40040145326104
 21
119.2997216379481
 31
0.0
  0
LINE
  5
3960
330
18BE
100
AcDbEntity
  8
0
100
AcDbLine
 10
22.40040145326104
 20
119.2997216379481
 30
0.0
 11
21.90040145326105
 21
119.2997216379481
 31
0.0
  0
LINE
  5
3961
330
18BE
100
AcDbEntity
  8
0
100
AcDbLine
 10
22.40040145326104
 20
119.2997216379481
 30
0.0
 11
21.90040145326105
 21
119.2997216379481
 31
0.0
  0
LINE
  5
3962
330
18BE
100
AcDbEntity
  8
0
100
AcDbLine
 10
19.50040145326095
 20
119.2997216379481
 30
0.0
 11
21.90040145326105
 21
119.2997216379481
 31
0.0
  0
LINE
  5
3963
330
18BE
100
AcDbEntity
  8
0
100
AcDbLine
 10
22.90040145326105
 20
123.619721637948
 30
0.0
 11
22.90040145326105
 21
123.219721637948
 31
0.0
  0
LINE
  5
3964
330
18BE
100
AcDbEntity
  8
0
100
AcDbLine
 10
22.90040145326105
 20
124.1197216379479
 30
0.0
 11
22.90040145326105
 21
123.619721637948
 31
0.0
  0
LINE
  5
3965
330
18BE
100
AcDbEntity
  8
0
100
AcDbLine
 10
22.90040145326105
 20
120.709721637948
 30
0.0
 11
22.90040145326105
 21
120.3097216379479
 31
0.0
  0
LINE
  5
3966
330
18BE
100
AcDbEntity
  8
0
100
AcDbLine
 10
22.90040145326105
 20
119.809721637948
 30
0.0
 11
22.90040145326105
 21
119.409721637948
 31
0.0
  0
LINE
  5
3967
330
18BE
100
AcDbEntity
  8
0
100
AcDbLine
 10
22.90040145326105
 20
120.3097216379479
 30
0.0
 11
22.90040145326105
 21
119.809721637948
 31
0.0
  0
LINE
  5
3968
330
18BE
100
AcDbEntity
  8
0
100
AcDbLine
 10
22.90040145326105
 20
124.519721637948
 30
0.0
 11
22.90040145326105
 21
124.1197216379479
 31
0.0
  0
LINE
  5
3969
330
18BE
100
AcDbEntity
  8
0
100
AcDbLine
 10
12.85040145326098
 20
126.9197216379479
 30
0.0
 11
16.570401453261
 21
126.9197216379479
 31
0.0
  0
CIRCLE
  5
396A
330
18BE
100
AcDbEntity
  8
0
100
AcDbCircle
 10
14.50040145326107
 20
128.8247216379481
 30
0.0
 40
1.564999999999999
  0
LINE
  5
396B
330
18BE
100
AcDbEntity
  8
3_表示パネル
  6
CONTINUOUS
100
AcDbLine
 10
13.90040145326098
 20
133.4097226379483
 30
0.0
 11
9.200401453261008
 21
133.4097226379483
 31
0.0
  0
LINE
  5
396C
330
18BE
100
AcDbEntity
  8
0
100
AcDbLine
 10
12.85040145326098
 20
126.9197216379479
 30
0.0
 11
17.330401453261
 21
126.9197216379479
 31
0.0
  0
LINE
  5
396D
330
18BE
100
AcDbEntity
  8
0
100
AcDbLine
 10
22.40040145326104
 20
130.7297216379481
 30
0.0
 11
12.35040145326098
 21
130.7297216379481
 31
0.0
  0
LINE
  5
396E
330
18BE
100
AcDbEntity
  8
0
100
AcDbLine
 10
22.40040145326104
 20
133.2297216379481
 30
0.0
 11
12.35040145326098
 21
133.2297216379481
 31
0.0
  0
LINE
  5
396F
330
18BE
100
AcDbEntity
  8
0
100
AcDbLine
 10
12.35040145326098
 20
130.7297216379481
 30
0.0
 11
12.35040145326098
 21
133.2297216379481
 31
0.0
  0
LINE
  5
3970
330
18BE
100
AcDbEntity
  8
0
100
AcDbLine
 10
10.00040145326096
 20
130.6597216379479
 30
0.0
 11
10.10040145326098
 21
130.6597216379479
 31
0.0
  0
ARC
  5
3971
330
18BE
100
AcDbEntity
  8
0
100
AcDbCircle
 10
10.00040145326106
 20
130.3597216379479
 30
0.0
 40
0.3
100
AcDbArc
 50
90.0
 51
180.0
  0
LINE
  5
3972
330
18BE
100
AcDbEntity
  8
0
100
AcDbLine
 10
10.00040145326096
 20
126.8497216379479
 30
0.0
 11
10.10040145326098
 21
126.8497216379479
 31
0.0
  0
ARC
  5
3973
330
18BE
100
AcDbEntity
  8
0
100
AcDbCircle
 10
10.00040145326106
 20
126.5497216379481
 30
0.0
 40
0.3
100
AcDbArc
 50
90.0
 51
180.0
  0
LINE
  5
3974
330
18BE
100
AcDbEntity
  8
0
100
AcDbLine
 10
10.00040145326096
 20
126.959721637948
 30
0.0
 11
10.10040145326098
 21
126.959721637948
 31
0.0
  0
ARC
  5
3975
330
18BE
100
AcDbEntity
  8
0
100
AcDbCircle
 10
10.00040145326106
 20
127.259721637948
 30
0.0
 40
0.3
100
AcDbArc
 50
180.0
 51
270.0
  0
LINE
  5
3976
330
18BE
100
AcDbEntity
  8
0
100
AcDbLine
 10
9.700401453261008
 20
127.259721637948
 30
0.0
 11
9.700401453261008
 21
130.3597216379479
 31
0.0
  0
LINE
  5
3977
330
18BE
100
AcDbEntity
  8
0
100
AcDbLine
 10
12.35040145326098
 20
130.6597216379479
 30
0.0
 11
12.35040145326098
 21
129.959721637948
 31
0.0
  0
LINE
  5
3978
330
18BE
100
AcDbEntity
  8
0
100
AcDbLine
 10
11.55040145326102
 20
130.6597216379479
 30
0.0
 11
11.25040145326096
 21
130.6597216379479
 31
0.0
  0
LINE
  5
3979
330
18BE
100
AcDbEntity
  8
0
100
AcDbLine
 10
11.55040145326102
 20
130.6597216379479
 30
0.0
 11
11.80040145326102
 21
130.6597216379479
 31
0.0
  0
LINE
  5
397A
330
18BE
100
AcDbEntity
  8
0
100
AcDbLine
 10
12.200401453261
 20
130.6597216379479
 30
0.0
 11
12.35040145326098
 21
130.6597216379479
 31
0.0
  0
LINE
  5
397B
330
18BE
100
AcDbEntity
  8
0
100
AcDbLine
 10
11.80040145326102
 20
130.6597216379479
 30
0.0
 11
12.200401453261
 21
130.6597216379479
 31
0.0
  0
LINE
  5
397C
330
18BE
100
AcDbEntity
  8
0
100
AcDbLine
 10
12.200401453261
 20
129.959721637948
 30
0.0
 11
12.35040145326098
 21
129.959721637948
 31
0.0
  0
LINE
  5
397D
330
18BE
100
AcDbEntity
  8
0
100
AcDbLine
 10
12.200401453261
 20
129.959721637948
 30
0.0
 11
12.200401453261
 21
130.6597216379479
 31
0.0
  0
LINE
  5
397E
330
18BE
100
AcDbEntity
  8
0
100
AcDbLine
 10
12.35040145326098
 20
130.7297216379481
 30
0.0
 11
12.35040145326098
 21
130.6597216379479
 31
0.0
  0
LINE
  5
397F
330
18BE
100
AcDbEntity
  8
0
100
AcDbLine
 10
10.65040145326105
 20
130.6597216379479
 30
0.0
 11
10.35040145326098
 21
130.6597216379479
 31
0.0
  0
LINE
  5
3980
330
18BE
100
AcDbEntity
  8
0
100
AcDbLine
 10
10.65040145326105
 20
130.6597216379479
 30
0.0
 11
11.25040145326096
 21
130.6597216379479
 31
0.0
  0
LINE
  5
3981
330
18BE
100
AcDbEntity
  8
0
100
AcDbLine
 10
12.35040145326098
 20
126.9197216379479
 30
0.0
 11
12.35040145326098
 21
126.8497216379479
 31
0.0
  0
LINE
  5
3982
330
18BE
100
AcDbEntity
  8
0
100
AcDbLine
 10
12.35040145326098
 20
126.8497216379479
 30
0.0
 11
12.35040145326098
 21
126.1497216379479
 31
0.0
  0
LINE
  5
3983
330
18BE
100
AcDbEntity
  8
0
100
AcDbLine
 10
12.85040145326098
 20
126.9197216379479
 30
0.0
 11
12.35040145326098
 21
126.9197216379479
 31
0.0
  0
LINE
  5
3984
330
18BE
100
AcDbEntity
  8
0
100
AcDbLine
 10
12.85040145326098
 20
126.9197216379479
 30
0.0
 11
12.35040145326098
 21
126.9197216379479
 31
0.0
  0
LINE
  5
3985
330
18BE
100
AcDbEntity
  8
0
100
AcDbLine
 10
11.80040145326102
 20
126.959721637948
 30
0.0
 11
11.90040145326105
 21
126.959721637948
 31
0.0
  0
ARC
  5
3986
330
18BE
100
AcDbEntity
  8
0
100
AcDbCircle
 10
11.25040145326106
 20
127.859721637948
 30
0.0
 40
0.3
100
AcDbArc
 50
270.0
 51
0.0
  0
ARC
  5
3987
330
18BE
100
AcDbEntity
  8
0
100
AcDbCircle
 10
11.9004014532611
 20
127.259721637948
 30
0.0
 40
0.3
100
AcDbArc
 50
270.0
 51
0.0
  0
LINE
  5
3988
330
18BE
100
AcDbEntity
  8
0
100
AcDbLine
 10
11.55040145326102
 20
126.8497216379479
 30
0.0
 11
11.25040145326096
 21
126.8497216379479
 31
0.0
  0
LINE
  5
3989
330
18BE
100
AcDbEntity
  8
0
100
AcDbLine
 10
11.55040145326102
 20
126.8497216379479
 30
0.0
 11
11.80040145326102
 21
126.8497216379479
 31
0.0
  0
LINE
  5
398A
330
18BE
100
AcDbEntity
  8
0
100
AcDbLine
 10
12.200401453261
 20
126.8497216379479
 30
0.0
 11
12.35040145326098
 21
126.8497216379479
 31
0.0
  0
LINE
  5
398B
330
18BE
100
AcDbEntity
  8
0
100
AcDbLine
 10
11.80040145326102
 20
126.8497216379479
 30
0.0
 11
12.200401453261
 21
126.8497216379479
 31
0.0
  0
LINE
  5
398C
330
18BE
100
AcDbEntity
  8
0
100
AcDbLine
 10
12.200401453261
 20
126.1497216379479
 30
0.0
 11
12.35040145326098
 21
126.1497216379479
 31
0.0
  0
LINE
  5
398D
330
18BE
100
AcDbEntity
  8
0
100
AcDbLine
 10
12.200401453261
 20
126.1497216379479
 30
0.0
 11
12.200401453261
 21
126.8497216379479
 31
0.0
  0
LINE
  5
398E
330
18BE
100
AcDbEntity
  8
0
100
AcDbLine
 10
10.65040145326105
 20
126.8497216379479
 30
0.0
 11
10.35040145326098
 21
126.8497216379479
 31
0.0
  0
ARC
  5
398F
330
18BE
100
AcDbEntity
  8
0
100
AcDbCircle
 10
10.6504014532611
 20
127.859721637948
 30
0.0
 40
0.3
100
AcDbArc
 50
180.0
 51
270.0
  0
LINE
  5
3990
330
18BE
100
AcDbEntity
  8
0
100
AcDbLine
 10
10.65040145326105
 20
126.8497216379479
 30
0.0
 11
11.25040145326096
 21
126.8497216379479
 31
0.0
  0
LINE
  5
3991
330
18BE
100
AcDbEntity
  8
0
100
AcDbLine
 10
10.65040145326105
 20
127.5597216379479
 30
0.0
 11
11.25040145326096
 21
127.5597216379479
 31
0.0
  0
LINE
  5
3992
330
18BE
100
AcDbEntity
  8
0
100
AcDbLine
 10
12.35040145326098
 20
129.959721637948
 30
0.0
 11
12.35040145326098
 21
126.9197216379479
 31
0.0
  0
LINE
  5
3993
330
18BE
100
AcDbEntity
  8
0
100
AcDbLine
 10
12.200401453261
 20
127.259721637948
 30
0.0
 11
12.200401453261
 21
129.959721637948
 31
0.0
  0
LINE
  5
3994
330
18BE
100
AcDbEntity
  8
0
100
AcDbLine
 10
11.55040145326102
 20
127.859721637948
 30
0.0
 11
11.55040145326102
 21
130.6597216379479
 31
0.0
  0
LINE
  5
3995
330
18BE
100
AcDbEntity
  8
0
100
AcDbLine
 10
10.35040145326098
 20
130.6597216379479
 30
0.0
 11
10.35040145326098
 21
127.859721637948
 31
0.0
  0
LINE
  5
3996
330
18BE
100
AcDbEntity
  8
0
100
AcDbLine
 10
10.10040145326098
 20
130.6597216379479
 30
0.0
 11
10.35040145326098
 21
130.6597216379479
 31
0.0
  0
LINE
  5
3997
330
18BE
100
AcDbEntity
  8
0
100
AcDbLine
 10
10.10040145326098
 20
126.8497216379479
 30
0.0
 11
10.35040145326098
 21
126.8497216379479
 31
0.0
  0
LINE
  5
3998
330
18BE
100
AcDbEntity
  8
0
100
AcDbLine
 10
10.10040145326098
 20
126.959721637948
 30
0.0
 11
11.80040145326102
 21
126.959721637948
 31
0.0
  0
LINE
  5
3999
330
18BE
100
AcDbEntity
  8
0
100
AcDbLine
 10
17.53040145326105
 20
130.7297216379481
 30
0.0
 11
17.53040145326105
 21
133.2297216379481
 31
0.0
  0
LINE
  5
399A
330
18BE
100
AcDbEntity
  8
0
100
AcDbLine
 10
18.10040145326097
 20
126.9197216379479
 30
0.0
 11
19.50040145326095
 21
126.9197216379479
 31
0.0
  0
LINE
  5
399B
330
18BE
100
AcDbEntity
  8
0
100
AcDbLine
 10
17.53040145326105
 20
126.9197216379479
 30
0.0
 11
21.90040145326105
 21
126.9197216379479
 31
0.0
  0
ARC
  5
399C
330
18BE
100
AcDbEntity
  8
0
100
AcDbCircle
 10
14.50040145326107
 20
128.8247216379481
 30
0.0
 40
0.85
100
AcDbArc
 50
323.2696049999983
 51
0.0
  0
ARC
  5
399D
330
18BE
100
AcDbEntity
  8
0
100
AcDbCircle
 10
14.50040145326107
 20
128.8247216379481
 30
0.0
 40
0.85
100
AcDbArc
 50
0.0
 51
323.2696049999983
  0
LINE
  5
399E
330
18BE
100
AcDbEntity
  8
0
100
AcDbLine
 10
17.53040145326105
 20
126.9197216379479
 30
0.0
 11
17.330401453261
 21
126.9197216379479
 31
0.0
  0
LINE
  5
399F
330
18BE
100
AcDbEntity
  8
0
100
AcDbLine
 10
17.53040145326105
 20
126.9197216379479
 30
0.0
 11
17.97040145326099
 21
126.9197216379479
 31
0.0
  0
LINE
  5
39A0
330
18BE
100
AcDbEntity
  8
0
100
AcDbLine
 10
17.97040145326099
 20
126.9197216379479
 30
0.0
 11
18.10040145326097
 21
126.9197216379479
 31
0.0
  0
LINE
  5
39A1
330
18BE
100
AcDbEntity
  8
0
100
AcDbLine
 10
17.53040145326105
 20
126.9197216379479
 30
0.0
 11
17.330401453261
 21
126.9197216379479
 31
0.0
  0
LINE
  5
39A2
330
18BE
100
AcDbEntity
  8
0
100
AcDbLine
 10
17.53040145326105
 20
130.7297216379481
 30
0.0
 11
17.53040145326105
 21
126.9197216379479
 31
0.0
  0
LINE
  5
39A3
330
18BE
100
AcDbEntity
  8
0
100
AcDbLine
 10
16.570401453261
 20
126.9197216379479
 30
0.0
 11
17.330401453261
 21
126.9197216379479
 31
0.0
  0
LINE
  5
39A4
330
18BE
100
AcDbEntity
  8
0
100
AcDbLine
 10
22.90040145326105
 20
128.329721637948
 30
0.0
 11
22.90040145326105
 21
127.9297216379479
 31
0.0
  0
LINE
  5
39A5
330
18BE
100
AcDbEntity
  8
0
100
AcDbLine
 10
22.40040145326104
 20
128.329721637948
 30
0.0
 11
22.40040145326104
 21
127.0297216379481
 31
0.0
  0
LINE
  5
39A6
330
18BE
100
AcDbEntity
  8
0
100
AcDbLine
 10
22.40040145326104
 20
128.329721637948
 30
0.0
 11
22.90040145326105
 21
128.329721637948
 31
0.0
  0
LINE
  5
39A7
330
18BE
100
AcDbEntity
  8
0
100
AcDbLine
 10
22.40040145326104
 20
127.0297216379481
 30
0.0
 11
22.90040145326105
 21
127.0297216379481
 31
0.0
  0
LINE
  5
39A8
330
18BE
100
AcDbEntity
  8
0
100
AcDbLine
 10
22.40040145326104
 20
126.9197216379479
 30
0.0
 11
21.90040145326105
 21
126.9197216379479
 31
0.0
  0
LINE
  5
39A9
330
18BE
100
AcDbEntity
  8
0
100
AcDbLine
 10
22.40040145326104
 20
126.9197216379479
 30
0.0
 11
21.90040145326105
 21
126.9197216379479
 31
0.0
  0
LINE
  5
39AA
330
18BE
100
AcDbEntity
  8
0
100
AcDbLine
 10
22.40040145326104
 20
127.0297216379481
 30
0.0
 11
22.40040145326104
 21
126.9197216379479
 31
0.0
  0
LINE
  5
39AB
330
18BE
100
AcDbEntity
  8
0
100
AcDbLine
 10
19.50040145326095
 20
126.9197216379479
 30
0.0
 11
21.90040145326105
 21
126.9197216379479
 31
0.0
  0
LINE
  5
39AC
330
18BE
100
AcDbEntity
  8
0
100
AcDbLine
 10
22.90040145326105
 20
127.4297216379479
 30
0.0
 11
22.90040145326105
 21
127.0297216379481
 31
0.0
  0
LINE
  5
39AD
330
18BE
100
AcDbEntity
  8
0
100
AcDbLine
 10
22.90040145326105
 20
127.9297216379479
 30
0.0
 11
22.90040145326105
 21
127.4297216379479
 31
0.0
  0
LINE
  5
39AE
330
18BE
100
AcDbEntity
  8
0
100
AcDbLine
 10
15.45040145325953
 20
134.079721637952
 30
0.0
 11
22.40040145326025
 21
134.079721637952
 31
0.0
  0
LINE
  5
39AF
330
18BE
100
AcDbEntity
  8
0
100
AcDbLine
 10
21.70040145325953
 20
134.4797216379518
 30
0.0
 11
16.70040145325953
 21
134.4797216379518
 31
0.0
  0
LINE
  5
39B0
330
18BE
100
AcDbEntity
  8
0
100
AcDbLine
 10
16.70040145325953
 20
134.6797216379524
 30
0.0
 11
15.90040145326025
 21
134.6797216379524
 31
0.0
  0
LINE
  5
39B1
330
18BE
100
AcDbEntity
  8
0
100
AcDbLine
 10
15.90040145326025
 20
136.8797216379531
 30
0.0
 11
16.10040145325916
 21
136.8797216379531
 31
0.0
  0
LINE
  5
39B2
330
18BE
100
AcDbEntity
  8
0
100
AcDbLine
 10
16.10040145325916
 20
136.9797216379518
 30
0.0
 11
15.10040145325915
 21
136.9797216379518
 31
0.0
  0
LINE
  5
39B3
330
18BE
100
AcDbEntity
  8
0
100
AcDbLine
 10
14.40040145326024
 20
136.3797216379531
 30
0.0
 11
15.45040145325953
 21
136.3797216379531
 31
0.0
  0
LINE
  5
39B4
330
18BE
100
AcDbEntity
  8
0
100
AcDbLine
 10
15.90040145326025
 20
134.6797216379524
 30
0.0
 11
15.90040145326025
 21
136.8797216379531
 31
0.0
  0
LINE
  5
39B5
330
18BE
100
AcDbEntity
  8
0
100
AcDbLine
 10
16.70040145325953
 20
134.4797216379518
 30
0.0
 11
16.70040145325953
 21
134.6797216379524
 31
0.0
  0
LINE
  5
39B6
330
18BE
100
AcDbEntity
  8
0
100
AcDbLine
 10
16.10040145325916
 20
136.8797216379531
 30
0.0
 11
16.10040145325916
 21
136.9797216379518
 31
0.0
  0
LINE
  5
39B7
330
18BE
100
AcDbEntity
  8
0
100
AcDbLine
 10
15.45040145325953
 20
136.3797216379531
 30
0.0
 11
15.45040145325953
 21
134.079721637952
 31
0.0
  0
LINE
  5
39B8
330
18BE
100
AcDbEntity
  8
0
100
AcDbLine
 10
22.90040145326025
 20
136.0797216379521
 30
0.0
 11
22.40040145326025
 21
136.0797216379521
 31
0.0
  0
CIRCLE
  5
39B9
330
18BE
100
AcDbEntity
  8
0
100
AcDbCircle
 10
18.92540145326012
 20
136.5797216379522
 30
0.0
 40
0.32
  0
LINE
  5
39BA
330
18BE
100
AcDbEntity
  8
0
100
AcDbLine
 10
22.40040145326025
 20
134.079721637952
 30
0.0
 11
22.90040145326025
 21
134.079721637952
 31
0.0
  0
LINE
  5
39BB
330
18BE
100
AcDbEntity
  8
0
100
AcDbLine
 10
22.90040145326025
 20
134.079721637952
 30
0.0
 11
22.90040145326025
 21
136.0797216379521
 31
0.0
  0
LINE
  5
39BC
330
18BE
100
AcDbEntity
  8
0
100
AcDbLine
 10
90.25830147626882
 20
86.50558863794804
 30
0.0
 11
90.25830147626882
 21
98.5074406379482
 31
0.0
  0
LINE
  5
39BD
330
18BE
100
AcDbEntity
  8
0
100
AcDbLine
 10
90.25192847626877
 20
87.50558863794806
 30
0.0
 11
90.25830147626882
 21
87.51196163794807
 31
0.0
  0
LINE
  5
39BE
330
18BE
100
AcDbEntity
  8
0
100
AcDbLine
 10
88.75830147626881
 20
86.50558863794804
 30
0.0
 11
90.25830147626882
 21
86.50558863794804
 31
0.0
  0
LINE
  5
39BF
330
18BE
100
AcDbEntity
  8
0
100
AcDbLine
 10
156.1583014762686
 20
133.1697216379481
 30
0.0
 11
156.1583014762683
 21
104.099721637948
 31
0.0
  0
LINE
  5
39C0
330
18BE
100
AcDbEntity
  8
0
100
AcDbLine
 10
156.0739754762686
 20
104.099721637948
 30
0.0
 11
156.1583014762683
 21
104.099721637948
 31
0.0
  0
LINE
  5
39C1
330
18BE
100
AcDbEntity
  8
0
100
AcDbLine
 10
156.0739754762686
 20
111.719721637948
 30
0.0
 11
156.1583014762683
 21
111.719721637948
 31
0.0
  0
LINE
  5
39C2
330
18BE
100
AcDbEntity
  8
0
100
AcDbLine
 10
156.0739754762686
 20
107.9097216379482
 30
0.0
 11
156.1583014762683
 21
107.9097216379482
 31
0.0
  0
LINE
  5
39C3
330
18BE
100
AcDbEntity
  8
0
100
AcDbLine
 10
156.0739754762686
 20
115.5297216379481
 30
0.0
 11
156.1583014762683
 21
115.5297216379482
 31
0.0
  0
LINE
  5
39C4
330
18BE
100
AcDbEntity
  8
0
100
AcDbLine
 10
156.073975476269
 20
123.1097216379479
 30
0.0
 11
156.1583014762686
 21
123.1097216379479
 31
0.0
  0
LINE
  5
39C5
330
18BE
100
AcDbEntity
  8
0
100
AcDbLine
 10
156.0739754762686
 20
119.339721637948
 30
0.0
 11
156.1583014762683
 21
119.339721637948
 31
0.0
  0
LINE
  5
39C6
330
18BE
100
AcDbEntity
  8
0
100
AcDbLine
 10
156.073975476269
 20
130.7297216379479
 30
0.0
 11
156.1583014762686
 21
130.7297216379479
 31
0.0
  0
LINE
  5
39C7
330
18BE
100
AcDbEntity
  8
0
100
AcDbLine
 10
156.073975476269
 20
126.9197216379479
 30
0.0
 11
156.1583014762686
 21
126.9197216379477
 31
0.0
  0
LINE
  5
39C8
330
18BE
100
AcDbEntity
  8
0
100
AcDbLine
 10
156.0739754762686
 20
133.9797216379474
 30
0.0
 11
156.1583014762686
 21
133.9797216379474
 31
0.0
  0
LINE
  5
39C9
330
18BE
100
AcDbEntity
  8
0
100
AcDbLine
 10
156.073975476269
 20
133.1297216379479
 30
0.0
 11
156.1583014762686
 21
133.1297216379478
 31
0.0
  0
LINE
  5
39CA
330
18BE
100
AcDbEntity
  8
0
100
AcDbLine
 10
2.996505325920253
 20
291.9812759914948
 30
0.0
 11
2.000193325920548
 21
356.6713489914949
 31
0.0
  0
LINE
  5
39CB
330
18BE
100
AcDbEntity
  8
0
100
AcDbLine
 10
7.413972325920467
 20
297.3747639914948
 30
0.0
 11
6.500727325920337
 21
356.6713489914949
 31
0.0
  0
LINE
  5
39CC
330
18BE
100
AcDbEntity
  8
0
100
AcDbLine
 10
0.9155273259202941
 20
297.2112229914948
 30
0.0
 11
0.0000013259205787
 21
356.655949991495
 31
0.0
  0
LINE
  5
39CD
330
18BE
100
AcDbEntity
  8
0
100
AcDbLine
 10
27.58683432592035
 20
297.3747639914948
 30
0.0
 11
28.50007732592037
 21
356.6713489914949
 31
0.0
  0
LINE
  5
39CE
330
18BE
100
AcDbEntity
  8
0
100
AcDbLine
 10
32.00430132592035
 20
291.9812759914948
 30
0.0
 11
33.0006113259204
 21
356.6713489914949
 31
0.0
  0
LINE
  5
39CF
330
18BE
100
AcDbEntity
  8
0
100
AcDbLine
 10
34.08527832592042
 20
297.2112229914948
 30
0.0
 11
35.0008033259206
 21
356.655949991495
 31
0.0
  0
LINE
  5
39D0
330
18BE
100
AcDbEntity
  8
0
100
AcDbLine
 10
5.000401453261105
 20
251.5058536379477
 30
0.0
 11
5.000401453261105
 21
237.5647226379483
 31
0.0
  0
LINE
  5
39D1
330
18BE
100
AcDbEntity
  8
0
100
AcDbLine
 10
14.80666145326105
 20
240.253235637948
 30
0.0
 11
14.80666145326117
 21
245.3167376379477
 31
0.0
  0
LINE
  5
39D2
330
18BE
100
AcDbEntity
  8
0
100
AcDbLine
 10
16.64286045326113
 20
242.7955326379481
 30
0.0
 11
16.64286045326113
 21
245.3167376379477
 31
0.0
  0
LINE
  5
39D3
330
18BE
100
AcDbEntity
  8
0
100
AcDbLine
 10
24.5004014532611
 20
246.0647216379479
 30
0.0
 11
24.5004014532611
 21
244.4647216379479
 31
0.0
  0
LINE
  5
39D4
330
18BE
100
AcDbEntity
  8
0
100
AcDbLine
 10
25.60040145326112
 20
244.4647216379479
 30
0.0
 11
25.60040145326112
 21
246.0647216379479
 31
0.0
  0
LINE
  5
39D5
330
18BE
100
AcDbEntity
  8
0
100
AcDbLine
 10
25.60040145326112
 20
244.4647216379479
 30
0.0
 11
25.60040145326112
 21
246.0647216379479
 31
0.0
  0
LINE
  5
39D6
330
18BE
100
AcDbEntity
  8
0
100
AcDbLine
 10
25.60040145326112
 20
244.4647216379479
 30
0.0
 11
25.60040145326112
 21
246.0647216379479
 31
0.0
  0
LINE
  5
39D7
330
18BE
100
AcDbEntity
  8
0
100
AcDbLine
 10
24.30040145326106
 20
246.6097226379484
 30
0.0
 11
24.30040145326106
 21
243.9097226379483
 31
0.0
  0
LINE
  5
39D8
330
18BE
100
AcDbEntity
  8
0
100
AcDbLine
 10
25.90040145326108
 20
243.9097226379483
 30
0.0
 11
25.90040145326108
 21
246.6097226379484
 31
0.0
  0
LINE
  5
39D9
330
18BE
100
AcDbEntity
  8
0
100
AcDbLine
 10
22.90040145326107
 20
239.9647216379479
 30
0.0
 11
22.90040145326107
 21
246.0647216379479
 31
0.0
  0
LINE
  5
39DA
330
18BE
100
AcDbEntity
  8
0
100
AcDbLine
 10
22.65040145326107
 20
227.494721637948
 30
0.0
 11
22.65040145326107
 21
246.0647216379479
 31
0.0
  0
LINE
  5
39DB
330
18BE
100
AcDbEntity
  8
0
100
AcDbLine
 10
21.94744145326112
 20
240.253235637948
 30
0.0
 11
21.94744145326112
 21
245.3167376379477
 31
0.0
  0
LINE
  5
39DC
330
18BE
100
AcDbEntity
  8
0
100
AcDbLine
 10
19.90721645326104
 20
242.8647216379481
 30
0.0
 11
19.90721645326104
 21
245.3167376379477
 31
0.0
  0
LINE
  5
39DD
330
18BE
100
AcDbEntity
  8
外枠
100
AcDbLine
 10
22.90040145326107
 20
201.5097226379481
 30
0.0
 11
22.90040145326107
 21
247.009722637948
 31
0.0
  0
LINE
  5
39DE
330
18BE
100
AcDbEntity
  8
0
100
AcDbLine
 10
13.60040145326101
 20
201.5097226379481
 30
0.0
 11
13.60040145326112
 21
247.009722637948
 31
0.0
  0
LINE
  5
39DF
330
18BE
100
AcDbEntity
  8
0
100
AcDbLine
 10
23.40040145326108
 20
247.009722637948
 30
0.0
 11
23.40040145326108
 21
201.5097226379481
 31
0.0
  0
LINE
  5
39E0
330
18BE
100
AcDbEntity
  8
0
100
AcDbLine
 10
22.65040145326107
 20
246.0647216379479
 30
0.0
 11
22.65040145326107
 21
219.7947216379479
 31
0.0
  0
LINE
  5
39E1
330
18BE
100
AcDbEntity
  8
0
100
AcDbLine
 10
14.15040145326108
 20
219.7947216379479
 30
0.0
 11
14.15040145326108
 21
246.0647216379479
 31
0.0
  0
LINE
  5
39E2
330
18BE
100
AcDbEntity
  8
0
100
AcDbLine
 10
15.25040145326096
 20
195.7837096379481
 30
0.0
 11
15.25040145326096
 21
191.0837096379481
 31
0.0
  0
LINE
  5
39E3
330
18BE
100
AcDbEntity
  8
0
100
AcDbLine
 10
22.65040145326105
 20
195.7837096379481
 30
0.0
 11
22.65040145326105
 21
191.4837096379482
 31
0.0
  0
LINE
  5
39E4
330
18BE
100
AcDbEntity
  8
0
100
AcDbLine
 10
17.40040145326105
 20
170.809722637948
 30
0.0
 11
17.40040145326105
 21
150.4097226379483
 31
0.0
  0
LINE
  5
39E5
330
18BE
100
AcDbEntity
  8
0
100
AcDbLine
 10
17.90040145326105
 20
170.5837091723149
 30
0.0
 11
17.90040145326105
 21
150.6837091723133
 31
0.0
  0
LINE
  5
39E6
330
18BE
100
AcDbEntity
  8
外枠
100
AcDbLine
 10
22.90040145326105
 20
151.8536949788953
 30
0.0
 11
22.90040145326105
 21
171.3337096379481
 31
0.0
  0
LINE
  5
39E7
330
18BE
100
AcDbEntity
  8
0
100
AcDbLine
 10
15.90040145326105
 20
144.9297216379479
 30
0.0
 11
15.90040145326105
 21
149.9297216379478
 31
0.0
  0
LINE
  5
39E8
330
18BE
100
AcDbEntity
  8
0
100
AcDbLine
 10
15.40040145326105
 20
144.7097226379483
 30
0.0
 11
15.40040145326105
 21
150.4097226379483
 31
0.0
  0
LINE
  5
39E9
330
18BE
100
AcDbEntity
  8
0
100
AcDbLine
 10
22.90040145326105
 20
149.9297216379478
 30
0.0
 11
22.90040145326105
 21
144.9297216379479
 31
0.0
  0
LINE
  5
39EA
330
18BE
100
AcDbEntity
  8
0
100
AcDbLine
 10
15.90040145326105
 20
144.9297216379479
 30
0.0
 11
22.90040145326105
 21
144.9297216379479
 31
0.0
  0
LINE
  5
39EB
330
18BE
100
AcDbEntity
  8
0
100
AcDbLine
 10
22.40040145326025
 20
144.0797216379521
 30
0.0
 11
15.45040145325953
 21
144.0797216379521
 31
0.0
  0
LINE
  5
39EC
330
18BE
100
AcDbEntity
  8
0
100
AcDbLine
 10
15.40040145326105
 20
144.7097226379483
 30
0.0
 11
13.90040145326105
 21
144.7097226379483
 31
0.0
  0
LINE
  5
39ED
330
18BE
100
AcDbEntity
  8
0
100
AcDbLine
 10
16.10040145325916
 20
141.2797216379509
 30
0.0
 11
15.90040145326025
 21
141.2797216379509
 31
0.0
  0
LINE
  5
39EE
330
18BE
100
AcDbEntity
  8
0
100
AcDbLine
 10
15.10040145325915
 20
141.1797216379524
 30
0.0
 11
16.10040145325916
 21
141.1797216379524
 31
0.0
  0
LINE
  5
39EF
330
18BE
100
AcDbEntity
  8
0
100
AcDbLine
 10
15.90040145326025
 20
143.4797216379516
 30
0.0
 11
16.70040145325953
 21
143.4797216379516
 31
0.0
  0
LINE
  5
39F0
330
18BE
100
AcDbEntity
  8
0
100
AcDbLine
 10
15.45040145325953
 20
144.0797216379521
 30
0.0
 11
15.45040145325953
 21
141.7797216379509
 31
0.0
  0
LINE
  5
39F1
330
18BE
100
AcDbEntity
  8
0
100
AcDbLine
 10
15.90040145326025
 20
141.2797216379509
 30
0.0
 11
15.90040145326025
 21
143.4797216379516
 31
0.0
  0
LINE
  5
39F2
330
18BE
100
AcDbEntity
  8
0
100
AcDbLine
 10
15.45040145325953
 20
141.7797216379509
 30
0.0
 11
14.40040145326024
 21
141.7797216379509
 31
0.0
  0
LINE
  5
39F3
330
18BE
100
AcDbEntity
  8
0
100
AcDbLine
 10
16.70040145325953
 20
143.4797216379516
 30
0.0
 11
16.70040145325953
 21
143.5797216379521
 31
0.0
  0
LINE
  5
39F4
330
18BE
100
AcDbEntity
  8
0
100
AcDbLine
 10
16.70040145325953
 20
143.5797216379521
 30
0.0
 11
16.70040145325953
 21
143.6797216379525
 31
0.0
  0
LINE
  5
39F5
330
18BE
100
AcDbEntity
  8
0
100
AcDbLine
 10
16.10040145325916
 20
141.1797216379524
 30
0.0
 11
16.10040145325916
 21
141.2797216379509
 31
0.0
  0
LINE
  5
39F6
330
18BE
100
AcDbEntity
  8
0
100
AcDbLine
 10
18.20040145325953
 20
143.6797216379525
 30
0.0
 11
18.20040145325953
 21
144.0797216379521
 31
0.0
  0
LINE
  5
39F7
330
18BE
100
AcDbEntity
  8
0
100
AcDbLine
 10
16.70040145325953
 20
143.6797216379525
 30
0.0
 11
18.20040145325953
 21
143.6797216379525
 31
0.0
  0
LINE
  5
39F8
330
18BE
100
AcDbEntity
  8
外枠
100
AcDbLine
 10
22.90040145326105
 20
144.1797216379461
 30
0.0
 11
22.90040145326105
 21
144.9297216379479
 31
0.0
  0
LINE
  5
39F9
330
18BE
100
AcDbEntity
  8
0
100
AcDbLine
 10
22.40040145326025
 20
142.0797216379521
 30
0.0
 11
22.90040145326025
 21
142.0797216379521
 31
0.0
  0
LINE
  5
39FA
330
18BE
100
AcDbEntity
  8
0
100
AcDbLine
 10
22.90040145326025
 20
144.0797216379521
 30
0.0
 11
22.40040145326025
 21
144.0797216379521
 31
0.0
  0
LINE
  5
39FB
330
18BE
100
AcDbEntity
  8
0
100
AcDbLine
 10
19.70040145325953
 20
143.6797216379525
 30
0.0
 11
19.70040145325953
 21
144.0797216379521
 31
0.0
  0
LINE
  5
39FC
330
18BE
100
AcDbEntity
  8
0
100
AcDbLine
 10
21.70040145325953
 20
143.6797216379525
 30
0.0
 11
19.70040145325953
 21
143.6797216379525
 31
0.0
  0
CIRCLE
  5
39FD
330
18BE
100
AcDbEntity
  8
0
100
AcDbCircle
 10
18.92540145326012
 20
141.5797216379521
 30
0.0
 40
0.32
  0
LINE
  5
39FE
330
18BE
100
AcDbEntity
  8
0
100
AcDbLine
 10
22.90040145326025
 20
142.0797216379521
 30
0.0
 11
22.90040145326025
 21
144.0797216379521
 31
0.0
  0
LINE
  5
39FF
330
18BE
100
AcDbEntity
  8
0
100
AcDbLine
 10
21.70040145325953
 20
139.0797216379521
 30
0.0
 11
21.70040145325953
 21
143.6797216379525
 31
0.0
  0
LINE
  5
3A00
330
18BE
100
AcDbEntity
  8
0
100
AcDbLine
 10
17.90040145326105
 20
150.6837091723133
 30
0.0
 11
22.90040145326105
 21
150.6837091723133
 31
0.0
  0
LINE
  5
3A01
330
18BE
100
AcDbEntity
  8
0
100
AcDbLine
 10
18.32123645326105
 20
148.9297216379478
 30
0.0
 11
20.28615845326105
 21
148.9297216379478
 31
0.0
  0
LINE
  5
3A02
330
18BE
100
AcDbEntity
  8
0
100
AcDbLine
 10
18.32123645326105
 20
145.9297216379478
 30
0.0
 11
20.28615845326105
 21
145.9297216379478
 31
0.0
  0
LINE
  5
3A03
330
18BE
100
AcDbEntity
  8
0
100
AcDbLine
 10
15.90040145326105
 20
149.9297216379478
 30
0.0
 11
22.90040145326105
 21
149.9297216379478
 31
0.0
  0
LINE
  5
3A04
330
18BE
100
AcDbEntity
  8
0
100
AcDbLine
 10
18.32123645326105
 20
148.9297216379478
 30
0.0
 11
18.32123645326105
 21
145.9297216379478
 31
0.0
  0
LINE
  5
3A05
330
18BE
100
AcDbEntity
  8
0
100
AcDbLine
 10
15.40040145326105
 20
150.4097226379483
 30
0.0
 11
17.40040145326105
 21
150.4097226379483
 31
0.0
  0
LINE
  5
3A06
330
18BE
100
AcDbEntity
  8
外枠
100
AcDbLine
 10
22.90040145326105
 20
149.9297216379478
 30
0.0
 11
22.90040145326105
 21
151.8536949788953
 31
0.0
  0
LINE
  5
3A07
330
18BE
100
AcDbEntity
  8
0
100
AcDbLine
 10
20.28615845326105
 20
148.9297216379478
 30
0.0
 11
20.28615845326105
 21
145.9297216379478
 31
0.0
  0
LINE
  5
3A08
330
18BE
100
AcDbEntity
  8
0
100
AcDbLine
 10
21.31040145326271
 20
158.7237611685556
 30
0.0
 11
21.31040145326271
 21
158.5436571760725
 31
0.0
  0
LINE
  5
3A09
330
18BE
100
AcDbEntity
  8
0
100
AcDbLine
 10
21.49040145326118
 20
158.7237611685556
 30
0.0
 11
21.49040145326118
 21
158.5436571760725
 31
0.0
  0
LINE
  5
3A0A
330
18BE
100
AcDbEntity
  8
0
100
AcDbLine
 10
21.15040145326104
 20
158.883709172314
 30
0.0
 11
21.15040145326104
 21
158.3837091723141
 31
0.0
  0
LINE
  5
3A0B
330
18BE
100
AcDbEntity
  8
0
100
AcDbLine
 10
21.65040145326105
 20
158.3837091723141
 30
0.0
 11
21.65040145326105
 21
158.883709172314
 31
0.0
  0
LINE
  5
3A0C
330
18BE
100
AcDbEntity
  8
0
100
AcDbLine
 10
19.31040145326271
 20
158.7237611685556
 30
0.0
 11
19.31040145326271
 21
158.5436571760725
 31
0.0
  0
LINE
  5
3A0D
330
18BE
100
AcDbEntity
  8
0
100
AcDbLine
 10
19.4904014532612
 20
158.7237611685556
 30
0.0
 11
19.4904014532612
 21
158.5436571760725
 31
0.0
  0
LINE
  5
3A0E
330
18BE
100
AcDbEntity
  8
0
100
AcDbLine
 10
19.65040145326105
 20
158.3837091723141
 30
0.0
 11
19.65040145326105
 21
158.883709172314
 31
0.0
  0
LINE
  5
3A0F
330
18BE
100
AcDbEntity
  8
0
100
AcDbLine
 10
19.15040145326105
 20
158.883709172314
 30
0.0
 11
19.15040145326105
 21
158.3837091723141
 31
0.0
  0
LINE
  5
3A10
330
18BE
100
AcDbEntity
  8
0
100
AcDbLine
 10
21.31040145326271
 20
154.5436571760726
 30
0.0
 11
21.40040145326105
 21
154.5436571760726
 31
0.0
  0
LINE
  5
3A11
330
18BE
100
AcDbEntity
  8
0
100
AcDbLine
 10
21.31040145326271
 20
154.5436571760726
 30
0.0
 11
21.40040145326105
 21
154.5436571760726
 31
0.0
  0
LINE
  5
3A12
330
18BE
100
AcDbEntity
  8
0
100
AcDbLine
 10
21.15040145326104
 20
154.383709172314
 30
0.0
 11
21.65040145326105
 21
154.383709172314
 31
0.0
  0
LINE
  5
3A13
330
18BE
100
AcDbEntity
  8
0
100
AcDbLine
 10
21.15040145326104
 20
154.8837091723141
 30
0.0
 11
21.65040145326105
 21
154.8837091723141
 31
0.0
  0
LINE
  5
3A14
330
18BE
100
AcDbEntity
  8
0
100
AcDbLine
 10
21.49040145326118
 20
154.7237611685556
 30
0.0
 11
21.40040145326105
 21
154.7237611685556
 31
0.0
  0
LINE
  5
3A15
330
18BE
100
AcDbEntity
  8
0
100
AcDbLine
 10
21.31040145326271
 20
154.7237611685556
 30
0.0
 11
21.40040145326105
 21
154.7237611685556
 31
0.0
  0
LINE
  5
3A16
330
18BE
100
AcDbEntity
  8
0
100
AcDbLine
 10
21.49040145326118
 20
154.7237611685556
 30
0.0
 11
21.49040145326118
 21
154.5436571760726
 31
0.0
  0
LINE
  5
3A17
330
18BE
100
AcDbEntity
  8
0
100
AcDbLine
 10
21.31040145326271
 20
154.7237611685556
 30
0.0
 11
21.31040145326271
 21
154.5436571760726
 31
0.0
  0
LINE
  5
3A18
330
18BE
100
AcDbEntity
  8
0
100
AcDbLine
 10
21.15040145326104
 20
154.8837091723141
 30
0.0
 11
21.15040145326104
 21
154.383709172314
 31
0.0
  0
LINE
  5
3A19
330
18BE
100
AcDbEntity
  8
0
100
AcDbLine
 10
21.65040145326105
 20
154.383709172314
 30
0.0
 11
21.65040145326105
 21
154.8837091723141
 31
0.0
  0
LINE
  5
3A1A
330
18BE
100
AcDbEntity
  8
0
100
AcDbLine
 10
21.49040145326118
 20
154.5436571760726
 30
0.0
 11
21.40040145326105
 21
154.5436571760726
 31
0.0
  0
LINE
  5
3A1B
330
18BE
100
AcDbEntity
  8
0
100
AcDbLine
 10
21.49040145326118
 20
154.5436571760726
 30
0.0
 11
21.40040145326105
 21
154.5436571760726
 31
0.0
  0
LINE
  5
3A1C
330
18BE
100
AcDbEntity
  8
0
100
AcDbLine
 10
21.49040145326118
 20
156.5436571760725
 30
0.0
 11
21.40040145326105
 21
156.5436571760725
 31
0.0
  0
LINE
  5
3A1D
330
18BE
100
AcDbEntity
  8
0
100
AcDbLine
 10
21.49040145326118
 20
156.5436571760725
 30
0.0
 11
21.40040145326105
 21
156.5436571760725
 31
0.0
  0
LINE
  5
3A1E
330
18BE
100
AcDbEntity
  8
0
100
AcDbLine
 10
21.31040145326271
 20
156.5436571760725
 30
0.0
 11
21.40040145326105
 21
156.5436571760725
 31
0.0
  0
LINE
  5
3A1F
330
18BE
100
AcDbEntity
  8
0
100
AcDbLine
 10
21.31040145326271
 20
156.5436571760725
 30
0.0
 11
21.40040145326105
 21
156.5436571760725
 31
0.0
  0
LINE
  5
3A20
330
18BE
100
AcDbEntity
  8
0
100
AcDbLine
 10
21.15040145326104
 20
156.3837091723141
 30
0.0
 11
21.65040145326105
 21
156.3837091723141
 31
0.0
  0
LINE
  5
3A21
330
18BE
100
AcDbEntity
  8
0
100
AcDbLine
 10
19.31040145326271
 20
154.7237611685556
 30
0.0
 11
19.31040145326271
 21
154.5436571760726
 31
0.0
  0
LINE
  5
3A22
330
18BE
100
AcDbEntity
  8
0
100
AcDbLine
 10
19.4904014532612
 20
154.7237611685556
 30
0.0
 11
19.4904014532612
 21
154.5436571760726
 31
0.0
  0
LINE
  5
3A23
330
18BE
100
AcDbEntity
  8
0
100
AcDbLine
 10
19.15040145326105
 20
154.8837091723141
 30
0.0
 11
19.15040145326105
 21
154.383709172314
 31
0.0
  0
LINE
  5
3A24
330
18BE
100
AcDbEntity
  8
0
100
AcDbLine
 10
19.65040145326105
 20
154.383709172314
 30
0.0
 11
19.65040145326105
 21
154.8837091723141
 31
0.0
  0
LINE
  5
3A25
330
18BE
100
AcDbEntity
  8
0
100
AcDbLine
 10
19.31040145326271
 20
154.5436571760726
 30
0.0
 11
19.40040145326105
 21
154.5436571760726
 31
0.0
  0
LINE
  5
3A26
330
18BE
100
AcDbEntity
  8
0
100
AcDbLine
 10
19.31040145326271
 20
154.5436571760726
 30
0.0
 11
19.40040145326105
 21
154.5436571760726
 31
0.0
  0
LINE
  5
3A27
330
18BE
100
AcDbEntity
  8
0
100
AcDbLine
 10
19.4904014532612
 20
154.5436571760726
 30
0.0
 11
19.40040145326105
 21
154.5436571760726
 31
0.0
  0
LINE
  5
3A28
330
18BE
100
AcDbEntity
  8
0
100
AcDbLine
 10
19.4904014532612
 20
154.5436571760726
 30
0.0
 11
19.40040145326105
 21
154.5436571760726
 31
0.0
  0
LINE
  5
3A29
330
18BE
100
AcDbEntity
  8
0
100
AcDbLine
 10
19.15040145326105
 20
154.383709172314
 30
0.0
 11
19.65040145326105
 21
154.383709172314
 31
0.0
  0
LINE
  5
3A2A
330
18BE
100
AcDbEntity
  8
0
100
AcDbLine
 10
19.15040145326105
 20
154.8837091723141
 30
0.0
 11
19.65040145326105
 21
154.8837091723141
 31
0.0
  0
LINE
  5
3A2B
330
18BE
100
AcDbEntity
  8
0
100
AcDbLine
 10
19.31040145326271
 20
154.7237611685556
 30
0.0
 11
19.40040145326105
 21
154.7237611685556
 31
0.0
  0
LINE
  5
3A2C
330
18BE
100
AcDbEntity
  8
0
100
AcDbLine
 10
19.4904014532612
 20
154.7237611685556
 30
0.0
 11
19.40040145326105
 21
154.7237611685556
 31
0.0
  0
LINE
  5
3A2D
330
18BE
100
AcDbEntity
  8
0
100
AcDbLine
 10
19.31040145326271
 20
156.5436571760725
 30
0.0
 11
19.40040145326105
 21
156.5436571760725
 31
0.0
  0
LINE
  5
3A2E
330
18BE
100
AcDbEntity
  8
0
100
AcDbLine
 10
19.31040145326271
 20
156.5436571760725
 30
0.0
 11
19.40040145326105
 21
156.5436571760725
 31
0.0
  0
LINE
  5
3A2F
330
18BE
100
AcDbEntity
  8
0
100
AcDbLine
 10
19.4904014532612
 20
156.5436571760725
 30
0.0
 11
19.40040145326105
 21
156.5436571760725
 31
0.0
  0
LINE
  5
3A30
330
18BE
100
AcDbEntity
  8
0
100
AcDbLine
 10
19.4904014532612
 20
156.5436571760725
 30
0.0
 11
19.40040145326105
 21
156.5436571760725
 31
0.0
  0
LINE
  5
3A31
330
18BE
100
AcDbEntity
  8
0
100
AcDbLine
 10
19.15040145326105
 20
156.3837091723141
 30
0.0
 11
19.65040145326105
 21
156.3837091723141
 31
0.0
  0
LINE
  5
3A32
330
18BE
100
AcDbEntity
  8
0
100
AcDbLine
 10
21.15040145326104
 20
158.3837091723141
 30
0.0
 11
21.65040145326105
 21
158.3837091723141
 31
0.0
  0
LINE
  5
3A33
330
18BE
100
AcDbEntity
  8
0
100
AcDbLine
 10
21.15040145326104
 20
156.8837091723141
 30
0.0
 11
21.65040145326105
 21
156.8837091723141
 31
0.0
  0
LINE
  5
3A34
330
18BE
100
AcDbEntity
  8
0
100
AcDbLine
 10
21.31040145326271
 20
158.5436571760725
 30
0.0
 11
21.40040145326105
 21
158.5436571760725
 31
0.0
  0
LINE
  5
3A35
330
18BE
100
AcDbEntity
  8
0
100
AcDbLine
 10
21.31040145326271
 20
158.5436571760725
 30
0.0
 11
21.40040145326105
 21
158.5436571760725
 31
0.0
  0
LINE
  5
3A36
330
18BE
100
AcDbEntity
  8
0
100
AcDbLine
 10
21.49040145326118
 20
158.5436571760725
 30
0.0
 11
21.40040145326105
 21
158.5436571760725
 31
0.0
  0
LINE
  5
3A37
330
18BE
100
AcDbEntity
  8
0
100
AcDbLine
 10
21.49040145326118
 20
158.5436571760725
 30
0.0
 11
21.40040145326105
 21
158.5436571760725
 31
0.0
  0
LINE
  5
3A38
330
18BE
100
AcDbEntity
  8
0
100
AcDbLine
 10
21.49040145326118
 20
156.7237611685556
 30
0.0
 11
21.40040145326105
 21
156.7237611685556
 31
0.0
  0
LINE
  5
3A39
330
18BE
100
AcDbEntity
  8
0
100
AcDbLine
 10
21.31040145326271
 20
156.7237611685556
 30
0.0
 11
21.40040145326105
 21
156.7237611685556
 31
0.0
  0
LINE
  5
3A3A
330
18BE
100
AcDbEntity
  8
0
100
AcDbLine
 10
19.15040145326105
 20
156.8837091723141
 30
0.0
 11
19.65040145326105
 21
156.8837091723141
 31
0.0
  0
LINE
  5
3A3B
330
18BE
100
AcDbEntity
  8
0
100
AcDbLine
 10
19.15040145326105
 20
158.3837091723141
 30
0.0
 11
19.65040145326105
 21
158.3837091723141
 31
0.0
  0
LINE
  5
3A3C
330
18BE
100
AcDbEntity
  8
0
100
AcDbLine
 10
19.4904014532612
 20
158.5436571760725
 30
0.0
 11
19.40040145326105
 21
158.5436571760725
 31
0.0
  0
LINE
  5
3A3D
330
18BE
100
AcDbEntity
  8
0
100
AcDbLine
 10
19.4904014532612
 20
158.5436571760725
 30
0.0
 11
19.40040145326105
 21
158.5436571760725
 31
0.0
  0
LINE
  5
3A3E
330
18BE
100
AcDbEntity
  8
0
100
AcDbLine
 10
19.31040145326271
 20
158.5436571760725
 30
0.0
 11
19.40040145326105
 21
158.5436571760725
 31
0.0
  0
LINE
  5
3A3F
330
18BE
100
AcDbEntity
  8
0
100
AcDbLine
 10
19.31040145326271
 20
158.5436571760725
 30
0.0
 11
19.40040145326105
 21
158.5436571760725
 31
0.0
  0
LINE
  5
3A40
330
18BE
100
AcDbEntity
  8
0
100
AcDbLine
 10
19.31040145326271
 20
156.7237611685556
 30
0.0
 11
19.40040145326105
 21
156.7237611685556
 31
0.0
  0
LINE
  5
3A41
330
18BE
100
AcDbEntity
  8
0
100
AcDbLine
 10
19.4904014532612
 20
156.7237611685556
 30
0.0
 11
19.40040145326105
 21
156.7237611685556
 31
0.0
  0
LINE
  5
3A42
330
18BE
100
AcDbEntity
  8
0
100
AcDbLine
 10
21.49040145326118
 20
156.7237611685556
 30
0.0
 11
21.49040145326118
 21
156.5436571760725
 31
0.0
  0
LINE
  5
3A43
330
18BE
100
AcDbEntity
  8
0
100
AcDbLine
 10
21.31040145326271
 20
156.7237611685556
 30
0.0
 11
21.31040145326271
 21
156.5436571760725
 31
0.0
  0
LINE
  5
3A44
330
18BE
100
AcDbEntity
  8
0
100
AcDbLine
 10
21.15040145326104
 20
156.8837091723141
 30
0.0
 11
21.15040145326104
 21
156.3837091723141
 31
0.0
  0
LINE
  5
3A45
330
18BE
100
AcDbEntity
  8
0
100
AcDbLine
 10
21.65040145326105
 20
156.3837091723141
 30
0.0
 11
21.65040145326105
 21
156.8837091723141
 31
0.0
  0
LINE
  5
3A46
330
18BE
100
AcDbEntity
  8
0
100
AcDbLine
 10
19.31040145326271
 20
156.7237611685556
 30
0.0
 11
19.31040145326271
 21
156.5436571760725
 31
0.0
  0
LINE
  5
3A47
330
18BE
100
AcDbEntity
  8
0
100
AcDbLine
 10
19.4904014532612
 20
156.7237611685556
 30
0.0
 11
19.4904014532612
 21
156.5436571760725
 31
0.0
  0
LINE
  5
3A48
330
18BE
100
AcDbEntity
  8
0
100
AcDbLine
 10
19.15040145326105
 20
156.8837091723141
 30
0.0
 11
19.15040145326105
 21
156.3837091723141
 31
0.0
  0
LINE
  5
3A49
330
18BE
100
AcDbEntity
  8
0
100
AcDbLine
 10
19.65040145326105
 20
156.3837091723141
 30
0.0
 11
19.65040145326105
 21
156.8837091723141
 31
0.0
  0
LINE
  5
3A4A
330
18BE
100
AcDbEntity
  8
0
100
AcDbLine
 10
21.15040145326104
 20
152.8837091723142
 30
0.0
 11
21.15040145326104
 21
152.383709172314
 31
0.0
  0
LINE
  5
3A4B
330
18BE
100
AcDbEntity
  8
0
100
AcDbLine
 10
21.65040145326105
 20
152.383709172314
 30
0.0
 11
21.65040145326105
 21
152.8837091723142
 31
0.0
  0
LINE
  5
3A4C
330
18BE
100
AcDbEntity
  8
0
100
AcDbLine
 10
21.31040145326271
 20
152.7237611685556
 30
0.0
 11
21.31040145326271
 21
152.5436571760726
 31
0.0
  0
LINE
  5
3A4D
330
18BE
100
AcDbEntity
  8
0
100
AcDbLine
 10
21.49040145326118
 20
152.7237611685556
 30
0.0
 11
21.49040145326118
 21
152.5436571760726
 31
0.0
  0
LINE
  5
3A4E
330
18BE
100
AcDbEntity
  8
0
100
AcDbLine
 10
21.15040145326104
 20
152.383709172314
 30
0.0
 11
21.65040145326105
 21
152.383709172314
 31
0.0
  0
LINE
  5
3A4F
330
18BE
100
AcDbEntity
  8
0
100
AcDbLine
 10
21.31040145326271
 20
152.5436571760726
 30
0.0
 11
21.40040145326105
 21
152.5436571760726
 31
0.0
  0
LINE
  5
3A50
330
18BE
100
AcDbEntity
  8
0
100
AcDbLine
 10
21.31040145326271
 20
152.5436571760726
 30
0.0
 11
21.40040145326105
 21
152.5436571760726
 31
0.0
  0
LINE
  5
3A51
330
18BE
100
AcDbEntity
  8
0
100
AcDbLine
 10
21.49040145326118
 20
152.5436571760726
 30
0.0
 11
21.40040145326105
 21
152.5436571760726
 31
0.0
  0
LINE
  5
3A52
330
18BE
100
AcDbEntity
  8
0
100
AcDbLine
 10
21.49040145326118
 20
152.5436571760726
 30
0.0
 11
21.40040145326105
 21
152.5436571760726
 31
0.0
  0
LINE
  5
3A53
330
18BE
100
AcDbEntity
  8
0
100
AcDbLine
 10
21.15040145326104
 20
152.8837091723142
 30
0.0
 11
21.65040145326105
 21
152.8837091723142
 31
0.0
  0
LINE
  5
3A54
330
18BE
100
AcDbEntity
  8
0
100
AcDbLine
 10
21.31040145326271
 20
152.7237611685556
 30
0.0
 11
21.40040145326105
 21
152.7237611685556
 31
0.0
  0
LINE
  5
3A55
330
18BE
100
AcDbEntity
  8
0
100
AcDbLine
 10
21.49040145326118
 20
152.7237611685556
 30
0.0
 11
21.40040145326105
 21
152.7237611685556
 31
0.0
  0
LINE
  5
3A56
330
18BE
100
AcDbEntity
  8
0
100
AcDbLine
 10
19.65040145326105
 20
152.383709172314
 30
0.0
 11
19.65040145326105
 21
152.8837091723142
 31
0.0
  0
LINE
  5
3A57
330
18BE
100
AcDbEntity
  8
0
100
AcDbLine
 10
19.15040145326105
 20
152.8837091723142
 30
0.0
 11
19.15040145326105
 21
152.383709172314
 31
0.0
  0
LINE
  5
3A58
330
18BE
100
AcDbEntity
  8
0
100
AcDbLine
 10
19.4904014532612
 20
152.7237611685556
 30
0.0
 11
19.4904014532612
 21
152.5436571760726
 31
0.0
  0
LINE
  5
3A59
330
18BE
100
AcDbEntity
  8
0
100
AcDbLine
 10
19.31040145326271
 20
152.7237611685556
 30
0.0
 11
19.31040145326271
 21
152.5436571760726
 31
0.0
  0
LINE
  5
3A5A
330
18BE
100
AcDbEntity
  8
0
100
AcDbLine
 10
19.15040145326105
 20
152.383709172314
 30
0.0
 11
19.65040145326105
 21
152.383709172314
 31
0.0
  0
LINE
  5
3A5B
330
18BE
100
AcDbEntity
  8
0
100
AcDbLine
 10
19.4904014532612
 20
152.5436571760726
 30
0.0
 11
19.40040145326105
 21
152.5436571760726
 31
0.0
  0
LINE
  5
3A5C
330
18BE
100
AcDbEntity
  8
0
100
AcDbLine
 10
19.4904014532612
 20
152.5436571760726
 30
0.0
 11
19.40040145326105
 21
152.5436571760726
 31
0.0
  0
LINE
  5
3A5D
330
18BE
100
AcDbEntity
  8
0
100
AcDbLine
 10
19.31040145326271
 20
152.5436571760726
 30
0.0
 11
19.40040145326105
 21
152.5436571760726
 31
0.0
  0
LINE
  5
3A5E
330
18BE
100
AcDbEntity
  8
0
100
AcDbLine
 10
19.31040145326271
 20
152.5436571760726
 30
0.0
 11
19.40040145326105
 21
152.5436571760726
 31
0.0
  0
LINE
  5
3A5F
330
18BE
100
AcDbEntity
  8
0
100
AcDbLine
 10
19.4904014532612
 20
152.7237611685556
 30
0.0
 11
19.40040145326105
 21
152.7237611685556
 31
0.0
  0
LINE
  5
3A60
330
18BE
100
AcDbEntity
  8
0
100
AcDbLine
 10
19.31040145326271
 20
152.7237611685556
 30
0.0
 11
19.40040145326105
 21
152.7237611685556
 31
0.0
  0
LINE
  5
3A61
330
18BE
100
AcDbEntity
  8
0
100
AcDbLine
 10
19.15040145326105
 20
152.8837091723142
 30
0.0
 11
19.65040145326105
 21
152.8837091723142
 31
0.0
  0
LINE
  5
3A62
330
18BE
100
AcDbEntity
  8
0
100
AcDbLine
 10
21.15040145326104
 20
164.883709172314
 30
0.0
 11
21.65040145326105
 21
164.883709172314
 31
0.0
  0
LINE
  5
3A63
330
18BE
100
AcDbEntity
  8
0
100
AcDbLine
 10
21.15040145326104
 20
164.3837091723141
 30
0.0
 11
21.65040145326105
 21
164.3837091723141
 31
0.0
  0
LINE
  5
3A64
330
18BE
100
AcDbEntity
  8
0
100
AcDbLine
 10
21.15040145326104
 20
164.883709172314
 30
0.0
 11
21.15040145326104
 21
164.3837091723141
 31
0.0
  0
LINE
  5
3A65
330
18BE
100
AcDbEntity
  8
0
100
AcDbLine
 10
21.65040145326105
 20
164.3837091723141
 30
0.0
 11
21.65040145326105
 21
164.883709172314
 31
0.0
  0
LINE
  5
3A66
330
18BE
100
AcDbEntity
  8
0
100
AcDbLine
 10
21.31040145326271
 20
164.7237611685556
 30
0.0
 11
21.31040145326271
 21
164.5436571760725
 31
0.0
  0
LINE
  5
3A67
330
18BE
100
AcDbEntity
  8
0
100
AcDbLine
 10
21.31040145326271
 20
164.5436571760725
 30
0.0
 11
21.40040145326105
 21
164.5436571760725
 31
0.0
  0
LINE
  5
3A68
330
18BE
100
AcDbEntity
  8
0
100
AcDbLine
 10
21.31040145326271
 20
164.5436571760725
 30
0.0
 11
21.40040145326105
 21
164.5436571760725
 31
0.0
  0
LINE
  5
3A69
330
18BE
100
AcDbEntity
  8
0
100
AcDbLine
 10
21.31040145326271
 20
164.7237611685556
 30
0.0
 11
21.40040145326105
 21
164.7237611685556
 31
0.0
  0
LINE
  5
3A6A
330
18BE
100
AcDbEntity
  8
0
100
AcDbLine
 10
21.49040145326118
 20
164.7237611685556
 30
0.0
 11
21.40040145326105
 21
164.7237611685556
 31
0.0
  0
LINE
  5
3A6B
330
18BE
100
AcDbEntity
  8
0
100
AcDbLine
 10
21.49040145326118
 20
164.5436571760725
 30
0.0
 11
21.40040145326105
 21
164.5436571760725
 31
0.0
  0
LINE
  5
3A6C
330
18BE
100
AcDbEntity
  8
0
100
AcDbLine
 10
21.49040145326118
 20
164.5436571760725
 30
0.0
 11
21.40040145326105
 21
164.5436571760725
 31
0.0
  0
LINE
  5
3A6D
330
18BE
100
AcDbEntity
  8
0
100
AcDbLine
 10
21.49040145326118
 20
164.7237611685556
 30
0.0
 11
21.49040145326118
 21
164.5436571760725
 31
0.0
  0
LINE
  5
3A6E
330
18BE
100
AcDbEntity
  8
0
100
AcDbLine
 10
19.15040145326105
 20
164.3837091723141
 30
0.0
 11
19.65040145326105
 21
164.3837091723141
 31
0.0
  0
LINE
  5
3A6F
330
18BE
100
AcDbEntity
  8
0
100
AcDbLine
 10
19.15040145326105
 20
164.883709172314
 30
0.0
 11
19.65040145326105
 21
164.883709172314
 31
0.0
  0
LINE
  5
3A70
330
18BE
100
AcDbEntity
  8
0
100
AcDbLine
 10
19.4904014532612
 20
164.7237611685556
 30
0.0
 11
19.4904014532612
 21
164.5436571760725
 31
0.0
  0
LINE
  5
3A71
330
18BE
100
AcDbEntity
  8
0
100
AcDbLine
 10
19.4904014532612
 20
164.5436571760725
 30
0.0
 11
19.40040145326105
 21
164.5436571760725
 31
0.0
  0
LINE
  5
3A72
330
18BE
100
AcDbEntity
  8
0
100
AcDbLine
 10
19.4904014532612
 20
164.5436571760725
 30
0.0
 11
19.40040145326105
 21
164.5436571760725
 31
0.0
  0
LINE
  5
3A73
330
18BE
100
AcDbEntity
  8
0
100
AcDbLine
 10
19.4904014532612
 20
164.7237611685556
 30
0.0
 11
19.40040145326105
 21
164.7237611685556
 31
0.0
  0
LINE
  5
3A74
330
18BE
100
AcDbEntity
  8
0
100
AcDbLine
 10
19.31040145326271
 20
164.7237611685556
 30
0.0
 11
19.40040145326105
 21
164.7237611685556
 31
0.0
  0
LINE
  5
3A75
330
18BE
100
AcDbEntity
  8
0
100
AcDbLine
 10
19.31040145326271
 20
164.5436571760725
 30
0.0
 11
19.40040145326105
 21
164.5436571760725
 31
0.0
  0
LINE
  5
3A76
330
18BE
100
AcDbEntity
  8
0
100
AcDbLine
 10
19.31040145326271
 20
164.5436571760725
 30
0.0
 11
19.40040145326105
 21
164.5436571760725
 31
0.0
  0
LINE
  5
3A77
330
18BE
100
AcDbEntity
  8
0
100
AcDbLine
 10
19.31040145326271
 20
164.7237611685556
 30
0.0
 11
19.31040145326271
 21
164.5436571760725
 31
0.0
  0
LINE
  5
3A78
330
18BE
100
AcDbEntity
  8
0
100
AcDbLine
 10
19.65040145326105
 20
164.3837091723141
 30
0.0
 11
19.65040145326105
 21
164.883709172314
 31
0.0
  0
LINE
  5
3A79
330
18BE
100
AcDbEntity
  8
0
100
AcDbLine
 10
19.15040145326105
 20
164.883709172314
 30
0.0
 11
19.15040145326105
 21
164.3837091723141
 31
0.0
  0
LINE
  5
3A7A
330
18BE
100
AcDbEntity
  8
0
100
AcDbLine
 10
21.15040145326104
 20
160.883709172314
 30
0.0
 11
21.65040145326105
 21
160.883709172314
 31
0.0
  0
LINE
  5
3A7B
330
18BE
100
AcDbEntity
  8
0
100
AcDbLine
 10
21.15040145326104
 20
160.3837091723141
 30
0.0
 11
21.65040145326105
 21
160.3837091723141
 31
0.0
  0
LINE
  5
3A7C
330
18BE
100
AcDbEntity
  8
0
100
AcDbLine
 10
21.31040145326271
 20
160.7237611685556
 30
0.0
 11
21.31040145326271
 21
160.5436571760725
 31
0.0
  0
LINE
  5
3A7D
330
18BE
100
AcDbEntity
  8
0
100
AcDbLine
 10
21.31040145326271
 20
160.5436571760725
 30
0.0
 11
21.40040145326105
 21
160.5436571760725
 31
0.0
  0
LINE
  5
3A7E
330
18BE
100
AcDbEntity
  8
0
100
AcDbLine
 10
21.31040145326271
 20
160.5436571760725
 30
0.0
 11
21.40040145326105
 21
160.5436571760725
 31
0.0
  0
LINE
  5
3A7F
330
18BE
100
AcDbEntity
  8
0
100
AcDbLine
 10
21.31040145326271
 20
160.7237611685556
 30
0.0
 11
21.40040145326105
 21
160.7237611685556
 31
0.0
  0
LINE
  5
3A80
330
18BE
100
AcDbEntity
  8
0
100
AcDbLine
 10
21.49040145326118
 20
160.7237611685556
 30
0.0
 11
21.40040145326105
 21
160.7237611685556
 31
0.0
  0
LINE
  5
3A81
330
18BE
100
AcDbEntity
  8
0
100
AcDbLine
 10
21.49040145326118
 20
160.5436571760725
 30
0.0
 11
21.40040145326105
 21
160.5436571760725
 31
0.0
  0
LINE
  5
3A82
330
18BE
100
AcDbEntity
  8
0
100
AcDbLine
 10
21.49040145326118
 20
160.5436571760725
 30
0.0
 11
21.40040145326105
 21
160.5436571760725
 31
0.0
  0
LINE
  5
3A83
330
18BE
100
AcDbEntity
  8
0
100
AcDbLine
 10
21.49040145326118
 20
160.7237611685556
 30
0.0
 11
21.49040145326118
 21
160.5436571760725
 31
0.0
  0
LINE
  5
3A84
330
18BE
100
AcDbEntity
  8
0
100
AcDbLine
 10
21.15040145326104
 20
160.883709172314
 30
0.0
 11
21.15040145326104
 21
160.3837091723141
 31
0.0
  0
LINE
  5
3A85
330
18BE
100
AcDbEntity
  8
0
100
AcDbLine
 10
21.65040145326105
 20
160.3837091723141
 30
0.0
 11
21.65040145326105
 21
160.883709172314
 31
0.0
  0
LINE
  5
3A86
330
18BE
100
AcDbEntity
  8
0
100
AcDbLine
 10
21.15040145326104
 20
162.3837091723141
 30
0.0
 11
21.65040145326105
 21
162.3837091723141
 31
0.0
  0
LINE
  5
3A87
330
18BE
100
AcDbEntity
  8
0
100
AcDbLine
 10
21.31040145326271
 20
162.5436571760725
 30
0.0
 11
21.40040145326105
 21
162.5436571760725
 31
0.0
  0
LINE
  5
3A88
330
18BE
100
AcDbEntity
  8
0
100
AcDbLine
 10
21.31040145326271
 20
162.5436571760725
 30
0.0
 11
21.40040145326105
 21
162.5436571760725
 31
0.0
  0
LINE
  5
3A89
330
18BE
100
AcDbEntity
  8
0
100
AcDbLine
 10
21.49040145326118
 20
162.5436571760725
 30
0.0
 11
21.40040145326105
 21
162.5436571760725
 31
0.0
  0
LINE
  5
3A8A
330
18BE
100
AcDbEntity
  8
0
100
AcDbLine
 10
21.49040145326118
 20
162.5436571760725
 30
0.0
 11
21.40040145326105
 21
162.5436571760725
 31
0.0
  0
LINE
  5
3A8B
330
18BE
100
AcDbEntity
  8
0
100
AcDbLine
 10
21.15040145326104
 20
162.883709172314
 30
0.0
 11
21.65040145326105
 21
162.883709172314
 31
0.0
  0
LINE
  5
3A8C
330
18BE
100
AcDbEntity
  8
0
100
AcDbLine
 10
21.31040145326271
 20
162.7237611685556
 30
0.0
 11
21.40040145326105
 21
162.7237611685556
 31
0.0
  0
LINE
  5
3A8D
330
18BE
100
AcDbEntity
  8
0
100
AcDbLine
 10
21.49040145326118
 20
162.7237611685556
 30
0.0
 11
21.40040145326105
 21
162.7237611685556
 31
0.0
  0
LINE
  5
3A8E
330
18BE
100
AcDbEntity
  8
0
100
AcDbLine
 10
21.15040145326104
 20
162.883709172314
 30
0.0
 11
21.15040145326104
 21
162.3837091723141
 31
0.0
  0
LINE
  5
3A8F
330
18BE
100
AcDbEntity
  8
0
100
AcDbLine
 10
21.65040145326105
 20
162.3837091723141
 30
0.0
 11
21.65040145326105
 21
162.883709172314
 31
0.0
  0
LINE
  5
3A90
330
18BE
100
AcDbEntity
  8
0
100
AcDbLine
 10
21.31040145326271
 20
162.7237611685556
 30
0.0
 11
21.31040145326271
 21
162.5436571760725
 31
0.0
  0
LINE
  5
3A91
330
18BE
100
AcDbEntity
  8
0
100
AcDbLine
 10
21.49040145326118
 20
162.7237611685556
 30
0.0
 11
21.49040145326118
 21
162.5436571760725
 31
0.0
  0
LINE
  5
3A92
330
18BE
100
AcDbEntity
  8
0
100
AcDbLine
 10
19.15040145326105
 20
160.883709172314
 30
0.0
 11
19.65040145326105
 21
160.883709172314
 31
0.0
  0
LINE
  5
3A93
330
18BE
100
AcDbEntity
  8
0
100
AcDbLine
 10
19.15040145326105
 20
160.3837091723141
 30
0.0
 11
19.65040145326105
 21
160.3837091723141
 31
0.0
  0
LINE
  5
3A94
330
18BE
100
AcDbEntity
  8
0
100
AcDbLine
 10
19.4904014532612
 20
160.7237611685556
 30
0.0
 11
19.4904014532612
 21
160.5436571760725
 31
0.0
  0
LINE
  5
3A95
330
18BE
100
AcDbEntity
  8
0
100
AcDbLine
 10
19.4904014532612
 20
160.5436571760725
 30
0.0
 11
19.40040145326105
 21
160.5436571760725
 31
0.0
  0
LINE
  5
3A96
330
18BE
100
AcDbEntity
  8
0
100
AcDbLine
 10
19.4904014532612
 20
160.5436571760725
 30
0.0
 11
19.40040145326105
 21
160.5436571760725
 31
0.0
  0
LINE
  5
3A97
330
18BE
100
AcDbEntity
  8
0
100
AcDbLine
 10
19.4904014532612
 20
160.7237611685556
 30
0.0
 11
19.40040145326105
 21
160.7237611685556
 31
0.0
  0
LINE
  5
3A98
330
18BE
100
AcDbEntity
  8
0
100
AcDbLine
 10
19.31040145326271
 20
160.7237611685556
 30
0.0
 11
19.40040145326105
 21
160.7237611685556
 31
0.0
  0
LINE
  5
3A99
330
18BE
100
AcDbEntity
  8
0
100
AcDbLine
 10
19.31040145326271
 20
160.5436571760725
 30
0.0
 11
19.40040145326105
 21
160.5436571760725
 31
0.0
  0
LINE
  5
3A9A
330
18BE
100
AcDbEntity
  8
0
100
AcDbLine
 10
19.31040145326271
 20
160.5436571760725
 30
0.0
 11
19.40040145326105
 21
160.5436571760725
 31
0.0
  0
LINE
  5
3A9B
330
18BE
100
AcDbEntity
  8
0
100
AcDbLine
 10
19.31040145326271
 20
160.7237611685556
 30
0.0
 11
19.31040145326271
 21
160.5436571760725
 31
0.0
  0
LINE
  5
3A9C
330
18BE
100
AcDbEntity
  8
0
100
AcDbLine
 10
19.65040145326105
 20
160.3837091723141
 30
0.0
 11
19.65040145326105
 21
160.883709172314
 31
0.0
  0
LINE
  5
3A9D
330
18BE
100
AcDbEntity
  8
0
100
AcDbLine
 10
19.15040145326105
 20
160.883709172314
 30
0.0
 11
19.15040145326105
 21
160.3837091723141
 31
0.0
  0
LINE
  5
3A9E
330
18BE
100
AcDbEntity
  8
0
100
AcDbLine
 10
19.15040145326105
 20
162.3837091723141
 30
0.0
 11
19.65040145326105
 21
162.3837091723141
 31
0.0
  0
LINE
  5
3A9F
330
18BE
100
AcDbEntity
  8
0
100
AcDbLine
 10
19.4904014532612
 20
162.5436571760725
 30
0.0
 11
19.40040145326105
 21
162.5436571760725
 31
0.0
  0
LINE
  5
3AA0
330
18BE
100
AcDbEntity
  8
0
100
AcDbLine
 10
19.4904014532612
 20
162.5436571760725
 30
0.0
 11
19.40040145326105
 21
162.5436571760725
 31
0.0
  0
LINE
  5
3AA1
330
18BE
100
AcDbEntity
  8
0
100
AcDbLine
 10
19.31040145326271
 20
162.5436571760725
 30
0.0
 11
19.40040145326105
 21
162.5436571760725
 31
0.0
  0
LINE
  5
3AA2
330
18BE
100
AcDbEntity
  8
0
100
AcDbLine
 10
19.31040145326271
 20
162.5436571760725
 30
0.0
 11
19.40040145326105
 21
162.5436571760725
 31
0.0
  0
LINE
  5
3AA3
330
18BE
100
AcDbEntity
  8
0
100
AcDbLine
 10
19.15040145326105
 20
162.883709172314
 30
0.0
 11
19.65040145326105
 21
162.883709172314
 31
0.0
  0
LINE
  5
3AA4
330
18BE
100
AcDbEntity
  8
0
100
AcDbLine
 10
19.4904014532612
 20
162.7237611685556
 30
0.0
 11
19.40040145326105
 21
162.7237611685556
 31
0.0
  0
LINE
  5
3AA5
330
18BE
100
AcDbEntity
  8
0
100
AcDbLine
 10
19.31040145326271
 20
162.7237611685556
 30
0.0
 11
19.40040145326105
 21
162.7237611685556
 31
0.0
  0
LINE
  5
3AA6
330
18BE
100
AcDbEntity
  8
0
100
AcDbLine
 10
19.4904014532612
 20
162.7237611685556
 30
0.0
 11
19.4904014532612
 21
162.5436571760725
 31
0.0
  0
LINE
  5
3AA7
330
18BE
100
AcDbEntity
  8
0
100
AcDbLine
 10
19.31040145326271
 20
162.7237611685556
 30
0.0
 11
19.31040145326271
 21
162.5436571760725
 31
0.0
  0
LINE
  5
3AA8
330
18BE
100
AcDbEntity
  8
0
100
AcDbLine
 10
19.65040145326105
 20
162.3837091723141
 30
0.0
 11
19.65040145326105
 21
162.883709172314
 31
0.0
  0
LINE
  5
3AA9
330
18BE
100
AcDbEntity
  8
0
100
AcDbLine
 10
19.15040145326105
 20
162.883709172314
 30
0.0
 11
19.15040145326105
 21
162.3837091723141
 31
0.0
  0
LINE
  5
3AAA
330
18BE
100
AcDbEntity
  8
0
100
AcDbLine
 10
21.31040145326271
 20
158.7237611685556
 30
0.0
 11
21.40040145326105
 21
158.7237611685556
 31
0.0
  0
LINE
  5
3AAB
330
18BE
100
AcDbEntity
  8
0
100
AcDbLine
 10
21.49040145326118
 20
158.7237611685556
 30
0.0
 11
21.40040145326105
 21
158.7237611685556
 31
0.0
  0
LINE
  5
3AAC
330
18BE
100
AcDbEntity
  8
0
100
AcDbLine
 10
21.15040145326104
 20
158.883709172314
 30
0.0
 11
21.65040145326105
 21
158.883709172314
 31
0.0
  0
LINE
  5
3AAD
330
18BE
100
AcDbEntity
  8
0
100
AcDbLine
 10
19.4904014532612
 20
158.7237611685556
 30
0.0
 11
19.40040145326105
 21
158.7237611685556
 31
0.0
  0
LINE
  5
3AAE
330
18BE
100
AcDbEntity
  8
0
100
AcDbLine
 10
19.31040145326271
 20
158.7237611685556
 30
0.0
 11
19.40040145326105
 21
158.7237611685556
 31
0.0
  0
LINE
  5
3AAF
330
18BE
100
AcDbEntity
  8
0
100
AcDbLine
 10
19.15040145326105
 20
158.883709172314
 30
0.0
 11
19.65040145326105
 21
158.883709172314
 31
0.0
  0
LINE
  5
3AB0
330
18BE
100
AcDbEntity
  8
0
100
AcDbLine
 10
15.74506445326102
 20
178.0723006379481
 30
0.0
 11
15.74506445326102
 21
178.6650286379481
 31
0.0
  0
LINE
  5
3AB1
330
18BE
100
AcDbEntity
  8
0
100
AcDbLine
 10
14.764073453261
 20
178.6650286379481
 30
0.0
 11
14.764073453261
 21
178.0723006379481
 31
0.0
  0
LINE
  5
3AB2
330
18BE
100
AcDbEntity
  8
0
100
AcDbLine
 10
16.59962045326102
 20
179.046228637948
 30
0.0
 11
16.59962045326102
 21
178.065237637948
 31
0.0
  0
LINE
  5
3AB3
330
18BE
100
AcDbEntity
  8
0
100
AcDbLine
 10
16.16174845326105
 20
179.4272566379481
 30
0.0
 11
16.16174845326105
 21
178.065237637948
 31
0.0
  0
LINE
  5
3AB4
330
18BE
100
AcDbEntity
  8
0
100
AcDbLine
 10
15.74506445326102
 20
177.634428637948
 30
0.0
 11
15.74506445326102
 21
179.1023836379481
 31
0.0
  0
LINE
  5
3AB5
330
18BE
100
AcDbEntity
  8
0
100
AcDbLine
 10
13.76206745326106
 20
177.5992886379482
 30
0.0
 11
13.76206745326106
 21
179.0670716379481
 31
0.0
  0
LINE
  5
3AB6
330
18BE
100
AcDbEntity
  8
0
100
AcDbLine
 10
13.76206745326106
 20
177.5992886379482
 30
0.0
 11
13.76206745326106
 21
179.0670716379481
 31
0.0
  0
LINE
  5
3AB7
330
18BE
100
AcDbEntity
  8
0
100
AcDbLine
 10
14.38304645326097
 20
179.1023836379481
 30
0.0
 11
14.38304645326097
 21
177.634428637948
 31
0.0
  0
LINE
  5
3AB8
330
18BE
100
AcDbEntity
  8
0
100
AcDbLine
 10
11.84263245326103
 20
179.0670716379481
 30
0.0
 11
11.84263245326103
 21
177.5992886379482
 31
0.0
  0
LINE
  5
3AB9
330
18BE
100
AcDbEntity
  8
0
100
AcDbLine
 10
11.84263245326103
 20
179.0670716379481
 30
0.0
 11
11.84263245326103
 21
177.5992886379482
 31
0.0
  0
LINE
  5
3ABA
330
18BE
100
AcDbEntity
  8
0
100
AcDbLine
 10
10.10040145326098
 20
185.3337096379481
 30
0.0
 11
10.10040145326098
 21
171.3337096379481
 31
0.0
  0
LINE
  5
3ABB
330
18BE
100
AcDbEntity
  8
0
100
AcDbLine
 10
9.600401453260984
 20
185.8097226379481
 30
0.0
 11
9.600401453260984
 21
170.809722637948
 31
0.0
  0
LINE
  5
3ABC
330
18BE
100
AcDbEntity
  8
0
100
AcDbLine
 10
18.94194145326098
 20
179.5402556379481
 30
0.0
 11
18.94194145326098
 21
178.5590926379482
 31
0.0
  0
LINE
  5
3ABD
330
18BE
100
AcDbEntity
  8
0
100
AcDbLine
 10
18.34938445326105
 20
178.5590926379482
 30
0.0
 11
18.34938445326105
 21
179.5402556379481
 31
0.0
  0
LINE
  5
3ABE
330
18BE
100
AcDbEntity
  8
0
100
AcDbLine
 10
19.37981245326096
 20
179.921282637948
 30
0.0
 11
19.37981245326096
 21
178.5590926379482
 31
0.0
  0
LINE
  5
3ABF
330
18BE
100
AcDbEntity
  8
0
100
AcDbLine
 10
17.91185745326099
 20
178.5590926379482
 30
0.0
 11
17.91185745326099
 21
179.921282637948
 31
0.0
  0
LINE
  5
3AC0
330
18BE
100
AcDbEntity
  8
0
100
AcDbLine
 10
17.19217745326108
 20
178.065237637948
 30
0.0
 11
17.19217745326108
 21
179.046228637948
 31
0.0
  0
LINE
  5
3AC1
330
18BE
100
AcDbEntity
  8
0
100
AcDbLine
 10
17.62970445326101
 20
178.065237637948
 30
0.0
 11
17.62970445326101
 21
179.4272566379481
 31
0.0
  0
LINE
  5
3AC2
330
18BE
100
AcDbEntity
  8
0
100
AcDbLine
 10
22.90040145326105
 20
171.3337096379481
 30
0.0
 11
22.90040145326105
 21
185.3337096379481
 31
0.0
  0
CIRCLE
  5
3AC3
330
18BE
100
AcDbEntity
  8
0
100
AcDbCircle
 10
16.50040145326107
 20
178.3334386379483
 30
0.0
 40
5.029838999999999
  0
CIRCLE
  5
3AC4
330
18BE
100
AcDbEntity
  8
0
100
AcDbCircle
 10
16.50040145326107
 20
178.3334386379483
 30
0.0
 40
5.029838999999999
  0
CIRCLE
  5
3AC5
330
18BE
100
AcDbEntity
  8
0
100
AcDbCircle
 10
16.5001434532611
 20
178.3334386379483
 30
0.0
 40
4.448566
  0
LINE
  5
3AC6
330
18BE
100
AcDbEntity
  8
0
100
AcDbLine
 10
11.84263245326103
 20
177.5992886379482
 30
0.0
 11
13.76206745326106
 21
177.5992886379482
 31
0.0
  0
LINE
  5
3AC7
330
18BE
100
AcDbEntity
  8
0
100
AcDbLine
 10
11.84263245326103
 20
177.5992886379482
 30
0.0
 11
13.76206745326106
 21
177.5992886379482
 31
0.0
  0
LINE
  5
3AC8
330
18BE
100
AcDbEntity
  8
0
100
AcDbLine
 10
9.600401453260984
 20
170.809722637948
 30
0.0
 11
17.40040145326105
 21
170.809722637948
 31
0.0
  0
LINE
  5
3AC9
330
18BE
100
AcDbEntity
  8
0
100
AcDbLine
 10
10.10040145326098
 20
171.3337096379481
 30
0.0
 11
22.90040145326105
 21
171.3337096379481
 31
0.0
  0
LINE
  5
3ACA
330
18BE
100
AcDbEntity
  8
0
 48
0.1
100
AcDbLine
 10
17.90040145326105
 20
170.5837091723149
 30
0.0
 11
22.90040145326105
 21
170.5837091723149
 31
0.0
  0
LINE
  5
3ACB
330
18BE
100
AcDbEntity
  8
0
100
AcDbLine
 10
21.15040145326104
 20
168.8837091723141
 30
0.0
 11
21.15040145326104
 21
168.3837091723141
 31
0.0
  0
LINE
  5
3ACC
330
18BE
100
AcDbEntity
  8
0
100
AcDbLine
 10
21.65040145326105
 20
168.3837091723141
 30
0.0
 11
21.65040145326105
 21
168.8837091723141
 31
0.0
  0
LINE
  5
3ACD
330
18BE
100
AcDbEntity
  8
0
100
AcDbLine
 10
19.65040145326105
 20
168.3837091723141
 30
0.0
 11
19.65040145326105
 21
168.8837091723141
 31
0.0
  0
LINE
  5
3ACE
330
18BE
100
AcDbEntity
  8
0
100
AcDbLine
 10
19.15040145326105
 20
168.8837091723141
 30
0.0
 11
19.15040145326105
 21
168.3837091723141
 31
0.0
  0
LINE
  5
3ACF
330
18BE
100
AcDbEntity
  8
0
100
AcDbLine
 10
21.15040145326104
 20
168.8837091723141
 30
0.0
 11
21.65040145326105
 21
168.8837091723141
 31
0.0
  0
LINE
  5
3AD0
330
18BE
100
AcDbEntity
  8
0
100
AcDbLine
 10
19.15040145326105
 20
168.8837091723141
 30
0.0
 11
19.65040145326105
 21
168.8837091723141
 31
0.0
  0
LINE
  5
3AD1
330
18BE
100
AcDbEntity
  8
0
100
AcDbLine
 10
21.15040145326104
 20
168.3837091723141
 30
0.0
 11
21.65040145326105
 21
168.3837091723141
 31
0.0
  0
LINE
  5
3AD2
330
18BE
100
AcDbEntity
  8
0
100
AcDbLine
 10
21.31040145326271
 20
168.7237611685556
 30
0.0
 11
21.31040145326271
 21
168.5436571760726
 31
0.0
  0
LINE
  5
3AD3
330
18BE
100
AcDbEntity
  8
0
100
AcDbLine
 10
21.31040145326271
 20
168.5436571760726
 30
0.0
 11
21.40040145326105
 21
168.5436571760726
 31
0.0
  0
LINE
  5
3AD4
330
18BE
100
AcDbEntity
  8
0
100
AcDbLine
 10
21.31040145326271
 20
168.5436571760726
 30
0.0
 11
21.40040145326105
 21
168.5436571760726
 31
0.0
  0
LINE
  5
3AD5
330
18BE
100
AcDbEntity
  8
0
100
AcDbLine
 10
21.31040145326271
 20
168.7237611685556
 30
0.0
 11
21.40040145326105
 21
168.7237611685556
 31
0.0
  0
LINE
  5
3AD6
330
18BE
100
AcDbEntity
  8
0
100
AcDbLine
 10
21.49040145326118
 20
168.7237611685556
 30
0.0
 11
21.40040145326105
 21
168.7237611685556
 31
0.0
  0
LINE
  5
3AD7
330
18BE
100
AcDbEntity
  8
0
100
AcDbLine
 10
21.49040145326118
 20
168.5436571760726
 30
0.0
 11
21.40040145326105
 21
168.5436571760726
 31
0.0
  0
LINE
  5
3AD8
330
18BE
100
AcDbEntity
  8
0
100
AcDbLine
 10
21.49040145326118
 20
168.5436571760726
 30
0.0
 11
21.40040145326105
 21
168.5436571760726
 31
0.0
  0
LINE
  5
3AD9
330
18BE
100
AcDbEntity
  8
0
100
AcDbLine
 10
21.49040145326118
 20
168.7237611685556
 30
0.0
 11
21.49040145326118
 21
168.5436571760726
 31
0.0
  0
LINE
  5
3ADA
330
18BE
100
AcDbEntity
  8
0
100
AcDbLine
 10
21.15040145326104
 20
166.883709172314
 30
0.0
 11
21.65040145326105
 21
166.883709172314
 31
0.0
  0
LINE
  5
3ADB
330
18BE
100
AcDbEntity
  8
0
100
AcDbLine
 10
21.15040145326104
 20
166.3837091723141
 30
0.0
 11
21.65040145326105
 21
166.3837091723141
 31
0.0
  0
LINE
  5
3ADC
330
18BE
100
AcDbEntity
  8
0
100
AcDbLine
 10
21.15040145326104
 20
166.883709172314
 30
0.0
 11
21.15040145326104
 21
166.3837091723141
 31
0.0
  0
LINE
  5
3ADD
330
18BE
100
AcDbEntity
  8
0
100
AcDbLine
 10
21.65040145326105
 20
166.3837091723141
 30
0.0
 11
21.65040145326105
 21
166.883709172314
 31
0.0
  0
LINE
  5
3ADE
330
18BE
100
AcDbEntity
  8
0
100
AcDbLine
 10
21.49040145326118
 20
166.7237611685556
 30
0.0
 11
21.49040145326118
 21
166.5436571760726
 31
0.0
  0
LINE
  5
3ADF
330
18BE
100
AcDbEntity
  8
0
100
AcDbLine
 10
21.31040145326271
 20
166.7237611685556
 30
0.0
 11
21.31040145326271
 21
166.5436571760726
 31
0.0
  0
LINE
  5
3AE0
330
18BE
100
AcDbEntity
  8
0
100
AcDbLine
 10
21.49040145326118
 20
166.7237611685556
 30
0.0
 11
21.40040145326105
 21
166.7237611685556
 31
0.0
  0
LINE
  5
3AE1
330
18BE
100
AcDbEntity
  8
0
100
AcDbLine
 10
21.31040145326271
 20
166.7237611685556
 30
0.0
 11
21.40040145326105
 21
166.7237611685556
 31
0.0
  0
LINE
  5
3AE2
330
18BE
100
AcDbEntity
  8
0
100
AcDbLine
 10
21.49040145326118
 20
166.5436571760726
 30
0.0
 11
21.40040145326105
 21
166.5436571760726
 31
0.0
  0
LINE
  5
3AE3
330
18BE
100
AcDbEntity
  8
0
100
AcDbLine
 10
21.49040145326118
 20
166.5436571760726
 30
0.0
 11
21.40040145326105
 21
166.5436571760726
 31
0.0
  0
LINE
  5
3AE4
330
18BE
100
AcDbEntity
  8
0
100
AcDbLine
 10
21.31040145326271
 20
166.5436571760726
 30
0.0
 11
21.40040145326105
 21
166.5436571760726
 31
0.0
  0
LINE
  5
3AE5
330
18BE
100
AcDbEntity
  8
0
100
AcDbLine
 10
21.31040145326271
 20
166.5436571760726
 30
0.0
 11
21.40040145326105
 21
166.5436571760726
 31
0.0
  0
LINE
  5
3AE6
330
18BE
100
AcDbEntity
  8
0
100
AcDbLine
 10
19.15040145326105
 20
168.3837091723141
 30
0.0
 11
19.65040145326105
 21
168.3837091723141
 31
0.0
  0
LINE
  5
3AE7
330
18BE
100
AcDbEntity
  8
0
100
AcDbLine
 10
19.4904014532612
 20
168.7237611685556
 30
0.0
 11
19.4904014532612
 21
168.5436571760726
 31
0.0
  0
LINE
  5
3AE8
330
18BE
100
AcDbEntity
  8
0
100
AcDbLine
 10
19.4904014532612
 20
168.5436571760726
 30
0.0
 11
19.40040145326105
 21
168.5436571760726
 31
0.0
  0
LINE
  5
3AE9
330
18BE
100
AcDbEntity
  8
0
100
AcDbLine
 10
19.4904014532612
 20
168.5436571760726
 30
0.0
 11
19.40040145326105
 21
168.5436571760726
 31
0.0
  0
LINE
  5
3AEA
330
18BE
100
AcDbEntity
  8
0
100
AcDbLine
 10
19.4904014532612
 20
168.7237611685556
 30
0.0
 11
19.40040145326105
 21
168.7237611685556
 31
0.0
  0
LINE
  5
3AEB
330
18BE
100
AcDbEntity
  8
0
100
AcDbLine
 10
19.31040145326271
 20
168.7237611685556
 30
0.0
 11
19.40040145326105
 21
168.7237611685556
 31
0.0
  0
LINE
  5
3AEC
330
18BE
100
AcDbEntity
  8
0
100
AcDbLine
 10
19.31040145326271
 20
168.5436571760726
 30
0.0
 11
19.40040145326105
 21
168.5436571760726
 31
0.0
  0
LINE
  5
3AED
330
18BE
100
AcDbEntity
  8
0
100
AcDbLine
 10
19.31040145326271
 20
168.5436571760726
 30
0.0
 11
19.40040145326105
 21
168.5436571760726
 31
0.0
  0
LINE
  5
3AEE
330
18BE
100
AcDbEntity
  8
0
100
AcDbLine
 10
19.31040145326271
 20
168.7237611685556
 30
0.0
 11
19.31040145326271
 21
168.5436571760726
 31
0.0
  0
LINE
  5
3AEF
330
18BE
100
AcDbEntity
  8
0
100
AcDbLine
 10
19.15040145326105
 20
166.883709172314
 30
0.0
 11
19.15040145326105
 21
166.3837091723141
 31
0.0
  0
LINE
  5
3AF0
330
18BE
100
AcDbEntity
  8
0
100
AcDbLine
 10
19.65040145326105
 20
166.3837091723141
 30
0.0
 11
19.65040145326105
 21
166.883709172314
 31
0.0
  0
LINE
  5
3AF1
330
18BE
100
AcDbEntity
  8
0
100
AcDbLine
 10
19.31040145326271
 20
166.7237611685556
 30
0.0
 11
19.31040145326271
 21
166.5436571760726
 31
0.0
  0
LINE
  5
3AF2
330
18BE
100
AcDbEntity
  8
0
100
AcDbLine
 10
19.4904014532612
 20
166.7237611685556
 30
0.0
 11
19.4904014532612
 21
166.5436571760726
 31
0.0
  0
LINE
  5
3AF3
330
18BE
100
AcDbEntity
  8
0
100
AcDbLine
 10
19.31040145326271
 20
166.7237611685556
 30
0.0
 11
19.40040145326105
 21
166.7237611685556
 31
0.0
  0
LINE
  5
3AF4
330
18BE
100
AcDbEntity
  8
0
100
AcDbLine
 10
19.4904014532612
 20
166.7237611685556
 30
0.0
 11
19.40040145326105
 21
166.7237611685556
 31
0.0
  0
LINE
  5
3AF5
330
18BE
100
AcDbEntity
  8
0
100
AcDbLine
 10
19.15040145326105
 20
166.883709172314
 30
0.0
 11
19.65040145326105
 21
166.883709172314
 31
0.0
  0
LINE
  5
3AF6
330
18BE
100
AcDbEntity
  8
0
100
AcDbLine
 10
19.31040145326271
 20
166.5436571760726
 30
0.0
 11
19.40040145326105
 21
166.5436571760726
 31
0.0
  0
LINE
  5
3AF7
330
18BE
100
AcDbEntity
  8
0
100
AcDbLine
 10
19.31040145326271
 20
166.5436571760726
 30
0.0
 11
19.40040145326105
 21
166.5436571760726
 31
0.0
  0
LINE
  5
3AF8
330
18BE
100
AcDbEntity
  8
0
100
AcDbLine
 10
19.4904014532612
 20
166.5436571760726
 30
0.0
 11
19.40040145326105
 21
166.5436571760726
 31
0.0
  0
LINE
  5
3AF9
330
18BE
100
AcDbEntity
  8
0
100
AcDbLine
 10
19.4904014532612
 20
166.5436571760726
 30
0.0
 11
19.40040145326105
 21
166.5436571760726
 31
0.0
  0
LINE
  5
3AFA
330
18BE
100
AcDbEntity
  8
0
100
AcDbLine
 10
19.15040145326105
 20
166.3837091723141
 30
0.0
 11
19.65040145326105
 21
166.3837091723141
 31
0.0
  0
LINE
  5
3AFB
330
18BE
100
AcDbEntity
  8
0
100
AcDbLine
 10
18.34938445326105
 20
177.1123246379481
 30
0.0
 11
18.94194145326098
 21
177.1123246379481
 31
0.0
  0
LINE
  5
3AFC
330
18BE
100
AcDbEntity
  8
0
100
AcDbLine
 10
17.91185745326099
 20
176.7314686379484
 30
0.0
 11
19.37981245326096
 21
176.7314686379484
 31
0.0
  0
LINE
  5
3AFD
330
18BE
100
AcDbEntity
  8
0
100
AcDbLine
 10
18.94194145326098
 20
178.5590926379482
 30
0.0
 11
18.34938445326105
 21
178.5590926379482
 31
0.0
  0
LINE
  5
3AFE
330
18BE
100
AcDbEntity
  8
0
100
AcDbLine
 10
19.37981245326096
 20
178.5590926379482
 30
0.0
 11
17.91185745326099
 21
178.5590926379482
 31
0.0
  0
LINE
  5
3AFF
330
18BE
100
AcDbEntity
  8
0
100
AcDbLine
 10
18.94194145326098
 20
178.0934876379481
 30
0.0
 11
18.34938445326105
 21
178.0934876379481
 31
0.0
  0
LINE
  5
3B00
330
18BE
100
AcDbEntity
  8
0
100
AcDbLine
 10
19.37981245326096
 20
178.0934876379481
 30
0.0
 11
17.91185745326099
 21
178.0934876379481
 31
0.0
  0
LINE
  5
3B01
330
18BE
100
AcDbEntity
  8
0
100
AcDbLine
 10
14.38339045326102
 20
175.7926806379479
 30
0.0
 11
14.76441845326103
 21
176.2303796379483
 31
0.0
  0
LINE
  5
3B02
330
18BE
100
AcDbEntity
  8
0
100
AcDbLine
 10
14.764073453261
 20
176.2303796379483
 30
0.0
 11
15.74506445326102
 21
176.2303796379483
 31
0.0
  0
LINE
  5
3B03
330
18BE
100
AcDbEntity
  8
0
100
AcDbLine
 10
14.38304645326097
 20
175.7926806379479
 30
0.0
 11
15.74506445326102
 21
175.7926806379479
 31
0.0
  0
LINE
  5
3B04
330
18BE
100
AcDbEntity
  8
0
100
AcDbLine
 10
14.38339045326102
 20
177.2606356379479
 30
0.0
 11
14.76441845326103
 21
176.8231086379481
 31
0.0
  0
LINE
  5
3B05
330
18BE
100
AcDbEntity
  8
0
100
AcDbLine
 10
15.74506445326102
 20
176.8231086379481
 30
0.0
 11
14.764073453261
 21
176.8231086379481
 31
0.0
  0
LINE
  5
3B06
330
18BE
100
AcDbEntity
  8
0
100
AcDbLine
 10
15.74506445326102
 20
177.2606356379479
 30
0.0
 11
14.38304645326097
 21
177.2606356379479
 31
0.0
  0
LINE
  5
3B07
330
18BE
100
AcDbEntity
  8
0
100
AcDbLine
 10
15.74506445326102
 20
176.2303796379483
 30
0.0
 11
15.74506445326102
 21
176.8231086379481
 31
0.0
  0
LINE
  5
3B08
330
18BE
100
AcDbEntity
  8
0
100
AcDbLine
 10
15.74506445326102
 20
175.7926806379479
 30
0.0
 11
15.74506445326102
 21
177.2606356379479
 31
0.0
  0
LINE
  5
3B09
330
18BE
100
AcDbEntity
  8
0
100
AcDbLine
 10
14.764073453261
 20
176.8231086379481
 30
0.0
 11
14.764073453261
 21
176.2303796379483
 31
0.0
  0
LINE
  5
3B0A
330
18BE
100
AcDbEntity
  8
0
100
AcDbLine
 10
14.38304645326097
 20
177.2606356379479
 30
0.0
 11
14.38304645326097
 21
175.7926806379479
 31
0.0
  0
LINE
  5
3B0B
330
18BE
100
AcDbEntity
  8
0
100
AcDbLine
 10
14.38339045326102
 20
177.634428637948
 30
0.0
 11
14.76441845326103
 21
178.0723006379481
 31
0.0
  0
LINE
  5
3B0C
330
18BE
100
AcDbEntity
  8
0
100
AcDbLine
 10
14.764073453261
 20
178.0723006379481
 30
0.0
 11
15.74506445326102
 21
178.0723006379481
 31
0.0
  0
LINE
  5
3B0D
330
18BE
100
AcDbEntity
  8
0
100
AcDbLine
 10
14.38304645326097
 20
177.634428637948
 30
0.0
 11
15.74506445326102
 21
177.634428637948
 31
0.0
  0
LINE
  5
3B0E
330
18BE
100
AcDbEntity
  8
0
100
AcDbLine
 10
16.16174845326105
 20
175.3410286379479
 30
0.0
 11
16.59910345326095
 21
175.7220556379479
 31
0.0
  0
LINE
  5
3B0F
330
18BE
100
AcDbEntity
  8
0
100
AcDbLine
 10
16.16174845326105
 20
176.7032196379481
 30
0.0
 11
16.16174845326105
 21
175.3410286379479
 31
0.0
  0
LINE
  5
3B10
330
18BE
100
AcDbEntity
  8
0
100
AcDbLine
 10
16.59910345326095
 20
176.7032196379481
 30
0.0
 11
16.59910345326095
 21
175.7220556379479
 31
0.0
  0
LINE
  5
3B11
330
18BE
100
AcDbEntity
  8
0
100
AcDbLine
 10
17.62970445326101
 20
175.3410286379479
 30
0.0
 11
17.19183245326104
 21
175.7220556379479
 31
0.0
  0
LINE
  5
3B12
330
18BE
100
AcDbEntity
  8
0
100
AcDbLine
 10
17.91185745326099
 20
176.7314686379484
 30
0.0
 11
18.34938445326105
 21
177.1123246379481
 31
0.0
  0
LINE
  5
3B13
330
18BE
100
AcDbEntity
  8
0
100
AcDbLine
 10
17.62970445326101
 20
175.3410286379479
 30
0.0
 11
17.62970445326101
 21
176.7032196379481
 31
0.0
  0
LINE
  5
3B14
330
18BE
100
AcDbEntity
  8
0
100
AcDbLine
 10
17.19183245326104
 20
175.7220556379479
 30
0.0
 11
17.19183245326104
 21
176.7032196379481
 31
0.0
  0
LINE
  5
3B15
330
18BE
100
AcDbEntity
  8
0
100
AcDbLine
 10
18.34938445326105
 20
178.0934876379481
 30
0.0
 11
18.34938445326105
 21
177.1123246379481
 31
0.0
  0
LINE
  5
3B16
330
18BE
100
AcDbEntity
  8
0
100
AcDbLine
 10
17.91185745326099
 20
178.0934876379481
 30
0.0
 11
17.91185745326099
 21
176.7314686379484
 31
0.0
  0
LINE
  5
3B17
330
18BE
100
AcDbEntity
  8
0
100
AcDbLine
 10
16.16174845326105
 20
175.3410286379479
 30
0.0
 11
17.62970445326101
 21
175.3410286379479
 31
0.0
  0
LINE
  5
3B18
330
18BE
100
AcDbEntity
  8
0
100
AcDbLine
 10
16.59910345326095
 20
175.7220556379479
 30
0.0
 11
17.19183245326104
 21
175.7220556379479
 31
0.0
  0
LINE
  5
3B19
330
18BE
100
AcDbEntity
  8
0
100
AcDbLine
 10
17.62970445326101
 20
176.7032196379481
 30
0.0
 11
16.16174845326105
 21
176.7032196379481
 31
0.0
  0
LINE
  5
3B1A
330
18BE
100
AcDbEntity
  8
0
100
AcDbLine
 10
17.19183245326104
 20
176.7032196379481
 30
0.0
 11
16.59910345326095
 21
176.7032196379481
 31
0.0
  0
LINE
  5
3B1B
330
18BE
100
AcDbEntity
  8
0
100
AcDbLine
 10
16.59962045326102
 20
178.065237637948
 30
0.0
 11
17.19217745326108
 21
178.065237637948
 31
0.0
  0
LINE
  5
3B1C
330
18BE
100
AcDbEntity
  8
0
100
AcDbLine
 10
16.16174845326105
 20
178.065237637948
 30
0.0
 11
17.62970445326101
 21
178.065237637948
 31
0.0
  0
LINE
  5
3B1D
330
18BE
100
AcDbEntity
  8
0
100
AcDbLine
 10
19.37981245326096
 20
176.7314686379484
 30
0.0
 11
18.94194145326098
 21
177.1123246379481
 31
0.0
  0
LINE
  5
3B1E
330
18BE
100
AcDbEntity
  8
0
100
AcDbLine
 10
18.94194145326098
 20
177.1123246379481
 30
0.0
 11
18.94194145326098
 21
178.0934876379481
 31
0.0
  0
LINE
  5
3B1F
330
18BE
100
AcDbEntity
  8
0
100
AcDbLine
 10
19.37981245326096
 20
176.7314686379484
 30
0.0
 11
19.37981245326096
 21
178.0934876379481
 31
0.0
  0
LINE
  5
3B20
330
18BE
100
AcDbEntity
  8
0
100
AcDbLine
 10
9.600401453260984
 20
185.8097226379481
 30
0.0
 11
15.25040145326096
 21
185.8097226379481
 31
0.0
  0
LINE
  5
3B21
330
18BE
100
AcDbEntity
  8
0
100
AcDbLine
 10
13.76206745326106
 20
179.0670716379481
 30
0.0
 11
11.84263245326103
 21
179.0670716379481
 31
0.0
  0
LINE
  5
3B22
330
18BE
100
AcDbEntity
  8
0
100
AcDbLine
 10
13.76206745326106
 20
179.0670716379481
 30
0.0
 11
11.84263245326103
 21
179.0670716379481
 31
0.0
  0
LINE
  5
3B23
330
18BE
100
AcDbEntity
  8
0
100
AcDbLine
 10
10.10040145326098
 20
185.3337096379481
 30
0.0
 11
22.90040145326105
 21
185.3337096379481
 31
0.0
  0
LINE
  5
3B24
330
18BE
100
AcDbEntity
  8
0
100
AcDbLine
 10
18.34938445326105
 20
179.5402556379481
 30
0.0
 11
18.94194145326098
 21
179.5402556379481
 31
0.0
  0
LINE
  5
3B25
330
18BE
100
AcDbEntity
  8
0
100
AcDbLine
 10
17.91185745326099
 20
179.921282637948
 30
0.0
 11
19.37981245326096
 21
179.921282637948
 31
0.0
  0
LINE
  5
3B26
330
18BE
100
AcDbEntity
  8
0
100
AcDbLine
 10
15.74506445326102
 20
179.9142206379482
 30
0.0
 11
15.74506445326102
 21
180.5067766379481
 31
0.0
  0
LINE
  5
3B27
330
18BE
100
AcDbEntity
  8
0
100
AcDbLine
 10
15.74506445326102
 20
179.4766936379483
 30
0.0
 11
15.74506445326102
 21
180.9446486379479
 31
0.0
  0
LINE
  5
3B28
330
18BE
100
AcDbEntity
  8
0
100
AcDbLine
 10
14.38339045326102
 20
180.9443036379479
 30
0.0
 11
14.76441845326103
 21
180.5067766379481
 31
0.0
  0
LINE
  5
3B29
330
18BE
100
AcDbEntity
  8
0
100
AcDbLine
 10
14.38339045326102
 20
179.4766936379483
 30
0.0
 11
14.76441845326103
 21
179.9142206379482
 31
0.0
  0
LINE
  5
3B2A
330
18BE
100
AcDbEntity
  8
0
100
AcDbLine
 10
14.764073453261
 20
180.5067766379481
 30
0.0
 11
14.764073453261
 21
179.9142206379482
 31
0.0
  0
LINE
  5
3B2B
330
18BE
100
AcDbEntity
  8
0
100
AcDbLine
 10
14.38304645326097
 20
180.9446486379479
 30
0.0
 11
14.38304645326097
 21
179.4766936379483
 31
0.0
  0
LINE
  5
3B2C
330
18BE
100
AcDbEntity
  8
0
100
AcDbLine
 10
14.764073453261
 20
179.9142206379482
 30
0.0
 11
15.74506445326102
 21
179.9142206379482
 31
0.0
  0
LINE
  5
3B2D
330
18BE
100
AcDbEntity
  8
0
100
AcDbLine
 10
15.74506445326102
 20
180.5067766379481
 30
0.0
 11
14.764073453261
 21
180.5067766379481
 31
0.0
  0
LINE
  5
3B2E
330
18BE
100
AcDbEntity
  8
0
100
AcDbLine
 10
14.38304645326097
 20
179.4766936379483
 30
0.0
 11
15.74506445326102
 21
179.4766936379483
 31
0.0
  0
LINE
  5
3B2F
330
18BE
100
AcDbEntity
  8
0
100
AcDbLine
 10
15.74506445326102
 20
180.9446486379479
 30
0.0
 11
14.38304645326097
 21
180.9446486379479
 31
0.0
  0
LINE
  5
3B30
330
18BE
100
AcDbEntity
  8
0
100
AcDbLine
 10
15.74506445326102
 20
179.1023836379481
 30
0.0
 11
14.38304645326097
 21
179.1023836379481
 31
0.0
  0
LINE
  5
3B31
330
18BE
100
AcDbEntity
  8
0
100
AcDbLine
 10
16.16174845326105
 20
179.4272566379481
 30
0.0
 11
16.59910345326095
 21
179.0458846379483
 31
0.0
  0
LINE
  5
3B32
330
18BE
100
AcDbEntity
  8
0
100
AcDbLine
 10
16.59962045326102
 20
180.8669616379484
 30
0.0
 11
16.59962045326102
 21
179.8859706379482
 31
0.0
  0
LINE
  5
3B33
330
18BE
100
AcDbEntity
  8
0
100
AcDbLine
 10
16.16174845326105
 20
181.2479896379478
 30
0.0
 11
16.59910345326095
 21
180.8666176379481
 31
0.0
  0
LINE
  5
3B34
330
18BE
100
AcDbEntity
  8
0
100
AcDbLine
 10
16.16174845326105
 20
181.2479896379478
 30
0.0
 11
16.16174845326105
 21
179.8859706379482
 31
0.0
  0
LINE
  5
3B35
330
18BE
100
AcDbEntity
  8
0
100
AcDbLine
 10
15.74506445326102
 20
178.6650286379481
 30
0.0
 11
14.764073453261
 21
178.6650286379481
 31
0.0
  0
LINE
  5
3B36
330
18BE
100
AcDbEntity
  8
0
100
AcDbLine
 10
14.38339045326102
 20
179.1023836379481
 30
0.0
 11
14.76441845326103
 21
178.6650286379481
 31
0.0
  0
LINE
  5
3B37
330
18BE
100
AcDbEntity
  8
0
100
AcDbLine
 10
17.19217745326108
 20
179.8859706379482
 30
0.0
 11
17.19217745326108
 21
180.8669616379484
 31
0.0
  0
LINE
  5
3B38
330
18BE
100
AcDbEntity
  8
0
100
AcDbLine
 10
17.62970445326101
 20
179.4272566379481
 30
0.0
 11
17.19217745326108
 21
179.0458846379483
 31
0.0
  0
LINE
  5
3B39
330
18BE
100
AcDbEntity
  8
0
100
AcDbLine
 10
17.91185745326099
 20
179.921282637948
 30
0.0
 11
18.34938445326105
 21
179.5402556379481
 31
0.0
  0
LINE
  5
3B3A
330
18BE
100
AcDbEntity
  8
0
100
AcDbLine
 10
17.62970445326101
 20
181.2479896379478
 30
0.0
 11
17.19217745326108
 21
180.8666176379481
 31
0.0
  0
LINE
  5
3B3B
330
18BE
100
AcDbEntity
  8
0
100
AcDbLine
 10
17.62970445326101
 20
179.8859706379482
 30
0.0
 11
17.62970445326101
 21
181.2479896379478
 31
0.0
  0
LINE
  5
3B3C
330
18BE
100
AcDbEntity
  8
0
100
AcDbLine
 10
16.59962045326102
 20
179.8859706379482
 30
0.0
 11
17.19217745326108
 21
179.8859706379482
 31
0.0
  0
LINE
  5
3B3D
330
18BE
100
AcDbEntity
  8
0
100
AcDbLine
 10
17.19217745326108
 20
180.8669616379484
 30
0.0
 11
16.59962045326102
 21
180.8669616379484
 31
0.0
  0
LINE
  5
3B3E
330
18BE
100
AcDbEntity
  8
0
100
AcDbLine
 10
16.16174845326105
 20
179.8859706379482
 30
0.0
 11
17.62970445326101
 21
179.8859706379482
 31
0.0
  0
LINE
  5
3B3F
330
18BE
100
AcDbEntity
  8
0
100
AcDbLine
 10
17.19217745326108
 20
179.046228637948
 30
0.0
 11
16.59962045326102
 21
179.046228637948
 31
0.0
  0
LINE
  5
3B40
330
18BE
100
AcDbEntity
  8
0
100
AcDbLine
 10
17.62970445326101
 20
179.4272566379481
 30
0.0
 11
16.16174845326105
 21
179.4272566379481
 31
0.0
  0
LINE
  5
3B41
330
18BE
100
AcDbEntity
  8
0
100
AcDbLine
 10
17.62970445326101
 20
181.2479896379478
 30
0.0
 11
16.16174845326105
 21
181.2479896379478
 31
0.0
  0
LINE
  5
3B42
330
18BE
100
AcDbEntity
  8
0
100
AcDbLine
 10
19.37981245326096
 20
179.921282637948
 30
0.0
 11
18.94194145326098
 21
179.5402556379481
 31
0.0
  0
LINE
  5
3B43
330
18BE
100
AcDbEntity
  8
0
100
AcDbLine
 10
18.32123645326105
 20
190.0837096379481
 30
0.0
 11
20.28615845326105
 21
190.0837096379481
 31
0.0
  0
LINE
  5
3B44
330
18BE
100
AcDbEntity
  8
0
100
AcDbLine
 10
18.32123645326105
 20
187.0837096379481
 30
0.0
 11
20.28615845326105
 21
187.0837096379481
 31
0.0
  0
LINE
  5
3B45
330
18BE
100
AcDbEntity
  8
0
100
AcDbLine
 10
15.90040145326105
 20
186.0837096379481
 30
0.0
 11
22.90040145326105
 21
186.0837096379481
 31
0.0
  0
LINE
  5
3B46
330
18BE
100
AcDbEntity
  8
0
100
AcDbLine
 10
15.90040145326105
 20
191.0837096379481
 30
0.0
 11
22.90040145326105
 21
191.0837096379481
 31
0.0
  0
LINE
  5
3B47
330
18BE
100
AcDbEntity
  8
0
100
AcDbLine
 10
15.90040145326105
 20
186.0837096379481
 30
0.0
 11
15.90040145326105
 21
191.0837096379481
 31
0.0
  0
LINE
  5
3B48
330
18BE
100
AcDbEntity
  8
0
100
AcDbLine
 10
15.25040145326096
 20
185.8097226379481
 30
0.0
 11
15.25040145326096
 21
191.0837096379481
 31
0.0
  0
LINE
  5
3B49
330
18BE
100
AcDbEntity
  8
0
100
AcDbLine
 10
18.32123645326105
 20
190.0837096379481
 30
0.0
 11
18.32123645326105
 21
187.0837096379481
 31
0.0
  0
LINE
  5
3B4A
330
18BE
100
AcDbEntity
  8
0
100
AcDbLine
 10
22.65040145326105
 20
191.4837096379482
 30
0.0
 11
23.40040145326105
 21
191.4837096379482
 31
0.0
  0
LINE
  5
3B4B
330
18BE
100
AcDbEntity
  8
外枠
100
AcDbLine
 10
22.90040145326105
 20
191.0837096379481
 30
0.0
 11
22.90040145326105
 21
191.4837096379482
 31
0.0
  0
LINE
  5
3B4C
330
18BE
100
AcDbEntity
  8
外枠
100
AcDbLine
 10
22.90040145326105
 20
185.3337096379481
 30
0.0
 11
22.90040145326105
 21
186.0837096379481
 31
0.0
  0
LINE
  5
3B4D
330
18BE
100
AcDbEntity
  8
0
100
AcDbLine
 10
22.90040145326105
 20
191.0837096379481
 30
0.0
 11
22.90040145326105
 21
186.0837096379481
 31
0.0
  0
LINE
  5
3B4E
330
18BE
100
AcDbEntity
  8
0
100
AcDbLine
 10
20.28615845326105
 20
190.0837096379481
 30
0.0
 11
20.28615845326105
 21
187.0837096379481
 31
0.0
  0
LINE
  5
3B4F
330
18BE
100
AcDbEntity
  8
0
100
AcDbLine
 10
15.21470645326107
 20
222.5667391379479
 30
0.0
 11
15.21470645326107
 21
210.585610637948
 31
0.0
  0
LINE
  5
3B50
330
18BE
100
AcDbEntity
  8
0
100
AcDbLine
 10
14.15040145326108
 20
219.7947216379479
 30
0.0
 11
14.15040145326108
 21
202.4147216379481
 31
0.0
  0
LINE
  5
3B51
330
18BE
100
AcDbEntity
  8
0
100
AcDbLine
 10
19.51549345326107
 20
218.3207006379484
 30
0.0
 11
19.51549345326107
 21
218.7287426379481
 31
0.0
  0
LINE
  5
3B52
330
18BE
100
AcDbEntity
  8
0
100
AcDbLine
 10
19.10745145326106
 20
218.7287426379481
 30
0.0
 11
19.10745145326106
 21
218.3207006379484
 31
0.0
  0
LINE
  5
3B53
330
18BE
100
AcDbEntity
  8
0
100
AcDbLine
 10
17.44262845326099
 20
218.3207006379484
 30
0.0
 11
17.44262845326099
 21
218.7287426379481
 31
0.0
  0
LINE
  5
3B54
330
18BE
100
AcDbEntity
  8
0
100
AcDbLine
 10
17.03458345326108
 20
218.7287426379481
 30
0.0
 11
17.03458345326108
 21
218.3207006379484
 31
0.0
  0
LINE
  5
3B55
330
18BE
100
AcDbEntity
  8
0
100
AcDbLine
 10
22.65040145326107
 20
202.4147216379481
 30
0.0
 11
22.65040145326107
 21
219.7947216379479
 31
0.0
  0
LINE
  5
3B56
330
18BE
100
AcDbEntity
  8
0
100
AcDbLine
 10
22.65040145326107
 20
227.494721637948
 30
0.0
 11
22.65040145326107
 21
202.4147216379481
 31
0.0
  0
LINE
  5
3B57
330
18BE
100
AcDbEntity
  8
0
100
AcDbLine
 10
21.947441453261
 20
205.6074676379481
 30
0.0
 11
21.94744145326112
 21
240.253235637948
 31
0.0
  0
LINE
  5
3B58
330
18BE
100
AcDbEntity
  8
0
100
AcDbLine
 10
21.33537345326109
 20
237.886576637948
 30
0.0
 11
21.33537345326109
 21
210.585610637948
 31
0.0
  0
LINE
  5
3B59
330
18BE
100
AcDbEntity
  8
0
100
AcDbLine
 10
14.80666145326105
 20
240.253235637948
 30
0.0
 11
14.80666145326105
 21
205.6074676379481
 31
0.0
  0
LINE
  5
3B5A
330
18BE
100
AcDbEntity
  8
0
100
AcDbLine
 10
14.80666145326105
 20
205.6074676379481
 30
0.0
 11
14.80666145326105
 21
203.1627056379479
 31
0.0
  0
LINE
  5
3B5B
330
18BE
100
AcDbEntity
  8
0
100
AcDbLine
 10
16.64286045326101
 20
205.6074676379481
 30
0.0
 11
16.64286045326101
 21
203.1627056379479
 31
0.0
  0
LINE
  5
3B5C
330
18BE
100
AcDbEntity
  8
0
100
AcDbLine
 10
21.947441453261
 20
205.6074676379481
 30
0.0
 11
21.947441453261
 21
203.1627056379479
 31
0.0
  0
LINE
  5
3B5D
330
18BE
100
AcDbEntity
  8
0
100
AcDbLine
 10
19.90721645326104
 20
205.6766566379482
 30
0.0
 11
19.90721645326104
 21
203.1627056379479
 31
0.0
  0
LINE
  5
3B5E
330
18BE
100
AcDbEntity
  8
0
100
AcDbLine
 10
22.90040145326107
 20
208.5147216379479
 30
0.0
 11
22.90040145326107
 21
202.4147216379481
 31
0.0
  0
LINE
  5
3B5F
330
18BE
100
AcDbEntity
  8
0
100
AcDbLine
 10
5.000401453261105
 20
202.9518056379481
 30
0.0
 11
5.000401453261075
 21
195.5837096379481
 31
0.0
  0
MTEXT
  5
3B60
330
18BE
100
AcDbEntity
  8
0
100
AcDbMText
 10
18.6081973955858
 20
199.0647479670516
 30
0.0
 40
1.0
 41
0.8368
 71
     1
 72
     5
  1
{\Ftxt.shx,extfont.shx;4}
1001
ACAD
1000
MTEXTBEGIN
1070
    73
1070
     1
1070
    44
1040
1.0
1070
    74
1070
     0
1000
MTEXTEND
1000
MTEXTBEGIN
1070
    73
1070
     1
1070
    44
1040
1.0
1070
    74
1070
     0
1000
MTEXTEND
  0
MTEXT
  5
3B61
330
18BE
100
AcDbEntity
  8
0
100
AcDbMText
 10
17.37864711893023
 20
198.6840379722309
 30
0.0
 40
1.0
 41
0.8368
 71
     1
 72
     5
  1
{\Ftxt.shx,extfont.shx;3}
 11
0.9205048534524406
 21
0.3907311284892731
 31
0.0
1001
ACAD
1000
MTEXTBEGIN
1070
    73
1070
     1
1070
    44
1040
1.0
1070
    74
1070
     0
1000
MTEXTEND
1000
MTEXTBEGIN
1070
    73
1070
     1
1070
    44
1040
1.0
1070
    74
1070
     0
1000
MTEXTEND
  0
MTEXT
  5
3B62
330
18BE
100
AcDbEntity
  8
0
100
AcDbMText
 10
19.88984513793519
 20
198.9459496189521
 30
0.0
 40
1.0
 41
0.8368
 71
     1
 72
     5
  1
{\Ftxt.shx,extfont.shx;5}
 11
0.9205048534524401
 21
-0.3907311284892742
 31
0.0
1001
ACAD
1000
MTEXTBEGIN
1070
    73
1070
     1
1070
    44
1040
1.0
1070
    74
1070
     0
1000
MTEXTEND
1000
MTEXTBEGIN
1070
    73
1070
     1
1070
    44
1040
1.0
1070
    74
1070
     0
1000
MTEXTEND
  0
CIRCLE
  5
3B63
330
18BE
100
AcDbEntity
  8
0
100
AcDbCircle
 10
18.95040145326111
 20
195.7837096379481
 30
0.0
 40
3.7
  0
CIRCLE
  5
3B64
330
18BE
100
AcDbEntity
  8
0
100
AcDbCircle
 10
18.95040145326111
 20
195.7837096379481
 30
0.0
 40
3.7
  0
ARC
  5
3B65
330
18BE
100
AcDbEntity
  8
0
100
AcDbCircle
 10
18.95040145326105
 20
195.7837096379481
 30
0.0
 40
3.69999999999993
100
AcDbArc
 50
0.0
 51
180.0
  0
LINE
  5
3B66
330
18BE
100
AcDbEntity
  8
0
100
AcDbLine
 10
17.91847245326101
 20
195.6226586379481
 30
0.0
 11
20.752007453261
 21
195.6226586379481
 31
0.0
  0
LINE
  5
3B67
330
18BE
100
AcDbEntity
  8
0
100
AcDbLine
 10
17.91847291341554
 20
195.6226591617853
 30
0.0
 11
20.75200736145024
 21
195.6226591617853
 31
0.0
  0
LINE
  5
3B68
330
18BE
100
AcDbEntity
  8
0
100
AcDbLine
 10
17.91847291341554
 20
195.9447601141075
 30
0.0
 11
20.75200736145024
 21
195.9447601141075
 31
0.0
  0
LINE
  5
3B69
330
18BE
100
AcDbEntity
  8
0
100
AcDbLine
 10
17.91847245326101
 20
195.9447596379484
 30
0.0
 11
20.752007453261
 21
195.9447596379484
 31
0.0
  0
CIRCLE
  5
3B6A
330
18BE
100
AcDbEntity
  8
0
100
AcDbCircle
 10
18.95040145326111
 20
195.7837096379481
 30
0.0
 40
1.907437032355004
  0
LINE
  5
3B6B
330
18BE
100
AcDbEntity
  8
0
100
AcDbLine
 10
15.25040145326096
 20
192.0337096379483
 30
0.0
 11
22.65040145326105
 21
192.0337096379481
 31
0.0
  0
LINE
  5
3B6C
330
18BE
100
AcDbEntity
  8
0
100
AcDbLine
 10
15.25040145326096
 20
192.0337096379481
 30
0.0
 11
22.65040145326105
 21
192.0337096379481
 31
0.0
  0
MTEXT
  5
3B6D
330
18BE
100
AcDbEntity
  8
0
100
AcDbMText
 10
15.66936312415753
 20
195.4415055802711
 30
0.0
 40
1.0
 41
0.8368
 71
     1
 72
     5
  1
{\Ftxt.shx,extfont.shx;0}
 11
0.0000000000000007
 21
1.0
 31
0.0
1001
ACAD
1000
MTEXTBEGIN
1070
    73
1070
     1
1070
    44
1040
1.0
1070
    74
1070
     0
1000
MTEXTEND
1000
MTEXTBEGIN
1070
    73
1070
     1
1070
    44
1040
1.0
1070
    74
1070
     0
1000
MTEXTEND
  0
LINE
  5
3B6E
330
18BE
100
AcDbEntity
  8
0
100
AcDbLine
 10
17.04296445326105
 20
195.7837096379481
 30
0.0
 11
17.91847245326101
 21
195.2035196379481
 31
0.0
  0
LINE
  5
3B6F
330
18BE
100
AcDbEntity
  8
0
100
AcDbLine
 10
17.91847245326101
 20
195.6226586379481
 30
0.0
 11
17.91847245326101
 21
195.2035196379481
 31
0.0
  0
LINE
  5
3B70
330
18BE
100
AcDbEntity
  8
0
100
AcDbLine
 10
17.04296442090678
 20
195.7837096379481
 30
0.0
 11
17.91847291341554
 21
195.2035196057224
 31
0.0
  0
LINE
  5
3B71
330
18BE
100
AcDbEntity
  8
0
100
AcDbLine
 10
17.91847291341554
 20
195.6226591617853
 30
0.0
 11
17.91847291341554
 21
195.2035196057224
 31
0.0
  0
LINE
  5
3B72
330
18BE
100
AcDbEntity
  8
0
100
AcDbLine
 10
17.91847291341554
 20
196.363899670174
 30
0.0
 11
17.91847291341554
 21
195.9447601141075
 31
0.0
  0
LINE
  5
3B73
330
18BE
100
AcDbEntity
  8
0
100
AcDbLine
 10
17.04296442090678
 20
195.7837096379481
 30
0.0
 11
17.91847291341554
 21
196.363899670174
 31
0.0
  0
LINE
  5
3B74
330
18BE
100
AcDbEntity
  8
0
100
AcDbLine
 10
17.91847245326101
 20
196.3638996379481
 30
0.0
 11
17.91847245326101
 21
195.9447596379484
 31
0.0
  0
LINE
  5
3B75
330
18BE
100
AcDbEntity
  8
0
100
AcDbLine
 10
17.04296445326105
 20
195.7837096379481
 30
0.0
 11
17.91847245326101
 21
196.3638996379481
 31
0.0
  0
MTEXT
  5
3B76
330
18BE
100
AcDbEntity
  8
0
100
AcDbMText
 10
18.02008575000553
 20
192.6214696569406
 30
0.0
 40
1.0
 41
0.8368
 71
     1
 72
     5
  1
{\Ftxt.shx,extfont.shx;D}
 11
-0.9271838545667872
 21
0.3746065934159129
 31
0.0
1001
ACAD
1000
MTEXTBEGIN
1070
    73
1070
     1
1070
    44
1040
1.0
1070
    74
1070
     0
1000
MTEXTEND
1000
MTEXTBEGIN
1070
    73
1070
     1
1070
    44
1040
1.0
1070
    74
1070
     0
1000
MTEXTEND
  0
MTEXT
  5
3B77
330
18BE
100
AcDbEntity
  8
0
100
AcDbMText
 10
16.05007311897833
 20
194.2119553036139
 30
0.0
 40
1.0
 41
0.8368
 71
     1
 72
     5
  1
{\Ftxt.shx,extfont.shx;F}
 11
-0.4067366430757995
 21
0.9135454576426013
 31
0.0
1001
ACAD
1000
MTEXTBEGIN
1070
    73
1070
     1
1070
    44
1040
1.0
1070
    74
1070
     0
1000
MTEXTEND
1000
MTEXTBEGIN
1070
    73
1070
     1
1070
    44
1040
1.0
1070
    74
1070
     0
1000
MTEXTEND
  0
MTEXT
  5
3B78
330
18BE
100
AcDbEntity
  8
0
100
AcDbMText
 10
15.78816147225706
 20
196.7231533226188
 30
0.0
 40
1.0
 41
0.8368
 71
     1
 72
     5
  1
{\Ftxt.shx,extfont.shx;1}
 11
0.3746065934159128
 21
0.9271838545667872
 31
0.0
1001
ACAD
1000
MTEXTBEGIN
1070
    73
1070
     1
1070
    44
1040
1.0
1070
    74
1070
     0
1000
MTEXTEND
1000
MTEXTBEGIN
1070
    73
1070
     1
1070
    44
1040
1.0
1070
    74
1070
     0
1000
MTEXTEND
  0
MTEXT
  5
3B79
330
18BE
100
AcDbEntity
  8
0
100
AcDbMText
 10
16.87233181115124
 20
193.221690376373
 30
0.0
 40
1.0
 41
0.8368
 71
     1
 72
     5
  1
{\Ftxt.shx,extfont.shx;E}
 11
-0.7193398003386507
 21
0.694658370458998
 31
0.0
1001
ACAD
1000
MTEXTBEGIN
1070
    73
1070
     1
1070
    44
1040
1.0
1070
    74
1070
     0
1000
MTEXTEND
1000
MTEXTBEGIN
1070
    73
1070
     1
1070
    44
1040
1.0
1070
    74
1070
     0
1000
MTEXTEND
  0
MTEXT
  5
3B7A
330
18BE
100
AcDbEntity
  8
0
100
AcDbMText
 10
16.38838219168582
 20
197.8617792800579
 30
0.0
 40
1.0
 41
0.8368
 71
     1
 72
     5
  1
{\Ftxt.shx,extfont.shx;2}
 11
0.7071067811865479
 21
0.7071067811865471
 31
0.0
1001
ACAD
1000
MTEXTBEGIN
1070
    73
1070
     1
1070
    44
1040
1.0
1070
    74
1070
     0
1000
MTEXTEND
1000
MTEXTBEGIN
1070
    73
1070
     1
1070
    44
1040
1.0
1070
    74
1070
     0
1000
MTEXTEND
  0
MTEXT
  5
3B7B
330
18BE
100
AcDbEntity
  8
0
100
AcDbMText
 10
22.11264143426859
 20
194.844265953274
 30
0.0
 40
1.0
 41
0.8368
 71
     1
 72
     5
  1
{\Ftxt.shx,extfont.shx;9}
 11
-0.3746065934159129
 21
-0.9271838545667868
 31
0.0
1001
ACAD
1000
MTEXTBEGIN
1070
    73
1070
     1
1070
    44
1040
1.0
1070
    74
1070
     0
1000
MTEXTEND
1000
MTEXTBEGIN
1070
    73
1070
     1
1070
    44
1040
1.0
1070
    74
1070
     0
1000
MTEXTEND
  0
MTEXT
  5
3B7C
330
18BE
100
AcDbEntity
  8
0
100
AcDbMText
 10
22.23143978236811
 20
196.1259136956216
 30
0.0
 40
1.0
 41
0.8368
 71
     1
 72
     5
  1
{\Ftxt.shx,extfont.shx;8}
 11
-0.0000000000000007
 21
-1.0
 31
0.0
1001
ACAD
1000
MTEXTBEGIN
1070
    73
1070
     1
1070
    44
1040
1.0
1070
    74
1070
     0
1000
MTEXTEND
1000
MTEXTBEGIN
1070
    73
1070
     1
1070
    44
1040
1.0
1070
    74
1070
     0
1000
MTEXTEND
  0
LINE
  5
3B7D
330
18BE
100
AcDbEntity
  8
0
100
AcDbLine
 10
20.75200736145024
 20
195.9447601141075
 30
0.0
 11
20.75200736145024
 21
195.6226591617853
 31
0.0
  0
LINE
  5
3B7E
330
18BE
100
AcDbEntity
  8
0
100
AcDbLine
 10
20.752007453261
 20
195.9447596379484
 30
0.0
 11
20.752007453261
 21
195.6226586379481
 31
0.0
  0
MTEXT
  5
3B7F
330
18BE
100
AcDbEntity
  8
0
100
AcDbMText
 10
21.85072978754732
 20
197.355463972279
 30
0.0
 40
1.0
 41
0.8368
 71
     1
 72
     5
  1
{\Ftxt.shx,extfont.shx;7}
 11
0.3907311284892732
 21
-0.9205048534524406
 31
0.0
1001
ACAD
1000
MTEXTBEGIN
1070
    73
1070
     1
1070
    44
1040
1.0
1070
    74
1070
     0
1000
MTEXTEND
1000
MTEXTBEGIN
1070
    73
1070
     1
1070
    44
1040
1.0
1070
    74
1070
     0
1000
MTEXTEND
  0
MTEXT
  5
3B80
330
18BE
100
AcDbEntity
  8
0
100
AcDbMText
 10
21.02847109537259
 20
198.3457288995233
 30
0.0
 40
1.0
 41
0.8368
 71
     1
 72
     5
  1
{\Ftxt.shx,extfont.shx;6}
 11
0.7071067811865471
 21
-0.7071067811865479
 31
0.0
1001
ACAD
1000
MTEXTBEGIN
1070
    73
1070
     1
1070
    44
1040
1.0
1070
    74
1070
     0
1000
MTEXTEND
1000
MTEXTBEGIN
1070
    73
1070
     1
1070
    44
1040
1.0
1070
    74
1070
     0
1000
MTEXTEND
  0
LINE
  5
3B81
330
18BE
100
AcDbEntity
  8
0
100
AcDbLine
 10
22.65040145326094
 20
192.9437096379483
 30
0.0
 11
22.50040145326095
 21
192.9437096379483
 31
0.0
  0
LINE
  5
3B82
330
18BE
100
AcDbEntity
  8
0
100
AcDbLine
 10
22.65040145326094
 20
193.5437096379482
 30
0.0
 11
22.50040145326095
 21
193.5437096379481
 31
0.0
  0
MTEXT
  5
3B83
330
18BE
100
AcDbEntity
  8
0
100
AcDbMText
 10
19.29260551093801
 20
192.5026713088411
 30
0.0
 40
1.0
 41
0.8368
 71
     1
 72
     5
  1
{\Ftxt.shx,extfont.shx;C}
 11
-1.0
 21
0.0000000000000009
 31
0.0
1001
ACAD
1000
MTEXTBEGIN
1070
    73
1070
     1
1070
    44
1040
1.0
1070
    74
1070
     0
1000
MTEXTEND
1000
MTEXTBEGIN
1070
    73
1070
     1
1070
    44
1040
1.0
1070
    74
1070
     0
1000
MTEXTEND
  0
MTEXT
  5
3B84
330
18BE
100
AcDbEntity
  8
0
100
AcDbMText
 10
20.52215578759541
 20
192.883381303662
 30
0.0
 40
1.0
 41
0.8368
 71
     1
 72
     5
  1
{\Ftxt.shx,extfont.shx;B}
 11
-0.9205048534524408
 21
-0.390731128489273
 31
0.0
1001
ACAD
1000
MTEXTBEGIN
1070
    73
1070
     1
1070
    44
1040
1.0
1070
    74
1070
     0
1000
MTEXTEND
1000
MTEXTBEGIN
1070
    73
1070
     1
1070
    44
1040
1.0
1070
    74
1070
     0
1000
MTEXTEND
  0
LINE
  5
3B85
330
18BE
100
AcDbEntity
  8
0
100
AcDbLine
 10
22.50040145326095
 20
194.79384483357
 30
0.0
 11
22.50040145326095
 21
192.0337096379481
 31
0.0
  0
MTEXT
  5
3B86
330
18BE
100
AcDbEntity
  8
0
100
AcDbMText
 10
21.51242071483619
 20
193.7056399958349
 30
0.0
 40
1.0
 41
0.8368
 71
     1
 72
     5
  1
{\Ftxt.shx,extfont.shx;A}
 11
-0.707106781186548
 21
-0.7071067811865471
 31
0.0
1001
ACAD
1000
MTEXTBEGIN
1070
    73
1070
     1
1070
    44
1040
1.0
1070
    74
1070
     0
1000
MTEXTEND
1000
MTEXTBEGIN
1070
    73
1070
     1
1070
    44
1040
1.0
1070
    74
1070
     0
1000
MTEXTEND
  0
LINE
  5
3B87
330
18BE
100
AcDbEntity
  8
0
100
AcDbLine
 10
22.90040145326107
 20
202.4147216379481
 30
0.0
 11
14.15040145326108
 21
202.4147216379481
 31
0.0
  0
LINE
  5
3B88
330
18BE
100
AcDbEntity
  8
0
100
AcDbLine
 10
14.15040145326108
 20
202.4147216379481
 30
0.0
 11
22.65040145326107
 21
202.4147216379481
 31
0.0
  0
LINE
  5
3B89
330
18BE
100
AcDbEntity
  8
0
100
AcDbLine
 10
14.80666145326105
 20
203.1627056379479
 30
0.0
 11
21.947441453261
 21
203.1627056379479
 31
0.0
  0
LINE
  5
3B8A
330
18BE
100
AcDbEntity
  8
0
100
AcDbLine
 10
23.40040145326108
 20
201.5097226379481
 30
0.0
 11
13.60040145326101
 21
201.5097226379481
 31
0.0
  0
LINE
  5
3B8B
330
18BE
100
AcDbEntity
  8
0
100
AcDbLine
 10
21.947441453261
 20
208.218951637948
 30
0.0
 11
14.80666145326105
 21
208.218951637948
 31
0.0
  0
LINE
  5
3B8C
330
18BE
100
AcDbEntity
  8
0
100
AcDbLine
 10
21.947441453261
 20
210.585610637948
 30
0.0
 11
14.80666145326105
 21
210.585610637948
 31
0.0
  0
LINE
  5
3B8D
330
18BE
100
AcDbEntity
  8
0
100
AcDbLine
 10
16.64286045326101
 20
207.6853726379481
 30
0.0
 11
19.90721645326104
 21
207.6853726379481
 31
0.0
  0
LINE
  5
3B8E
330
18BE
100
AcDbEntity
  8
0
100
AcDbLine
 10
16.64286045326101
 20
206.939590637948
 30
0.0
 11
19.90721645326104
 21
206.939590637948
 31
0.0
  0
LINE
  5
3B8F
330
18BE
100
AcDbEntity
  8
0
100
AcDbLine
 10
16.64286045326101
 20
205.6766566379482
 30
0.0
 11
19.90721645326104
 21
205.6766566379482
 31
0.0
  0
LINE
  5
3B90
330
18BE
100
AcDbEntity
  8
0
100
AcDbLine
 10
16.64286045326101
 20
206.002128637948
 30
0.0
 11
19.90721645326104
 21
206.002128637948
 31
0.0
  0
LINE
  5
3B91
330
18BE
100
AcDbEntity
  8
0
100
AcDbLine
 10
16.64286045326101
 20
206.3146166379477
 30
0.0
 11
19.90721645326104
 21
206.3146166379477
 31
0.0
  0
LINE
  5
3B92
330
18BE
100
AcDbEntity
  8
0
100
AcDbLine
 10
16.64286045326101
 20
206.627103637948
 30
0.0
 11
19.90721645326104
 21
206.627103637948
 31
0.0
  0
LINE
  5
3B93
330
18BE
100
AcDbEntity
  8
0
100
AcDbLine
 10
14.80666145326105
 20
205.6074676379481
 30
0.0
 11
16.64286045326101
 21
205.6074676379481
 31
0.0
  0
LINE
  5
3B94
330
18BE
100
AcDbEntity
  8
0
100
AcDbLine
 10
16.64286045326101
 20
207.6853726379481
 30
0.0
 11
16.64286045326101
 21
205.6074676379481
 31
0.0
  0
LINE
  5
3B95
330
18BE
100
AcDbEntity
  8
0
100
AcDbLine
 10
19.90721645326104
 20
207.6853726379481
 30
0.0
 11
19.90721645326104
 21
205.6074676379481
 31
0.0
  0
LINE
  5
3B96
330
18BE
100
AcDbEntity
  8
0
100
AcDbLine
 10
19.90721645326104
 20
205.6074676379481
 30
0.0
 11
21.947441453261
 21
205.6074676379481
 31
0.0
  0
LINE
  5
3B97
330
18BE
100
AcDbEntity
  8
0
100
AcDbLine
 10
22.90040145326107
 20
208.5147216379479
 30
0.0
 11
22.65040145326107
 21
208.5147216379479
 31
0.0
  0
LINE
  5
3B98
330
18BE
100
AcDbEntity
  8
0
100
AcDbLine
 10
17.44262845326099
 20
214.5107006379482
 30
0.0
 11
17.44262845326099
 21
214.918742637948
 31
0.0
  0
LINE
  5
3B99
330
18BE
100
AcDbEntity
  8
0
100
AcDbLine
 10
17.03458345326108
 20
214.918742637948
 30
0.0
 11
17.03458345326108
 21
214.5107006379482
 31
0.0
  0
LINE
  5
3B9A
330
18BE
100
AcDbEntity
  8
0
100
AcDbLine
 10
17.03458345326108
 20
215.7807006379481
 30
0.0
 11
17.44262845326099
 21
215.7807006379481
 31
0.0
  0
LINE
  5
3B9B
330
18BE
100
AcDbEntity
  8
0
100
AcDbLine
 10
17.44262845326099
 20
214.918742637948
 30
0.0
 11
17.03458345326108
 21
214.918742637948
 31
0.0
  0
LINE
  5
3B9C
330
18BE
100
AcDbEntity
  8
0
100
AcDbLine
 10
17.44262845326099
 20
215.7807006379481
 30
0.0
 11
17.44262845326099
 21
216.1887426379479
 31
0.0
  0
LINE
  5
3B9D
330
18BE
100
AcDbEntity
  8
0
100
AcDbLine
 10
17.03458345326108
 20
216.1887426379479
 30
0.0
 11
17.03458345326108
 21
215.7807006379481
 31
0.0
  0
LINE
  5
3B9E
330
18BE
100
AcDbEntity
  8
0
100
AcDbLine
 10
17.44262845326099
 20
217.0507006379484
 30
0.0
 11
17.44262845326099
 21
217.4587426379481
 31
0.0
  0
LINE
  5
3B9F
330
18BE
100
AcDbEntity
  8
0
100
AcDbLine
 10
17.03458345326108
 20
217.4587426379481
 30
0.0
 11
17.03458345326108
 21
217.0507006379484
 31
0.0
  0
LINE
  5
3BA0
330
18BE
100
AcDbEntity
  8
0
100
AcDbLine
 10
17.44262845326099
 20
217.4587426379481
 30
0.0
 11
17.03458345326108
 21
217.4587426379481
 31
0.0
  0
LINE
  5
3BA1
330
18BE
100
AcDbEntity
  8
0
100
AcDbLine
 10
17.03458345326108
 20
217.0507006379484
 30
0.0
 11
17.44262845326099
 21
217.0507006379484
 31
0.0
  0
LINE
  5
3BA2
330
18BE
100
AcDbEntity
  8
0
100
AcDbLine
 10
17.44262845326099
 20
216.1887426379479
 30
0.0
 11
17.03458345326108
 21
216.1887426379479
 31
0.0
  0
LINE
  5
3BA3
330
18BE
100
AcDbEntity
  8
0
100
AcDbLine
 10
17.03458345326108
 20
218.3207006379484
 30
0.0
 11
17.44262845326099
 21
218.3207006379484
 31
0.0
  0
LINE
  5
3BA4
330
18BE
100
AcDbEntity
  8
0
100
AcDbLine
 10
17.03458345326108
 20
214.5107006379482
 30
0.0
 11
17.44262845326099
 21
214.5107006379482
 31
0.0
  0
LINE
  5
3BA5
330
18BE
100
AcDbEntity
  8
0
100
AcDbLine
 10
17.44262845326099
 20
213.2407006379481
 30
0.0
 11
17.44262845326099
 21
213.6487426379479
 31
0.0
  0
LINE
  5
3BA6
330
18BE
100
AcDbEntity
  8
0
100
AcDbLine
 10
17.03458345326108
 20
213.6487426379479
 30
0.0
 11
17.03458345326108
 21
213.2407006379481
 31
0.0
  0
LINE
  5
3BA7
330
18BE
100
AcDbEntity
  8
0
100
AcDbLine
 10
17.44262845326099
 20
213.6487426379479
 30
0.0
 11
17.03458345326108
 21
213.6487426379479
 31
0.0
  0
LINE
  5
3BA8
330
18BE
100
AcDbEntity
  8
0
100
AcDbLine
 10
17.03458345326108
 20
213.2407006379481
 30
0.0
 11
17.44262845326099
 21
213.2407006379481
 31
0.0
  0
LINE
  5
3BA9
330
18BE
100
AcDbEntity
  8
0
100
AcDbLine
 10
17.44262845326099
 20
211.9707006379483
 30
0.0
 11
17.44262845326099
 21
212.3787426379481
 31
0.0
  0
LINE
  5
3BAA
330
18BE
100
AcDbEntity
  8
0
100
AcDbLine
 10
17.03458345326108
 20
212.3787426379481
 30
0.0
 11
17.03458345326108
 21
211.9707006379483
 31
0.0
  0
LINE
  5
3BAB
330
18BE
100
AcDbEntity
  8
0
100
AcDbLine
 10
17.44262845326099
 20
212.3787426379481
 30
0.0
 11
17.03458345326108
 21
212.3787426379481
 31
0.0
  0
LINE
  5
3BAC
330
18BE
100
AcDbEntity
  8
0
100
AcDbLine
 10
17.03458345326108
 20
211.9707006379483
 30
0.0
 11
17.44262845326099
 21
211.9707006379483
 31
0.0
  0
LINE
  5
3BAD
330
18BE
100
AcDbEntity
  8
0
100
AcDbLine
 10
19.51549345326107
 20
214.5107006379482
 30
0.0
 11
19.51549345326107
 21
214.918742637948
 31
0.0
  0
LINE
  5
3BAE
330
18BE
100
AcDbEntity
  8
0
100
AcDbLine
 10
19.10745145326106
 20
214.918742637948
 30
0.0
 11
19.10745145326106
 21
214.5107006379482
 31
0.0
  0
LINE
  5
3BAF
330
18BE
100
AcDbEntity
  8
0
100
AcDbLine
 10
19.51549345326107
 20
214.918742637948
 30
0.0
 11
19.10745145326106
 21
214.918742637948
 31
0.0
  0
LINE
  5
3BB0
330
18BE
100
AcDbEntity
  8
0
100
AcDbLine
 10
19.51549345326107
 20
215.7807006379481
 30
0.0
 11
19.51549345326107
 21
216.1887426379479
 31
0.0
  0
LINE
  5
3BB1
330
18BE
100
AcDbEntity
  8
0
100
AcDbLine
 10
19.10745145326106
 20
216.1887426379479
 30
0.0
 11
19.10745145326106
 21
215.7807006379481
 31
0.0
  0
LINE
  5
3BB2
330
18BE
100
AcDbEntity
  8
0
100
AcDbLine
 10
19.51549345326107
 20
217.0507006379484
 30
0.0
 11
19.51549345326107
 21
217.4587426379481
 31
0.0
  0
LINE
  5
3BB3
330
18BE
100
AcDbEntity
  8
0
100
AcDbLine
 10
19.10745145326106
 20
217.4587426379481
 30
0.0
 11
19.10745145326106
 21
217.0507006379484
 31
0.0
  0
LINE
  5
3BB4
330
18BE
100
AcDbEntity
  8
0
100
AcDbLine
 10
19.51549345326107
 20
217.4587426379481
 30
0.0
 11
19.10745145326106
 21
217.4587426379481
 31
0.0
  0
LINE
  5
3BB5
330
18BE
100
AcDbEntity
  8
0
100
AcDbLine
 10
19.10745145326106
 20
217.0507006379484
 30
0.0
 11
19.51549345326107
 21
217.0507006379484
 31
0.0
  0
LINE
  5
3BB6
330
18BE
100
AcDbEntity
  8
0
100
AcDbLine
 10
19.51549345326107
 20
216.1887426379479
 30
0.0
 11
19.10745145326106
 21
216.1887426379479
 31
0.0
  0
LINE
  5
3BB7
330
18BE
100
AcDbEntity
  8
0
100
AcDbLine
 10
19.10745145326106
 20
215.7807006379481
 30
0.0
 11
19.51549345326107
 21
215.7807006379481
 31
0.0
  0
LINE
  5
3BB8
330
18BE
100
AcDbEntity
  8
0
100
AcDbLine
 10
19.10745145326106
 20
218.3207006379484
 30
0.0
 11
19.51549345326107
 21
218.3207006379484
 31
0.0
  0
LINE
  5
3BB9
330
18BE
100
AcDbEntity
  8
0
100
AcDbLine
 10
19.10745145326106
 20
214.5107006379482
 30
0.0
 11
19.51549345326107
 21
214.5107006379482
 31
0.0
  0
LINE
  5
3BBA
330
18BE
100
AcDbEntity
  8
0
100
AcDbLine
 10
22.90040145326102
 20
217.5047216379479
 30
0.0
 11
22.65040145326107
 21
217.5047216379479
 31
0.0
  0
LINE
  5
3BBB
330
18BE
100
AcDbEntity
  8
0
100
AcDbLine
 10
22.90040145326102
 20
217.0047216379479
 30
0.0
 11
22.65040145326107
 21
217.0047216379479
 31
0.0
  0
LINE
  5
3BBC
330
18BE
100
AcDbEntity
  8
0
100
AcDbLine
 10
22.90040145326102
 20
216.2347216379479
 30
0.0
 11
22.65040145326107
 21
216.2347216379479
 31
0.0
  0
LINE
  5
3BBD
330
18BE
100
AcDbEntity
  8
0
100
AcDbLine
 10
22.90040145326102
 20
215.7347216379479
 30
0.0
 11
22.65040145326107
 21
215.7347216379479
 31
0.0
  0
LINE
  5
3BBE
330
18BE
100
AcDbEntity
  8
0
100
AcDbLine
 10
22.90040145326102
 20
214.9647216379479
 30
0.0
 11
22.65040145326107
 21
214.9647216379479
 31
0.0
  0
LINE
  5
3BBF
330
18BE
100
AcDbEntity
  8
0
100
AcDbLine
 10
22.90040145326102
 20
218.274721637948
 30
0.0
 11
22.65040145326107
 21
218.274721637948
 31
0.0
  0
LINE
  5
3BC0
330
18BE
100
AcDbEntity
  8
0
100
AcDbLine
 10
22.90040145326102
 20
214.464721637948
 30
0.0
 11
22.65040145326107
 21
214.464721637948
 31
0.0
  0
LINE
  5
3BC1
330
18BE
100
AcDbEntity
  8
0
100
AcDbLine
 10
19.51549345326107
 20
213.2407006379481
 30
0.0
 11
19.51549345326107
 21
213.6487426379479
 31
0.0
  0
LINE
  5
3BC2
330
18BE
100
AcDbEntity
  8
0
100
AcDbLine
 10
19.10745145326106
 20
213.6487426379479
 30
0.0
 11
19.10745145326106
 21
213.2407006379481
 31
0.0
  0
LINE
  5
3BC3
330
18BE
100
AcDbEntity
  8
0
100
AcDbLine
 10
19.51549345326107
 20
213.6487426379479
 30
0.0
 11
19.10745145326106
 21
213.6487426379479
 31
0.0
  0
LINE
  5
3BC4
330
18BE
100
AcDbEntity
  8
0
100
AcDbLine
 10
19.10745145326106
 20
213.2407006379481
 30
0.0
 11
19.51549345326107
 21
213.2407006379481
 31
0.0
  0
LINE
  5
3BC5
330
18BE
100
AcDbEntity
  8
0
100
AcDbLine
 10
19.51549345326107
 20
211.9707006379483
 30
0.0
 11
19.51549345326107
 21
212.3787426379481
 31
0.0
  0
LINE
  5
3BC6
330
18BE
100
AcDbEntity
  8
0
100
AcDbLine
 10
19.10745145326106
 20
212.3787426379481
 30
0.0
 11
19.10745145326106
 21
211.9707006379483
 31
0.0
  0
LINE
  5
3BC7
330
18BE
100
AcDbEntity
  8
0
100
AcDbLine
 10
19.51549345326107
 20
212.3787426379481
 30
0.0
 11
19.10745145326106
 21
212.3787426379481
 31
0.0
  0
LINE
  5
3BC8
330
18BE
100
AcDbEntity
  8
0
100
AcDbLine
 10
19.10745145326106
 20
211.9707006379483
 30
0.0
 11
19.51549345326107
 21
211.9707006379483
 31
0.0
  0
LINE
  5
3BC9
330
18BE
100
AcDbEntity
  8
0
100
AcDbLine
 10
22.90040145326102
 20
213.6947216379479
 30
0.0
 11
22.65040145326107
 21
213.6947216379479
 31
0.0
  0
LINE
  5
3BCA
330
18BE
100
AcDbEntity
  8
0
100
AcDbLine
 10
22.90040145326102
 20
213.1947216379479
 30
0.0
 11
22.65040145326107
 21
213.1947216379479
 31
0.0
  0
LINE
  5
3BCB
330
18BE
100
AcDbEntity
  8
0
100
AcDbLine
 10
22.90040145326102
 20
212.424721637948
 30
0.0
 11
22.65040145326107
 21
212.424721637948
 31
0.0
  0
LINE
  5
3BCC
330
18BE
100
AcDbEntity
  8
0
100
AcDbLine
 10
22.90040145326102
 20
211.9247216379481
 30
0.0
 11
22.65040145326107
 21
211.9247216379481
 31
0.0
  0
LINE
  5
3BCD
330
18BE
100
AcDbEntity
  8
0
100
AcDbLine
 10
15.21470645326107
 20
237.886576637948
 30
0.0
 11
15.21470645326107
 21
225.9127041379481
 31
0.0
  0
LINE
  5
3BCE
330
18BE
100
AcDbEntity
  8
0
100
AcDbLine
 10
17.44262845326099
 20
224.6707006379482
 30
0.0
 11
17.44262845326099
 21
225.0787426379481
 31
0.0
  0
LINE
  5
3BCF
330
18BE
100
AcDbEntity
  8
0
100
AcDbLine
 10
17.03458345326108
 20
225.0787426379481
 30
0.0
 11
17.03458345326108
 21
224.6707006379482
 31
0.0
  0
LINE
  5
3BD0
330
18BE
100
AcDbEntity
  8
0
100
AcDbLine
 10
17.44262845326099
 20
225.0787426379481
 30
0.0
 11
17.03458345326108
 21
225.0787426379481
 31
0.0
  0
LINE
  5
3BD1
330
18BE
100
AcDbEntity
  8
0
100
AcDbLine
 10
17.03458345326108
 20
224.6707006379482
 30
0.0
 11
17.44262845326099
 21
224.6707006379482
 31
0.0
  0
LINE
  5
3BD2
330
18BE
100
AcDbEntity
  8
0
100
AcDbLine
 10
17.44262845326099
 20
223.8087426379481
 30
0.0
 11
17.03458345326108
 21
223.8087426379481
 31
0.0
  0
LINE
  5
3BD3
330
18BE
100
AcDbEntity
  8
0
100
AcDbLine
 10
15.21470645326107
 20
222.5667391379479
 30
0.0
 11
14.80666145326105
 21
222.5667391379479
 31
0.0
  0
LINE
  5
3BD4
330
18BE
100
AcDbEntity
  8
0
100
AcDbLine
 10
17.44262845326099
 20
219.5907006379484
 30
0.0
 11
17.44262845326099
 21
219.9987426379482
 31
0.0
  0
LINE
  5
3BD5
330
18BE
100
AcDbEntity
  8
0
100
AcDbLine
 10
17.03458345326108
 20
219.9987426379482
 30
0.0
 11
17.03458345326108
 21
219.5907006379484
 31
0.0
  0
LINE
  5
3BD6
330
18BE
100
AcDbEntity
  8
0
100
AcDbLine
 10
17.03458345326108
 20
223.4007006379482
 30
0.0
 11
17.44262845326099
 21
223.4007006379482
 31
0.0
  0
LINE
  5
3BD7
330
18BE
100
AcDbEntity
  8
0
100
AcDbLine
 10
17.44262845326099
 20
222.1307006379483
 30
0.0
 11
17.44262845326099
 21
222.5387426379481
 31
0.0
  0
LINE
  5
3BD8
330
18BE
100
AcDbEntity
  8
0
100
AcDbLine
 10
17.03458345326108
 20
222.5387426379481
 30
0.0
 11
17.03458345326108
 21
222.1307006379483
 31
0.0
  0
LINE
  5
3BD9
330
18BE
100
AcDbEntity
  8
0
100
AcDbLine
 10
17.44262845326099
 20
222.5387426379481
 30
0.0
 11
17.03458345326108
 21
222.5387426379481
 31
0.0
  0
LINE
  5
3BDA
330
18BE
100
AcDbEntity
  8
0
100
AcDbLine
 10
17.03458345326108
 20
222.1307006379483
 30
0.0
 11
17.44262845326099
 21
222.1307006379483
 31
0.0
  0
LINE
  5
3BDB
330
18BE
100
AcDbEntity
  8
0
100
AcDbLine
 10
17.44262845326099
 20
220.8607006379484
 30
0.0
 11
17.44262845326099
 21
221.2687426379481
 31
0.0
  0
LINE
  5
3BDC
330
18BE
100
AcDbEntity
  8
0
100
AcDbLine
 10
17.03458345326108
 20
221.2687426379481
 30
0.0
 11
17.03458345326108
 21
220.8607006379484
 31
0.0
  0
LINE
  5
3BDD
330
18BE
100
AcDbEntity
  8
0
100
AcDbLine
 10
17.44262845326099
 20
221.2687426379481
 30
0.0
 11
17.03458345326108
 21
221.2687426379481
 31
0.0
  0
LINE
  5
3BDE
330
18BE
100
AcDbEntity
  8
0
100
AcDbLine
 10
17.03458345326108
 20
220.8607006379484
 30
0.0
 11
17.44262845326099
 21
220.8607006379484
 31
0.0
  0
LINE
  5
3BDF
330
18BE
100
AcDbEntity
  8
0
100
AcDbLine
 10
17.44262845326099
 20
219.9987426379482
 30
0.0
 11
17.03458345326108
 21
219.9987426379482
 31
0.0
  0
LINE
  5
3BE0
330
18BE
100
AcDbEntity
  8
0
100
AcDbLine
 10
17.03458345326108
 20
219.5907006379484
 30
0.0
 11
17.44262845326099
 21
219.5907006379484
 31
0.0
  0
LINE
  5
3BE1
330
18BE
100
AcDbEntity
  8
0
100
AcDbLine
 10
17.44262845326099
 20
218.7287426379481
 30
0.0
 11
17.03458345326108
 21
218.7287426379481
 31
0.0
  0
LINE
  5
3BE2
330
18BE
100
AcDbEntity
  8
0
100
AcDbLine
 10
17.44262845326099
 20
223.4007006379482
 30
0.0
 11
17.44262845326099
 21
223.8087426379481
 31
0.0
  0
LINE
  5
3BE3
330
18BE
100
AcDbEntity
  8
0
100
AcDbLine
 10
17.03458345326108
 20
223.8087426379481
 30
0.0
 11
17.03458345326108
 21
223.4007006379482
 31
0.0
  0
LINE
  5
3BE4
330
18BE
100
AcDbEntity
  8
0
100
AcDbLine
 10
19.51549345326107
 20
224.6707006379482
 30
0.0
 11
19.51549345326107
 21
225.0787426379481
 31
0.0
  0
LINE
  5
3BE5
330
18BE
100
AcDbEntity
  8
0
100
AcDbLine
 10
19.10745145326106
 20
225.0787426379481
 30
0.0
 11
19.10745145326106
 21
224.6707006379482
 31
0.0
  0
LINE
  5
3BE6
330
18BE
100
AcDbEntity
  8
0
100
AcDbLine
 10
19.51549345326107
 20
225.0787426379481
 30
0.0
 11
19.10745145326106
 21
225.0787426379481
 31
0.0
  0
LINE
  5
3BE7
330
18BE
100
AcDbEntity
  8
0
100
AcDbLine
 10
19.10745145326106
 20
224.6707006379482
 30
0.0
 11
19.51549345326107
 21
224.6707006379482
 31
0.0
  0
LINE
  5
3BE8
330
18BE
100
AcDbEntity
  8
0
100
AcDbLine
 10
19.51549345326107
 20
223.8087426379481
 30
0.0
 11
19.10745145326106
 21
223.8087426379481
 31
0.0
  0
LINE
  5
3BE9
330
18BE
100
AcDbEntity
  8
0
100
AcDbLine
 10
22.90040145326102
 20
224.6247216379481
 30
0.0
 11
22.65040145326107
 21
224.6247216379481
 31
0.0
  0
LINE
  5
3BEA
330
18BE
100
AcDbEntity
  8
0
100
AcDbLine
 10
22.90040145326102
 20
223.8547216379481
 30
0.0
 11
22.65040145326107
 21
223.8547216379481
 31
0.0
  0
LINE
  5
3BEB
330
18BE
100
AcDbEntity
  8
0
100
AcDbLine
 10
19.51549345326107
 20
219.5907006379484
 30
0.0
 11
19.51549345326107
 21
219.9987426379482
 31
0.0
  0
LINE
  5
3BEC
330
18BE
100
AcDbEntity
  8
0
100
AcDbLine
 10
19.10745145326106
 20
219.9987426379482
 30
0.0
 11
19.10745145326106
 21
219.5907006379484
 31
0.0
  0
LINE
  5
3BED
330
18BE
100
AcDbEntity
  8
0
100
AcDbLine
 10
19.10745145326106
 20
223.4007006379482
 30
0.0
 11
19.51549345326107
 21
223.4007006379482
 31
0.0
  0
LINE
  5
3BEE
330
18BE
100
AcDbEntity
  8
0
100
AcDbLine
 10
19.51549345326107
 20
222.1307006379483
 30
0.0
 11
19.51549345326107
 21
222.5387426379481
 31
0.0
  0
LINE
  5
3BEF
330
18BE
100
AcDbEntity
  8
0
100
AcDbLine
 10
19.10745145326106
 20
222.5387426379481
 30
0.0
 11
19.10745145326106
 21
222.1307006379483
 31
0.0
  0
LINE
  5
3BF0
330
18BE
100
AcDbEntity
  8
0
100
AcDbLine
 10
19.51549345326107
 20
222.5387426379481
 30
0.0
 11
19.10745145326106
 21
222.5387426379481
 31
0.0
  0
LINE
  5
3BF1
330
18BE
100
AcDbEntity
  8
0
100
AcDbLine
 10
19.10745145326106
 20
222.1307006379483
 30
0.0
 11
19.51549345326107
 21
222.1307006379483
 31
0.0
  0
LINE
  5
3BF2
330
18BE
100
AcDbEntity
  8
0
100
AcDbLine
 10
19.51549345326107
 20
220.8607006379484
 30
0.0
 11
19.51549345326107
 21
221.2687426379481
 31
0.0
  0
LINE
  5
3BF3
330
18BE
100
AcDbEntity
  8
0
100
AcDbLine
 10
19.10745145326106
 20
221.2687426379481
 30
0.0
 11
19.10745145326106
 21
220.8607006379484
 31
0.0
  0
LINE
  5
3BF4
330
18BE
100
AcDbEntity
  8
0
100
AcDbLine
 10
19.51549345326107
 20
221.2687426379481
 30
0.0
 11
19.10745145326106
 21
221.2687426379481
 31
0.0
  0
LINE
  5
3BF5
330
18BE
100
AcDbEntity
  8
0
100
AcDbLine
 10
19.10745145326106
 20
220.8607006379484
 30
0.0
 11
19.51549345326107
 21
220.8607006379484
 31
0.0
  0
LINE
  5
3BF6
330
18BE
100
AcDbEntity
  8
0
100
AcDbLine
 10
19.51549345326107
 20
219.9987426379482
 30
0.0
 11
19.10745145326106
 21
219.9987426379482
 31
0.0
  0
LINE
  5
3BF7
330
18BE
100
AcDbEntity
  8
0
100
AcDbLine
 10
22.90040145326102
 20
223.3547216379481
 30
0.0
 11
22.65040145326107
 21
223.3547216379481
 31
0.0
  0
LINE
  5
3BF8
330
18BE
100
AcDbEntity
  8
0
100
AcDbLine
 10
22.90040145326102
 20
222.5847216379481
 30
0.0
 11
22.65040145326107
 21
222.5847216379481
 31
0.0
  0
LINE
  5
3BF9
330
18BE
100
AcDbEntity
  8
0
100
AcDbLine
 10
22.90040145326102
 20
222.0847216379481
 30
0.0
 11
22.65040145326107
 21
222.0847216379481
 31
0.0
  0
LINE
  5
3BFA
330
18BE
100
AcDbEntity
  8
0
100
AcDbLine
 10
22.90040145326102
 20
221.3147216379478
 30
0.0
 11
22.65040145326107
 21
221.3147216379478
 31
0.0
  0
LINE
  5
3BFB
330
18BE
100
AcDbEntity
  8
0
100
AcDbLine
 10
22.90040145326102
 20
220.8147216379479
 30
0.0
 11
22.65040145326107
 21
220.8147216379479
 31
0.0
  0
LINE
  5
3BFC
330
18BE
100
AcDbEntity
  8
0
100
AcDbLine
 10
22.90040145326102
 20
220.0447216379479
 30
0.0
 11
22.65040145326107
 21
220.0447216379479
 31
0.0
  0
LINE
  5
3BFD
330
18BE
100
AcDbEntity
  8
0
100
AcDbLine
 10
19.10745145326106
 20
219.5907006379484
 30
0.0
 11
19.51549345326107
 21
219.5907006379484
 31
0.0
  0
LINE
  5
3BFE
330
18BE
100
AcDbEntity
  8
0
100
AcDbLine
 10
22.90040145326102
 20
219.5447216379479
 30
0.0
 11
22.65040145326107
 21
219.5447216379479
 31
0.0
  0
LINE
  5
3BFF
330
18BE
100
AcDbEntity
  8
0
100
AcDbLine
 10
19.51549345326107
 20
218.7287426379481
 30
0.0
 11
19.10745145326106
 21
218.7287426379481
 31
0.0
  0
LINE
  5
3C00
330
18BE
100
AcDbEntity
  8
0
100
AcDbLine
 10
22.90040145326102
 20
218.7747216379479
 30
0.0
 11
22.65040145326107
 21
218.7747216379479
 31
0.0
  0
LINE
  5
3C01
330
18BE
100
AcDbEntity
  8
0
100
AcDbLine
 10
19.51549345326107
 20
223.4007006379482
 30
0.0
 11
19.51549345326107
 21
223.8087426379481
 31
0.0
  0
LINE
  5
3C02
330
18BE
100
AcDbEntity
  8
0
100
AcDbLine
 10
19.10745145326106
 20
223.8087426379481
 30
0.0
 11
19.10745145326106
 21
223.4007006379482
 31
0.0
  0
LINE
  5
3C03
330
18BE
100
AcDbEntity
  8
0
100
AcDbLine
 10
15.21470645326107
 20
225.9127041379481
 30
0.0
 11
14.80666145326105
 21
225.9127041379481
 31
0.0
  0
LINE
  5
3C04
330
18BE
100
AcDbEntity
  8
0
100
AcDbLine
 10
17.44262845326099
 20
229.7507006379482
 30
0.0
 11
17.44262845326099
 21
230.158742637948
 31
0.0
  0
LINE
  5
3C05
330
18BE
100
AcDbEntity
  8
0
100
AcDbLine
 10
17.03458345326108
 20
230.158742637948
 30
0.0
 11
17.03458345326108
 21
229.7507006379482
 31
0.0
  0
LINE
  5
3C06
330
18BE
100
AcDbEntity
  8
0
100
AcDbLine
 10
17.44262845326099
 20
231.0207006379481
 30
0.0
 11
17.44262845326099
 21
231.4287426379479
 31
0.0
  0
LINE
  5
3C07
330
18BE
100
AcDbEntity
  8
0
100
AcDbLine
 10
17.03458345326108
 20
231.4287426379479
 30
0.0
 11
17.03458345326108
 21
231.0207006379481
 31
0.0
  0
LINE
  5
3C08
330
18BE
100
AcDbEntity
  8
0
100
AcDbLine
 10
17.44262845326099
 20
231.4287426379479
 30
0.0
 11
17.03458345326108
 21
231.4287426379479
 31
0.0
  0
LINE
  5
3C09
330
18BE
100
AcDbEntity
  8
0
100
AcDbLine
 10
17.03458345326108
 20
231.0207006379481
 30
0.0
 11
17.44262845326099
 21
231.0207006379481
 31
0.0
  0
LINE
  5
3C0A
330
18BE
100
AcDbEntity
  8
0
100
AcDbLine
 10
17.44262845326099
 20
230.158742637948
 30
0.0
 11
17.03458345326108
 21
230.158742637948
 31
0.0
  0
LINE
  5
3C0B
330
18BE
100
AcDbEntity
  8
0
100
AcDbLine
 10
17.03458345326108
 20
229.7507006379482
 30
0.0
 11
17.44262845326099
 21
229.7507006379482
 31
0.0
  0
LINE
  5
3C0C
330
18BE
100
AcDbEntity
  8
0
100
AcDbLine
 10
17.44262845326099
 20
228.888742637948
 30
0.0
 11
17.03458345326108
 21
228.888742637948
 31
0.0
  0
LINE
  5
3C0D
330
18BE
100
AcDbEntity
  8
0
100
AcDbLine
 10
17.03458345326108
 20
228.4807006379482
 30
0.0
 11
17.44262845326099
 21
228.4807006379482
 31
0.0
  0
LINE
  5
3C0E
330
18BE
100
AcDbEntity
  8
0
100
AcDbLine
 10
17.44262845326099
 20
227.2107006379482
 30
0.0
 11
17.44262845326099
 21
227.6187426379481
 31
0.0
  0
LINE
  5
3C0F
330
18BE
100
AcDbEntity
  8
0
100
AcDbLine
 10
17.03458345326108
 20
227.6187426379481
 30
0.0
 11
17.03458345326108
 21
227.2107006379482
 31
0.0
  0
LINE
  5
3C10
330
18BE
100
AcDbEntity
  8
0
100
AcDbLine
 10
17.44262845326099
 20
227.6187426379481
 30
0.0
 11
17.03458345326108
 21
227.6187426379481
 31
0.0
  0
LINE
  5
3C11
330
18BE
100
AcDbEntity
  8
0
100
AcDbLine
 10
17.03458345326108
 20
227.2107006379482
 30
0.0
 11
17.44262845326099
 21
227.2107006379482
 31
0.0
  0
LINE
  5
3C12
330
18BE
100
AcDbEntity
  8
0
100
AcDbLine
 10
17.44262845326099
 20
225.9407006379483
 30
0.0
 11
17.44262845326099
 21
226.3487426379481
 31
0.0
  0
LINE
  5
3C13
330
18BE
100
AcDbEntity
  8
0
100
AcDbLine
 10
17.03458345326108
 20
226.3487426379481
 30
0.0
 11
17.03458345326108
 21
225.9407006379483
 31
0.0
  0
LINE
  5
3C14
330
18BE
100
AcDbEntity
  8
0
100
AcDbLine
 10
17.44262845326099
 20
226.3487426379481
 30
0.0
 11
17.03458345326108
 21
226.3487426379481
 31
0.0
  0
LINE
  5
3C15
330
18BE
100
AcDbEntity
  8
0
100
AcDbLine
 10
17.03458345326108
 20
225.9407006379483
 30
0.0
 11
17.44262845326099
 21
225.9407006379483
 31
0.0
  0
LINE
  5
3C16
330
18BE
100
AcDbEntity
  8
0
100
AcDbLine
 10
17.44262845326099
 20
228.4807006379482
 30
0.0
 11
17.44262845326099
 21
228.888742637948
 31
0.0
  0
LINE
  5
3C17
330
18BE
100
AcDbEntity
  8
0
100
AcDbLine
 10
17.03458345326108
 20
228.888742637948
 30
0.0
 11
17.03458345326108
 21
228.4807006379482
 31
0.0
  0
LINE
  5
3C18
330
18BE
100
AcDbEntity
  8
0
100
AcDbLine
 10
19.51549345326107
 20
229.7507006379482
 30
0.0
 11
19.51549345326107
 21
230.158742637948
 31
0.0
  0
LINE
  5
3C19
330
18BE
100
AcDbEntity
  8
0
100
AcDbLine
 10
19.10745145326106
 20
230.158742637948
 30
0.0
 11
19.10745145326106
 21
229.7507006379482
 31
0.0
  0
LINE
  5
3C1A
330
18BE
100
AcDbEntity
  8
0
100
AcDbLine
 10
19.51549345326107
 20
231.0207006379481
 30
0.0
 11
19.51549345326107
 21
231.4287426379479
 31
0.0
  0
LINE
  5
3C1B
330
18BE
100
AcDbEntity
  8
0
100
AcDbLine
 10
19.10745145326106
 20
231.4287426379479
 30
0.0
 11
19.10745145326106
 21
231.0207006379481
 31
0.0
  0
LINE
  5
3C1C
330
18BE
100
AcDbEntity
  8
0
100
AcDbLine
 10
19.51549345326107
 20
231.4287426379479
 30
0.0
 11
19.10745145326106
 21
231.4287426379479
 31
0.0
  0
LINE
  5
3C1D
330
18BE
100
AcDbEntity
  8
0
100
AcDbLine
 10
19.10745145326106
 20
231.0207006379481
 30
0.0
 11
19.51549345326107
 21
231.0207006379481
 31
0.0
  0
LINE
  5
3C1E
330
18BE
100
AcDbEntity
  8
0
100
AcDbLine
 10
19.51549345326107
 20
230.158742637948
 30
0.0
 11
19.10745145326106
 21
230.158742637948
 31
0.0
  0
LINE
  5
3C1F
330
18BE
100
AcDbEntity
  8
0
100
AcDbLine
 10
22.90040145326102
 20
231.4747216379479
 30
0.0
 11
22.65040145326107
 21
231.4747216379479
 31
0.0
  0
LINE
  5
3C20
330
18BE
100
AcDbEntity
  8
0
100
AcDbLine
 10
22.90040145326102
 20
230.9747216379479
 30
0.0
 11
22.65040145326107
 21
230.9747216379479
 31
0.0
  0
LINE
  5
3C21
330
18BE
100
AcDbEntity
  8
0
100
AcDbLine
 10
22.90040145326102
 20
230.2047216379481
 30
0.0
 11
22.65040145326107
 21
230.204721637948
 31
0.0
  0
LINE
  5
3C22
330
18BE
100
AcDbEntity
  8
0
100
AcDbLine
 10
19.10745145326106
 20
229.7507006379482
 30
0.0
 11
19.51549345326107
 21
229.7507006379482
 31
0.0
  0
LINE
  5
3C23
330
18BE
100
AcDbEntity
  8
0
100
AcDbLine
 10
19.51549345326107
 20
228.888742637948
 30
0.0
 11
19.10745145326106
 21
228.888742637948
 31
0.0
  0
LINE
  5
3C24
330
18BE
100
AcDbEntity
  8
0
100
AcDbLine
 10
22.90040145326102
 20
229.704721637948
 30
0.0
 11
22.65040145326107
 21
229.704721637948
 31
0.0
  0
LINE
  5
3C25
330
18BE
100
AcDbEntity
  8
0
100
AcDbLine
 10
22.90040145326102
 20
228.9347216379479
 30
0.0
 11
22.65040145326107
 21
228.9347216379479
 31
0.0
  0
LINE
  5
3C26
330
18BE
100
AcDbEntity
  8
0
100
AcDbLine
 10
19.10745145326106
 20
228.4807006379482
 30
0.0
 11
19.51549345326107
 21
228.4807006379482
 31
0.0
  0
LINE
  5
3C27
330
18BE
100
AcDbEntity
  8
0
100
AcDbLine
 10
19.51549345326107
 20
227.2107006379482
 30
0.0
 11
19.51549345326107
 21
227.6187426379481
 31
0.0
  0
LINE
  5
3C28
330
18BE
100
AcDbEntity
  8
0
100
AcDbLine
 10
19.10745145326106
 20
227.6187426379481
 30
0.0
 11
19.10745145326106
 21
227.2107006379482
 31
0.0
  0
LINE
  5
3C29
330
18BE
100
AcDbEntity
  8
0
100
AcDbLine
 10
19.51549345326107
 20
227.6187426379481
 30
0.0
 11
19.10745145326106
 21
227.6187426379481
 31
0.0
  0
LINE
  5
3C2A
330
18BE
100
AcDbEntity
  8
0
100
AcDbLine
 10
19.10745145326106
 20
227.2107006379482
 30
0.0
 11
19.51549345326107
 21
227.2107006379482
 31
0.0
  0
LINE
  5
3C2B
330
18BE
100
AcDbEntity
  8
0
100
AcDbLine
 10
19.51549345326107
 20
225.9407006379483
 30
0.0
 11
19.51549345326107
 21
226.3487426379481
 31
0.0
  0
LINE
  5
3C2C
330
18BE
100
AcDbEntity
  8
0
100
AcDbLine
 10
19.10745145326106
 20
226.3487426379481
 30
0.0
 11
19.10745145326106
 21
225.9407006379483
 31
0.0
  0
LINE
  5
3C2D
330
18BE
100
AcDbEntity
  8
0
100
AcDbLine
 10
19.51549345326107
 20
226.3487426379481
 30
0.0
 11
19.10745145326106
 21
226.3487426379481
 31
0.0
  0
LINE
  5
3C2E
330
18BE
100
AcDbEntity
  8
0
100
AcDbLine
 10
19.10745145326106
 20
225.9407006379483
 30
0.0
 11
19.51549345326107
 21
225.9407006379483
 31
0.0
  0
LINE
  5
3C2F
330
18BE
100
AcDbEntity
  8
0
100
AcDbLine
 10
22.90040145326102
 20
225.1247216379481
 30
0.0
 11
22.65040145326107
 21
225.1247216379481
 31
0.0
  0
LINE
  5
3C30
330
18BE
100
AcDbEntity
  8
0
100
AcDbLine
 10
22.90040145326102
 20
228.434721637948
 30
0.0
 11
22.65040145326107
 21
228.434721637948
 31
0.0
  0
LINE
  5
3C31
330
18BE
100
AcDbEntity
  8
0
100
AcDbLine
 10
22.90040145326102
 20
227.6647216379481
 30
0.0
 11
22.65040145326107
 21
227.6647216379481
 31
0.0
  0
LINE
  5
3C32
330
18BE
100
AcDbEntity
  8
0
100
AcDbLine
 10
22.90040145326102
 20
227.1647216379481
 30
0.0
 11
22.65040145326107
 21
227.1647216379481
 31
0.0
  0
LINE
  5
3C33
330
18BE
100
AcDbEntity
  8
0
100
AcDbLine
 10
22.90040145326102
 20
226.3947216379481
 30
0.0
 11
22.65040145326107
 21
226.3947216379481
 31
0.0
  0
LINE
  5
3C34
330
18BE
100
AcDbEntity
  8
0
100
AcDbLine
 10
22.90040145326102
 20
225.8947216379481
 30
0.0
 11
22.65040145326107
 21
225.8947216379481
 31
0.0
  0
LINE
  5
3C35
330
18BE
100
AcDbEntity
  8
0
100
AcDbLine
 10
19.51549345326107
 20
228.4807006379482
 30
0.0
 11
19.51549345326107
 21
228.888742637948
 31
0.0
  0
LINE
  5
3C36
330
18BE
100
AcDbEntity
  8
0
100
AcDbLine
 10
19.10745145326106
 20
228.888742637948
 30
0.0
 11
19.10745145326106
 21
228.4807006379482
 31
0.0
  0
LINE
  5
3C37
330
18BE
100
AcDbEntity
  8
0
100
AcDbLine
 10
21.94744145326112
 20
237.886576637948
 30
0.0
 11
14.80666145326105
 21
237.886576637948
 31
0.0
  0
LINE
  5
3C38
330
18BE
100
AcDbEntity
  8
0
100
AcDbLine
 10
17.44262845326099
 20
234.8307006379484
 30
0.0
 11
17.44262845326099
 21
235.2387426379481
 31
0.0
  0
LINE
  5
3C39
330
18BE
100
AcDbEntity
  8
0
100
AcDbLine
 10
17.03458345326108
 20
235.2387426379481
 30
0.0
 11
17.03458345326108
 21
234.8307006379484
 31
0.0
  0
LINE
  5
3C3A
330
18BE
100
AcDbEntity
  8
0
100
AcDbLine
 10
17.44262845326099
 20
235.2387426379481
 30
0.0
 11
17.03458345326108
 21
235.2387426379481
 31
0.0
  0
LINE
  5
3C3B
330
18BE
100
AcDbEntity
  8
0
100
AcDbLine
 10
17.44262845326099
 20
236.1007006379484
 30
0.0
 11
17.44262845326099
 21
236.5087426379481
 31
0.0
  0
LINE
  5
3C3C
330
18BE
100
AcDbEntity
  8
0
100
AcDbLine
 10
17.03458345326108
 20
236.5087426379481
 30
0.0
 11
17.03458345326108
 21
236.1007006379484
 31
0.0
  0
LINE
  5
3C3D
330
18BE
100
AcDbEntity
  8
0
100
AcDbLine
 10
17.44262845326099
 20
236.5087426379481
 30
0.0
 11
17.03458345326108
 21
236.5087426379481
 31
0.0
  0
LINE
  5
3C3E
330
18BE
100
AcDbEntity
  8
0
100
AcDbLine
 10
17.03458345326108
 20
236.1007006379484
 30
0.0
 11
17.44262845326099
 21
236.1007006379484
 31
0.0
  0
LINE
  5
3C3F
330
18BE
100
AcDbEntity
  8
0
100
AcDbLine
 10
17.03458345326108
 20
234.8307006379484
 30
0.0
 11
17.44262845326099
 21
234.8307006379484
 31
0.0
  0
LINE
  5
3C40
330
18BE
100
AcDbEntity
  8
0
100
AcDbLine
 10
17.44262845326099
 20
233.9687426379482
 30
0.0
 11
17.03458345326108
 21
233.9687426379482
 31
0.0
  0
LINE
  5
3C41
330
18BE
100
AcDbEntity
  8
0
100
AcDbLine
 10
17.03458345326108
 20
232.2907006379482
 30
0.0
 11
17.44262845326099
 21
232.2907006379482
 31
0.0
  0
LINE
  5
3C42
330
18BE
100
AcDbEntity
  8
0
100
AcDbLine
 10
17.03458345326108
 20
233.5607006379484
 30
0.0
 11
17.44262845326099
 21
233.5607006379484
 31
0.0
  0
LINE
  5
3C43
330
18BE
100
AcDbEntity
  8
0
100
AcDbLine
 10
17.44262845326099
 20
232.6987426379481
 30
0.0
 11
17.03458345326108
 21
232.6987426379481
 31
0.0
  0
LINE
  5
3C44
330
18BE
100
AcDbEntity
  8
0
100
AcDbLine
 10
17.44262845326099
 20
232.2907006379482
 30
0.0
 11
17.44262845326099
 21
232.6987426379481
 31
0.0
  0
LINE
  5
3C45
330
18BE
100
AcDbEntity
  8
0
100
AcDbLine
 10
17.03458345326108
 20
232.6987426379481
 30
0.0
 11
17.03458345326108
 21
232.2907006379482
 31
0.0
  0
LINE
  5
3C46
330
18BE
100
AcDbEntity
  8
0
100
AcDbLine
 10
17.44262845326099
 20
233.5607006379484
 30
0.0
 11
17.44262845326099
 21
233.9687426379482
 31
0.0
  0
LINE
  5
3C47
330
18BE
100
AcDbEntity
  8
0
100
AcDbLine
 10
17.03458345326108
 20
233.9687426379482
 30
0.0
 11
17.03458345326108
 21
233.5607006379484
 31
0.0
  0
LINE
  5
3C48
330
18BE
100
AcDbEntity
  8
0
100
AcDbLine
 10
19.51549345326107
 20
234.8307006379484
 30
0.0
 11
19.51549345326107
 21
235.2387426379481
 31
0.0
  0
LINE
  5
3C49
330
18BE
100
AcDbEntity
  8
0
100
AcDbLine
 10
19.10745145326106
 20
235.2387426379481
 30
0.0
 11
19.10745145326106
 21
234.8307006379484
 31
0.0
  0
LINE
  5
3C4A
330
18BE
100
AcDbEntity
  8
0
100
AcDbLine
 10
19.51549345326107
 20
235.2387426379481
 30
0.0
 11
19.10745145326106
 21
235.2387426379481
 31
0.0
  0
LINE
  5
3C4B
330
18BE
100
AcDbEntity
  8
0
100
AcDbLine
 10
19.51549345326107
 20
236.1007006379484
 30
0.0
 11
19.51549345326107
 21
236.5087426379481
 31
0.0
  0
LINE
  5
3C4C
330
18BE
100
AcDbEntity
  8
0
100
AcDbLine
 10
19.10745145326106
 20
236.5087426379481
 30
0.0
 11
19.10745145326106
 21
236.1007006379484
 31
0.0
  0
LINE
  5
3C4D
330
18BE
100
AcDbEntity
  8
0
100
AcDbLine
 10
19.51549345326107
 20
236.5087426379481
 30
0.0
 11
19.10745145326106
 21
236.5087426379481
 31
0.0
  0
LINE
  5
3C4E
330
18BE
100
AcDbEntity
  8
0
100
AcDbLine
 10
19.10745145326106
 20
236.1007006379484
 30
0.0
 11
19.51549345326107
 21
236.1007006379484
 31
0.0
  0
LINE
  5
3C4F
330
18BE
100
AcDbEntity
  8
0
100
AcDbLine
 10
19.10745145326106
 20
234.8307006379484
 30
0.0
 11
19.51549345326107
 21
234.8307006379484
 31
0.0
  0
LINE
  5
3C50
330
18BE
100
AcDbEntity
  8
0
100
AcDbLine
 10
19.51549345326107
 20
233.9687426379482
 30
0.0
 11
19.10745145326106
 21
233.9687426379482
 31
0.0
  0
LINE
  5
3C51
330
18BE
100
AcDbEntity
  8
0
100
AcDbLine
 10
22.90040145326102
 20
235.2847216379479
 30
0.0
 11
22.65040145326107
 21
235.2847216379479
 31
0.0
  0
LINE
  5
3C52
330
18BE
100
AcDbEntity
  8
0
100
AcDbLine
 10
22.90040145326102
 20
236.5547216379479
 30
0.0
 11
22.65040145326107
 21
236.5547216379479
 31
0.0
  0
LINE
  5
3C53
330
18BE
100
AcDbEntity
  8
0
100
AcDbLine
 10
22.90040145326102
 20
236.0547216379479
 30
0.0
 11
22.65040145326107
 21
236.0547216379479
 31
0.0
  0
LINE
  5
3C54
330
18BE
100
AcDbEntity
  8
0
100
AcDbLine
 10
22.90040145326102
 20
234.7847216379479
 30
0.0
 11
22.65040145326107
 21
234.7847216379479
 31
0.0
  0
LINE
  5
3C55
330
18BE
100
AcDbEntity
  8
0
100
AcDbLine
 10
22.90040145326102
 20
234.014721637948
 30
0.0
 11
22.65040145326107
 21
234.014721637948
 31
0.0
  0
LINE
  5
3C56
330
18BE
100
AcDbEntity
  8
0
100
AcDbLine
 10
19.10745145326106
 20
232.2907006379482
 30
0.0
 11
19.51549345326107
 21
232.2907006379482
 31
0.0
  0
LINE
  5
3C57
330
18BE
100
AcDbEntity
  8
0
100
AcDbLine
 10
19.10745145326106
 20
233.5607006379484
 30
0.0
 11
19.51549345326107
 21
233.5607006379484
 31
0.0
  0
LINE
  5
3C58
330
18BE
100
AcDbEntity
  8
0
100
AcDbLine
 10
19.51549345326107
 20
232.6987426379481
 30
0.0
 11
19.10745145326106
 21
232.6987426379481
 31
0.0
  0
LINE
  5
3C59
330
18BE
100
AcDbEntity
  8
0
100
AcDbLine
 10
19.51549345326107
 20
232.2907006379482
 30
0.0
 11
19.51549345326107
 21
232.6987426379481
 31
0.0
  0
LINE
  5
3C5A
330
18BE
100
AcDbEntity
  8
0
100
AcDbLine
 10
19.10745145326106
 20
232.6987426379481
 30
0.0
 11
19.10745145326106
 21
232.2907006379482
 31
0.0
  0
LINE
  5
3C5B
330
18BE
100
AcDbEntity
  8
0
100
AcDbLine
 10
22.90040145326102
 20
232.244721637948
 30
0.0
 11
22.65040145326107
 21
232.244721637948
 31
0.0
  0
LINE
  5
3C5C
330
18BE
100
AcDbEntity
  8
0
100
AcDbLine
 10
22.90040145326102
 20
232.7447216379479
 30
0.0
 11
22.65040145326107
 21
232.7447216379479
 31
0.0
  0
LINE
  5
3C5D
330
18BE
100
AcDbEntity
  8
0
100
AcDbLine
 10
22.90040145326102
 20
233.5147216379479
 30
0.0
 11
22.65040145326107
 21
233.5147216379479
 31
0.0
  0
LINE
  5
3C5E
330
18BE
100
AcDbEntity
  8
0
100
AcDbLine
 10
19.51549345326107
 20
233.5607006379484
 30
0.0
 11
19.51549345326107
 21
233.9687426379482
 31
0.0
  0
LINE
  5
3C5F
330
18BE
100
AcDbEntity
  8
0
100
AcDbLine
 10
19.10745145326106
 20
233.9687426379482
 30
0.0
 11
19.10745145326106
 21
233.5607006379484
 31
0.0
  0
LINE
  5
3C60
330
18BE
100
AcDbEntity
  8
0
100
AcDbLine
 10
21.94744145326112
 20
240.253235637948
 30
0.0
 11
14.80666145326105
 21
240.253235637948
 31
0.0
  0
LINE
  5
3C61
330
18BE
100
AcDbEntity
  8
0
100
AcDbLine
 10
19.90721645326104
 20
242.7955326379481
 30
0.0
 11
16.64286045326113
 21
242.7955326379481
 31
0.0
  0
LINE
  5
3C62
330
18BE
100
AcDbEntity
  8
0
100
AcDbLine
 10
19.90721645326104
 20
240.7868156379481
 30
0.0
 11
16.64286045326101
 21
240.7868156379481
 31
0.0
  0
LINE
  5
3C63
330
18BE
100
AcDbEntity
  8
0
100
AcDbLine
 10
16.64286445326111
 20
242.4700596379484
 30
0.0
 11
19.90721945326114
 21
242.4700586379481
 31
0.0
  0
LINE
  5
3C64
330
18BE
100
AcDbEntity
  8
0
100
AcDbLine
 10
16.64286445326111
 20
242.1575716379479
 30
0.0
 11
19.90721945326114
 21
242.1575716379479
 31
0.0
  0
LINE
  5
3C65
330
18BE
100
AcDbEntity
  8
0
100
AcDbLine
 10
16.64286345326113
 20
241.8450846379482
 30
0.0
 11
19.90721945326114
 21
241.8450836379481
 31
0.0
  0
LINE
  5
3C66
330
18BE
100
AcDbEntity
  8
0
100
AcDbLine
 10
16.64286345326101
 20
241.532597637948
 30
0.0
 11
19.90721945326103
 21
241.532596637948
 31
0.0
  0
LINE
  5
3C67
330
18BE
100
AcDbEntity
  8
0
100
AcDbLine
 10
16.64286045326113
 20
242.8647216379481
 30
0.0
 11
14.80666145326117
 21
242.8647216379481
 31
0.0
  0
LINE
  5
3C68
330
18BE
100
AcDbEntity
  8
0
100
AcDbLine
 10
16.64286045326101
 20
240.7868156379481
 30
0.0
 11
16.64286045326113
 21
242.8647216379481
 31
0.0
  0
LINE
  5
3C69
330
18BE
100
AcDbEntity
  8
0
100
AcDbLine
 10
19.90721645326104
 20
240.7868156379481
 30
0.0
 11
19.90721645326104
 21
242.8647216379481
 31
0.0
  0
LINE
  5
3C6A
330
18BE
100
AcDbEntity
  8
0
100
AcDbLine
 10
21.94744145326112
 20
242.8647216379481
 30
0.0
 11
19.90721645326104
 21
242.8647216379481
 31
0.0
  0
LINE
  5
3C6B
330
18BE
100
AcDbEntity
  8
0
100
AcDbLine
 10
22.90040145326107
 20
239.9647216379479
 30
0.0
 11
22.65040145326107
 21
239.9647216379479
 31
0.0
  0
LINE
  5
3C6C
330
18BE
100
AcDbEntity
  8
0
100
AcDbLine
 10
24.30040145326106
 20
243.9097226379483
 30
0.0
 11
25.90040145326108
 21
243.9097226379483
 31
0.0
  0
LINE
  5
3C6D
330
18BE
100
AcDbEntity
  8
0
100
AcDbLine
 10
24.5004014532611
 20
244.4647216379479
 30
0.0
 11
25.60040145326112
 21
244.4647216379479
 31
0.0
  0
LINE
  5
3C6E
330
18BE
100
AcDbEntity
  8
0
100
AcDbLine
 10
24.5004014532611
 20
244.4647216379479
 30
0.0
 11
25.60040145326112
 21
244.4647216379479
 31
0.0
  0
LINE
  5
3C6F
330
18BE
100
AcDbEntity
  8
0
100
AcDbLine
 10
98.05830147626885
 20
182.505852637948
 30
0.0
 11
98.05830147626885
 21
167.505852637948
 31
0.0
  0
LINE
  5
3C70
330
18BE
100
AcDbEntity
  8
0
100
AcDbLine
 10
96.55830147626884
 20
182.505852637948
 30
0.0
 11
96.55830147626884
 21
167.505852637948
 31
0.0
  0
LINE
  5
3C71
330
18BE
100
AcDbEntity
  8
0
100
AcDbLine
 10
88.75830147626889
 20
167.505852637948
 30
0.0
 11
89.25830147626898
 21
167.505852637948
 31
0.0
  0
LINE
  5
3C72
330
18BE
100
AcDbEntity
  8
0
100
AcDbLine
 10
88.75830147626889
 20
165.505852637948
 30
0.0
 11
89.25830147626909
 21
165.505852637948
 31
0.0
  0
LINE
  5
3C73
330
18BE
100
AcDbEntity
  8
0
100
AcDbLine
 10
96.15830147626871
 20
167.505852637948
 30
0.0
 11
98.05830147626885
 21
167.505852637948
 31
0.0
  0
LINE
  5
3C74
330
18BE
100
AcDbEntity
  8
0
100
AcDbLine
 10
88.75830147626889
 20
184.505852637948
 30
0.0
 11
89.25830147626909
 21
184.505852637948
 31
0.0
  0
LINE
  5
3C75
330
18BE
100
AcDbEntity
  8
0
100
AcDbLine
 10
89.25830147626898
 20
182.505852637948
 30
0.0
 11
88.75830147626889
 21
182.505852637948
 31
0.0
  0
LINE
  5
3C76
330
18BE
100
AcDbEntity
  8
0
100
AcDbLine
 10
98.05830147626885
 20
182.505852637948
 30
0.0
 11
96.15830147626871
 21
182.505852637948
 31
0.0
  0
ARC
  5
3C77
330
18BE
100
AcDbEntity
  8
0
100
AcDbCircle
 10
3.996385325920441
 20
291.9966759914948
 30
0.0
 40
1.0
100
AcDbArc
 50
180.8823569999998
 51
262.1601730000026
  0
LINE
  5
3C78
330
18BE
100
AcDbEntity
  8
0
100
AcDbLine
 10
3.000192453261063
 20
256.5058536379479
 30
0.0
 11
6.500725453261082
 21
256.5058536379479
 31
0.0
  0
ARC
  5
3C79
330
18BE
100
AcDbEntity
  8
0
100
AcDbCircle
 10
4.00811945326123
 20
253.9944906379481
 30
0.0
 40
1.0
100
AcDbArc
 50
90.0
 51
180.0
  0
LINE
  5
3C7A
330
18BE
100
AcDbEntity
  8
0
100
AcDbLine
 10
3.500192453261063
 20
265.0055946379479
 30
0.0
 11
31.50061045326114
 21
265.0055946379479
 31
0.0
  0
LINE
  5
3C7B
330
18BE
100
AcDbEntity
  8
0
100
AcDbLine
 10
2.000192453261063
 20
255.5058536379477
 30
0.0
 11
2.000192453261063
 21
263.505594637948
 31
0.0
  0
ARC
  5
3C7C
330
18BE
100
AcDbEntity
  8
0
100
AcDbCircle
 10
1.01528245326122
 20
250.4815766379483
 30
0.0
 40
1.0
100
AcDbArc
 50
90.0
 51
180.0
  0
LINE
  5
3C7D
330
18BE
100
AcDbEntity
  8
0
100
AcDbLine
 10
2.000192453261063
 20
255.5058536379477
 30
0.0
 11
2.000192453261063
 21
251.4815766379483
 31
0.0
  0
LINE
  5
3C7E
330
18BE
100
AcDbEntity
  8
0
100
AcDbLine
 10
2.000192453261063
 20
251.4815766379483
 30
0.0
 11
2.931119453261174
 21
250.1308186379482
 31
0.0
  0
LINE
  5
3C7F
330
18BE
100
AcDbEntity
  8
0
100
AcDbLine
 10
2.000192453261063
 20
251.4815766379483
 30
0.0
 11
2.931119453261174
 21
250.1308186379482
 31
0.0
  0
LINE
  5
3C80
330
18BE
100
AcDbEntity
  8
0
100
AcDbLine
 10
1.93069045326112
 20
250.1308186379482
 30
0.0
 11
2.931119453261174
 21
250.1308186379482
 31
0.0
  0
LINE
  5
3C81
330
18BE
100
AcDbEntity
  8
0
100
AcDbLine
 10
1.93069045326112
 20
250.1308186379482
 30
0.0
 11
2.931119453261174
 21
250.1308186379482
 31
0.0
  0
ARC
  5
3C82
330
18BE
100
AcDbEntity
  8
0
100
AcDbCircle
 10
1.930690453261178
 20
249.1308186379481
 30
0.0
 40
1.0
100
AcDbArc
 50
90.0
 51
180.0
  0
ARC
  5
3C83
330
18BE
100
AcDbEntity
  8
0
100
AcDbCircle
 10
1.930690453261178
 20
249.1308186379481
 30
0.0
 40
1.0
100
AcDbArc
 50
90.0
 51
180.0
  0
LINE
  5
3C84
330
18BE
100
AcDbEntity
  8
0
100
AcDbLine
 10
2.000192453261063
 20
251.4815766379483
 30
0.0
 11
1.015282453261164
 21
251.4815766379483
 31
0.0
  0
ARC
  5
3C85
330
18BE
100
AcDbEntity
  8
0
100
AcDbCircle
 10
3.00019245326112
 20
255.5058536379477
 30
0.0
 40
1.0
100
AcDbArc
 50
90.0
 51
180.0
  0
ARC
  5
3C86
330
18BE
100
AcDbEntity
  8
0
100
AcDbCircle
 10
3.50019245326112
 20
263.5055946379479
 30
0.0
 40
1.5
100
AcDbArc
 50
90.0
 51
180.0
  0
POINT
  5
3C87
330
18BE
100
AcDbEntity
  8
0
100
AcDbPoint
 10
3.009663325920456
 20
291.1268259914948
 30
0.0
  0
LINE
  5
3C88
330
18BE
100
AcDbEntity
  8
0
100
AcDbLine
 10
1.915409325920363
 20
296.2266229914948
 30
0.0
 11
2.931120325920375
 21
296.2266229914948
 31
0.0
  0
ARC
  5
3C89
330
18BE
100
AcDbEntity
  8
0
100
AcDbCircle
 10
1.91540932592025
 20
297.2266229914948
 30
0.0
 40
1.0
100
AcDbArc
 50
180.8823589999988
 51
270.0
  0
LINE
  5
3C8A
330
18BE
100
AcDbEntity
  8
0
100
AcDbLine
 10
4.008119453261173
 20
254.9944906379483
 30
0.0
 11
30.99268445326115
 21
254.9944906379483
 31
0.0
  0
ARC
  5
3C8B
330
18BE
100
AcDbEntity
  8
0
100
AcDbCircle
 10
17.50040145326221
 20
4650.715148637946
 30
0.0
 40
4395.595658
100
AcDbArc
 50
269.8755909999992
 51
270.1244089999974
  0
LINE
  5
3C8C
330
18BE
100
AcDbEntity
  8
0
100
AcDbLine
 10
7.176802453261159
 20
255.5058536379477
 30
0.0
 11
27.82806445326112
 21
255.5058536379477
 31
0.0
  0
LINE
  5
3C8D
330
18BE
100
AcDbEntity
  8
0
100
AcDbLine
 10
25.0004014532611
 20
260.2555946379479
 30
0.0
 11
10.0004014532611
 21
260.2555946379479
 31
0.0
  0
LINE
  5
3C8E
330
18BE
100
AcDbEntity
  8
0
100
AcDbLine
 10
6.100401453261014
 20
252.4097226379481
 30
0.0
 11
28.90040145326107
 21
252.4097226379481
 31
0.0
  0
LINE
  5
3C8F
330
18BE
100
AcDbEntity
  8
0
100
AcDbLine
 10
6.000401453260991
 20
252.5058536379479
 30
0.0
 11
29.0004014532611
 21
252.5058536379479
 31
0.0
  0
LINE
  5
3C90
330
18BE
100
AcDbEntity
  8
0
100
AcDbLine
 10
17.50040145326109
 20
267.755594637948
 30
0.0
 11
17.50040145326109
 21
252.7555946379479
 31
0.0
  0
CIRCLE
  5
3C91
330
18BE
100
AcDbEntity
  8
0
100
AcDbCircle
 10
17.50040145326116
 20
260.2555946379479
 30
0.0
 40
2.5
  0
ARC
  5
3C92
330
18BE
100
AcDbEntity
  8
0
100
AcDbCircle
 10
6.000401453261162
 20
251.5058536379477
 30
0.0
 40
1.0
100
AcDbArc
 50
90.0
 51
180.0
  0
ARC
  5
3C93
330
18BE
100
AcDbEntity
  8
0
100
AcDbCircle
 10
6.100401453261183
 20
251.409722637948
 30
0.0
 40
1.0
100
AcDbArc
 50
90.0
 51
180.0
  0
ARC
  5
3C94
330
18BE
100
AcDbEntity
  8
0
100
AcDbCircle
 10
7.958229453261224
 20
256.129849637948
 30
0.0
 40
1.0
100
AcDbArc
 50
213.9015840000054
 51
269.8755909999992
  0
LINE
  5
3C95
330
18BE
100
AcDbEntity
  8
0
100
AcDbLine
 10
7.128232453261118
 20
255.572081637948
 30
0.0
 11
6.500725453261082
 21
256.5058536379479
 31
0.0
  0
LINE
  5
3C96
330
18BE
100
AcDbEntity
  8
0
100
AcDbLine
 10
14.80666145326117
 20
245.3167376379477
 30
0.0
 11
21.94744145326112
 21
245.3167376379477
 31
0.0
  0
LINE
  5
3C97
330
18BE
100
AcDbEntity
  8
0
100
AcDbLine
 10
22.90040145326107
 20
246.0647216379479
 30
0.0
 11
14.15040145326108
 21
246.0647216379479
 31
0.0
  0
LINE
  5
3C98
330
18BE
100
AcDbEntity
  8
0
100
AcDbLine
 10
14.15040145326108
 20
246.0647216379479
 30
0.0
 11
22.65040145326107
 21
246.0647216379479
 31
0.0
  0
LINE
  5
3C99
330
18BE
100
AcDbEntity
  8
0
100
AcDbLine
 10
23.40040145326108
 20
247.009722637948
 30
0.0
 11
13.60040145326112
 21
247.009722637948
 31
0.0
  0
LINE
  5
3C9A
330
18BE
100
AcDbEntity
  8
0
100
AcDbLine
 10
33.00061045326113
 20
254.5647216379478
 30
0.0
 11
33.00061045326113
 21
263.505594637948
 31
0.0
  0
ARC
  5
3C9B
330
18BE
100
AcDbEntity
  8
0
100
AcDbCircle
 10
33.07011245326119
 20
249.1308186379481
 30
0.0
 40
1.0
100
AcDbArc
 50
0.0
 51
90.0
  0
ARC
  5
3C9C
330
18BE
100
AcDbEntity
  8
0
100
AcDbCircle
 10
33.07011245326119
 20
249.1308186379481
 30
0.0
 40
1.0
100
AcDbArc
 50
0.0
 51
90.0
  0
LINE
  5
3C9D
330
18BE
100
AcDbEntity
  8
0
100
AcDbLine
 10
33.00061045326113
 20
251.4815766379483
 30
0.0
 11
33.98540045326112
 21
251.4815766379483
 31
0.0
  0
LINE
  5
3C9E
330
18BE
100
AcDbEntity
  8
0
100
AcDbLine
 10
33.00060945326114
 20
255.5058536379477
 30
0.0
 11
33.00060945326114
 21
251.4815766379483
 31
0.0
  0
ARC
  5
3C9F
330
18BE
100
AcDbEntity
  8
0
100
AcDbCircle
 10
29.00040145326116
 20
251.5058536379477
 30
0.0
 40
1.0
100
AcDbArc
 50
0.0
 51
90.0
  0
ARC
  5
3CA0
330
18BE
100
AcDbEntity
  8
0
100
AcDbCircle
 10
28.90040145326119
 20
251.409722637948
 30
0.0
 40
1.0
100
AcDbArc
 50
0.0
 51
90.0
  0
LINE
  5
3CA1
330
18BE
100
AcDbEntity
  8
0
100
AcDbLine
 10
24.5004014532611
 20
246.0647216379479
 30
0.0
 11
25.60040145326112
 21
246.0647216379479
 31
0.0
  0
LINE
  5
3CA2
330
18BE
100
AcDbEntity
  8
0
100
AcDbLine
 10
24.5004014532611
 20
246.0647216379479
 30
0.0
 11
25.60040145326112
 21
246.0647216379479
 31
0.0
  0
LINE
  5
3CA3
330
18BE
100
AcDbEntity
  8
0
100
AcDbLine
 10
24.30040145326106
 20
246.6097226379484
 30
0.0
 11
25.90040145326108
 21
246.6097226379484
 31
0.0
  0
LINE
  5
3CA4
330
18BE
100
AcDbEntity
  8
0
100
AcDbLine
 10
33.00061045326113
 20
251.4815766379483
 30
0.0
 11
32.06968445326114
 21
250.1308186379482
 31
0.0
  0
LINE
  5
3CA5
330
18BE
100
AcDbEntity
  8
0
100
AcDbLine
 10
33.00061045326113
 20
251.4815766379483
 30
0.0
 11
32.06968445326114
 21
250.1308186379482
 31
0.0
  0
LINE
  5
3CA6
330
18BE
100
AcDbEntity
  8
0
100
AcDbLine
 10
33.07011245326108
 20
250.1308186379482
 30
0.0
 11
32.06968445326114
 21
250.1308186379482
 31
0.0
  0
LINE
  5
3CA7
330
18BE
100
AcDbEntity
  8
0
100
AcDbLine
 10
33.07011245326108
 20
250.1308186379482
 30
0.0
 11
32.06968445326114
 21
250.1308186379482
 31
0.0
  0
LINE
  5
3CA8
330
18BE
100
AcDbEntity
  8
0
100
AcDbLine
 10
27.87257045326109
 20
255.572081637948
 30
0.0
 11
28.50007645326112
 21
256.5058536379479
 31
0.0
  0
ARC
  5
3CA9
330
18BE
100
AcDbEntity
  8
0
100
AcDbCircle
 10
27.04257345326121
 20
256.129849637948
 30
0.0
 40
1.0
100
AcDbArc
 50
270.1244089999974
 51
326.0984159999943
  0
ARC
  5
3CAA
330
18BE
100
AcDbEntity
  8
0
100
AcDbCircle
 10
32.0006094532612
 20
255.5058536379477
 30
0.0
 40
1.0
100
AcDbArc
 50
0.0
 51
90.0
  0
ARC
  5
3CAB
330
18BE
100
AcDbEntity
  8
0
100
AcDbCircle
 10
30.99268445326119
 20
253.9944906379481
 30
0.0
 40
1.0
100
AcDbArc
 50
0.0
 51
90.0
  0
LINE
  5
3CAC
330
18BE
100
AcDbEntity
  8
0
100
AcDbLine
 10
28.50007645326112
 20
256.5058536379479
 30
0.0
 11
32.00060945326114
 21
256.5058536379479
 31
0.0
  0
ARC
  5
3CAD
330
18BE
100
AcDbEntity
  8
0
100
AcDbCircle
 10
33.98540045326123
 20
250.4815766379483
 30
0.0
 40
1.0
100
AcDbArc
 50
0.0
 51
90.0
  0
ARC
  5
3CAE
330
18BE
100
AcDbEntity
  8
0
100
AcDbCircle
 10
31.5006104532612
 20
263.5055946379479
 30
0.0
 40
1.5
100
AcDbArc
 50
0.0
 51
90.0
  0
ARC
  5
3CAF
330
18BE
100
AcDbEntity
  8
0
100
AcDbCircle
 10
17.50040232592018
 20
390.0713489914949
 30
0.0
 40
100.0
100
AcDbArc
 50
262.1601730000026
 51
277.8398260000029
  0
ARC
  5
3CB0
330
18BE
100
AcDbEntity
  8
0
100
AcDbCircle
 10
17.50040232592018
 20
395.0713489914949
 30
0.0
 40
100.0
100
AcDbArc
 50
265.2667410000032
 51
274.7332589999968
  0
ARC
  5
3CB1
330
18BE
100
AcDbEntity
  8
0
100
AcDbCircle
 10
9.413735325920155
 20
297.4055619914948
 30
0.0
 40
2.0
100
AcDbArc
 50
180.8823600000014
 51
265.2667410000032
  0
ARC
  5
3CB2
330
18BE
100
AcDbEntity
  8
0
100
AcDbCircle
 10
33.08539632592001
 20
297.2266229914948
 30
0.0
 40
1.0
100
AcDbArc
 50
270.0
 51
359.1176410000012
  0
ARC
  5
3CB3
330
18BE
100
AcDbEntity
  8
0
100
AcDbCircle
 10
31.00441932592039
 20
291.996674991495
 30
0.0
 40
1.0
100
AcDbArc
 50
277.8398260000029
 51
359.117643
  0
ARC
  5
3CB4
330
18BE
100
AcDbEntity
  8
0
100
AcDbCircle
 10
25.58707132591999
 20
297.4055629914948
 30
0.0
 40
2.0
100
AcDbArc
 50
274.7332589999968
 51
359.1176410000012
  0
LINE
  5
3CB5
330
18BE
100
AcDbEntity
  8
0
100
AcDbLine
 10
33.08539632592035
 20
296.2266229914948
 30
0.0
 11
32.06968432592046
 21
296.2266229914948
 31
0.0
  0
LINE
  5
3CB6
330
18BE
100
AcDbEntity
  8
CLASS1
100
AcDbLine
 10
16.40040232592034
 20
321.1713489914949
 30
0.0
 11
16.40040232592034
 21
330.9713489914948
 31
0.0
  0
LINE
  5
3CB7
330
18BE
100
AcDbEntity
  8
CLASS1
100
AcDbLine
 10
23.40040232592034
 20
324.071348991495
 30
0.0
 11
23.40040232592034
 21
328.071348991495
 31
0.0
  0
LINE
  5
3CB8
330
18BE
100
AcDbEntity
  8
CLASS1
100
AcDbLine
 10
19.10040232592027
 20
321.071348991495
 30
0.0
 11
19.10040232592027
 21
333.1050919914948
 31
0.0
  0
LINE
  5
3CB9
330
18BE
100
AcDbEntity
  8
CLASS1
100
AcDbLine
 10
18.10040232592027
 20
322.571348991495
 30
0.0
 11
18.10040232592027
 21
329.571348991495
 31
0.0
  0
LINE
  5
3CBA
330
18BE
100
AcDbEntity
  8
CLASS1
100
AcDbLine
 10
20.10040232592027
 20
322.571348991495
 30
0.0
 11
20.10040232592027
 21
329.571348991495
 31
0.0
  0
LINE
  5
3CBB
330
18BE
100
AcDbEntity
  8
0
100
AcDbLine
 10
23.5004023259203
 20
305.0713489914948
 30
0.0
 11
11.5004023259203
 21
305.071348991495
 31
0.0
  0
LINE
  5
3CBC
330
18BE
100
AcDbEntity
  8
0
100
AcDbLine
 10
11.5004023259203
 20
307.071348991495
 30
0.0
 11
23.5004023259203
 21
307.0713489914948
 31
0.0
  0
LINE
  5
3CBD
330
18BE
100
AcDbEntity
  8
0
100
AcDbLine
 10
11.5004023259203
 20
303.071348991495
 30
0.0
 11
23.5004023259203
 21
303.0713489914948
 31
0.0
  0
LINE
  5
3CBE
330
18BE
100
AcDbEntity
  8
CLASS1
100
AcDbLine
 10
23.50040232592025
 20
311.071348991495
 30
0.0
 11
11.50040232592024
 21
311.071348991495
 31
0.0
  0
LINE
  5
3CBF
330
18BE
100
AcDbEntity
  8
CLASS1
100
AcDbLine
 10
11.50040232592024
 20
313.071348991495
 30
0.0
 11
23.50040232592025
 21
313.071348991495
 31
0.0
  0
LINE
  5
3CC0
330
18BE
100
AcDbEntity
  8
CLASS1
100
AcDbLine
 10
23.50040232592025
 20
315.071348991495
 30
0.0
 11
11.50040232592024
 21
315.071348991495
 31
0.0
  0
LINE
  5
3CC1
330
18BE
100
AcDbEntity
  8
CLASS1
100
AcDbLine
 10
11.50040232592024
 20
309.071348991495
 30
0.0
 11
23.50040232592025
 21
309.071348991495
 31
0.0
  0
LINE
  5
3CC2
330
18BE
100
AcDbEntity
  8
0
100
AcDbLine
 10
11.5004023259203
 20
311.071348991495
 30
0.0
 11
23.5004023259203
 21
311.071348991495
 31
0.0
  0
LINE
  5
3CC3
330
18BE
100
AcDbEntity
  8
0
100
AcDbLine
 10
23.50040232592035
 20
313.0713489914948
 30
0.0
 11
11.50040232592036
 21
313.071348991495
 31
0.0
  0
LINE
  5
3CC4
330
18BE
100
AcDbEntity
  8
0
100
AcDbLine
 10
11.50040232592036
 20
315.071348991495
 30
0.0
 11
23.50040232592035
 21
315.0713489914948
 31
0.0
  0
LINE
  5
3CC5
330
18BE
100
AcDbEntity
  8
0
100
AcDbLine
 10
23.5004023259203
 20
309.0713489914948
 30
0.0
 11
11.5004023259203
 21
309.071348991495
 31
0.0
  0
LINE
  5
3CC6
330
18BE
100
AcDbEntity
  8
CLASS1
100
AcDbLine
 10
11.50040232592024
 20
317.071348991495
 30
0.0
 11
23.50040232592025
 21
317.071348991495
 31
0.0
  0
LINE
  5
3CC7
330
18BE
100
AcDbEntity
  8
CLASS1
100
AcDbLine
 10
14.60040232592026
 20
318.071348991495
 30
0.0
 11
23.50040232592035
 21
318.071348991495
 31
0.0
  0
LINE
  5
3CC8
330
18BE
100
AcDbEntity
  8
0
100
AcDbLine
 10
23.50040232592035
 20
317.0713489914948
 30
0.0
 11
11.50040232592036
 21
317.071348991495
 31
0.0
  0
LINE
  5
3CC9
330
18BE
100
AcDbEntity
  8
0
100
AcDbLine
 10
23.5004023259203
 20
301.0713489914948
 30
0.0
 11
11.5004023259203
 21
301.071348991495
 31
0.0
  0
LINE
  5
3CCA
330
18BE
100
AcDbEntity
  8
0
100
AcDbLine
 10
11.5004023259203
 20
301.071348991495
 30
0.0
 11
11.5004023259203
 21
303.071348991495
 31
0.0
  0
LINE
  5
3CCB
330
18BE
100
AcDbEntity
  8
CLASS1
100
AcDbLine
 10
11.50040232592024
 20
311.071348991495
 30
0.0
 11
11.50040232592024
 21
309.071348991495
 31
0.0
  0
LINE
  5
3CCC
330
18BE
100
AcDbEntity
  8
0
100
AcDbLine
 10
11.5004023259203
 20
309.071348991495
 30
0.0
 11
11.5004023259203
 21
311.071348991495
 31
0.0
  0
LINE
  5
3CCD
330
18BE
100
AcDbEntity
  8
0
100
AcDbLine
 10
11.5004023259203
 20
305.071348991495
 30
0.0
 11
11.5004023259203
 21
307.071348991495
 31
0.0
  0
LINE
  5
3CCE
330
18BE
100
AcDbEntity
  8
CLASS1
100
AcDbLine
 10
14.60040232592026
 20
323.071348991495
 30
0.0
 11
11.50040232592036
 21
323.071348991495
 31
0.0
  0
LINE
  5
3CCF
330
18BE
100
AcDbEntity
  8
CLASS1
100
AcDbLine
 10
11.50040232592036
 20
321.071348991495
 30
0.0
 11
14.60040232592026
 21
321.071348991495
 31
0.0
  0
LINE
  5
3CD0
330
18BE
100
AcDbEntity
  8
CLASS1
100
AcDbLine
 10
14.60040232592026
 20
319.071348991495
 30
0.0
 11
11.50040232592036
 21
319.071348991495
 31
0.0
  0
LINE
  5
3CD1
330
18BE
100
AcDbEntity
  8
CLASS1
100
AcDbLine
 10
11.50040232592036
 20
319.071348991495
 30
0.0
 11
11.50040232592024
 21
317.071348991495
 31
0.0
  0
LINE
  5
3CD2
330
18BE
100
AcDbEntity
  8
0
100
AcDbLine
 10
11.50040232592036
 20
317.071348991495
 30
0.0
 11
11.50040232592036
 21
319.071348991495
 31
0.0
  0
LINE
  5
3CD3
330
18BE
100
AcDbEntity
  8
CLASS1
100
AcDbLine
 10
11.50040232592024
 20
315.071348991495
 30
0.0
 11
11.50040232592024
 21
313.071348991495
 31
0.0
  0
LINE
  5
3CD4
330
18BE
100
AcDbEntity
  8
0
100
AcDbLine
 10
11.50040232592036
 20
313.071348991495
 30
0.0
 11
11.50040232592036
 21
315.071348991495
 31
0.0
  0
LINE
  5
3CD5
330
18BE
100
AcDbEntity
  8
CLASS1
100
AcDbLine
 10
11.50040232592036
 20
323.071348991495
 30
0.0
 11
11.50040232592036
 21
321.071348991495
 31
0.0
  0
LINE
  5
3CD6
330
18BE
100
AcDbEntity
  8
0
100
AcDbLine
 10
11.50040232592036
 20
321.071348991495
 30
0.0
 11
11.50040232592036
 21
323.071348991495
 31
0.0
  0
LINE
  5
3CD7
330
18BE
100
AcDbEntity
  8
CLASS1
100
AcDbLine
 10
14.60040232592026
 20
319.071348991495
 30
0.0
 11
14.60040232592026
 21
318.071348991495
 31
0.0
  0
ARC
  5
3CD8
330
18BE
100
AcDbEntity
  8
CLASS1
100
AcDbCircle
 10
18.60040232592032
 20
322.5713489914948
 30
0.0
 40
0.5
100
AcDbArc
 50
180.0
 51
270.0
  0
LINE
  5
3CD9
330
18BE
100
AcDbEntity
  8
CLASS1
100
AcDbLine
 10
17.02540232592034
 20
319.9213489914948
 30
0.0
 11
21.1754023259203
 21
319.9213489914948
 31
0.0
  0
LINE
  5
3CDA
330
18BE
100
AcDbEntity
  8
CLASS1
100
AcDbLine
 10
14.60040232592026
 20
323.071348991495
 30
0.0
 11
14.60040232592026
 21
321.071348991495
 31
0.0
  0
LINE
  5
3CDB
330
18BE
100
AcDbEntity
  8
CLASS1
100
AcDbLine
 10
17.02540232592034
 20
319.9213489914948
 30
0.0
 11
17.02540232592034
 21
321.1713489914949
 31
0.0
  0
LINE
  5
3CDC
330
18BE
100
AcDbEntity
  8
CLASS1
100
AcDbLine
 10
16.40040232592034
 20
321.1713489914949
 30
0.0
 11
17.02540232592034
 21
321.1713489914949
 31
0.0
  0
LINE
  5
3CDD
330
18BE
100
AcDbEntity
  8
CLASS1
100
AcDbLine
 10
21.67540232592031
 20
324.071348991495
 30
0.0
 11
23.40040232592034
 21
324.071348991495
 31
0.0
  0
LINE
  5
3CDE
330
18BE
100
AcDbEntity
  8
CLASS1
100
AcDbLine
 10
18.60040232592027
 20
322.071348991495
 30
0.0
 11
19.60040232592027
 21
322.071348991495
 31
0.0
  0
ARC
  5
3CDF
330
18BE
100
AcDbEntity
  8
CLASS1
100
AcDbCircle
 10
19.60040232592032
 20
322.5713489914948
 30
0.0
 40
0.5
100
AcDbArc
 50
270.0
 51
0.0
  0
LINE
  5
3CE0
330
18BE
100
AcDbEntity
  8
CLASS1
100
AcDbLine
 10
21.1754023259203
 20
321.1713489914949
 30
0.0
 11
21.67540232592031
 21
321.1713489914949
 31
0.0
  0
LINE
  5
3CE1
330
18BE
100
AcDbEntity
  8
CLASS1
100
AcDbLine
 10
21.1754023259203
 20
319.9213489914948
 30
0.0
 11
21.1754023259203
 21
321.1713489914949
 31
0.0
  0
LINE
  5
3CE2
330
18BE
100
AcDbEntity
  8
CLASS1
100
AcDbLine
 10
21.67540232592031
 20
321.1713489914949
 30
0.0
 11
21.67540232592031
 21
324.071348991495
 31
0.0
  0
LINE
  5
3CE3
330
18BE
100
AcDbEntity
  8
0
100
AcDbLine
 10
23.5004023259203
 20
303.0713489914948
 30
0.0
 11
23.5004023259203
 21
301.0713489914948
 31
0.0
  0
LINE
  5
3CE4
330
18BE
100
AcDbEntity
  8
CLASS1
100
AcDbLine
 10
23.50040232592025
 20
309.071348991495
 30
0.0
 11
23.50040232592025
 21
311.071348991495
 31
0.0
  0
LINE
  5
3CE5
330
18BE
100
AcDbEntity
  8
0
100
AcDbLine
 10
23.5004023259203
 20
311.071348991495
 30
0.0
 11
23.5004023259203
 21
309.0713489914948
 31
0.0
  0
LINE
  5
3CE6
330
18BE
100
AcDbEntity
  8
0
100
AcDbLine
 10
23.5004023259203
 20
307.0713489914948
 30
0.0
 11
23.5004023259203
 21
305.0713489914948
 31
0.0
  0
LINE
  5
3CE7
330
18BE
100
AcDbEntity
  8
CLASS1
100
AcDbLine
 10
23.50040232592025
 20
317.071348991495
 30
0.0
 11
23.50040232592035
 21
318.071348991495
 31
0.0
  0
LINE
  5
3CE8
330
18BE
100
AcDbEntity
  8
CLASS1
100
AcDbLine
 10
23.50040232592025
 20
313.071348991495
 30
0.0
 11
23.50040232592025
 21
315.071348991495
 31
0.0
  0
LINE
  5
3CE9
330
18BE
100
AcDbEntity
  8
0
100
AcDbLine
 10
23.50040232592035
 20
315.0713489914948
 30
0.0
 11
23.50040232592035
 21
313.0713489914948
 31
0.0
  0
LINE
  5
3CEA
330
18BE
100
AcDbEntity
  8
0
100
AcDbLine
 10
11.50040232592036
 20
343.071348991495
 30
0.0
 11
23.50040232592035
 21
343.071348991495
 31
0.0
  0
LINE
  5
3CEB
330
18BE
100
AcDbEntity
  8
0
100
AcDbLine
 10
23.50040232592035
 20
349.0713489914949
 30
0.0
 11
11.50040232592036
 21
349.0713489914949
 31
0.0
  0
LINE
  5
3CEC
330
18BE
100
AcDbEntity
  8
0
100
AcDbLine
 10
11.50040232592036
 20
351.0713489914949
 30
0.0
 11
23.50040232592035
 21
351.0713489914949
 31
0.0
  0
LINE
  5
3CED
330
18BE
100
AcDbEntity
  8
0
100
AcDbLine
 10
23.50040232592035
 20
345.0713489914949
 30
0.0
 11
11.50040232592036
 21
345.0713489914949
 31
0.0
  0
LINE
  5
3CEE
330
18BE
100
AcDbEntity
  8
0
100
AcDbLine
 10
11.50040232592036
 20
347.0713489914949
 30
0.0
 11
23.50040232592035
 21
347.0713489914949
 31
0.0
  0
LINE
  5
3CEF
330
18BE
100
AcDbEntity
  8
CLASS1
100
AcDbLine
 10
23.50040232592035
 20
334.071348991495
 30
0.0
 11
14.60040232592026
 21
334.071348991495
 31
0.0
  0
LINE
  5
3CF0
330
18BE
100
AcDbEntity
  8
0
100
AcDbLine
 10
11.50040232592036
 20
335.071348991495
 30
0.0
 11
23.50040232592035
 21
335.0713489914948
 31
0.0
  0
LINE
  5
3CF1
330
18BE
100
AcDbEntity
  8
0
100
AcDbLine
 10
23.50040232592035
 20
337.071348991495
 30
0.0
 11
11.50040232592036
 21
337.071348991495
 31
0.0
  0
LINE
  5
3CF2
330
18BE
100
AcDbEntity
  8
0
100
AcDbLine
 10
11.50040232592036
 20
339.071348991495
 30
0.0
 11
23.50040232592035
 21
339.071348991495
 31
0.0
  0
LINE
  5
3CF3
330
18BE
100
AcDbEntity
  8
0
100
AcDbLine
 10
23.50040232592035
 20
341.071348991495
 30
0.0
 11
11.50040232592036
 21
341.071348991495
 31
0.0
  0
LINE
  5
3CF4
330
18BE
100
AcDbEntity
  8
0
100
AcDbLine
 10
11.50040232592036
 20
337.071348991495
 30
0.0
 11
11.50040232592036
 21
339.071348991495
 31
0.0
  0
LINE
  5
3CF5
330
18BE
100
AcDbEntity
  8
CLASS1
100
AcDbLine
 10
11.50040232592036
 20
333.071348991495
 30
0.0
 11
14.60040232592026
 21
333.071348991495
 31
0.0
  0
LINE
  5
3CF6
330
18BE
100
AcDbEntity
  8
CLASS1
100
AcDbLine
 10
11.50040232592036
 20
329.071348991495
 30
0.0
 11
14.60040232592026
 21
329.071348991495
 31
0.0
  0
LINE
  5
3CF7
330
18BE
100
AcDbEntity
  8
CLASS1
100
AcDbLine
 10
14.60040232592026
 20
331.071348991495
 30
0.0
 11
11.50040232592036
 21
331.071348991495
 31
0.0
  0
LINE
  5
3CF8
330
18BE
100
AcDbEntity
  8
CLASS1
100
AcDbLine
 10
14.60040232592026
 20
327.071348991495
 30
0.0
 11
11.50040232592036
 21
327.071348991495
 31
0.0
  0
LINE
  5
3CF9
330
18BE
100
AcDbEntity
  8
CLASS1
100
AcDbLine
 10
11.50040232592036
 20
325.071348991495
 30
0.0
 11
14.60040232592026
 21
325.071348991495
 31
0.0
  0
LINE
  5
3CFA
330
18BE
100
AcDbEntity
  8
0
100
AcDbLine
 10
11.50040232592036
 20
329.071348991495
 30
0.0
 11
11.50040232592036
 21
331.071348991495
 31
0.0
  0
LINE
  5
3CFB
330
18BE
100
AcDbEntity
  8
CLASS1
100
AcDbLine
 10
11.50040232592036
 20
327.071348991495
 30
0.0
 11
11.50040232592036
 21
325.071348991495
 31
0.0
  0
LINE
  5
3CFC
330
18BE
100
AcDbEntity
  8
0
100
AcDbLine
 10
11.50040232592036
 20
325.071348991495
 30
0.0
 11
11.50040232592036
 21
327.071348991495
 31
0.0
  0
LINE
  5
3CFD
330
18BE
100
AcDbEntity
  8
0
100
AcDbLine
 10
11.50040232592036
 20
333.071348991495
 30
0.0
 11
11.50040232592036
 21
335.071348991495
 31
0.0
  0
LINE
  5
3CFE
330
18BE
100
AcDbEntity
  8
CLASS1
100
AcDbLine
 10
21.1754023259203
 20
330.9713489914948
 30
0.0
 11
21.1754023259203
 21
332.2213489914949
 31
0.0
  0
LINE
  5
3CFF
330
18BE
100
AcDbEntity
  8
CLASS1
100
AcDbLine
 10
17.02540232592034
 20
330.9713489914948
 30
0.0
 11
17.02540232592034
 21
332.2213489914949
 31
0.0
  0
ARC
  5
3D00
330
18BE
100
AcDbEntity
  8
CLASS1
100
AcDbCircle
 10
18.60040232592032
 20
329.5713489914948
 30
0.0
 40
0.5
100
AcDbArc
 50
90.0
 51
180.0
  0
LINE
  5
3D01
330
18BE
100
AcDbEntity
  8
CLASS1
100
AcDbLine
 10
14.60040232592026
 20
331.071348991495
 30
0.0
 11
14.60040232592026
 21
329.071348991495
 31
0.0
  0
LINE
  5
3D02
330
18BE
100
AcDbEntity
  8
CLASS1
100
AcDbLine
 10
14.60040232592026
 20
327.071348991495
 30
0.0
 11
14.60040232592026
 21
325.071348991495
 31
0.0
  0
LINE
  5
3D03
330
18BE
100
AcDbEntity
  8
CLASS1
100
AcDbLine
 10
16.40040232592034
 20
326.6713489914948
 30
0.0
 11
18.10040232592027
 21
326.6713489914948
 31
0.0
  0
LINE
  5
3D04
330
18BE
100
AcDbEntity
  8
CLASS1
100
AcDbLine
 10
16.40040232592034
 20
330.9713489914948
 30
0.0
 11
17.02540232592034
 21
330.9713489914948
 31
0.0
  0
LINE
  5
3D05
330
18BE
100
AcDbEntity
  8
CLASS1
100
AcDbLine
 10
16.40040232592034
 20
325.4713489914948
 30
0.0
 11
18.10040232592027
 21
325.4713489914948
 31
0.0
  0
LINE
  5
3D06
330
18BE
100
AcDbEntity
  8
CLASS1
100
AcDbLine
 10
21.1754023259203
 20
330.9713489914948
 30
0.0
 11
21.70040232592028
 21
330.9713489914948
 31
0.0
  0
LINE
  5
3D07
330
18BE
100
AcDbEntity
  8
CLASS1
100
AcDbLine
 10
18.60040232592027
 20
330.071348991495
 30
0.0
 11
19.60040232592027
 21
330.071348991495
 31
0.0
  0
ARC
  5
3D08
330
18BE
100
AcDbEntity
  8
CLASS1
100
AcDbCircle
 10
19.60040232592032
 20
329.5713489914948
 30
0.0
 40
0.5
100
AcDbArc
 50
0.0
 51
90.0
  0
LINE
  5
3D09
330
18BE
100
AcDbEntity
  8
CLASS1
100
AcDbLine
 10
21.70040232592028
 20
328.071348991495
 30
0.0
 11
23.40040232592034
 21
328.071348991495
 31
0.0
  0
LINE
  5
3D0A
330
18BE
100
AcDbEntity
  8
CLASS1
100
AcDbLine
 10
20.10040232592027
 20
326.6713489914948
 30
0.0
 11
23.40040232592034
 21
326.6713489914948
 31
0.0
  0
LINE
  5
3D0B
330
18BE
100
AcDbEntity
  8
CLASS1
100
AcDbLine
 10
20.10040232592027
 20
325.4713489914948
 30
0.0
 11
23.40040232592034
 21
325.4713489914948
 31
0.0
  0
LINE
  5
3D0C
330
18BE
100
AcDbEntity
  8
CLASS1
100
AcDbLine
 10
21.70040232592028
 20
328.071348991495
 30
0.0
 11
21.70040232592028
 21
330.9713489914948
 31
0.0
  0
LINE
  5
3D0D
330
18BE
100
AcDbEntity
  8
CLASS1
100
AcDbLine
 10
17.02540232592034
 20
332.2213489914949
 30
0.0
 11
21.1754023259203
 21
332.2213489914949
 31
0.0
  0
LINE
  5
3D0E
330
18BE
100
AcDbEntity
  8
CLASS1
100
AcDbLine
 10
14.60040232592026
 20
334.071348991495
 30
0.0
 11
14.60040232592026
 21
333.071348991495
 31
0.0
  0
LINE
  5
3D0F
330
18BE
100
AcDbEntity
  8
0
100
AcDbLine
 10
11.50040232592036
 20
341.071348991495
 30
0.0
 11
11.50040232592036
 21
343.071348991495
 31
0.0
  0
LINE
  5
3D10
330
18BE
100
AcDbEntity
  8
0
100
AcDbLine
 10
11.50040232592036
 20
349.0713489914949
 30
0.0
 11
11.50040232592036
 21
351.0713489914949
 31
0.0
  0
LINE
  5
3D11
330
18BE
100
AcDbEntity
  8
0
100
AcDbLine
 10
11.50040232592036
 20
345.0713489914949
 30
0.0
 11
11.50040232592036
 21
347.0713489914949
 31
0.0
  0
LINE
  5
3D12
330
18BE
100
AcDbEntity
  8
0
100
AcDbLine
 10
23.50040232592035
 20
339.071348991495
 30
0.0
 11
23.50040232592035
 21
337.071348991495
 31
0.0
  0
LINE
  5
3D13
330
18BE
100
AcDbEntity
  8
CLASS1
100
AcDbLine
 10
23.50040232592035
 20
334.071348991495
 30
0.0
 11
23.50040232592035
 21
335.071348991495
 31
0.0
  0
LINE
  5
3D14
330
18BE
100
AcDbEntity
  8
0
100
AcDbLine
 10
23.50040232592035
 20
343.071348991495
 30
0.0
 11
23.50040232592035
 21
341.071348991495
 31
0.0
  0
LINE
  5
3D15
330
18BE
100
AcDbEntity
  8
0
100
AcDbLine
 10
23.50040232592035
 20
351.0713489914949
 30
0.0
 11
23.50040232592035
 21
349.0713489914949
 31
0.0
  0
LINE
  5
3D16
330
18BE
100
AcDbEntity
  8
0
100
AcDbLine
 10
23.50040232592035
 20
347.0713489914949
 30
0.0
 11
23.50040232592035
 21
345.0713489914949
 31
0.0
  0
LINE
  5
3D17
330
18BE
100
AcDbEntity
  8
0
100
AcDbLine
 10
90.25830147626889
 20
251.504303637948
 30
0.0
 11
90.25830147626889
 21
265.0055946379481
 31
0.0
  0
LINE
  5
3D18
330
18BE
100
AcDbEntity
  8
0
100
AcDbLine
 10
88.75830147626889
 20
265.0055946379481
 30
0.0
 11
90.25830147626889
 21
265.0055946379481
 31
0.0
  0
LINE
  5
3D19
330
18BE
100
AcDbEntity
  8
0
100
AcDbLine
 10
2.000193325920548
 20
356.6713489914949
 30
0.0
 11
33.0006113259204
 21
356.6713489914949
 31
0.0
  0
LWPOLYLINE
  5
3D1A
330
18BE
100
AcDbEntity
  8
0
100
AcDbPolyline
 90
        4
 70
     1
 43
0.0
 10
2.00019332592032
 20
358.1713489914948
 10
33.0006113259204
 20
358.1713489914948
 10
33.0006113259204
 20
356.6713489914949
 10
2.00019332592032
 20
356.6713489914949
  0
LINE
  5
3D1B
330
18BE
100
AcDbEntity
  8
0
100
AcDbLine
 10
2.000193325920548
 20
356.6713489914949
 30
0.0
 11
2.000193325920548
 21
357.6713489914948
 31
0.0
  0
ARC
  5
3D1C
330
18BE
100
AcDbEntity
  8
0
100
AcDbCircle
 10
0.9998833259204785
 20
356.6713489914951
 30
0.0
 40
1.0
100
AcDbArc
 50
90.0
 51
180.8823589999988
  0
LINE
  5
3D1D
330
18BE
100
AcDbEntity
  8
0
100
AcDbLine
 10
2.000193325920548
 20
357.6713489914948
 30
0.0
 11
0.9998833259204218
 21
357.6713489914948
 31
0.0
  0
LINE
  5
3D1E
330
18BE
100
AcDbEntity
  8
0
100
AcDbLine
 10
33.0006113259204
 20
357.6713489914948
 30
0.0
 11
34.00092232592041
 21
357.6713489914948
 31
0.0
  0
LINE
  5
3D1F
330
18BE
100
AcDbEntity
  8
0
100
AcDbLine
 10
33.0006113259204
 20
357.6713489914948
 30
0.0
 11
33.0006113259204
 21
356.6713489914949
 31
0.0
  0
ARC
  5
3D20
330
18BE
100
AcDbEntity
  8
0
100
AcDbCircle
 10
34.00092232592023
 20
356.6713489914949
 30
0.0
 40
1.0
100
AcDbArc
 50
359.1176410000012
 51
90.0
  0
LINE
  5
3D21
330
18BE
100
AcDbEntity
  8
0
100
AcDbLine
 10
163.353397331886
 20
242.8647218550031
 30
0.0
 11
156.073975476269
 21
245.3167376379477
 31
0.0
  0
LINE
  5
3D22
330
18BE
100
AcDbEntity
  8
0
100
AcDbLine
 10
156.1583014762686
 20
151.8536949788954
 30
0.0
 11
156.1583014762686
 21
169.7536949788954
 31
0.0
  0
LINE
  5
3D23
330
18BE
100
AcDbEntity
  8
0
 48
0.1
100
AcDbLine
 10
156.0739754762686
 20
144.1797216379474
 30
0.0
 11
156.1583014762686
 21
144.1797216379474
 31
0.0
  0
LINE
  5
3D24
330
18BE
100
AcDbEntity
  8
0
 48
0.1
100
AcDbLine
 10
156.0739754762689
 20
151.8536949788954
 30
0.0
 11
156.1583014762686
 21
151.8536949788954
 31
0.0
  0
LINE
  5
3D25
330
18BE
100
AcDbEntity
  8
0
100
AcDbLine
 10
157.0583014762686
 20
148.929721637948
 30
0.0
 11
157.0583014762686
 21
145.929721637948
 31
0.0
  0
LINE
  5
3D26
330
18BE
100
AcDbEntity
  8
0
100
AcDbLine
 10
157.0583014762686
 20
148.929721637948
 30
0.0
 11
156.0739754762689
 21
148.929721637948
 31
0.0
  0
LINE
  5
3D27
330
18BE
100
AcDbEntity
  8
0
100
AcDbLine
 10
157.0583014762686
 20
145.929721637948
 30
0.0
 11
156.0739754762689
 21
145.929721637948
 31
0.0
  0
LINE
  5
3D28
330
18BE
100
AcDbEntity
  8
0
100
AcDbLine
 10
156.1583014762686
 20
171.3337096379483
 30
0.0
 11
156.1583014762686
 21
184.7087096379483
 31
0.0
  0
LINE
  5
3D29
330
18BE
100
AcDbEntity
  8
0
 48
0.1
100
AcDbLine
 10
156.0739754762689
 20
169.7536949788954
 30
0.0
 11
156.1583014762686
 21
169.7536949788954
 31
0.0
  0
LINE
  5
3D2A
330
18BE
100
AcDbEntity
  8
0
 48
0.1
100
AcDbLine
 10
156.1583014762686
 20
171.3337096379483
 30
0.0
 11
156.0739754762687
 21
171.3337096379483
 31
0.0
  0
LINE
  5
3D2B
330
18BE
100
AcDbEntity
  8
0
100
AcDbLine
 10
156.1583014762686
 20
184.7087096379483
 30
0.0
 11
156.1583014762686
 21
185.3337096379483
 31
0.0
  0
LINE
  5
3D2C
330
18BE
100
AcDbEntity
  8
0
 48
0.1
100
AcDbLine
 10
156.1583014762686
 20
185.3337096379483
 30
0.0
 11
156.0739754762689
 21
185.3337096379483
 31
0.0
  0
LINE
  5
3D2D
330
18BE
100
AcDbEntity
  8
0
100
AcDbLine
 10
157.0583014762688
 20
190.0837096379483
 30
0.0
 11
157.0583014762688
 21
187.0837096379483
 31
0.0
  0
LINE
  5
3D2E
330
18BE
100
AcDbEntity
  8
0
100
AcDbLine
 10
157.0583014762688
 20
190.0837096379483
 30
0.0
 11
156.073975476269
 21
190.0837096379484
 31
0.0
  0
LINE
  5
3D2F
330
18BE
100
AcDbEntity
  8
0
100
AcDbLine
 10
157.0583014762688
 20
187.0837096379483
 30
0.0
 11
156.073975476269
 21
187.0837096379484
 31
0.0
  0
LINE
  5
3D30
330
18BE
100
AcDbEntity
  8
0
100
AcDbLine
 10
163.353397331886
 20
239.964721855003
 30
0.0
 11
159.3633014762685
 21
238.6206895667951
 31
0.0
  0
LINE
  5
3D31
330
18BE
100
AcDbEntity
  8
0
100
AcDbLine
 10
163.353397331886
 20
207.7667374208929
 30
0.0
 11
159.3633014762685
 21
209.1107697091008
 31
0.0
  0
LINE
  5
3D32
330
18BE
100
AcDbEntity
  8
0
100
AcDbLine
 10
163.353397331886
 20
204.8667374208929
 30
0.0
 11
156.073975476269
 21
202.4147216379481
 31
0.0
  0
LINE
  5
3D33
330
18BE
100
AcDbEntity
  8
0
100
AcDbLine
 10
159.3633014762685
 20
209.1107697091008
 30
0.0
 11
159.3633014762685
 21
238.6206895667951
 31
0.0
  0
LINE
  5
3D34
330
18BE
100
AcDbEntity
  8
0
 48
0.1
100
AcDbLine
 10
157.2718584866175
 20
236.6514787865293
 30
0.0
 11
159.353397331886
 21
235.4497017738848
 31
0.0
  0
LINE
  5
3D35
330
18BE
100
AcDbEntity
  8
0
 48
0.1
100
AcDbLine
 10
157.2718584866175
 20
236.6514787865293
 30
0.0
 11
159.353397331886
 21
237.8532557991738
 31
0.0
  0
LINE
  5
3D36
330
18BE
100
AcDbEntity
  8
0
100
AcDbLine
 10
163.3633014762685
 20
207.7667374208929
 30
0.0
 11
163.3633014762685
 21
204.8667374208929
 31
0.0
  0
LINE
  5
3D37
330
18BE
100
AcDbEntity
  8
0
100
AcDbLine
 10
163.353397331886
 20
204.8667374208929
 30
0.0
 11
163.353397331886
 21
207.7667374208929
 31
0.0
  0
LINE
  5
3D38
330
18BE
100
AcDbEntity
  8
0
100
AcDbLine
 10
172.5533973318859
 20
204.8667374208929
 30
0.0
 11
168.8509213392474
 21
209.8067257697664
 31
0.0
  0
LINE
  5
3D39
330
18BE
100
AcDbEntity
  8
0
100
AcDbLine
 10
172.5533973318859
 20
204.8667374208929
 30
0.0
 11
163.353397331886
 21
204.8667374208929
 31
0.0
  0
LINE
  5
3D3A
330
18BE
100
AcDbEntity
  8
0
100
AcDbLine
 10
167.7231428611379
 20
209.8067257697664
 30
0.0
 11
168.8509213392474
 21
209.8067257697664
 31
0.0
  0
LINE
  5
3D3B
330
18BE
100
AcDbEntity
  8
0
100
AcDbLine
 10
163.353397331886
 20
207.7667374208929
 30
0.0
 11
167.7231428611379
 21
207.7667374208929
 31
0.0
  0
LINE
  5
3D3C
330
18BE
100
AcDbEntity
  8
0
100
AcDbLine
 10
167.7231428611379
 20
207.7667374208929
 30
0.0
 11
167.7231428611379
 21
209.8067257697664
 31
0.0
  0
LINE
  5
3D3D
330
18BE
100
AcDbEntity
  8
0
100
AcDbLine
 10
167.7231428611379
 20
239.964721855003
 30
0.0
 11
167.7231428611379
 21
237.9247335061295
 31
0.0
  0
LINE
  5
3D3E
330
18BE
100
AcDbEntity
  8
0
100
AcDbLine
 10
172.5533973318859
 20
242.8647218550031
 30
0.0
 11
168.8509213392475
 21
237.9247335061295
 31
0.0
  0
LINE
  5
3D3F
330
18BE
100
AcDbEntity
  8
0
100
AcDbLine
 10
167.7231428611379
 20
237.9247335061295
 30
0.0
 11
168.8509213392475
 21
237.9247335061295
 31
0.0
  0
LINE
  5
3D40
330
18BE
100
AcDbEntity
  8
0
100
AcDbLine
 10
172.5533973318859
 20
242.8647218550031
 30
0.0
 11
163.353397331886
 21
242.8647218550031
 31
0.0
  0
LINE
  5
3D41
330
18BE
100
AcDbEntity
  8
0
100
AcDbLine
 10
163.3633014762685
 20
242.8647218550032
 30
0.0
 11
163.3633014762685
 21
239.964721855003
 31
0.0
  0
LINE
  5
3D42
330
18BE
100
AcDbEntity
  8
0
100
AcDbLine
 10
163.353397331886
 20
239.964721855003
 30
0.0
 11
167.7231428611379
 21
239.964721855003
 31
0.0
  0
TEXT
  5
3D7C
330
18BE
100
AcDbEntity
  8
0
100
AcDbText
 10
0.8268640334501924
 20
376.4806077866444
 30
0.0
 40
6.0
  1
ACON-C/CG-**-I-NP/PN-*-0
100
AcDbText
  0
ENDSEC
  0
SECTION
  2
OBJECTS
  0
DICTIONARY
  5
18AC
330
0
100
AcDbDictionary
  3
ACAD_GROUP
350
18AD
  3
ACAD_LAYOUT
350
18B9
  3
ACAD_MLINESTYLE
350
18B6
  3
ACAD_PLOTSETTINGS
350
18B8
  3
ACAD_PLOTSTYLENAME
350
18AE
  3
ACDBHEADERROUNDTRIPXREC
350
3D7E
  3
ACDBVARIABLEDICTIONARY
350
1F7D
  0
DICTIONARY
  5
2C6D
330
18A2
100
AcDbDictionary
280
     1
  3
ACAD_LAYERSTATES
360
2C6E
  0
DICTIONARY
  5
1FA2
330
18BE
100
AcDbDictionary
280
     1
  3
ACAD_LAYOUTSELFREF
360
3D9F
  0
DICTIONARY
  5
1FA0
330
18BA
100
AcDbDictionary
280
     1
  3
ACAD_LAYOUTSELFREF
360
3D9E
  0
DICTIONARY
  5
18AD
102
{ACAD_REACTORS
330
18AC
102
}
330
18AC
100
AcDbDictionary
  0
DICTIONARY
  5
18B9
102
{ACAD_REACTORS
330
18AC
102
}
330
18AC
100
AcDbDictionary
  0
DICTIONARY
  5
18B6
102
{ACAD_REACTORS
330
18AC
102
}
330
18AC
100
AcDbDictionary
  3
STANDARD
350
18B7
  0
DICTIONARY
  5
18B8
102
{ACAD_REACTORS
330
18AC
102
}
330
18AC
100
AcDbDictionary
  0
ACDBDICTIONARYWDFLT
  5
18AE
102
{ACAD_REACTORS
330
18AC
102
}
330
18AC
100
AcDbDictionary
281
     1
  3
Normal
350
18AF
100
AcDbDictionaryWithDefault
340
18AF
  0
DICTIONARY
  5
3D7E
102
{ACAD_REACTORS
330
18AC
102
}
330
18AC
100
AcDbDictionary
  3
CEPSNTYPE
350
3D88
  3
FINGERPRINTGUID
350
3D89
  3
HYPERLINKBASE
350
3D81
  3
INSUNITS
350
3D87
  3
LAYOUTDICT
350
3D83
  3
LWETCUNION
350
3D86
  3
PLOTSETDICT
350
3D84
  3
PLOTSTYLNAMDICT
350
3D85
  3
PSVPSCALE
350
3D8B
  3
PUCSBASE
350
3D8E
  3
PUCSORGBACK
350
3D94
  3
PUCSORGBOTTOM
350
3D90
  3
PUCSORGFRONT
350
3D93
  3
PUCSORGLEFT
350
3D91
  3
PUCSORGRIGHT
350
3D92
  3
PUCSORGTOP
350
3D8F
  3
PUCSORTHOREF
350
3D8C
  3
PUCSORTHOVIEW
350
3D8D
  3
STYLESHEET
350
3D82
  3
TSTACKALIGN
350
3D7F
  3
TSTACKSIZE
350
3D80
  3
UCSBASE
350
3D97
  3
UCSORGBACK
350
3D9D
  3
UCSORGBOTTOM
350
3D99
  3
UCSORGFRONT
350
3D9C
  3
UCSORGLEFT
350
3D9A
  3
UCSORGRIGHT
350
3D9B
  3
UCSORGTOP
350
3D98
  3
UCSORTHOREF
350
3D95
  3
UCSORTHOVIEW
350
3D96
  3
VERSIONGUID
350
3D8A
  0
DICTIONARY
  5
1F7D
102
{ACAD_REACTORS
330
18AC
102
}
330
18AC
100
AcDbDictionary
  3
DIMASSOC
350
1F7E
  0
DICTIONARY
  5
2C6E
102
{ACAD_REACTORS
330
2C6D
102
}
330
2C6D
100
AcDbDictionary
  0
XRECORD
  5
3D9F
102
{ACAD_REACTORS
330
1FA2
102
}
330
1FA2
100
AcDbXrecord
340
18BE
  0
XRECORD
  5
3D9E
102
{ACAD_REACTORS
330
1FA0
102
}
330
1FA0
100
AcDbXrecord
340
18BA
  0
MLINESTYLE
  5
18B7
102
{ACAD_REACTORS
330
18B6
102
}
330
18B6
100
AcDbMlineStyle
  2
STANDARD
 70
     0
  3

 62
   256
 51
90.0
 52
90.0
 71
     2
 49
0.5
 62
   256
  6
BYLAYER
 49
-0.5
 62
   256
  6
BYLAYER
  0
ACDBPLACEHOLDER
  5
18AF
102
{ACAD_REACTORS
330
18AE
102
}
330
18AE
100
AcDbPlaceHolder
280
     0
  0
XRECORD
  5
3D88
102
{ACAD_REACTORS
330
3D7E
102
}
330
3D7E
100
AcDbXrecord
 90
        0
  0
XRECORD
  5
3D89
102
{ACAD_REACTORS
330
3D7E
102
}
330
3D7E
100
AcDbXrecord
  1
{70A626C3-407B-472B-A88C-99D354705093}
  0
XRECORD
  5
3D81
102
{ACAD_REACTORS
330
3D7E
102
}
330
3D7E
100
AcDbXrecord
  1

  0
XRECORD
  5
3D87
102
{ACAD_REACTORS
330
3D7E
102
}
330
3D7E
100
AcDbXrecord
 90
        0
  0
XRECORD
  5
3D83
102
{ACAD_REACTORS
330
3D7E
102
}
330
3D7E
100
AcDbXrecord
340
18B9
  0
XRECORD
  5
3D86
102
{ACAD_REACTORS
330
3D7E
102
}
330
3D7E
100
AcDbXrecord
 90
    10781
  0
XRECORD
  5
3D84
102
{ACAD_REACTORS
330
3D7E
102
}
330
3D7E
100
AcDbXrecord
340
18B8
  0
XRECORD
  5
3D85
102
{ACAD_REACTORS
330
3D7E
102
}
330
3D7E
100
AcDbXrecord
340
18AE
  0
XRECORD
  5
3D8B
102
{ACAD_REACTORS
330
3D7E
102
}
330
3D7E
100
AcDbXrecord
 40
0.0
  0
XRECORD
  5
3D8E
102
{ACAD_REACTORS
330
3D7E
102
}
330
3D7E
100
AcDbXrecord
340
0
  0
XRECORD
  5
3D94
102
{ACAD_REACTORS
330
3D7E
102
}
330
3D7E
100
AcDbXrecord
 10
0.0
 20
0.0
 30
0.0
  0
XRECORD
  5
3D90
102
{ACAD_REACTORS
330
3D7E
102
}
330
3D7E
100
AcDbXrecord
 10
0.0
 20
0.0
 30
0.0
  0
XRECORD
  5
3D93
102
{ACAD_REACTORS
330
3D7E
102
}
330
3D7E
100
AcDbXrecord
 10
0.0
 20
0.0
 30
0.0
  0
XRECORD
  5
3D91
102
{ACAD_REACTORS
330
3D7E
102
}
330
3D7E
100
AcDbXrecord
 10
0.0
 20
0.0
 30
0.0
  0
XRECORD
  5
3D92
102
{ACAD_REACTORS
330
3D7E
102
}
330
3D7E
100
AcDbXrecord
 10
0.0
 20
0.0
 30
0.0
  0
XRECORD
  5
3D8F
102
{ACAD_REACTORS
330
3D7E
102
}
330
3D7E
100
AcDbXrecord
 10
0.0
 20
0.0
 30
0.0
  0
XRECORD
  5
3D8C
102
{ACAD_REACTORS
330
3D7E
102
}
330
3D7E
100
AcDbXrecord
340
0
  0
XRECORD
  5
3D8D
102
{ACAD_REACTORS
330
3D7E
102
}
330
3D7E
100
AcDbXrecord
 70
     0
  0
XRECORD
  5
3D82
102
{ACAD_REACTORS
330
3D7E
102
}
330
3D7E
100
AcDbXrecord
  1

  0
XRECORD
  5
3D7F
102
{ACAD_REACTORS
330
3D7E
102
}
330
3D7E
100
AcDbXrecord
 90
        1
  0
XRECORD
  5
3D80
102
{ACAD_REACTORS
330
3D7E
102
}
330
3D7E
100
AcDbXrecord
 90
       70
  0
XRECORD
  5
3D97
102
{ACAD_REACTORS
330
3D7E
102
}
330
3D7E
100
AcDbXrecord
340
0
  0
XRECORD
  5
3D9D
102
{ACAD_REACTORS
330
3D7E
102
}
330
3D7E
100
AcDbXrecord
 10
0.0
 20
0.0
 30
0.0
  0
XRECORD
  5
3D99
102
{ACAD_REACTORS
330
3D7E
102
}
330
3D7E
100
AcDbXrecord
 10
0.0
 20
0.0
 30
0.0
  0
XRECORD
  5
3D9C
102
{ACAD_REACTORS
330
3D7E
102
}
330
3D7E
100
AcDbXrecord
 10
0.0
 20
0.0
 30
0.0
  0
XRECORD
  5
3D9A
102
{ACAD_REACTORS
330
3D7E
102
}
330
3D7E
100
AcDbXrecord
 10
0.0
 20
0.0
 30
0.0
  0
XRECORD
  5
3D9B
102
{ACAD_REACTORS
330
3D7E
102
}
330
3D7E
100
AcDbXrecord
 10
0.0
 20
0.0
 30
0.0
  0
XRECORD
  5
3D98
102
{ACAD_REACTORS
330
3D7E
102
}
330
3D7E
100
AcDbXrecord
 10
0.0
 20
0.0
 30
0.0
  0
XRECORD
  5
3D95
102
{ACAD_REACTORS
330
3D7E
102
}
330
3D7E
100
AcDbXrecord
340
0
  0
XRECORD
  5
3D96
102
{ACAD_REACTORS
330
3D7E
102
}
330
3D7E
100
AcDbXrecord
 70
     0
  0
XRECORD
  5
3D8A
102
{ACAD_REACTORS
330
3D7E
102
}
330
3D7E
100
AcDbXrecord
  1
{9BD29C24-6102-4388-8BD6-5E41B7085F09}
  0
DICTIONARYVAR
  5
1F7E
102
{ACAD_REACTORS
330
1F7D
102
}
330
1F7D
100
DictionaryVariables
280
     0
  1
1
  0
ENDSEC
  0
EOF
