  0
SECTION
  2
HEADER
  9
$ACADVER
  1
AC1014
  9
$ACADMAINTVER
 70
     9
  9
$DWGCODEPAGE
  3
ANSI_932
  9
$INSBASE
 10
0.0
 20
0.0
 30
0.0
  9
$EXTMIN
 10
-0.2371206044185783
 20
-0.1087576640901489
 30
-0.0000000349181948
  9
$EXTMAX
 10
118.7722784592448
 20
214.5178978266483
 30
0.0000000814935747
  9
$LIMMIN
 10
0.0
 20
0.0
  9
$LIMMAX
 10
420.0
 20
297.0
  9
$ORTHOMODE
 70
     0
  9
$REGENMODE
 70
     1
  9
$FILLMODE
 70
     1
  9
$QTEXTMODE
 70
     0
  9
$MIRRTEXT
 70
     1
  9
$DRAGMODE
 70
     2
  9
$LTSCALE
 40
1.0
  9
$OSMODE
 70
    55
  9
$ATTMODE
 70
     1
  9
$TEXTSIZE
 40
2.5
  9
$TRACEWID
 40
1.0
  9
$TEXTSTYLE
  7
STANDARD
  9
$CLAYER
  8
0
  9
$CELTYPE
  6
BYLAYER
  9
$CECOLOR
 62
   256
  9
$CELTSCALE
 40
1.0
  9
$DELOBJ
 70
     1
  9
$DISPSILH
 70
     0
  9
$DIMSCALE
 40
1.0
  9
$DIMASZ
 40
2.5
  9
$DIMEXO
 40
0.625
  9
$DIMDLI
 40
3.75
  9
$DIMRND
 40
0.0
  9
$DIMDLE
 40
0.0
  9
$DIMEXE
 40
1.25
  9
$DIMTP
 40
0.0
  9
$DIMTM
 40
0.0
  9
$DIMTXT
 40
2.5
  9
$DIMCEN
 40
2.5
  9
$DIMTSZ
 40
0.0
  9
$DIMTOL
 70
     0
  9
$DIMLIM
 70
     0
  9
$DIMTIH
 70
     0
  9
$DIMTOH
 70
     0
  9
$DIMSE1
 70
     0
  9
$DIMSE2
 70
     0
  9
$DIMTAD
 70
     1
  9
$DIMZIN
 70
     8
  9
$DIMBLK
  1

  9
$DIMASO
 70
     1
  9
$DIMSHO
 70
     1
  9
$DIMPOST
  1

  9
$DIMAPOST
  1

  9
$DIMALT
 70
     0
  9
$DIMALTD
 70
     3
  9
$DIMALTF
 40
0.03937007874016
  9
$DIMLFAC
 40
1.0
  9
$DIMTOFL
 70
     1
  9
$DIMTVP
 40
0.0
  9
$DIMTIX
 70
     0
  9
$DIMSOXD
 70
     0
  9
$DIMSAH
 70
     0
  9
$DIMBLK1
  1

  9
$DIMBLK2
  1

  9
$DIMSTYLE
  2
ISO-25
  9
$DIMCLRD
 70
     0
  9
$DIMCLRE
 70
     0
  9
$DIMCLRT
 70
     0
  9
$DIMTFAC
 40
1.0
  9
$DIMGAP
 40
0.625
  9
$DIMJUST
 70
     0
  9
$DIMSD1
 70
     0
  9
$DIMSD2
 70
     0
  9
$DIMTOLJ
 70
     1
  9
$DIMTZIN
 70
     0
  9
$DIMALTZ
 70
     0
  9
$DIMALTTZ
 70
     0
  9
$DIMFIT
 70
     3
  9
$DIMUPT
 70
     0
  9
$DIMUNIT
 70
     2
  9
$DIMDEC
 70
     4
  9
$DIMTDEC
 70
     4
  9
$DIMALTU
 70
     2
  9
$DIMALTTD
 70
     2
  9
$DIMTXSTY
  7
STANDARD
  9
$DIMAUNIT
 70
     0
  9
$LUNITS
 70
     2
  9
$LUPREC
 70
     4
  9
$SKETCHINC
 40
1.0
  9
$FILLETRAD
 40
10.0
  9
$AUNITS
 70
     0
  9
$AUPREC
 70
     0
  9
$MENU
  1
.
  9
$ELEVATION
 40
0.0
  9
$PELEVATION
 40
0.0
  9
$THICKNESS
 40
0.0
  9
$LIMCHECK
 70
     0
  9
$BLIPMODE
 70
     0
  9
$CHAMFERA
 40
10.0
  9
$CHAMFERB
 40
10.0
  9
$CHAMFERC
 40
0.0
  9
$CHAMFERD
 40
0.0
  9
$SKPOLY
 70
     0
  9
$TDCREATE
 40
2453948.761042442
  9
$TDUPDATE
 40
2455040.698446909
  9
$TDINDWG
 40
0.0021205787
  9
$TDUSRTIMER
 40
0.0021202199
  9
$USRTIMER
 70
     1
  9
$ANGBASE
 50
0.0
  9
$ANGDIR
 70
     0
  9
$PDMODE
 70
     0
  9
$PDSIZE
 40
0.0
  9
$PLINEWID
 40
0.0
  9
$COORDS
 70
     0
  9
$SPLFRAME
 70
     0
  9
$SPLINETYPE
 70
     6
  9
$SPLINESEGS
 70
     8
  9
$ATTDIA
 70
     0
  9
$ATTREQ
 70
     1
  9
$HANDLING
 70
 22529
  9
$HANDSEED
  5
1441
  9
$SURFTAB1
 70
     6
  9
$SURFTAB2
 70
     6
  9
$SURFTYPE
 70
     6
  9
$SURFU
 70
     6
  9
$SURFV
 70
     6
  9
$UCSNAME
  2

  9
$UCSORG
 10
0.0
 20
0.0
 30
0.0
  9
$UCSXDIR
 10
1.0
 20
0.0
 30
0.0
  9
$UCSYDIR
 10
0.0
 20
1.0
 30
0.0
  9
$PUCSNAME
  2

  9
$PUCSORG
 10
0.0
 20
0.0
 30
0.0
  9
$PUCSXDIR
 10
1.0
 20
0.0
 30
0.0
  9
$PUCSYDIR
 10
0.0
 20
1.0
 30
0.0
  9
$USERI1
 70
     0
  9
$USERI2
 70
     0
  9
$USERI3
 70
     0
  9
$USERI4
 70
     0
  9
$USERI5
 70
     0
  9
$USERR1
 40
0.0
  9
$USERR2
 40
0.0
  9
$USERR3
 40
0.0
  9
$USERR4
 40
0.0
  9
$USERR5
 40
0.0
  9
$WORLDVIEW
 70
     1
  9
$SHADEDGE
 70
     3
  9
$SHADEDIF
 70
    70
  9
$TILEMODE
 70
     1
  9
$MAXACTVP
 70
    64
  9
$PINSBASE
 10
0.0
 20
0.0
 30
0.0
  9
$PLIMCHECK
 70
     0
  9
$PEXTMIN
 10
1.000000000000000E+20
 20
1.000000000000000E+20
 30
1.000000000000000E+20
  9
$PEXTMAX
 10
-1.000000000000000E+20
 20
-1.000000000000000E+20
 30
-1.000000000000000E+20
  9
$PLIMMIN
 10
0.0
 20
0.0
  9
$PLIMMAX
 10
420.0
 20
297.0
  9
$UNITMODE
 70
     0
  9
$VISRETAIN
 70
     1
  9
$PLINEGEN
 70
     0
  9
$PSLTSCALE
 70
     1
  9
$TREEDEPTH
 70
  3020
  9
$PICKSTYLE
 70
     1
  9
$CMLSTYLE
  2
STANDARD
  9
$CMLJUST
 70
     0
  9
$CMLSCALE
 40
1.0
  9
$PROXYGRAPHICS
 70
     1
  9
$MEASUREMENT
 70
     0
  0
ENDSEC
  0
SECTION
  2
CLASSES
  0
CLASS
  1
ACDBDICTIONARYWDFLT
  2
AcDbDictionaryWithDefault
  3
AutoCAD 2000
 90
        0
280
     0
281
     0
  0
CLASS
  1
ACDBPLACEHOLDER
  2
AcDbPlaceHolder
  3
AutoCAD 2000
 90
        0
280
     0
281
     0
  0
CLASS
  1
LAYOUT
  2
AcDbLayout
  3
AutoCAD 2000
 90
        0
280
     0
281
     0
  0
CLASS
  1
DIMASSOC
  2
AcDbDimAssoc
  3
"AcDbDimAssoc|Product Desc:     AcDim ARX App For Dimension|Company:          Autodesk, Inc.|WEB Address:      www.autodesk.com"
 90
        0
280
     0
281
     0
  0
CLASS
  1
DICTIONARYVAR
  2
AcDbDictionaryVar
  3
AutoCAD 2000
 90
        0
280
     0
281
     0
  0
CLASS
  1
LONG_TRANSACTION
  2
AcDbLongTransaction
  3
AutoCAD 2000
 90
        0
280
     0
281
     0
  0
CLASS
  1
LWPOLYLINE
  2
AcDbPolyline
  3
AutoCAD 2000
 90
        0
280
     0
281
     1
  0
CLASS
  1
HATCH
  2
AcDbHatch
  3
AutoCAD 2000
 90
        0
280
     0
281
     1
  0
CLASS
  1
XRECORD
  2
AcDbXrecord
  3
AutoCAD 2000
 90
        0
280
     0
281
     0
  0
ENDSEC
  0
SECTION
  2
TABLES
  0
TABLE
  2
VPORT
  5
7F1
330
0
100
AcDbSymbolTable
 70
     2
  0
VPORT
  5
141C
330
7F1
100
AcDbSymbolTableRecord
100
AcDbViewportTableRecord
  2
*ACTIVE
 70
     0
 10
0.0
 20
0.0
 11
1.0
 21
1.0
 12
59.26757892741314
 22
107.204570081279
 13
0.0
 23
0.0
 14
10.0
 24
10.0
 15
10.0
 25
10.0
 16
0.0
 26
0.0
 36
1.0
 17
0.0
 27
0.0
 37
0.0
 40
216.2323411926641
 41
1.504369538077403
 42
50.0
 43
0.0
 44
0.0
 50
0.0
 51
0.0
 71
     0
 72
   100
 73
     1
 74
     3
 75
     0
 76
     0
 77
     0
 78
     0
  0
ENDTAB
  0
TABLE
  2
LTYPE
  5
7EE
330
0
100
AcDbSymbolTable
 70
     2
  0
LTYPE
  5
7FC
330
7EE
100
AcDbSymbolTableRecord
100
AcDbLinetypeTableRecord
  2
BYBLOCK
 70
     0
  3

 72
    65
 73
     0
 40
0.0
  0
LTYPE
  5
7FD
330
7EE
100
AcDbSymbolTableRecord
100
AcDbLinetypeTableRecord
  2
BYLAYER
 70
     0
  3

 72
    65
 73
     0
 40
0.0
  0
LTYPE
  5
7FE
330
7EE
100
AcDbSymbolTableRecord
100
AcDbLinetypeTableRecord
  2
CONTINUOUS
 70
     0
  3
Solid line
 72
    65
 73
     0
 40
0.0
  0
LTYPE
  5
80C
330
7EE
100
AcDbSymbolTableRecord
100
AcDbLinetypeTableRecord
  2
DIVIDE
 70
     0
  3
__ . . __ . . __ . . __ . . __ . . __ . . __
 72
    65
 73
     6
 40
1.25
 49
0.0
 74
     0
 49
-0.25
 74
     0
 49
0.0
 74
     0
 49
-0.25
 74
     0
 49
0.0
 74
     0
 49
-0.25
 74
     0
  0
ENDTAB
  0
TABLE
  2
LAYER
  5
7EB
102
{ACAD_XDICTIONARY
360
DA0
102
}
330
0
100
AcDbSymbolTable
 70
     6
  0
LAYER
  5
7F9
330
7EB
100
AcDbSymbolTableRecord
100
AcDbLayerTableRecord
  2
0
 70
     0
 62
     7
  6
CONTINUOUS
  0
LAYER
  5
80D
330
7EB
100
AcDbSymbolTableRecord
100
AcDbLayerTableRecord
  2
外枠
 70
     0
 62
     7
  6
CONTINUOUS
  0
LAYER
  5
80F
330
7EB
100
AcDbSymbolTableRecord
100
AcDbLayerTableRecord
  2
DEFPOINTS
 70
     0
 62
     7
  6
CONTINUOUS
  0
LAYER
  5
811
330
7EB
100
AcDbSymbolTableRecord
100
AcDbLayerTableRecord
  2
3_表示パネル
 70
     0
 62
     7
  6
DIVIDE
  0
ENDTAB
  0
TABLE
  2
STYLE
  5
7EC
330
0
100
AcDbSymbolTable
 70
     1
  0
STYLE
  5
7FA
330
7EC
100
AcDbSymbolTableRecord
100
AcDbTextStyleTableRecord
  2
STANDARD
 70
     0
 40
0.0
 41
1.0
 50
0.0
 71
     0
 42
2.5
  3
txt
  4

  0
ENDTAB
  0
TABLE
  2
VIEW
  5
7EF
330
0
100
AcDbSymbolTable
 70
     0
  0
ENDTAB
  0
TABLE
  2
UCS
  5
7F0
330
0
100
AcDbSymbolTable
 70
     0
  0
ENDTAB
  0
TABLE
  2
APPID
  5
7F2
330
0
100
AcDbSymbolTable
 70
     1
  0
APPID
  5
7FB
330
7F2
100
AcDbSymbolTableRecord
100
AcDbRegAppTableRecord
  2
ACAD
 70
     0
  0
ENDTAB
  0
TABLE
  2
DIMSTYLE
  5
7F3
330
0
100
AcDbSymbolTable
 70
     6
  0
DIMSTYLE
105
812
330
7F3
100
AcDbSymbolTableRecord
100
AcDbDimStyleTableRecord
  2
ISO-25
 70
     0
  3

  4

  5

  6

  7

 40
1.0
 41
2.5
 42
0.625
 43
3.75
 44
1.25
 45
0.0
 46
0.0
 47
0.0
 48
0.0
140
2.5
141
2.5
142
0.0
143
0.03937007874016
144
1.0
145
0.0
146
1.0
147
0.625
 71
     0
 72
     0
 73
     0
 74
     0
 75
     0
 76
     0
 77
     1
 78
     8
170
     0
171
     3
172
     1
173
     0
174
     0
175
     0
176
     0
177
     0
178
     0
270
     2
271
     4
272
     4
273
     2
274
     3
340
7FA
275
     0
280
     0
281
     0
282
     0
283
     1
284
     8
285
     8
286
     8
287
     5
288
     0
  0
DIMSTYLE
105
813
330
7F3
100
AcDbSymbolTableRecord
100
AcDbDimStyleTableRecord
  2
STANDARD
 70
     0
  3

  4

  5

  6

  7

 40
1.0
 41
2.5
 42
0.625
 43
3.75
 44
1.25
 45
0.0
 46
0.0
 47
0.0
 48
0.0
140
2.5
141
2.5
142
0.0
143
0.0394
144
1.0
145
0.0
146
1.0
147
0.625
 71
     0
 72
     0
 73
     0
 74
     0
 75
     0
 76
     0
 77
     1
 78
     8
170
     0
171
     4
172
     1
173
     0
174
     0
175
     0
176
     0
177
     0
178
     0
270
     2
271
     4
272
     4
273
     2
274
     3
340
7FA
275
     0
280
     0
281
     0
282
     0
283
     1
284
     8
285
     8
286
     8
287
     5
288
     0
  0
ENDTAB
  0
TABLE
  2
BLOCK_RECORD
  5
7EA
330
0
100
AcDbSymbolTable
 70
    30
  0
BLOCK_RECORD
  5
807
102
{ACAD_XDICTIONARY
360
143F
102
}
330
7EA
100
AcDbSymbolTableRecord
100
AcDbBlockTableRecord
  2
*MODEL_SPACE
  0
BLOCK_RECORD
  5
803
102
{ACAD_XDICTIONARY
360
143D
102
}
330
7EA
100
AcDbSymbolTableRecord
100
AcDbBlockTableRecord
  2
*PAPER_SPACE
  0
BLOCK_RECORD
  5
85A
330
7EA
100
AcDbSymbolTableRecord
100
AcDbBlockTableRecord
  2
A$C5B427B2D
  0
ENDTAB
  0
ENDSEC
  0
SECTION
  2
BLOCKS
  0
BLOCK
  5
808
330
807
100
AcDbEntity
  8
0
100
AcDbBlockBegin
  2
*MODEL_SPACE
 70
     0
 10
0.0
 20
0.0
 30
0.0
  3
*MODEL_SPACE
  1

  0
ENDBLK
  5
809
330
807
100
AcDbEntity
  8
0
100
AcDbBlockEnd
  0
BLOCK
  5
804
330
803
100
AcDbEntity
 67
     1
  8
0
100
AcDbBlockBegin
  2
*PAPER_SPACE
 70
     0
 10
0.0
 20
0.0
 30
0.0
  3
*PAPER_SPACE
  1

  0
ENDBLK
  5
805
330
803
100
AcDbEntity
 67
     1
  8
0
100
AcDbBlockEnd
  0
BLOCK
  5
85B
330
85A
100
AcDbEntity
  8
0
100
AcDbBlockBegin
  2
A$C5B427B2D
 70
     0
 10
0.0
 20
0.0
 30
0.0
  3
A$C5B427B2D
  1

  0
LINE
  5
85C
330
85A
100
AcDbEntity
  8
外枠
100
AcDbLine
 10
12.79999953971196
 20
81.51204992800307
 30
0.0
 11
12.79999953971196
 21
64.11204992800342
 31
0.0
  0
LINE
  5
85D
330
85A
100
AcDbEntity
  8
外枠
  6
BYBLOCK
100
AcDbLine
 10
1.299999539711961
 20
64.11204992800342
 30
0.0
 11
1.299999539711961
 21
69.81258706727226
 31
0.0
  0
LINE
  5
85E
330
85A
100
AcDbEntity
  8
外枠
  6
BYBLOCK
100
AcDbLine
 10
2.099999539711233
 20
69.81258706727226
 30
0.0
 11
2.099999539711233
 21
64.91204992800361
 31
0.0
  0
LINE
  5
85F
330
85A
100
AcDbEntity
  8
外枠
  6
BYBLOCK
100
AcDbLine
 10
4.949999539709779
 20
66.51204992800467
 30
0.0
 11
4.949999539709779
 21
67.11204992800503
 31
0.0
  0
LINE
  5
860
330
85A
100
AcDbEntity
  8
外枠
  6
BYBLOCK
100
AcDbLine
 10
5.54999953971196
 20
66.51204992800467
 30
0.0
 11
5.54999953971196
 21
67.11204992800503
 31
0.0
  0
LINE
  5
861
330
85A
100
AcDbEntity
  8
外枠
  6
BYBLOCK
100
AcDbLine
 10
9.949999539709779
 20
66.51204992800467
 30
0.0
 11
9.949999539709779
 21
67.11204992800503
 31
0.0
  0
LINE
  5
862
330
85A
100
AcDbEntity
  8
外枠
  6
BYBLOCK
100
AcDbLine
 10
10.54999953971196
 20
66.51204992800467
 30
0.0
 11
10.54999953971196
 21
67.11204992800503
 31
0.0
  0
LINE
  5
863
330
85A
100
AcDbEntity
  8
外枠
  6
BYBLOCK
100
AcDbLine
 10
11.21117588501578
 20
8.795681437812392
 30
0.0
 11
11.21117588501578
 21
7.439063029480393
 31
0.0
  0
LINE
  5
864
330
85A
100
AcDbEntity
  8
外枠
  6
BYBLOCK
100
AcDbLine
 10
9.81463901235179
 20
7.439063029480393
 30
0.0
 11
9.81463901235179
 21
8.795681437812392
 31
0.0
  0
LINE
  5
865
330
85A
100
AcDbEntity
  8
外枠
100
AcDbLine
 10
12.79999953971196
 20
0.0000000710563199
 30
0.0
 11
12.79999953971196
 21
9.420000071056392
 31
0.0
  0
LINE
  5
866
330
85A
100
AcDbEntity
  8
外枠
  6
BYBLOCK
100
AcDbLine
 10
11.79999953971196
 20
1.772070772281266
 30
0.0
 11
11.79999953971196
 21
17.01207077228104
 31
0.0
  0
LINE
  5
867
330
85A
100
AcDbEntity
  8
外枠
  6
BYBLOCK
100
AcDbLine
 10
11.52679621188757
 20
9.12207077228072
 30
0.0
 11
11.52679621188757
 21
7.122070772280721
 31
0.0
  0
LINE
  5
868
330
85A
100
AcDbEntity
  8
外枠
100
AcDbLine
 10
4.894129192937497
 20
5.582070772280758
 30
0.0
 11
4.894129192937497
 21
17.01207077228104
 31
0.0
  0
LINE
  5
869
330
85A
100
AcDbEntity
  8
外枠
100
AcDbLine
 10
6.06599956700188
 20
7.921667755785391
 30
0.0
 11
6.06599956700188
 21
8.322473788776051
 31
0.0
  0
LINE
  5
86A
330
85A
100
AcDbEntity
  8
外枠
100
AcDbLine
 10
8.838447763765314
 20
7.747070772280721
 30
0.0
 11
8.838447763765314
 21
8.49707077228072
 31
0.0
  0
LINE
  5
86B
330
85A
100
AcDbEntity
  8
外枠
100
AcDbLine
 10
8.838447763765314
 20
7.444141473504942
 30
0.0
 11
8.838447763765314
 21
8.744141473505122
 31
0.0
  0
LINE
  5
86C
330
85A
100
AcDbEntity
  8
外枠
  6
BYBLOCK
100
AcDbLine
 10
5.838447763765316
 20
8.744141473505122
 30
0.0
 11
5.838447763765316
 21
7.444141473504942
 31
0.0
  0
LINE
  5
86D
330
85A
100
AcDbEntity
  8
外枠
  6
BYBLOCK
100
AcDbLine
 10
9.526796211887583
 20
7.122070772280721
 30
0.0
 11
9.526796211887583
 21
9.12207077228072
 31
0.0
  0
LINE
  5
86E
330
85A
100
AcDbEntity
  8
外枠
  6
BYBLOCK
100
AcDbLine
 10
2.799999539711961
 20
0.2720707722812676
 30
0.0
 11
2.799999539711961
 21
17.01207077228104
 31
0.0
  0
LINE
  5
86F
330
85A
100
AcDbEntity
  8
外枠
  6
BYBLOCK
100
AcDbLine
 10
5.838447763765316
 20
2.364141473505013
 30
0.0
 11
8.838447763765314
 21
2.364141473505013
 31
0.0
  0
LINE
  5
870
330
85A
100
AcDbEntity
  8
外枠
  6
BYBLOCK
100
AcDbLine
 10
5.838447763765316
 20
7.444141473504942
 30
0.0
 11
8.838447763765314
 21
7.444141473504942
 31
0.0
  0
LINE
  5
871
330
85A
100
AcDbEntity
  8
外枠
  6
BYBLOCK
100
AcDbLine
 10
5.838447763765316
 20
6.20414147350516
 30
0.0
 11
8.838447763765314
 21
6.20414147350516
 31
0.0
  0
LINE
  5
872
330
85A
100
AcDbEntity
  8
外枠
  6
BYBLOCK
100
AcDbLine
 10
5.838447763765316
 20
4.904141473504977
 30
0.0
 11
8.838447763765314
 21
4.904141473504977
 31
0.0
  0
LINE
  5
873
330
85A
100
AcDbEntity
  8
外枠
  6
BYBLOCK
100
AcDbLine
 10
5.838447763765316
 20
3.664141473505195
 30
0.0
 11
8.838447763765314
 21
3.664141473505195
 31
0.0
  0
LINE
  5
874
330
85A
100
AcDbEntity
  8
外枠
100
AcDbLine
 10
2.799999539711961
 20
0.2720707722812676
 30
0.0
 11
12.79999953971196
 21
0.2720707722812676
 31
0.0
  0
LINE
  5
875
330
85A
100
AcDbEntity
  8
外枠
100
AcDbLine
 10
12.79999953971196
 20
1.772070772281266
 30
0.0
 11
2.799999539711961
 21
1.772070772281266
 31
0.0
  0
LINE
  5
876
330
85A
100
AcDbEntity
  8
外枠
100
AcDbLine
 10
2.799999539711961
 20
1.772070772281266
 30
0.0
 11
12.79999953971196
 21
1.772070772281266
 31
0.0
  0
LINE
  5
877
330
85A
100
AcDbEntity
  8
外枠
100
AcDbLine
 10
2.799999539711961
 20
6.852070772281193
 30
0.0
 11
12.79999953971196
 21
6.852070772281193
 31
0.0
  0
LINE
  5
878
330
85A
100
AcDbEntity
  8
外枠
100
AcDbLine
 10
12.79999953971196
 20
6.852070772281193
 30
0.0
 11
2.799999539711961
 21
6.852070772281193
 31
0.0
  0
LINE
  5
879
330
85A
100
AcDbEntity
  8
外枠
100
AcDbLine
 10
2.799999539711961
 20
4.31207077228032
 30
0.0
 11
12.79999953971196
 21
4.31207077228032
 31
0.0
  0
LINE
  5
87A
330
85A
100
AcDbEntity
  8
外枠
100
AcDbLine
 10
12.79999953971196
 20
4.31207077228032
 30
0.0
 11
2.799999539711961
 21
4.31207077228032
 31
0.0
  0
LINE
  5
87B
330
85A
100
AcDbEntity
  8
外枠
100
AcDbLine
 10
4.894129192937497
 20
1.772070772281266
 30
0.0
 11
4.894129192937497
 21
5.582070772280758
 31
0.0
  0
LINE
  5
87C
330
85A
100
AcDbEntity
  8
外枠
  6
BYBLOCK
100
AcDbLine
 10
5.838447763765316
 20
3.664141473505195
 30
0.0
 11
5.838447763765316
 21
2.364141473505013
 31
0.0
  0
LINE
  5
87D
330
85A
100
AcDbEntity
  8
外枠
  6
BYBLOCK
100
AcDbLine
 10
5.838447763765316
 20
6.20414147350516
 30
0.0
 11
5.838447763765316
 21
4.904141473504977
 31
0.0
  0
LINE
  5
87E
330
85A
100
AcDbEntity
  8
外枠
  6
BYBLOCK
100
AcDbLine
 10
11.21117588501578
 20
7.439063029480393
 30
0.0
 11
9.81463901235179
 21
7.439063029480393
 31
0.0
  0
LINE
  5
87F
330
85A
100
AcDbEntity
  8
外枠
  6
BYBLOCK
100
AcDbLine
 10
11.21117588501578
 20
4.899063029480429
 30
0.0
 11
9.81463901235179
 21
4.899063029480429
 31
0.0
  0
LINE
  5
880
330
85A
100
AcDbEntity
  8
外枠
  6
BYBLOCK
100
AcDbLine
 10
9.81463901235179
 20
6.255681437812427
 30
0.0
 11
11.21117588501578
 21
6.255681437812427
 31
0.0
  0
LINE
  5
881
330
85A
100
AcDbEntity
  8
外枠
  6
BYBLOCK
100
AcDbLine
 10
11.21117588501578
 20
2.359063029480465
 30
0.0
 11
9.81463901235179
 21
2.359063029480465
 31
0.0
  0
LINE
  5
882
330
85A
100
AcDbEntity
  8
外枠
  6
BYBLOCK
100
AcDbLine
 10
9.81463901235179
 20
3.715681437812463
 30
0.0
 11
11.21117588501578
 21
3.715681437812463
 31
0.0
  0
LINE
  5
883
330
85A
100
AcDbEntity
  8
外枠
  6
BYBLOCK
100
AcDbLine
 10
11.52679621188757
 20
2.042070772280793
 30
0.0
 11
9.526796211887583
 21
2.042070772280793
 31
0.0
  0
LINE
  5
884
330
85A
100
AcDbEntity
  8
外枠
  6
BYBLOCK
100
AcDbLine
 10
11.52679621188757
 20
7.122070772280721
 30
0.0
 11
9.526796211887583
 21
7.122070772280721
 31
0.0
  0
LINE
  5
885
330
85A
100
AcDbEntity
  8
外枠
  6
BYBLOCK
100
AcDbLine
 10
9.526796211887583
 20
6.582070772280758
 30
0.0
 11
11.52679621188757
 21
6.582070772280758
 31
0.0
  0
LINE
  5
886
330
85A
100
AcDbEntity
  8
外枠
  6
BYBLOCK
100
AcDbLine
 10
11.52679621188757
 20
4.582070772280758
 30
0.0
 11
9.526796211887583
 21
4.582070772280758
 31
0.0
  0
LINE
  5
887
330
85A
100
AcDbEntity
  8
外枠
  6
BYBLOCK
100
AcDbLine
 10
9.526796211887583
 20
4.042070772280793
 30
0.0
 11
11.52679621188757
 21
4.042070772280793
 31
0.0
  0
LINE
  5
888
330
85A
100
AcDbEntity
  8
外枠
  6
BYBLOCK
100
AcDbLine
 10
9.81463901235179
 20
4.899063029480429
 30
0.0
 11
9.81463901235179
 21
6.255681437812427
 31
0.0
  0
LINE
  5
889
330
85A
100
AcDbEntity
  8
外枠
  6
BYBLOCK
100
AcDbLine
 10
9.81463901235179
 20
2.359063029480465
 30
0.0
 11
9.81463901235179
 21
3.715681437812463
 31
0.0
  0
LINE
  5
88A
330
85A
100
AcDbEntity
  8
外枠
100
AcDbLine
 10
8.838447763765314
 20
2.364141473505013
 30
0.0
 11
8.838447763765314
 21
3.664141473505195
 31
0.0
  0
ARC
  5
88B
330
85A
100
AcDbEntity
  8
外枠
100
AcDbCircle
 10
6.842736097773695
 20
3.216667755785464
 30
0.0
 40
0.6750000000000079
100
AcDbArc
 50
213.7489885958991
 51
326.2510114041007
  0
ARC
  5
88C
330
85A
100
AcDbEntity
  8
外枠
100
AcDbCircle
 10
6.842736097773695
 20
3.216667755785464
 30
0.0
 40
0.5624999999999976
100
AcDbArc
 50
221.8103148957979
 51
318.1896851042019
  0
LINE
  5
88D
330
85A
100
AcDbEntity
  8
外枠
100
AcDbLine
 10
8.838447763765314
 20
2.667070772280793
 30
0.0
 11
8.838447763765314
 21
3.417070772280793
 31
0.0
  0
LINE
  5
88E
330
85A
100
AcDbEntity
  8
外枠
  6
BYBLOCK
100
AcDbLine
 10
9.526796211887583
 20
2.042070772280793
 30
0.0
 11
9.526796211887583
 21
4.042070772280793
 31
0.0
  0
ARC
  5
88F
330
85A
100
AcDbEntity
  8
外枠
100
AcDbCircle
 10
6.842736097773695
 20
8.296667755785392
 30
0.0
 40
0.6750000000000079
100
AcDbArc
 50
213.7489885958991
 51
326.2510114041007
  0
ARC
  5
890
330
85A
100
AcDbEntity
  8
外枠
100
AcDbCircle
 10
6.842736097773695
 20
8.296667755785392
 30
0.0
 40
0.5624999999999976
100
AcDbArc
 50
221.8103148957979
 51
318.1896851042019
  0
LINE
  5
891
330
85A
100
AcDbEntity
  8
外枠
100
AcDbLine
 10
6.06599956700188
 20
7.921667755785391
 30
0.0
 11
6.423473351992242
 21
7.921667755785391
 31
0.0
  0
LINE
  5
892
330
85A
100
AcDbEntity
  8
外枠
100
AcDbLine
 10
7.40398470578907
 20
7.921667755785391
 30
0.0
 11
8.838447763765314
 21
7.921667755785391
 31
0.0
  0
LINE
  5
893
330
85A
100
AcDbEntity
  8
外枠
100
AcDbLine
 10
8.838447763765314
 20
4.904141473504977
 30
0.0
 11
8.838447763765314
 21
6.20414147350516
 31
0.0
  0
LINE
  5
894
330
85A
100
AcDbEntity
  8
外枠
100
AcDbLine
 10
6.06599956700188
 20
5.381667755785429
 30
0.0
 11
6.06599956700188
 21
5.782473788776087
 31
0.0
  0
ARC
  5
895
330
85A
100
AcDbEntity
  8
外枠
100
AcDbCircle
 10
6.842736097773695
 20
5.407473788776087
 30
0.0
 40
0.5624999999999976
100
AcDbArc
 50
41.81031489579803
 51
138.1896851042019
  0
ARC
  5
896
330
85A
100
AcDbEntity
  8
外枠
100
AcDbCircle
 10
6.842736097773695
 20
5.407473788776087
 30
0.0
 40
0.6750000000000079
100
AcDbArc
 50
33.74898859589924
 51
146.2510114041007
  0
LINE
  5
897
330
85A
100
AcDbEntity
  8
外枠
100
AcDbLine
 10
6.06599956700188
 20
5.782473788776087
 30
0.0
 11
6.423473351992242
 21
5.782473788776087
 31
0.0
  0
LINE
  5
898
330
85A
100
AcDbEntity
  8
外枠
100
AcDbLine
 10
7.40398470578907
 20
5.782473788776087
 30
0.0
 11
8.838447763765314
 21
5.782473788776087
 31
0.0
  0
LINE
  5
899
330
85A
100
AcDbEntity
  8
外枠
100
AcDbLine
 10
7.40398470578907
 20
5.381667755785429
 30
0.0
 11
8.838447763765314
 21
5.381667755785429
 31
0.0
  0
LINE
  5
89A
330
85A
100
AcDbEntity
  8
外枠
100
AcDbLine
 10
6.06599956700188
 20
5.381667755785429
 30
0.0
 11
6.423473351992242
 21
5.381667755785429
 31
0.0
  0
ARC
  5
89B
330
85A
100
AcDbEntity
  8
外枠
100
AcDbCircle
 10
6.842736097773695
 20
5.756667755785429
 30
0.0
 40
0.6750000000000079
100
AcDbArc
 50
213.7489885958991
 51
326.2510114041007
  0
ARC
  5
89C
330
85A
100
AcDbEntity
  8
外枠
100
AcDbCircle
 10
6.842736097773695
 20
5.756667755785429
 30
0.0
 40
0.5624999999999976
100
AcDbArc
 50
221.8103148957979
 51
318.1896851042019
  0
LINE
  5
89D
330
85A
100
AcDbEntity
  8
外枠
100
AcDbLine
 10
8.838447763765314
 20
5.207070772280758
 30
0.0
 11
8.838447763765314
 21
5.957070772280758
 31
0.0
  0
LINE
  5
89E
330
85A
100
AcDbEntity
  8
外枠
  6
BYBLOCK
100
AcDbLine
 10
9.526796211887583
 20
4.582070772280758
 30
0.0
 11
9.526796211887583
 21
6.582070772280758
 31
0.0
  0
LINE
  5
89F
330
85A
100
AcDbEntity
  8
外枠
100
AcDbLine
 10
6.06599956700188
 20
2.841667755785464
 30
0.0
 11
6.06599956700188
 21
3.242473788776123
 31
0.0
  0
ARC
  5
8A0
330
85A
100
AcDbEntity
  8
外枠
100
AcDbCircle
 10
6.842736097773695
 20
2.867473788776123
 30
0.0
 40
0.5624999999999976
100
AcDbArc
 50
41.81031489579803
 51
138.1896851042019
  0
ARC
  5
8A1
330
85A
100
AcDbEntity
  8
外枠
100
AcDbCircle
 10
6.842736097773695
 20
2.867473788776123
 30
0.0
 40
0.6750000000000079
100
AcDbArc
 50
33.74898859589924
 51
146.2510114041007
  0
LINE
  5
8A2
330
85A
100
AcDbEntity
  8
外枠
100
AcDbLine
 10
6.06599956700188
 20
3.242473788776123
 30
0.0
 11
6.423473351992242
 21
3.242473788776123
 31
0.0
  0
LINE
  5
8A3
330
85A
100
AcDbEntity
  8
外枠
100
AcDbLine
 10
7.40398470578907
 20
3.242473788776123
 30
0.0
 11
8.838447763765314
 21
3.242473788776123
 31
0.0
  0
LINE
  5
8A4
330
85A
100
AcDbEntity
  8
外枠
100
AcDbLine
 10
7.40398470578907
 20
2.841667755785464
 30
0.0
 11
8.838447763765314
 21
2.841667755785464
 31
0.0
  0
LINE
  5
8A5
330
85A
100
AcDbEntity
  8
外枠
100
AcDbLine
 10
6.06599956700188
 20
2.841667755785464
 30
0.0
 11
6.423473351992242
 21
2.841667755785464
 31
0.0
  0
LINE
  5
8A6
330
85A
100
AcDbEntity
  8
外枠
  6
BYBLOCK
100
AcDbLine
 10
11.21117588501578
 20
6.255681437812427
 30
0.0
 11
11.21117588501578
 21
4.899063029480429
 31
0.0
  0
LINE
  5
8A7
330
85A
100
AcDbEntity
  8
外枠
  6
BYBLOCK
100
AcDbLine
 10
11.21117588501578
 20
3.715681437812463
 30
0.0
 11
11.21117588501578
 21
2.359063029480465
 31
0.0
  0
LINE
  5
8A8
330
85A
100
AcDbEntity
  8
外枠
  6
BYBLOCK
100
AcDbLine
 10
11.52679621188757
 20
4.042070772280793
 30
0.0
 11
11.52679621188757
 21
2.042070772280793
 31
0.0
  0
LINE
  5
8A9
330
85A
100
AcDbEntity
  8
外枠
  6
BYBLOCK
100
AcDbLine
 10
11.52679621188757
 20
6.582070772280758
 30
0.0
 11
11.52679621188757
 21
4.582070772280758
 31
0.0
  0
LINE
  5
8AA
330
85A
100
AcDbEntity
  8
外枠
100
AcDbLine
 10
12.79999953971196
 20
48.61204992800344
 30
0.0
 11
12.79999953971196
 21
28.71204992800381
 31
0.0
  0
LINE
  5
8AB
330
85A
100
AcDbEntity
  8
外枠
100
AcDbLine
 10
7.79999953971196
 20
48.61204992800344
 30
0.0
 11
7.79999953971196
 21
28.71204992800381
 31
0.0
  0
LINE
  5
8AC
330
85A
100
AcDbEntity
  8
外枠
100
AcDbLine
 10
2.799999539711961
 20
9.392070772282066
 30
0.0
 11
12.79999953971196
 21
9.392070772282066
 31
0.0
  0
LINE
  5
8AD
330
85A
100
AcDbEntity
  8
外枠
100
AcDbLine
 10
12.79999953971196
 20
9.392070772282066
 30
0.0
 11
2.799999539711961
 21
9.392070772282066
 31
0.0
  0
LINE
  5
8AE
330
85A
100
AcDbEntity
  8
外枠
100
AcDbLine
 10
12.79999953971196
 20
9.392070772281158
 30
0.0
 11
2.799999539711961
 21
9.392070772281158
 31
0.0
  0
LINE
  5
8AF
330
85A
100
AcDbEntity
  8
外枠
100
AcDbLine
 10
2.799999539711961
 20
9.392070772281158
 30
0.0
 11
12.79999953971196
 21
9.392070772281158
 31
0.0
  0
LINE
  5
8B0
330
85A
100
AcDbEntity
  8
外枠
  6
BYBLOCK
100
AcDbLine
 10
5.838447763765316
 20
8.744141473505122
 30
0.0
 11
8.838447763765314
 21
8.744141473505122
 31
0.0
  0
LINE
  5
8B1
330
85A
100
AcDbEntity
  8
外枠
  6
BYBLOCK
100
AcDbLine
 10
5.838447763765316
 20
11.28414147350508
 30
0.0
 11
8.838447763765314
 21
11.28414147350508
 31
0.0
  0
LINE
  5
8B2
330
85A
100
AcDbEntity
  8
外枠
  6
BYBLOCK
100
AcDbLine
 10
5.838447763765316
 20
9.984141473504903
 30
0.0
 11
8.838447763765314
 21
9.984141473504903
 31
0.0
  0
LINE
  5
8B3
330
85A
100
AcDbEntity
  8
外枠
100
AcDbLine
 10
2.799999539711961
 20
9.392070772280249
 30
0.0
 11
12.79999953971196
 21
9.392070772280249
 31
0.0
  0
LINE
  5
8B4
330
85A
100
AcDbEntity
  8
外枠
100
AcDbLine
 10
12.79999953971196
 20
9.392070772280249
 30
0.0
 11
2.799999539711961
 21
9.392070772280249
 31
0.0
  0
LINE
  5
8B5
330
85A
100
AcDbEntity
  8
外枠
100
AcDbLine
 10
12.79999953971196
 20
9.392070772281158
 30
0.0
 11
2.799999539711961
 21
9.392070772281158
 31
0.0
  0
LINE
  5
8B6
330
85A
100
AcDbEntity
  8
外枠
100
AcDbLine
 10
2.799999539711961
 20
9.392070772281158
 30
0.0
 11
12.79999953971196
 21
9.392070772281158
 31
0.0
  0
LINE
  5
8B7
330
85A
100
AcDbEntity
  8
外枠
100
AcDbLine
 10
12.79999953971196
 20
11.93207077228112
 30
0.0
 11
2.799999539711961
 21
11.93207077228112
 31
0.0
  0
LINE
  5
8B8
330
85A
100
AcDbEntity
  8
外枠
100
AcDbLine
 10
2.799999539711961
 20
11.93207077228112
 30
0.0
 11
12.79999953971196
 21
11.93207077228112
 31
0.0
  0
LINE
  5
8B9
330
85A
100
AcDbEntity
  8
外枠
100
AcDbLine
 10
2.799999539711961
 20
17.01207077228104
 30
0.0
 11
12.79999953971196
 21
17.01207077228104
 31
0.0
  0
LINE
  5
8BA
330
85A
100
AcDbEntity
  8
外枠
100
AcDbLine
 10
12.79999953971196
 20
17.01207077228104
 30
0.0
 11
2.799999539711961
 21
17.01207077228104
 31
0.0
  0
LINE
  5
8BB
330
85A
100
AcDbEntity
  8
外枠
100
AcDbLine
 10
2.799999539711961
 20
14.47207077228108
 30
0.0
 11
12.79999953971196
 21
14.47207077228108
 31
0.0
  0
LINE
  5
8BC
330
85A
100
AcDbEntity
  8
外枠
100
AcDbLine
 10
12.79999953971196
 20
14.47207077228108
 30
0.0
 11
2.799999539711961
 21
14.47207077228108
 31
0.0
  0
LINE
  5
8BD
330
85A
100
AcDbEntity
  8
外枠
100
AcDbLine
 10
12.79999953971196
 20
11.93207077228112
 30
0.0
 11
2.799999539711961
 21
11.93207077228112
 31
0.0
  0
LINE
  5
8BE
330
85A
100
AcDbEntity
  8
外枠
100
AcDbLine
 10
2.799999539711961
 20
11.93207077228112
 30
0.0
 11
12.79999953971196
 21
11.93207077228112
 31
0.0
  0
LINE
  5
8BF
330
85A
100
AcDbEntity
  8
外枠
100
AcDbLine
 10
12.79999953971196
 20
14.47207077228108
 30
0.0
 11
2.799999539711961
 21
14.47207077228108
 31
0.0
  0
LINE
  5
8C0
330
85A
100
AcDbEntity
  8
外枠
100
AcDbLine
 10
2.799999539711961
 20
14.47207077228108
 30
0.0
 11
12.79999953971196
 21
14.47207077228108
 31
0.0
  0
LINE
  5
8C1
330
85A
100
AcDbEntity
  8
外枠
  6
BYBLOCK
100
AcDbLine
 10
5.838447763765316
 20
12.52414147350576
 30
0.0
 11
8.838447763765314
 21
12.52414147350576
 31
0.0
  0
LINE
  5
8C2
330
85A
100
AcDbEntity
  8
外枠
  6
BYBLOCK
100
AcDbLine
 10
5.838447763765316
 20
15.06414147350574
 30
0.0
 11
8.838447763765314
 21
15.06414147350574
 31
0.0
  0
LINE
  5
8C3
330
85A
100
AcDbEntity
  8
外枠
  6
BYBLOCK
100
AcDbLine
 10
5.838447763765316
 20
16.36414147350592
 30
0.0
 11
8.838447763765314
 21
16.36414147350592
 31
0.0
  0
LINE
  5
8C4
330
85A
100
AcDbEntity
  8
外枠
  6
BYBLOCK
100
AcDbLine
 10
5.838447763765316
 20
13.82414147350504
 30
0.0
 11
8.838447763765314
 21
13.82414147350504
 31
0.0
  0
LINE
  5
8C5
330
85A
100
AcDbEntity
  8
外枠
100
AcDbLine
 10
12.29999953971196
 20
27.86204992800435
 30
0.0
 11
5.349999539711233
 21
27.86204992800435
 31
0.0
  0
LINE
  5
8C6
330
85A
100
AcDbEntity
  8
外枠
100
AcDbLine
 10
5.349999539711233
 20
17.86204992800435
 30
0.0
 11
12.29999953971196
 21
17.86204992800435
 31
0.0
  0
LINE
  5
8C7
330
85A
100
AcDbEntity
  8
外枠
100
AcDbLine
 10
6.599999539711233
 20
18.4620499280038
 30
0.0
 11
5.79999953971196
 21
18.4620499280038
 31
0.0
  0
LINE
  5
8C8
330
85A
100
AcDbEntity
  8
外枠
100
AcDbLine
 10
5.79999953971196
 20
20.66204992800452
 30
0.0
 11
5.999999539710869
 21
20.66204992800452
 31
0.0
  0
LINE
  5
8C9
330
85A
100
AcDbEntity
  8
外枠
100
AcDbLine
 10
5.999999539710869
 20
20.76204992800489
 30
0.0
 11
4.999999539710869
 21
20.76204992800489
 31
0.0
  0
LINE
  5
8CA
330
85A
100
AcDbEntity
  8
外枠
100
AcDbLine
 10
4.999999539710869
 20
24.96204992800381
 30
0.0
 11
5.999999539710869
 21
24.96204992800381
 31
0.0
  0
LINE
  5
8CB
330
85A
100
AcDbEntity
  8
外枠
100
AcDbLine
 10
5.999999539710869
 20
25.06204992800417
 30
0.0
 11
5.79999953971196
 21
25.06204992800417
 31
0.0
  0
LINE
  5
8CC
330
85A
100
AcDbEntity
  8
外枠
100
AcDbLine
 10
5.79999953971196
 20
27.26204992800489
 30
0.0
 11
6.599999539711233
 21
27.26204992800489
 31
0.0
  0
LINE
  5
8CD
330
85A
100
AcDbEntity
  8
外枠
100
AcDbLine
 10
4.299999539711961
 20
25.56204992800417
 30
0.0
 11
4.299999539711961
 21
20.16204992800453
 31
0.0
  0
LINE
  5
8CE
330
85A
100
AcDbEntity
  8
外枠
100
AcDbLine
 10
4.999999539710869
 20
20.76204992800489
 30
0.0
 11
4.999999539710869
 21
24.96204992800381
 31
0.0
  0
LINE
  5
8CF
330
85A
100
AcDbEntity
  8
外枠
  6
BYBLOCK
100
AcDbLine
 10
5.838447763765316
 20
16.36414147350592
 30
0.0
 11
5.838447763765316
 21
15.06414147350574
 31
0.0
  0
LINE
  5
8D0
330
85A
100
AcDbEntity
  8
外枠
100
AcDbLine
 10
2.799999539711961
 20
9.392070772281158
 30
0.0
 11
4.299999539711961
 21
9.392070772281158
 31
0.0
  0
LINE
  5
8D1
330
85A
100
AcDbEntity
  8
外枠
100
AcDbLine
 10
4.299999539711961
 20
9.392070772281158
 30
0.0
 11
2.799999539711961
 21
9.392070772281158
 31
0.0
  0
LINE
  5
8D2
330
85A
100
AcDbEntity
  8
外枠
100
AcDbLine
 10
4.299999539711961
 20
9.392070772280249
 30
0.0
 11
2.799999539711961
 21
9.392070772280249
 31
0.0
  0
LINE
  5
8D3
330
85A
100
AcDbEntity
  8
外枠
100
AcDbLine
 10
2.799999539711961
 20
9.392070772280249
 30
0.0
 11
4.299999539711961
 21
9.392070772280249
 31
0.0
  0
LINE
  5
8D4
330
85A
100
AcDbEntity
  8
外枠
100
AcDbLine
 10
2.799999539711961
 20
11.93207077228112
 30
0.0
 11
4.299999539711961
 21
11.93207077228112
 31
0.0
  0
LINE
  5
8D5
330
85A
100
AcDbEntity
  8
外枠
100
AcDbLine
 10
4.299999539711961
 20
11.93207077228112
 30
0.0
 11
2.799999539711961
 21
11.93207077228112
 31
0.0
  0
LINE
  5
8D6
330
85A
100
AcDbEntity
  8
外枠
  6
BYBLOCK
100
AcDbLine
 10
5.838447763765316
 20
11.28414147350508
 30
0.0
 11
5.838447763765316
 21
9.984141473504903
 31
0.0
  0
LINE
  5
8D7
330
85A
100
AcDbEntity
  8
外枠
  6
BYBLOCK
100
AcDbLine
 10
5.838447763765316
 20
13.82414147350504
 30
0.0
 11
5.838447763765316
 21
12.52414147350576
 31
0.0
  0
LINE
  5
8D8
330
85A
100
AcDbEntity
  8
外枠
100
AcDbLine
 10
2.799999539711961
 20
14.47207077228108
 30
0.0
 11
4.299999539711961
 21
14.47207077228108
 31
0.0
  0
LINE
  5
8D9
330
85A
100
AcDbEntity
  8
外枠
100
AcDbLine
 10
4.299999539711961
 20
14.47207077228108
 30
0.0
 11
2.799999539711961
 21
14.47207077228108
 31
0.0
  0
LINE
  5
8DA
330
85A
100
AcDbEntity
  8
外枠
100
AcDbLine
 10
4.299999539711961
 20
20.16204992800453
 30
0.0
 11
5.349999539711233
 21
20.16204992800453
 31
0.0
  0
LINE
  5
8DB
330
85A
100
AcDbEntity
  8
外枠
100
AcDbLine
 10
4.299999539711961
 20
17.01207077228104
 30
0.0
 11
2.799999539711961
 21
17.01207077228104
 31
0.0
  0
LINE
  5
8DC
330
85A
100
AcDbEntity
  8
外枠
100
AcDbLine
 10
2.799999539711961
 20
17.01207077228104
 30
0.0
 11
4.299999539711961
 21
17.01207077228104
 31
0.0
  0
LINE
  5
8DD
330
85A
100
AcDbEntity
  8
外枠
100
AcDbLine
 10
5.349999539711233
 20
20.16204992800453
 30
0.0
 11
5.349999539711233
 21
17.86204992800435
 31
0.0
  0
LINE
  5
8DE
330
85A
100
AcDbEntity
  8
外枠
100
AcDbLine
 10
5.79999953971196
 20
18.4620499280038
 30
0.0
 11
5.79999953971196
 21
20.66204992800452
 31
0.0
  0
LINE
  5
8DF
330
85A
100
AcDbEntity
  8
外枠
100
AcDbLine
 10
5.349999539711233
 20
25.56204992800417
 30
0.0
 11
4.299999539711961
 21
25.56204992800417
 31
0.0
  0
LINE
  5
8E0
330
85A
100
AcDbEntity
  8
外枠
100
AcDbLine
 10
5.349999539711233
 20
27.86204992800435
 30
0.0
 11
5.349999539711233
 21
25.56204992800417
 31
0.0
  0
LINE
  5
8E1
330
85A
100
AcDbEntity
  8
外枠
100
AcDbLine
 10
5.79999953971196
 20
25.06204992800417
 30
0.0
 11
5.79999953971196
 21
27.26204992800489
 31
0.0
  0
LINE
  5
8E2
330
85A
100
AcDbEntity
  8
外枠
100
AcDbLine
 10
12.29999953971196
 20
19.86204992800434
 30
0.0
 11
12.29999953971196
 21
25.86204992800435
 31
0.0
  0
LINE
  5
8E3
330
85A
100
AcDbEntity
  8
外枠
100
AcDbLine
 10
11.59999953971123
 20
22.86204992800434
 30
0.0
 11
11.59999953971123
 21
18.26204992800488
 31
0.0
  0
CIRCLE
  5
8E4
330
85A
100
AcDbEntity
  8
外枠
100
AcDbCircle
 10
8.824999539711598
 20
22.86204992800434
 30
0.0
 40
0.32
  0
LINE
  5
8E5
330
85A
100
AcDbEntity
  8
外枠
100
AcDbLine
 10
12.79999953971196
 20
9.392070772280249
 30
0.0
 11
12.79999953971196
 21
17.01207077228104
 31
0.0
  0
LINE
  5
8E6
330
85A
100
AcDbEntity
  8
外枠
  6
BYBLOCK
100
AcDbLine
 10
11.21117588501578
 20
16.41568143781319
 30
0.0
 11
11.21117588501578
 21
15.05906302948118
 31
0.0
  0
LINE
  5
8E7
330
85A
100
AcDbEntity
  8
外枠
  6
BYBLOCK
100
AcDbLine
 10
9.81463901235179
 20
15.05906302948118
 30
0.0
 11
9.81463901235179
 21
16.41568143781319
 31
0.0
  0
ARC
  5
8E8
330
85A
100
AcDbEntity
  8
外枠
100
AcDbCircle
 10
6.842736097773695
 20
15.91666775578528
 30
0.0
 40
0.6750000000000079
100
AcDbArc
 50
213.7489885958991
 51
326.2510114041007
  0
LINE
  5
8E9
330
85A
100
AcDbEntity
  8
外枠
100
AcDbLine
 10
8.838447763765314
 20
15.06414147350574
 30
0.0
 11
8.838447763765314
 21
16.36414147350592
 31
0.0
  0
LINE
  5
8EA
330
85A
100
AcDbEntity
  8
外枠
  6
BYBLOCK
100
AcDbLine
 10
9.526796211887583
 20
14.74207077228152
 30
0.0
 11
9.526796211887583
 21
16.74207077228151
 31
0.0
  0
LINE
  5
8EB
330
85A
100
AcDbEntity
  8
外枠
  6
BYBLOCK
100
AcDbLine
 10
11.52679621188757
 20
16.74207077228151
 30
0.0
 11
11.52679621188757
 21
14.74207077228152
 31
0.0
  0
LINE
  5
8EC
330
85A
100
AcDbEntity
  8
外枠
  6
BYBLOCK
100
AcDbLine
 10
11.21117588501578
 20
15.05906302948118
 30
0.0
 11
9.81463901235179
 21
15.05906302948118
 31
0.0
  0
LINE
  5
8ED
330
85A
100
AcDbEntity
  8
外枠
  6
BYBLOCK
100
AcDbLine
 10
11.21117588501578
 20
12.51906302948123
 30
0.0
 11
9.81463901235179
 21
12.51906302948123
 31
0.0
  0
LINE
  5
8EE
330
85A
100
AcDbEntity
  8
外枠
  6
BYBLOCK
100
AcDbLine
 10
9.81463901235179
 20
13.87568143781322
 30
0.0
 11
11.21117588501578
 21
13.87568143781322
 31
0.0
  0
LINE
  5
8EF
330
85A
100
AcDbEntity
  8
外枠
  6
BYBLOCK
100
AcDbLine
 10
9.81463901235179
 20
8.795681437812392
 30
0.0
 11
11.21117588501578
 21
8.795681437812392
 31
0.0
  0
LINE
  5
8F0
330
85A
100
AcDbEntity
  8
外枠
  6
BYBLOCK
100
AcDbLine
 10
11.21117588501578
 20
9.979063029480355
 30
0.0
 11
9.81463901235179
 21
9.979063029480355
 31
0.0
  0
LINE
  5
8F1
330
85A
100
AcDbEntity
  8
外枠
  6
BYBLOCK
100
AcDbLine
 10
9.81463901235179
 20
11.33568143781234
 30
0.0
 11
11.21117588501578
 21
11.33568143781234
 31
0.0
  0
LINE
  5
8F2
330
85A
100
AcDbEntity
  8
外枠
100
AcDbLine
 10
8.599999539711234
 20
9.392070772281158
 30
0.0
 11
12.79999953971196
 21
9.392070772281158
 31
0.0
  0
LINE
  5
8F3
330
85A
100
AcDbEntity
  8
外枠
100
AcDbLine
 10
8.599999539711234
 20
9.392070772280249
 30
0.0
 11
12.79999953971196
 21
9.392070772280249
 31
0.0
  0
LINE
  5
8F4
330
85A
100
AcDbEntity
  8
外枠
  6
BYBLOCK
100
AcDbLine
 10
9.526796211887583
 20
9.12207077228072
 30
0.0
 11
11.52679621188757
 21
9.12207077228072
 31
0.0
  0
LINE
  5
8F5
330
85A
100
AcDbEntity
  8
外枠
  6
BYBLOCK
100
AcDbLine
 10
9.526796211887583
 20
11.66207077228067
 30
0.0
 11
11.52679621188757
 21
11.66207077228067
 31
0.0
  0
LINE
  5
8F6
330
85A
100
AcDbEntity
  8
外枠
  6
BYBLOCK
100
AcDbLine
 10
11.52679621188757
 20
9.662070772280685
 30
0.0
 11
9.526796211887583
 21
9.662070772280685
 31
0.0
  0
LINE
  5
8F7
330
85A
100
AcDbEntity
  8
外枠
100
AcDbLine
 10
8.599999539711234
 20
11.93207077228112
 30
0.0
 11
12.79999953971196
 21
11.93207077228112
 31
0.0
  0
LINE
  5
8F8
330
85A
100
AcDbEntity
  8
外枠
  6
BYBLOCK
100
AcDbLine
 10
11.52679621188757
 20
12.20207077228155
 30
0.0
 11
9.526796211887583
 21
12.20207077228155
 31
0.0
  0
LINE
  5
8F9
330
85A
100
AcDbEntity
  8
外枠
  6
BYBLOCK
100
AcDbLine
 10
11.52679621188757
 20
14.74207077228152
 30
0.0
 11
9.526796211887583
 21
14.74207077228152
 31
0.0
  0
LINE
  5
8FA
330
85A
100
AcDbEntity
  8
外枠
  6
BYBLOCK
100
AcDbLine
 10
9.526796211887583
 20
14.20207077228155
 30
0.0
 11
11.52679621188757
 21
14.20207077228155
 31
0.0
  0
LINE
  5
8FB
330
85A
100
AcDbEntity
  8
外枠
100
AcDbLine
 10
8.599999539711234
 20
14.47207077228108
 30
0.0
 11
12.79999953971196
 21
14.47207077228108
 31
0.0
  0
LINE
  5
8FC
330
85A
100
AcDbEntity
  8
外枠
  6
BYBLOCK
100
AcDbLine
 10
9.81463901235179
 20
12.51906302948123
 30
0.0
 11
9.81463901235179
 21
13.87568143781322
 31
0.0
  0
LINE
  5
8FD
330
85A
100
AcDbEntity
  8
外枠
  6
BYBLOCK
100
AcDbLine
 10
9.81463901235179
 20
9.979063029480355
 30
0.0
 11
9.81463901235179
 21
11.33568143781234
 31
0.0
  0
LINE
  5
8FE
330
85A
100
AcDbEntity
  8
外枠
100
AcDbLine
 10
7.40398470578907
 20
8.322473788776051
 30
0.0
 11
8.838447763765314
 21
8.322473788776051
 31
0.0
  0
LINE
  5
8FF
330
85A
100
AcDbEntity
  8
外枠
100
AcDbLine
 10
6.06599956700188
 20
8.322473788776051
 30
0.0
 11
6.423473351992242
 21
8.322473788776051
 31
0.0
  0
ARC
  5
900
330
85A
100
AcDbEntity
  8
外枠
100
AcDbCircle
 10
6.842736097773695
 20
7.947473788776051
 30
0.0
 40
0.6750000000000079
100
AcDbArc
 50
33.74898859589924
 51
146.2510114041007
  0
ARC
  5
901
330
85A
100
AcDbEntity
  8
外枠
100
AcDbCircle
 10
6.842736097773695
 20
7.947473788776051
 30
0.0
 40
0.5624999999999976
100
AcDbArc
 50
41.81031489579803
 51
138.1896851042019
  0
LINE
  5
902
330
85A
100
AcDbEntity
  8
外枠
  6
BYBLOCK
100
AcDbLine
 10
9.526796211887583
 20
9.662070772280685
 30
0.0
 11
9.526796211887583
 21
11.66207077228067
 31
0.0
  0
ARC
  5
903
330
85A
100
AcDbEntity
  8
外枠
100
AcDbCircle
 10
6.842736097773695
 20
10.487473788776
 30
0.0
 40
0.5624999999999976
100
AcDbArc
 50
41.81031489579803
 51
138.1896851042019
  0
ARC
  5
904
330
85A
100
AcDbEntity
  8
外枠
100
AcDbCircle
 10
6.842736097773695
 20
10.487473788776
 30
0.0
 40
0.6750000000000079
100
AcDbArc
 50
33.74898859589924
 51
146.2510114041007
  0
LINE
  5
905
330
85A
100
AcDbEntity
  8
外枠
100
AcDbLine
 10
6.06599956700188
 20
10.862473788776
 30
0.0
 11
6.423473351992242
 21
10.862473788776
 31
0.0
  0
LINE
  5
906
330
85A
100
AcDbEntity
  8
外枠
100
AcDbLine
 10
7.40398470578907
 20
10.862473788776
 30
0.0
 11
8.838447763765314
 21
10.862473788776
 31
0.0
  0
LINE
  5
907
330
85A
100
AcDbEntity
  8
外枠
100
AcDbLine
 10
8.838447763765314
 20
9.984141473504903
 30
0.0
 11
8.838447763765314
 21
11.28414147350508
 31
0.0
  0
LINE
  5
908
330
85A
100
AcDbEntity
  8
外枠
100
AcDbLine
 10
7.40398470578907
 20
10.46166775578534
 30
0.0
 11
8.838447763765314
 21
10.46166775578534
 31
0.0
  0
LINE
  5
909
330
85A
100
AcDbEntity
  8
外枠
100
AcDbLine
 10
6.06599956700188
 20
10.46166775578534
 30
0.0
 11
6.423473351992242
 21
10.46166775578534
 31
0.0
  0
ARC
  5
90A
330
85A
100
AcDbEntity
  8
外枠
100
AcDbCircle
 10
6.842736097773695
 20
10.83666775578534
 30
0.0
 40
0.5624999999999976
100
AcDbArc
 50
221.8103148957979
 51
318.1896851042019
  0
ARC
  5
90B
330
85A
100
AcDbEntity
  8
外枠
100
AcDbCircle
 10
6.842736097773695
 20
10.83666775578534
 30
0.0
 40
0.6750000000000079
100
AcDbArc
 50
213.7489885958991
 51
326.2510114041007
  0
LINE
  5
90C
330
85A
100
AcDbEntity
  8
外枠
100
AcDbLine
 10
8.838447763765314
 20
10.28707077228067
 30
0.0
 11
8.838447763765314
 21
11.03707077228067
 31
0.0
  0
LINE
  5
90D
330
85A
100
AcDbEntity
  8
外枠
100
AcDbLine
 10
6.06599956700188
 20
10.46166775578534
 30
0.0
 11
6.06599956700188
 21
10.862473788776
 31
0.0
  0
LINE
  5
90E
330
85A
100
AcDbEntity
  8
外枠
  6
BYBLOCK
100
AcDbLine
 10
9.526796211887583
 20
12.20207077228155
 30
0.0
 11
9.526796211887583
 21
14.20207077228155
 31
0.0
  0
LINE
  5
90F
330
85A
100
AcDbEntity
  8
外枠
100
AcDbLine
 10
8.838447763765314
 20
12.52414147350576
 30
0.0
 11
8.838447763765314
 21
13.82414147350504
 31
0.0
  0
LINE
  5
910
330
85A
100
AcDbEntity
  8
外枠
100
AcDbLine
 10
8.838447763765314
 20
12.82707077228155
 30
0.0
 11
8.838447763765314
 21
13.57707077228155
 31
0.0
  0
LINE
  5
911
330
85A
100
AcDbEntity
  8
外枠
100
AcDbLine
 10
6.06599956700188
 20
13.0016677557853
 30
0.0
 11
6.06599956700188
 21
13.40247378877688
 31
0.0
  0
LINE
  5
912
330
85A
100
AcDbEntity
  8
外枠
100
AcDbLine
 10
7.40398470578907
 20
13.0016677557853
 30
0.0
 11
8.838447763765314
 21
13.0016677557853
 31
0.0
  0
LINE
  5
913
330
85A
100
AcDbEntity
  8
外枠
100
AcDbLine
 10
6.06599956700188
 20
13.0016677557853
 30
0.0
 11
6.423473351992242
 21
13.0016677557853
 31
0.0
  0
ARC
  5
914
330
85A
100
AcDbEntity
  8
外枠
100
AcDbCircle
 10
6.842736097773695
 20
13.37666775578532
 30
0.0
 40
0.5624999999999976
100
AcDbArc
 50
221.8103148957979
 51
318.1896851042019
  0
ARC
  5
915
330
85A
100
AcDbEntity
  8
外枠
100
AcDbCircle
 10
6.842736097773695
 20
13.37666775578532
 30
0.0
 40
0.6750000000000079
100
AcDbArc
 50
213.7489885958991
 51
326.2510114041007
  0
ARC
  5
916
330
85A
100
AcDbEntity
  8
外枠
100
AcDbCircle
 10
6.842736097773695
 20
13.02747378877688
 30
0.0
 40
0.5624999999999976
100
AcDbArc
 50
41.81031489579803
 51
138.1896851042019
  0
ARC
  5
917
330
85A
100
AcDbEntity
  8
外枠
100
AcDbCircle
 10
6.842736097773695
 20
13.02747378877688
 30
0.0
 40
0.6750000000000079
100
AcDbArc
 50
33.74898859589924
 51
146.2510114041007
  0
LINE
  5
918
330
85A
100
AcDbEntity
  8
外枠
100
AcDbLine
 10
6.06599956700188
 20
13.40247378877688
 30
0.0
 11
6.423473351992242
 21
13.40247378877688
 31
0.0
  0
LINE
  5
919
330
85A
100
AcDbEntity
  8
外枠
100
AcDbLine
 10
7.40398470578907
 20
13.40247378877688
 30
0.0
 11
8.838447763765314
 21
13.40247378877688
 31
0.0
  0
LINE
  5
91A
330
85A
100
AcDbEntity
  8
外枠
  6
BYBLOCK
100
AcDbLine
 10
11.21117588501578
 20
13.87568143781322
 30
0.0
 11
11.21117588501578
 21
12.51906302948123
 31
0.0
  0
LINE
  5
91B
330
85A
100
AcDbEntity
  8
外枠
  6
BYBLOCK
100
AcDbLine
 10
11.21117588501578
 20
11.33568143781234
 30
0.0
 11
11.21117588501578
 21
9.979063029480355
 31
0.0
  0
LINE
  5
91C
330
85A
100
AcDbEntity
  8
外枠
  6
BYBLOCK
100
AcDbLine
 10
11.52679621188757
 20
11.66207077228067
 30
0.0
 11
11.52679621188757
 21
9.662070772280685
 31
0.0
  0
LINE
  5
91D
330
85A
100
AcDbEntity
  8
外枠
  6
BYBLOCK
100
AcDbLine
 10
11.52679621188757
 20
14.20207077228155
 30
0.0
 11
11.52679621188757
 21
12.20207077228155
 31
0.0
  0
LINE
  5
91E
330
85A
100
AcDbEntity
  8
外枠
  6
BYBLOCK
100
AcDbLine
 10
9.81463901235179
 20
16.41568143781319
 30
0.0
 11
11.21117588501578
 21
16.41568143781319
 31
0.0
  0
LINE
  5
91F
330
85A
100
AcDbEntity
  8
外枠
100
AcDbLine
 10
8.599999539711234
 20
17.01207077228104
 30
0.0
 11
12.79999953971196
 21
17.01207077228104
 31
0.0
  0
LINE
  5
920
330
85A
100
AcDbEntity
  8
外枠
  6
BYBLOCK
100
AcDbLine
 10
9.526796211887583
 20
16.74207077228151
 30
0.0
 11
11.52679621188757
 21
16.74207077228151
 31
0.0
  0
LINE
  5
921
330
85A
100
AcDbEntity
  8
外枠
100
AcDbLine
 10
11.59999953971123
 20
18.26204992800488
 30
0.0
 11
6.599999539711233
 21
18.26204992800488
 31
0.0
  0
CIRCLE
  5
922
330
85A
100
AcDbEntity
  8
外枠
100
AcDbCircle
 10
8.824999539711598
 20
20.36204992800434
 30
0.0
 40
0.32
  0
LINE
  5
923
330
85A
100
AcDbEntity
  8
外枠
100
AcDbLine
 10
6.06599956700188
 20
15.54166775578528
 30
0.0
 11
6.06599956700188
 21
15.94247378877685
 31
0.0
  0
LINE
  5
924
330
85A
100
AcDbEntity
  8
外枠
100
AcDbLine
 10
8.838447763765314
 20
15.36707077228152
 30
0.0
 11
8.838447763765314
 21
16.11707077228151
 31
0.0
  0
ARC
  5
925
330
85A
100
AcDbEntity
  8
外枠
100
AcDbCircle
 10
6.842736097773695
 20
15.91666775578528
 30
0.0
 40
0.5624999999999976
100
AcDbArc
 50
221.8103148957979
 51
318.1896851042019
  0
LINE
  5
926
330
85A
100
AcDbEntity
  8
外枠
100
AcDbLine
 10
6.06599956700188
 20
15.54166775578528
 30
0.0
 11
6.423473351992242
 21
15.54166775578528
 31
0.0
  0
LINE
  5
927
330
85A
100
AcDbEntity
  8
外枠
100
AcDbLine
 10
7.40398470578907
 20
15.54166775578528
 30
0.0
 11
8.838447763765314
 21
15.54166775578528
 31
0.0
  0
LINE
  5
928
330
85A
100
AcDbEntity
  8
外枠
100
AcDbLine
 10
7.40398470578907
 20
15.94247378877685
 30
0.0
 11
8.838447763765314
 21
15.94247378877685
 31
0.0
  0
LINE
  5
929
330
85A
100
AcDbEntity
  8
外枠
100
AcDbLine
 10
6.06599956700188
 20
15.94247378877685
 30
0.0
 11
6.423473351992242
 21
15.94247378877685
 31
0.0
  0
ARC
  5
92A
330
85A
100
AcDbEntity
  8
外枠
100
AcDbCircle
 10
6.842736097773695
 20
15.56747378877685
 30
0.0
 40
0.6750000000000079
100
AcDbArc
 50
33.74898859589924
 51
146.2510114041007
  0
ARC
  5
92B
330
85A
100
AcDbEntity
  8
外枠
100
AcDbCircle
 10
6.842736097773695
 20
15.56747378877685
 30
0.0
 40
0.5624999999999976
100
AcDbArc
 50
41.81031489579803
 51
138.1896851042019
  0
LINE
  5
92C
330
85A
100
AcDbEntity
  8
外枠
100
AcDbLine
 10
6.599999539711233
 20
18.26204992800488
 30
0.0
 11
6.599999539711233
 21
18.4620499280038
 31
0.0
  0
LINE
  5
92D
330
85A
100
AcDbEntity
  8
外枠
100
AcDbLine
 10
5.999999539710869
 20
20.66204992800452
 30
0.0
 11
5.999999539710869
 21
20.76204992800489
 31
0.0
  0
LINE
  5
92E
330
85A
100
AcDbEntity
  8
外枠
100
AcDbLine
 10
12.79999953971196
 20
17.86204992800435
 30
0.0
 11
12.79999953971196
 21
19.86204992800434
 31
0.0
  0
LINE
  5
92F
330
85A
100
AcDbEntity
  8
外枠
100
AcDbLine
 10
12.29999953971196
 20
17.86204992800435
 30
0.0
 11
12.79999953971196
 21
17.86204992800435
 31
0.0
  0
LINE
  5
930
330
85A
100
AcDbEntity
  8
外枠
100
AcDbLine
 10
12.79999953971196
 20
19.86204992800434
 30
0.0
 11
12.29999953971196
 21
19.86204992800434
 31
0.0
  0
LINE
  5
931
330
85A
100
AcDbEntity
  8
外枠
100
AcDbLine
 10
7.79999953971196
 20
28.71204992800381
 30
0.0
 11
12.79999953971196
 21
28.71204992800381
 31
0.0
  0
LINE
  5
932
330
85A
100
AcDbEntity
  8
外枠
100
AcDbLine
 10
11.59999953971123
 20
27.46204992800381
 30
0.0
 11
9.599999539711234
 21
27.46204992800381
 31
0.0
  0
LINE
  5
933
330
85A
100
AcDbEntity
  8
外枠
100
AcDbLine
 10
6.599999539711233
 20
27.46204992800381
 30
0.0
 11
8.099999539711234
 21
27.46204992800381
 31
0.0
  0
LINE
  5
934
330
85A
100
AcDbEntity
  8
外枠
100
AcDbLine
 10
8.099999539711234
 20
27.46204992800381
 30
0.0
 11
8.099999539711234
 21
27.86204992800435
 31
0.0
  0
CIRCLE
  5
935
330
85A
100
AcDbEntity
  8
外枠
100
AcDbCircle
 10
8.824999539711598
 20
25.36204992800435
 30
0.0
 40
0.32
  0
LINE
  5
936
330
85A
100
AcDbEntity
  8
外枠
100
AcDbLine
 10
9.599999539711234
 20
27.46204992800381
 30
0.0
 11
9.599999539711234
 21
27.86204992800435
 31
0.0
  0
LINE
  5
937
330
85A
100
AcDbEntity
  8
外枠
100
AcDbLine
 10
5.999999539710869
 20
24.96204992800381
 30
0.0
 11
5.999999539710869
 21
25.06204992800417
 31
0.0
  0
LINE
  5
938
330
85A
100
AcDbEntity
  8
外枠
100
AcDbLine
 10
6.599999539711233
 20
27.26204992800489
 30
0.0
 11
6.599999539711233
 21
27.36204992800435
 31
0.0
  0
LINE
  5
939
330
85A
100
AcDbEntity
  8
外枠
100
AcDbLine
 10
6.599999539711233
 20
27.36204992800435
 30
0.0
 11
6.599999539711233
 21
27.46204992800381
 31
0.0
  0
LINE
  5
93A
330
85A
100
AcDbEntity
  8
外枠
100
AcDbLine
 10
12.79999953971196
 20
25.86204992800435
 30
0.0
 11
12.79999953971196
 21
27.86204992800435
 31
0.0
  0
LINE
  5
93B
330
85A
100
AcDbEntity
  8
外枠
100
AcDbLine
 10
12.29999953971196
 20
25.86204992800435
 30
0.0
 11
12.79999953971196
 21
25.86204992800435
 31
0.0
  0
LINE
  5
93C
330
85A
100
AcDbEntity
  8
外枠
100
AcDbLine
 10
12.79999953971196
 20
27.86204992800435
 30
0.0
 11
12.29999953971196
 21
27.86204992800435
 31
0.0
  0
LINE
  5
93D
330
85A
100
AcDbEntity
  8
外枠
100
AcDbLine
 10
11.59999953971123
 20
22.86204992800434
 30
0.0
 11
11.59999953971123
 21
27.46204992800381
 31
0.0
  0
LINE
  5
93E
330
85A
100
AcDbEntity
  8
外枠
100
AcDbLine
 10
9.54999953971196
 20
36.41204992800362
 30
0.0
 11
9.54999953971196
 21
36.91204992800361
 31
0.0
  0
LINE
  5
93F
330
85A
100
AcDbEntity
  8
外枠
100
AcDbLine
 10
9.209999539711816
 20
36.75210192424606
 30
0.0
 11
9.209999539711816
 21
36.57199793176118
 31
0.0
  0
LINE
  5
940
330
85A
100
AcDbEntity
  8
外枠
100
AcDbLine
 10
9.209999539711816
 20
36.57199793176118
 30
0.0
 11
9.29999953971196
 21
36.57199793176118
 31
0.0
  0
LINE
  5
941
330
85A
100
AcDbEntity
  8
外枠
100
AcDbLine
 10
9.209999539711816
 20
36.57199793176118
 30
0.0
 11
9.29999953971196
 21
36.57199793176118
 31
0.0
  0
LINE
  5
942
330
85A
100
AcDbEntity
  8
外枠
100
AcDbLine
 10
9.209999539711816
 20
36.75210192424606
 30
0.0
 11
9.29999953971196
 21
36.75210192424606
 31
0.0
  0
LINE
  5
943
330
85A
100
AcDbEntity
  8
外枠
100
AcDbLine
 10
9.389999539712109
 20
36.75210192424606
 30
0.0
 11
9.29999953971196
 21
36.75210192424606
 31
0.0
  0
LINE
  5
944
330
85A
100
AcDbEntity
  8
外枠
100
AcDbLine
 10
9.389999539712109
 20
36.57199793176118
 30
0.0
 11
9.29999953971196
 21
36.57199793176118
 31
0.0
  0
LINE
  5
945
330
85A
100
AcDbEntity
  8
外枠
100
AcDbLine
 10
9.389999539712109
 20
36.57199793176118
 30
0.0
 11
9.29999953971196
 21
36.57199793176118
 31
0.0
  0
LINE
  5
946
330
85A
100
AcDbEntity
  8
外枠
100
AcDbLine
 10
9.389999539712109
 20
36.75210192424606
 30
0.0
 11
9.389999539712109
 21
36.57199793176118
 31
0.0
  0
LINE
  5
947
330
85A
100
AcDbEntity
  8
外枠
100
AcDbLine
 10
9.209999539711816
 20
30.75210192424605
 30
0.0
 11
9.29999953971196
 21
30.75210192424605
 31
0.0
  0
LINE
  5
948
330
85A
100
AcDbEntity
  8
外枠
100
AcDbLine
 10
9.389999539712109
 20
30.75210192424605
 30
0.0
 11
9.29999953971196
 21
30.75210192424605
 31
0.0
  0
LINE
  5
949
330
85A
100
AcDbEntity
  8
外枠
100
AcDbLine
 10
9.209999539711816
 20
30.57199793176119
 30
0.0
 11
9.29999953971196
 21
30.57199793176119
 31
0.0
  0
LINE
  5
94A
330
85A
100
AcDbEntity
  8
外枠
100
AcDbLine
 10
9.209999539711816
 20
30.57199793176119
 30
0.0
 11
9.29999953971196
 21
30.57199793176119
 31
0.0
  0
LINE
  5
94B
330
85A
100
AcDbEntity
  8
外枠
100
AcDbLine
 10
9.389999539712109
 20
30.57199793176119
 30
0.0
 11
9.29999953971196
 21
30.57199793176119
 31
0.0
  0
LINE
  5
94C
330
85A
100
AcDbEntity
  8
外枠
100
AcDbLine
 10
9.389999539712109
 20
30.57199793176119
 30
0.0
 11
9.29999953971196
 21
30.57199793176119
 31
0.0
  0
LINE
  5
94D
330
85A
100
AcDbEntity
  8
外枠
100
AcDbLine
 10
9.209999539711816
 20
30.75210192424605
 30
0.0
 11
9.209999539711816
 21
30.57199793176119
 31
0.0
  0
LINE
  5
94E
330
85A
100
AcDbEntity
  8
外枠
100
AcDbLine
 10
9.389999539712109
 20
30.75210192424605
 30
0.0
 11
9.389999539712109
 21
30.57199793176119
 31
0.0
  0
LINE
  5
94F
330
85A
100
AcDbEntity
  8
外枠
100
AcDbLine
 10
9.54999953971196
 20
30.41204992800361
 30
0.0
 11
9.54999953971196
 21
30.91204992800361
 31
0.0
  0
LINE
  5
950
330
85A
100
AcDbEntity
  8
外枠
100
AcDbLine
 10
9.54999953971196
 20
32.41204992800361
 30
0.0
 11
9.54999953971196
 21
32.91204992800361
 31
0.0
  0
LINE
  5
951
330
85A
100
AcDbEntity
  8
外枠
100
AcDbLine
 10
9.209999539711816
 20
34.57199793176119
 30
0.0
 11
9.29999953971196
 21
34.57199793176119
 31
0.0
  0
LINE
  5
952
330
85A
100
AcDbEntity
  8
外枠
100
AcDbLine
 10
9.209999539711816
 20
34.57199793176119
 30
0.0
 11
9.29999953971196
 21
34.57199793176119
 31
0.0
  0
LINE
  5
953
330
85A
100
AcDbEntity
  8
外枠
100
AcDbLine
 10
9.209999539711816
 20
34.75210192424607
 30
0.0
 11
9.29999953971196
 21
34.75210192424607
 31
0.0
  0
LINE
  5
954
330
85A
100
AcDbEntity
  8
外枠
100
AcDbLine
 10
9.389999539712109
 20
34.75210192424607
 30
0.0
 11
9.29999953971196
 21
34.75210192424607
 31
0.0
  0
LINE
  5
955
330
85A
100
AcDbEntity
  8
外枠
100
AcDbLine
 10
9.389999539712109
 20
34.57199793176119
 30
0.0
 11
9.29999953971196
 21
34.57199793176119
 31
0.0
  0
LINE
  5
956
330
85A
100
AcDbEntity
  8
外枠
100
AcDbLine
 10
9.389999539712109
 20
34.57199793176119
 30
0.0
 11
9.29999953971196
 21
34.57199793176119
 31
0.0
  0
LINE
  5
957
330
85A
100
AcDbEntity
  8
外枠
100
AcDbLine
 10
9.389999539712109
 20
34.75210192424607
 30
0.0
 11
9.389999539712109
 21
34.57199793176119
 31
0.0
  0
LINE
  5
958
330
85A
100
AcDbEntity
  8
外枠
100
AcDbLine
 10
9.54999953971196
 20
34.41204992800361
 30
0.0
 11
9.54999953971196
 21
34.91204992800361
 31
0.0
  0
LINE
  5
959
330
85A
100
AcDbEntity
  8
外枠
100
AcDbLine
 10
9.389999539712109
 20
32.75210192424607
 30
0.0
 11
9.29999953971196
 21
32.75210192424607
 31
0.0
  0
LINE
  5
95A
330
85A
100
AcDbEntity
  8
外枠
100
AcDbLine
 10
9.209999539711816
 20
32.75210192424607
 30
0.0
 11
9.29999953971196
 21
32.75210192424607
 31
0.0
  0
LINE
  5
95B
330
85A
100
AcDbEntity
  8
外枠
100
AcDbLine
 10
9.209999539711816
 20
34.75210192424607
 30
0.0
 11
9.209999539711816
 21
34.57199793176119
 31
0.0
  0
LINE
  5
95C
330
85A
100
AcDbEntity
  8
外枠
100
AcDbLine
 10
9.389999539712109
 20
32.57199793176118
 30
0.0
 11
9.29999953971196
 21
32.57199793176118
 31
0.0
  0
LINE
  5
95D
330
85A
100
AcDbEntity
  8
外枠
100
AcDbLine
 10
9.389999539712109
 20
32.57199793176118
 30
0.0
 11
9.29999953971196
 21
32.57199793176118
 31
0.0
  0
LINE
  5
95E
330
85A
100
AcDbEntity
  8
外枠
100
AcDbLine
 10
9.209999539711816
 20
32.57199793176118
 30
0.0
 11
9.29999953971196
 21
32.57199793176118
 31
0.0
  0
LINE
  5
95F
330
85A
100
AcDbEntity
  8
外枠
100
AcDbLine
 10
9.209999539711816
 20
32.57199793176118
 30
0.0
 11
9.29999953971196
 21
32.57199793176118
 31
0.0
  0
LINE
  5
960
330
85A
100
AcDbEntity
  8
外枠
100
AcDbLine
 10
9.389999539712109
 20
32.75210192424607
 30
0.0
 11
9.389999539712109
 21
32.57199793176118
 31
0.0
  0
LINE
  5
961
330
85A
100
AcDbEntity
  8
外枠
100
AcDbLine
 10
9.209999539711816
 20
32.75210192424607
 30
0.0
 11
9.209999539711816
 21
32.57199793176118
 31
0.0
  0
LINE
  5
962
330
85A
100
AcDbEntity
  8
外枠
100
AcDbLine
 10
9.04999953971196
 20
36.91204992800361
 30
0.0
 11
9.04999953971196
 21
36.41204992800362
 31
0.0
  0
LINE
  5
963
330
85A
100
AcDbEntity
  8
外枠
100
AcDbLine
 10
9.04999953971196
 20
30.91204992800361
 30
0.0
 11
9.04999953971196
 21
30.41204992800361
 31
0.0
  0
LINE
  5
964
330
85A
100
AcDbEntity
  8
外枠
100
AcDbLine
 10
9.04999953971196
 20
32.91204992800361
 30
0.0
 11
9.04999953971196
 21
32.41204992800361
 31
0.0
  0
LINE
  5
965
330
85A
100
AcDbEntity
  8
外枠
100
AcDbLine
 10
9.04999953971196
 20
34.91204992800361
 30
0.0
 11
9.04999953971196
 21
34.41204992800361
 31
0.0
  0
LINE
  5
966
330
85A
100
AcDbEntity
  8
外枠
100
AcDbLine
 10
9.04999953971196
 20
36.91204992800361
 30
0.0
 11
9.54999953971196
 21
36.91204992800361
 31
0.0
  0
LINE
  5
967
330
85A
100
AcDbEntity
  8
外枠
100
AcDbLine
 10
9.04999953971196
 20
36.41204992800362
 30
0.0
 11
9.54999953971196
 21
36.41204992800362
 31
0.0
  0
LINE
  5
968
330
85A
100
AcDbEntity
  8
外枠
100
AcDbLine
 10
9.04999953971196
 20
30.91204992800361
 30
0.0
 11
9.54999953971196
 21
30.91204992800361
 31
0.0
  0
LINE
  5
969
330
85A
100
AcDbEntity
  8
外枠
100
AcDbLine
 10
9.04999953971196
 20
30.41204992800361
 30
0.0
 11
9.54999953971196
 21
30.41204992800361
 31
0.0
  0
LINE
  5
96A
330
85A
100
AcDbEntity
  8
外枠
100
AcDbLine
 10
9.04999953971196
 20
32.41204992800361
 30
0.0
 11
9.54999953971196
 21
32.41204992800361
 31
0.0
  0
LINE
  5
96B
330
85A
100
AcDbEntity
  8
外枠
100
AcDbLine
 10
9.04999953971196
 20
34.41204992800361
 30
0.0
 11
9.54999953971196
 21
34.41204992800361
 31
0.0
  0
LINE
  5
96C
330
85A
100
AcDbEntity
  8
外枠
100
AcDbLine
 10
9.04999953971196
 20
34.91204992800361
 30
0.0
 11
9.54999953971196
 21
34.91204992800361
 31
0.0
  0
LINE
  5
96D
330
85A
100
AcDbEntity
  8
外枠
100
AcDbLine
 10
9.04999953971196
 20
32.91204992800361
 30
0.0
 11
9.54999953971196
 21
32.91204992800361
 31
0.0
  0
LINE
  5
96E
330
85A
100
AcDbEntity
  8
外枠
100
AcDbLine
 10
11.3899995397121
 20
36.75210192424606
 30
0.0
 11
11.3899995397121
 21
36.57199793176118
 31
0.0
  0
LINE
  5
96F
330
85A
100
AcDbEntity
  8
外枠
100
AcDbLine
 10
11.3899995397121
 20
36.57199793176118
 30
0.0
 11
11.29999953971196
 21
36.57199793176118
 31
0.0
  0
LINE
  5
970
330
85A
100
AcDbEntity
  8
外枠
100
AcDbLine
 10
11.3899995397121
 20
36.57199793176118
 30
0.0
 11
11.29999953971196
 21
36.57199793176118
 31
0.0
  0
LINE
  5
971
330
85A
100
AcDbEntity
  8
外枠
100
AcDbLine
 10
11.3899995397121
 20
36.75210192424606
 30
0.0
 11
11.29999953971196
 21
36.75210192424606
 31
0.0
  0
LINE
  5
972
330
85A
100
AcDbEntity
  8
外枠
100
AcDbLine
 10
11.2099995397118
 20
36.75210192424606
 30
0.0
 11
11.29999953971196
 21
36.75210192424606
 31
0.0
  0
LINE
  5
973
330
85A
100
AcDbEntity
  8
外枠
100
AcDbLine
 10
11.2099995397118
 20
36.57199793176118
 30
0.0
 11
11.29999953971196
 21
36.57199793176118
 31
0.0
  0
LINE
  5
974
330
85A
100
AcDbEntity
  8
外枠
100
AcDbLine
 10
11.2099995397118
 20
36.57199793176118
 30
0.0
 11
11.29999953971196
 21
36.57199793176118
 31
0.0
  0
LINE
  5
975
330
85A
100
AcDbEntity
  8
外枠
100
AcDbLine
 10
11.2099995397118
 20
36.75210192424606
 30
0.0
 11
11.2099995397118
 21
36.57199793176118
 31
0.0
  0
LINE
  5
976
330
85A
100
AcDbEntity
  8
外枠
100
AcDbLine
 10
11.54999953971196
 20
36.41204992800362
 30
0.0
 11
11.54999953971196
 21
36.91204992800361
 31
0.0
  0
LINE
  5
977
330
85A
100
AcDbEntity
  8
外枠
100
AcDbLine
 10
11.04999953971196
 20
36.91204992800361
 30
0.0
 11
11.04999953971196
 21
36.41204992800362
 31
0.0
  0
LINE
  5
978
330
85A
100
AcDbEntity
  8
外枠
100
AcDbLine
 10
11.04999953971196
 20
36.41204992800362
 30
0.0
 11
11.54999953971196
 21
36.41204992800362
 31
0.0
  0
LINE
  5
979
330
85A
100
AcDbEntity
  8
外枠
100
AcDbLine
 10
11.04999953971196
 20
36.91204992800361
 30
0.0
 11
11.54999953971196
 21
36.91204992800361
 31
0.0
  0
LINE
  5
97A
330
85A
100
AcDbEntity
  8
外枠
100
AcDbLine
 10
11.3899995397121
 20
30.75210192424605
 30
0.0
 11
11.29999953971196
 21
30.75210192424605
 31
0.0
  0
LINE
  5
97B
330
85A
100
AcDbEntity
  8
外枠
100
AcDbLine
 10
11.2099995397118
 20
30.75210192424605
 30
0.0
 11
11.29999953971196
 21
30.75210192424605
 31
0.0
  0
LINE
  5
97C
330
85A
100
AcDbEntity
  8
外枠
100
AcDbLine
 10
11.04999953971196
 20
30.91204992800361
 30
0.0
 11
11.54999953971196
 21
30.91204992800361
 31
0.0
  0
LINE
  5
97D
330
85A
100
AcDbEntity
  8
外枠
100
AcDbLine
 10
11.3899995397121
 20
30.57199793176119
 30
0.0
 11
11.29999953971196
 21
30.57199793176119
 31
0.0
  0
LINE
  5
97E
330
85A
100
AcDbEntity
  8
外枠
100
AcDbLine
 10
11.3899995397121
 20
30.57199793176119
 30
0.0
 11
11.29999953971196
 21
30.57199793176119
 31
0.0
  0
LINE
  5
97F
330
85A
100
AcDbEntity
  8
外枠
100
AcDbLine
 10
11.2099995397118
 20
30.57199793176119
 30
0.0
 11
11.29999953971196
 21
30.57199793176119
 31
0.0
  0
LINE
  5
980
330
85A
100
AcDbEntity
  8
外枠
100
AcDbLine
 10
11.2099995397118
 20
30.57199793176119
 30
0.0
 11
11.29999953971196
 21
30.57199793176119
 31
0.0
  0
LINE
  5
981
330
85A
100
AcDbEntity
  8
外枠
100
AcDbLine
 10
11.04999953971196
 20
30.41204992800361
 30
0.0
 11
11.54999953971196
 21
30.41204992800361
 31
0.0
  0
LINE
  5
982
330
85A
100
AcDbEntity
  8
外枠
100
AcDbLine
 10
11.3899995397121
 20
30.75210192424605
 30
0.0
 11
11.3899995397121
 21
30.57199793176119
 31
0.0
  0
LINE
  5
983
330
85A
100
AcDbEntity
  8
外枠
100
AcDbLine
 10
11.2099995397118
 20
30.75210192424605
 30
0.0
 11
11.2099995397118
 21
30.57199793176119
 31
0.0
  0
LINE
  5
984
330
85A
100
AcDbEntity
  8
外枠
100
AcDbLine
 10
11.54999953971196
 20
30.41204992800361
 30
0.0
 11
11.54999953971196
 21
30.91204992800361
 31
0.0
  0
LINE
  5
985
330
85A
100
AcDbEntity
  8
外枠
100
AcDbLine
 10
11.04999953971196
 20
30.91204992800361
 30
0.0
 11
11.04999953971196
 21
30.41204992800361
 31
0.0
  0
LINE
  5
986
330
85A
100
AcDbEntity
  8
外枠
100
AcDbLine
 10
11.54999953971196
 20
32.41204992800361
 30
0.0
 11
11.54999953971196
 21
32.91204992800361
 31
0.0
  0
LINE
  5
987
330
85A
100
AcDbEntity
  8
外枠
100
AcDbLine
 10
11.04999953971196
 20
32.91204992800361
 30
0.0
 11
11.04999953971196
 21
32.41204992800361
 31
0.0
  0
LINE
  5
988
330
85A
100
AcDbEntity
  8
外枠
100
AcDbLine
 10
11.04999953971196
 20
32.41204992800361
 30
0.0
 11
11.54999953971196
 21
32.41204992800361
 31
0.0
  0
LINE
  5
989
330
85A
100
AcDbEntity
  8
外枠
100
AcDbLine
 10
11.2099995397118
 20
32.75210192424607
 30
0.0
 11
11.29999953971196
 21
32.75210192424607
 31
0.0
  0
LINE
  5
98A
330
85A
100
AcDbEntity
  8
外枠
100
AcDbLine
 10
11.3899995397121
 20
32.75210192424607
 30
0.0
 11
11.29999953971196
 21
32.75210192424607
 31
0.0
  0
LINE
  5
98B
330
85A
100
AcDbEntity
  8
外枠
100
AcDbLine
 10
11.3899995397121
 20
34.75210192424607
 30
0.0
 11
11.3899995397121
 21
34.57199793176119
 31
0.0
  0
LINE
  5
98C
330
85A
100
AcDbEntity
  8
外枠
100
AcDbLine
 10
11.3899995397121
 20
34.57199793176119
 30
0.0
 11
11.29999953971196
 21
34.57199793176119
 31
0.0
  0
LINE
  5
98D
330
85A
100
AcDbEntity
  8
外枠
100
AcDbLine
 10
11.3899995397121
 20
34.57199793176119
 30
0.0
 11
11.29999953971196
 21
34.57199793176119
 31
0.0
  0
LINE
  5
98E
330
85A
100
AcDbEntity
  8
外枠
100
AcDbLine
 10
11.3899995397121
 20
34.75210192424607
 30
0.0
 11
11.29999953971196
 21
34.75210192424607
 31
0.0
  0
LINE
  5
98F
330
85A
100
AcDbEntity
  8
外枠
100
AcDbLine
 10
11.2099995397118
 20
34.75210192424607
 30
0.0
 11
11.29999953971196
 21
34.75210192424607
 31
0.0
  0
LINE
  5
990
330
85A
100
AcDbEntity
  8
外枠
100
AcDbLine
 10
11.2099995397118
 20
34.57199793176119
 30
0.0
 11
11.29999953971196
 21
34.57199793176119
 31
0.0
  0
LINE
  5
991
330
85A
100
AcDbEntity
  8
外枠
100
AcDbLine
 10
11.2099995397118
 20
34.57199793176119
 30
0.0
 11
11.29999953971196
 21
34.57199793176119
 31
0.0
  0
LINE
  5
992
330
85A
100
AcDbEntity
  8
外枠
100
AcDbLine
 10
11.2099995397118
 20
34.75210192424607
 30
0.0
 11
11.2099995397118
 21
34.57199793176119
 31
0.0
  0
LINE
  5
993
330
85A
100
AcDbEntity
  8
外枠
100
AcDbLine
 10
11.54999953971196
 20
34.41204992800361
 30
0.0
 11
11.54999953971196
 21
34.91204992800361
 31
0.0
  0
LINE
  5
994
330
85A
100
AcDbEntity
  8
外枠
100
AcDbLine
 10
11.04999953971196
 20
34.91204992800361
 30
0.0
 11
11.04999953971196
 21
34.41204992800361
 31
0.0
  0
LINE
  5
995
330
85A
100
AcDbEntity
  8
外枠
100
AcDbLine
 10
11.04999953971196
 20
34.91204992800361
 30
0.0
 11
11.54999953971196
 21
34.91204992800361
 31
0.0
  0
LINE
  5
996
330
85A
100
AcDbEntity
  8
外枠
100
AcDbLine
 10
11.04999953971196
 20
32.91204992800361
 30
0.0
 11
11.54999953971196
 21
32.91204992800361
 31
0.0
  0
LINE
  5
997
330
85A
100
AcDbEntity
  8
外枠
100
AcDbLine
 10
11.04999953971196
 20
34.41204992800361
 30
0.0
 11
11.54999953971196
 21
34.41204992800361
 31
0.0
  0
LINE
  5
998
330
85A
100
AcDbEntity
  8
外枠
100
AcDbLine
 10
11.2099995397118
 20
32.57199793176118
 30
0.0
 11
11.29999953971196
 21
32.57199793176118
 31
0.0
  0
LINE
  5
999
330
85A
100
AcDbEntity
  8
外枠
100
AcDbLine
 10
11.2099995397118
 20
32.57199793176118
 30
0.0
 11
11.29999953971196
 21
32.57199793176118
 31
0.0
  0
LINE
  5
99A
330
85A
100
AcDbEntity
  8
外枠
100
AcDbLine
 10
11.3899995397121
 20
32.57199793176118
 30
0.0
 11
11.29999953971196
 21
32.57199793176118
 31
0.0
  0
LINE
  5
99B
330
85A
100
AcDbEntity
  8
外枠
100
AcDbLine
 10
11.3899995397121
 20
32.57199793176118
 30
0.0
 11
11.29999953971196
 21
32.57199793176118
 31
0.0
  0
LINE
  5
99C
330
85A
100
AcDbEntity
  8
外枠
100
AcDbLine
 10
11.2099995397118
 20
32.75210192424607
 30
0.0
 11
11.2099995397118
 21
32.57199793176118
 31
0.0
  0
LINE
  5
99D
330
85A
100
AcDbEntity
  8
外枠
100
AcDbLine
 10
11.3899995397121
 20
32.75210192424607
 30
0.0
 11
11.3899995397121
 21
32.57199793176118
 31
0.0
  0
LINE
  5
99E
330
85A
100
AcDbEntity
  8
外枠
  6
BYBLOCK
100
AcDbLine
 10
1.299999539711961
 20
64.11204992800342
 30
0.0
 11
12.79999953971196
 21
64.11204992800342
 31
0.0
  0
LINE
  5
99F
330
85A
100
AcDbEntity
  8
外枠
  6
BYBLOCK
100
AcDbLine
 10
2.099999539711233
 20
64.91204992800361
 30
0.0
 11
12.79999953971196
 21
64.91204992800361
 31
0.0
  0
CIRCLE
  5
9A0
330
85A
100
AcDbEntity
  8
外枠
  6
CONTINUOUS
 62
     7
100
AcDbCircle
 10
6.399741539710475
 20
56.36177950417936
 30
0.0
 40
4.448565999999999
  0
CIRCLE
  5
9A1
330
85A
100
AcDbEntity
  8
外枠
  6
CONTINUOUS
 62
     7
100
AcDbCircle
 10
6.399999539710505
 20
56.36177950417936
 30
0.0
 40
5.029838999999999
  0
CIRCLE
  5
9A2
330
85A
100
AcDbEntity
  8
外枠
  6
CONTINUOUS
 62
     7
100
AcDbCircle
 10
6.399999539710505
 20
56.36177950417936
 30
0.0
 40
5.029838999999999
  0
CIRCLE
  5
9A3
330
85A
100
AcDbEntity
  8
外枠
  6
CONTINUOUS
 62
     7
100
AcDbCircle
 10
6.399741539710475
 20
56.36177950417936
 30
0.0
 40
4.448565999999999
  0
LINE
  5
9A4
330
85A
100
AcDbEntity
  8
外枠
100
AcDbLine
 10
-0.0000004602909485
 20
49.36204992800345
 30
0.0
 11
12.79999953971014
 21
49.36204992800345
 31
0.0
  0
LINE
  5
9A5
330
85A
100
AcDbEntity
  8
外枠
100
AcDbLine
 10
-0.0000004602909485
 20
63.36204992800343
 30
0.0
 11
12.79999953971014
 21
63.36204992800343
 31
0.0
  0
LINE
  5
9A6
330
85A
100
AcDbEntity
  8
外枠
100
AcDbLine
 10
-0.0000004602909485
 20
63.36204992800343
 30
0.0
 11
-0.0000004602909485
 21
49.36204992800345
 31
0.0
  0
LINE
  5
9A7
330
85A
100
AcDbEntity
  8
外枠
  6
CONTINUOUS
 62
     7
100
AcDbLine
 10
4.282988539710231
 20
55.28897650418024
 30
0.0
 11
4.664016539710019
 21
54.85144950418021
 31
0.0
  0
LINE
  5
9A8
330
85A
100
AcDbEntity
  8
外枠
  6
CONTINUOUS
 62
     7
100
AcDbLine
 10
4.282988539710231
 20
53.82102150418018
 30
0.0
 11
4.664016539710019
 21
54.25872050418025
 31
0.0
  0
LINE
  5
9A9
330
85A
100
AcDbEntity
  8
外枠
  6
CONTINUOUS
 62
     7
100
AcDbLine
 10
4.282988539710231
 20
58.97264450417992
 30
0.0
 11
4.664016539710019
 21
58.53511750417988
 31
0.0
  0
LINE
  5
9AA
330
85A
100
AcDbEntity
  8
外枠
  6
CONTINUOUS
 62
     7
100
AcDbLine
 10
4.282988539710231
 20
57.50503450418023
 30
0.0
 11
4.664016539710019
 21
57.94256150418028
 31
0.0
  0
LINE
  5
9AB
330
85A
100
AcDbEntity
  8
外枠
  6
CONTINUOUS
 62
     7
100
AcDbLine
 10
4.282988539710231
 20
57.13072450417917
 30
0.0
 11
4.664016539710019
 21
56.69336950417914
 31
0.0
  0
LINE
  5
9AC
330
85A
100
AcDbEntity
  8
外枠
  6
CONTINUOUS
 62
     7
100
AcDbLine
 10
4.282988539710231
 20
55.66276950417909
 30
0.0
 11
4.664016539710019
 21
56.10064150417953
 31
0.0
  0
LINE
  5
9AD
330
85A
100
AcDbEntity
  8
外枠
  6
CONTINUOUS
 62
     7
100
AcDbLine
 10
4.28264453970837
 20
55.66276950418
 30
0.0
 11
5.644662539709996
 21
55.66276950418
 31
0.0
  0
LINE
  5
9AE
330
85A
100
AcDbEntity
  8
外枠
  6
CONTINUOUS
 62
     7
100
AcDbLine
 10
4.28264453970837
 20
57.13072450418008
 30
0.0
 11
4.28264453970837
 21
55.66276950418
 31
0.0
  0
LINE
  5
9AF
330
85A
100
AcDbEntity
  8
外枠
  6
CONTINUOUS
 62
     7
100
AcDbLine
 10
5.644662539709996
 20
57.13072450418008
 30
0.0
 11
4.28264453970837
 21
57.13072450418008
 31
0.0
  0
LINE
  5
9B0
330
85A
100
AcDbEntity
  8
外枠
  6
CONTINUOUS
 62
     7
100
AcDbLine
 10
5.644662539709996
 20
55.66276950418
 30
0.0
 11
5.644662539709996
 21
57.13072450418008
 31
0.0
  0
LINE
  5
9B1
330
85A
100
AcDbEntity
  8
外枠
  6
CONTINUOUS
 62
     7
100
AcDbLine
 10
4.663671539709639
 20
56.1006415041802
 30
0.0
 11
5.644662539709996
 21
56.1006415041802
 31
0.0
  0
LINE
  5
9B2
330
85A
100
AcDbEntity
  8
外枠
  6
CONTINUOUS
 62
     7
100
AcDbLine
 10
4.663671539709639
 20
56.69336950418006
 30
0.0
 11
4.663671539709639
 21
56.1006415041802
 31
0.0
  0
LINE
  5
9B3
330
85A
100
AcDbEntity
  8
外枠
  6
CONTINUOUS
 62
     7
100
AcDbLine
 10
5.644662539709996
 20
56.69336950418006
 30
0.0
 11
4.663671539709639
 21
56.69336950418006
 31
0.0
  0
LINE
  5
9B4
330
85A
100
AcDbEntity
  8
外枠
  6
CONTINUOUS
 62
     7
100
AcDbLine
 10
5.644662539709996
 20
56.1006415041802
 30
0.0
 11
5.644662539709996
 21
56.69336950418006
 31
0.0
  0
LINE
  5
9B5
330
85A
100
AcDbEntity
  8
外枠
  6
CONTINUOUS
 62
     7
100
AcDbLine
 10
4.28264453970837
 20
57.50503450418023
 30
0.0
 11
5.644662539709996
 21
57.50503450418023
 31
0.0
  0
LINE
  5
9B6
330
85A
100
AcDbEntity
  8
外枠
  6
CONTINUOUS
 62
     7
100
AcDbLine
 10
4.28264453970837
 20
58.97298950418029
 30
0.0
 11
4.28264453970837
 21
57.50503450418023
 31
0.0
  0
LINE
  5
9B7
330
85A
100
AcDbEntity
  8
外枠
  6
CONTINUOUS
 62
     7
100
AcDbLine
 10
5.644662539709996
 20
58.97298950418029
 30
0.0
 11
4.28264453970837
 21
58.97298950418029
 31
0.0
  0
LINE
  5
9B8
330
85A
100
AcDbEntity
  8
外枠
  6
CONTINUOUS
 62
     7
100
AcDbLine
 10
5.644662539709996
 20
57.50503450418023
 30
0.0
 11
5.644662539709996
 21
58.97298950418029
 31
0.0
  0
LINE
  5
9B9
330
85A
100
AcDbEntity
  8
外枠
  6
CONTINUOUS
 62
     7
100
AcDbLine
 10
4.663671539709639
 20
57.94256150418028
 30
0.0
 11
5.644662539709996
 21
57.94256150418028
 31
0.0
  0
LINE
  5
9BA
330
85A
100
AcDbEntity
  8
外枠
  6
CONTINUOUS
 62
     7
100
AcDbLine
 10
4.663671539709639
 20
58.5351175041801
 30
0.0
 11
4.663671539709639
 21
57.94256150418028
 31
0.0
  0
LINE
  5
9BB
330
85A
100
AcDbEntity
  8
外枠
  6
CONTINUOUS
 62
     7
100
AcDbLine
 10
5.644662539709996
 20
58.5351175041801
 30
0.0
 11
4.663671539709639
 21
58.5351175041801
 31
0.0
  0
LINE
  5
9BC
330
85A
100
AcDbEntity
  8
外枠
  6
CONTINUOUS
 62
     7
100
AcDbLine
 10
5.644662539709996
 20
57.94256150418028
 30
0.0
 11
5.644662539709996
 21
58.5351175041801
 31
0.0
  0
LINE
  5
9BD
330
85A
100
AcDbEntity
  8
外枠
  6
CONTINUOUS
 62
     7
100
AcDbLine
 10
1.742230539709225
 20
55.62762950418004
 30
0.0
 11
3.661665539709018
 21
55.62762950418004
 31
0.0
  0
LINE
  5
9BE
330
85A
100
AcDbEntity
  8
外枠
  6
CONTINUOUS
 62
     7
100
AcDbLine
 10
1.742230539709225
 20
57.09541250418009
 30
0.0
 11
1.742230539709225
 21
55.62762950418004
 31
0.0
  0
LINE
  5
9BF
330
85A
100
AcDbEntity
  8
外枠
  6
CONTINUOUS
 62
     7
100
AcDbLine
 10
3.661665539709018
 20
57.09541250418009
 30
0.0
 11
1.742230539709225
 21
57.09541250418009
 31
0.0
  0
LINE
  5
9C0
330
85A
100
AcDbEntity
  8
外枠
  6
CONTINUOUS
 62
     7
100
AcDbLine
 10
3.661665539709018
 20
55.62762950418004
 30
0.0
 11
3.661665539709018
 21
57.09541250418009
 31
0.0
  0
LINE
  5
9C1
330
85A
100
AcDbEntity
  8
外枠
  6
CONTINUOUS
 62
     7
100
AcDbLine
 10
1.742230539709225
 20
55.62762950418004
 30
0.0
 11
3.661665539709018
 21
55.62762950418004
 31
0.0
  0
LINE
  5
9C2
330
85A
100
AcDbEntity
  8
外枠
  6
CONTINUOUS
 62
     7
100
AcDbLine
 10
1.742230539709225
 20
57.09541250418009
 30
0.0
 11
1.742230539709225
 21
55.62762950418004
 31
0.0
  0
LINE
  5
9C3
330
85A
100
AcDbEntity
  8
外枠
  6
CONTINUOUS
 62
     7
100
AcDbLine
 10
3.661665539709018
 20
57.09541250418009
 30
0.0
 11
1.742230539709225
 21
57.09541250418009
 31
0.0
  0
LINE
  5
9C4
330
85A
100
AcDbEntity
  8
外枠
  6
CONTINUOUS
 62
     7
100
AcDbLine
 10
3.661665539709018
 20
55.62762950418004
 30
0.0
 11
3.661665539709018
 21
57.09541250418009
 31
0.0
  0
LINE
  5
9C5
330
85A
100
AcDbEntity
  8
外枠
  6
CONTINUOUS
 62
     7
100
AcDbLine
 10
4.28264453970837
 20
53.82102150418018
 30
0.0
 11
5.644662539709996
 21
53.82102150418018
 31
0.0
  0
LINE
  5
9C6
330
85A
100
AcDbEntity
  8
外枠
  6
CONTINUOUS
 62
     7
100
AcDbLine
 10
4.28264453970837
 20
55.28897650418024
 30
0.0
 11
4.28264453970837
 21
53.82102150418018
 31
0.0
  0
LINE
  5
9C7
330
85A
100
AcDbEntity
  8
外枠
  6
CONTINUOUS
 62
     7
100
AcDbLine
 10
5.644662539709996
 20
55.28897650418024
 30
0.0
 11
4.28264453970837
 21
55.28897650418024
 31
0.0
  0
LINE
  5
9C8
330
85A
100
AcDbEntity
  8
外枠
  6
CONTINUOUS
 62
     7
100
AcDbLine
 10
5.644662539709996
 20
53.82102150418018
 30
0.0
 11
5.644662539709996
 21
55.28897650418024
 31
0.0
  0
LINE
  5
9C9
330
85A
100
AcDbEntity
  8
外枠
  6
CONTINUOUS
 62
     7
100
AcDbLine
 10
4.663671539709639
 20
54.25872050418025
 30
0.0
 11
5.644662539709996
 21
54.25872050418025
 31
0.0
  0
LINE
  5
9CA
330
85A
100
AcDbEntity
  8
外枠
  6
CONTINUOUS
 62
     7
100
AcDbLine
 10
4.663671539709639
 20
54.85144950418021
 30
0.0
 11
4.663671539709639
 21
54.25872050418025
 31
0.0
  0
LINE
  5
9CB
330
85A
100
AcDbEntity
  8
外枠
  6
CONTINUOUS
 62
     7
100
AcDbLine
 10
5.644662539709996
 20
54.85144950418021
 30
0.0
 11
4.663671539709639
 21
54.85144950418021
 31
0.0
  0
LINE
  5
9CC
330
85A
100
AcDbEntity
  8
外枠
  6
CONTINUOUS
 62
     7
100
AcDbLine
 10
5.644662539709996
 20
54.25872050418025
 30
0.0
 11
5.644662539709996
 21
54.85144950418021
 31
0.0
  0
LINE
  5
9CD
330
85A
100
AcDbEntity
  8
外枠
  6
BYBLOCK
100
AcDbLine
 10
3.969170668195829
 20
64.91204992800361
 30
0.0
 11
3.969170668195829
 21
64.11204992800342
 31
0.0
  0
LINE
  5
9CE
330
85A
100
AcDbEntity
  8
外枠
  6
BYBLOCK
100
AcDbLine
 10
4.949999539709779
 20
66.51204992800467
 30
0.0
 11
5.54999953971196
 21
66.51204992800467
 31
0.0
  0
LINE
  5
9CF
330
85A
100
AcDbEntity
  8
外枠
100
AcDbLine
 10
12.79999953971014
 20
63.36204992800343
 30
0.0
 11
12.79999953971014
 21
49.36204992800345
 31
0.0
  0
LINE
  5
9D0
330
85A
100
AcDbEntity
  8
外枠
100
AcDbLine
 10
9.54999953971196
 20
44.41204992800361
 30
0.0
 11
9.54999953971196
 21
44.91204992800361
 31
0.0
  0
LINE
  5
9D1
330
85A
100
AcDbEntity
  8
外枠
100
AcDbLine
 10
9.04999953971196
 20
44.91204992800361
 30
0.0
 11
9.04999953971196
 21
44.41204992800361
 31
0.0
  0
LINE
  5
9D2
330
85A
100
AcDbEntity
  8
外枠
100
AcDbLine
 10
9.389999539712109
 20
44.75210192424606
 30
0.0
 11
9.389999539712109
 21
44.57199793176118
 31
0.0
  0
LINE
  5
9D3
330
85A
100
AcDbEntity
  8
外枠
100
AcDbLine
 10
9.209999539711816
 20
44.75210192424606
 30
0.0
 11
9.209999539711816
 21
44.57199793176118
 31
0.0
  0
LINE
  5
9D4
330
85A
100
AcDbEntity
  8
外枠
100
AcDbLine
 10
11.54999953971196
 20
44.41204992800361
 30
0.0
 11
11.54999953971196
 21
44.91204992800361
 31
0.0
  0
LINE
  5
9D5
330
85A
100
AcDbEntity
  8
外枠
100
AcDbLine
 10
11.04999953971196
 20
44.91204992800361
 30
0.0
 11
11.04999953971196
 21
44.41204992800361
 31
0.0
  0
LINE
  5
9D6
330
85A
100
AcDbEntity
  8
外枠
100
AcDbLine
 10
11.2099995397118
 20
44.75210192424606
 30
0.0
 11
11.2099995397118
 21
44.57199793176118
 31
0.0
  0
LINE
  5
9D7
330
85A
100
AcDbEntity
  8
外枠
100
AcDbLine
 10
11.3899995397121
 20
44.75210192424606
 30
0.0
 11
11.3899995397121
 21
44.57199793176118
 31
0.0
  0
LINE
  5
9D8
330
85A
100
AcDbEntity
  8
外枠
100
AcDbLine
 10
9.389999539712109
 20
44.57199793176118
 30
0.0
 11
9.29999953971196
 21
44.57199793176118
 31
0.0
  0
LINE
  5
9D9
330
85A
100
AcDbEntity
  8
外枠
100
AcDbLine
 10
9.389999539712109
 20
44.57199793176118
 30
0.0
 11
9.29999953971196
 21
44.57199793176118
 31
0.0
  0
LINE
  5
9DA
330
85A
100
AcDbEntity
  8
外枠
100
AcDbLine
 10
9.209999539711816
 20
44.57199793176118
 30
0.0
 11
9.29999953971196
 21
44.57199793176118
 31
0.0
  0
LINE
  5
9DB
330
85A
100
AcDbEntity
  8
外枠
100
AcDbLine
 10
9.209999539711816
 20
44.57199793176118
 30
0.0
 11
9.29999953971196
 21
44.57199793176118
 31
0.0
  0
LINE
  5
9DC
330
85A
100
AcDbEntity
  8
外枠
100
AcDbLine
 10
9.04999953971196
 20
44.41204992800361
 30
0.0
 11
9.54999953971196
 21
44.41204992800361
 31
0.0
  0
LINE
  5
9DD
330
85A
100
AcDbEntity
  8
外枠
100
AcDbLine
 10
9.54999953971196
 20
42.41204992800361
 30
0.0
 11
9.54999953971196
 21
42.91204992800362
 31
0.0
  0
LINE
  5
9DE
330
85A
100
AcDbEntity
  8
外枠
100
AcDbLine
 10
9.04999953971196
 20
42.91204992800362
 30
0.0
 11
9.04999953971196
 21
42.41204992800361
 31
0.0
  0
LINE
  5
9DF
330
85A
100
AcDbEntity
  8
外枠
100
AcDbLine
 10
9.389999539712109
 20
42.57199793176119
 30
0.0
 11
9.29999953971196
 21
42.57199793176119
 31
0.0
  0
LINE
  5
9E0
330
85A
100
AcDbEntity
  8
外枠
100
AcDbLine
 10
9.389999539712109
 20
42.57199793176119
 30
0.0
 11
9.29999953971196
 21
42.57199793176119
 31
0.0
  0
LINE
  5
9E1
330
85A
100
AcDbEntity
  8
外枠
100
AcDbLine
 10
9.209999539711816
 20
42.57199793176119
 30
0.0
 11
9.29999953971196
 21
42.57199793176119
 31
0.0
  0
LINE
  5
9E2
330
85A
100
AcDbEntity
  8
外枠
100
AcDbLine
 10
9.209999539711816
 20
42.57199793176119
 30
0.0
 11
9.29999953971196
 21
42.57199793176119
 31
0.0
  0
LINE
  5
9E3
330
85A
100
AcDbEntity
  8
外枠
100
AcDbLine
 10
9.389999539712109
 20
42.75210192424606
 30
0.0
 11
9.29999953971196
 21
42.75210192424606
 31
0.0
  0
LINE
  5
9E4
330
85A
100
AcDbEntity
  8
外枠
100
AcDbLine
 10
9.209999539711816
 20
42.75210192424606
 30
0.0
 11
9.29999953971196
 21
42.75210192424606
 31
0.0
  0
LINE
  5
9E5
330
85A
100
AcDbEntity
  8
外枠
100
AcDbLine
 10
9.389999539712109
 20
42.75210192424606
 30
0.0
 11
9.389999539712109
 21
42.57199793176119
 31
0.0
  0
LINE
  5
9E6
330
85A
100
AcDbEntity
  8
外枠
100
AcDbLine
 10
9.209999539711816
 20
42.75210192424606
 30
0.0
 11
9.209999539711816
 21
42.57199793176119
 31
0.0
  0
LINE
  5
9E7
330
85A
100
AcDbEntity
  8
外枠
100
AcDbLine
 10
9.04999953971196
 20
42.41204992800361
 30
0.0
 11
9.54999953971196
 21
42.41204992800361
 31
0.0
  0
LINE
  5
9E8
330
85A
100
AcDbEntity
  8
外枠
100
AcDbLine
 10
9.04999953971196
 20
42.91204992800362
 30
0.0
 11
9.54999953971196
 21
42.91204992800362
 31
0.0
  0
LINE
  5
9E9
330
85A
100
AcDbEntity
  8
外枠
100
AcDbLine
 10
9.54999953971196
 20
38.41204992800362
 30
0.0
 11
9.54999953971196
 21
38.91204992800362
 31
0.0
  0
LINE
  5
9EA
330
85A
100
AcDbEntity
  8
外枠
100
AcDbLine
 10
9.209999539711816
 20
38.75210192424606
 30
0.0
 11
9.209999539711816
 21
38.57199793176119
 31
0.0
  0
LINE
  5
9EB
330
85A
100
AcDbEntity
  8
外枠
100
AcDbLine
 10
9.209999539711816
 20
38.57199793176119
 30
0.0
 11
9.29999953971196
 21
38.57199793176119
 31
0.0
  0
LINE
  5
9EC
330
85A
100
AcDbEntity
  8
外枠
100
AcDbLine
 10
9.209999539711816
 20
38.57199793176119
 30
0.0
 11
9.29999953971196
 21
38.57199793176119
 31
0.0
  0
LINE
  5
9ED
330
85A
100
AcDbEntity
  8
外枠
100
AcDbLine
 10
9.209999539711816
 20
38.75210192424606
 30
0.0
 11
9.29999953971196
 21
38.75210192424606
 31
0.0
  0
LINE
  5
9EE
330
85A
100
AcDbEntity
  8
外枠
100
AcDbLine
 10
9.389999539712109
 20
38.75210192424606
 30
0.0
 11
9.29999953971196
 21
38.75210192424606
 31
0.0
  0
LINE
  5
9EF
330
85A
100
AcDbEntity
  8
外枠
100
AcDbLine
 10
9.389999539712109
 20
38.57199793176119
 30
0.0
 11
9.29999953971196
 21
38.57199793176119
 31
0.0
  0
LINE
  5
9F0
330
85A
100
AcDbEntity
  8
外枠
100
AcDbLine
 10
9.389999539712109
 20
38.57199793176119
 30
0.0
 11
9.29999953971196
 21
38.57199793176119
 31
0.0
  0
LINE
  5
9F1
330
85A
100
AcDbEntity
  8
外枠
100
AcDbLine
 10
9.389999539712109
 20
38.75210192424606
 30
0.0
 11
9.389999539712109
 21
38.57199793176119
 31
0.0
  0
LINE
  5
9F2
330
85A
100
AcDbEntity
  8
外枠
100
AcDbLine
 10
9.54999953971196
 20
40.41204992800362
 30
0.0
 11
9.54999953971196
 21
40.91204992800363
 31
0.0
  0
LINE
  5
9F3
330
85A
100
AcDbEntity
  8
外枠
100
AcDbLine
 10
9.209999539711816
 20
40.75210192424606
 30
0.0
 11
9.209999539711816
 21
40.57199793176119
 31
0.0
  0
LINE
  5
9F4
330
85A
100
AcDbEntity
  8
外枠
100
AcDbLine
 10
9.209999539711816
 20
40.57199793176119
 30
0.0
 11
9.29999953971196
 21
40.57199793176119
 31
0.0
  0
LINE
  5
9F5
330
85A
100
AcDbEntity
  8
外枠
100
AcDbLine
 10
9.209999539711816
 20
40.57199793176119
 30
0.0
 11
9.29999953971196
 21
40.57199793176119
 31
0.0
  0
LINE
  5
9F6
330
85A
100
AcDbEntity
  8
外枠
100
AcDbLine
 10
9.209999539711816
 20
40.75210192424606
 30
0.0
 11
9.29999953971196
 21
40.75210192424606
 31
0.0
  0
LINE
  5
9F7
330
85A
100
AcDbEntity
  8
外枠
100
AcDbLine
 10
9.389999539712109
 20
40.75210192424606
 30
0.0
 11
9.29999953971196
 21
40.75210192424606
 31
0.0
  0
LINE
  5
9F8
330
85A
100
AcDbEntity
  8
外枠
100
AcDbLine
 10
9.389999539712109
 20
40.57199793176119
 30
0.0
 11
9.29999953971196
 21
40.57199793176119
 31
0.0
  0
LINE
  5
9F9
330
85A
100
AcDbEntity
  8
外枠
100
AcDbLine
 10
9.389999539712109
 20
40.57199793176119
 30
0.0
 11
9.29999953971196
 21
40.57199793176119
 31
0.0
  0
LINE
  5
9FA
330
85A
100
AcDbEntity
  8
外枠
100
AcDbLine
 10
9.389999539712109
 20
40.75210192424606
 30
0.0
 11
9.389999539712109
 21
40.57199793176119
 31
0.0
  0
LINE
  5
9FB
330
85A
100
AcDbEntity
  8
外枠
100
AcDbLine
 10
9.04999953971196
 20
38.91204992800362
 30
0.0
 11
9.04999953971196
 21
38.41204992800362
 31
0.0
  0
LINE
  5
9FC
330
85A
100
AcDbEntity
  8
外枠
100
AcDbLine
 10
9.04999953971196
 20
40.91204992800363
 30
0.0
 11
9.04999953971196
 21
40.41204992800362
 31
0.0
  0
LINE
  5
9FD
330
85A
100
AcDbEntity
  8
外枠
100
AcDbLine
 10
9.04999953971196
 20
38.91204992800362
 30
0.0
 11
9.54999953971196
 21
38.91204992800362
 31
0.0
  0
LINE
  5
9FE
330
85A
100
AcDbEntity
  8
外枠
100
AcDbLine
 10
9.04999953971196
 20
38.41204992800362
 30
0.0
 11
9.54999953971196
 21
38.41204992800362
 31
0.0
  0
LINE
  5
9FF
330
85A
100
AcDbEntity
  8
外枠
100
AcDbLine
 10
9.04999953971196
 20
40.91204992800363
 30
0.0
 11
9.54999953971196
 21
40.91204992800363
 31
0.0
  0
LINE
  5
A00
330
85A
100
AcDbEntity
  8
外枠
100
AcDbLine
 10
9.04999953971196
 20
40.41204992800362
 30
0.0
 11
9.54999953971196
 21
40.41204992800362
 31
0.0
  0
LINE
  5
A01
330
85A
100
AcDbEntity
  8
外枠
100
AcDbLine
 10
11.2099995397118
 20
44.57199793176118
 30
0.0
 11
11.29999953971196
 21
44.57199793176118
 31
0.0
  0
LINE
  5
A02
330
85A
100
AcDbEntity
  8
外枠
100
AcDbLine
 10
11.2099995397118
 20
44.57199793176118
 30
0.0
 11
11.29999953971196
 21
44.57199793176118
 31
0.0
  0
LINE
  5
A03
330
85A
100
AcDbEntity
  8
外枠
100
AcDbLine
 10
11.3899995397121
 20
44.57199793176118
 30
0.0
 11
11.29999953971196
 21
44.57199793176118
 31
0.0
  0
LINE
  5
A04
330
85A
100
AcDbEntity
  8
外枠
100
AcDbLine
 10
11.3899995397121
 20
44.57199793176118
 30
0.0
 11
11.29999953971196
 21
44.57199793176118
 31
0.0
  0
LINE
  5
A05
330
85A
100
AcDbEntity
  8
外枠
100
AcDbLine
 10
11.04999953971196
 20
44.41204992800361
 30
0.0
 11
11.54999953971196
 21
44.41204992800361
 31
0.0
  0
LINE
  5
A06
330
85A
100
AcDbEntity
  8
外枠
100
AcDbLine
 10
11.54999953971196
 20
42.41204992800361
 30
0.0
 11
11.54999953971196
 21
42.91204992800362
 31
0.0
  0
LINE
  5
A07
330
85A
100
AcDbEntity
  8
外枠
100
AcDbLine
 10
11.04999953971196
 20
42.91204992800362
 30
0.0
 11
11.04999953971196
 21
42.41204992800361
 31
0.0
  0
LINE
  5
A08
330
85A
100
AcDbEntity
  8
外枠
100
AcDbLine
 10
11.2099995397118
 20
42.57199793176119
 30
0.0
 11
11.29999953971196
 21
42.57199793176119
 31
0.0
  0
LINE
  5
A09
330
85A
100
AcDbEntity
  8
外枠
100
AcDbLine
 10
11.2099995397118
 20
42.57199793176119
 30
0.0
 11
11.29999953971196
 21
42.57199793176119
 31
0.0
  0
LINE
  5
A0A
330
85A
100
AcDbEntity
  8
外枠
100
AcDbLine
 10
11.3899995397121
 20
42.57199793176119
 30
0.0
 11
11.29999953971196
 21
42.57199793176119
 31
0.0
  0
LINE
  5
A0B
330
85A
100
AcDbEntity
  8
外枠
100
AcDbLine
 10
11.3899995397121
 20
42.57199793176119
 30
0.0
 11
11.29999953971196
 21
42.57199793176119
 31
0.0
  0
LINE
  5
A0C
330
85A
100
AcDbEntity
  8
外枠
100
AcDbLine
 10
11.2099995397118
 20
42.75210192424606
 30
0.0
 11
11.29999953971196
 21
42.75210192424606
 31
0.0
  0
LINE
  5
A0D
330
85A
100
AcDbEntity
  8
外枠
100
AcDbLine
 10
11.3899995397121
 20
42.75210192424606
 30
0.0
 11
11.29999953971196
 21
42.75210192424606
 31
0.0
  0
LINE
  5
A0E
330
85A
100
AcDbEntity
  8
外枠
100
AcDbLine
 10
11.2099995397118
 20
42.75210192424606
 30
0.0
 11
11.2099995397118
 21
42.57199793176119
 31
0.0
  0
LINE
  5
A0F
330
85A
100
AcDbEntity
  8
外枠
100
AcDbLine
 10
11.3899995397121
 20
42.75210192424606
 30
0.0
 11
11.3899995397121
 21
42.57199793176119
 31
0.0
  0
LINE
  5
A10
330
85A
100
AcDbEntity
  8
外枠
100
AcDbLine
 10
11.04999953971196
 20
42.41204992800361
 30
0.0
 11
11.54999953971196
 21
42.41204992800361
 31
0.0
  0
LINE
  5
A11
330
85A
100
AcDbEntity
  8
外枠
100
AcDbLine
 10
11.04999953971196
 20
42.91204992800362
 30
0.0
 11
11.54999953971196
 21
42.91204992800362
 31
0.0
  0
LINE
  5
A12
330
85A
100
AcDbEntity
  8
外枠
100
AcDbLine
 10
11.3899995397121
 20
38.75210192424606
 30
0.0
 11
11.3899995397121
 21
38.57199793176119
 31
0.0
  0
LINE
  5
A13
330
85A
100
AcDbEntity
  8
外枠
100
AcDbLine
 10
11.3899995397121
 20
38.57199793176119
 30
0.0
 11
11.29999953971196
 21
38.57199793176119
 31
0.0
  0
LINE
  5
A14
330
85A
100
AcDbEntity
  8
外枠
100
AcDbLine
 10
11.3899995397121
 20
38.57199793176119
 30
0.0
 11
11.29999953971196
 21
38.57199793176119
 31
0.0
  0
LINE
  5
A15
330
85A
100
AcDbEntity
  8
外枠
100
AcDbLine
 10
11.3899995397121
 20
38.75210192424606
 30
0.0
 11
11.29999953971196
 21
38.75210192424606
 31
0.0
  0
LINE
  5
A16
330
85A
100
AcDbEntity
  8
外枠
100
AcDbLine
 10
11.2099995397118
 20
38.75210192424606
 30
0.0
 11
11.29999953971196
 21
38.75210192424606
 31
0.0
  0
LINE
  5
A17
330
85A
100
AcDbEntity
  8
外枠
100
AcDbLine
 10
11.2099995397118
 20
38.57199793176119
 30
0.0
 11
11.29999953971196
 21
38.57199793176119
 31
0.0
  0
LINE
  5
A18
330
85A
100
AcDbEntity
  8
外枠
100
AcDbLine
 10
11.2099995397118
 20
38.57199793176119
 30
0.0
 11
11.29999953971196
 21
38.57199793176119
 31
0.0
  0
LINE
  5
A19
330
85A
100
AcDbEntity
  8
外枠
100
AcDbLine
 10
11.2099995397118
 20
38.75210192424606
 30
0.0
 11
11.2099995397118
 21
38.57199793176119
 31
0.0
  0
LINE
  5
A1A
330
85A
100
AcDbEntity
  8
外枠
100
AcDbLine
 10
11.54999953971196
 20
38.41204992800362
 30
0.0
 11
11.54999953971196
 21
38.91204992800362
 31
0.0
  0
LINE
  5
A1B
330
85A
100
AcDbEntity
  8
外枠
100
AcDbLine
 10
11.04999953971196
 20
38.91204992800362
 30
0.0
 11
11.04999953971196
 21
38.41204992800362
 31
0.0
  0
LINE
  5
A1C
330
85A
100
AcDbEntity
  8
外枠
100
AcDbLine
 10
11.04999953971196
 20
38.41204992800362
 30
0.0
 11
11.54999953971196
 21
38.41204992800362
 31
0.0
  0
LINE
  5
A1D
330
85A
100
AcDbEntity
  8
外枠
100
AcDbLine
 10
11.04999953971196
 20
38.91204992800362
 30
0.0
 11
11.54999953971196
 21
38.91204992800362
 31
0.0
  0
LINE
  5
A1E
330
85A
100
AcDbEntity
  8
外枠
100
AcDbLine
 10
11.3899995397121
 20
40.75210192424606
 30
0.0
 11
11.3899995397121
 21
40.57199793176119
 31
0.0
  0
LINE
  5
A1F
330
85A
100
AcDbEntity
  8
外枠
100
AcDbLine
 10
11.3899995397121
 20
40.57199793176119
 30
0.0
 11
11.29999953971196
 21
40.57199793176119
 31
0.0
  0
LINE
  5
A20
330
85A
100
AcDbEntity
  8
外枠
100
AcDbLine
 10
11.3899995397121
 20
40.57199793176119
 30
0.0
 11
11.29999953971196
 21
40.57199793176119
 31
0.0
  0
LINE
  5
A21
330
85A
100
AcDbEntity
  8
外枠
100
AcDbLine
 10
11.3899995397121
 20
40.75210192424606
 30
0.0
 11
11.29999953971196
 21
40.75210192424606
 31
0.0
  0
LINE
  5
A22
330
85A
100
AcDbEntity
  8
外枠
100
AcDbLine
 10
11.2099995397118
 20
40.75210192424606
 30
0.0
 11
11.29999953971196
 21
40.75210192424606
 31
0.0
  0
LINE
  5
A23
330
85A
100
AcDbEntity
  8
外枠
100
AcDbLine
 10
11.2099995397118
 20
40.57199793176119
 30
0.0
 11
11.29999953971196
 21
40.57199793176119
 31
0.0
  0
LINE
  5
A24
330
85A
100
AcDbEntity
  8
外枠
100
AcDbLine
 10
11.2099995397118
 20
40.57199793176119
 30
0.0
 11
11.29999953971196
 21
40.57199793176119
 31
0.0
  0
LINE
  5
A25
330
85A
100
AcDbEntity
  8
外枠
100
AcDbLine
 10
11.2099995397118
 20
40.75210192424606
 30
0.0
 11
11.2099995397118
 21
40.57199793176119
 31
0.0
  0
LINE
  5
A26
330
85A
100
AcDbEntity
  8
外枠
100
AcDbLine
 10
11.54999953971196
 20
40.41204992800362
 30
0.0
 11
11.54999953971196
 21
40.91204992800363
 31
0.0
  0
LINE
  5
A27
330
85A
100
AcDbEntity
  8
外枠
100
AcDbLine
 10
11.04999953971196
 20
40.91204992800363
 30
0.0
 11
11.04999953971196
 21
40.41204992800362
 31
0.0
  0
LINE
  5
A28
330
85A
100
AcDbEntity
  8
外枠
100
AcDbLine
 10
11.04999953971196
 20
40.41204992800362
 30
0.0
 11
11.54999953971196
 21
40.41204992800362
 31
0.0
  0
LINE
  5
A29
330
85A
100
AcDbEntity
  8
外枠
100
AcDbLine
 10
11.04999953971196
 20
40.91204992800363
 30
0.0
 11
11.54999953971196
 21
40.91204992800363
 31
0.0
  0
LINE
  5
A2A
330
85A
100
AcDbEntity
  8
外枠
100
AcDbLine
 10
7.79999953971196
 20
48.61204992800344
 30
0.0
 11
12.79999953971196
 21
48.61204992800344
 31
0.0
  0
LINE
  5
A2B
330
85A
100
AcDbEntity
  8
外枠
100
AcDbLine
 10
9.389999539712109
 20
44.75210192424606
 30
0.0
 11
9.29999953971196
 21
44.75210192424606
 31
0.0
  0
LINE
  5
A2C
330
85A
100
AcDbEntity
  8
外枠
100
AcDbLine
 10
9.209999539711816
 20
44.75210192424606
 30
0.0
 11
9.29999953971196
 21
44.75210192424606
 31
0.0
  0
LINE
  5
A2D
330
85A
100
AcDbEntity
  8
外枠
100
AcDbLine
 10
9.04999953971196
 20
44.91204992800361
 30
0.0
 11
9.54999953971196
 21
44.91204992800361
 31
0.0
  0
LINE
  5
A2E
330
85A
100
AcDbEntity
  8
外枠
100
AcDbLine
 10
9.54999953971196
 20
46.41204992800362
 30
0.0
 11
9.54999953971196
 21
46.91204992800361
 31
0.0
  0
LINE
  5
A2F
330
85A
100
AcDbEntity
  8
外枠
100
AcDbLine
 10
9.04999953971196
 20
46.91204992800361
 30
0.0
 11
9.04999953971196
 21
46.41204992800362
 31
0.0
  0
LINE
  5
A30
330
85A
100
AcDbEntity
  8
外枠
100
AcDbLine
 10
9.04999953971196
 20
46.41204992800362
 30
0.0
 11
9.54999953971196
 21
46.41204992800362
 31
0.0
  0
LINE
  5
A31
330
85A
100
AcDbEntity
  8
外枠
100
AcDbLine
 10
9.209999539711816
 20
46.75210192424606
 30
0.0
 11
9.209999539711816
 21
46.57199793176117
 31
0.0
  0
LINE
  5
A32
330
85A
100
AcDbEntity
  8
外枠
100
AcDbLine
 10
9.209999539711816
 20
46.57199793176117
 30
0.0
 11
9.29999953971196
 21
46.57199793176117
 31
0.0
  0
LINE
  5
A33
330
85A
100
AcDbEntity
  8
外枠
100
AcDbLine
 10
9.209999539711816
 20
46.57199793176117
 30
0.0
 11
9.29999953971196
 21
46.57199793176117
 31
0.0
  0
LINE
  5
A34
330
85A
100
AcDbEntity
  8
外枠
100
AcDbLine
 10
9.209999539711816
 20
46.75210192424606
 30
0.0
 11
9.29999953971196
 21
46.75210192424606
 31
0.0
  0
LINE
  5
A35
330
85A
100
AcDbEntity
  8
外枠
100
AcDbLine
 10
9.389999539712109
 20
46.75210192424606
 30
0.0
 11
9.29999953971196
 21
46.75210192424606
 31
0.0
  0
LINE
  5
A36
330
85A
100
AcDbEntity
  8
外枠
100
AcDbLine
 10
9.389999539712109
 20
46.57199793176117
 30
0.0
 11
9.29999953971196
 21
46.57199793176117
 31
0.0
  0
LINE
  5
A37
330
85A
100
AcDbEntity
  8
外枠
100
AcDbLine
 10
9.389999539712109
 20
46.57199793176117
 30
0.0
 11
9.29999953971196
 21
46.57199793176117
 31
0.0
  0
LINE
  5
A38
330
85A
100
AcDbEntity
  8
外枠
100
AcDbLine
 10
9.389999539712109
 20
46.75210192424606
 30
0.0
 11
9.389999539712109
 21
46.57199793176117
 31
0.0
  0
LINE
  5
A39
330
85A
100
AcDbEntity
  8
外枠
100
AcDbLine
 10
9.04999953971196
 20
46.91204992800361
 30
0.0
 11
9.54999953971196
 21
46.91204992800361
 31
0.0
  0
LINE
  5
A3A
330
85A
100
AcDbEntity
  8
外枠
100
AcDbLine
 10
11.2099995397118
 20
44.75210192424606
 30
0.0
 11
11.29999953971196
 21
44.75210192424606
 31
0.0
  0
LINE
  5
A3B
330
85A
100
AcDbEntity
  8
外枠
100
AcDbLine
 10
11.3899995397121
 20
44.75210192424606
 30
0.0
 11
11.29999953971196
 21
44.75210192424606
 31
0.0
  0
LINE
  5
A3C
330
85A
100
AcDbEntity
  8
外枠
100
AcDbLine
 10
11.04999953971196
 20
44.91204992800361
 30
0.0
 11
11.54999953971196
 21
44.91204992800361
 31
0.0
  0
LINE
  5
A3D
330
85A
100
AcDbEntity
  8
外枠
100
AcDbLine
 10
11.54999953971196
 20
46.41204992800362
 30
0.0
 11
11.54999953971196
 21
46.91204992800361
 31
0.0
  0
LINE
  5
A3E
330
85A
100
AcDbEntity
  8
外枠
100
AcDbLine
 10
11.04999953971196
 20
46.91204992800361
 30
0.0
 11
11.04999953971196
 21
46.41204992800362
 31
0.0
  0
LINE
  5
A3F
330
85A
100
AcDbEntity
  8
外枠
100
AcDbLine
 10
11.04999953971196
 20
46.41204992800362
 30
0.0
 11
11.54999953971196
 21
46.41204992800362
 31
0.0
  0
LINE
  5
A40
330
85A
100
AcDbEntity
  8
外枠
100
AcDbLine
 10
11.3899995397121
 20
46.75210192424606
 30
0.0
 11
11.3899995397121
 21
46.57199793176117
 31
0.0
  0
LINE
  5
A41
330
85A
100
AcDbEntity
  8
外枠
100
AcDbLine
 10
11.3899995397121
 20
46.57199793176117
 30
0.0
 11
11.29999953971196
 21
46.57199793176117
 31
0.0
  0
LINE
  5
A42
330
85A
100
AcDbEntity
  8
外枠
100
AcDbLine
 10
11.3899995397121
 20
46.57199793176117
 30
0.0
 11
11.29999953971196
 21
46.57199793176117
 31
0.0
  0
LINE
  5
A43
330
85A
100
AcDbEntity
  8
外枠
100
AcDbLine
 10
11.3899995397121
 20
46.75210192424606
 30
0.0
 11
11.29999953971196
 21
46.75210192424606
 31
0.0
  0
LINE
  5
A44
330
85A
100
AcDbEntity
  8
外枠
100
AcDbLine
 10
11.2099995397118
 20
46.75210192424606
 30
0.0
 11
11.29999953971196
 21
46.75210192424606
 31
0.0
  0
LINE
  5
A45
330
85A
100
AcDbEntity
  8
外枠
100
AcDbLine
 10
11.2099995397118
 20
46.57199793176117
 30
0.0
 11
11.29999953971196
 21
46.57199793176117
 31
0.0
  0
LINE
  5
A46
330
85A
100
AcDbEntity
  8
外枠
100
AcDbLine
 10
11.2099995397118
 20
46.57199793176117
 30
0.0
 11
11.29999953971196
 21
46.57199793176117
 31
0.0
  0
LINE
  5
A47
330
85A
100
AcDbEntity
  8
外枠
100
AcDbLine
 10
11.2099995397118
 20
46.75210192424606
 30
0.0
 11
11.2099995397118
 21
46.57199793176117
 31
0.0
  0
LINE
  5
A48
330
85A
100
AcDbEntity
  8
外枠
100
AcDbLine
 10
11.04999953971196
 20
46.91204992800361
 30
0.0
 11
11.54999953971196
 21
46.91204992800361
 31
0.0
  0
LINE
  5
A49
330
85A
100
AcDbEntity
  8
外枠
  6
CONTINUOUS
 62
     7
100
AcDbLine
 10
7.529302539710214
 20
59.27633050417921
 30
0.0
 11
7.091775539710169
 21
58.89495850417938
 31
0.0
  0
LINE
  5
A4A
330
85A
100
AcDbEntity
  8
外枠
  6
CONTINUOUS
 62
     7
100
AcDbLine
 10
6.061346539709801
 20
59.27633050417921
 30
0.0
 11
6.498701539709826
 21
58.89495850417938
 31
0.0
  0
LINE
  5
A4B
330
85A
100
AcDbEntity
  8
外枠
  6
CONTINUOUS
 62
     7
100
AcDbLine
 10
6.061346539709801
 20
59.27633050418013
 30
0.0
 11
6.061346539709801
 21
57.91431150417997
 31
0.0
  0
LINE
  5
A4C
330
85A
100
AcDbEntity
  8
外枠
  6
CONTINUOUS
 62
     7
100
AcDbLine
 10
7.529302539708394
 20
57.91431150417997
 30
0.0
 11
7.529302539708394
 21
59.27633050418013
 31
0.0
  0
LINE
  5
A4D
330
85A
100
AcDbEntity
  8
外枠
  6
CONTINUOUS
 62
     7
100
AcDbLine
 10
7.811455539710323
 20
54.75980950417966
 30
0.0
 11
8.248982539710368
 21
55.14066550417942
 31
0.0
  0
LINE
  5
A4E
330
85A
100
AcDbEntity
  8
外枠
  6
CONTINUOUS
 62
     7
100
AcDbLine
 10
9.279410539710397
 20
54.75980950417966
 30
0.0
 11
8.841539539710311
 21
55.14066550417942
 31
0.0
  0
LINE
  5
A4F
330
85A
100
AcDbEntity
  8
外枠
  6
CONTINUOUS
 62
     7
100
AcDbLine
 10
6.061346539709801
 20
57.45559750418056
 30
0.0
 11
6.498701539709826
 21
57.07422550417891
 31
0.0
  0
LINE
  5
A50
330
85A
100
AcDbEntity
  8
外枠
  6
CONTINUOUS
 62
     7
100
AcDbLine
 10
7.529302539710214
 20
57.45559750418056
 30
0.0
 11
7.091775539710169
 21
57.07422550417891
 31
0.0
  0
LINE
  5
A51
330
85A
100
AcDbEntity
  8
外枠
  6
CONTINUOUS
 62
     7
100
AcDbLine
 10
7.811455539710323
 20
57.94962350417904
 30
0.0
 11
8.248982539710368
 21
57.56859650417959
 31
0.0
  0
LINE
  5
A52
330
85A
100
AcDbEntity
  8
外枠
  6
CONTINUOUS
 62
     7
100
AcDbLine
 10
9.279410539710397
 20
57.94962350417904
 30
0.0
 11
8.841539539710311
 21
57.56859650417959
 31
0.0
  0
LINE
  5
A53
330
85A
100
AcDbEntity
  8
外枠
  6
CONTINUOUS
 62
     7
100
AcDbLine
 10
6.061346539709801
 20
53.36936950418044
 30
0.0
 11
6.498701539709826
 21
53.75039650417988
 31
0.0
  0
LINE
  5
A54
330
85A
100
AcDbEntity
  8
外枠
  6
CONTINUOUS
 62
     7
100
AcDbLine
 10
7.529302539710214
 20
53.36936950418044
 30
0.0
 11
7.091430539709789
 21
53.75039650417988
 31
0.0
  0
LINE
  5
A55
330
85A
100
AcDbEntity
  8
外枠
  6
CONTINUOUS
 62
     7
100
AcDbLine
 10
7.091430539709789
 20
53.75039650418012
 30
0.0
 11
7.091430539709789
 21
54.73156050418015
 31
0.0
  0
LINE
  5
A56
330
85A
100
AcDbEntity
  8
外枠
  6
CONTINUOUS
 62
     7
100
AcDbLine
 10
7.811455539708504
 20
54.7598095041801
 30
0.0
 11
9.279410539708576
 21
54.7598095041801
 31
0.0
  0
LINE
  5
A57
330
85A
100
AcDbEntity
  8
外枠
  6
CONTINUOUS
 62
     7
100
AcDbLine
 10
7.811455539708504
 20
56.12182850418026
 30
0.0
 11
7.811455539708504
 21
54.7598095041801
 31
0.0
  0
LINE
  5
A58
330
85A
100
AcDbEntity
  8
外枠
  6
CONTINUOUS
 62
     7
100
AcDbLine
 10
9.279410539708576
 20
56.12182850418026
 30
0.0
 11
7.811455539708504
 21
56.12182850418026
 31
0.0
  0
LINE
  5
A59
330
85A
100
AcDbEntity
  8
外枠
  6
CONTINUOUS
 62
     7
100
AcDbLine
 10
9.279410539708576
 20
54.7598095041801
 30
0.0
 11
9.279410539708576
 21
56.12182850418026
 31
0.0
  0
LINE
  5
A5A
330
85A
100
AcDbEntity
  8
外枠
  6
CONTINUOUS
 62
     7
100
AcDbLine
 10
8.248982539708549
 20
55.14066550418011
 30
0.0
 11
8.841539539708492
 21
55.14066550418011
 31
0.0
  0
LINE
  5
A5B
330
85A
100
AcDbEntity
  8
外枠
  6
CONTINUOUS
 62
     7
100
AcDbLine
 10
8.248982539708549
 20
56.12182850418026
 30
0.0
 11
8.248982539708549
 21
55.14066550418011
 31
0.0
  0
LINE
  5
A5C
330
85A
100
AcDbEntity
  8
外枠
  6
CONTINUOUS
 62
     7
100
AcDbLine
 10
8.841539539708492
 20
56.12182850418026
 30
0.0
 11
8.248982539708549
 21
56.12182850418026
 31
0.0
  0
LINE
  5
A5D
330
85A
100
AcDbEntity
  8
外枠
  6
CONTINUOUS
 62
     7
100
AcDbLine
 10
8.841539539708492
 20
55.14066550418011
 30
0.0
 11
8.841539539708492
 21
56.12182850418026
 31
0.0
  0
LINE
  5
A5E
330
85A
100
AcDbEntity
  8
外枠
  6
CONTINUOUS
 62
     7
100
AcDbLine
 10
9.279410539708576
 20
56.58743350418014
 30
0.0
 11
7.811455539708504
 21
56.58743350418014
 31
0.0
  0
LINE
  5
A5F
330
85A
100
AcDbEntity
  8
外枠
  6
CONTINUOUS
 62
     7
100
AcDbLine
 10
9.279410539708576
 20
57.94962350418018
 30
0.0
 11
9.279410539708576
 21
56.58743350418014
 31
0.0
  0
LINE
  5
A60
330
85A
100
AcDbEntity
  8
外枠
  6
CONTINUOUS
 62
     7
100
AcDbLine
 10
7.811455539708504
 20
57.94962350418018
 30
0.0
 11
9.279410539708576
 21
57.94962350418018
 31
0.0
  0
LINE
  5
A61
330
85A
100
AcDbEntity
  8
外枠
  6
CONTINUOUS
 62
     7
100
AcDbLine
 10
7.811455539708504
 20
56.58743350418014
 30
0.0
 11
7.811455539708504
 21
57.94962350418018
 31
0.0
  0
LINE
  5
A62
330
85A
100
AcDbEntity
  8
外枠
  6
CONTINUOUS
 62
     7
100
AcDbLine
 10
8.841539539708492
 20
56.58743350418014
 30
0.0
 11
8.248982539708549
 21
56.58743350418014
 31
0.0
  0
LINE
  5
A63
330
85A
100
AcDbEntity
  8
外枠
  6
CONTINUOUS
 62
     7
100
AcDbLine
 10
8.841539539708492
 20
57.56859650418005
 30
0.0
 11
8.841539539708492
 21
56.58743350418014
 31
0.0
  0
LINE
  5
A64
330
85A
100
AcDbEntity
  8
外枠
  6
CONTINUOUS
 62
     7
100
AcDbLine
 10
8.248982539708549
 20
57.56859650418005
 30
0.0
 11
8.841539539708492
 21
57.56859650418005
 31
0.0
  0
LINE
  5
A65
330
85A
100
AcDbEntity
  8
外枠
  6
CONTINUOUS
 62
     7
100
AcDbLine
 10
8.248982539708549
 20
56.58743350418014
 30
0.0
 11
8.248982539708549
 21
57.56859650418005
 31
0.0
  0
LINE
  5
A66
330
85A
100
AcDbEntity
  8
外枠
  6
CONTINUOUS
 62
     7
100
AcDbLine
 10
6.061346539709801
 20
56.09357850418018
 30
0.0
 11
7.529302539708394
 21
56.09357850418018
 31
0.0
  0
LINE
  5
A67
330
85A
100
AcDbEntity
  8
外枠
  6
CONTINUOUS
 62
     7
100
AcDbLine
 10
6.061346539709801
 20
57.4555975041801
 30
0.0
 11
6.061346539709801
 21
56.09357850418018
 31
0.0
  0
LINE
  5
A68
330
85A
100
AcDbEntity
  8
外枠
  6
CONTINUOUS
 62
     7
100
AcDbLine
 10
7.529302539708394
 20
57.4555975041801
 30
0.0
 11
6.061346539709801
 21
57.4555975041801
 31
0.0
  0
LINE
  5
A69
330
85A
100
AcDbEntity
  8
外枠
  6
CONTINUOUS
 62
     7
100
AcDbLine
 10
7.529302539708394
 20
56.09357850418018
 30
0.0
 11
7.529302539708394
 21
57.4555975041801
 31
0.0
  0
LINE
  5
A6A
330
85A
100
AcDbEntity
  8
外枠
  6
CONTINUOUS
 62
     7
100
AcDbLine
 10
6.499218539710226
 20
56.09357850418018
 30
0.0
 11
7.091775539710169
 21
56.09357850418018
 31
0.0
  0
LINE
  5
A6B
330
85A
100
AcDbEntity
  8
外枠
  6
CONTINUOUS
 62
     7
100
AcDbLine
 10
6.499218539710226
 20
57.07456950418009
 30
0.0
 11
6.499218539710226
 21
56.09357850418018
 31
0.0
  0
LINE
  5
A6C
330
85A
100
AcDbEntity
  8
外枠
  6
CONTINUOUS
 62
     7
100
AcDbLine
 10
7.091775539710169
 20
57.07456950418009
 30
0.0
 11
6.499218539710226
 21
57.07456950418009
 31
0.0
  0
LINE
  5
A6D
330
85A
100
AcDbEntity
  8
外枠
  6
CONTINUOUS
 62
     7
100
AcDbLine
 10
7.091775539710169
 20
56.09357850418018
 30
0.0
 11
7.091775539710169
 21
57.07456950418009
 31
0.0
  0
LINE
  5
A6E
330
85A
100
AcDbEntity
  8
外枠
  6
CONTINUOUS
 62
     7
100
AcDbLine
 10
6.061346539709801
 20
57.91431150417997
 30
0.0
 11
7.529302539708394
 21
57.91431150417997
 31
0.0
  0
LINE
  5
A6F
330
85A
100
AcDbEntity
  8
外枠
  6
CONTINUOUS
 62
     7
100
AcDbLine
 10
6.499218539710226
 20
57.91431150417997
 30
0.0
 11
7.091775539710169
 21
57.91431150417997
 31
0.0
  0
LINE
  5
A70
330
85A
100
AcDbEntity
  8
外枠
  6
CONTINUOUS
 62
     7
100
AcDbLine
 10
6.499218539710226
 20
58.89530250418009
 30
0.0
 11
6.499218539710226
 21
57.91431150417997
 31
0.0
  0
LINE
  5
A71
330
85A
100
AcDbEntity
  8
外枠
  6
CONTINUOUS
 62
     7
100
AcDbLine
 10
7.091775539710169
 20
58.89530250418009
 30
0.0
 11
6.499218539710226
 21
58.89530250418009
 31
0.0
  0
LINE
  5
A72
330
85A
100
AcDbEntity
  8
外枠
  6
CONTINUOUS
 62
     7
100
AcDbLine
 10
7.091775539710169
 20
57.91431150417997
 30
0.0
 11
7.091775539710169
 21
58.89530250418009
 31
0.0
  0
LINE
  5
A73
330
85A
100
AcDbEntity
  8
外枠
  6
CONTINUOUS
 62
     7
100
AcDbLine
 10
6.061346539709801
 20
53.36936950417999
 30
0.0
 11
7.529302539708394
 21
53.36936950417999
 31
0.0
  0
LINE
  5
A74
330
85A
100
AcDbEntity
  8
外枠
  6
CONTINUOUS
 62
     7
100
AcDbLine
 10
6.061346539709801
 20
54.73156050418015
 30
0.0
 11
6.061346539709801
 21
53.36936950417999
 31
0.0
  0
LINE
  5
A75
330
85A
100
AcDbEntity
  8
外枠
  6
CONTINUOUS
 62
     7
100
AcDbLine
 10
7.529302539708394
 20
54.73156050418015
 30
0.0
 11
6.061346539709801
 21
54.73156050418015
 31
0.0
  0
LINE
  5
A76
330
85A
100
AcDbEntity
  8
外枠
  6
CONTINUOUS
 62
     7
100
AcDbLine
 10
7.529302539708394
 20
53.36936950417999
 30
0.0
 11
7.529302539708394
 21
54.73156050418015
 31
0.0
  0
LINE
  5
A77
330
85A
100
AcDbEntity
  8
外枠
  6
CONTINUOUS
 62
     7
100
AcDbLine
 10
6.498701539709826
 20
53.75039650418012
 30
0.0
 11
7.091430539709789
 21
53.75039650418012
 31
0.0
  0
LINE
  5
A78
330
85A
100
AcDbEntity
  8
外枠
  6
CONTINUOUS
 62
     7
100
AcDbLine
 10
6.498701539709826
 20
54.73156050418015
 30
0.0
 11
6.498701539709826
 21
53.75039650418012
 31
0.0
  0
LINE
  5
A79
330
85A
100
AcDbEntity
  8
外枠
  6
CONTINUOUS
 62
     7
100
AcDbLine
 10
7.091430539709789
 20
54.73156050418015
 30
0.0
 11
6.498701539709826
 21
54.73156050418015
 31
0.0
  0
LINE
  5
A7A
330
85A
100
AcDbEntity
  8
外枠
  6
BYBLOCK
100
AcDbLine
 10
9.949999539709779
 20
66.51204992800467
 30
0.0
 11
10.54999953971196
 21
66.51204992800467
 31
0.0
  0
LINE
  5
A7B
330
85A
100
AcDbEntity
  8
外枠
  6
CONTINUOUS
 62
     7
100
AcDbLine
 10
7.529302539708394
 20
59.27633050418013
 30
0.0
 11
6.061346539709801
 21
59.27633050418013
 31
0.0
  0
LINE
  5
A7C
330
85A
100
AcDbEntity
  8
外枠
  6
BYBLOCK
100
AcDbLine
 10
1.299999539711961
 20
81.51204992800307
 30
0.0
 11
12.79999953971196
 21
81.51204992800307
 31
0.0
  0
LINE
  5
A7D
330
85A
100
AcDbEntity
  8
外枠
  6
BYBLOCK
100
AcDbLine
 10
2.099999539711233
 20
80.71204992800288
 30
0.0
 11
12.79999953971196
 21
80.71204992800288
 31
0.0
  0
LINE
  5
A7E
330
85A
100
AcDbEntity
  8
外枠
  6
BYBLOCK
100
AcDbLine
 10
1.299999539711961
 20
81.51204992800307
 30
0.0
 11
1.299999539711961
 21
76.31258706727226
 31
0.0
  0
LINE
  5
A7F
330
85A
100
AcDbEntity
  8
外枠
  6
BYBLOCK
100
AcDbLine
 10
3.969170668195829
 20
81.51204992800307
 30
0.0
 11
3.969170668195829
 21
80.7120499280038
 31
0.0
  0
LINE
  5
A80
330
85A
100
AcDbEntity
  8
外枠
  6
BYBLOCK
100
AcDbLine
 10
1.099999539711234
 20
76.31258706727226
 30
0.0
 11
1.099999539711234
 21
72.81258706727135
 31
0.0
  0
LINE
  5
A81
330
85A
100
AcDbEntity
  8
外枠
  6
BYBLOCK
100
AcDbLine
 10
1.599999539711234
 20
75.31258706727226
 30
0.0
 11
1.599999539711234
 21
72.81258706727135
 31
0.0
  0
LINE
  5
A82
330
85A
100
AcDbEntity
  8
外枠
  6
BYBLOCK
100
AcDbLine
 10
1.849999539711234
 20
72.81258706727135
 30
0.0
 11
1.849999539711234
 21
73.81258706727135
 31
0.0
  0
LINE
  5
A83
330
85A
100
AcDbEntity
  8
外枠
  6
BYBLOCK
100
AcDbLine
 10
1.849999539711234
 20
73.81258706727135
 30
0.0
 11
1.599999539711234
 21
73.81258706727135
 31
0.0
  0
LINE
  5
A84
330
85A
100
AcDbEntity
  8
外枠
  6
BYBLOCK
100
AcDbLine
 10
1.099999539711234
 20
69.81258706727226
 30
0.0
 11
1.099999539711234
 21
72.81258706727226
 31
0.0
  0
LINE
  5
A85
330
85A
100
AcDbEntity
  8
外枠
  6
BYBLOCK
100
AcDbLine
 10
3.099999539711233
 20
70.81258706727226
 30
0.0
 11
3.099999539711233
 21
69.81258706727226
 31
0.0
  0
LINE
  5
A86
330
85A
100
AcDbEntity
  8
外枠
  6
BYBLOCK
100
AcDbLine
 10
1.599999539711234
 20
70.81258706727226
 30
0.0
 11
1.599999539711234
 21
72.81258706727226
 31
0.0
  0
LINE
  5
A87
330
85A
100
AcDbEntity
  8
外枠
  6
BYBLOCK
100
AcDbLine
 10
3.099999539711233
 20
70.81258706727226
 30
0.0
 11
1.599999539711234
 21
70.81258706727226
 31
0.0
  0
LINE
  5
A88
330
85A
100
AcDbEntity
  8
外枠
  6
BYBLOCK
100
AcDbLine
 10
1.849999539711234
 20
71.81258706727226
 30
0.0
 11
1.599999539711234
 21
71.81258706727135
 31
0.0
  0
LINE
  5
A89
330
85A
100
AcDbEntity
  8
外枠
  6
BYBLOCK
100
AcDbLine
 10
1.849999539711234
 20
72.81258706727226
 30
0.0
 11
1.849999539711234
 21
71.81258706727226
 31
0.0
  0
LINE
  5
A8A
330
85A
100
AcDbEntity
  8
外枠
  6
BYBLOCK
100
AcDbLine
 10
3.099999539711233
 20
69.81258706727226
 30
0.0
 11
1.099999539711234
 21
69.81258706727226
 31
0.0
  0
LINE
  5
A8B
330
85A
100
AcDbEntity
  8
外枠
  6
BYBLOCK
100
AcDbLine
 10
5.54999953971196
 20
72.51204992800467
 30
0.0
 11
5.54999953971196
 21
73.11204992800502
 31
0.0
  0
LINE
  5
A8C
330
85A
100
AcDbEntity
  8
外枠
  6
BYBLOCK
100
AcDbLine
 10
4.949999539709779
 20
72.51204992800467
 30
0.0
 11
5.54999953971196
 21
72.51204992800467
 31
0.0
  0
LINE
  5
A8D
330
85A
100
AcDbEntity
  8
外枠
  6
BYBLOCK
100
AcDbLine
 10
4.949999539709779
 20
73.11204992800502
 30
0.0
 11
5.54999953971196
 21
73.11204992800502
 31
0.0
  0
LINE
  5
A8E
330
85A
100
AcDbEntity
  8
外枠
  6
BYBLOCK
100
AcDbLine
 10
4.949999539709779
 20
72.51204992800467
 30
0.0
 11
4.949999539709779
 21
73.11204992800502
 31
0.0
  0
LINE
  5
A8F
330
85A
100
AcDbEntity
  8
外枠
  6
BYBLOCK
100
AcDbLine
 10
5.54999953971196
 20
70.51204992800467
 30
0.0
 11
5.54999953971196
 21
71.11204992800505
 31
0.0
  0
LINE
  5
A90
330
85A
100
AcDbEntity
  8
外枠
  6
BYBLOCK
100
AcDbLine
 10
4.949999539709779
 20
70.51204992800467
 30
0.0
 11
5.54999953971196
 21
70.51204992800467
 31
0.0
  0
LINE
  5
A91
330
85A
100
AcDbEntity
  8
外枠
  6
BYBLOCK
100
AcDbLine
 10
4.949999539709779
 20
71.11204992800505
 30
0.0
 11
5.54999953971196
 21
71.11204992800505
 31
0.0
  0
LINE
  5
A92
330
85A
100
AcDbEntity
  8
外枠
  6
BYBLOCK
100
AcDbLine
 10
4.949999539709779
 20
70.51204992800467
 30
0.0
 11
4.949999539709779
 21
71.11204992800505
 31
0.0
  0
LINE
  5
A93
330
85A
100
AcDbEntity
  8
外枠
  6
BYBLOCK
100
AcDbLine
 10
5.54999953971196
 20
68.51204992800467
 30
0.0
 11
5.54999953971196
 21
69.11204992800503
 31
0.0
  0
LINE
  5
A94
330
85A
100
AcDbEntity
  8
外枠
  6
BYBLOCK
100
AcDbLine
 10
4.949999539709779
 20
68.51204992800467
 30
0.0
 11
5.54999953971196
 21
68.51204992800467
 31
0.0
  0
LINE
  5
A95
330
85A
100
AcDbEntity
  8
外枠
  6
BYBLOCK
100
AcDbLine
 10
4.949999539709779
 20
69.11204992800503
 30
0.0
 11
5.54999953971196
 21
69.11204992800503
 31
0.0
  0
LINE
  5
A96
330
85A
100
AcDbEntity
  8
外枠
  6
BYBLOCK
100
AcDbLine
 10
4.949999539709779
 20
68.51204992800467
 30
0.0
 11
4.949999539709779
 21
69.11204992800503
 31
0.0
  0
LINE
  5
A97
330
85A
100
AcDbEntity
  8
外枠
  6
BYBLOCK
100
AcDbLine
 10
4.949999539709779
 20
67.11204992800503
 30
0.0
 11
5.54999953971196
 21
67.11204992800503
 31
0.0
  0
LINE
  5
A98
330
85A
100
AcDbEntity
  8
外枠
  6
BYBLOCK
100
AcDbLine
 10
2.099999539711233
 20
76.31258706727226
 30
0.0
 11
2.099999539711233
 21
80.71204992800288
 31
0.0
  0
LINE
  5
A99
330
85A
100
AcDbEntity
  8
外枠
  6
BYBLOCK
100
AcDbLine
 10
3.099999539711233
 20
75.31258706727226
 30
0.0
 11
3.099999539711233
 21
76.31258706727226
 31
0.0
  0
LINE
  5
A9A
330
85A
100
AcDbEntity
  8
外枠
  6
BYBLOCK
100
AcDbLine
 10
3.099999539711233
 20
76.31258706727226
 30
0.0
 11
1.099999539711234
 21
76.31258706727226
 31
0.0
  0
LINE
  5
A9B
330
85A
100
AcDbEntity
  8
外枠
  6
BYBLOCK
100
AcDbLine
 10
3.099999539711233
 20
75.31258706727226
 30
0.0
 11
1.599999539711234
 21
75.31258706727226
 31
0.0
  0
LINE
  5
A9C
330
85A
100
AcDbEntity
  8
外枠
  6
BYBLOCK
100
AcDbLine
 10
5.54999953971196
 20
78.11204992800458
 30
0.0
 11
5.54999953971196
 21
78.71204992800494
 31
0.0
  0
LINE
  5
A9D
330
85A
100
AcDbEntity
  8
外枠
  6
BYBLOCK
100
AcDbLine
 10
4.949999539709779
 20
78.11204992800458
 30
0.0
 11
5.54999953971196
 21
78.11204992800458
 31
0.0
  0
LINE
  5
A9E
330
85A
100
AcDbEntity
  8
外枠
  6
BYBLOCK
100
AcDbLine
 10
4.949999539709779
 20
78.71204992800494
 30
0.0
 11
5.54999953971196
 21
78.71204992800494
 31
0.0
  0
LINE
  5
A9F
330
85A
100
AcDbEntity
  8
外枠
  6
BYBLOCK
100
AcDbLine
 10
4.949999539709779
 20
78.11204992800458
 30
0.0
 11
4.949999539709779
 21
78.71204992800494
 31
0.0
  0
LINE
  5
AA0
330
85A
100
AcDbEntity
  8
外枠
  6
BYBLOCK
100
AcDbLine
 10
5.54999953971196
 20
76.31204992800462
 30
0.0
 11
5.54999953971196
 21
76.91204992800497
 31
0.0
  0
LINE
  5
AA1
330
85A
100
AcDbEntity
  8
外枠
  6
BYBLOCK
100
AcDbLine
 10
4.949999539709779
 20
76.31204992800462
 30
0.0
 11
5.54999953971196
 21
76.31204992800462
 31
0.0
  0
LINE
  5
AA2
330
85A
100
AcDbEntity
  8
外枠
  6
BYBLOCK
100
AcDbLine
 10
4.949999539709779
 20
76.91204992800497
 30
0.0
 11
5.54999953971196
 21
76.91204992800497
 31
0.0
  0
LINE
  5
AA3
330
85A
100
AcDbEntity
  8
外枠
  6
BYBLOCK
100
AcDbLine
 10
4.949999539709779
 20
76.31204992800462
 30
0.0
 11
4.949999539709779
 21
76.91204992800497
 31
0.0
  0
LINE
  5
AA4
330
85A
100
AcDbEntity
  8
外枠
  6
BYBLOCK
100
AcDbLine
 10
5.54999953971196
 20
74.51204992800467
 30
0.0
 11
5.54999953971196
 21
75.11204992800502
 31
0.0
  0
LINE
  5
AA5
330
85A
100
AcDbEntity
  8
外枠
  6
BYBLOCK
100
AcDbLine
 10
4.949999539709779
 20
74.51204992800467
 30
0.0
 11
5.54999953971196
 21
74.51204992800467
 31
0.0
  0
LINE
  5
AA6
330
85A
100
AcDbEntity
  8
外枠
  6
BYBLOCK
100
AcDbLine
 10
4.949999539709779
 20
75.11204992800502
 30
0.0
 11
5.54999953971196
 21
75.11204992800502
 31
0.0
  0
LINE
  5
AA7
330
85A
100
AcDbEntity
  8
外枠
  6
BYBLOCK
100
AcDbLine
 10
4.949999539709779
 20
74.51204992800467
 30
0.0
 11
4.949999539709779
 21
75.11204992800502
 31
0.0
  0
LINE
  5
AA8
330
85A
100
AcDbEntity
  8
外枠
  6
BYBLOCK
100
AcDbLine
 10
10.54999953971196
 20
68.51204992800467
 30
0.0
 11
10.54999953971196
 21
69.11204992800503
 31
0.0
  0
LINE
  5
AA9
330
85A
100
AcDbEntity
  8
外枠
  6
BYBLOCK
100
AcDbLine
 10
9.949999539709779
 20
68.51204992800467
 30
0.0
 11
10.54999953971196
 21
68.51204992800467
 31
0.0
  0
LINE
  5
AAA
330
85A
100
AcDbEntity
  8
外枠
  6
BYBLOCK
100
AcDbLine
 10
9.949999539709779
 20
69.11204992800503
 30
0.0
 11
10.54999953971196
 21
69.11204992800503
 31
0.0
  0
LINE
  5
AAB
330
85A
100
AcDbEntity
  8
外枠
  6
BYBLOCK
100
AcDbLine
 10
9.949999539709779
 20
68.51204992800467
 30
0.0
 11
9.949999539709779
 21
69.11204992800503
 31
0.0
  0
LINE
  5
AAC
330
85A
100
AcDbEntity
  8
外枠
  6
BYBLOCK
100
AcDbLine
 10
10.54999953971196
 20
70.51204992800467
 30
0.0
 11
10.54999953971196
 21
71.11204992800505
 31
0.0
  0
LINE
  5
AAD
330
85A
100
AcDbEntity
  8
外枠
  6
BYBLOCK
100
AcDbLine
 10
9.949999539709779
 20
70.51204992800467
 30
0.0
 11
10.54999953971196
 21
70.51204992800467
 31
0.0
  0
LINE
  5
AAE
330
85A
100
AcDbEntity
  8
外枠
  6
BYBLOCK
100
AcDbLine
 10
9.949999539709779
 20
71.11204992800505
 30
0.0
 11
10.54999953971196
 21
71.11204992800505
 31
0.0
  0
LINE
  5
AAF
330
85A
100
AcDbEntity
  8
外枠
  6
BYBLOCK
100
AcDbLine
 10
9.949999539709779
 20
70.51204992800467
 30
0.0
 11
9.949999539709779
 21
71.11204992800505
 31
0.0
  0
LINE
  5
AB0
330
85A
100
AcDbEntity
  8
外枠
  6
BYBLOCK
100
AcDbLine
 10
10.54999953971196
 20
72.51204992800467
 30
0.0
 11
10.54999953971196
 21
73.11204992800502
 31
0.0
  0
LINE
  5
AB1
330
85A
100
AcDbEntity
  8
外枠
  6
BYBLOCK
100
AcDbLine
 10
9.949999539709779
 20
72.51204992800467
 30
0.0
 11
10.54999953971196
 21
72.51204992800467
 31
0.0
  0
LINE
  5
AB2
330
85A
100
AcDbEntity
  8
外枠
  6
BYBLOCK
100
AcDbLine
 10
9.949999539709779
 20
73.11204992800502
 30
0.0
 11
10.54999953971196
 21
73.11204992800502
 31
0.0
  0
LINE
  5
AB3
330
85A
100
AcDbEntity
  8
外枠
  6
BYBLOCK
100
AcDbLine
 10
9.949999539709779
 20
72.51204992800467
 30
0.0
 11
9.949999539709779
 21
73.11204992800502
 31
0.0
  0
LINE
  5
AB4
330
85A
100
AcDbEntity
  8
外枠
  6
BYBLOCK
100
AcDbLine
 10
9.949999539709779
 20
67.11204992800503
 30
0.0
 11
10.54999953971196
 21
67.11204992800503
 31
0.0
  0
LINE
  5
AB5
330
85A
100
AcDbEntity
  8
外枠
  6
BYBLOCK
100
AcDbLine
 10
10.54999953971196
 20
74.51204992800467
 30
0.0
 11
10.54999953971196
 21
75.11204992800502
 31
0.0
  0
LINE
  5
AB6
330
85A
100
AcDbEntity
  8
外枠
  6
BYBLOCK
100
AcDbLine
 10
9.949999539709779
 20
74.51204992800467
 30
0.0
 11
10.54999953971196
 21
74.51204992800467
 31
0.0
  0
LINE
  5
AB7
330
85A
100
AcDbEntity
  8
外枠
  6
BYBLOCK
100
AcDbLine
 10
9.949999539709779
 20
75.11204992800502
 30
0.0
 11
10.54999953971196
 21
75.11204992800502
 31
0.0
  0
LINE
  5
AB8
330
85A
100
AcDbEntity
  8
外枠
  6
BYBLOCK
100
AcDbLine
 10
9.949999539709779
 20
74.51204992800467
 30
0.0
 11
9.949999539709779
 21
75.11204992800502
 31
0.0
  0
LINE
  5
AB9
330
85A
100
AcDbEntity
  8
外枠
  6
BYBLOCK
100
AcDbLine
 10
10.54999953971196
 20
76.31204992800462
 30
0.0
 11
10.54999953971196
 21
76.91204992800497
 31
0.0
  0
LINE
  5
ABA
330
85A
100
AcDbEntity
  8
外枠
  6
BYBLOCK
100
AcDbLine
 10
9.949999539709779
 20
76.31204992800462
 30
0.0
 11
10.54999953971196
 21
76.31204992800462
 31
0.0
  0
LINE
  5
ABB
330
85A
100
AcDbEntity
  8
外枠
  6
BYBLOCK
100
AcDbLine
 10
9.949999539709779
 20
76.91204992800497
 30
0.0
 11
10.54999953971196
 21
76.91204992800497
 31
0.0
  0
LINE
  5
ABC
330
85A
100
AcDbEntity
  8
外枠
  6
BYBLOCK
100
AcDbLine
 10
9.949999539709779
 20
76.31204992800462
 30
0.0
 11
9.949999539709779
 21
76.91204992800497
 31
0.0
  0
LINE
  5
ABD
330
85A
100
AcDbEntity
  8
外枠
  6
BYBLOCK
100
AcDbLine
 10
10.54999953971196
 20
78.11204992800458
 30
0.0
 11
10.54999953971196
 21
78.71204992800494
 31
0.0
  0
LINE
  5
ABE
330
85A
100
AcDbEntity
  8
外枠
  6
BYBLOCK
100
AcDbLine
 10
9.949999539709779
 20
78.11204992800458
 30
0.0
 11
10.54999953971196
 21
78.11204992800458
 31
0.0
  0
LINE
  5
ABF
330
85A
100
AcDbEntity
  8
外枠
  6
BYBLOCK
100
AcDbLine
 10
9.949999539709779
 20
78.71204992800494
 30
0.0
 11
10.54999953971196
 21
78.71204992800494
 31
0.0
  0
LINE
  5
AC0
330
85A
100
AcDbEntity
  8
外枠
  6
BYBLOCK
100
AcDbLine
 10
9.949999539709779
 20
78.11204992800458
 30
0.0
 11
9.949999539709779
 21
78.71204992800494
 31
0.0
  0
LINE
  5
AC1
330
85A
100
AcDbEntity
  8
外枠
100
AcDbLine
 10
9.949999539709779
 20
78.11204992800458
 30
0.0
 11
10.24999953970905
 21
78.11204992800458
 31
0.0
  0
LINE
  5
AC2
330
85A
100
AcDbEntity
  8
外枠
100
AcDbLine
 10
9.949999539709779
 20
78.11204992800458
 30
0.0
 11
9.949999539709779
 21
78.41204992800453
 31
0.0
  0
LINE
  5
AC3
330
85A
100
AcDbEntity
  8
外枠
100
AcDbLine
 10
9.949999539709779
 20
78.71204992800494
 30
0.0
 11
10.24999953970905
 21
78.71204992800494
 31
0.0
  0
ENDBLK
  5
AC4
330
85A
100
AcDbEntity
  8
0
100
AcDbBlockEnd
  0
ENDSEC
  0
SECTION
  2
ENTITIES
  0
LINE
  5
129B
330
807
100
AcDbEntity
  8
0
100
AcDbLine
 10
23.2156476219863
 20
145.3085864740348
 30
0.0
 11
23.21564762196484
 21
62.0085864740349
 31
0.0
  0
LINE
  5
129C
330
807
100
AcDbEntity
  8
0
100
AcDbLine
 10
8.815647621986329
 20
145.3085864740386
 30
0.0
 11
8.81564762197749
 21
111.1085864740385
 31
0.0
  0
LINE
  5
129D
330
807
100
AcDbEntity
  8
0
  6
CONTINUOUS
100
AcDbLine
 10
29.91564762198908
 20
153.3085864740341
 30
0.0
 11
29.91564762196498
 21
59.00858647403399
 31
0.0
  0
LINE
  5
129E
330
807
100
AcDbEntity
  8
0
  6
CONTINUOUS
100
AcDbLine
 10
5.115647621988898
 20
153.3085864740405
 30
0.0
 11
5.115647621964797
 21
59.00858647404032
 31
0.0
  0
LINE
  5
129F
330
807
100
AcDbEntity
  8
0
  6
CONTINUOUS
100
AcDbLine
 10
3.025647621989463
 20
155.9053634740407
 30
0.0
 11
3.025647621963969
 21
56.41181047404055
 31
0.0
  0
LINE
  5
12A0
330
807
100
AcDbEntity
  8
0
  6
CONTINUOUS
100
AcDbLine
 10
0.0000006219644604
 20
59.88701047404117
 30
0.0
 11
0.0000006219881357
 21
152.4301624740413
 31
0.0
  0
LINE
  5
12A1
330
807
100
AcDbEntity
  8
0
  6
CONTINUOUS
100
AcDbLine
 10
32.00564762198993
 20
155.9053634740333
 30
0.0
 11
32.00564762196444
 21
56.41181047403313
 31
0.0
  0
LINE
  5
12A2
330
807
100
AcDbEntity
  8
0
  6
CONTINUOUS
100
AcDbLine
 10
35.0312946219648
 20
59.88701047403222
 30
0.0
 11
35.03129462198848
 21
152.4301624740323
 31
0.0
  0
LINE
  5
12A3
330
807
100
AcDbEntity
  8
0
  6
CONTINUOUS
100
AcDbLine
 10
5.015647621964404
 20
58.90858647403999
 30
0.0
 11
5.015647621988563
 21
153.4085864740399
 31
0.0
  0
LINE
  5
12A4
330
807
100
AcDbEntity
  8
0
  6
CONTINUOUS
100
AcDbLine
 10
30.0156476219644
 20
58.90858647403359
 30
0.0
 11
30.01564762198856
 21
153.4085864740335
 31
0.0
  0
LINE
  5
12A5
330
807
100
AcDbEntity
  8
0
  6
CONTINUOUS
100
AcDbLine
 10
0.9468226219885877
 20
151.0239924740408
 30
0.0
 11
0.946822621965623
 21
61.29318147404148
 31
0.0
  0
LINE
  5
12A6
330
807
100
AcDbEntity
  8
0
  6
CONTINUOUS
100
AcDbLine
 10
34.08447262198825
 20
151.0239924740324
 30
0.0
 11
34.08447262196529
 21
61.29318147403299
 31
0.0
  0
LINE
  5
12A7
330
807
100
AcDbEntity
  8
3_表示パネル
  6
CONTINUOUS
100
AcDbLine
 10
13.11564762197625
 20
80.10858647403745
 30
0.0
 11
13.1156476219763
 21
91.40858647403764
 31
0.0
  0
INSERT
  5
12A8
330
807
100
AcDbEntity
  8
外枠
100
AcDbBlockReference
  2
A$C5B427B2D
 10
9.493398663193261
 20
62.52186586981952
 30
0.0
  0
LINE
  5
12A9
330
807
100
AcDbEntity
  8
0
  6
CONTINUOUS
100
AcDbLine
 10
3.015647621963125
 20
53.9085864740405
 30
0.0
 11
6.516181621962914
 21
53.90858647403959
 31
0.0
  0
ARC
  5
12AA
330
807
100
AcDbEntity
  8
0
  6
CONTINUOUS
100
AcDbCircle
 10
17.51564762085052
 20
-4291.163968525961
 30
0.0
 40
4346.596707999999
100
AcDbArc
 50
89.82221899995115
 51
90.17778099996743
  0
LINE
  5
12AB
330
807
100
AcDbEntity
  8
0
  6
CONTINUOUS
100
AcDbLine
 10
3.515648621961673
 20
46.90858647404036
 30
0.0
 11
13.51564762196133
 21
46.9085864740378
 31
0.0
  0
LINE
  5
12AC
330
807
100
AcDbEntity
  8
0
  6
CONTINUOUS
100
AcDbLine
 10
2.015647621963381
 20
54.90858647404076
 30
0.0
 11
2.015647621964376
 21
58.88701047404066
 31
0.0
  0
LINE
  5
12AD
330
807
100
AcDbEntity
  8
0
  6
CONTINUOUS
100
AcDbLine
 10
2.015648621962043
 20
48.40858647404076
 30
0.0
 11
2.01564862196372
 21
54.90858647404076
 31
0.0
  0
ARC
  5
12AE
330
807
100
AcDbEntity
  8
0
  6
CONTINUOUS
100
AcDbCircle
 10
3.515648621962014
 20
48.40858647404036
 30
0.0
 40
1.5
100
AcDbArc
 50
179.9999999999853
 51
269.9999999999853
  0
ARC
  5
12AF
330
807
100
AcDbEntity
  8
0
  6
CONTINUOUS
100
AcDbCircle
 10
4.02564762196394
 20
56.41181047404029
 30
0.0
 40
1.0
100
AcDbArc
 50
179.9999999999853
 51
270.1777809999674
  0
ARC
  5
12B0
330
807
100
AcDbEntity
  8
0
  6
CONTINUOUS
100
AcDbCircle
 10
3.015647621963353
 20
54.9085864740405
 30
0.0
 40
1.0
100
AcDbArc
 50
179.9999999999853
 51
269.9999999999853
  0
LINE
  5
12B1
330
807
100
AcDbEntity
  8
0
  6
CONTINUOUS
100
AcDbLine
 10
2.015647621964376
 20
58.88701047404066
 30
0.0
 11
2.947059621964655
 21
60.29318147404097
 31
0.0
  0
ARC
  5
12B2
330
807
100
AcDbEntity
  8
0
  6
CONTINUOUS
100
AcDbCircle
 10
1.000000621964431
 20
59.88701047404092
 30
0.0
 40
1.0
100
AcDbArc
 50
179.9999999999853
 51
269.9999999999853
  0
LINE
  5
12B3
330
807
100
AcDbEntity
  8
0
  6
CONTINUOUS
100
AcDbLine
 10
2.015647621964376
 20
58.88701047404066
 30
0.0
 11
1.000000621964204
 21
58.88701047404092
 31
0.0
  0
LINE
  5
12B4
330
807
100
AcDbEntity
  8
0
  6
CONTINUOUS
100
AcDbLine
 10
1.946822621965367
 20
60.29318147404123
 30
0.0
 11
2.947059621964655
 21
60.29318147404097
 31
0.0
  0
ARC
  5
12B5
330
807
100
AcDbEntity
  8
0
  6
CONTINUOUS
100
AcDbCircle
 10
1.946822621965594
 20
61.29318147404124
 30
0.0
 40
1.0
100
AcDbArc
 50
179.9999999999853
 51
269.9999999999853
  0
LINE
  5
12B6
330
807
100
AcDbEntity
  8
0
  6
CONTINUOUS
100
AcDbLine
 10
33.01564762196338
 20
54.90858647403283
 30
0.0
 11
33.01564762196437
 21
58.88701047403273
 31
0.0
  0
ARC
  5
12B7
330
807
100
AcDbEntity
  8
0
  6
CONTINUOUS
100
AcDbCircle
 10
17.51564762084743
 20
-4303.250861525961
 30
0.0
 40
4358.569174999999
100
AcDbArc
 50
89.87475900000161
 51
90.12524099996904
  0
LINE
  5
12B8
330
807
100
AcDbEntity
  8
0
  6
CONTINUOUS
100
AcDbLine
 10
27.83996962196377
 20
54.90884847403464
 30
0.0
 11
7.191326621963327
 21
54.90884847403989
 31
0.0
  0
LINE
  5
12B9
330
807
100
AcDbEntity
  8
0
  6
CONTINUOUS
100
AcDbLine
 10
21.51564762196133
 20
46.90858647403575
 30
0.0
 11
31.5156466219619
 21
46.90858647403319
 31
0.0
  0
ARC
  5
12BA
330
807
100
AcDbEntity
  8
0
  6
CONTINUOUS
100
AcDbCircle
 10
13.51564762196167
 20
48.40858647403774
 30
0.0
 40
1.5
100
AcDbArc
 50
269.9999999999853
 51
359.9999999999853
  0
ARC
  5
12BB
330
807
100
AcDbEntity
  8
0
  6
CONTINUOUS
100
AcDbCircle
 10
7.990616621963056
 20
54.3079034740395
 30
0.0
 40
1.0
100
AcDbArc
 50
90.12524099996904
 51
146.046302999995
  0
LINE
  5
12BC
330
807
100
AcDbEntity
  8
0
  6
CONTINUOUS
100
AcDbLine
 10
6.516181621962914
 20
53.90858647403959
 30
0.0
 11
7.161126621963148
 21
54.86642547404006
 31
0.0
  0
LINE
  5
12BD
330
807
100
AcDbEntity
  8
0
100
AcDbLine
 10
17.51564762196213
 20
47.65858647403672
 30
0.0
 11
17.51564762196213
 21
52.65858647403672
 31
0.0
  0
LINE
  5
12BE
330
807
100
AcDbEntity
  8
0
  6
CONTINUOUS
100
AcDbLine
 10
20.01564762196216
 20
50.15858647403615
 30
0.0
 11
20.0156476219617
 21
48.40858647403615
 31
0.0
  0
LINE
  5
12BF
330
807
100
AcDbEntity
  8
0
  6
CONTINUOUS
100
AcDbLine
 10
15.01564762196216
 20
50.15858647403743
 30
0.0
 11
15.0156476219617
 21
48.40858647403743
 31
0.0
  0
ARC
  5
12C0
330
807
100
AcDbEntity
  8
0
  6
CONTINUOUS
100
AcDbCircle
 10
21.51564762196167
 20
48.4085864740357
 30
0.0
 40
1.5
100
AcDbArc
 50
179.9999999999853
 51
269.9999999999853
  0
LINE
  5
12C1
330
807
100
AcDbEntity
  8
0
100
AcDbLine
 10
15.01564762196213
 20
50.15858647403672
 30
0.0
 11
20.01564762196213
 21
50.15858647403672
 31
0.0
  0
ARC
  5
12C2
330
807
100
AcDbEntity
  8
0
  6
CONTINUOUS
100
AcDbCircle
 10
17.51564762196213
 20
50.15858647403672
 30
0.0
 40
2.5
100
AcDbArc
 50
359.9999999999853
 51
179.9999999999853
  0
LINE
  5
12C3
330
807
100
AcDbEntity
  8
0
  6
CONTINUOUS
100
AcDbLine
 10
33.01564662196227
 20
48.40858647403283
 30
0.0
 11
33.01564662196395
 21
54.90858647403283
 31
0.0
  0
ARC
  5
12C4
330
807
100
AcDbEntity
  8
0
  6
CONTINUOUS
100
AcDbCircle
 10
31.51564662196224
 20
48.40858647403314
 30
0.0
 40
1.5
100
AcDbArc
 50
269.9999999999853
 51
359.9999999999853
  0
LINE
  5
12C5
330
807
100
AcDbEntity
  8
0
  6
CONTINUOUS
100
AcDbLine
 10
28.51511362196333
 20
53.90858647403397
 30
0.0
 11
32.01564762196312
 21
53.90858647403309
 31
0.0
  0
LINE
  5
12C6
330
807
100
AcDbEntity
  8
0
  6
CONTINUOUS
100
AcDbLine
 10
28.51511362196333
 20
53.90858647403397
 30
0.0
 11
27.87016862196356
 21
54.86642547403474
 31
0.0
  0
ARC
  5
12C7
330
807
100
AcDbEntity
  8
0
  6
CONTINUOUS
100
AcDbCircle
 10
27.04067962196365
 20
54.30790347403465
 30
0.0
 40
1.0
100
AcDbArc
 50
33.95369699997557
 51
89.87475900000161
  0
ARC
  5
12C8
330
807
100
AcDbEntity
  8
0
  6
CONTINUOUS
100
AcDbCircle
 10
32.01564762196335
 20
54.90858647403303
 30
0.0
 40
1.0
100
AcDbArc
 50
269.9999999999853
 51
359.9999999999853
  0
ARC
  5
12C9
330
807
100
AcDbEntity
  8
0
  6
CONTINUOUS
100
AcDbCircle
 10
31.00564762196441
 20
56.41181047403333
 30
0.0
 40
1.0
100
AcDbArc
 50
269.8222190000032
 51
359.9999999999853
  0
LINE
  5
12CA
330
807
100
AcDbEntity
  8
0
  6
CONTINUOUS
100
AcDbLine
 10
6.115647621964541
 20
58.00858647404007
 30
0.0
 11
28.91564762196472
 21
58.00858647403424
 31
0.0
  0
LINE
  5
12CB
330
807
100
AcDbEntity
  8
0
  6
CONTINUOUS
100
AcDbLine
 10
6.015647621964149
 20
57.90858647403974
 30
0.0
 11
29.01564762196414
 21
57.90858647403386
 31
0.0
  0
LINE
  5
12CC
330
807
100
AcDbEntity
  8
0
100
AcDbLine
 10
11.61564762196482
 20
62.00858647403788
 30
0.0
 11
11.61564762196931
 21
79.50858647403788
 31
0.0
  0
LINE
  5
12CD
330
807
100
AcDbEntity
  8
0
  6
CONTINUOUS
100
AcDbLine
 10
11.6156476219763
 20
80.10858647403745
 30
0.0
 11
11.61564762196482
 21
62.00858647403788
 31
0.0
  0
LINE
  5
12CE
330
807
100
AcDbEntity
  8
0
100
AcDbLine
 10
11.61564762196482
 20
62.00858647403788
 30
0.0
 11
23.21564762196484
 21
62.0085864740349
 31
0.0
  0
ARC
  5
12CF
330
807
100
AcDbEntity
  8
0
  6
CONTINUOUS
100
AcDbCircle
 10
6.115647621964768
 20
59.00858647404001
 30
0.0
 40
1.0
100
AcDbArc
 50
179.9999999999853
 51
269.9999999999853
  0
ARC
  5
12D0
330
807
100
AcDbEntity
  8
0
  6
CONTINUOUS
100
AcDbCircle
 10
6.015647621964376
 20
58.90858647403968
 30
0.0
 40
1.0
100
AcDbArc
 50
179.9999999999853
 51
269.9999999999853
  0
LINE
  5
12D1
330
807
100
AcDbEntity
  8
3_表示パネル
  6
CONTINUOUS
100
AcDbLine
 10
13.11564762197625
 20
80.10858647403745
 30
0.0
 11
11.6156476219763
 21
80.10858647403745
 31
0.0
  0
ARC
  5
12D2
330
807
100
AcDbEntity
  8
0
  6
CONTINUOUS
100
AcDbCircle
 10
34.03129462196477
 20
59.88701047403242
 30
0.0
 40
1.0
100
AcDbArc
 50
269.9999999999853
 51
359.9999999999853
  0
ARC
  5
12D3
330
807
100
AcDbEntity
  8
0
  6
CONTINUOUS
100
AcDbCircle
 10
33.08447262196526
 20
61.29318147403319
 30
0.0
 40
1.0
100
AcDbArc
 50
269.9999999999853
 51
359.9999999999853
  0
ARC
  5
12D4
330
807
100
AcDbEntity
  8
0
  6
CONTINUOUS
100
AcDbCircle
 10
28.91564762196495
 20
59.00858647403419
 30
0.0
 40
1.0
100
AcDbArc
 50
269.9999999999853
 51
359.9999999999853
  0
ARC
  5
12D5
330
807
100
AcDbEntity
  8
0
  6
CONTINUOUS
100
AcDbCircle
 10
29.01564762196437
 20
58.9085864740338
 30
0.0
 40
1.0
100
AcDbArc
 50
269.9999999999853
 51
359.9999999999853
  0
LINE
  5
12D6
330
807
100
AcDbEntity
  8
0
  6
CONTINUOUS
100
AcDbLine
 10
33.01564862196471
 20
58.8870094740333
 30
0.0
 11
32.08423562196483
 21
60.2931814740335
 31
0.0
  0
LINE
  5
12D7
330
807
100
AcDbEntity
  8
0
  6
CONTINUOUS
100
AcDbLine
 10
33.01564762196437
 20
58.88701047403273
 30
0.0
 11
34.03129462196455
 21
58.88701047403248
 31
0.0
  0
LINE
  5
12D8
330
807
100
AcDbEntity
  8
0
  6
CONTINUOUS
100
AcDbLine
 10
33.08447262196503
 20
60.29318147403325
 30
0.0
 11
32.08423562196483
 21
60.2931814740335
 31
0.0
  0
LINE
  5
12D9
330
807
100
AcDbEntity
  8
0
100
AcDbLine
 10
9.493398202905922
 20
125.8839157978229
 30
0.0
 11
9.493398202902312
 21
111.8839157978229
 31
0.0
  0
LINE
  5
12DA
330
807
100
AcDbEntity
  8
0
100
AcDbLine
 10
16.61564762197238
 20
91.40858647403646
 30
0.0
 11
16.61564762197744
 21
111.1085864740365
 31
0.0
  0
LINE
  5
12DB
330
807
100
AcDbEntity
  8
3_表示パネル
  6
CONTINUOUS
100
AcDbLine
 10
13.1156476219763
 20
91.40858647403764
 30
0.0
 11
16.6156476219763
 21
91.40858647403764
 31
0.0
  0
LINE
  5
12DC
330
807
100
AcDbEntity
  8
0
  6
CONTINUOUS
100
AcDbLine
 10
13.1156476219763
 20
91.40858647403764
 30
0.0
 11
16.6156476219792
 21
91.40858647403765
 31
0.0
  0
LINE
  5
12DD
330
807
100
AcDbEntity
  8
0
  6
CONTINUOUS
100
AcDbLine
 10
13.1156476219763
 20
91.40858647403735
 30
0.0
 11
16.61564762197238
 21
91.40858647403646
 31
0.0
  0
LINE
  5
12DE
330
807
100
AcDbEntity
  8
0
100
AcDbLine
 10
8.81564762197749
 20
111.1085864740385
 30
0.0
 11
16.61564762197744
 21
111.1085864740365
 31
0.0
  0
LINE
  5
12DF
330
807
100
AcDbEntity
  8
0
  6
CONTINUOUS
100
AcDbLine
 10
3.515648621992369
 20
166.9085864740403
 30
0.0
 11
31.5156466219926
 21
166.9085864740331
 31
0.0
  0
LINE
  5
12E0
330
807
100
AcDbEntity
  8
0
  6
CONTINUOUS
100
AcDbLine
 10
3.01564762198987
 20
158.4085864740404
 30
0.0
 11
6.516181621989659
 21
158.4085864740395
 31
0.0
  0
ARC
  5
12E1
330
807
100
AcDbEntity
  8
0
  6
CONTINUOUS
100
AcDbCircle
 10
17.51564762310235
 20
4503.481142474038
 30
0.0
 40
4346.596707999999
100
AcDbArc
 50
269.8222190000032
 51
270.1777809999674
  0
LINE
  5
12E2
330
807
100
AcDbEntity
  8
0
  6
CONTINUOUS
100
AcDbLine
 10
2.015648621989953
 20
157.4085864740407
 30
0.0
 11
2.015648621991971
 21
165.4085864740407
 31
0.0
  0
ARC
  5
12E3
330
807
100
AcDbEntity
  8
0
  6
CONTINUOUS
100
AcDbCircle
 10
1.946822621988559
 20
151.0239924740405
 30
0.0
 40
1.0
100
AcDbArc
 50
89.99999999998534
 51
179.9999999999853
  0
ARC
  5
12E4
330
807
100
AcDbEntity
  8
0
  6
CONTINUOUS
100
AcDbCircle
 10
4.025647621989406
 20
155.9053634740403
 30
0.0
 40
1.0
100
AcDbArc
 50
89.82221899995115
 51
179.9999999999853
  0
LINE
  5
12E5
330
807
100
AcDbEntity
  8
0
  6
CONTINUOUS
100
AcDbLine
 10
2.015647621989614
 20
157.4085864740407
 30
0.0
 11
2.015647621988563
 21
153.4301624740407
 31
0.0
  0
LINE
  5
12E6
330
807
100
AcDbEntity
  8
0
  6
CONTINUOUS
100
AcDbLine
 10
2.015647621988563
 20
153.4301624740407
 30
0.0
 11
1.000000621988391
 21
153.430162474041
 31
0.0
  0
ARC
  5
12E7
330
807
100
AcDbEntity
  8
0
  6
CONTINUOUS
100
AcDbCircle
 10
3.015647621989558
 20
157.4085864740403
 30
0.0
 40
1.0
100
AcDbArc
 50
89.99999999998534
 51
179.9999999999853
  0
LINE
  5
12E8
330
807
100
AcDbEntity
  8
0
  6
CONTINUOUS
100
AcDbLine
 10
1.946822621988843
 20
152.0239924740406
 30
0.0
 11
2.947059621988131
 21
152.0239924740403
 31
0.0
  0
LINE
  5
12E9
330
807
100
AcDbEntity
  8
0
  6
CONTINUOUS
100
AcDbLine
 10
2.015647621988563
 20
153.4301624740407
 30
0.0
 11
2.947059621988131
 21
152.0239924740403
 31
0.0
  0
LINE
  5
12EA
330
807
100
AcDbEntity
  8
0
  6
CONTINUOUS
100
AcDbLine
 10
2.015647621988563
 20
153.4301624740407
 30
0.0
 11
2.947059621988131
 21
152.0239924740403
 31
0.0
  0
ARC
  5
12EB
330
807
100
AcDbEntity
  8
0
  6
CONTINUOUS
100
AcDbCircle
 10
1.000000621988107
 20
152.4301624740409
 30
0.0
 40
1.0
100
AcDbArc
 50
89.99999999998534
 51
179.9999999999853
  0
ARC
  5
12EC
330
807
100
AcDbEntity
  8
0
  6
CONTINUOUS
100
AcDbCircle
 10
3.515648621991942
 20
165.4085864740402
 30
0.0
 40
1.5
100
AcDbArc
 50
89.99999999998534
 51
179.9999999999853
  0
LINE
  5
12ED
330
807
100
AcDbEntity
  8
0
  6
CONTINUOUS
100
AcDbLine
 10
6.115647621989154
 20
154.3085864740402
 30
0.0
 11
28.91564762198933
 21
154.3085864740343
 31
0.0
  0
ARC
  5
12EE
330
807
100
AcDbEntity
  8
0
  6
CONTINUOUS
100
AcDbCircle
 10
17.51564762310545
 20
4515.568035474038
 30
0.0
 40
4358.569174999999
100
AcDbArc
 50
269.8747589999495
 51
270.1252410000212
  0
LINE
  5
12EF
330
807
100
AcDbEntity
  8
0
  6
CONTINUOUS
100
AcDbLine
 10
7.19132662198956
 20
157.4083254740392
 30
0.0
 11
27.83996962199001
 21
157.4083254740339
 31
0.0
  0
LINE
  5
12F0
330
807
100
AcDbEntity
  8
0
  6
CONTINUOUS
100
AcDbLine
 10
6.015647621988819
 20
154.4085864740396
 30
0.0
 11
29.01564762198882
 21
154.4085864740338
 31
0.0
  0
LINE
  5
12F1
330
807
100
AcDbEntity
  8
0
100
AcDbLine
 10
23.2156476219863
 20
145.3085864740348
 30
0.0
 11
8.815647621986329
 21
145.3085864740386
 31
0.0
  0
ARC
  5
12F2
330
807
100
AcDbEntity
  8
0
  6
CONTINUOUS
100
AcDbCircle
 10
6.11564762198887
 20
153.3085864740401
 30
0.0
 40
1.0
100
AcDbArc
 50
89.99999999998534
 51
179.9999999999853
  0
ARC
  5
12F3
330
807
100
AcDbEntity
  8
0
  6
CONTINUOUS
100
AcDbCircle
 10
6.015647621988534
 20
153.4085864740395
 30
0.0
 40
1.0
100
AcDbArc
 50
89.99999999998534
 51
179.9999999999853
  0
ARC
  5
12F4
330
807
100
AcDbEntity
  8
0
  6
CONTINUOUS
100
AcDbCircle
 10
7.990616621989602
 20
158.0092704740391
 30
0.0
 40
1.0
100
AcDbArc
 50
213.9536969999756
 51
269.8747589999495
  0
LINE
  5
12F5
330
807
100
AcDbEntity
  8
0
  6
CONTINUOUS
100
AcDbLine
 10
6.516181621989659
 20
158.4085864740395
 30
0.0
 11
7.161126621989438
 21
157.4507474740397
 31
0.0
  0
LINE
  5
12F6
330
807
100
AcDbEntity
  8
0
  6
CONTINUOUS
100
AcDbLine
 10
23.51564762198671
 20
146.2085864740352
 30
0.0
 11
21.31564762198667
 21
146.2085864740357
 31
0.0
  0
LINE
  5
12F7
330
807
100
AcDbEntity
  8
0
  6
CONTINUOUS
100
AcDbLine
 10
23.51564762198756
 20
149.5085864740353
 30
0.0
 11
21.31564762198752
 21
149.5085864740359
 31
0.0
  0
LINE
  5
12F8
330
807
100
AcDbEntity
  8
0
  6
CONTINUOUS
100
AcDbLine
 10
23.51564762198756
 20
149.5085864740353
 30
0.0
 11
23.51564762198671
 21
146.2085864740352
 31
0.0
  0
LINE
  5
12F9
330
807
100
AcDbEntity
  8
0
  6
CONTINUOUS
100
AcDbLine
 10
21.31564762198667
 20
146.2085864740357
 30
0.0
 11
21.31564762198752
 21
149.5085864740359
 31
0.0
  0
LINE
  5
12FA
330
807
100
AcDbEntity
  8
0
100
AcDbLine
 10
23.21564762198727
 20
149.1085864740351
 30
0.0
 11
23.21564762198661
 21
146.5085864740356
 31
0.0
  0
LINE
  5
12FB
330
807
100
AcDbEntity
  8
0
100
AcDbLine
 10
23.51564762198754
 20
149.4085864740352
 30
0.0
 11
23.51564762198671
 21
146.2085864740354
 31
0.0
  0
LINE
  5
12FC
330
807
100
AcDbEntity
  8
0
100
AcDbLine
 10
21.61564762198716
 20
146.508586474036
 30
0.0
 11
21.61564762198782
 21
149.1085864740355
 31
0.0
  0
LINE
  5
12FD
330
807
100
AcDbEntity
  8
0
100
AcDbLine
 10
21.31564762198689
 20
146.208586474036
 30
0.0
 11
21.31564762198772
 21
149.4085864740358
 31
0.0
  0
LINE
  5
12FE
330
807
100
AcDbEntity
  8
0
100
AcDbLine
 10
23.21564762198661
 20
146.5085864740356
 30
0.0
 11
21.61564762198716
 21
146.508586474036
 31
0.0
  0
LINE
  5
12FF
330
807
100
AcDbEntity
  8
0
100
AcDbLine
 10
23.51564762198671
 20
146.2085864740354
 30
0.0
 11
21.31564762198689
 21
146.208586474036
 31
0.0
  0
LINE
  5
1300
330
807
100
AcDbEntity
  8
0
100
AcDbLine
 10
23.51564762198671
 20
146.2085864740354
 30
0.0
 11
21.31564762198689
 21
146.208586474036
 31
0.0
  0
LINE
  5
1301
330
807
100
AcDbEntity
  8
0
100
AcDbLine
 10
23.21564762198727
 20
149.1085864740351
 30
0.0
 11
21.61564762198782
 21
149.1085864740355
 31
0.0
  0
LINE
  5
1302
330
807
100
AcDbEntity
  8
0
100
AcDbLine
 10
15.01564762199078
 20
162.1585864740366
 30
0.0
 11
20.01564762199078
 21
162.1585864740366
 31
0.0
  0
CIRCLE
  5
1303
330
807
100
AcDbEntity
  8
0
  6
CONTINUOUS
100
AcDbCircle
 10
17.51564762199078
 20
162.1585864740366
 30
0.0
 40
2.5
  0
LINE
  5
1304
330
807
100
AcDbEntity
  8
0
100
AcDbLine
 10
17.51564762199078
 20
159.6585864740366
 30
0.0
 11
17.51564762199078
 21
164.6585864740366
 31
0.0
  0
LINE
  5
1305
330
807
100
AcDbEntity
  8
0
  6
CONTINUOUS
100
AcDbLine
 10
33.01564662199018
 20
157.4085864740327
 30
0.0
 11
33.0156466219922
 21
165.4085864740328
 31
0.0
  0
ARC
  5
1306
330
807
100
AcDbEntity
  8
0
  6
CONTINUOUS
100
AcDbCircle
 10
33.08447262198822
 20
151.0239924740325
 30
0.0
 40
1.0
100
AcDbArc
 50
359.9999999999853
 51
89.99999999998534
  0
ARC
  5
1307
330
807
100
AcDbEntity
  8
0
  6
CONTINUOUS
100
AcDbCircle
 10
34.03129462198845
 20
152.4301624740324
 30
0.0
 40
1.0
100
AcDbArc
 50
359.9999999999853
 51
89.99999899999044
  0
ARC
  5
1308
330
807
100
AcDbEntity
  8
0
  6
CONTINUOUS
100
AcDbCircle
 10
28.91564762198905
 20
153.3085864740342
 30
0.0
 40
1.0
100
AcDbArc
 50
359.9999999999853
 51
89.99999999998534
  0
ARC
  5
1309
330
807
100
AcDbEntity
  8
0
  6
CONTINUOUS
100
AcDbCircle
 10
29.01564762198853
 20
153.4085864740337
 30
0.0
 40
1.0
100
AcDbArc
 50
359.9999999999853
 51
89.99999999998534
  0
LINE
  5
130A
330
807
100
AcDbEntity
  8
0
  6
CONTINUOUS
100
AcDbLine
 10
28.51511362199008
 20
158.4085864740339
 30
0.0
 11
32.01564762198987
 21
158.408586474033
 31
0.0
  0
ARC
  5
130B
330
807
100
AcDbEntity
  8
0
  6
CONTINUOUS
100
AcDbCircle
 10
27.04067962199019
 20
158.0092704740342
 30
0.0
 40
1.0
100
AcDbArc
 50
270.1252410000212
 51
326.046302999995
  0
LINE
  5
130C
330
807
100
AcDbEntity
  8
0
  6
CONTINUOUS
100
AcDbLine
 10
28.51511362199008
 20
158.4085864740339
 30
0.0
 11
27.87016862198985
 21
157.4507474740344
 31
0.0
  0
LINE
  5
130D
330
807
100
AcDbEntity
  8
0
  6
CONTINUOUS
100
AcDbLine
 10
33.01564762198961
 20
157.4085864740327
 30
0.0
 11
33.01564762198856
 21
153.4301624740328
 31
0.0
  0
LINE
  5
130E
330
807
100
AcDbEntity
  8
0
  6
CONTINUOUS
100
AcDbLine
 10
33.01564762198856
 20
153.4301624740328
 30
0.0
 11
34.03129462198873
 21
153.4301624740326
 31
0.0
  0
ARC
  5
130F
330
807
100
AcDbEntity
  8
0
  6
CONTINUOUS
100
AcDbCircle
 10
32.01564762198955
 20
157.4085864740329
 30
0.0
 40
1.0
100
AcDbArc
 50
359.9999999999853
 51
89.99999999998534
  0
LINE
  5
1310
330
807
100
AcDbEntity
  8
0
  6
CONTINUOUS
100
AcDbLine
 10
33.08447262198851
 20
152.0239924740327
 30
0.0
 11
32.08423562198831
 21
152.0239924740329
 31
0.0
  0
LINE
  5
1311
330
807
100
AcDbEntity
  8
0
  6
CONTINUOUS
100
AcDbLine
 10
33.01564762198856
 20
153.4301624740328
 30
0.0
 11
32.08423562198831
 21
152.0239924740329
 31
0.0
  0
LINE
  5
1312
330
807
100
AcDbEntity
  8
0
  6
CONTINUOUS
100
AcDbLine
 10
33.01564762198856
 20
153.4301624740328
 30
0.0
 11
32.08423562198831
 21
152.0239924740329
 31
0.0
  0
ARC
  5
1313
330
807
100
AcDbEntity
  8
0
  6
CONTINUOUS
100
AcDbCircle
 10
31.00564762198988
 20
155.9053634740334
 30
0.0
 40
1.0
100
AcDbArc
 50
359.9999999999853
 51
90.17778099996743
  0
ARC
  5
1314
330
807
100
AcDbEntity
  8
0
  6
CONTINUOUS
100
AcDbCircle
 10
31.51564662199217
 20
165.408586474033
 30
0.0
 40
1.5
100
AcDbArc
 50
359.9999999999853
 51
89.99999999998534
  0
LWPOLYLINE
  5
1315
330
807
100
AcDbEntity
  8
0
100
AcDbPolyline
 90
        4
 70
     1
 43
0.0
 10
117.264525223445
 20
2.007615192785692
 10
117.264525223445
 20
33.00803319278532
 10
118.764525223445
 20
33.00803319278532
 10
118.764525223445
 20
2.007615192785692
  0
LINE
  5
1316
330
807
100
AcDbEntity
  8
0
100
AcDbLine
 10
117.264525223445
 20
2.007615192785692
 30
0.0
 11
117.264525223445
 21
33.00803319278532
 31
0.0
  0
ARC
  5
1317
330
807
100
AcDbEntity
  8
0
  6
CONTINUOUS
100
AcDbCircle
 10
57.99868222344492
 20
25.59380419278534
 30
0.0
 40
2.0
100
AcDbArc
 50
90.88282099996837
 51
175.2671440000167
  0
ARC
  5
1318
330
807
100
AcDbEntity
  8
0
  6
CONTINUOUS
100
AcDbCircle
 10
150.6645252234456
 20
17.50782319278516
 30
0.0
 40
100.0
100
AcDbArc
 50
172.1606000000095
 51
187.8393979999644
  0
LINE
  5
1319
330
807
100
AcDbEntity
  8
0
  6
CONTINUOUS
100
AcDbLine
 10
117.264525223445
 20
2.007824192785506
 30
0.0
 11
117.264525223445
 21
33.0078241927855
 31
0.0
  0
LINE
  5
131A
330
807
100
AcDbEntity
  8
0
  6
CONTINUOUS
100
AcDbLine
 10
52.57434322344568
 20
3.004657192785657
 30
0.0
 11
117.264525223445
 21
2.007824192785506
 31
0.0
  0
LINE
  5
131B
330
807
100
AcDbEntity
  8
0
  6
CONTINUOUS
100
AcDbLine
 10
57.80448722344488
 20
0.9238271927857795
 30
0.0
 11
117.7568212234453
 21
0.0000001927852509
 31
0.0
  0
LINE
  5
131C
330
807
100
AcDbEntity
  8
0
  6
CONTINUOUS
100
AcDbLine
 10
57.96786622344541
 20
7.422081192785867
 30
0.0
 11
117.264525223445
 21
6.508358192786204
 31
0.0
  0
LINE
  5
131D
330
807
100
AcDbEntity
  8
0
  6
CONTINUOUS
100
AcDbLine
 10
61.6645252234456
 20
23.50782319278516
 30
0.0
 11
61.6645252234456
 21
11.50782319278516
 31
0.0
  0
LINE
  5
131E
330
807
100
AcDbEntity
  8
0
  6
CONTINUOUS
100
AcDbLine
 10
63.66452522344559
 20
11.50782319278516
 30
0.0
 11
63.66452522344559
 21
23.50782319278516
 31
0.0
  0
ARC
  5
131F
330
807
100
AcDbEntity
  8
0
  6
CONTINUOUS
100
AcDbCircle
 10
155.6645252234456
 20
17.50782319278516
 30
0.0
 40
100.0
100
AcDbArc
 50
175.2671440000167
 51
184.7328550000164
  0
ARC
  5
1320
330
807
100
AcDbEntity
  8
0
  6
CONTINUOUS
100
AcDbCircle
 10
150.6645252234456
 20
17.50782319278516
 30
0.0
 40
100.0
100
AcDbArc
 50
187.8398260000145
 51
188.3314879999838
  0
LINE
  5
1321
330
807
100
AcDbEntity
  8
0
  6
CONTINUOUS
100
AcDbLine
 10
51.71989422344529
 20
3.017824192785724
 30
0.0
 11
52.57434322344568
 21
3.004657192785657
 31
0.0
  0
ARC
  5
1322
330
807
100
AcDbEntity
  8
0
  6
CONTINUOUS
100
AcDbCircle
 10
52.58975122344498
 20
4.004538192785418
 30
0.0
 40
1.0
100
AcDbArc
 50
187.8393979999644
 51
269.1171789999794
  0
LINE
  5
1323
330
807
100
AcDbEntity
  8
0
  6
CONTINUOUS
100
AcDbLine
 10
56.81989422344566
 20
1.923708192785511
 30
0.0
 11
56.81989422344566
 21
2.939236192785415
 31
0.0
  0
ARC
  5
1324
330
807
100
AcDbEntity
  8
0
  6
CONTINUOUS
100
AcDbCircle
 10
57.81989422344565
 20
1.923708192785511
 30
0.0
 40
1.0
100
AcDbArc
 50
180.0
 51
269.1171789999794
  0
ARC
  5
1325
330
807
100
AcDbEntity
  8
0
  6
CONTINUOUS
100
AcDbCircle
 10
57.99868122344548
 20
9.421843192785331
 30
0.0
 40
2.0
100
AcDbArc
 50
184.7328550000164
 51
269.1171789999794
  0
LINE
  5
1326
330
807
100
AcDbEntity
  8
0
  6
CONTINUOUS
100
AcDbLine
 10
61.6645252234456
 20
11.50782319278516
 30
0.0
 11
63.66452522344559
 21
11.50782319278516
 31
0.0
  0
LINE
  5
1327
330
807
100
AcDbEntity
  8
0
  6
CONTINUOUS
100
AcDbLine
 10
63.66452522344559
 20
23.50782319278516
 30
0.0
 11
61.6645252234456
 21
23.50782319278516
 31
0.0
  0
LINE
  5
1328
330
807
100
AcDbEntity
  8
0
  6
CONTINUOUS
100
AcDbLine
 10
65.66452522344559
 20
23.50782319278516
 30
0.0
 11
65.66452522344559
 21
11.50782319278516
 31
0.0
  0
LINE
  5
1329
330
807
100
AcDbEntity
  8
0
  6
CONTINUOUS
100
AcDbLine
 10
67.66452522344559
 20
11.50782319278516
 30
0.0
 11
67.66452522344559
 21
23.50782319278516
 31
0.0
  0
LINE
  5
132A
330
807
100
AcDbEntity
  8
0
  6
CONTINUOUS
100
AcDbLine
 10
81.6645252234456
 20
23.50782319278516
 30
0.0
 11
81.6645252234456
 21
11.50782319278516
 31
0.0
  0
LINE
  5
132B
330
807
100
AcDbEntity
  8
0
  6
CONTINUOUS
100
AcDbLine
 10
83.66452522344559
 20
11.50782319278516
 30
0.0
 11
83.66452522344559
 21
23.50782319278516
 31
0.0
  0
LINE
  5
132C
330
807
100
AcDbEntity
  8
0
  6
CONTINUOUS
100
AcDbLine
 10
71.6645252234456
 20
11.50782319278516
 30
0.0
 11
71.6645252234456
 21
23.50782319278516
 31
0.0
  0
LINE
  5
132D
330
807
100
AcDbEntity
  8
0
  6
CONTINUOUS
100
AcDbLine
 10
73.66452522344559
 20
23.50782319278516
 30
0.0
 11
73.66452522344559
 21
11.50782319278516
 31
0.0
  0
LINE
  5
132E
330
807
100
AcDbEntity
  8
0
  6
CONTINUOUS
100
AcDbLine
 10
75.66452522344559
 20
11.50782319278516
 30
0.0
 11
75.66452522344559
 21
23.50782319278516
 31
0.0
  0
LINE
  5
132F
330
807
100
AcDbEntity
  8
0
  6
CONTINUOUS
100
AcDbLine
 10
69.66452522344559
 20
23.50782319278516
 30
0.0
 11
69.66452522344559
 21
11.50782319278516
 31
0.0
  0
LINE
  5
1330
330
807
100
AcDbEntity
  8
0
  6
CONTINUOUS
100
AcDbLine
 10
77.66452522344559
 20
23.50782319278516
 30
0.0
 11
77.66452522344559
 21
11.50782319278516
 31
0.0
  0
LINE
  5
1331
330
807
100
AcDbEntity
  8
0
  6
CONTINUOUS
100
AcDbLine
 10
79.66452522344559
 20
11.50782319278516
 30
0.0
 11
79.66452522344559
 21
23.50782319278516
 31
0.0
  0
LINE
  5
1332
330
807
100
AcDbEntity
  8
0
  6
CONTINUOUS
100
AcDbLine
 10
73.66452522344559
 20
11.50782319278516
 30
0.0
 11
75.66452522344559
 21
11.50782319278516
 31
0.0
  0
LINE
  5
1333
330
807
100
AcDbEntity
  8
0
  6
CONTINUOUS
100
AcDbLine
 10
65.66452522344559
 20
11.50782319278516
 30
0.0
 11
67.66452522344559
 21
11.50782319278516
 31
0.0
  0
LINE
  5
1334
330
807
100
AcDbEntity
  8
0
  6
CONTINUOUS
100
AcDbLine
 10
69.66452522344559
 20
11.50782319278516
 30
0.0
 11
71.6645252234456
 21
11.50782319278516
 31
0.0
  0
LINE
  5
1335
330
807
100
AcDbEntity
  8
0
  6
CONTINUOUS
100
AcDbLine
 10
77.66452522344559
 20
11.50782319278516
 30
0.0
 11
79.66452522344559
 21
11.50782319278516
 31
0.0
  0
LINE
  5
1336
330
807
100
AcDbEntity
  8
0
  6
CONTINUOUS
100
AcDbLine
 10
81.6645252234456
 20
11.50782319278516
 30
0.0
 11
83.66452522344559
 21
11.50782319278516
 31
0.0
  0
LINE
  5
1337
330
807
100
AcDbEntity
  8
0
  6
CONTINUOUS
100
AcDbLine
 10
75.66452522344559
 20
23.50782319278516
 30
0.0
 11
73.66452522344559
 21
23.50782319278516
 31
0.0
  0
LINE
  5
1338
330
807
100
AcDbEntity
  8
0
  6
CONTINUOUS
100
AcDbLine
 10
67.66452522344559
 20
23.50782319278516
 30
0.0
 11
65.66452522344559
 21
23.50782319278516
 31
0.0
  0
LINE
  5
1339
330
807
100
AcDbEntity
  8
0
  6
CONTINUOUS
100
AcDbLine
 10
71.6645252234456
 20
23.50782319278516
 30
0.0
 11
69.66452522344559
 21
23.50782319278516
 31
0.0
  0
LINE
  5
133A
330
807
100
AcDbEntity
  8
0
  6
CONTINUOUS
100
AcDbLine
 10
79.66452522344559
 20
23.50782319278516
 30
0.0
 11
77.66452522344559
 21
23.50782319278516
 31
0.0
  0
LINE
  5
133B
330
807
100
AcDbEntity
  8
0
  6
CONTINUOUS
100
AcDbLine
 10
83.66452522344559
 20
23.50782319278516
 30
0.0
 11
81.6645252234456
 21
23.50782319278516
 31
0.0
  0
LINE
  5
133C
330
807
100
AcDbEntity
  8
0
  6
CONTINUOUS
100
AcDbLine
 10
96.6645252234456
 20
23.50782319278516
 30
0.0
 11
106.6645252234456
 21
23.50782319278516
 31
0.0
  0
LINE
  5
133D
330
807
100
AcDbEntity
  8
0
  6
CONTINUOUS
100
AcDbLine
 10
106.6645252234456
 20
17.50782319278516
 30
0.0
 11
96.6645252234456
 21
17.50782319278516
 31
0.0
  0
LINE
  5
133E
330
807
100
AcDbEntity
  8
0
  6
CONTINUOUS
100
AcDbLine
 10
104.6645252234456
 20
19.00782319278516
 30
0.0
 11
98.66452522344559
 21
19.00782319278516
 31
0.0
  0
LINE
  5
133F
330
807
100
AcDbEntity
  8
0
  6
CONTINUOUS
100
AcDbLine
 10
98.66452522344559
 20
22.00782319278516
 30
0.0
 11
104.6645252234456
 21
22.00782319278516
 31
0.0
  0
LINE
  5
1340
330
807
100
AcDbEntity
  8
0
  6
CONTINUOUS
100
AcDbLine
 10
87.66452522344559
 20
11.50782319278516
 30
0.0
 11
87.66452522344559
 21
23.50782319278516
 31
0.0
  0
LINE
  5
1341
330
807
100
AcDbEntity
  8
0
  6
CONTINUOUS
100
AcDbLine
 10
89.66452522344559
 20
23.50782319278516
 30
0.0
 11
89.66452522344559
 21
11.50782319278516
 31
0.0
  0
LINE
  5
1342
330
807
100
AcDbEntity
  8
0
  6
CONTINUOUS
100
AcDbLine
 10
85.6645252234456
 20
23.50782319278516
 30
0.0
 11
85.6645252234456
 21
11.50782319278516
 31
0.0
  0
LINE
  5
1343
330
807
100
AcDbEntity
  8
0
  6
CONTINUOUS
100
AcDbLine
 10
97.66452522344559
 20
16.00782319278516
 30
0.0
 11
97.66452522344559
 21
11.50782319278516
 31
0.0
  0
LINE
  5
1344
330
807
100
AcDbEntity
  8
0
  6
CONTINUOUS
100
AcDbLine
 10
99.6645252234456
 20
11.50782319278516
 30
0.0
 11
99.6645252234456
 21
16.00782319278516
 31
0.0
  0
LINE
  5
1345
330
807
100
AcDbEntity
  8
0
  6
CONTINUOUS
100
AcDbLine
 10
101.6645252234456
 20
16.00782319278516
 30
0.0
 11
101.6645252234456
 21
11.50782319278516
 31
0.0
  0
LINE
  5
1346
330
807
100
AcDbEntity
  8
0
  6
CONTINUOUS
100
AcDbLine
 10
103.6645252234456
 20
11.50782319278516
 30
0.0
 11
103.6645252234456
 21
16.00782319278516
 31
0.0
  0
LINE
  5
1347
330
807
100
AcDbEntity
  8
0
  6
CONTINUOUS
100
AcDbLine
 10
91.6645252234456
 20
11.50782319278516
 30
0.0
 11
91.6645252234456
 21
23.50782319278516
 31
0.0
  0
LINE
  5
1348
330
807
100
AcDbEntity
  8
0
  6
CONTINUOUS
100
AcDbLine
 10
95.6645252234456
 20
11.50782319278516
 30
0.0
 11
95.6645252234456
 21
23.50782319278516
 31
0.0
  0
LINE
  5
1349
330
807
100
AcDbEntity
  8
0
  6
CONTINUOUS
100
AcDbLine
 10
93.66452522344559
 20
23.50782319278516
 30
0.0
 11
93.66452522344559
 21
11.50782319278516
 31
0.0
  0
LINE
  5
134A
330
807
100
AcDbEntity
  8
0
  6
CONTINUOUS
100
AcDbLine
 10
93.66452522344559
 20
11.50782319278516
 30
0.0
 11
95.6645252234456
 21
11.50782319278516
 31
0.0
  0
LINE
  5
134B
330
807
100
AcDbEntity
  8
0
  6
CONTINUOUS
100
AcDbLine
 10
85.6645252234456
 20
11.50782319278516
 30
0.0
 11
87.66452522344559
 21
11.50782319278516
 31
0.0
  0
LINE
  5
134C
330
807
100
AcDbEntity
  8
0
  6
CONTINUOUS
100
AcDbLine
 10
89.66452522344559
 20
11.50782319278516
 30
0.0
 11
91.6645252234456
 21
11.50782319278516
 31
0.0
  0
LINE
  5
134D
330
807
100
AcDbEntity
  8
0
  6
CONTINUOUS
100
AcDbLine
 10
97.66452522344559
 20
11.50782319278516
 30
0.0
 11
99.6645252234456
 21
11.50782319278516
 31
0.0
  0
LINE
  5
134E
330
807
100
AcDbEntity
  8
0
  6
CONTINUOUS
100
AcDbLine
 10
101.6645252234456
 20
11.50782319278516
 30
0.0
 11
103.6645252234456
 21
11.50782319278516
 31
0.0
  0
LINE
  5
134F
330
807
100
AcDbEntity
  8
0
  6
CONTINUOUS
100
AcDbLine
 10
93.66452522344559
 20
23.50782319278516
 30
0.0
 11
95.6645252234456
 21
23.50782319278516
 31
0.0
  0
LINE
  5
1350
330
807
100
AcDbEntity
  8
0
  6
CONTINUOUS
100
AcDbLine
 10
87.66452522344559
 20
23.50782319278516
 30
0.0
 11
85.6645252234456
 21
23.50782319278516
 31
0.0
  0
LINE
  5
1351
330
807
100
AcDbEntity
  8
0
  6
CONTINUOUS
100
AcDbLine
 10
91.6645252234456
 20
23.50782319278516
 30
0.0
 11
89.66452522344559
 21
23.50782319278516
 31
0.0
  0
LINE
  5
1352
330
807
100
AcDbEntity
  8
0
  6
CONTINUOUS
100
AcDbLine
 10
96.6645252234456
 20
17.50782319278516
 30
0.0
 11
96.6645252234456
 21
23.50782319278516
 31
0.0
  0
LINE
  5
1353
330
807
100
AcDbEntity
  8
0
  6
CONTINUOUS
100
AcDbLine
 10
98.1645252234456
 20
19.50782319278516
 30
0.0
 11
98.1645252234456
 21
21.50782319278516
 31
0.0
  0
LINE
  5
1354
330
807
100
AcDbEntity
  8
0
  6
CONTINUOUS
100
AcDbLine
 10
97.66452522344559
 20
16.00782319278516
 30
0.0
 11
99.6645252234456
 21
16.00782319278516
 31
0.0
  0
ARC
  5
1355
330
807
100
AcDbEntity
  8
0
  6
CONTINUOUS
100
AcDbCircle
 10
98.66452522344559
 20
19.50782319278516
 30
0.0
 40
0.5
100
AcDbArc
 50
180.0
 51
270.0
  0
LINE
  5
1356
330
807
100
AcDbEntity
  8
0
  6
CONTINUOUS
100
AcDbLine
 10
100.9145252234455
 20
19.00782319278516
 30
0.0
 11
100.9145252234455
 21
17.50782319278516
 31
0.0
  0
LINE
  5
1357
330
807
100
AcDbEntity
  8
0
  6
CONTINUOUS
100
AcDbLine
 10
102.4145252234455
 20
19.00782319278516
 30
0.0
 11
102.4145252234455
 21
17.50782319278516
 31
0.0
  0
LINE
  5
1358
330
807
100
AcDbEntity
  8
0
  6
CONTINUOUS
100
AcDbLine
 10
101.6645252234456
 20
16.00782319278516
 30
0.0
 11
103.6645252234456
 21
16.00782319278516
 31
0.0
  0
ARC
  5
1359
330
807
100
AcDbEntity
  8
0
  6
CONTINUOUS
100
AcDbCircle
 10
98.66452522344559
 20
21.50782319278516
 30
0.0
 40
0.5
100
AcDbArc
 50
90.0
 51
180.0
  0
LINE
  5
135A
330
807
100
AcDbEntity
  8
0
  6
CONTINUOUS
100
AcDbLine
 10
100.9145252234455
 20
23.50782319278516
 30
0.0
 11
100.9145252234455
 21
22.00782319278516
 31
0.0
  0
LINE
  5
135B
330
807
100
AcDbEntity
  8
0
  6
CONTINUOUS
100
AcDbLine
 10
102.4145252234455
 20
23.50782319278516
 30
0.0
 11
102.4145252234455
 21
22.00782319278516
 31
0.0
  0
LINE
  5
135C
330
807
100
AcDbEntity
  8
0
  6
CONTINUOUS
100
AcDbLine
 10
105.6645252234456
 20
16.00782319278516
 30
0.0
 11
105.6645252234456
 21
11.50782319278516
 31
0.0
  0
LINE
  5
135D
330
807
100
AcDbEntity
  8
0
  6
CONTINUOUS
100
AcDbLine
 10
107.6645252234456
 20
11.50782319278516
 30
0.0
 11
107.6645252234456
 21
16.00782319278516
 31
0.0
  0
LINE
  5
135E
330
807
100
AcDbEntity
  8
0
  6
CONTINUOUS
100
AcDbLine
 10
109.6645252234455
 20
23.50782319278516
 30
0.0
 11
109.6645252234455
 21
11.50782319278516
 31
0.0
  0
LINE
  5
135F
330
807
100
AcDbEntity
  8
0
  6
CONTINUOUS
100
AcDbLine
 10
111.6645252234455
 20
11.50782319278516
 30
0.0
 11
111.6645252234455
 21
23.50782319278516
 31
0.0
  0
LINE
  5
1360
330
807
100
AcDbEntity
  8
0
  6
CONTINUOUS
100
AcDbLine
 10
105.6645252234456
 20
11.50782319278516
 30
0.0
 11
107.6645252234456
 21
11.50782319278516
 31
0.0
  0
LINE
  5
1361
330
807
100
AcDbEntity
  8
0
  6
CONTINUOUS
100
AcDbLine
 10
109.6645252234455
 20
11.50782319278516
 30
0.0
 11
111.6645252234455
 21
11.50782319278516
 31
0.0
  0
LINE
  5
1362
330
807
100
AcDbEntity
  8
0
  6
CONTINUOUS
100
AcDbLine
 10
117.264525223445
 20
2.007824192785506
 30
0.0
 11
118.264525223445
 21
2.007824192785506
 31
0.0
  0
LINE
  5
1363
330
807
100
AcDbEntity
  8
0
  6
CONTINUOUS
100
AcDbLine
 10
118.264525223445
 20
2.007824192785506
 30
0.0
 11
118.264525223445
 21
0.4999411927852862
 31
0.0
  0
ARC
  5
1364
330
807
100
AcDbEntity
  8
0
  6
CONTINUOUS
100
AcDbCircle
 10
117.764525223445
 20
0.4999411927852862
 30
0.0
 40
0.5
100
AcDbArc
 50
269.1171789999794
 51
0.0
  0
LINE
  5
1365
330
807
100
AcDbEntity
  8
0
  6
CONTINUOUS
100
AcDbLine
 10
106.6645252234456
 20
23.50782319278516
 30
0.0
 11
106.6645252234456
 21
17.50782319278516
 31
0.0
  0
LINE
  5
1366
330
807
100
AcDbEntity
  8
0
  6
CONTINUOUS
100
AcDbLine
 10
105.1645252234455
 20
21.50782319278516
 30
0.0
 11
105.1645252234455
 21
19.50782319278516
 31
0.0
  0
ARC
  5
1367
330
807
100
AcDbEntity
  8
0
  6
CONTINUOUS
100
AcDbCircle
 10
104.6645252234456
 20
19.50782319278516
 30
0.0
 40
0.5
100
AcDbArc
 50
270.0
 51
0.0
  0
LINE
  5
1368
330
807
100
AcDbEntity
  8
0
  6
CONTINUOUS
100
AcDbLine
 10
105.6645252234456
 20
16.00782319278516
 30
0.0
 11
107.6645252234456
 21
16.00782319278516
 31
0.0
  0
ARC
  5
1369
330
807
100
AcDbEntity
  8
0
  6
CONTINUOUS
100
AcDbCircle
 10
104.6645252234456
 20
21.50782319278516
 30
0.0
 40
0.5
100
AcDbArc
 50
0.0
 51
90.0
  0
LINE
  5
136A
330
807
100
AcDbEntity
  8
0
  6
CONTINUOUS
100
AcDbLine
 10
111.6645252234455
 20
23.50782319278516
 30
0.0
 11
109.6645252234455
 21
23.50782319278516
 31
0.0
  0
LINE
  5
136B
330
807
100
AcDbEntity
  8
0
100
AcDbLine
 10
117.264525223445
 20
15.0078241927855
 30
0.0
 11
118.764525223445
 21
15.0078241927855
 31
0.0
  0
LINE
  5
136C
330
807
100
AcDbEntity
  8
0
100
AcDbLine
 10
117.264525223445
 20
13.5078241927855
 30
0.0
 11
118.764525223445
 21
13.5078241927855
 31
0.0
  0
LINE
  5
136D
330
807
100
AcDbEntity
  8
0
100
AcDbLine
 10
117.264525223445
 20
20.0078241927855
 30
0.0
 11
118.764525223445
 21
20.0078241927855
 31
0.0
  0
LINE
  5
136E
330
807
100
AcDbEntity
  8
0
100
AcDbLine
 10
117.264525223445
 20
21.5078241927855
 30
0.0
 11
118.764525223445
 21
21.5078241927855
 31
0.0
  0
LINE
  5
136F
330
807
100
AcDbEntity
  8
0
100
AcDbLine
 10
118.764525223445
 20
46.90858647403229
 30
0.0
 11
118.764525223445
 21
166.9085864740331
 31
0.0
  0
LINE
  5
1370
330
807
100
AcDbEntity
  8
0
  6
CONTINUOUS
100
AcDbLine
 10
51.44885122344556
 20
155.1585864740331
 30
0.0
 11
51.44885122344556
 21
58.6585864740332
 31
0.0
  0
LINE
  5
1371
330
807
100
AcDbEntity
  8
0
  6
CONTINUOUS
100
AcDbLine
 10
50.96452522344486
 20
155.1585864740331
 30
0.0
 11
50.96452522344486
 21
58.6585864740332
 31
0.0
  0
LINE
  5
1372
330
807
100
AcDbEntity
  8
0
  6
CONTINUOUS
100
AcDbLine
 10
118.264525223445
 20
60.6601574740339
 30
0.0
 11
118.264525223445
 21
153.1570154740334
 31
0.0
  0
LINE
  5
1373
330
807
100
AcDbEntity
  8
0
  6
CONTINUOUS
100
AcDbLine
 10
56.81989422344566
 20
62.02055747403346
 30
0.0
 11
56.81989422344566
 21
151.7966144740334
 31
0.0
  0
LINE
  5
1374
330
807
100
AcDbEntity
  8
0
  6
CONTINUOUS
100
AcDbLine
 10
51.71989422344529
 20
156.6812094740339
 30
0.0
 11
51.71989422344529
 21
57.13596347403427
 31
0.0
  0
LINE
  5
1375
330
807
100
AcDbEntity
  8
0
  6
CONTINUOUS
100
AcDbLine
 10
117.264525223445
 20
54.6585864740332
 30
0.0
 11
51.64164622344549
 21
56.16037747403379
 31
0.0
  0
LINE
  5
1376
330
807
100
AcDbEntity
  8
0
  6
CONTINUOUS
100
AcDbLine
 10
117.2416462234458
 20
59.66041947403346
 30
0.0
 11
57.79701522344556
 21
61.02081947403394
 31
0.0
  0
LINE
  5
1377
330
807
100
AcDbEntity
  8
0
  6
CONTINUOUS
100
AcDbLine
 10
52.57434322344568
 20
32.01099019278592
 30
0.0
 11
117.264525223445
 21
33.0078241927855
 31
0.0
  0
LINE
  5
1378
330
807
100
AcDbEntity
  8
0
  6
CONTINUOUS
100
AcDbLine
 10
57.80448722344488
 20
34.09182119278523
 30
0.0
 11
117.7568212234453
 21
35.01564719278542
 31
0.0
  0
LINE
  5
1379
330
807
100
AcDbEntity
  8
0
  6
CONTINUOUS
100
AcDbLine
 10
57.96786722344484
 20
27.59356719278514
 30
0.0
 11
117.264525223445
 21
28.50728919278537
 31
0.0
  0
ARC
  5
137A
330
807
100
AcDbEntity
  8
0
  6
CONTINUOUS
100
AcDbCircle
 10
52.71989422344529
 20
57.13596347403427
 30
0.0
 40
1.0
100
AcDbArc
 50
180.0
 51
268.6890049999997
  0
LINE
  5
137B
330
807
100
AcDbEntity
  8
0
  6
CONTINUOUS
100
AcDbLine
 10
51.71989422344529
 20
57.13596347403427
 30
0.0
 11
51.71989422344529
 21
56.1585864740332
 31
0.0
  0
ARC
  5
137C
330
807
100
AcDbEntity
  8
0
  6
CONTINUOUS
100
AcDbCircle
 10
51.6645252234456
 20
57.16011547403422
 30
0.0
 40
1.0
100
AcDbArc
 50
180.0
 51
268.6890049999997
  0
ARC
  5
137D
330
807
100
AcDbEntity
  8
0
  6
CONTINUOUS
100
AcDbCircle
 10
150.6645252234456
 20
17.50782319278516
 30
0.0
 40
100.0
100
AcDbArc
 50
171.6685109999918
 51
172.1601729999681
  0
LINE
  5
137E
330
807
100
AcDbEntity
  8
0
  6
CONTINUOUS
100
AcDbLine
 10
51.71989422344529
 20
31.99782419278529
 30
0.0
 11
52.57434322344568
 21
32.01099019278592
 31
0.0
  0
ARC
  5
137F
330
807
100
AcDbEntity
  8
0
  6
CONTINUOUS
100
AcDbCircle
 10
52.58975122344498
 20
31.01110919278619
 30
0.0
 40
1.0
100
AcDbArc
 50
90.88282099996837
 51
172.1606000000095
  0
ARC
  5
1380
330
807
100
AcDbEntity
  8
0
  6
CONTINUOUS
100
AcDbCircle
 10
57.81989422344565
 20
33.09193919278516
 30
0.0
 40
1.0
100
AcDbArc
 50
90.88282099996837
 51
180.0
  0
LINE
  5
1381
330
807
100
AcDbEntity
  8
0
  6
CONTINUOUS
100
AcDbLine
 10
56.81989422344566
 20
33.09193919278516
 30
0.0
 11
56.81989422344566
 21
32.07641119278525
 31
0.0
  0
LINE
  5
1382
330
807
100
AcDbEntity
  8
0
  6
CONTINUOUS
100
AcDbLine
 10
51.44885122344556
 20
58.6585864740332
 30
0.0
 11
50.66452522344559
 21
58.6585864740332
 31
0.0
  0
LINE
  5
1383
330
807
100
AcDbEntity
  8
0
  6
CONTINUOUS
100
AcDbLine
 10
50.66452522344559
 20
57.16011547403422
 30
0.0
 11
50.66452522344559
 21
58.6585864740332
 31
0.0
  0
ARC
  5
1384
330
807
100
AcDbEntity
  8
0
  6
CONTINUOUS
100
AcDbCircle
 10
57.81989422344565
 20
62.02055747403346
 30
0.0
 40
1.0
100
AcDbArc
 50
180.0
 51
268.6890049999997
  0
LINE
  5
1385
330
807
100
AcDbEntity
  8
0
100
AcDbLine
 10
117.264525223445
 20
46.90858647403229
 30
0.0
 11
117.264525223445
 21
58.91043847403171
 31
0.0
  0
LINE
  5
1386
330
807
100
AcDbEntity
  8
0
  6
CONTINUOUS
100
AcDbLine
 10
117.264525223445
 20
54.6585864740332
 30
0.0
 11
117.264525223445
 21
59.65991047403395
 31
0.0
  0
ARC
  5
1387
330
807
100
AcDbEntity
  8
0
  6
CONTINUOUS
100
AcDbCircle
 10
117.764525223445
 20
34.51570619278538
 30
0.0
 40
0.5
100
AcDbArc
 50
0.0
 51
90.88282099996837
  0
LINE
  5
1388
330
807
100
AcDbEntity
  8
0
  6
CONTINUOUS
100
AcDbLine
 10
118.264525223445
 20
33.0078241927855
 30
0.0
 11
117.264525223445
 21
33.0078241927855
 31
0.0
  0
LINE
  5
1389
330
807
100
AcDbEntity
  8
0
  6
CONTINUOUS
100
AcDbLine
 10
118.264525223445
 20
33.0078241927855
 30
0.0
 11
118.264525223445
 21
34.51570619278538
 31
0.0
  0
LINE
  5
138A
330
807
100
AcDbEntity
  8
0
100
AcDbLine
 10
117.2708982234452
 20
47.90858647403228
 30
0.0
 11
117.264525223445
 21
47.91495947403155
 31
0.0
  0
LINE
  5
138B
330
807
100
AcDbEntity
  8
0
100
AcDbLine
 10
118.764525223445
 20
46.90858647403229
 30
0.0
 11
117.264525223445
 21
46.90858647403229
 31
0.0
  0
ARC
  5
138C
330
807
100
AcDbEntity
  8
0
  6
CONTINUOUS
100
AcDbCircle
 10
117.264525223445
 20
60.6601574740339
 30
0.0
 40
1.0
100
AcDbArc
 50
268.6890049999997
 51
0.0
  0
LINE
  5
138D
330
807
100
AcDbEntity
  8
0
  6
CONTINUOUS
100
AcDbLine
 10
110.264525223445
 20
111.9085864740332
 30
0.0
 11
110.264525223445
 21
101.9085864740332
 31
0.0
  0
LINE
  5
138E
330
807
100
AcDbEntity
  8
0
  6
CONTINUOUS
100
AcDbLine
 10
112.3645252234454
 20
111.9085864740332
 30
0.0
 11
112.3645252234454
 21
101.9085864740332
 31
0.0
  0
LINE
  5
138F
330
807
100
AcDbEntity
  8
0
  6
CONTINUOUS
100
AcDbLine
 10
112.3645252234454
 20
101.9085864740332
 30
0.0
 11
110.264525223445
 21
101.9085864740332
 31
0.0
  0
ARC
  5
1390
330
807
100
AcDbEntity
  8
0
  6
CONTINUOUS
100
AcDbCircle
 10
112.7770252234448
 20
103.4085864740331
 30
0.0
 40
0.8125
100
AcDbArc
 50
120.5102370000202
 51
239.4897629999788
  0
LINE
  5
1391
330
807
100
AcDbEntity
  8
0
  6
CONTINUOUS
100
AcDbLine
 10
110.264525223445
 20
111.9085864740332
 30
0.0
 11
112.3645252234454
 21
111.9085864740332
 31
0.0
  0
ARC
  5
1392
330
807
100
AcDbEntity
  8
0
  6
CONTINUOUS
100
AcDbCircle
 10
112.7770252234448
 20
110.4085864740331
 30
0.0
 40
0.8125
100
AcDbArc
 50
120.5102370000202
 51
239.4897629999788
  0
LWPOLYLINE
  5
1393
330
807
100
AcDbEntity
  8
0
100
AcDbPolyline
 90
        4
 70
     1
 43
0.0
 10
117.264525223445
 20
181.3814899929967
 10
117.264525223445
 20
212.3819079929964
 10
118.764525223445
 20
212.3819079929964
 10
118.764525223445
 20
181.3814899929967
  0
ARC
  5
1394
330
807
100
AcDbEntity
  8
0
  6
CONTINUOUS
100
AcDbCircle
 10
155.6645252234456
 20
196.8816999929969
 30
0.0
 40
100.0
100
AcDbArc
 50
175.2671449999835
 51
184.7328559999832
  0
LINE
  5
1395
330
807
100
AcDbEntity
  8
0
  6
CONTINUOUS
100
AcDbLine
 10
65.66452522344559
 20
190.8816999929969
 30
0.0
 11
65.66452522344559
 21
202.8816999929969
 31
0.0
  0
LINE
  5
1396
330
807
100
AcDbEntity
  8
0
  6
CONTINUOUS
100
AcDbLine
 10
67.66452522344559
 20
202.8816999929969
 30
0.0
 11
67.66452522344559
 21
190.8816999929969
 31
0.0
  0
LINE
  5
1397
330
807
100
AcDbEntity
  8
0
  6
CONTINUOUS
100
AcDbLine
 10
61.6645252234456
 20
190.8816999929969
 30
0.0
 11
61.6645252234456
 21
202.8816999929969
 31
0.0
  0
LINE
  5
1398
330
807
100
AcDbEntity
  8
0
  6
CONTINUOUS
100
AcDbLine
 10
63.66452522344559
 20
202.8816999929969
 30
0.0
 11
63.66452522344559
 21
190.8816999929969
 31
0.0
  0
LINE
  5
1399
330
807
100
AcDbEntity
  8
0
  6
CONTINUOUS
100
AcDbLine
 10
87.66452522344559
 20
202.8816989929965
 30
0.0
 11
87.66452522344559
 21
190.8816999929969
 31
0.0
  0
LINE
  5
139A
330
807
100
AcDbEntity
  8
0
  6
CONTINUOUS
100
AcDbLine
 10
89.66452522344559
 20
190.8816999929969
 30
0.0
 11
89.66452522344559
 21
202.8816989929965
 31
0.0
  0
LINE
  5
139B
330
807
100
AcDbEntity
  8
0
  6
CONTINUOUS
100
AcDbLine
 10
81.6645252234456
 20
190.8816999929969
 30
0.0
 11
81.6645252234456
 21
202.8816989929965
 31
0.0
  0
LINE
  5
139C
330
807
100
AcDbEntity
  8
0
  6
CONTINUOUS
100
AcDbLine
 10
83.66452522344559
 20
202.8816989929965
 30
0.0
 11
83.66452522344559
 21
190.8816999929969
 31
0.0
  0
LINE
  5
139D
330
807
100
AcDbEntity
  8
0
  6
CONTINUOUS
100
AcDbLine
 10
71.6645252234456
 20
202.8816999929969
 30
0.0
 11
71.6645252234456
 21
190.8816999929969
 31
0.0
  0
LINE
  5
139E
330
807
100
AcDbEntity
  8
0
  6
CONTINUOUS
100
AcDbLine
 10
73.66452522344559
 20
190.8816999929969
 30
0.0
 11
73.66452522344559
 21
202.8816999929969
 31
0.0
  0
LINE
  5
139F
330
807
100
AcDbEntity
  8
0
  6
CONTINUOUS
100
AcDbLine
 10
75.66452522344559
 20
202.8816999929969
 30
0.0
 11
75.66452522344559
 21
190.8816999929969
 31
0.0
  0
LINE
  5
13A0
330
807
100
AcDbEntity
  8
0
  6
CONTINUOUS
100
AcDbLine
 10
69.66452522344559
 20
190.8816999929969
 30
0.0
 11
69.66452522344559
 21
202.8816999929969
 31
0.0
  0
LINE
  5
13A1
330
807
100
AcDbEntity
  8
0
  6
CONTINUOUS
100
AcDbLine
 10
85.6645252234456
 20
190.8816999929969
 30
0.0
 11
85.6645252234456
 21
202.8816989929965
 31
0.0
  0
LINE
  5
13A2
330
807
100
AcDbEntity
  8
0
  6
CONTINUOUS
100
AcDbLine
 10
77.66452522344559
 20
190.8816999929969
 30
0.0
 11
77.66452522344559
 21
202.8816999929969
 31
0.0
  0
LINE
  5
13A3
330
807
100
AcDbEntity
  8
0
  6
CONTINUOUS
100
AcDbLine
 10
79.66452522344559
 20
202.8816999929969
 30
0.0
 11
79.66452522344559
 21
190.8816999929969
 31
0.0
  0
ARC
  5
13A4
330
807
100
AcDbEntity
  8
0
  6
CONTINUOUS
100
AcDbCircle
 10
150.6645252234456
 20
196.8816999929969
 30
0.0
 40
100.0
100
AcDbArc
 50
172.1606020000355
 51
187.8393999999904
  0
LINE
  5
13A5
330
807
100
AcDbEntity
  8
0
  6
CONTINUOUS
100
AcDbLine
 10
91.6645252234456
 20
202.8816989929965
 30
0.0
 11
91.6645252234456
 21
190.8816999929969
 31
0.0
  0
LINE
  5
13A6
330
807
100
AcDbEntity
  8
0
  6
CONTINUOUS
100
AcDbLine
 10
107.6645252234456
 20
202.8816999929969
 30
0.0
 11
107.6645252234456
 21
190.8816999929969
 31
0.0
  0
LINE
  5
13A7
330
807
100
AcDbEntity
  8
0
  6
CONTINUOUS
100
AcDbLine
 10
109.6645252234455
 20
190.8816999929969
 30
0.0
 11
109.6645252234455
 21
202.8816999929969
 31
0.0
  0
LINE
  5
13A8
330
807
100
AcDbEntity
  8
0
  6
CONTINUOUS
100
AcDbLine
 10
111.6645252234455
 20
202.8816999929969
 30
0.0
 11
111.6645252234455
 21
190.8816999929969
 31
0.0
  0
LINE
  5
13A9
330
807
100
AcDbEntity
  8
0
  6
CONTINUOUS
100
AcDbLine
 10
106.6645252234456
 20
202.8816989929965
 30
0.0
 11
106.6645252234456
 21
193.9816989929969
 31
0.0
  0
LINE
  5
13AA
330
807
100
AcDbEntity
  8
0
  6
CONTINUOUS
100
AcDbLine
 10
117.264525223445
 20
212.3816989929965
 30
0.0
 11
117.264525223445
 21
181.3816989929965
 31
0.0
  0
LINE
  5
13AB
330
807
100
AcDbEntity
  8
0
  6
CONTINUOUS
100
AcDbLine
 10
52.57434322344568
 20
182.378532992997
 30
0.0
 11
117.264525223445
 21
181.3816989929965
 31
0.0
  0
LINE
  5
13AC
330
807
100
AcDbEntity
  8
0
  6
CONTINUOUS
100
AcDbLine
 10
57.80448722344488
 20
180.2977019929968
 30
0.0
 11
117.7568212234453
 21
179.3738759929966
 31
0.0
  0
LINE
  5
13AD
330
807
100
AcDbEntity
  8
0
  6
CONTINUOUS
100
AcDbLine
 10
57.96786722344484
 20
186.7959559929969
 30
0.0
 11
117.264525223445
 21
185.8822339929966
 31
0.0
  0
LINE
  5
13AE
330
807
100
AcDbEntity
  8
0
  6
CONTINUOUS
100
AcDbLine
 10
117.264525223445
 20
159.1585864740332
 30
0.0
 11
51.64164622344549
 21
157.6567954740335
 31
0.0
  0
LINE
  5
13AF
330
807
100
AcDbEntity
  8
0
  6
CONTINUOUS
100
AcDbLine
 10
117.2416462234458
 20
154.1567534740338
 30
0.0
 11
57.79701522344556
 21
152.7963534740333
 31
0.0
  0
LINE
  5
13B0
330
807
100
AcDbEntity
  8
0
  6
CONTINUOUS
100
AcDbLine
 10
51.44885122344556
 20
155.1585864740331
 30
0.0
 11
50.66452522344559
 21
155.1585864740331
 31
0.0
  0
LINE
  5
13B1
330
807
100
AcDbEntity
  8
0
  6
CONTINUOUS
100
AcDbLine
 10
50.66452522344559
 20
156.657057474034
 30
0.0
 11
50.66452522344559
 21
155.1585864740331
 31
0.0
  0
LINE
  5
13B2
330
807
100
AcDbEntity
  8
0
  6
CONTINUOUS
100
AcDbLine
 10
51.71989422344529
 20
157.6585864740332
 30
0.0
 11
51.71989422344529
 21
156.6812094740339
 31
0.0
  0
ARC
  5
13B3
330
807
100
AcDbEntity
  8
0
  6
CONTINUOUS
100
AcDbCircle
 10
52.71989422344529
 20
156.6812094740339
 30
0.0
 40
1.0
100
AcDbArc
 50
91.31099500000026
 51
180.0
  0
ARC
  5
13B4
330
807
100
AcDbEntity
  8
0
  6
CONTINUOUS
100
AcDbCircle
 10
51.6645252234456
 20
156.657057474034
 30
0.0
 40
1.0
100
AcDbArc
 50
91.31099500000026
 51
180.0
  0
ARC
  5
13B5
330
807
100
AcDbEntity
  8
0
  6
CONTINUOUS
100
AcDbCircle
 10
57.81989422344565
 20
151.7966144740334
 30
0.0
 40
1.0
100
AcDbArc
 50
91.31099500000026
 51
180.0
  0
ARC
  5
13B6
330
807
100
AcDbEntity
  8
0
  6
CONTINUOUS
100
AcDbCircle
 10
57.99868222344492
 20
188.7957189929967
 30
0.0
 40
2.0
100
AcDbArc
 50
184.7328559999832
 51
269.1171789999794
  0
ARC
  5
13B7
330
807
100
AcDbEntity
  8
0
  6
CONTINUOUS
100
AcDbCircle
 10
150.6645252234456
 20
196.8816999929969
 30
0.0
 40
100.0
100
AcDbArc
 50
187.8398270000318
 51
188.3314890000081
  0
LINE
  5
13B8
330
807
100
AcDbEntity
  8
0
  6
CONTINUOUS
100
AcDbLine
 10
51.71989422344529
 20
182.3916989929967
 30
0.0
 11
52.57434322344568
 21
182.378532992997
 31
0.0
  0
ARC
  5
13B9
330
807
100
AcDbEntity
  8
0
  6
CONTINUOUS
100
AcDbCircle
 10
52.58975122344498
 20
183.3784139929967
 30
0.0
 40
1.0
100
AcDbArc
 50
187.8393999999904
 51
269.1171789999794
  0
ARC
  5
13BA
330
807
100
AcDbEntity
  8
0
  6
CONTINUOUS
100
AcDbCircle
 10
57.81989422344565
 20
181.2975839929969
 30
0.0
 40
1.0
100
AcDbArc
 50
180.0
 51
269.1171789999794
  0
LINE
  5
13BB
330
807
100
AcDbEntity
  8
0
  6
CONTINUOUS
100
AcDbLine
 10
56.81989422344566
 20
181.2975839929969
 30
0.0
 11
56.81989422344566
 21
182.3131119929968
 31
0.0
  0
LINE
  5
13BC
330
807
100
AcDbEntity
  8
0
  6
CONTINUOUS
100
AcDbLine
 10
63.66452522344559
 20
190.8816999929969
 30
0.0
 11
61.6645252234456
 21
190.8816999929969
 31
0.0
  0
LINE
  5
13BD
330
807
100
AcDbEntity
  8
0
  6
CONTINUOUS
100
AcDbLine
 10
75.66452522344559
 20
190.8816999929969
 30
0.0
 11
73.66452522344559
 21
190.8816999929969
 31
0.0
  0
LINE
  5
13BE
330
807
100
AcDbEntity
  8
0
  6
CONTINUOUS
100
AcDbLine
 10
67.66452522344559
 20
190.8816999929969
 30
0.0
 11
65.66452522344559
 21
190.8816999929969
 31
0.0
  0
LINE
  5
13BF
330
807
100
AcDbEntity
  8
0
  6
CONTINUOUS
100
AcDbLine
 10
71.6645252234456
 20
190.8816999929969
 30
0.0
 11
69.66452522344559
 21
190.8816999929969
 31
0.0
  0
LINE
  5
13C0
330
807
100
AcDbEntity
  8
0
  6
CONTINUOUS
100
AcDbLine
 10
79.66452522344559
 20
190.8816999929969
 30
0.0
 11
77.66452522344559
 21
190.8816999929969
 31
0.0
  0
LINE
  5
13C1
330
807
100
AcDbEntity
  8
0
  6
CONTINUOUS
100
AcDbLine
 10
83.66452522344559
 20
190.8816999929969
 30
0.0
 11
81.6645252234456
 21
190.8816999929969
 31
0.0
  0
LINE
  5
13C2
330
807
100
AcDbEntity
  8
0
100
AcDbLine
 10
117.264525223445
 20
154.1570154740334
 30
0.0
 11
117.264525223445
 21
166.9085864740331
 31
0.0
  0
LINE
  5
13C3
330
807
100
AcDbEntity
  8
0
  6
CONTINUOUS
100
AcDbLine
 10
117.264525223445
 20
159.1585864740332
 30
0.0
 11
117.264525223445
 21
154.1572964740339
 31
0.0
  0
ARC
  5
13C4
330
807
100
AcDbEntity
  8
0
  6
CONTINUOUS
100
AcDbCircle
 10
117.264525223445
 20
153.1570154740334
 30
0.0
 40
1.0
100
AcDbArc
 50
0.0
 51
91.31099500000026
  0
LINE
  5
13C5
330
807
100
AcDbEntity
  8
0
100
AcDbLine
 10
118.764525223445
 20
166.9085864740331
 30
0.0
 11
117.264525223445
 21
166.9085864740331
 31
0.0
  0
LINE
  5
13C6
330
807
100
AcDbEntity
  8
0
  6
CONTINUOUS
100
AcDbLine
 10
101.3645252234454
 20
201.0816989929963
 30
0.0
 11
104.264525223445
 21
201.0816989929963
 31
0.0
  0
LINE
  5
13C7
330
807
100
AcDbEntity
  8
0
  6
CONTINUOUS
100
AcDbLine
 10
94.46452522344486
 20
195.7816989929971
 30
0.0
 11
104.264525223445
 21
195.7816989929971
 31
0.0
  0
LINE
  5
13C8
330
807
100
AcDbEntity
  8
0
  6
CONTINUOUS
100
AcDbLine
 10
93.21452522344486
 20
200.5566989929967
 30
0.0
 11
94.46452522344486
 21
200.5566989929967
 31
0.0
  0
LINE
  5
13C9
330
807
100
AcDbEntity
  8
0
  6
CONTINUOUS
100
AcDbLine
 10
93.21452522344486
 20
196.4066989929971
 30
0.0
 11
94.46452522344486
 21
196.4066989929971
 31
0.0
  0
LINE
  5
13CA
330
807
100
AcDbEntity
  8
0
  6
CONTINUOUS
100
AcDbLine
 10
93.66452522344559
 20
190.8816999929969
 30
0.0
 11
95.6645252234456
 21
190.8816999929969
 31
0.0
  0
LINE
  5
13CB
330
807
100
AcDbEntity
  8
0
  6
CONTINUOUS
100
AcDbLine
 10
93.66452522344559
 20
193.9816989929969
 30
0.0
 11
95.6645252234456
 21
193.9816989929969
 31
0.0
  0
LINE
  5
13CC
330
807
100
AcDbEntity
  8
0
  6
CONTINUOUS
100
AcDbLine
 10
87.66452522344559
 20
190.8816999929969
 30
0.0
 11
85.6645252234456
 21
190.8816999929969
 31
0.0
  0
LINE
  5
13CD
330
807
100
AcDbEntity
  8
0
  6
CONTINUOUS
100
AcDbLine
 10
93.66452522344559
 20
190.8816999929969
 30
0.0
 11
93.66452522344559
 21
193.9816989929969
 31
0.0
  0
LINE
  5
13CE
330
807
100
AcDbEntity
  8
0
  6
CONTINUOUS
100
AcDbLine
 10
91.6645252234456
 20
190.8816999929969
 30
0.0
 11
89.66452522344559
 21
190.8816999929969
 31
0.0
  0
LINE
  5
13CF
330
807
100
AcDbEntity
  8
0
  6
CONTINUOUS
100
AcDbLine
 10
93.21452522344486
 20
196.4066989929971
 30
0.0
 11
93.21452522344486
 21
200.5566989929967
 31
0.0
  0
LINE
  5
13D0
330
807
100
AcDbEntity
  8
0
  6
CONTINUOUS
100
AcDbLine
 10
97.66452522344559
 20
190.8816999929969
 30
0.0
 11
99.6645252234456
 21
190.8816999929969
 31
0.0
  0
LINE
  5
13D1
330
807
100
AcDbEntity
  8
0
  6
CONTINUOUS
100
AcDbLine
 10
97.66452522344559
 20
193.9816989929969
 30
0.0
 11
99.6645252234456
 21
193.9816989929969
 31
0.0
  0
LINE
  5
13D2
330
807
100
AcDbEntity
  8
0
  6
CONTINUOUS
100
AcDbLine
 10
95.6645252234456
 20
190.8816999929969
 30
0.0
 11
95.6645252234456
 21
193.9816989929969
 31
0.0
  0
LINE
  5
13D3
330
807
100
AcDbEntity
  8
0
  6
CONTINUOUS
100
AcDbLine
 10
97.66452522344559
 20
190.8816999929969
 30
0.0
 11
97.66452522344559
 21
193.9816989929969
 31
0.0
  0
LINE
  5
13D4
330
807
100
AcDbEntity
  8
0
  6
CONTINUOUS
100
AcDbLine
 10
99.6645252234456
 20
190.8816999929969
 30
0.0
 11
99.6645252234456
 21
193.9816989929969
 31
0.0
  0
LINE
  5
13D5
330
807
100
AcDbEntity
  8
0
  6
CONTINUOUS
100
AcDbLine
 10
101.6645252234456
 20
190.8816999929969
 30
0.0
 11
101.6645252234456
 21
193.9816989929969
 31
0.0
  0
LINE
  5
13D6
330
807
100
AcDbEntity
  8
0
  6
CONTINUOUS
100
AcDbLine
 10
103.6645252234456
 20
190.8816999929969
 30
0.0
 11
103.6645252234456
 21
193.9816989929969
 31
0.0
  0
LINE
  5
13D7
330
807
100
AcDbEntity
  8
0
  6
CONTINUOUS
100
AcDbLine
 10
101.6645252234456
 20
190.8816999929969
 30
0.0
 11
103.6645252234456
 21
190.8816999929969
 31
0.0
  0
LINE
  5
13D8
330
807
100
AcDbEntity
  8
0
  6
CONTINUOUS
100
AcDbLine
 10
101.6645252234456
 20
193.9816989929969
 30
0.0
 11
103.6645252234456
 21
193.9816989929969
 31
0.0
  0
LINE
  5
13D9
330
807
100
AcDbEntity
  8
0
  6
CONTINUOUS
100
AcDbLine
 10
97.36452522344542
 20
202.7816989929971
 30
0.0
 11
101.3645252234454
 21
202.7816989929971
 31
0.0
  0
LINE
  5
13DA
330
807
100
AcDbEntity
  8
0
  6
CONTINUOUS
100
AcDbLine
 10
95.86452522344542
 20
197.4816989929969
 30
0.0
 11
102.8645252234454
 21
197.4816989929969
 31
0.0
  0
LINE
  5
13DB
330
807
100
AcDbEntity
  8
0
  6
CONTINUOUS
100
AcDbLine
 10
95.86452522344542
 20
199.4816989929969
 30
0.0
 11
102.8645252234454
 21
199.4816989929969
 31
0.0
  0
ARC
  5
13DC
330
807
100
AcDbEntity
  8
0
  6
CONTINUOUS
100
AcDbCircle
 10
95.86452522344542
 20
198.9816989929969
 30
0.0
 40
0.5
100
AcDbArc
 50
90.0
 51
180.0
  0
LINE
  5
13DD
330
807
100
AcDbEntity
  8
0
  6
CONTINUOUS
100
AcDbLine
 10
94.46452522344486
 20
200.5566989929967
 30
0.0
 11
94.46452522344486
 21
201.0816989929963
 31
0.0
  0
ARC
  5
13DE
330
807
100
AcDbEntity
  8
0
  6
CONTINUOUS
100
AcDbCircle
 10
95.86452522344542
 20
197.9816989929969
 30
0.0
 40
0.5
100
AcDbArc
 50
180.0
 51
270.0
  0
LINE
  5
13DF
330
807
100
AcDbEntity
  8
0
  6
CONTINUOUS
100
AcDbLine
 10
94.46452522344486
 20
195.7816989929971
 30
0.0
 11
94.46452522344486
 21
196.4066989929971
 31
0.0
  0
LINE
  5
13E0
330
807
100
AcDbEntity
  8
0
  6
CONTINUOUS
100
AcDbLine
 10
95.36452522344541
 20
197.9816989929969
 30
0.0
 11
95.36452522344541
 21
198.9816989929969
 31
0.0
  0
LINE
  5
13E1
330
807
100
AcDbEntity
  8
0
  6
CONTINUOUS
100
AcDbLine
 10
98.76452522344505
 20
195.7816989929971
 30
0.0
 11
98.76452522344505
 21
197.4816989929969
 31
0.0
  0
LINE
  5
13E2
330
807
100
AcDbEntity
  8
0
  6
CONTINUOUS
100
AcDbLine
 10
94.46452522344486
 20
201.0816989929963
 30
0.0
 11
97.36452522344542
 21
201.0816989929963
 31
0.0
  0
LINE
  5
13E3
330
807
100
AcDbEntity
  8
0
  6
CONTINUOUS
100
AcDbLine
 10
98.76452522344505
 20
199.4816989929969
 30
0.0
 11
98.76452522344505
 21
202.7816989929971
 31
0.0
  0
LINE
  5
13E4
330
807
100
AcDbEntity
  8
0
  6
CONTINUOUS
100
AcDbLine
 10
97.36452522344542
 20
201.0816989929963
 30
0.0
 11
97.36452522344542
 21
202.7816989929971
 31
0.0
  0
LINE
  5
13E5
330
807
100
AcDbEntity
  8
0
  6
CONTINUOUS
100
AcDbLine
 10
99.96452522344487
 20
195.7816989929971
 30
0.0
 11
99.96452522344487
 21
197.4816989929969
 31
0.0
  0
LINE
  5
13E6
330
807
100
AcDbEntity
  8
0
  6
CONTINUOUS
100
AcDbLine
 10
99.96452522344487
 20
199.4816989929969
 30
0.0
 11
99.96452522344487
 21
202.7816989929971
 31
0.0
  0
LINE
  5
13E7
330
807
100
AcDbEntity
  8
0
  6
CONTINUOUS
100
AcDbLine
 10
101.3645252234454
 20
201.0816989929963
 30
0.0
 11
101.3645252234454
 21
202.7816989929971
 31
0.0
  0
ARC
  5
13E8
330
807
100
AcDbEntity
  8
0
  6
CONTINUOUS
100
AcDbCircle
 10
102.8645252234454
 20
198.9816989929969
 30
0.0
 40
0.5
100
AcDbArc
 50
0.0
 51
90.0
  0
ARC
  5
13E9
330
807
100
AcDbEntity
  8
0
  6
CONTINUOUS
100
AcDbCircle
 10
102.8645252234454
 20
197.9816989929969
 30
0.0
 40
0.5
100
AcDbArc
 50
270.0
 51
0.0
  0
LINE
  5
13EA
330
807
100
AcDbEntity
  8
0
  6
CONTINUOUS
100
AcDbLine
 10
103.3645252234454
 20
197.9816989929969
 30
0.0
 11
103.3645252234454
 21
198.9816989929969
 31
0.0
  0
LINE
  5
13EB
330
807
100
AcDbEntity
  8
0
  6
CONTINUOUS
100
AcDbLine
 10
118.264525223445
 20
181.3816989929965
 30
0.0
 11
118.264525223445
 21
179.8738169929966
 31
0.0
  0
ARC
  5
13EC
330
807
100
AcDbEntity
  8
0
  6
CONTINUOUS
100
AcDbCircle
 10
117.764525223445
 20
179.8738169929966
 30
0.0
 40
0.5
100
AcDbArc
 50
269.1171789999794
 51
0.0
  0
LINE
  5
13ED
330
807
100
AcDbEntity
  8
0
  6
CONTINUOUS
100
AcDbLine
 10
118.264525223445
 20
181.3816989929965
 30
0.0
 11
117.264525223445
 21
181.3816989929965
 31
0.0
  0
LINE
  5
13EE
330
807
100
AcDbEntity
  8
0
  6
CONTINUOUS
100
AcDbLine
 10
107.6645252234456
 20
190.8816999929969
 30
0.0
 11
105.6645252234456
 21
190.8816999929969
 31
0.0
  0
LINE
  5
13EF
330
807
100
AcDbEntity
  8
0
  6
CONTINUOUS
100
AcDbLine
 10
105.6645252234456
 20
190.8816999929969
 30
0.0
 11
105.6645252234456
 21
193.9816989929969
 31
0.0
  0
LINE
  5
13F0
330
807
100
AcDbEntity
  8
0
  6
CONTINUOUS
100
AcDbLine
 10
106.6645252234456
 20
193.9816989929969
 30
0.0
 11
105.6645252234456
 21
193.9816989929969
 31
0.0
  0
LINE
  5
13F1
330
807
100
AcDbEntity
  8
0
  6
CONTINUOUS
100
AcDbLine
 10
111.6645252234455
 20
190.8816999929969
 30
0.0
 11
109.6645252234455
 21
190.8816999929969
 31
0.0
  0
LINE
  5
13F2
330
807
100
AcDbEntity
  8
0
  6
CONTINUOUS
100
AcDbLine
 10
104.264525223445
 20
200.5566989929967
 30
0.0
 11
104.264525223445
 21
201.0816989929963
 31
0.0
  0
LINE
  5
13F3
330
807
100
AcDbEntity
  8
0
  6
CONTINUOUS
100
AcDbLine
 10
104.264525223445
 20
200.5566989929967
 30
0.0
 11
105.514525223445
 21
200.5566989929967
 31
0.0
  0
LINE
  5
13F4
330
807
100
AcDbEntity
  8
0
  6
CONTINUOUS
100
AcDbLine
 10
104.264525223445
 20
195.7816989929971
 30
0.0
 11
104.264525223445
 21
196.4066989929971
 31
0.0
  0
LINE
  5
13F5
330
807
100
AcDbEntity
  8
0
  6
CONTINUOUS
100
AcDbLine
 10
104.264525223445
 20
196.4066989929971
 30
0.0
 11
105.514525223445
 21
196.4066989929971
 31
0.0
  0
LINE
  5
13F6
330
807
100
AcDbEntity
  8
0
  6
CONTINUOUS
100
AcDbLine
 10
105.514525223445
 20
196.4066989929971
 30
0.0
 11
105.514525223445
 21
200.5566989929967
 31
0.0
  0
LINE
  5
13F7
330
807
100
AcDbEntity
  8
0
  6
CONTINUOUS
100
AcDbLine
 10
52.57434322344568
 20
211.3848659929964
 30
0.0
 11
117.264525223445
 21
212.3816989929965
 31
0.0
  0
LINE
  5
13F8
330
807
100
AcDbEntity
  8
0
  6
CONTINUOUS
100
AcDbLine
 10
57.80448722344488
 20
213.4656959929972
 30
0.0
 11
117.7568212234453
 21
214.3895229929968
 31
0.0
  0
LINE
  5
13F9
330
807
100
AcDbEntity
  8
0
  6
CONTINUOUS
100
AcDbLine
 10
57.96786622344541
 20
206.9674419929971
 30
0.0
 11
117.264525223445
 21
207.8811649929968
 31
0.0
  0
ARC
  5
13FA
330
807
100
AcDbEntity
  8
0
  6
CONTINUOUS
100
AcDbCircle
 10
150.6645252234456
 20
196.8816999929969
 30
0.0
 40
100.0
100
AcDbArc
 50
171.6685120000161
 51
172.1601739999854
  0
LINE
  5
13FB
330
807
100
AcDbEntity
  8
0
  6
CONTINUOUS
100
AcDbLine
 10
51.71989422344529
 20
211.3716989929972
 30
0.0
 11
52.57434322344568
 21
211.3848659929964
 31
0.0
  0
ARC
  5
13FC
330
807
100
AcDbEntity
  8
0
  6
CONTINUOUS
100
AcDbCircle
 10
52.58975122344498
 20
210.3849849929967
 30
0.0
 40
1.0
100
AcDbArc
 50
90.88282099996837
 51
172.1606020000355
  0
ARC
  5
13FD
330
807
100
AcDbEntity
  8
0
  6
CONTINUOUS
100
AcDbCircle
 10
57.99868122344548
 20
204.9676799929967
 30
0.0
 40
2.0
100
AcDbArc
 50
90.88282099996837
 51
175.2671449999835
  0
LINE
  5
13FE
330
807
100
AcDbEntity
  8
0
  6
CONTINUOUS
100
AcDbLine
 10
61.6645252234456
 20
202.8816999929969
 30
0.0
 11
63.66452522344559
 21
202.8816999929969
 31
0.0
  0
LINE
  5
13FF
330
807
100
AcDbEntity
  8
0
  6
CONTINUOUS
100
AcDbLine
 10
56.81989422344566
 20
212.4658149929965
 30
0.0
 11
56.81989422344566
 21
211.4502869929966
 31
0.0
  0
ARC
  5
1400
330
807
100
AcDbEntity
  8
0
  6
CONTINUOUS
100
AcDbCircle
 10
57.81989422344565
 20
212.4658149929965
 30
0.0
 40
1.0
100
AcDbArc
 50
90.88282099996837
 51
180.0
  0
LINE
  5
1401
330
807
100
AcDbEntity
  8
0
  6
CONTINUOUS
100
AcDbLine
 10
73.66452522344559
 20
202.8816999929969
 30
0.0
 11
75.66452522344559
 21
202.8816999929969
 31
0.0
  0
LINE
  5
1402
330
807
100
AcDbEntity
  8
0
  6
CONTINUOUS
100
AcDbLine
 10
65.66452522344559
 20
202.8816999929969
 30
0.0
 11
67.66452522344559
 21
202.8816999929969
 31
0.0
  0
LINE
  5
1403
330
807
100
AcDbEntity
  8
0
  6
CONTINUOUS
100
AcDbLine
 10
69.66452522344559
 20
202.8816999929969
 30
0.0
 11
71.6645252234456
 21
202.8816999929969
 31
0.0
  0
LINE
  5
1404
330
807
100
AcDbEntity
  8
0
  6
CONTINUOUS
100
AcDbLine
 10
77.66452522344559
 20
202.8816999929969
 30
0.0
 11
79.66452522344559
 21
202.8816999929969
 31
0.0
  0
LINE
  5
1405
330
807
100
AcDbEntity
  8
0
  6
CONTINUOUS
100
AcDbLine
 10
83.66452522344559
 20
202.8816989929965
 30
0.0
 11
81.6645252234456
 21
202.8816989929965
 31
0.0
  0
LINE
  5
1406
330
807
100
AcDbEntity
  8
0
  6
CONTINUOUS
100
AcDbLine
 10
87.66452522344559
 20
202.8816989929965
 30
0.0
 11
85.6645252234456
 21
202.8816989929965
 31
0.0
  0
LINE
  5
1407
330
807
100
AcDbEntity
  8
0
  6
CONTINUOUS
100
AcDbLine
 10
91.6645252234456
 20
202.8816989929965
 30
0.0
 11
89.66452522344559
 21
202.8816989929965
 31
0.0
  0
LINE
  5
1408
330
807
100
AcDbEntity
  8
0
  6
CONTINUOUS
100
AcDbLine
 10
106.6645252234456
 20
202.8816999929969
 30
0.0
 11
107.6645252234456
 21
202.8816999929969
 31
0.0
  0
LINE
  5
1409
330
807
100
AcDbEntity
  8
0
  6
CONTINUOUS
100
AcDbLine
 10
109.6645252234455
 20
202.8816999929969
 30
0.0
 11
111.6645252234455
 21
202.8816999929969
 31
0.0
  0
LINE
  5
140A
330
807
100
AcDbEntity
  8
0
  6
CONTINUOUS
100
AcDbLine
 10
117.264525223445
 20
212.3816989929965
 30
0.0
 11
118.264525223445
 21
212.3816989929965
 31
0.0
  0
LINE
  5
140B
330
807
100
AcDbEntity
  8
0
  6
CONTINUOUS
100
AcDbLine
 10
118.264525223445
 20
212.3816989929965
 30
0.0
 11
118.264525223445
 21
213.8895819929968
 31
0.0
  0
ARC
  5
140C
330
807
100
AcDbEntity
  8
0
  6
CONTINUOUS
100
AcDbCircle
 10
117.764525223445
 20
213.8895819929968
 30
0.0
 40
0.5
100
AcDbArc
 50
0.0
 51
90.88282099996837
  0
ENDSEC
  0
SECTION
  2
OBJECTS
  0
DICTIONARY
  5
7F5
330
0
100
AcDbDictionary
  3
ACAD_GROUP
350
7F6
  3
ACAD_LAYOUT
350
802
  3
ACAD_MLINESTYLE
350
7FF
  3
ACAD_PLOTSETTINGS
350
801
  3
ACAD_PLOTSTYLENAME
350
7F7
  3
ACDBHEADERROUNDTRIPXREC
350
141D
  3
ACDBVARIABLEDICTIONARY
350
141A
  0
DICTIONARY
  5
DA0
330
7EB
100
AcDbDictionary
280
     1
  3
ACAD_LAYERSTATES
360
DA1
  0
DICTIONARY
  5
143F
330
807
100
AcDbDictionary
280
     1
  3
ACAD_LAYOUTSELFREF
360
1440
  0
DICTIONARY
  5
143D
330
803
100
AcDbDictionary
280
     1
  3
ACAD_LAYOUTSELFREF
360
143E
  0
DICTIONARY
  5
7F6
102
{ACAD_REACTORS
330
7F5
102
}
330
7F5
100
AcDbDictionary
  0
DICTIONARY
  5
802
102
{ACAD_REACTORS
330
7F5
102
}
330
7F5
100
AcDbDictionary
  0
DICTIONARY
  5
7FF
102
{ACAD_REACTORS
330
7F5
102
}
330
7F5
100
AcDbDictionary
  3
STANDARD
350
800
  0
DICTIONARY
  5
801
102
{ACAD_REACTORS
330
7F5
102
}
330
7F5
100
AcDbDictionary
  0
ACDBDICTIONARYWDFLT
  5
7F7
102
{ACAD_REACTORS
330
7F5
102
}
330
7F5
100
AcDbDictionary
281
     1
  3
Normal
350
7F8
100
AcDbDictionaryWithDefault
340
7F8
  0
DICTIONARY
  5
141D
102
{ACAD_REACTORS
330
7F5
102
}
330
7F5
100
AcDbDictionary
  3
CEPSNTYPE
350
1427
  3
FINGERPRINTGUID
350
1428
  3
HYPERLINKBASE
350
1420
  3
INSUNITS
350
1426
  3
LAYOUTDICT
350
1422
  3
LWETCUNION
350
1425
  3
PLOTSETDICT
350
1423
  3
PLOTSTYLNAMDICT
350
1424
  3
PSVPSCALE
350
142A
  3
PUCSBASE
350
142D
  3
PUCSORGBACK
350
1433
  3
PUCSORGBOTTOM
350
142F
  3
PUCSORGFRONT
350
1432
  3
PUCSORGLEFT
350
1430
  3
PUCSORGRIGHT
350
1431
  3
PUCSORGTOP
350
142E
  3
PUCSORTHOREF
350
142B
  3
PUCSORTHOVIEW
350
142C
  3
STYLESHEET
350
1421
  3
TSTACKALIGN
350
141E
  3
TSTACKSIZE
350
141F
  3
UCSBASE
350
1436
  3
UCSORGBACK
350
143C
  3
UCSORGBOTTOM
350
1438
  3
UCSORGFRONT
350
143B
  3
UCSORGLEFT
350
1439
  3
UCSORGRIGHT
350
143A
  3
UCSORGTOP
350
1437
  3
UCSORTHOREF
350
1434
  3
UCSORTHOVIEW
350
1435
  3
VERSIONGUID
350
1429
  0
DICTIONARY
  5
141A
102
{ACAD_REACTORS
330
7F5
102
}
330
7F5
100
AcDbDictionary
  3
DIMASSOC
350
141B
  0
DICTIONARY
  5
DA1
102
{ACAD_REACTORS
330
DA0
102
}
330
DA0
100
AcDbDictionary
  0
XRECORD
  5
1440
102
{ACAD_REACTORS
330
143F
102
}
330
143F
100
AcDbXrecord
340
807
  0
XRECORD
  5
143E
102
{ACAD_REACTORS
330
143D
102
}
330
143D
100
AcDbXrecord
340
803
  0
MLINESTYLE
  5
800
102
{ACAD_REACTORS
330
7FF
102
}
330
7FF
100
AcDbMlineStyle
  2
STANDARD
 70
     0
  3

 62
   256
 51
90.0
 52
90.0
 71
     2
 49
0.5
 62
   256
  6
BYLAYER
 49
-0.5
 62
   256
  6
BYLAYER
  0
ACDBPLACEHOLDER
  5
7F8
102
{ACAD_REACTORS
330
7F7
102
}
330
7F7
100
AcDbPlaceHolder
280
     0
  0
XRECORD
  5
1427
102
{ACAD_REACTORS
330
141D
102
}
330
141D
100
AcDbXrecord
 90
        0
  0
XRECORD
  5
1428
102
{ACAD_REACTORS
330
141D
102
}
330
141D
100
AcDbXrecord
  1
{09614033-FCC2-480E-887D-2C422D39865B}
  0
XRECORD
  5
1420
102
{ACAD_REACTORS
330
141D
102
}
330
141D
100
AcDbXrecord
  1

  0
XRECORD
  5
1426
102
{ACAD_REACTORS
330
141D
102
}
330
141D
100
AcDbXrecord
 90
        0
  0
XRECORD
  5
1422
102
{ACAD_REACTORS
330
141D
102
}
330
141D
100
AcDbXrecord
340
802
  0
XRECORD
  5
1425
102
{ACAD_REACTORS
330
141D
102
}
330
141D
100
AcDbXrecord
 90
    10781
  0
XRECORD
  5
1423
102
{ACAD_REACTORS
330
141D
102
}
330
141D
100
AcDbXrecord
340
801
  0
XRECORD
  5
1424
102
{ACAD_REACTORS
330
141D
102
}
330
141D
100
AcDbXrecord
340
7F7
  0
XRECORD
  5
142A
102
{ACAD_REACTORS
330
141D
102
}
330
141D
100
AcDbXrecord
 40
0.0
  0
XRECORD
  5
142D
102
{ACAD_REACTORS
330
141D
102
}
330
141D
100
AcDbXrecord
340
0
  0
XRECORD
  5
1433
102
{ACAD_REACTORS
330
141D
102
}
330
141D
100
AcDbXrecord
 10
0.0
 20
0.0
 30
0.0
  0
XRECORD
  5
142F
102
{ACAD_REACTORS
330
141D
102
}
330
141D
100
AcDbXrecord
 10
0.0
 20
0.0
 30
0.0
  0
XRECORD
  5
1432
102
{ACAD_REACTORS
330
141D
102
}
330
141D
100
AcDbXrecord
 10
0.0
 20
0.0
 30
0.0
  0
XRECORD
  5
1430
102
{ACAD_REACTORS
330
141D
102
}
330
141D
100
AcDbXrecord
 10
0.0
 20
0.0
 30
0.0
  0
XRECORD
  5
1431
102
{ACAD_REACTORS
330
141D
102
}
330
141D
100
AcDbXrecord
 10
0.0
 20
0.0
 30
0.0
  0
XRECORD
  5
142E
102
{ACAD_REACTORS
330
141D
102
}
330
141D
100
AcDbXrecord
 10
0.0
 20
0.0
 30
0.0
  0
XRECORD
  5
142B
102
{ACAD_REACTORS
330
141D
102
}
330
141D
100
AcDbXrecord
340
0
  0
XRECORD
  5
142C
102
{ACAD_REACTORS
330
141D
102
}
330
141D
100
AcDbXrecord
 70
     0
  0
XRECORD
  5
1421
102
{ACAD_REACTORS
330
141D
102
}
330
141D
100
AcDbXrecord
  1

  0
XRECORD
  5
141E
102
{ACAD_REACTORS
330
141D
102
}
330
141D
100
AcDbXrecord
 90
        1
  0
XRECORD
  5
141F
102
{ACAD_REACTORS
330
141D
102
}
330
141D
100
AcDbXrecord
 90
       70
  0
XRECORD
  5
1436
102
{ACAD_REACTORS
330
141D
102
}
330
141D
100
AcDbXrecord
340
0
  0
XRECORD
  5
143C
102
{ACAD_REACTORS
330
141D
102
}
330
141D
100
AcDbXrecord
 10
0.0
 20
0.0
 30
0.0
  0
XRECORD
  5
1438
102
{ACAD_REACTORS
330
141D
102
}
330
141D
100
AcDbXrecord
 10
0.0
 20
0.0
 30
0.0
  0
XRECORD
  5
143B
102
{ACAD_REACTORS
330
141D
102
}
330
141D
100
AcDbXrecord
 10
0.0
 20
0.0
 30
0.0
  0
XRECORD
  5
1439
102
{ACAD_REACTORS
330
141D
102
}
330
141D
100
AcDbXrecord
 10
0.0
 20
0.0
 30
0.0
  0
XRECORD
  5
143A
102
{ACAD_REACTORS
330
141D
102
}
330
141D
100
AcDbXrecord
 10
0.0
 20
0.0
 30
0.0
  0
XRECORD
  5
1437
102
{ACAD_REACTORS
330
141D
102
}
330
141D
100
AcDbXrecord
 10
0.0
 20
0.0
 30
0.0
  0
XRECORD
  5
1434
102
{ACAD_REACTORS
330
141D
102
}
330
141D
100
AcDbXrecord
340
0
  0
XRECORD
  5
1435
102
{ACAD_REACTORS
330
141D
102
}
330
141D
100
AcDbXrecord
 70
     0
  0
XRECORD
  5
1429
102
{ACAD_REACTORS
330
141D
102
}
330
141D
100
AcDbXrecord
  1
{BA1A46A6-12D3-4542-BEC5-4E8F3B1EB1E2}
  0
DICTIONARYVAR
  5
141B
102
{ACAD_REACTORS
330
141A
102
}
330
141A
100
DictionaryVariables
280
     0
  1
1
  0
ENDSEC
  0
EOF
