  0
SECTION
  2
HEADER
  9
$ACADVER
  1
AC1014
  9
$ACADMAINTVER
 70
     9
  9
$DWGCODEPAGE
  3
ANSI_932
  9
$INSBASE
 10
0.0
 20
0.0
 30
0.0
  9
$EXTMIN
 10
-0.2371206044185783
 20
-0.1087576640901489
 30
-0.0000000349181948
  9
$EXTMAX
 10
132.2305304280372
 20
220.7291043855032
 30
0.0000000814935747
  9
$LIMMIN
 10
0.0
 20
0.0
  9
$LIMMAX
 10
420.0
 20
297.0
  9
$ORTHOMODE
 70
     0
  9
$REGENMODE
 70
     1
  9
$FILLMODE
 70
     1
  9
$QTEXTMODE
 70
     0
  9
$MIRRTEXT
 70
     1
  9
$DRAGMODE
 70
     2
  9
$LTSCALE
 40
1.0
  9
$OSMODE
 70
    55
  9
$ATTMODE
 70
     1
  9
$TEXTSIZE
 40
2.5
  9
$TRACEWID
 40
1.0
  9
$TEXTSTYLE
  7
STANDARD
  9
$CLAYER
  8
0
  9
$CELTYPE
  6
BYLAYER
  9
$CECOLOR
 62
   256
  9
$CELTSCALE
 40
1.0
  9
$DELOBJ
 70
     1
  9
$DISPSILH
 70
     0
  9
$DIMSCALE
 40
1.0
  9
$DIMASZ
 40
2.5
  9
$DIMEXO
 40
0.625
  9
$DIMDLI
 40
3.75
  9
$DIMRND
 40
0.0
  9
$DIMDLE
 40
0.0
  9
$DIMEXE
 40
1.25
  9
$DIMTP
 40
0.0
  9
$DIMTM
 40
0.0
  9
$DIMTXT
 40
2.5
  9
$DIMCEN
 40
2.5
  9
$DIMTSZ
 40
0.0
  9
$DIMTOL
 70
     0
  9
$DIMLIM
 70
     0
  9
$DIMTIH
 70
     0
  9
$DIMTOH
 70
     0
  9
$DIMSE1
 70
     0
  9
$DIMSE2
 70
     0
  9
$DIMTAD
 70
     1
  9
$DIMZIN
 70
     8
  9
$DIMBLK
  1

  9
$DIMASO
 70
     1
  9
$DIMSHO
 70
     1
  9
$DIMPOST
  1

  9
$DIMAPOST
  1

  9
$DIMALT
 70
     0
  9
$DIMALTD
 70
     3
  9
$DIMALTF
 40
0.03937007874016
  9
$DIMLFAC
 40
1.0
  9
$DIMTOFL
 70
     1
  9
$DIMTVP
 40
0.0
  9
$DIMTIX
 70
     0
  9
$DIMSOXD
 70
     0
  9
$DIMSAH
 70
     0
  9
$DIMBLK1
  1

  9
$DIMBLK2
  1

  9
$DIMSTYLE
  2
ISO-25
  9
$DIMCLRD
 70
     0
  9
$DIMCLRE
 70
     0
  9
$DIMCLRT
 70
     0
  9
$DIMTFAC
 40
1.0
  9
$DIMGAP
 40
0.625
  9
$DIMJUST
 70
     0
  9
$DIMSD1
 70
     0
  9
$DIMSD2
 70
     0
  9
$DIMTOLJ
 70
     0
  9
$DIMTZIN
 70
     8
  9
$DIMALTZ
 70
     0
  9
$DIMALTTZ
 70
     0
  9
$DIMFIT
 70
     3
  9
$DIMUPT
 70
     0
  9
$DIMUNIT
 70
     2
  9
$DIMDEC
 70
     2
  9
$DIMTDEC
 70
     2
  9
$DIMALTU
 70
     2
  9
$DIMALTTD
 70
     3
  9
$DIMTXSTY
  7
STANDARD
  9
$DIMAUNIT
 70
     0
  9
$LUNITS
 70
     2
  9
$LUPREC
 70
     4
  9
$SKETCHINC
 40
1.0
  9
$FILLETRAD
 40
10.0
  9
$AUNITS
 70
     0
  9
$AUPREC
 70
     0
  9
$MENU
  1
.
  9
$ELEVATION
 40
0.0
  9
$PELEVATION
 40
0.0
  9
$THICKNESS
 40
0.0
  9
$LIMCHECK
 70
     0
  9
$BLIPMODE
 70
     0
  9
$CHAMFERA
 40
10.0
  9
$CHAMFERB
 40
10.0
  9
$CHAMFERC
 40
20.0
  9
$CHAMFERD
 40
0.0
  9
$SKPOLY
 70
     0
  9
$TDCREATE
 40
2453948.762405729
  9
$TDUPDATE
 40
2455040.699589456
  9
$TDINDWG
 40
0.0016668519
  9
$TDUSRTIMER
 40
0.0016666667
  9
$USRTIMER
 70
     1
  9
$ANGBASE
 50
0.0
  9
$ANGDIR
 70
     0
  9
$PDMODE
 70
     0
  9
$PDSIZE
 40
0.0
  9
$PLINEWID
 40
0.0
  9
$COORDS
 70
     0
  9
$SPLFRAME
 70
     0
  9
$SPLINETYPE
 70
     6
  9
$SPLINESEGS
 70
     8
  9
$ATTDIA
 70
     0
  9
$ATTREQ
 70
     1
  9
$HANDLING
 70
 22529
  9
$HANDSEED
  5
1834
  9
$SURFTAB1
 70
     6
  9
$SURFTAB2
 70
     6
  9
$SURFTYPE
 70
     6
  9
$SURFU
 70
     6
  9
$SURFV
 70
     6
  9
$UCSNAME
  2

  9
$UCSORG
 10
0.0
 20
0.0
 30
0.0
  9
$UCSXDIR
 10
1.0
 20
0.0
 30
0.0
  9
$UCSYDIR
 10
0.0
 20
1.0
 30
0.0
  9
$PUCSNAME
  2

  9
$PUCSORG
 10
0.0
 20
0.0
 30
0.0
  9
$PUCSXDIR
 10
1.0
 20
0.0
 30
0.0
  9
$PUCSYDIR
 10
0.0
 20
1.0
 30
0.0
  9
$USERI1
 70
     0
  9
$USERI2
 70
     0
  9
$USERI3
 70
     0
  9
$USERI4
 70
     0
  9
$USERI5
 70
     0
  9
$USERR1
 40
0.0
  9
$USERR2
 40
0.0
  9
$USERR3
 40
0.0
  9
$USERR4
 40
0.0
  9
$USERR5
 40
0.0
  9
$WORLDVIEW
 70
     1
  9
$SHADEDGE
 70
     3
  9
$SHADEDIF
 70
    70
  9
$TILEMODE
 70
     1
  9
$MAXACTVP
 70
    64
  9
$PINSBASE
 10
0.0
 20
0.0
 30
0.0
  9
$PLIMCHECK
 70
     0
  9
$PEXTMIN
 10
1.000000000000000E+20
 20
1.000000000000000E+20
 30
1.000000000000000E+20
  9
$PEXTMAX
 10
-1.000000000000000E+20
 20
-1.000000000000000E+20
 30
-1.000000000000000E+20
  9
$PLIMMIN
 10
0.0
 20
0.0
  9
$PLIMMAX
 10
420.0
 20
297.0
  9
$UNITMODE
 70
     0
  9
$VISRETAIN
 70
     1
  9
$PLINEGEN
 70
     0
  9
$PSLTSCALE
 70
     1
  9
$TREEDEPTH
 70
  3020
  9
$PICKSTYLE
 70
     1
  9
$CMLSTYLE
  2
STANDARD
  9
$CMLJUST
 70
     0
  9
$CMLSCALE
 40
20.0
  9
$PROXYGRAPHICS
 70
     1
  9
$MEASUREMENT
 70
     0
  0
ENDSEC
  0
SECTION
  2
CLASSES
  0
CLASS
  1
ACDBDICTIONARYWDFLT
  2
AcDbDictionaryWithDefault
  3
AutoCAD 2000
 90
        0
280
     0
281
     0
  0
CLASS
  1
ACDBPLACEHOLDER
  2
AcDbPlaceHolder
  3
AutoCAD 2000
 90
        0
280
     0
281
     0
  0
CLASS
  1
LAYOUT
  2
AcDbLayout
  3
AutoCAD 2000
 90
        0
280
     0
281
     0
  0
CLASS
  1
DIMASSOC
  2
AcDbDimAssoc
  3
"AcDbDimAssoc|Product Desc:     AcDim ARX App For Dimension|Company:          Autodesk, Inc.|WEB Address:      www.autodesk.com"
 90
        0
280
     0
281
     0
  0
CLASS
  1
DICTIONARYVAR
  2
AcDbDictionaryVar
  3
AutoCAD 2000
 90
        0
280
     0
281
     0
  0
CLASS
  1
LONG_TRANSACTION
  2
AcDbLongTransaction
  3
AutoCAD 2000
 90
        0
280
     0
281
     0
  0
CLASS
  1
LWPOLYLINE
  2
AcDbPolyline
  3
AutoCAD 2000
 90
        0
280
     0
281
     1
  0
CLASS
  1
HATCH
  2
AcDbHatch
  3
AutoCAD 2000
 90
        0
280
     0
281
     1
  0
CLASS
  1
XRECORD
  2
AcDbXrecord
  3
AutoCAD 2000
 90
        0
280
     0
281
     0
  0
CLASS
  1
LONG_TRANSACTION
  2
AcDbLongTransaction
  3
AutoCAD 2000
 90
        0
280
     0
281
     0
  0
CLASS
  1
LWPOLYLINE
  2
AcDbPolyline
  3
AutoCAD 2000
 90
        0
280
     0
281
     1
  0
CLASS
  1
HATCH
  2
AcDbHatch
  3
AutoCAD 2000
 90
        0
280
     0
281
     1
  0
CLASS
  1
XRECORD
  2
AcDbXrecord
  3
AutoCAD 2000
 90
        0
280
     0
281
     0
  0
ENDSEC
  0
SECTION
  2
TABLES
  0
TABLE
  2
VPORT
  5
8
330
0
100
AcDbSymbolTable
 70
     2
  0
VPORT
  5
1811
330
8
100
AcDbSymbolTableRecord
100
AcDbViewportTableRecord
  2
*ACTIVE
 70
     0
 10
0.0
 20
0.0
 11
1.0
 21
1.0
 12
65.99670491180934
 22
110.3101733607065
 13
0.0
 23
0.0
 14
10.0
 24
10.0
 15
10.0
 25
10.0
 16
0.0
 26
0.0
 36
1.0
 17
0.0
 27
0.0
 37
0.0
 40
222.4900156310117
 41
1.504369538077403
 42
50.0
 43
0.0
 44
0.0
 50
0.0
 51
0.0
 71
     0
 72
   100
 73
     1
 74
     3
 75
     0
 76
     0
 77
     0
 78
     0
  0
ENDTAB
  0
TABLE
  2
LTYPE
  5
5
330
0
100
AcDbSymbolTable
 70
     2
  0
LTYPE
  5
14
330
5
100
AcDbSymbolTableRecord
100
AcDbLinetypeTableRecord
  2
BYBLOCK
 70
     0
  3

 72
    65
 73
     0
 40
0.0
  0
LTYPE
  5
15
330
5
100
AcDbSymbolTableRecord
100
AcDbLinetypeTableRecord
  2
BYLAYER
 70
     0
  3

 72
    65
 73
     0
 40
0.0
  0
LTYPE
  5
16
330
5
100
AcDbSymbolTableRecord
100
AcDbLinetypeTableRecord
  2
CONTINUOUS
 70
     0
  3
Solid line
 72
    65
 73
     0
 40
0.0
  0
LTYPE
  5
74
330
5
100
AcDbSymbolTableRecord
100
AcDbLinetypeTableRecord
  2
DIVIDE
 70
     0
  3
__ . . __ . . __ . . __ . . __ . . __ . . __
 72
    65
 73
     6
 40
1.25
 49
0.0
 74
     0
 49
-0.25
 74
     0
 49
0.0
 74
     0
 49
-0.25
 74
     0
 49
0.0
 74
     0
 49
-0.25
 74
     0
  0
ENDTAB
  0
TABLE
  2
LAYER
  5
2
102
{ACAD_XDICTIONARY
360
7F
102
}
330
0
100
AcDbSymbolTable
 70
     8
  0
LAYER
  5
10
330
2
100
AcDbSymbolTableRecord
100
AcDbLayerTableRecord
  2
0
 70
     0
 62
     7
  6
CONTINUOUS
  0
LAYER
  5
75
330
2
100
AcDbSymbolTableRecord
100
AcDbLayerTableRecord
  2
外枠
 70
     0
 62
     7
  6
CONTINUOUS
  0
LAYER
  5
77
330
2
100
AcDbSymbolTableRecord
100
AcDbLayerTableRecord
  2
DEFPOINTS
 70
     0
 62
     7
  6
CONTINUOUS
  0
LAYER
  5
79
330
2
100
AcDbSymbolTableRecord
100
AcDbLayerTableRecord
  2
3_表示パネル
 70
     0
 62
     7
  6
DIVIDE
  0
LAYER
  5
9EC
330
2
100
AcDbSymbolTableRecord
100
AcDbLayerTableRecord
  2
ﾚｲﾔ_1
 70
     0
 62
    12
  6
CONTINUOUS
  0
LAYER
  5
9ED
330
2
100
AcDbSymbolTableRecord
100
AcDbLayerTableRecord
  2
2_カバ_
 70
     0
 62
     7
  6
DIVIDE
  0
ENDTAB
  0
TABLE
  2
STYLE
  5
3
330
0
100
AcDbSymbolTable
 70
     1
  0
STYLE
  5
11
330
3
100
AcDbSymbolTableRecord
100
AcDbTextStyleTableRecord
  2
STANDARD
 70
     0
 40
0.0
 41
1.0
 50
0.0
 71
     0
 42
2.5
  3
txt
  4

  0
ENDTAB
  0
TABLE
  2
VIEW
  5
6
330
0
100
AcDbSymbolTable
 70
     0
  0
ENDTAB
  0
TABLE
  2
UCS
  5
7
330
0
100
AcDbSymbolTable
 70
     0
  0
ENDTAB
  0
TABLE
  2
APPID
  5
9
330
0
100
AcDbSymbolTable
 70
     1
  0
APPID
  5
12
330
9
100
AcDbSymbolTableRecord
100
AcDbRegAppTableRecord
  2
ACAD
 70
     0
  0
ENDTAB
  0
TABLE
  2
DIMSTYLE
  5
A
330
0
100
AcDbSymbolTable
 70
     6
  0
DIMSTYLE
105
27
330
A
100
AcDbSymbolTableRecord
100
AcDbDimStyleTableRecord
  2
ISO-25
 70
     0
  3

  4

  5

  6

  7

 40
1.0
 41
2.5
 42
0.625
 43
3.75
 44
1.25
 45
0.0
 46
0.0
 47
0.0
 48
0.0
140
2.5
141
2.5
142
0.0
143
0.03937007874016
144
1.0
145
0.0
146
1.0
147
0.625
 71
     0
 72
     0
 73
     0
 74
     0
 75
     0
 76
     0
 77
     1
 78
     8
170
     0
171
     3
172
     1
173
     0
174
     0
175
     0
176
     0
177
     0
178
     0
270
     2
271
     2
272
     2
273
     2
274
     3
340
11
275
     0
280
     0
281
     0
282
     0
283
     0
284
     8
285
     0
286
     0
287
     3
288
     0
  0
DIMSTYLE
105
7A
330
A
100
AcDbSymbolTableRecord
100
AcDbDimStyleTableRecord
  2
STANDARD
 70
     0
  3

  4

  5

  6

  7

 40
1.0
 41
2.5
 42
0.625
 43
3.75
 44
1.25
 45
0.0
 46
0.0
 47
0.0
 48
0.0
140
2.5
141
2.5
142
0.0
143
0.0394
144
1.0
145
0.0
146
1.0
147
0.625
 71
     0
 72
     0
 73
     0
 74
     0
 75
     0
 76
     0
 77
     1
 78
     8
170
     0
171
     4
172
     1
173
     0
174
     0
175
     0
176
     0
177
     0
178
     0
270
     2
271
     4
272
     4
273
     8
274
     4
340
11
275
     0
280
     0
281
     0
282
     0
283
     1
284
     0
285
     0
286
     0
287
     3
288
     0
  0
ENDTAB
  0
TABLE
  2
BLOCK_RECORD
  5
1
330
0
100
AcDbSymbolTable
 70
    16
  0
BLOCK_RECORD
  5
1F
102
{ACAD_XDICTIONARY
360
9E0
102
}
330
1
100
AcDbSymbolTableRecord
100
AcDbBlockTableRecord
  2
*MODEL_SPACE
  0
BLOCK_RECORD
  5
1B
102
{ACAD_XDICTIONARY
360
9DE
102
}
330
1
100
AcDbSymbolTableRecord
100
AcDbBlockTableRecord
  2
*PAPER_SPACE
  0
ENDTAB
  0
ENDSEC
  0
SECTION
  2
BLOCKS
  0
BLOCK
  5
20
330
1F
100
AcDbEntity
  8
0
100
AcDbBlockBegin
  2
*MODEL_SPACE
 70
     0
 10
0.0
 20
0.0
 30
0.0
  3
*MODEL_SPACE
  1

  0
ENDBLK
  5
21
330
1F
100
AcDbEntity
  8
0
100
AcDbBlockEnd
  0
BLOCK
  5
1C
330
1B
100
AcDbEntity
 67
     1
  8
0
100
AcDbBlockBegin
  2
*PAPER_SPACE
 70
     0
 10
0.0
 20
0.0
 30
0.0
  3
*PAPER_SPACE
  1

  0
ENDBLK
  5
1D
330
1B
100
AcDbEntity
 67
     1
  8
0
100
AcDbBlockEnd
  0
ENDSEC
  0
SECTION
  2
ENTITIES
  0
LINE
  5
147F
330
1F
100
AcDbEntity
  8
外枠
100
AcDbLine
 10
22.29339772972929
 20
76.95292496898395
 30
0.0
 11
22.29339772972741
 21
130.8949748259309
 31
0.0
  0
LINE
  5
1480
330
1F
100
AcDbEntity
  8
外枠
100
AcDbLine
 10
23.21564714880171
 20
131.644974825931
 30
0.0
 11
23.21564714880176
 21
67.01964550214654
 31
0.0
  0
LINE
  5
1481
330
1F
100
AcDbEntity
  8
外枠
100
AcDbLine
 10
21.04339772972926
 20
97.94497482593119
 30
0.0
 11
21.04339772972926
 21
98.44497482593119
 31
0.0
  0
LINE
  5
1482
330
1F
100
AcDbEntity
  8
外枠
100
AcDbLine
 10
19.04339772972926
 20
97.94497482593119
 30
0.0
 11
19.04339772972926
 21
98.44497482593119
 31
0.0
  0
LINE
  5
1483
330
1F
100
AcDbEntity
  8
外枠
100
AcDbLine
 10
18.54339772972926
 20
98.44497482593119
 30
0.0
 11
18.54339772972926
 21
97.94497482593119
 31
0.0
  0
LINE
  5
1484
330
1F
100
AcDbEntity
  8
外枠
100
AcDbLine
 10
20.54339772972926
 20
98.44497482593119
 30
0.0
 11
20.54339772972926
 21
97.94497482593119
 31
0.0
  0
LINE
  5
1485
330
1F
100
AcDbEntity
  8
外枠
100
AcDbLine
 10
16.61564714880168
 20
96.41964550214641
 30
0.0
 11
16.61564714880168
 21
116.1196455021464
 31
0.0
  0
LINE
  5
1486
330
1F
100
AcDbEntity
  8
外枠
100
AcDbLine
 10
17.29339772972926
 20
116.144974825931
 30
0.0
 11
17.29339772972926
 21
96.24497482593136
 31
0.0
  0
LINE
  5
1487
330
1F
100
AcDbEntity
  8
0
  6
CONTINUOUS
100
AcDbLine
 10
29.91564714880235
 20
158.3196455021474
 30
0.0
 11
29.91564714880266
 21
64.01964550214734
 31
0.0
  0
LINE
  5
1488
330
1F
100
AcDbEntity
  8
0
  6
CONTINUOUS
100
AcDbLine
 10
5.115647148802167
 20
158.3196455021474
 30
0.0
 11
5.11564714880248
 21
64.01964550214728
 31
0.0
  0
LINE
  5
1489
330
1F
100
AcDbEntity
  8
0
  6
CONTINUOUS
100
AcDbLine
 10
3.02564714880205
 20
160.9164225021472
 30
0.0
 11
3.025647148802363
 21
61.42286950214696
 31
0.0
  0
LINE
  5
148A
330
1F
100
AcDbEntity
  8
0
  6
CONTINUOUS
100
AcDbLine
 10
0.000000148801945
 20
64.89806950214677
 30
0.0
 11
0.0000001488016323
 21
157.4412215021469
 31
0.0
  0
LINE
  5
148B
330
1F
100
AcDbEntity
  8
0
  6
CONTINUOUS
100
AcDbLine
 10
32.00564714880252
 20
160.9164225021472
 30
0.0
 11
32.00564714880283
 21
61.42286950214708
 31
0.0
  0
LINE
  5
148C
330
1F
100
AcDbEntity
  8
0
  6
CONTINUOUS
100
AcDbLine
 10
35.03129414880229
 20
64.89806950214694
 30
0.0
 11
35.03129414880197
 21
157.441221502147
 31
0.0
  0
LINE
  5
148D
330
1F
100
AcDbEntity
  8
0
  6
CONTINUOUS
100
AcDbLine
 10
5.015647148802145
 20
63.91964550214692
 30
0.0
 11
5.015647148801804
 21
158.4196455021468
 31
0.0
  0
LINE
  5
148E
330
1F
100
AcDbEntity
  8
0
  6
CONTINUOUS
100
AcDbLine
 10
30.01564714880214
 20
63.91964550214698
 30
0.0
 11
30.0156471488018
 21
158.4196455021469
 31
0.0
  0
LINE
  5
148F
330
1F
100
AcDbEntity
  8
0
  6
CONTINUOUS
100
AcDbLine
 10
0.9468221488024539
 20
156.0350515021467
 30
0.0
 11
0.9468221488027381
 21
66.30424050214736
 31
0.0
  0
LINE
  5
1490
330
1F
100
AcDbEntity
  8
0
  6
CONTINUOUS
100
AcDbLine
 10
34.08447214880212
 20
156.0350515021468
 30
0.0
 11
34.0844721488024
 21
66.30424050214748
 31
0.0
  0
LINE
  5
1491
330
1F
100
AcDbEntity
  8
0
100
AcDbLine
 10
132.2208026897451
 20
51.91964550214695
 30
0.0
 11
132.2208026897451
 21
171.9196455021478
 31
0.0
  0
LINE
  5
1492
330
1F
100
AcDbEntity
  8
0
  6
CONTINUOUS
100
AcDbLine
 10
64.90512868974565
 20
160.1696455021478
 30
0.0
 11
64.90512868974565
 21
63.66964550214786
 31
0.0
  0
LINE
  5
1493
330
1F
100
AcDbEntity
  8
0
  6
CONTINUOUS
100
AcDbLine
 10
64.42080268974496
 20
160.1696455021478
 30
0.0
 11
64.42080268974496
 21
63.66964550214786
 31
0.0
  0
LINE
  5
1494
330
1F
100
AcDbEntity
  8
0
  6
CONTINUOUS
100
AcDbLine
 10
131.7208026897451
 20
65.67121650214855
 30
0.0
 11
131.7208026897451
 21
158.168074502148
 31
0.0
  0
LINE
  5
1495
330
1F
100
AcDbEntity
  8
0
  6
CONTINUOUS
100
AcDbLine
 10
70.27617168974575
 20
67.03161650214813
 30
0.0
 11
70.27617168974575
 21
156.8076735021481
 31
0.0
  0
LINE
  5
1496
330
1F
100
AcDbEntity
  8
0
  6
CONTINUOUS
100
AcDbLine
 10
65.17617168974538
 20
161.6922685021486
 30
0.0
 11
65.17617168974538
 21
62.14702250214893
 31
0.0
  0
LINE
  5
1497
330
1F
100
AcDbEntity
  8
0
  6
CONTINUOUS
100
AcDbLine
 10
81.12080268974569
 20
23.50782334750636
 30
0.0
 11
79.12080268974569
 21
23.50782334750636
 31
0.0
  0
LINE
  5
1498
330
1F
100
AcDbEntity
  8
0
  6
CONTINUOUS
100
AcDbLine
 10
79.12080268974569
 20
11.50782334750636
 30
0.0
 11
81.12080268974569
 21
11.50782334750636
 31
0.0
  0
LINE
  5
1499
330
1F
100
AcDbEntity
  8
0
  6
CONTINUOUS
100
AcDbLine
 10
130.7208026897451
 20
59.66964550214786
 30
0.0
 11
65.09792368974558
 21
61.17143650214845
 31
0.0
  0
LINE
  5
149A
330
1F
100
AcDbEntity
  8
0
  6
CONTINUOUS
100
AcDbLine
 10
130.6979236897459
 20
64.67147850214812
 30
0.0
 11
71.25329268974565
 21
66.0318785021486
 31
0.0
  0
LINE
  5
149B
330
1F
100
AcDbEntity
  8
0
  6
CONTINUOUS
100
AcDbLine
 10
66.03062068974577
 20
3.004657347506849
 30
0.0
 11
130.7208026897451
 21
2.007824347506698
 31
0.0
  0
LINE
  5
149C
330
1F
100
AcDbEntity
  8
0
  6
CONTINUOUS
100
AcDbLine
 10
66.03062068974577
 20
32.01099034750711
 30
0.0
 11
130.7208026897451
 21
33.0078243475067
 31
0.0
  0
LINE
  5
149D
330
1F
100
AcDbEntity
  8
0
  6
CONTINUOUS
100
AcDbLine
 10
71.26076468974497
 20
0.9238273475069718
 30
0.0
 11
131.2130986897454
 21
0.0000003475064432
 31
0.0
  0
LINE
  5
149E
330
1F
100
AcDbEntity
  8
0
  6
CONTINUOUS
100
AcDbLine
 10
71.26076468974497
 20
34.09182134750642
 30
0.0
 11
131.2130986897454
 21
35.01564734750661
 31
0.0
  0
LINE
  5
149F
330
1F
100
AcDbEntity
  8
0
  6
CONTINUOUS
100
AcDbLine
 10
71.42414468974493
 20
27.59356734750634
 30
0.0
 11
130.7208026897451
 21
28.50728934750657
 31
0.0
  0
LINE
  5
14A0
330
1F
100
AcDbEntity
  8
0
  6
CONTINUOUS
100
AcDbLine
 10
71.4241436897455
 20
7.422081347507059
 30
0.0
 11
130.7208026897451
 21
6.508358347507396
 31
0.0
  0
LINE
  5
14A1
330
1F
100
AcDbEntity
  8
0
  6
CONTINUOUS
100
AcDbLine
 10
79.12080268974569
 20
23.50782334750636
 30
0.0
 11
79.12080268974569
 21
11.50782334750636
 31
0.0
  0
LINE
  5
14A2
330
1F
100
AcDbEntity
  8
0
  6
CONTINUOUS
100
AcDbLine
 10
75.12080268974568
 20
23.50782334750636
 30
0.0
 11
75.12080268974568
 21
11.50782334750636
 31
0.0
  0
LINE
  5
14A3
330
1F
100
AcDbEntity
  8
0
  6
CONTINUOUS
100
AcDbLine
 10
77.12080268974569
 20
11.50782334750636
 30
0.0
 11
77.12080268974569
 21
23.50782334750636
 31
0.0
  0
ARC
  5
14A4
330
1F
100
AcDbEntity
  8
0
  6
CONTINUOUS
100
AcDbCircle
 10
169.1208026897457
 20
17.50782334750637
 30
0.0
 40
100.0
100
AcDbArc
 50
175.2671440000167
 51
184.7328550000163
  0
ARC
  5
14A5
330
1F
100
AcDbEntity
  8
0
  6
CONTINUOUS
100
AcDbCircle
 10
164.1208026897456
 20
17.50782334750637
 30
0.0
 40
100.0
100
AcDbArc
 50
172.1606000000095
 51
187.8393979999643
  0
ARC
  5
14A6
330
1F
100
AcDbEntity
  8
0
  6
CONTINUOUS
100
AcDbCircle
 10
164.1208026897456
 20
17.50782334750637
 30
0.0
 40
100.0
100
AcDbArc
 50
187.8398260000144
 51
188.3314879999837
  0
LINE
  5
14A7
330
1F
100
AcDbEntity
  8
0
  6
CONTINUOUS
100
AcDbLine
 10
65.17617168974538
 20
3.017824347506916
 30
0.0
 11
66.03062068974577
 21
3.004657347506849
 31
0.0
  0
ARC
  5
14A8
330
1F
100
AcDbEntity
  8
0
  6
CONTINUOUS
100
AcDbCircle
 10
66.04602868974507
 20
4.00453834750661
 30
0.0
 40
1.0
100
AcDbArc
 50
187.8393979999643
 51
269.1171789999794
  0
LINE
  5
14A9
330
1F
100
AcDbEntity
  8
0
  6
CONTINUOUS
100
AcDbLine
 10
70.27617168974575
 20
1.923708347506703
 30
0.0
 11
70.27617168974575
 21
2.939236347506607
 31
0.0
  0
ARC
  5
14AA
330
1F
100
AcDbEntity
  8
0
  6
CONTINUOUS
100
AcDbCircle
 10
71.27617168974575
 20
1.923708347506718
 30
0.0
 40
1.0
100
AcDbArc
 50
180.0
 51
269.1171789999794
  0
ARC
  5
14AB
330
1F
100
AcDbEntity
  8
0
  6
CONTINUOUS
100
AcDbCircle
 10
71.45495868974558
 20
9.421843347506538
 30
0.0
 40
2.0
100
AcDbArc
 50
184.7328550000163
 51
269.1171789999794
  0
LINE
  5
14AC
330
1F
100
AcDbEntity
  8
0
  6
CONTINUOUS
100
AcDbLine
 10
75.12080268974568
 20
11.50782334750636
 30
0.0
 11
77.12080268974569
 21
11.50782334750636
 31
0.0
  0
ARC
  5
14AD
330
1F
100
AcDbEntity
  8
2_カバ_
  6
CONTINUOUS
 62
     7
100
AcDbCircle
 10
164.1208026897456
 20
17.50782334750637
 30
0.0
 40
100.0
100
AcDbArc
 50
171.6685109999919
 51
172.1601729999681
  0
ARC
  5
14AE
330
1F
100
AcDbEntity
  8
2_カバ_
  6
CONTINUOUS
 62
   140
100
AcDbCircle
 10
66.04602868974507
 20
31.0111093475074
 30
0.0
 40
1.0
100
AcDbArc
 50
90.88282099996842
 51
172.1606000000095
  0
LINE
  5
14AF
330
1F
100
AcDbEntity
  8
0
  6
CONTINUOUS
100
AcDbLine
 10
77.12080268974569
 20
23.50782334750636
 30
0.0
 11
75.12080268974568
 21
23.50782334750636
 31
0.0
  0
ARC
  5
14B0
330
1F
100
AcDbEntity
  8
0
  6
CONTINUOUS
100
AcDbCircle
 10
71.45495968974501
 20
25.59380434750655
 30
0.0
 40
2.0
100
AcDbArc
 50
90.88282099996842
 51
175.2671440000167
  0
LINE
  5
14B1
330
1F
100
AcDbEntity
  8
2_カバ_
  6
CONTINUOUS
 62
     7
100
AcDbLine
 10
65.17617168974538
 20
31.99782434750648
 30
0.0
 11
66.03062068974577
 21
32.01099034750711
 31
0.0
  0
ARC
  5
14B2
330
1F
100
AcDbEntity
  8
0
  6
CONTINUOUS
100
AcDbCircle
 10
71.27617168974575
 20
33.09193934750636
 30
0.0
 40
1.0
100
AcDbArc
 50
90.88282099996842
 51
180.0
  0
LINE
  5
14B3
330
1F
100
AcDbEntity
  8
0
  6
CONTINUOUS
100
AcDbLine
 10
70.27617168974575
 20
33.09193934750635
 30
0.0
 11
70.27617168974575
 21
32.07641134750645
 31
0.0
  0
LINE
  5
14B4
330
1F
100
AcDbEntity
  8
外枠
100
AcDbLine
 10
14.38752738295485
 20
69.30499567020877
 30
0.0
 11
14.38752738295483
 21
73.11499567020826
 31
0.0
  0
LINE
  5
14B5
330
1F
100
AcDbEntity
  8
外枠
100
AcDbLine
 10
19.02019440190494
 20
69.57499567020835
 30
0.0
 11
19.02019440190494
 21
71.57499567020835
 31
0.0
  0
LINE
  5
14B6
330
1F
100
AcDbEntity
  8
外枠
100
AcDbLine
 10
21.02019440190494
 20
71.57499567020835
 30
0.0
 11
21.02019440190494
 21
69.57499567020835
 31
0.0
  0
LINE
  5
14B7
330
1F
100
AcDbEntity
  8
外枠
100
AcDbLine
 10
22.29339772972932
 20
67.53292496898388
 30
0.0
 11
22.29339772972929
 21
76.95292496898395
 31
0.0
  0
LINE
  5
14B8
330
1F
100
AcDbEntity
  8
外枠
100
AcDbLine
 10
11.61564714880174
 20
67.01964550214649
 30
0.0
 11
11.61564714880171
 21
84.51964550214649
 31
0.0
  0
LINE
  5
14B9
330
1F
100
AcDbEntity
  8
外枠
100
AcDbLine
 10
12.29339772972932
 20
67.80499567020877
 30
0.0
 11
12.29339772972929
 21
84.54499567020855
 31
0.0
  0
LINE
  5
14BA
330
1F
100
AcDbEntity
  8
外枠
100
AcDbLine
 10
21.29339772972932
 20
69.30499567020882
 30
0.0
 11
21.29339772972929
 21
84.5449956702086
 31
0.0
  0
LINE
  5
14BB
330
1F
100
AcDbEntity
  8
外枠
  6
CONTINUOUS
100
AcDbLine
 10
11.6156471488017
 20
85.11964550214543
 30
0.0
 11
11.61564714880174
 21
67.01964550214649
 31
0.0
  0
LINE
  5
14BC
330
1F
100
AcDbEntity
  8
0
100
AcDbLine
 10
15.01564714880214
 20
55.16964550214689
 30
0.0
 11
20.01564714880214
 21
55.16964550214689
 31
0.0
  0
LINE
  5
14BD
330
1F
100
AcDbEntity
  8
外枠
100
AcDbLine
 10
15.33184595378267
 20
69.89706637143251
 30
0.0
 11
18.33184595378267
 21
69.89706637143257
 31
0.0
  0
LINE
  5
14BE
330
1F
100
AcDbEntity
  8
外枠
100
AcDbLine
 10
16.89738289580643
 20
70.37459265371302
 30
0.0
 11
18.33184595378267
 21
70.37459265371302
 31
0.0
  0
LINE
  5
14BF
330
1F
100
AcDbEntity
  8
外枠
100
AcDbLine
 10
16.89738289580643
 20
70.77539868670368
 30
0.0
 11
18.33184595378267
 21
70.77539868670368
 31
0.0
  0
LINE
  5
14C0
330
1F
100
AcDbEntity
  8
外枠
100
AcDbLine
 10
15.33184595378267
 20
71.1970663714327
 30
0.0
 11
18.33184595378267
 21
71.19706637143275
 31
0.0
  0
LINE
  5
14C1
330
1F
100
AcDbEntity
  8
外枠
100
AcDbLine
 10
11.61564714880174
 20
67.01964550214649
 30
0.0
 11
23.21564714880176
 21
67.01964550214654
 31
0.0
  0
LINE
  5
14C2
330
1F
100
AcDbEntity
  8
外枠
100
AcDbLine
 10
12.29339772972932
 20
67.80499567020877
 30
0.0
 11
22.29339772972932
 21
67.80499567020882
 31
0.0
  0
LINE
  5
14C3
330
1F
100
AcDbEntity
  8
外枠
100
AcDbLine
 10
22.29339772972932
 20
69.30499567020882
 30
0.0
 11
12.29339772972932
 21
69.30499567020877
 31
0.0
  0
LINE
  5
14C4
330
1F
100
AcDbEntity
  8
外枠
100
AcDbLine
 10
12.29339772972932
 20
69.30499567020877
 30
0.0
 11
22.29339772972932
 21
69.30499567020882
 31
0.0
  0
ARC
  5
14C5
330
1F
100
AcDbEntity
  8
0
  6
CONTINUOUS
100
AcDbCircle
 10
17.51564714880214
 20
55.16964550214689
 30
0.0
 40
2.5
100
AcDbArc
 50
0.0
 51
180.0
  0
LINE
  5
14C6
330
1F
100
AcDbEntity
  8
0
  6
CONTINUOUS
100
AcDbLine
 10
6.115647148802509
 20
63.01964550214728
 30
0.0
 11
28.91564714880269
 21
63.01964550214734
 31
0.0
  0
ARC
  5
14C7
330
1F
100
AcDbEntity
  8
0
  6
CONTINUOUS
100
AcDbCircle
 10
17.51564714881532
 20
-4286.152909497851
 30
0.0
 40
4346.596707999999
100
AcDbArc
 50
89.82221899996595
 51
90.17778099998229
  0
ARC
  5
14C8
330
1F
100
AcDbEntity
  8
0
  6
CONTINUOUS
100
AcDbCircle
 10
17.51564714881535
 20
-4298.239802497851
 30
0.0
 40
4358.569174999999
100
AcDbArc
 50
89.87475900001644
 51
90.12524099998397
  0
LINE
  5
14C9
330
1F
100
AcDbEntity
  8
0
  6
CONTINUOUS
100
AcDbLine
 10
27.83996914880253
 20
59.91990750214748
 30
0.0
 11
7.19132614880209
 21
59.91990750214739
 31
0.0
  0
LINE
  5
14CA
330
1F
100
AcDbEntity
  8
0
  6
CONTINUOUS
100
AcDbLine
 10
6.015647148802145
 20
62.91964550214692
 30
0.0
 11
29.01564714880214
 21
62.91964550214697
 31
0.0
  0
LINE
  5
14CB
330
1F
100
AcDbEntity
  8
0
  6
CONTINUOUS
100
AcDbLine
 10
2.015648148802512
 20
53.41964550214692
 30
0.0
 11
2.015648148802483
 21
59.91964550214692
 31
0.0
  0
LINE
  5
14CC
330
1F
100
AcDbEntity
  8
0
  6
CONTINUOUS
100
AcDbLine
 10
3.515648148802512
 20
51.91964550214692
 30
0.0
 11
13.51564714880217
 21
51.91964550214695
 31
0.0
  0
ARC
  5
14CD
330
1F
100
AcDbEntity
  8
0
  6
CONTINUOUS
100
AcDbCircle
 10
3.515648148802476
 20
53.41964550214689
 30
0.0
 40
1.5
100
AcDbArc
 50
180.0
 51
270.0000000000002
  0
LINE
  5
14CE
330
1F
100
AcDbEntity
  8
0
100
AcDbLine
 10
17.51564714880214
 20
52.66964550214689
 30
0.0
 11
17.51564714880214
 21
57.66964550214689
 31
0.0
  0
ARC
  5
14CF
330
1F
100
AcDbEntity
  8
0
  6
CONTINUOUS
100
AcDbCircle
 10
13.51564714880214
 20
53.41964550214687
 30
0.0
 40
1.5
100
AcDbArc
 50
270.0000000000002
 51
0.0
  0
LINE
  5
14D0
330
1F
100
AcDbEntity
  8
0
  6
CONTINUOUS
100
AcDbLine
 10
15.01564714880217
 20
55.16964550214694
 30
0.0
 11
15.01564714880217
 21
53.41964550214695
 31
0.0
  0
ARC
  5
14D1
330
1F
100
AcDbEntity
  8
0
  6
CONTINUOUS
100
AcDbCircle
 10
7.990616148801986
 20
59.31896250214717
 30
0.0
 40
1.0
100
AcDbArc
 50
90.12524099998397
 51
146.0463030000105
  0
LINE
  5
14D2
330
1F
100
AcDbEntity
  8
0
  6
CONTINUOUS
100
AcDbLine
 10
2.015647148802145
 20
63.89806950214683
 30
0.0
 11
2.947059148802026
 21
65.30424050214737
 31
0.0
  0
ARC
  5
14D3
330
1F
100
AcDbEntity
  8
0
  6
CONTINUOUS
100
AcDbCircle
 10
1.000000148801913
 20
64.8980695021468
 30
0.0
 40
1.0
100
AcDbArc
 50
180.0
 51
270.0000000000002
  0
ARC
  5
14D4
330
1F
100
AcDbEntity
  8
0
  6
CONTINUOUS
100
AcDbCircle
 10
3.015647148802113
 20
59.91964550214689
 30
0.0
 40
1.0
100
AcDbArc
 50
180.0
 51
270.0000000000002
  0
LINE
  5
14D5
330
1F
100
AcDbEntity
  8
0
  6
CONTINUOUS
100
AcDbLine
 10
2.015647148802145
 20
63.89806950214683
 30
0.0
 11
1.000000148801973
 21
63.89806950214683
 31
0.0
  0
LINE
  5
14D6
330
1F
100
AcDbEntity
  8
0
  6
CONTINUOUS
100
AcDbLine
 10
2.015647148802145
 20
59.91964550214692
 30
0.0
 11
2.015647148802145
 21
63.89806950214683
 31
0.0
  0
ARC
  5
14D7
330
1F
100
AcDbEntity
  8
0
  6
CONTINUOUS
100
AcDbCircle
 10
6.115647148802448
 20
64.0196455021472
 30
0.0
 40
1.0
100
AcDbArc
 50
180.0
 51
270.0000000000002
  0
ARC
  5
14D8
330
1F
100
AcDbEntity
  8
0
  6
CONTINUOUS
100
AcDbCircle
 10
6.015647148802113
 20
63.91964550214684
 30
0.0
 40
1.0
100
AcDbArc
 50
180.0
 51
270.0000000000002
  0
LINE
  5
14D9
330
1F
100
AcDbEntity
  8
0
  6
CONTINUOUS
100
AcDbLine
 10
6.516181148801933
 20
58.91964550214692
 30
0.0
 11
7.16112614880194
 21
59.87748450214752
 31
0.0
  0
ARC
  5
14DA
330
1F
100
AcDbEntity
  8
0
  6
CONTINUOUS
100
AcDbCircle
 10
4.025647148802331
 20
61.42286950214693
 30
0.0
 40
1.0
100
AcDbArc
 50
180.0
 51
270.1777809999823
  0
LINE
  5
14DB
330
1F
100
AcDbEntity
  8
0
  6
CONTINUOUS
100
AcDbLine
 10
3.015647148802145
 20
58.91964550214692
 30
0.0
 11
6.516181148801933
 21
58.91964550214692
 31
0.0
  0
LINE
  5
14DC
330
1F
100
AcDbEntity
  8
0
  6
CONTINUOUS
100
AcDbLine
 10
1.946822148802738
 20
65.30424050214737
 30
0.0
 11
2.947059148802026
 21
65.30424050214737
 31
0.0
  0
ARC
  5
14DD
330
1F
100
AcDbEntity
  8
0
  6
CONTINUOUS
100
AcDbCircle
 10
1.946822148802706
 20
66.30424050214734
 30
0.0
 40
1.0
100
AcDbArc
 50
180.0
 51
270.0000000000002
  0
LINE
  5
14DE
330
1F
100
AcDbEntity
  8
外枠
100
AcDbLine
 10
15.33184595378267
 20
71.1970663714327
 30
0.0
 11
15.33184595378267
 21
69.89706637143251
 31
0.0
  0
LINE
  5
14DF
330
1F
100
AcDbEntity
  8
外枠
100
AcDbLine
 10
15.55939775701924
 20
70.37459265371296
 30
0.0
 11
15.55939775701924
 21
70.77539868670362
 31
0.0
  0
ARC
  5
14E0
330
1F
100
AcDbEntity
  8
外枠
100
AcDbCircle
 10
16.33613428779102
 20
70.74959265371299
 30
0.0
 40
0.6750000000000079
100
AcDbArc
 50
213.7489885958995
 51
326.2510114041005
  0
ARC
  5
14E1
330
1F
100
AcDbEntity
  8
外枠
100
AcDbCircle
 10
16.33613428779102
 20
70.74959265371299
 30
0.0
 40
0.5624999999999976
100
AcDbArc
 50
221.8103148957975
 51
318.1896851042012
  0
LINE
  5
14E2
330
1F
100
AcDbEntity
  8
外枠
100
AcDbLine
 10
15.55939775701924
 20
70.37459265371296
 30
0.0
 11
15.9168715420096
 21
70.37459265371302
 31
0.0
  0
ARC
  5
14E3
330
1F
100
AcDbEntity
  8
外枠
100
AcDbCircle
 10
16.33613428779102
 20
70.40039868670366
 30
0.0
 40
0.6750000000000079
100
AcDbArc
 50
33.74898859589961
 51
146.2510114041005
  0
ARC
  5
14E4
330
1F
100
AcDbEntity
  8
外枠
100
AcDbCircle
 10
16.33613428779102
 20
70.40039868670366
 30
0.0
 40
0.5624999999999976
100
AcDbArc
 50
41.81031489579758
 51
138.1896851042011
  0
LINE
  5
14E5
330
1F
100
AcDbEntity
  8
外枠
100
AcDbLine
 10
15.55939775701924
 20
70.77539868670362
 30
0.0
 11
15.9168715420096
 21
70.77539868670368
 31
0.0
  0
LINE
  5
14E6
330
1F
100
AcDbEntity
  8
0
  6
CONTINUOUS
100
AcDbLine
 10
33.01564614880274
 20
53.41964550214701
 30
0.0
 11
33.01564614880271
 21
59.919645502147
 31
0.0
  0
LINE
  5
14E7
330
1F
100
AcDbEntity
  8
0
  6
CONTINUOUS
100
AcDbLine
 10
21.51564714880217
 20
51.91964550214698
 30
0.0
 11
31.51564614880274
 21
51.919645502147
 31
0.0
  0
ARC
  5
14E8
330
1F
100
AcDbEntity
  8
0
  6
CONTINUOUS
100
AcDbCircle
 10
21.51564714880213
 20
53.41964550214689
 30
0.0
 40
1.5
100
AcDbArc
 50
180.0
 51
270.0000000000002
  0
LINE
  5
14E9
330
1F
100
AcDbEntity
  8
0
  6
CONTINUOUS
100
AcDbLine
 10
20.01564714880217
 20
55.16964550214698
 30
0.0
 11
20.01564714880217
 21
53.41964550214697
 31
0.0
  0
ARC
  5
14EA
330
1F
100
AcDbEntity
  8
0
  6
CONTINUOUS
100
AcDbCircle
 10
31.51564614880271
 20
53.41964550214695
 30
0.0
 40
1.5
100
AcDbArc
 50
270.0000000000002
 51
0.0
  0
LINE
  5
14EB
330
1F
100
AcDbEntity
  8
0
  6
CONTINUOUS
100
AcDbLine
 10
28.51511314880236
 20
58.91964550214701
 30
0.0
 11
27.87016814880235
 21
59.87748450214761
 31
0.0
  0
ARC
  5
14EC
330
1F
100
AcDbEntity
  8
0
  6
CONTINUOUS
100
AcDbCircle
 10
27.04067914880257
 20
59.31896250214726
 30
0.0
 40
1.0
100
AcDbArc
 50
33.95369699998953
 51
89.87475900001644
  0
LINE
  5
14ED
330
1F
100
AcDbEntity
  8
外枠
100
AcDbLine
 10
20.70457407503315
 20
71.24860633574002
 30
0.0
 11
20.70457407503315
 21
69.89198792740802
 31
0.0
  0
LINE
  5
14EE
330
1F
100
AcDbEntity
  8
外枠
100
AcDbLine
 10
19.30803720236914
 20
69.89198792740802
 30
0.0
 11
19.30803720236914
 21
71.24860633574002
 31
0.0
  0
LINE
  5
14EF
330
1F
100
AcDbEntity
  8
外枠
100
AcDbLine
 10
18.33184595378267
 20
69.89706637143257
 30
0.0
 11
18.33184595378267
 21
71.19706637143275
 31
0.0
  0
LINE
  5
14F0
330
1F
100
AcDbEntity
  8
外枠
100
AcDbLine
 10
18.33184595378267
 20
70.19999567020835
 30
0.0
 11
18.33184595378267
 21
70.94999567020835
 31
0.0
  0
LINE
  5
14F1
330
1F
100
AcDbEntity
  8
外枠
100
AcDbLine
 10
20.70457407503315
 20
69.89198792740802
 30
0.0
 11
19.30803720236914
 21
69.89198792740802
 31
0.0
  0
LINE
  5
14F2
330
1F
100
AcDbEntity
  8
外枠
100
AcDbLine
 10
21.02019440190494
 20
69.57499567020835
 30
0.0
 11
19.02019440190494
 21
69.57499567020835
 31
0.0
  0
LINE
  5
14F3
330
1F
100
AcDbEntity
  8
外枠
100
AcDbLine
 10
19.30803720236914
 20
71.24860633574002
 30
0.0
 11
20.70457407503315
 21
71.24860633574002
 31
0.0
  0
LINE
  5
14F4
330
1F
100
AcDbEntity
  8
0
  6
CONTINUOUS
100
AcDbLine
 10
33.01564814880248
 20
63.89806850214751
 30
0.0
 11
32.0842351488022
 21
65.30424050214747
 31
0.0
  0
ARC
  5
14F5
330
1F
100
AcDbEntity
  8
0
  6
CONTINUOUS
100
AcDbCircle
 10
34.03129414880226
 20
64.89806950214685
 30
0.0
 40
1.0
100
AcDbArc
 50
270.0000000000002
 51
0.0
  0
LINE
  5
14F6
330
1F
100
AcDbEntity
  8
0
  6
CONTINUOUS
100
AcDbLine
 10
33.01564714880214
 20
63.89806950214694
 30
0.0
 11
34.03129414880231
 21
63.89806950214694
 31
0.0
  0
ARC
  5
14F7
330
1F
100
AcDbEntity
  8
0
  6
CONTINUOUS
100
AcDbCircle
 10
32.01564714880211
 20
59.91964550214695
 30
0.0
 40
1.0
100
AcDbArc
 50
270.0000000000002
 51
0.0
  0
LINE
  5
14F8
330
1F
100
AcDbEntity
  8
0
  6
CONTINUOUS
100
AcDbLine
 10
33.01564714880214
 20
59.919645502147
 30
0.0
 11
33.01564714880214
 21
63.89806950214694
 31
0.0
  0
ARC
  5
14F9
330
1F
100
AcDbEntity
  8
0
  6
CONTINUOUS
100
AcDbCircle
 10
28.91564714880263
 20
64.01964550214728
 30
0.0
 40
1.0
100
AcDbArc
 50
270.0000000000002
 51
0.0
  0
ARC
  5
14FA
330
1F
100
AcDbEntity
  8
0
  6
CONTINUOUS
100
AcDbCircle
 10
29.01564714880211
 20
63.91964550214692
 30
0.0
 40
1.0
100
AcDbArc
 50
270.0000000000002
 51
0.0
  0
ARC
  5
14FB
330
1F
100
AcDbEntity
  8
0
  6
CONTINUOUS
100
AcDbCircle
 10
31.0056471488028
 20
61.42286950214696
 30
0.0
 40
1.0
100
AcDbArc
 50
269.8222190000181
 51
0.0
  0
LINE
  5
14FC
330
1F
100
AcDbEntity
  8
0
  6
CONTINUOUS
100
AcDbLine
 10
28.51511314880236
 20
58.91964550214701
 30
0.0
 11
32.01564714880214
 21
58.91964550214701
 31
0.0
  0
LINE
  5
14FD
330
1F
100
AcDbEntity
  8
0
  6
CONTINUOUS
100
AcDbLine
 10
33.0844721488024
 20
65.30424050214747
 30
0.0
 11
32.0842351488022
 21
65.30424050214747
 31
0.0
  0
ARC
  5
14FE
330
1F
100
AcDbEntity
  8
0
  6
CONTINUOUS
100
AcDbCircle
 10
33.08447214880237
 20
66.30424050214739
 30
0.0
 40
1.0
100
AcDbArc
 50
270.0000000000002
 51
0.0
  0
LINE
  5
14FF
330
1F
100
AcDbEntity
  8
外枠
100
AcDbLine
 10
17.29339772972926
 20
96.24497482593136
 30
0.0
 11
22.29339772972926
 21
96.24497482593136
 31
0.0
  0
LINE
  5
1500
330
1F
100
AcDbEntity
  8
外枠
100
AcDbLine
 10
16.09339772972856
 20
94.99497482593136
 30
0.0
 11
17.59339772972856
 21
94.99497482593136
 31
0.0
  0
LINE
  5
1501
330
1F
100
AcDbEntity
  8
外枠
100
AcDbLine
 10
21.79339772972926
 20
95.39497482593191
 30
0.0
 11
14.84339772972853
 21
95.39497482593185
 31
0.0
  0
LINE
  5
1502
330
1F
100
AcDbEntity
  8
外枠
100
AcDbLine
 10
15.33184595378264
 20
80.05706637143328
 30
0.0
 11
18.33184595378264
 21
80.05706637143333
 31
0.0
  0
LINE
  5
1503
330
1F
100
AcDbEntity
  8
外枠
100
AcDbLine
 10
16.8973828958064
 20
80.53459265371287
 30
0.0
 11
18.33184595378264
 21
80.53459265371287
 31
0.0
  0
LINE
  5
1504
330
1F
100
AcDbEntity
  8
外枠
100
AcDbLine
 10
15.33184595378264
 20
81.35706637143256
 30
0.0
 11
18.33184595378264
 21
81.35706637143261
 31
0.0
  0
LINE
  5
1505
330
1F
100
AcDbEntity
  8
外枠
100
AcDbLine
 10
16.8973828958064
 20
80.93539868670445
 30
0.0
 11
18.33184595378264
 21
80.93539868670445
 31
0.0
  0
LINE
  5
1506
330
1F
100
AcDbEntity
  8
外枠
100
AcDbLine
 10
16.8973828958064
 20
83.07459265371283
 30
0.0
 11
18.33184595378264
 21
83.07459265371283
 31
0.0
  0
LINE
  5
1507
330
1F
100
AcDbEntity
  8
外枠
100
AcDbLine
 10
16.8973828958064
 20
83.47539868670441
 30
0.0
 11
18.33184595378264
 21
83.47539868670441
 31
0.0
  0
LINE
  5
1508
330
1F
100
AcDbEntity
  8
外枠
100
AcDbLine
 10
15.33184595378264
 20
82.59706637143324
 30
0.0
 11
18.33184595378264
 21
82.59706637143329
 31
0.0
  0
LINE
  5
1509
330
1F
100
AcDbEntity
  8
外枠
100
AcDbLine
 10
15.33184595378264
 20
83.89706637143342
 30
0.0
 11
18.33184595378264
 21
83.89706637143348
 31
0.0
  0
LINE
  5
150A
330
1F
100
AcDbEntity
  8
外枠
100
AcDbLine
 10
21.09339772972856
 20
85.79497482593245
 30
0.0
 11
16.09339772972856
 21
85.79497482593245
 31
0.0
  0
LINE
  5
150B
330
1F
100
AcDbEntity
  8
外枠
100
AcDbLine
 10
22.29339772972929
 20
79.46499567020868
 30
0.0
 11
12.29339772972929
 21
79.46499567020862
 31
0.0
  0
LINE
  5
150C
330
1F
100
AcDbEntity
  8
外枠
100
AcDbLine
 10
12.29339772972929
 20
79.46499567020862
 30
0.0
 11
22.29339772972929
 21
79.46499567020868
 31
0.0
  0
LINE
  5
150D
330
1F
100
AcDbEntity
  8
外枠
100
AcDbLine
 10
22.29339772972929
 20
79.46499567020868
 30
0.0
 11
12.29339772972929
 21
79.46499567020862
 31
0.0
  0
LINE
  5
150E
330
1F
100
AcDbEntity
  8
外枠
100
AcDbLine
 10
12.29339772972929
 20
79.46499567020862
 30
0.0
 11
22.29339772972929
 21
79.46499567020868
 31
0.0
  0
LINE
  5
150F
330
1F
100
AcDbEntity
  8
外枠
100
AcDbLine
 10
12.29339772972929
 20
84.54499567020855
 30
0.0
 11
22.29339772972929
 21
84.5449956702086
 31
0.0
  0
LINE
  5
1510
330
1F
100
AcDbEntity
  8
外枠
100
AcDbLine
 10
22.29339772972929
 20
84.5449956702086
 30
0.0
 11
12.29339772972929
 21
84.54499567020855
 31
0.0
  0
LINE
  5
1511
330
1F
100
AcDbEntity
  8
外枠
100
AcDbLine
 10
12.29339772972929
 20
82.00499567020859
 30
0.0
 11
22.29339772972929
 21
82.00499567020864
 31
0.0
  0
LINE
  5
1512
330
1F
100
AcDbEntity
  8
外枠
100
AcDbLine
 10
22.29339772972929
 20
82.00499567020864
 30
0.0
 11
12.29339772972929
 21
82.00499567020859
 31
0.0
  0
LINE
  5
1513
330
1F
100
AcDbEntity
  8
外枠
100
AcDbLine
 10
22.29339772972929
 20
82.00499567020864
 30
0.0
 11
12.29339772972929
 21
82.00499567020859
 31
0.0
  0
LINE
  5
1514
330
1F
100
AcDbEntity
  8
外枠
100
AcDbLine
 10
12.29339772972929
 20
82.00499567020859
 30
0.0
 11
22.29339772972929
 21
82.00499567020864
 31
0.0
  0
LINE
  5
1515
330
1F
100
AcDbEntity
  8
外枠
100
AcDbLine
 10
14.84339772972856
 20
85.39497482593185
 30
0.0
 11
21.79339772972929
 21
85.39497482593191
 31
0.0
  0
LINE
  5
1516
330
1F
100
AcDbEntity
  8
外枠
100
AcDbLine
 10
16.8973828958064
 20
73.31539868670365
 30
0.0
 11
18.33184595378264
 21
73.31539868670365
 31
0.0
  0
LINE
  5
1517
330
1F
100
AcDbEntity
  8
外枠
100
AcDbLine
 10
16.8973828958064
 20
72.91459265371298
 30
0.0
 11
18.33184595378264
 21
72.91459265371298
 31
0.0
  0
LINE
  5
1518
330
1F
100
AcDbEntity
  8
外枠
100
AcDbLine
 10
16.8973828958064
 20
75.85539868670361
 30
0.0
 11
18.33184595378264
 21
75.85539868670361
 31
0.0
  0
LINE
  5
1519
330
1F
100
AcDbEntity
  8
外枠
100
AcDbLine
 10
15.33184595378264
 20
76.27706637143262
 30
0.0
 11
18.33184595378264
 21
76.27706637143268
 31
0.0
  0
LINE
  5
151A
330
1F
100
AcDbEntity
  8
外枠
100
AcDbLine
 10
16.8973828958064
 20
75.45459265371295
 30
0.0
 11
18.33184595378264
 21
75.45459265371295
 31
0.0
  0
LINE
  5
151B
330
1F
100
AcDbEntity
  8
外枠
100
AcDbLine
 10
15.33184595378264
 20
74.97706637143244
 30
0.0
 11
18.33184595378264
 21
74.9770663714325
 31
0.0
  0
LINE
  5
151C
330
1F
100
AcDbEntity
  8
外枠
100
AcDbLine
 10
15.33184595378264
 20
73.73706637143266
 30
0.0
 11
18.33184595378264
 21
73.73706637143271
 31
0.0
  0
LINE
  5
151D
330
1F
100
AcDbEntity
  8
外枠
100
AcDbLine
 10
15.33184595378264
 20
77.5170663714324
 30
0.0
 11
18.33184595378264
 21
77.51706637143247
 31
0.0
  0
LINE
  5
151E
330
1F
100
AcDbEntity
  8
外枠
100
AcDbLine
 10
15.33184595378264
 20
78.81706637143259
 30
0.0
 11
18.33184595378264
 21
78.81706637143264
 31
0.0
  0
LINE
  5
151F
330
1F
100
AcDbEntity
  8
外枠
100
AcDbLine
 10
16.8973828958064
 20
78.39539868670357
 30
0.0
 11
18.33184595378264
 21
78.39539868670357
 31
0.0
  0
LINE
  5
1520
330
1F
100
AcDbEntity
  8
外枠
100
AcDbLine
 10
16.8973828958064
 20
77.99459265371291
 30
0.0
 11
18.33184595378264
 21
77.99459265371291
 31
0.0
  0
LINE
  5
1521
330
1F
100
AcDbEntity
  8
外枠
100
AcDbLine
 10
15.33184595378264
 20
72.43706637143247
 30
0.0
 11
18.33184595378264
 21
72.43706637143254
 31
0.0
  0
LINE
  5
1522
330
1F
100
AcDbEntity
  8
外枠
100
AcDbLine
 10
12.29339772972929
 20
71.84499567020782
 30
0.0
 11
22.29339772972929
 21
71.84499567020788
 31
0.0
  0
LINE
  5
1523
330
1F
100
AcDbEntity
  8
外枠
100
AcDbLine
 10
22.29339772972929
 20
71.84499567020788
 30
0.0
 11
12.29339772972929
 21
71.84499567020782
 31
0.0
  0
LINE
  5
1524
330
1F
100
AcDbEntity
  8
外枠
100
AcDbLine
 10
12.29339772972929
 20
76.92499567020957
 30
0.0
 11
22.29339772972929
 21
76.92499567020963
 31
0.0
  0
LINE
  5
1525
330
1F
100
AcDbEntity
  8
外枠
100
AcDbLine
 10
22.29339772972929
 20
76.92499567020963
 30
0.0
 11
12.29339772972929
 21
76.92499567020957
 31
0.0
  0
LINE
  5
1526
330
1F
100
AcDbEntity
  8
外枠
100
AcDbLine
 10
22.29339772972929
 20
76.92499567020871
 30
0.0
 11
12.29339772972929
 21
76.92499567020866
 31
0.0
  0
LINE
  5
1527
330
1F
100
AcDbEntity
  8
外枠
100
AcDbLine
 10
12.29339772972929
 20
76.92499567020866
 30
0.0
 11
22.29339772972929
 21
76.92499567020871
 31
0.0
  0
LINE
  5
1528
330
1F
100
AcDbEntity
  8
外枠
100
AcDbLine
 10
12.29339772972929
 20
76.92499567020774
 30
0.0
 11
22.29339772972929
 21
76.92499567020781
 31
0.0
  0
LINE
  5
1529
330
1F
100
AcDbEntity
  8
外枠
100
AcDbLine
 10
22.29339772972929
 20
76.92499567020781
 30
0.0
 11
12.29339772972929
 21
76.92499567020774
 31
0.0
  0
LINE
  5
152A
330
1F
100
AcDbEntity
  8
外枠
100
AcDbLine
 10
12.29339772972929
 20
74.38499567020869
 30
0.0
 11
22.29339772972929
 21
74.38499567020875
 31
0.0
  0
LINE
  5
152B
330
1F
100
AcDbEntity
  8
外枠
100
AcDbLine
 10
22.29339772972929
 20
74.38499567020875
 30
0.0
 11
12.29339772972929
 21
74.38499567020869
 31
0.0
  0
LINE
  5
152C
330
1F
100
AcDbEntity
  8
外枠
100
AcDbLine
 10
22.29339772972929
 20
76.92499567020871
 30
0.0
 11
12.29339772972929
 21
76.92499567020866
 31
0.0
  0
LINE
  5
152D
330
1F
100
AcDbEntity
  8
外枠
100
AcDbLine
 10
12.29339772972929
 20
76.92499567020866
 30
0.0
 11
22.29339772972929
 21
76.92499567020871
 31
0.0
  0
LINE
  5
152E
330
1F
100
AcDbEntity
  8
外枠
100
AcDbLine
 10
15.33184595378264
 20
78.81706637143259
 30
0.0
 11
15.33184595378264
 21
77.5170663714324
 31
0.0
  0
LINE
  5
152F
330
1F
100
AcDbEntity
  8
外枠
100
AcDbLine
 10
15.55939775701921
 20
77.99459265371286
 30
0.0
 11
15.55939775701921
 21
78.39539868670351
 31
0.0
  0
LINE
  5
1530
330
1F
100
AcDbEntity
  8
外枠
100
AcDbLine
 10
14.38752738295483
 20
73.11499567020826
 30
0.0
 11
14.38752738295483
 21
84.54499567020855
 31
0.0
  0
LINE
  5
1531
330
1F
100
AcDbEntity
  8
外枠
100
AcDbLine
 10
12.29339772972929
 20
76.92499567020866
 30
0.0
 11
13.79339772972929
 21
76.92499567020866
 31
0.0
  0
LINE
  5
1532
330
1F
100
AcDbEntity
  8
外枠
100
AcDbLine
 10
13.79339772972929
 20
76.92499567020866
 30
0.0
 11
12.29339772972929
 21
76.92499567020866
 31
0.0
  0
LINE
  5
1533
330
1F
100
AcDbEntity
  8
外枠
100
AcDbLine
 10
13.79339772972929
 20
76.92499567020774
 30
0.0
 11
12.29339772972929
 21
76.92499567020774
 31
0.0
  0
LINE
  5
1534
330
1F
100
AcDbEntity
  8
外枠
100
AcDbLine
 10
12.29339772972929
 20
76.92499567020774
 30
0.0
 11
13.79339772972929
 21
76.92499567020774
 31
0.0
  0
ARC
  5
1535
330
1F
100
AcDbEntity
  8
外枠
100
AcDbCircle
 10
16.33613428779099
 20
78.36959265371288
 30
0.0
 40
0.6750000000000079
100
AcDbArc
 50
213.7489885958995
 51
326.2510114041005
  0
LINE
  5
1536
330
1F
100
AcDbEntity
  8
外枠
100
AcDbLine
 10
15.55939775701921
 20
72.91459265371293
 30
0.0
 11
15.55939775701921
 21
73.31539868670359
 31
0.0
  0
ARC
  5
1537
330
1F
100
AcDbEntity
  8
外枠
100
AcDbCircle
 10
16.33613428779099
 20
72.94039868670362
 30
0.0
 40
0.5624999999999976
100
AcDbArc
 50
41.81031489579758
 51
138.1896851042011
  0
ARC
  5
1538
330
1F
100
AcDbEntity
  8
外枠
100
AcDbCircle
 10
16.33613428779099
 20
72.94039868670362
 30
0.0
 40
0.6750000000000079
100
AcDbArc
 50
33.74898859589961
 51
146.2510114041005
  0
LINE
  5
1539
330
1F
100
AcDbEntity
  8
外枠
100
AcDbLine
 10
15.55939775701921
 20
73.31539868670359
 30
0.0
 11
15.91687154200957
 21
73.31539868670365
 31
0.0
  0
LINE
  5
153A
330
1F
100
AcDbEntity
  8
外枠
100
AcDbLine
 10
15.55939775701921
 20
72.91459265371293
 30
0.0
 11
15.91687154200957
 21
72.91459265371298
 31
0.0
  0
ARC
  5
153B
330
1F
100
AcDbEntity
  8
外枠
100
AcDbCircle
 10
16.33613428779099
 20
73.28959265371295
 30
0.0
 40
0.6750000000000079
100
AcDbArc
 50
213.7489885958995
 51
326.2510114041005
  0
ARC
  5
153C
330
1F
100
AcDbEntity
  8
外枠
100
AcDbCircle
 10
16.33613428779099
 20
73.28959265371295
 30
0.0
 40
0.5624999999999976
100
AcDbArc
 50
221.8103148957975
 51
318.1896851042012
  0
LINE
  5
153D
330
1F
100
AcDbEntity
  8
外枠
100
AcDbLine
 10
15.55939775701921
 20
75.85539868670355
 30
0.0
 11
15.91687154200957
 21
75.85539868670361
 31
0.0
  0
ARC
  5
153E
330
1F
100
AcDbEntity
  8
外枠
100
AcDbCircle
 10
16.33613428779099
 20
75.48039868670358
 30
0.0
 40
0.6750000000000079
100
AcDbArc
 50
33.74898859589961
 51
146.2510114041005
  0
ARC
  5
153F
330
1F
100
AcDbEntity
  8
外枠
100
AcDbCircle
 10
16.33613428779099
 20
75.48039868670358
 30
0.0
 40
0.5624999999999976
100
AcDbArc
 50
41.81031489579758
 51
138.1896851042011
  0
ARC
  5
1540
330
1F
100
AcDbEntity
  8
外枠
100
AcDbCircle
 10
16.33613428779099
 20
75.82959265371292
 30
0.0
 40
0.6750000000000079
100
AcDbArc
 50
213.7489885958995
 51
326.2510114041005
  0
ARC
  5
1541
330
1F
100
AcDbEntity
  8
外枠
100
AcDbCircle
 10
16.33613428779099
 20
75.82959265371292
 30
0.0
 40
0.5624999999999976
100
AcDbArc
 50
221.8103148957975
 51
318.1896851042012
  0
LINE
  5
1542
330
1F
100
AcDbEntity
  8
外枠
100
AcDbLine
 10
15.55939775701921
 20
75.45459265371289
 30
0.0
 11
15.91687154200957
 21
75.45459265371295
 31
0.0
  0
LINE
  5
1543
330
1F
100
AcDbEntity
  8
外枠
100
AcDbLine
 10
15.55939775701921
 20
75.45459265371289
 30
0.0
 11
15.55939775701921
 21
75.85539868670355
 31
0.0
  0
LINE
  5
1544
330
1F
100
AcDbEntity
  8
外枠
100
AcDbLine
 10
15.33184595378264
 20
76.27706637143262
 30
0.0
 11
15.33184595378264
 21
74.97706637143244
 31
0.0
  0
ARC
  5
1545
330
1F
100
AcDbEntity
  8
外枠
100
AcDbCircle
 10
16.33613428779099
 20
78.36959265371288
 30
0.0
 40
0.5624999999999976
100
AcDbArc
 50
221.8103148957975
 51
318.1896851042012
  0
LINE
  5
1546
330
1F
100
AcDbEntity
  8
外枠
100
AcDbLine
 10
15.55939775701921
 20
77.99459265371286
 30
0.0
 11
15.91687154200957
 21
77.99459265371291
 31
0.0
  0
LINE
  5
1547
330
1F
100
AcDbEntity
  8
外枠
100
AcDbLine
 10
15.33184595378264
 20
73.73706637143266
 30
0.0
 11
15.33184595378264
 21
72.43706637143247
 31
0.0
  0
LINE
  5
1548
330
1F
100
AcDbEntity
  8
外枠
100
AcDbLine
 10
12.29339772972929
 20
79.46499567020862
 30
0.0
 11
13.79339772972929
 21
79.46499567020862
 31
0.0
  0
LINE
  5
1549
330
1F
100
AcDbEntity
  8
外枠
100
AcDbLine
 10
13.79339772972929
 20
79.46499567020862
 30
0.0
 11
12.29339772972929
 21
79.46499567020862
 31
0.0
  0
LINE
  5
154A
330
1F
100
AcDbEntity
  8
外枠
100
AcDbLine
 10
12.29339772972929
 20
82.00499567020859
 30
0.0
 11
13.79339772972929
 21
82.00499567020859
 31
0.0
  0
LINE
  5
154B
330
1F
100
AcDbEntity
  8
外枠
100
AcDbLine
 10
13.79339772972929
 20
82.00499567020859
 30
0.0
 11
12.29339772972929
 21
82.00499567020859
 31
0.0
  0
LINE
  5
154C
330
1F
100
AcDbEntity
  8
外枠
100
AcDbLine
 10
13.79339772972929
 20
84.54499567020855
 30
0.0
 11
12.29339772972929
 21
84.54499567020855
 31
0.0
  0
LINE
  5
154D
330
1F
100
AcDbEntity
  8
外枠
100
AcDbLine
 10
12.29339772972929
 20
84.54499567020855
 30
0.0
 11
13.79339772972929
 21
84.54499567020855
 31
0.0
  0
LINE
  5
154E
330
1F
100
AcDbEntity
  8
外枠
100
AcDbLine
 10
15.33184595378264
 20
81.35706637143256
 30
0.0
 11
15.33184595378264
 21
80.05706637143328
 31
0.0
  0
LINE
  5
154F
330
1F
100
AcDbEntity
  8
外枠
100
AcDbLine
 10
15.55939775701921
 20
80.53459265371282
 30
0.0
 11
15.55939775701921
 21
80.93539868670438
 31
0.0
  0
LINE
  5
1550
330
1F
100
AcDbEntity
  8
外枠
100
AcDbLine
 10
15.55939775701921
 20
80.53459265371282
 30
0.0
 11
15.91687154200957
 21
80.53459265371287
 31
0.0
  0
ARC
  5
1551
330
1F
100
AcDbEntity
  8
外枠
100
AcDbCircle
 10
16.33613428779102
 20
80.90959265371285
 30
0.0
 40
0.5624999999999976
100
AcDbArc
 50
221.8103148957975
 51
318.1896851042012
  0
ARC
  5
1552
330
1F
100
AcDbEntity
  8
外枠
100
AcDbCircle
 10
16.33613428779102
 20
80.90959265371285
 30
0.0
 40
0.6750000000000079
100
AcDbArc
 50
213.7489885958995
 51
326.2510114041005
  0
ARC
  5
1553
330
1F
100
AcDbEntity
  8
外枠
100
AcDbCircle
 10
16.33613428779099
 20
80.56039868670442
 30
0.0
 40
0.5624999999999976
100
AcDbArc
 50
41.81031489579758
 51
138.1896851042011
  0
ARC
  5
1554
330
1F
100
AcDbEntity
  8
外枠
100
AcDbCircle
 10
16.33613428779099
 20
80.56039868670442
 30
0.0
 40
0.6750000000000079
100
AcDbArc
 50
33.74898859589961
 51
146.2510114041005
  0
LINE
  5
1555
330
1F
100
AcDbEntity
  8
外枠
100
AcDbLine
 10
15.55939775701921
 20
80.93539868670438
 30
0.0
 11
15.91687154200957
 21
80.93539868670445
 31
0.0
  0
LINE
  5
1556
330
1F
100
AcDbEntity
  8
外枠
100
AcDbLine
 10
15.55939775701921
 20
83.07459265371278
 30
0.0
 11
15.55939775701921
 21
83.47539868670436
 31
0.0
  0
ARC
  5
1557
330
1F
100
AcDbEntity
  8
外枠
100
AcDbCircle
 10
16.33613428779102
 20
83.44959265371281
 30
0.0
 40
0.6750000000000079
100
AcDbArc
 50
213.7489885958995
 51
326.2510114041005
  0
ARC
  5
1558
330
1F
100
AcDbEntity
  8
外枠
100
AcDbCircle
 10
16.33613428779102
 20
83.44959265371281
 30
0.0
 40
0.5624999999999976
100
AcDbArc
 50
221.8103148957975
 51
318.1896851042012
  0
LINE
  5
1559
330
1F
100
AcDbEntity
  8
外枠
100
AcDbLine
 10
15.55939775701921
 20
83.07459265371278
 30
0.0
 11
15.91687154200957
 21
83.07459265371283
 31
0.0
  0
LINE
  5
155A
330
1F
100
AcDbEntity
  8
外枠
100
AcDbLine
 10
15.33184595378264
 20
83.89706637143342
 30
0.0
 11
15.33184595378264
 21
82.59706637143324
 31
0.0
  0
LINE
  5
155B
330
1F
100
AcDbEntity
  8
外枠
100
AcDbLine
 10
15.55939775701921
 20
83.47539868670436
 30
0.0
 11
15.91687154200957
 21
83.47539868670441
 31
0.0
  0
ARC
  5
155C
330
1F
100
AcDbEntity
  8
外枠
100
AcDbCircle
 10
16.33613428779102
 20
83.10039868670438
 30
0.0
 40
0.6750000000000079
100
AcDbArc
 50
33.74898859589961
 51
146.2510114041005
  0
ARC
  5
155D
330
1F
100
AcDbEntity
  8
外枠
100
AcDbCircle
 10
16.33613428779102
 20
83.10039868670438
 30
0.0
 40
0.5624999999999976
100
AcDbArc
 50
41.81031489579758
 51
138.1896851042011
  0
ARC
  5
155E
330
1F
100
AcDbEntity
  8
外枠
100
AcDbCircle
 10
16.33613428779099
 20
78.02039868670354
 30
0.0
 40
0.5624999999999976
100
AcDbArc
 50
41.81031489579758
 51
138.1896851042011
  0
ARC
  5
155F
330
1F
100
AcDbEntity
  8
外枠
100
AcDbCircle
 10
16.33613428779099
 20
78.02039868670354
 30
0.0
 40
0.6750000000000079
100
AcDbArc
 50
33.74898859589961
 51
146.2510114041005
  0
LINE
  5
1560
330
1F
100
AcDbEntity
  8
外枠
100
AcDbLine
 10
15.55939775701921
 20
78.39539868670351
 30
0.0
 11
15.91687154200957
 21
78.39539868670357
 31
0.0
  0
LINE
  5
1561
330
1F
100
AcDbEntity
  8
3_表示パネル
  6
CONTINUOUS
100
AcDbLine
 10
13.1156471488003
 20
85.11964550214543
 30
0.0
 11
13.11564714880036
 21
96.41964550214561
 31
0.0
  0
LINE
  5
1562
330
1F
100
AcDbEntity
  8
外枠
100
AcDbLine
 10
14.49339772972817
 20
88.29497482593239
 30
0.0
 11
14.4933977297282
 21
92.49497482593131
 31
0.0
  0
LINE
  5
1563
330
1F
100
AcDbEntity
  8
外枠
100
AcDbLine
 10
13.79339772972929
 20
93.09497482593167
 30
0.0
 11
13.79339772972926
 21
87.69497482593203
 31
0.0
  0
LINE
  5
1564
330
1F
100
AcDbEntity
  8
3_表示パネル
  6
CONTINUOUS
100
AcDbLine
 10
13.1156471488003
 20
85.11964550214543
 30
0.0
 11
11.61564714880036
 21
85.11964550214543
 31
0.0
  0
LINE
  5
1565
330
1F
100
AcDbEntity
  8
外枠
100
AcDbLine
 10
13.79339772972926
 20
87.69497482593203
 30
0.0
 11
14.84339772972853
 21
87.69497482593203
 31
0.0
  0
LINE
  5
1566
330
1F
100
AcDbEntity
  8
外枠
100
AcDbLine
 10
14.84339772972853
 20
87.69497482593203
 30
0.0
 11
14.84339772972856
 21
85.39497482593185
 31
0.0
  0
LINE
  5
1567
330
1F
100
AcDbEntity
  8
外枠
100
AcDbLine
 10
15.29339772972926
 20
88.19497482593204
 30
0.0
 11
15.49339772972817
 21
88.19497482593204
 31
0.0
  0
LINE
  5
1568
330
1F
100
AcDbEntity
  8
外枠
100
AcDbLine
 10
15.49339772972817
 20
88.19497482593204
 30
0.0
 11
15.49339772972817
 21
88.29497482593239
 31
0.0
  0
LINE
  5
1569
330
1F
100
AcDbEntity
  8
外枠
100
AcDbLine
 10
16.09339772972856
 20
85.79497482593245
 30
0.0
 11
16.09339772972856
 21
85.99497482593136
 31
0.0
  0
LINE
  5
156A
330
1F
100
AcDbEntity
  8
外枠
100
AcDbLine
 10
16.09339772972856
 20
85.99497482593136
 30
0.0
 11
15.29339772972929
 21
85.99497482593131
 31
0.0
  0
LINE
  5
156B
330
1F
100
AcDbEntity
  8
外枠
100
AcDbLine
 10
15.29339772972929
 20
85.99497482593131
 30
0.0
 11
15.29339772972926
 21
88.19497482593204
 31
0.0
  0
LINE
  5
156C
330
1F
100
AcDbEntity
  8
外枠
100
AcDbLine
 10
15.49339772972817
 20
88.29497482593239
 30
0.0
 11
14.49339772972817
 21
88.29497482593239
 31
0.0
  0
LINE
  5
156D
330
1F
100
AcDbEntity
  8
3_表示パネル
  6
CONTINUOUS
100
AcDbLine
 10
13.11564714880036
 20
96.41964550214561
 30
0.0
 11
16.61564714880036
 21
96.41964550214561
 31
0.0
  0
LINE
  5
156E
330
1F
100
AcDbEntity
  8
0
  6
CONTINUOUS
100
AcDbLine
 10
13.11564714880036
 20
96.41964550214561
 30
0.0
 11
16.61564714880326
 21
96.41964550214565
 31
0.0
  0
LINE
  5
156F
330
1F
100
AcDbEntity
  8
外枠
100
AcDbLine
 10
14.84339772972856
 20
93.09497482593167
 30
0.0
 11
13.79339772972929
 21
93.09497482593167
 31
0.0
  0
LINE
  5
1570
330
1F
100
AcDbEntity
  8
外枠
100
AcDbLine
 10
14.84339772972853
 20
95.39497482593185
 30
0.0
 11
14.84339772972856
 21
93.09497482593167
 31
0.0
  0
LINE
  5
1571
330
1F
100
AcDbEntity
  8
外枠
100
AcDbLine
 10
15.29339772972929
 20
94.7949748259324
 30
0.0
 11
16.09339772972856
 21
94.79497482593245
 31
0.0
  0
LINE
  5
1572
330
1F
100
AcDbEntity
  8
外枠
100
AcDbLine
 10
16.09339772972856
 20
94.79497482593245
 30
0.0
 11
16.09339772972856
 21
94.89497482593192
 31
0.0
  0
LINE
  5
1573
330
1F
100
AcDbEntity
  8
外枠
100
AcDbLine
 10
16.09339772972856
 20
94.89497482593192
 30
0.0
 11
16.09339772972856
 21
94.99497482593136
 31
0.0
  0
LINE
  5
1574
330
1F
100
AcDbEntity
  8
外枠
  6
CONTINUOUS
100
AcDbLine
 10
13.11564714880036
 20
96.41964550214561
 30
0.0
 11
16.61564714880168
 21
96.41964550214641
 31
0.0
  0
LINE
  5
1575
330
1F
100
AcDbEntity
  8
外枠
100
AcDbLine
 10
15.4933977297282
 20
92.49497482593131
 30
0.0
 11
15.4933977297282
 21
92.59497482593166
 31
0.0
  0
LINE
  5
1576
330
1F
100
AcDbEntity
  8
外枠
100
AcDbLine
 10
15.4933977297282
 20
92.59497482593166
 30
0.0
 11
15.29339772972929
 21
92.59497482593166
 31
0.0
  0
LINE
  5
1577
330
1F
100
AcDbEntity
  8
外枠
100
AcDbLine
 10
14.4933977297282
 20
92.49497482593131
 30
0.0
 11
15.4933977297282
 21
92.49497482593131
 31
0.0
  0
LINE
  5
1578
330
1F
100
AcDbEntity
  8
外枠
100
AcDbLine
 10
15.29339772972929
 20
92.59497482593166
 30
0.0
 11
15.29339772972929
 21
94.7949748259324
 31
0.0
  0
LINE
  5
1579
330
1F
100
AcDbEntity
  8
外枠
100
AcDbLine
 10
21.02019440190491
 20
79.19499567020825
 30
0.0
 11
21.02019440190491
 21
77.19499567020824
 31
0.0
  0
LINE
  5
157A
330
1F
100
AcDbEntity
  8
外枠
100
AcDbLine
 10
19.02019440190491
 20
77.19499567020824
 30
0.0
 11
19.02019440190491
 21
79.19499567020825
 31
0.0
  0
LINE
  5
157B
330
1F
100
AcDbEntity
  8
外枠
100
AcDbLine
 10
20.70457407503312
 20
78.86860633573991
 30
0.0
 11
20.70457407503312
 21
77.51198792740791
 31
0.0
  0
LINE
  5
157C
330
1F
100
AcDbEntity
  8
外枠
100
AcDbLine
 10
19.30803720236912
 20
77.51198792740791
 30
0.0
 11
19.30803720236912
 21
78.86860633573991
 31
0.0
  0
LINE
  5
157D
330
1F
100
AcDbEntity
  8
外枠
100
AcDbLine
 10
18.33184595378264
 20
77.51706637143247
 30
0.0
 11
18.33184595378264
 21
78.81706637143264
 31
0.0
  0
LINE
  5
157E
330
1F
100
AcDbEntity
  8
外枠
100
AcDbLine
 10
18.33184595378264
 20
77.81999567020824
 30
0.0
 11
18.33184595378264
 21
78.56999567020825
 31
0.0
  0
LINE
  5
157F
330
1F
100
AcDbEntity
  8
外枠
100
AcDbLine
 10
18.09339772972856
 20
76.92499567020871
 30
0.0
 11
22.29339772972929
 21
76.92499567020871
 31
0.0
  0
LINE
  5
1580
330
1F
100
AcDbEntity
  8
外枠
100
AcDbLine
 10
18.09339772972856
 20
76.92499567020781
 30
0.0
 11
22.29339772972929
 21
76.92499567020781
 31
0.0
  0
LINE
  5
1581
330
1F
100
AcDbEntity
  8
外枠
100
AcDbLine
 10
18.33184595378264
 20
72.73999567020831
 30
0.0
 11
18.33184595378264
 21
73.48999567020832
 31
0.0
  0
LINE
  5
1582
330
1F
100
AcDbEntity
  8
外枠
100
AcDbLine
 10
19.30803720236912
 20
73.78860633573999
 30
0.0
 11
20.70457407503312
 21
73.78860633573999
 31
0.0
  0
LINE
  5
1583
330
1F
100
AcDbEntity
  8
外枠
100
AcDbLine
 10
20.70457407503312
 20
74.97198792740795
 30
0.0
 11
19.30803720236912
 21
74.97198792740795
 31
0.0
  0
LINE
  5
1584
330
1F
100
AcDbEntity
  8
外枠
100
AcDbLine
 10
19.30803720236912
 20
76.32860633573995
 30
0.0
 11
20.70457407503312
 21
76.32860633573995
 31
0.0
  0
LINE
  5
1585
330
1F
100
AcDbEntity
  8
外枠
100
AcDbLine
 10
20.70457407503312
 20
77.51198792740791
 30
0.0
 11
19.30803720236912
 21
77.51198792740791
 31
0.0
  0
LINE
  5
1586
330
1F
100
AcDbEntity
  8
外枠
100
AcDbLine
 10
19.02019440190491
 20
76.65499567020828
 30
0.0
 11
21.02019440190491
 21
76.65499567020828
 31
0.0
  0
LINE
  5
1587
330
1F
100
AcDbEntity
  8
外枠
100
AcDbLine
 10
21.02019440190491
 20
77.19499567020824
 30
0.0
 11
19.02019440190491
 21
77.19499567020824
 31
0.0
  0
LINE
  5
1588
330
1F
100
AcDbEntity
  8
外枠
100
AcDbLine
 10
21.02019440190491
 20
74.65499567020827
 30
0.0
 11
19.02019440190491
 21
74.65499567020827
 31
0.0
  0
LINE
  5
1589
330
1F
100
AcDbEntity
  8
外枠
100
AcDbLine
 10
19.02019440190491
 20
74.11499567020832
 30
0.0
 11
21.02019440190491
 21
74.11499567020832
 31
0.0
  0
LINE
  5
158A
330
1F
100
AcDbEntity
  8
外枠
100
AcDbLine
 10
21.02019440190491
 20
76.65499567020828
 30
0.0
 11
21.02019440190491
 21
74.65499567020827
 31
0.0
  0
LINE
  5
158B
330
1F
100
AcDbEntity
  8
外枠
100
AcDbLine
 10
20.70457407503312
 20
76.32860633573995
 30
0.0
 11
20.70457407503312
 21
74.97198792740795
 31
0.0
  0
LINE
  5
158C
330
1F
100
AcDbEntity
  8
外枠
100
AcDbLine
 10
19.02019440190491
 20
74.65499567020827
 30
0.0
 11
19.02019440190491
 21
76.65499567020828
 31
0.0
  0
LINE
  5
158D
330
1F
100
AcDbEntity
  8
外枠
100
AcDbLine
 10
19.30803720236912
 20
74.97198792740795
 30
0.0
 11
19.30803720236912
 21
76.32860633573995
 31
0.0
  0
LINE
  5
158E
330
1F
100
AcDbEntity
  8
外枠
100
AcDbLine
 10
18.33184595378264
 20
75.27999567020827
 30
0.0
 11
18.33184595378264
 21
76.02999567020828
 31
0.0
  0
LINE
  5
158F
330
1F
100
AcDbEntity
  8
外枠
100
AcDbLine
 10
18.33184595378264
 20
74.9770663714325
 30
0.0
 11
18.33184595378264
 21
76.27706637143268
 31
0.0
  0
LINE
  5
1590
330
1F
100
AcDbEntity
  8
外枠
100
AcDbLine
 10
20.70457407503312
 20
72.43198792740798
 30
0.0
 11
19.30803720236912
 21
72.43198792740798
 31
0.0
  0
LINE
  5
1591
330
1F
100
AcDbEntity
  8
外枠
100
AcDbLine
 10
21.02019440190491
 20
72.11499567020831
 30
0.0
 11
19.02019440190491
 21
72.11499567020831
 31
0.0
  0
LINE
  5
1592
330
1F
100
AcDbEntity
  8
外枠
100
AcDbLine
 10
19.02019440190494
 20
71.57499567020835
 30
0.0
 11
21.02019440190494
 21
71.57499567020835
 31
0.0
  0
LINE
  5
1593
330
1F
100
AcDbEntity
  8
外枠
100
AcDbLine
 10
20.70457407503312
 20
73.78860633573999
 30
0.0
 11
20.70457407503312
 21
72.43198792740798
 31
0.0
  0
LINE
  5
1594
330
1F
100
AcDbEntity
  8
外枠
100
AcDbLine
 10
21.02019440190491
 20
74.11499567020832
 30
0.0
 11
21.02019440190491
 21
72.11499567020831
 31
0.0
  0
LINE
  5
1595
330
1F
100
AcDbEntity
  8
外枠
100
AcDbLine
 10
19.30803720236912
 20
72.43198792740798
 30
0.0
 11
19.30803720236912
 21
73.78860633573999
 31
0.0
  0
LINE
  5
1596
330
1F
100
AcDbEntity
  8
外枠
100
AcDbLine
 10
19.02019440190491
 20
72.11499567020831
 30
0.0
 11
19.02019440190491
 21
74.11499567020832
 31
0.0
  0
LINE
  5
1597
330
1F
100
AcDbEntity
  8
外枠
100
AcDbLine
 10
18.33184595378264
 20
72.43706637143254
 30
0.0
 11
18.33184595378264
 21
73.73706637143271
 31
0.0
  0
LINE
  5
1598
330
1F
100
AcDbEntity
  8
外枠
100
AcDbLine
 10
18.09339772972856
 20
79.46499567020868
 30
0.0
 11
22.29339772972929
 21
79.46499567020868
 31
0.0
  0
LINE
  5
1599
330
1F
100
AcDbEntity
  8
外枠
100
AcDbLine
 10
18.09339772972856
 20
84.5449956702086
 30
0.0
 11
22.29339772972929
 21
84.5449956702086
 31
0.0
  0
LINE
  5
159A
330
1F
100
AcDbEntity
  8
外枠
100
AcDbLine
 10
18.09339772972856
 20
82.00499567020864
 30
0.0
 11
22.29339772972929
 21
82.00499567020864
 31
0.0
  0
LINE
  5
159B
330
1F
100
AcDbEntity
  8
外枠
100
AcDbLine
 10
20.70457407503312
 20
80.05198792740879
 30
0.0
 11
19.30803720236912
 21
80.05198792740879
 31
0.0
  0
LINE
  5
159C
330
1F
100
AcDbEntity
  8
外枠
100
AcDbLine
 10
19.30803720236912
 20
81.40860633574078
 30
0.0
 11
20.70457407503312
 21
81.40860633574078
 31
0.0
  0
LINE
  5
159D
330
1F
100
AcDbEntity
  8
外枠
100
AcDbLine
 10
21.02019440190491
 20
79.73499567020912
 30
0.0
 11
19.02019440190491
 21
79.73499567020912
 31
0.0
  0
LINE
  5
159E
330
1F
100
AcDbEntity
  8
外枠
100
AcDbLine
 10
19.02019440190491
 20
81.73499567020911
 30
0.0
 11
21.02019440190491
 21
81.73499567020911
 31
0.0
  0
LINE
  5
159F
330
1F
100
AcDbEntity
  8
外枠
100
AcDbLine
 10
20.70457407503312
 20
81.40860633574078
 30
0.0
 11
20.70457407503312
 21
80.05198792740879
 31
0.0
  0
LINE
  5
15A0
330
1F
100
AcDbEntity
  8
外枠
100
AcDbLine
 10
21.02019440190491
 20
81.73499567020911
 30
0.0
 11
21.02019440190491
 21
79.73499567020912
 31
0.0
  0
LINE
  5
15A1
330
1F
100
AcDbEntity
  8
外枠
100
AcDbLine
 10
19.30803720236912
 20
80.05198792740879
 30
0.0
 11
19.30803720236912
 21
81.40860633574078
 31
0.0
  0
LINE
  5
15A2
330
1F
100
AcDbEntity
  8
外枠
100
AcDbLine
 10
19.02019440190491
 20
79.73499567020912
 30
0.0
 11
19.02019440190491
 21
81.73499567020911
 31
0.0
  0
LINE
  5
15A3
330
1F
100
AcDbEntity
  8
外枠
100
AcDbLine
 10
18.33184595378264
 20
80.05706637143333
 30
0.0
 11
18.33184595378264
 21
81.35706637143261
 31
0.0
  0
LINE
  5
15A4
330
1F
100
AcDbEntity
  8
外枠
100
AcDbLine
 10
18.33184595378264
 20
80.35999567020912
 30
0.0
 11
18.33184595378264
 21
81.10999567020911
 31
0.0
  0
LINE
  5
15A5
330
1F
100
AcDbEntity
  8
外枠
100
AcDbLine
 10
20.70457407503312
 20
82.59198792740875
 30
0.0
 11
19.30803720236912
 21
82.59198792740875
 31
0.0
  0
LINE
  5
15A6
330
1F
100
AcDbEntity
  8
外枠
100
AcDbLine
 10
19.30803720236912
 20
83.94860633574074
 30
0.0
 11
20.70457407503312
 21
83.94860633574074
 31
0.0
  0
LINE
  5
15A7
330
1F
100
AcDbEntity
  8
外枠
100
AcDbLine
 10
21.02019440190491
 20
82.27499567020908
 30
0.0
 11
19.02019440190491
 21
82.27499567020908
 31
0.0
  0
LINE
  5
15A8
330
1F
100
AcDbEntity
  8
外枠
100
AcDbLine
 10
19.02019440190491
 20
84.27499567020907
 30
0.0
 11
21.02019440190491
 21
84.27499567020907
 31
0.0
  0
LINE
  5
15A9
330
1F
100
AcDbEntity
  8
外枠
100
AcDbLine
 10
20.70457407503312
 20
83.94860633574074
 30
0.0
 11
20.70457407503312
 21
82.59198792740875
 31
0.0
  0
LINE
  5
15AA
330
1F
100
AcDbEntity
  8
外枠
100
AcDbLine
 10
21.02019440190491
 20
84.27499567020907
 30
0.0
 11
21.02019440190491
 21
82.27499567020908
 31
0.0
  0
LINE
  5
15AB
330
1F
100
AcDbEntity
  8
外枠
100
AcDbLine
 10
19.30803720236912
 20
82.59198792740875
 30
0.0
 11
19.30803720236912
 21
83.94860633574074
 31
0.0
  0
LINE
  5
15AC
330
1F
100
AcDbEntity
  8
外枠
100
AcDbLine
 10
18.33184595378264
 20
82.89999567020908
 30
0.0
 11
18.33184595378264
 21
83.64999567020907
 31
0.0
  0
LINE
  5
15AD
330
1F
100
AcDbEntity
  8
外枠
100
AcDbLine
 10
18.33184595378264
 20
82.59706637143329
 30
0.0
 11
18.33184595378264
 21
83.89706637143348
 31
0.0
  0
LINE
  5
15AE
330
1F
100
AcDbEntity
  8
外枠
100
AcDbLine
 10
19.02019440190491
 20
82.27499567020908
 30
0.0
 11
19.02019440190491
 21
84.27499567020907
 31
0.0
  0
LINE
  5
15AF
330
1F
100
AcDbEntity
  8
外枠
100
AcDbLine
 10
19.30803720236912
 20
78.86860633573991
 30
0.0
 11
20.70457407503312
 21
78.86860633573991
 31
0.0
  0
LINE
  5
15B0
330
1F
100
AcDbEntity
  8
外枠
100
AcDbLine
 10
19.02019440190491
 20
79.19499567020825
 30
0.0
 11
21.02019440190491
 21
79.19499567020825
 31
0.0
  0
LINE
  5
15B1
330
1F
100
AcDbEntity
  8
外枠
100
AcDbLine
 10
21.79339772972926
 20
87.39497482593192
 30
0.0
 11
21.79339772972929
 21
93.39497482593191
 31
0.0
  0
LINE
  5
15B2
330
1F
100
AcDbEntity
  8
外枠
100
AcDbLine
 10
21.09339772972853
 20
90.39497482593191
 30
0.0
 11
21.09339772972856
 21
94.99497482593136
 31
0.0
  0
LINE
  5
15B3
330
1F
100
AcDbEntity
  8
外枠
100
AcDbLine
 10
22.29339772972926
 20
87.39497482593192
 30
0.0
 11
21.79339772972926
 21
87.39497482593192
 31
0.0
  0
CIRCLE
  5
15B4
330
1F
100
AcDbEntity
  8
外枠
100
AcDbCircle
 10
18.3183977297289
 20
87.89497482593189
 30
0.0
 40
0.32
  0
CIRCLE
  5
15B5
330
1F
100
AcDbEntity
  8
外枠
100
AcDbCircle
 10
18.3183977297289
 20
90.39497482593189
 30
0.0
 40
0.32
  0
LINE
  5
15B6
330
1F
100
AcDbEntity
  8
外枠
100
AcDbLine
 10
21.79339772972929
 20
85.39497482593191
 30
0.0
 11
22.29339772972929
 21
85.39497482593191
 31
0.0
  0
LINE
  5
15B7
330
1F
100
AcDbEntity
  8
外枠
100
AcDbLine
 10
21.09339772972853
 20
90.39497482593191
 30
0.0
 11
21.09339772972856
 21
85.79497482593245
 31
0.0
  0
LINE
  5
15B8
330
1F
100
AcDbEntity
  8
外枠
100
AcDbLine
 10
22.29339772972929
 20
85.39497482593191
 30
0.0
 11
22.29339772972926
 21
87.39497482593192
 31
0.0
  0
LINE
  5
15B9
330
1F
100
AcDbEntity
  8
外枠
100
AcDbLine
 10
22.29339772972929
 20
93.39497482593191
 30
0.0
 11
22.29339772972926
 21
95.39497482593191
 31
0.0
  0
LINE
  5
15BA
330
1F
100
AcDbEntity
  8
外枠
100
AcDbLine
 10
21.79339772972929
 20
93.39497482593191
 30
0.0
 11
22.29339772972929
 21
93.39497482593191
 31
0.0
  0
LINE
  5
15BB
330
1F
100
AcDbEntity
  8
外枠
100
AcDbLine
 10
22.29339772972926
 20
95.39497482593191
 30
0.0
 11
21.79339772972926
 21
95.39497482593191
 31
0.0
  0
LINE
  5
15BC
330
1F
100
AcDbEntity
  8
外枠
100
AcDbLine
 10
17.59339772972856
 20
94.99497482593136
 30
0.0
 11
17.59339772972853
 21
95.39497482593191
 31
0.0
  0
LINE
  5
15BD
330
1F
100
AcDbEntity
  8
外枠
100
AcDbLine
 10
19.09339772972856
 20
94.99497482593136
 30
0.0
 11
19.09339772972853
 21
95.39497482593191
 31
0.0
  0
LINE
  5
15BE
330
1F
100
AcDbEntity
  8
外枠
100
AcDbLine
 10
21.09339772972856
 20
94.99497482593136
 30
0.0
 11
19.09339772972856
 21
94.99497482593136
 31
0.0
  0
LINE
  5
15BF
330
1F
100
AcDbEntity
  8
外枠
100
AcDbLine
 10
20.54339772972926
 20
97.94497482593119
 30
0.0
 11
21.04339772972926
 21
97.94497482593119
 31
0.0
  0
LINE
  5
15C0
330
1F
100
AcDbEntity
  8
外枠
100
AcDbLine
 10
18.54339772972926
 20
97.94497482593119
 30
0.0
 11
19.04339772972926
 21
97.94497482593119
 31
0.0
  0
CIRCLE
  5
15C1
330
1F
100
AcDbEntity
  8
外枠
100
AcDbCircle
 10
18.3183977297289
 20
92.89497482593189
 30
0.0
 40
0.32
  0
ARC
  5
15C2
330
1F
100
AcDbEntity
  8
0
  6
CONTINUOUS
100
AcDbCircle
 10
65.1208026897457
 20
62.17117450214889
 30
0.0
 40
1.0
100
AcDbArc
 50
180.0
 51
268.6890049999997
  0
LINE
  5
15C3
330
1F
100
AcDbEntity
  8
0
  6
CONTINUOUS
100
AcDbLine
 10
64.90512868974565
 20
63.66964550214786
 30
0.0
 11
64.12080268974569
 21
63.66964550214786
 31
0.0
  0
LINE
  5
15C4
330
1F
100
AcDbEntity
  8
0
  6
CONTINUOUS
100
AcDbLine
 10
64.12080268974569
 20
62.17117450214889
 30
0.0
 11
64.12080268974569
 21
63.66964550214786
 31
0.0
  0
ARC
  5
15C5
330
1F
100
AcDbEntity
  8
0
  6
CONTINUOUS
100
AcDbCircle
 10
66.1761716897454
 20
62.14702250214893
 30
0.0
 40
1.0
100
AcDbArc
 50
180.0
 51
268.6890049999997
  0
LINE
  5
15C6
330
1F
100
AcDbEntity
  8
0
  6
CONTINUOUS
100
AcDbLine
 10
65.17617168974538
 20
62.14702250214893
 30
0.0
 11
65.17617168974538
 21
61.16964550214786
 31
0.0
  0
ARC
  5
15C7
330
1F
100
AcDbEntity
  8
0
  6
CONTINUOUS
100
AcDbCircle
 10
71.27617168974577
 20
67.03161650214813
 30
0.0
 40
1.0
100
AcDbArc
 50
180.0
 51
268.6890049999997
  0
LINE
  5
15C8
330
1F
100
AcDbEntity
  8
0
  6
CONTINUOUS
100
AcDbLine
 10
119.1208026897456
 20
16.00782334750635
 30
0.0
 11
121.1208026897456
 21
16.00782334750635
 31
0.0
  0
LINE
  5
15C9
330
1F
100
AcDbEntity
  8
0
  6
CONTINUOUS
100
AcDbLine
 10
119.1208026897456
 20
11.50782334750636
 30
0.0
 11
121.1208026897456
 21
11.50782334750636
 31
0.0
  0
LINE
  5
15CA
330
1F
100
AcDbEntity
  8
0
  6
CONTINUOUS
100
AcDbLine
 10
101.1208026897456
 20
11.50782334750636
 30
0.0
 11
101.1208026897456
 21
23.50782334750636
 31
0.0
  0
LINE
  5
15CB
330
1F
100
AcDbEntity
  8
0
  6
CONTINUOUS
100
AcDbLine
 10
103.1208026897456
 20
23.50782334750636
 30
0.0
 11
103.1208026897456
 21
11.50782334750636
 31
0.0
  0
LINE
  5
15CC
330
1F
100
AcDbEntity
  8
0
  6
CONTINUOUS
100
AcDbLine
 10
81.12080268974569
 20
11.50782334750636
 30
0.0
 11
81.12080268974569
 21
23.50782334750636
 31
0.0
  0
LINE
  5
15CD
330
1F
100
AcDbEntity
  8
0
  6
CONTINUOUS
100
AcDbLine
 10
95.12080268974569
 20
23.50782334750636
 30
0.0
 11
95.12080268974569
 21
11.50782334750636
 31
0.0
  0
LINE
  5
15CE
330
1F
100
AcDbEntity
  8
0
  6
CONTINUOUS
100
AcDbLine
 10
97.12080268974569
 20
11.50782334750636
 30
0.0
 11
97.12080268974569
 21
23.50782334750636
 31
0.0
  0
LINE
  5
15CF
330
1F
100
AcDbEntity
  8
0
  6
CONTINUOUS
100
AcDbLine
 10
85.12080268974569
 20
11.50782334750636
 30
0.0
 11
85.12080268974569
 21
23.50782334750636
 31
0.0
  0
LINE
  5
15D0
330
1F
100
AcDbEntity
  8
0
  6
CONTINUOUS
100
AcDbLine
 10
87.12080268974569
 20
23.50782334750636
 30
0.0
 11
87.12080268974569
 21
11.50782334750636
 31
0.0
  0
LINE
  5
15D1
330
1F
100
AcDbEntity
  8
0
  6
CONTINUOUS
100
AcDbLine
 10
89.12080268974568
 20
11.50782334750636
 30
0.0
 11
89.12080268974568
 21
23.50782334750636
 31
0.0
  0
LINE
  5
15D2
330
1F
100
AcDbEntity
  8
0
  6
CONTINUOUS
100
AcDbLine
 10
83.12080268974568
 20
23.50782334750636
 30
0.0
 11
83.12080268974568
 21
11.50782334750636
 31
0.0
  0
LINE
  5
15D3
330
1F
100
AcDbEntity
  8
0
  6
CONTINUOUS
100
AcDbLine
 10
99.1208026897457
 20
23.50782334750636
 30
0.0
 11
99.1208026897457
 21
11.50782334750636
 31
0.0
  0
LINE
  5
15D4
330
1F
100
AcDbEntity
  8
0
  6
CONTINUOUS
100
AcDbLine
 10
91.12080268974569
 20
23.50782334750636
 30
0.0
 11
91.12080268974569
 21
11.50782334750636
 31
0.0
  0
LINE
  5
15D5
330
1F
100
AcDbEntity
  8
0
  6
CONTINUOUS
100
AcDbLine
 10
93.12080268974568
 20
11.50782334750636
 30
0.0
 11
93.12080268974568
 21
23.50782334750636
 31
0.0
  0
LINE
  5
15D6
330
1F
100
AcDbEntity
  8
0
  6
CONTINUOUS
100
AcDbLine
 10
110.1208026897456
 20
17.50782334750636
 30
0.0
 11
110.1208026897456
 21
23.50782334750636
 31
0.0
  0
LINE
  5
15D7
330
1F
100
AcDbEntity
  8
0
  6
CONTINUOUS
100
AcDbLine
 10
114.3708026897456
 20
19.00782334750635
 30
0.0
 11
114.3708026897456
 21
17.50782334750636
 31
0.0
  0
LINE
  5
15D8
330
1F
100
AcDbEntity
  8
0
  6
CONTINUOUS
100
AcDbLine
 10
115.8708026897456
 20
19.00782334750635
 30
0.0
 11
115.8708026897456
 21
17.50782334750636
 31
0.0
  0
LINE
  5
15D9
330
1F
100
AcDbEntity
  8
0
  6
CONTINUOUS
100
AcDbLine
 10
120.1208026897456
 20
23.50782334750636
 30
0.0
 11
120.1208026897456
 21
17.50782334750636
 31
0.0
  0
LINE
  5
15DA
330
1F
100
AcDbEntity
  8
0
  6
CONTINUOUS
100
AcDbLine
 10
105.1208026897456
 20
11.50782334750636
 30
0.0
 11
105.1208026897456
 21
23.50782334750636
 31
0.0
  0
LINE
  5
15DB
330
1F
100
AcDbEntity
  8
0
  6
CONTINUOUS
100
AcDbLine
 10
109.1208026897456
 20
11.50782334750636
 30
0.0
 11
109.1208026897456
 21
23.50782334750636
 31
0.0
  0
LINE
  5
15DC
330
1F
100
AcDbEntity
  8
0
  6
CONTINUOUS
100
AcDbLine
 10
107.1208026897456
 20
23.50782334750636
 30
0.0
 11
107.1208026897456
 21
11.50782334750636
 31
0.0
  0
LINE
  5
15DD
330
1F
100
AcDbEntity
  8
0
  6
CONTINUOUS
100
AcDbLine
 10
99.1208026897457
 20
11.50782334750636
 30
0.0
 11
101.1208026897456
 21
11.50782334750636
 31
0.0
  0
LINE
  5
15DE
330
1F
100
AcDbEntity
  8
0
  6
CONTINUOUS
100
AcDbLine
 10
83.12080268974568
 20
11.50782334750636
 30
0.0
 11
85.12080268974569
 21
11.50782334750636
 31
0.0
  0
LINE
  5
15DF
330
1F
100
AcDbEntity
  8
0
  6
CONTINUOUS
100
AcDbLine
 10
87.12080268974569
 20
11.50782334750636
 30
0.0
 11
89.12080268974568
 21
11.50782334750636
 31
0.0
  0
LINE
  5
15E0
330
1F
100
AcDbEntity
  8
0
  6
CONTINUOUS
100
AcDbLine
 10
91.12080268974569
 20
11.50782334750636
 30
0.0
 11
93.12080268974568
 21
11.50782334750636
 31
0.0
  0
LINE
  5
15E1
330
1F
100
AcDbEntity
  8
0
  6
CONTINUOUS
100
AcDbLine
 10
95.12080268974569
 20
11.50782334750636
 30
0.0
 11
97.12080268974569
 21
11.50782334750636
 31
0.0
  0
LINE
  5
15E2
330
1F
100
AcDbEntity
  8
0
  6
CONTINUOUS
100
AcDbLine
 10
120.1208026897456
 20
17.50782334750636
 30
0.0
 11
110.1208026897456
 21
17.50782334750636
 31
0.0
  0
LINE
  5
15E3
330
1F
100
AcDbEntity
  8
0
  6
CONTINUOUS
100
AcDbLine
 10
103.1208026897456
 20
11.50782334750636
 30
0.0
 11
105.1208026897456
 21
11.50782334750636
 31
0.0
  0
LINE
  5
15E4
330
1F
100
AcDbEntity
  8
0
  6
CONTINUOUS
100
AcDbLine
 10
107.1208026897456
 20
11.50782334750636
 30
0.0
 11
109.1208026897456
 21
11.50782334750636
 31
0.0
  0
LINE
  5
15E5
330
1F
100
AcDbEntity
  8
0
  6
CONTINUOUS
100
AcDbLine
 10
111.1208026897456
 20
16.00782334750635
 30
0.0
 11
111.1208026897456
 21
11.50782334750636
 31
0.0
  0
LINE
  5
15E6
330
1F
100
AcDbEntity
  8
0
  6
CONTINUOUS
100
AcDbLine
 10
113.1208026897456
 20
11.50782334750636
 30
0.0
 11
113.1208026897456
 21
16.00782334750635
 31
0.0
  0
LINE
  5
15E7
330
1F
100
AcDbEntity
  8
0
  6
CONTINUOUS
100
AcDbLine
 10
115.1208026897456
 20
16.00782334750635
 30
0.0
 11
115.1208026897456
 21
11.50782334750636
 31
0.0
  0
LINE
  5
15E8
330
1F
100
AcDbEntity
  8
0
  6
CONTINUOUS
100
AcDbLine
 10
119.1208026897456
 20
16.00782334750635
 30
0.0
 11
119.1208026897456
 21
11.50782334750636
 31
0.0
  0
LINE
  5
15E9
330
1F
100
AcDbEntity
  8
0
  6
CONTINUOUS
100
AcDbLine
 10
117.1208026897456
 20
11.50782334750636
 30
0.0
 11
117.1208026897456
 21
16.00782334750635
 31
0.0
  0
LINE
  5
15EA
330
1F
100
AcDbEntity
  8
0
  6
CONTINUOUS
100
AcDbLine
 10
115.1208026897456
 20
11.50782334750636
 30
0.0
 11
117.1208026897456
 21
11.50782334750636
 31
0.0
  0
LINE
  5
15EB
330
1F
100
AcDbEntity
  8
0
  6
CONTINUOUS
100
AcDbLine
 10
111.1208026897456
 20
11.50782334750636
 30
0.0
 11
113.1208026897456
 21
11.50782334750636
 31
0.0
  0
LINE
  5
15EC
330
1F
100
AcDbEntity
  8
0
  6
CONTINUOUS
100
AcDbLine
 10
115.1208026897456
 20
16.00782334750635
 30
0.0
 11
117.1208026897456
 21
16.00782334750635
 31
0.0
  0
LINE
  5
15ED
330
1F
100
AcDbEntity
  8
0
  6
CONTINUOUS
100
AcDbLine
 10
111.1208026897456
 20
16.00782334750635
 30
0.0
 11
113.1208026897456
 21
16.00782334750635
 31
0.0
  0
LINE
  5
15EE
330
1F
100
AcDbEntity
  8
0
  6
CONTINUOUS
100
AcDbLine
 10
101.1208026897456
 20
23.50782334750636
 30
0.0
 11
99.1208026897457
 21
23.50782334750636
 31
0.0
  0
LINE
  5
15EF
330
1F
100
AcDbEntity
  8
0
  6
CONTINUOUS
100
AcDbLine
 10
85.12080268974569
 20
23.50782334750636
 30
0.0
 11
83.12080268974568
 21
23.50782334750636
 31
0.0
  0
LINE
  5
15F0
330
1F
100
AcDbEntity
  8
0
  6
CONTINUOUS
100
AcDbLine
 10
89.12080268974568
 20
23.50782334750636
 30
0.0
 11
87.12080268974569
 21
23.50782334750636
 31
0.0
  0
LINE
  5
15F1
330
1F
100
AcDbEntity
  8
0
  6
CONTINUOUS
100
AcDbLine
 10
93.12080268974568
 20
23.50782334750636
 30
0.0
 11
91.12080268974569
 21
23.50782334750636
 31
0.0
  0
LINE
  5
15F2
330
1F
100
AcDbEntity
  8
0
  6
CONTINUOUS
100
AcDbLine
 10
97.12080268974569
 20
23.50782334750636
 30
0.0
 11
95.12080268974569
 21
23.50782334750636
 31
0.0
  0
LINE
  5
15F3
330
1F
100
AcDbEntity
  8
0
  6
CONTINUOUS
100
AcDbLine
 10
110.1208026897456
 20
23.50782334750636
 30
0.0
 11
120.1208026897456
 21
23.50782334750636
 31
0.0
  0
LINE
  5
15F4
330
1F
100
AcDbEntity
  8
0
  6
CONTINUOUS
100
AcDbLine
 10
105.1208026897456
 20
23.50782334750636
 30
0.0
 11
103.1208026897456
 21
23.50782334750636
 31
0.0
  0
LINE
  5
15F5
330
1F
100
AcDbEntity
  8
0
  6
CONTINUOUS
100
AcDbLine
 10
107.1208026897456
 20
23.50782334750636
 30
0.0
 11
109.1208026897456
 21
23.50782334750636
 31
0.0
  0
LINE
  5
15F6
330
1F
100
AcDbEntity
  8
0
  6
CONTINUOUS
100
AcDbLine
 10
118.1208026897456
 20
19.00782334750635
 30
0.0
 11
112.1208026897456
 21
19.00782334750635
 31
0.0
  0
LINE
  5
15F7
330
1F
100
AcDbEntity
  8
0
  6
CONTINUOUS
100
AcDbLine
 10
112.1208026897456
 20
22.00782334750635
 30
0.0
 11
118.1208026897456
 21
22.00782334750635
 31
0.0
  0
ARC
  5
15F8
330
1F
100
AcDbEntity
  8
0
  6
CONTINUOUS
100
AcDbCircle
 10
112.1208026897456
 20
21.50782334750637
 30
0.0
 40
0.5
100
AcDbArc
 50
90.00000000000003
 51
180.0
  0
LINE
  5
15F9
330
1F
100
AcDbEntity
  8
0
  6
CONTINUOUS
100
AcDbLine
 10
114.3708026897456
 20
23.50782334750636
 30
0.0
 11
114.3708026897456
 21
22.00782334750635
 31
0.0
  0
ARC
  5
15FA
330
1F
100
AcDbEntity
  8
0
  6
CONTINUOUS
100
AcDbCircle
 10
112.1208026897456
 20
19.50782334750637
 30
0.0
 40
0.5
100
AcDbArc
 50
180.0
 51
270.0
  0
LINE
  5
15FB
330
1F
100
AcDbEntity
  8
0
  6
CONTINUOUS
100
AcDbLine
 10
111.6208026897456
 20
19.50782334750636
 30
0.0
 11
111.6208026897456
 21
21.50782334750636
 31
0.0
  0
LINE
  5
15FC
330
1F
100
AcDbEntity
  8
0
  6
CONTINUOUS
100
AcDbLine
 10
115.8708026897456
 20
23.50782334750636
 30
0.0
 11
115.8708026897456
 21
22.00782334750635
 31
0.0
  0
ARC
  5
15FD
330
1F
100
AcDbEntity
  8
0
  6
CONTINUOUS
100
AcDbCircle
 10
118.1208026897456
 20
21.50782334750637
 30
0.0
 40
0.5
100
AcDbArc
 50
0.0
 51
90.00000000000003
  0
ARC
  5
15FE
330
1F
100
AcDbEntity
  8
0
  6
CONTINUOUS
100
AcDbCircle
 10
118.1208026897456
 20
19.50782334750637
 30
0.0
 40
0.5
100
AcDbArc
 50
270.0
 51
0.0
  0
LINE
  5
15FF
330
1F
100
AcDbEntity
  8
0
  6
CONTINUOUS
100
AcDbLine
 10
118.6208026897456
 20
21.50782334750636
 30
0.0
 11
118.6208026897456
 21
19.50782334750636
 31
0.0
  0
LWPOLYLINE
  5
1600
330
1F
100
AcDbEntity
  8
0
100
AcDbPolyline
 90
        4
 70
     1
 43
0.0
 10
130.7208026897451
 20
2.007615347506884
 10
130.7208026897451
 20
33.00803334750651
 10
132.2208026897451
 20
33.00803334750651
 10
132.2208026897451
 20
2.007615347506884
  0
LINE
  5
1601
330
1F
100
AcDbEntity
  8
0
100
AcDbLine
 10
130.7208026897451
 20
2.007615347506884
 30
0.0
 11
130.7208026897451
 21
33.00803334750651
 31
0.0
  0
LINE
  5
1602
330
1F
100
AcDbEntity
  8
0
  6
CONTINUOUS
100
AcDbLine
 10
130.7208026897451
 20
2.007824347506698
 30
0.0
 11
130.7208026897451
 21
33.0078243475067
 31
0.0
  0
LINE
  5
1603
330
1F
100
AcDbEntity
  8
0
  6
CONTINUOUS
100
AcDbLine
 10
123.1208026897457
 20
23.50782334750636
 30
0.0
 11
123.1208026897457
 21
11.50782334750636
 31
0.0
  0
LINE
  5
1604
330
1F
100
AcDbEntity
  8
0
  6
CONTINUOUS
100
AcDbLine
 10
125.1208026897456
 20
11.50782334750636
 30
0.0
 11
125.1208026897456
 21
23.50782334750636
 31
0.0
  0
LINE
  5
1605
330
1F
100
AcDbEntity
  8
0
  6
CONTINUOUS
100
AcDbLine
 10
130.7208026897451
 20
2.007824347506698
 30
0.0
 11
131.7208026897451
 21
2.007824347506698
 31
0.0
  0
LINE
  5
1606
330
1F
100
AcDbEntity
  8
0
  6
CONTINUOUS
100
AcDbLine
 10
131.7208026897451
 20
2.007824347506698
 30
0.0
 11
131.7208026897451
 21
0.4999413475064785
 31
0.0
  0
ARC
  5
1607
330
1F
100
AcDbEntity
  8
0
  6
CONTINUOUS
100
AcDbCircle
 10
131.2208026897451
 20
0.4999413475064927
 30
0.0
 40
0.5
100
AcDbArc
 50
269.1171789999794
 51
0.0
  0
LINE
  5
1608
330
1F
100
AcDbEntity
  8
0
100
AcDbLine
 10
130.7208026897451
 20
15.0078243475067
 30
0.0
 11
132.2208026897451
 21
15.0078243475067
 31
0.0
  0
LINE
  5
1609
330
1F
100
AcDbEntity
  8
0
100
AcDbLine
 10
130.7208026897451
 20
13.50782434750669
 30
0.0
 11
132.2208026897451
 21
13.50782434750669
 31
0.0
  0
LINE
  5
160A
330
1F
100
AcDbEntity
  8
0
  6
CONTINUOUS
100
AcDbLine
 10
121.1208026897456
 20
11.50782334750636
 30
0.0
 11
121.1208026897456
 21
16.00782334750635
 31
0.0
  0
LINE
  5
160B
330
1F
100
AcDbEntity
  8
0
  6
CONTINUOUS
100
AcDbLine
 10
123.1208026897457
 20
11.50782334750636
 30
0.0
 11
125.1208026897456
 21
11.50782334750636
 31
0.0
  0
LINE
  5
160C
330
1F
100
AcDbEntity
  8
0
100
AcDbLine
 10
130.7208026897451
 20
20.00782434750669
 30
0.0
 11
132.2208026897451
 21
20.00782434750669
 31
0.0
  0
LINE
  5
160D
330
1F
100
AcDbEntity
  8
0
100
AcDbLine
 10
130.7208026897451
 20
21.5078243475067
 30
0.0
 11
132.2208026897451
 21
21.5078243475067
 31
0.0
  0
LINE
  5
160E
330
1F
100
AcDbEntity
  8
0
  6
CONTINUOUS
100
AcDbLine
 10
125.1208026897456
 20
23.50782334750636
 30
0.0
 11
123.1208026897457
 21
23.50782334750636
 31
0.0
  0
LINE
  5
160F
330
1F
100
AcDbEntity
  8
0
  6
CONTINUOUS
100
AcDbLine
 10
131.7208026897451
 20
33.0078243475067
 30
0.0
 11
130.7208026897451
 21
33.0078243475067
 31
0.0
  0
LINE
  5
1610
330
1F
100
AcDbEntity
  8
0
  6
CONTINUOUS
100
AcDbLine
 10
131.7208026897451
 20
33.0078243475067
 30
0.0
 11
131.7208026897451
 21
34.51570634750658
 31
0.0
  0
ARC
  5
1611
330
1F
100
AcDbEntity
  8
0
  6
CONTINUOUS
100
AcDbCircle
 10
131.2208026897451
 20
34.51570634750659
 30
0.0
 40
0.5
100
AcDbArc
 50
0.0
 51
90.88282099996842
  0
LINE
  5
1612
330
1F
100
AcDbEntity
  8
0
100
AcDbLine
 10
130.7208026897451
 20
51.91964550214695
 30
0.0
 11
130.7208026897451
 21
63.92149750214636
 31
0.0
  0
LINE
  5
1613
330
1F
100
AcDbEntity
  8
0
100
AcDbLine
 10
132.2208026897451
 20
51.91964550214695
 30
0.0
 11
130.7208026897451
 21
51.91964550214695
 31
0.0
  0
LINE
  5
1614
330
1F
100
AcDbEntity
  8
0
100
AcDbLine
 10
130.7271756897453
 20
52.91964550214695
 30
0.0
 11
130.7208026897451
 21
52.9260185021462
 31
0.0
  0
ARC
  5
1615
330
1F
100
AcDbEntity
  8
0
  6
CONTINUOUS
100
AcDbCircle
 10
130.7208026897451
 20
65.67121650214855
 30
0.0
 40
1.0
100
AcDbArc
 50
268.6890049999997
 51
0.0
  0
LINE
  5
1616
330
1F
100
AcDbEntity
  8
0
  6
CONTINUOUS
100
AcDbLine
 10
130.7208026897451
 20
59.66964550214786
 30
0.0
 11
130.7208026897451
 21
64.67096950214861
 31
0.0
  0
LINE
  5
1617
330
1F
100
AcDbEntity
  8
0
  6
CONTINUOUS
100
AcDbLine
 10
79.12080268974569
 20
209.1063172253606
 30
0.0
 11
81.12080268974569
 21
209.1063172253606
 31
0.0
  0
LINE
  5
1618
330
1F
100
AcDbEntity
  8
0
  6
CONTINUOUS
100
AcDbLine
 10
81.12080268974569
 20
197.1063172253606
 30
0.0
 11
79.12080268974569
 21
197.1063172253606
 31
0.0
  0
LINE
  5
1619
330
1F
100
AcDbEntity
  8
0
  6
CONTINUOUS
100
AcDbLine
 10
66.03062068974577
 20
217.6094832253601
 30
0.0
 11
130.7208026897451
 21
218.6063162253602
 31
0.0
  0
LINE
  5
161A
330
1F
100
AcDbEntity
  8
0
  6
CONTINUOUS
100
AcDbLine
 10
66.03062068974577
 20
188.6031502253607
 30
0.0
 11
130.7208026897451
 21
187.6063162253602
 31
0.0
  0
LINE
  5
161B
330
1F
100
AcDbEntity
  8
0
  6
CONTINUOUS
100
AcDbLine
 10
71.26076468974497
 20
219.6903132253609
 30
0.0
 11
131.2130986897454
 21
220.6141402253605
 31
0.0
  0
LINE
  5
161C
330
1F
100
AcDbEntity
  8
0
  6
CONTINUOUS
100
AcDbLine
 10
71.26076468974497
 20
186.5223192253605
 30
0.0
 11
131.2130986897454
 21
185.5984932253603
 31
0.0
  0
LINE
  5
161D
330
1F
100
AcDbEntity
  8
0
  6
CONTINUOUS
100
AcDbLine
 10
71.42414468974493
 20
193.0205732253606
 30
0.0
 11
130.7208026897451
 21
192.1068512253603
 31
0.0
  0
LINE
  5
161E
330
1F
100
AcDbEntity
  8
0
  6
CONTINUOUS
100
AcDbLine
 10
71.4241436897455
 20
213.1920592253608
 30
0.0
 11
130.7208026897451
 21
214.1057822253604
 31
0.0
  0
LINE
  5
161F
330
1F
100
AcDbEntity
  8
0
  6
CONTINUOUS
100
AcDbLine
 10
130.7208026897451
 20
164.1696455021478
 30
0.0
 11
65.09792368974558
 21
162.6678545021481
 31
0.0
  0
LINE
  5
1620
330
1F
100
AcDbEntity
  8
0
  6
CONTINUOUS
100
AcDbLine
 10
130.6979236897459
 20
159.1678125021485
 30
0.0
 11
71.25329268974565
 21
157.807412502148
 31
0.0
  0
ARC
  5
1621
330
1F
100
AcDbEntity
  8
0
  6
CONTINUOUS
100
AcDbCircle
 10
169.1208026897457
 20
203.1063172253606
 30
0.0
 40
100.0
100
AcDbArc
 50
175.2671449999835
 51
184.7328559999832
  0
LINE
  5
1622
330
1F
100
AcDbEntity
  8
0
  6
CONTINUOUS
100
AcDbLine
 10
79.12080268974569
 20
197.1063172253606
 30
0.0
 11
79.12080268974569
 21
209.1063172253606
 31
0.0
  0
LINE
  5
1623
330
1F
100
AcDbEntity
  8
0
  6
CONTINUOUS
100
AcDbLine
 10
75.12080268974568
 20
197.1063172253606
 30
0.0
 11
75.12080268974568
 21
209.1063172253606
 31
0.0
  0
LINE
  5
1624
330
1F
100
AcDbEntity
  8
0
  6
CONTINUOUS
100
AcDbLine
 10
77.12080268974569
 20
209.1063172253606
 30
0.0
 11
77.12080268974569
 21
197.1063172253606
 31
0.0
  0
ARC
  5
1625
330
1F
100
AcDbEntity
  8
0
  6
CONTINUOUS
100
AcDbCircle
 10
164.1208026897456
 20
203.1063172253606
 30
0.0
 40
100.0
100
AcDbArc
 50
172.1606020000356
 51
187.8393999999904
  0
LINE
  5
1626
330
1F
100
AcDbEntity
  8
外枠
100
AcDbLine
 10
8.81564714880173
 20
116.1196455021464
 30
0.0
 11
8.815647148801701
 21
131.644974825931
 31
0.0
  0
LINE
  5
1627
330
1F
100
AcDbEntity
  8
外枠
100
AcDbLine
 10
13.77638672972753
 20
124.6636494021066
 30
0.0
 11
14.15741472972732
 21
124.2262944021066
 31
0.0
  0
LINE
  5
1628
330
1F
100
AcDbEntity
  8
ﾚｲﾔ_1
  6
CONTINUOUS
 62
     7
100
AcDbLine
 10
15.13806072972667
 20
123.1956944021076
 30
0.0
 11
15.13806072972667
 21
124.6636494021077
 31
0.0
  0
LINE
  5
1629
330
1F
100
AcDbEntity
  8
ﾚｲﾔ_1
  6
CONTINUOUS
 62
     7
100
AcDbLine
 10
13.77604272972664
 20
124.6636494021077
 30
0.0
 11
13.77604272972664
 21
123.1956944021076
 31
0.0
  0
LINE
  5
162A
330
1F
100
AcDbEntity
  8
ﾚｲﾔ_1
  6
CONTINUOUS
 62
     7
100
AcDbLine
 10
11.23562872972669
 20
124.6283374021077
 30
0.0
 11
11.23562872972669
 21
123.1605544021076
 31
0.0
  0
LINE
  5
162B
330
1F
100
AcDbEntity
  8
ﾚｲﾔ_1
  6
CONTINUOUS
 62
     7
100
AcDbLine
 10
13.15506372972672
 20
123.1605544021076
 30
0.0
 11
13.15506372972672
 21
124.6283374021076
 31
0.0
  0
LINE
  5
162C
330
1F
100
AcDbEntity
  8
ﾚｲﾔ_1
  6
CONTINUOUS
 62
     7
100
AcDbLine
 10
11.23562872972669
 20
124.6283374021077
 30
0.0
 11
11.23562872972669
 21
123.1605544021076
 31
0.0
  0
LINE
  5
162D
330
1F
100
AcDbEntity
  8
ﾚｲﾔ_1
  6
CONTINUOUS
 62
     7
100
AcDbLine
 10
13.15506372972672
 20
123.1605544021076
 30
0.0
 11
13.15506372972672
 21
124.6283374021076
 31
0.0
  0
LINE
  5
162E
330
1F
100
AcDbEntity
  8
ﾚｲﾔ_1
  6
CONTINUOUS
 62
     7
100
AcDbLine
 10
18.3349377297267
 20
125.1015214021077
 30
0.0
 11
18.3349377297267
 21
124.1203584021077
 31
0.0
  0
LINE
  5
162F
330
1F
100
AcDbEntity
  8
ﾚｲﾔ_1
  6
CONTINUOUS
 62
     7
100
AcDbLine
 10
17.7423807297267
 20
124.1203584021077
 30
0.0
 11
17.7423807297267
 21
125.1015214021077
 31
0.0
  0
LINE
  5
1630
330
1F
100
AcDbEntity
  8
ﾚｲﾔ_1
  6
CONTINUOUS
 62
     7
100
AcDbLine
 10
18.77280872972667
 20
125.4825484021076
 30
0.0
 11
18.77280872972667
 21
124.1203584021077
 31
0.0
  0
LINE
  5
1631
330
1F
100
AcDbEntity
  8
ﾚｲﾔ_1
  6
CONTINUOUS
 62
     7
100
AcDbLine
 10
17.30485372972671
 20
124.1203584021077
 30
0.0
 11
17.30485372972671
 21
125.4825484021076
 31
0.0
  0
LINE
  5
1632
330
1F
100
AcDbEntity
  8
ﾚｲﾔ_1
  6
CONTINUOUS
 62
     7
100
AcDbLine
 10
15.55474472972665
 20
124.9885224021076
 30
0.0
 11
15.55474472972665
 21
123.6265034021077
 31
0.0
  0
LINE
  5
1633
330
1F
100
AcDbEntity
  8
ﾚｲﾔ_1
  6
CONTINUOUS
 62
     7
100
AcDbLine
 10
17.02270072972666
 20
123.6265034021077
 30
0.0
 11
17.02270072972666
 21
124.9885224021076
 31
0.0
  0
LINE
  5
1634
330
1F
100
AcDbEntity
  8
ﾚｲﾔ_1
  6
CONTINUOUS
 62
     7
100
AcDbLine
 10
15.99261672972667
 20
124.6074944021076
 30
0.0
 11
15.99261672972667
 21
123.6265034021077
 31
0.0
  0
LINE
  5
1635
330
1F
100
AcDbEntity
  8
ﾚｲﾔ_1
  6
CONTINUOUS
 62
     7
100
AcDbLine
 10
16.58517372972667
 20
123.6265034021077
 30
0.0
 11
16.58517372972667
 21
124.6074944021076
 31
0.0
  0
CIRCLE
  5
1636
330
1F
100
AcDbEntity
  8
外枠
100
AcDbCircle
 10
15.89339772972776
 20
123.8947044021068
 30
0.0
 40
5.029838999999999
  0
CIRCLE
  5
1637
330
1F
100
AcDbEntity
  8
外枠
100
AcDbCircle
 10
15.89339772972776
 20
123.8947044021068
 30
0.0
 40
5.029838999999999
  0
LINE
  5
1638
330
1F
100
AcDbEntity
  8
外枠
100
AcDbLine
 10
9.493397729726325
 20
130.8949748259309
 30
0.0
 11
9.493397729726353
 21
116.894974825931
 31
0.0
  0
CIRCLE
  5
1639
330
1F
100
AcDbEntity
  8
外枠
100
AcDbCircle
 10
15.89313972972773
 20
123.8947044021068
 30
0.0
 40
4.448566
  0
CIRCLE
  5
163A
330
1F
100
AcDbEntity
  8
外枠
100
AcDbCircle
 10
15.89313972972773
 20
123.8947044021068
 30
0.0
 40
4.448566
  0
LINE
  5
163B
330
1F
100
AcDbEntity
  8
ﾚｲﾔ_1
  6
CONTINUOUS
 62
     7
100
AcDbLine
 10
18.77280872972667
 20
124.1203584021077
 30
0.0
 11
17.30485372972671
 21
124.1203584021077
 31
0.0
  0
LINE
  5
163C
330
1F
100
AcDbEntity
  8
ﾚｲﾔ_1
  6
CONTINUOUS
 62
     7
100
AcDbLine
 10
17.30485372972671
 20
122.2927344021076
 30
0.0
 11
18.77280872972667
 21
122.2927344021076
 31
0.0
  0
LINE
  5
163D
330
1F
100
AcDbEntity
  8
ﾚｲﾔ_1
  6
CONTINUOUS
 62
     7
100
AcDbLine
 10
18.77280872972667
 20
123.6547534021077
 30
0.0
 11
17.30485372972671
 21
123.6547534021077
 31
0.0
  0
LINE
  5
163E
330
1F
100
AcDbEntity
  8
外枠
100
AcDbLine
 10
17.30485372972762
 20
122.2927344021071
 30
0.0
 11
17.74238072972767
 21
122.6735904021069
 31
0.0
  0
LINE
  5
163F
330
1F
100
AcDbEntity
  8
外枠
 48
0.1
100
AcDbLine
 10
17.29339772972926
 20
116.144974825931
 30
0.0
 11
22.29339772972926
 21
116.144974825931
 31
0.0
  0
LINE
  5
1640
330
1F
100
AcDbEntity
  8
外枠
100
AcDbLine
 10
9.493397729726353
 20
116.894974825931
 30
0.0
 11
22.29339772972744
 21
116.894974825931
 31
0.0
  0
LINE
  5
1641
330
1F
100
AcDbEntity
  8
外枠
100
AcDbLine
 10
8.81564714880173
 20
116.1196455021464
 30
0.0
 11
16.61564714880168
 21
116.1196455021464
 31
0.0
  0
LINE
  5
1642
330
1F
100
AcDbEntity
  8
ﾚｲﾔ_1
  6
CONTINUOUS
 62
     7
100
AcDbLine
 10
11.23562872972669
 20
123.1605544021076
 30
0.0
 11
13.15506372972672
 21
123.1605544021076
 31
0.0
  0
LINE
  5
1643
330
1F
100
AcDbEntity
  8
ﾚｲﾔ_1
  6
CONTINUOUS
 62
     7
100
AcDbLine
 10
11.23562872972669
 20
123.1605544021076
 30
0.0
 11
13.15506372972672
 21
123.1605544021076
 31
0.0
  0
LINE
  5
1644
330
1F
100
AcDbEntity
  8
ﾚｲﾔ_1
  6
CONTINUOUS
 62
     7
100
AcDbLine
 10
13.77604272972664
 20
121.3539464021076
 30
0.0
 11
15.13806072972667
 21
121.3539464021076
 31
0.0
  0
LINE
  5
1645
330
1F
100
AcDbEntity
  8
ﾚｲﾔ_1
  6
CONTINUOUS
 62
     7
100
AcDbLine
 10
15.13806072972667
 20
122.8219014021077
 30
0.0
 11
13.77604272972664
 21
122.8219014021076
 31
0.0
  0
LINE
  5
1646
330
1F
100
AcDbEntity
  8
ﾚｲﾔ_1
  6
CONTINUOUS
 62
     7
100
AcDbLine
 10
13.77604272972664
 20
123.1956944021076
 30
0.0
 11
15.13806072972667
 21
123.1956944021076
 31
0.0
  0
LINE
  5
1647
330
1F
100
AcDbEntity
  8
外枠
100
AcDbLine
 10
13.77638672972753
 20
121.3539464021076
 30
0.0
 11
14.15741472972732
 21
121.7916454021077
 31
0.0
  0
LINE
  5
1648
330
1F
100
AcDbEntity
  8
外枠
100
AcDbLine
 10
13.77638672972753
 20
123.1956944021066
 30
0.0
 11
14.15741472972732
 21
123.633566402107
 31
0.0
  0
LINE
  5
1649
330
1F
100
AcDbEntity
  8
外枠
100
AcDbLine
 10
13.77638672972753
 20
122.8219014021077
 30
0.0
 11
14.15741472972732
 21
122.3843744021077
 31
0.0
  0
LINE
  5
164A
330
1F
100
AcDbEntity
  8
ﾚｲﾔ_1
  6
CONTINUOUS
 62
     7
100
AcDbLine
 10
14.15706972972665
 20
123.6335664021076
 30
0.0
 11
15.13806072972667
 21
123.6335664021076
 31
0.0
  0
LINE
  5
164B
330
1F
100
AcDbEntity
  8
ﾚｲﾔ_1
  6
CONTINUOUS
 62
     7
100
AcDbLine
 10
15.13806072972667
 20
124.2262944021077
 30
0.0
 11
14.15706972972665
 21
124.2262944021077
 31
0.0
  0
LINE
  5
164C
330
1F
100
AcDbEntity
  8
ﾚｲﾔ_1
  6
CONTINUOUS
 62
     7
100
AcDbLine
 10
14.15706972972665
 20
121.7916454021077
 30
0.0
 11
15.13806072972667
 21
121.7916454021077
 31
0.0
  0
LINE
  5
164D
330
1F
100
AcDbEntity
  8
ﾚｲﾔ_1
  6
CONTINUOUS
 62
     7
100
AcDbLine
 10
15.13806072972667
 20
122.3843744021076
 30
0.0
 11
14.15706972972665
 21
122.3843744021076
 31
0.0
  0
LINE
  5
164E
330
1F
100
AcDbEntity
  8
ﾚｲﾔ_1
  6
CONTINUOUS
 62
     7
100
AcDbLine
 10
15.13806072972667
 20
121.3539464021076
 30
0.0
 11
15.13806072972667
 21
122.8219014021077
 31
0.0
  0
LINE
  5
164F
330
1F
100
AcDbEntity
  8
ﾚｲﾔ_1
  6
CONTINUOUS
 62
     7
100
AcDbLine
 10
15.13806072972667
 20
121.7916454021077
 30
0.0
 11
15.13806072972667
 21
122.3843744021076
 31
0.0
  0
LINE
  5
1650
330
1F
100
AcDbEntity
  8
ﾚｲﾔ_1
  6
CONTINUOUS
 62
     7
100
AcDbLine
 10
15.13806072972667
 20
123.6335664021076
 30
0.0
 11
15.13806072972667
 21
124.2262944021077
 31
0.0
  0
LINE
  5
1651
330
1F
100
AcDbEntity
  8
ﾚｲﾔ_1
  6
CONTINUOUS
 62
     7
100
AcDbLine
 10
14.15706972972665
 20
122.3843744021076
 30
0.0
 11
14.15706972972665
 21
121.7916454021077
 31
0.0
  0
LINE
  5
1652
330
1F
100
AcDbEntity
  8
ﾚｲﾔ_1
  6
CONTINUOUS
 62
     7
100
AcDbLine
 10
14.15706972972665
 20
124.2262944021077
 30
0.0
 11
14.15706972972665
 21
123.6335664021076
 31
0.0
  0
LINE
  5
1653
330
1F
100
AcDbEntity
  8
ﾚｲﾔ_1
  6
CONTINUOUS
 62
     7
100
AcDbLine
 10
13.77604272972664
 20
122.8219014021076
 30
0.0
 11
13.77604272972664
 21
121.3539464021076
 31
0.0
  0
LINE
  5
1654
330
1F
100
AcDbEntity
  8
ﾚｲﾔ_1
  6
CONTINUOUS
 62
     7
100
AcDbLine
 10
15.55474472972665
 20
122.2644854021076
 30
0.0
 11
15.55474472972662
 21
120.9022944021076
 31
0.0
  0
LINE
  5
1655
330
1F
100
AcDbEntity
  8
ﾚｲﾔ_1
  6
CONTINUOUS
 62
     7
100
AcDbLine
 10
17.02270072972663
 20
120.9022944021076
 30
0.0
 11
17.02270072972666
 21
122.2644854021076
 31
0.0
  0
LINE
  5
1656
330
1F
100
AcDbEntity
  8
外枠
100
AcDbLine
 10
15.55474472972707
 20
120.9022944021079
 30
0.0
 11
15.99209972972713
 21
121.2833214021074
 31
0.0
  0
LINE
  5
1657
330
1F
100
AcDbEntity
  8
外枠
100
AcDbLine
 10
17.02270072972749
 20
120.9022944021079
 30
0.0
 11
16.58482872972709
 21
121.2833214021074
 31
0.0
  0
LINE
  5
1658
330
1F
100
AcDbEntity
  8
ﾚｲﾔ_1
  6
CONTINUOUS
 62
     7
100
AcDbLine
 10
15.55474472972662
 20
120.9022944021076
 30
0.0
 11
17.02270072972663
 21
120.9022944021076
 31
0.0
  0
LINE
  5
1659
330
1F
100
AcDbEntity
  8
ﾚｲﾔ_1
  6
CONTINUOUS
 62
     7
100
AcDbLine
 10
15.99209972972667
 20
122.2644854021076
 30
0.0
 11
15.99209972972667
 21
121.2833214021077
 31
0.0
  0
LINE
  5
165A
330
1F
100
AcDbEntity
  8
ﾚｲﾔ_1
  6
CONTINUOUS
 62
     7
100
AcDbLine
 10
16.58482872972669
 20
121.2833214021077
 30
0.0
 11
16.58482872972669
 21
122.2644854021076
 31
0.0
  0
LINE
  5
165B
330
1F
100
AcDbEntity
  8
ﾚｲﾔ_1
  6
CONTINUOUS
 62
     7
100
AcDbLine
 10
15.99209972972667
 20
121.2833214021077
 30
0.0
 11
16.58482872972669
 21
121.2833214021077
 31
0.0
  0
LINE
  5
165C
330
1F
100
AcDbEntity
  8
ﾚｲﾔ_1
  6
CONTINUOUS
 62
     7
100
AcDbLine
 10
17.30485372972671
 20
123.6547534021077
 30
0.0
 11
17.30485372972671
 21
122.2927344021076
 31
0.0
  0
LINE
  5
165D
330
1F
100
AcDbEntity
  8
ﾚｲﾔ_1
  6
CONTINUOUS
 62
     7
100
AcDbLine
 10
15.99261672972667
 20
123.6265034021077
 30
0.0
 11
16.58517372972667
 21
123.6265034021077
 31
0.0
  0
LINE
  5
165E
330
1F
100
AcDbEntity
  8
ﾚｲﾔ_1
  6
CONTINUOUS
 62
     7
100
AcDbLine
 10
16.58482872972669
 20
122.2644854021076
 30
0.0
 11
15.99209972972667
 21
122.2644854021076
 31
0.0
  0
LINE
  5
165F
330
1F
100
AcDbEntity
  8
ﾚｲﾔ_1
  6
CONTINUOUS
 62
     7
100
AcDbLine
 10
15.55474472972665
 20
123.6265034021077
 30
0.0
 11
17.02270072972666
 21
123.6265034021077
 31
0.0
  0
LINE
  5
1660
330
1F
100
AcDbEntity
  8
ﾚｲﾔ_1
  6
CONTINUOUS
 62
     7
100
AcDbLine
 10
17.02270072972666
 20
122.2644854021076
 30
0.0
 11
15.55474472972665
 21
122.2644854021076
 31
0.0
  0
LINE
  5
1661
330
1F
100
AcDbEntity
  8
外枠
100
AcDbLine
 10
20.54339772972926
 20
99.94497482593118
 30
0.0
 11
21.04339772972926
 21
99.94497482593118
 31
0.0
  0
LINE
  5
1662
330
1F
100
AcDbEntity
  8
外枠
100
AcDbLine
 10
20.54339772972926
 20
100.4449748259311
 30
0.0
 11
21.04339772972926
 21
100.4449748259311
 31
0.0
  0
LINE
  5
1663
330
1F
100
AcDbEntity
  8
外枠
100
AcDbLine
 10
21.04339772972926
 20
99.94497482593118
 30
0.0
 11
21.04339772972926
 21
100.4449748259311
 31
0.0
  0
LINE
  5
1664
330
1F
100
AcDbEntity
  8
外枠
100
AcDbLine
 10
20.70339772972912
 20
100.2850268221736
 30
0.0
 11
20.79339772972926
 21
100.2850268221736
 31
0.0
  0
LINE
  5
1665
330
1F
100
AcDbEntity
  8
外枠
100
AcDbLine
 10
20.88339772972941
 20
100.2850268221736
 30
0.0
 11
20.79339772972926
 21
100.2850268221736
 31
0.0
  0
LINE
  5
1666
330
1F
100
AcDbEntity
  8
外枠
100
AcDbLine
 10
20.70339772972912
 20
100.1049228296887
 30
0.0
 11
20.79339772972926
 21
100.1049228296887
 31
0.0
  0
LINE
  5
1667
330
1F
100
AcDbEntity
  8
外枠
100
AcDbLine
 10
20.70339772972912
 20
100.1049228296887
 30
0.0
 11
20.79339772972926
 21
100.1049228296887
 31
0.0
  0
LINE
  5
1668
330
1F
100
AcDbEntity
  8
外枠
100
AcDbLine
 10
20.88339772972941
 20
100.1049228296887
 30
0.0
 11
20.79339772972926
 21
100.1049228296887
 31
0.0
  0
LINE
  5
1669
330
1F
100
AcDbEntity
  8
外枠
100
AcDbLine
 10
20.88339772972941
 20
100.1049228296887
 30
0.0
 11
20.79339772972926
 21
100.1049228296887
 31
0.0
  0
LINE
  5
166A
330
1F
100
AcDbEntity
  8
外枠
100
AcDbLine
 10
20.70339772972912
 20
100.2850268221736
 30
0.0
 11
20.70339772972912
 21
100.1049228296887
 31
0.0
  0
LINE
  5
166B
330
1F
100
AcDbEntity
  8
外枠
100
AcDbLine
 10
20.88339772972941
 20
100.2850268221736
 30
0.0
 11
20.88339772972941
 21
100.1049228296887
 31
0.0
  0
LINE
  5
166C
330
1F
100
AcDbEntity
  8
外枠
100
AcDbLine
 10
19.04339772972926
 20
99.94497482593118
 30
0.0
 11
19.04339772972926
 21
100.4449748259311
 31
0.0
  0
LINE
  5
166D
330
1F
100
AcDbEntity
  8
外枠
100
AcDbLine
 10
18.8833977297294
 20
100.2850268221736
 30
0.0
 11
18.79339772972926
 21
100.2850268221736
 31
0.0
  0
LINE
  5
166E
330
1F
100
AcDbEntity
  8
外枠
100
AcDbLine
 10
18.70339772972911
 20
100.2850268221736
 30
0.0
 11
18.79339772972926
 21
100.2850268221736
 31
0.0
  0
LINE
  5
166F
330
1F
100
AcDbEntity
  8
外枠
100
AcDbLine
 10
18.8833977297294
 20
100.1049228296887
 30
0.0
 11
18.79339772972926
 21
100.1049228296887
 31
0.0
  0
LINE
  5
1670
330
1F
100
AcDbEntity
  8
外枠
100
AcDbLine
 10
18.8833977297294
 20
100.1049228296887
 30
0.0
 11
18.79339772972926
 21
100.1049228296887
 31
0.0
  0
LINE
  5
1671
330
1F
100
AcDbEntity
  8
外枠
100
AcDbLine
 10
18.70339772972911
 20
100.1049228296887
 30
0.0
 11
18.79339772972926
 21
100.1049228296887
 31
0.0
  0
LINE
  5
1672
330
1F
100
AcDbEntity
  8
外枠
100
AcDbLine
 10
18.70339772972911
 20
100.1049228296887
 30
0.0
 11
18.79339772972926
 21
100.1049228296887
 31
0.0
  0
LINE
  5
1673
330
1F
100
AcDbEntity
  8
外枠
100
AcDbLine
 10
18.8833977297294
 20
100.2850268221736
 30
0.0
 11
18.8833977297294
 21
100.1049228296887
 31
0.0
  0
LINE
  5
1674
330
1F
100
AcDbEntity
  8
外枠
100
AcDbLine
 10
18.70339772972911
 20
100.2850268221736
 30
0.0
 11
18.70339772972911
 21
100.1049228296887
 31
0.0
  0
LINE
  5
1675
330
1F
100
AcDbEntity
  8
外枠
100
AcDbLine
 10
18.54339772972926
 20
100.4449748259311
 30
0.0
 11
18.54339772972926
 21
99.94497482593118
 31
0.0
  0
LINE
  5
1676
330
1F
100
AcDbEntity
  8
外枠
100
AcDbLine
 10
18.54339772972926
 20
99.94497482593118
 30
0.0
 11
19.04339772972926
 21
99.94497482593118
 31
0.0
  0
LINE
  5
1677
330
1F
100
AcDbEntity
  8
外枠
100
AcDbLine
 10
18.54339772972926
 20
100.4449748259311
 30
0.0
 11
19.04339772972926
 21
100.4449748259311
 31
0.0
  0
LINE
  5
1678
330
1F
100
AcDbEntity
  8
外枠
100
AcDbLine
 10
20.54339772972926
 20
100.4449748259311
 30
0.0
 11
20.54339772972926
 21
99.94497482593118
 31
0.0
  0
LINE
  5
1679
330
1F
100
AcDbEntity
  8
外枠
100
AcDbLine
 10
20.54339772972926
 20
102.4449748259311
 30
0.0
 11
21.04339772972926
 21
102.4449748259311
 31
0.0
  0
LINE
  5
167A
330
1F
100
AcDbEntity
  8
外枠
100
AcDbLine
 10
20.54339772972926
 20
101.9449748259311
 30
0.0
 11
21.04339772972926
 21
101.9449748259311
 31
0.0
  0
LINE
  5
167B
330
1F
100
AcDbEntity
  8
外枠
100
AcDbLine
 10
20.88339772972941
 20
102.2850268221736
 30
0.0
 11
20.88339772972941
 21
102.1049228296887
 31
0.0
  0
LINE
  5
167C
330
1F
100
AcDbEntity
  8
外枠
100
AcDbLine
 10
20.88339772972941
 20
102.1049228296887
 30
0.0
 11
20.79339772972926
 21
102.1049228296887
 31
0.0
  0
LINE
  5
167D
330
1F
100
AcDbEntity
  8
外枠
100
AcDbLine
 10
20.88339772972941
 20
102.1049228296887
 30
0.0
 11
20.79339772972926
 21
102.1049228296887
 31
0.0
  0
LINE
  5
167E
330
1F
100
AcDbEntity
  8
外枠
100
AcDbLine
 10
20.88339772972941
 20
102.2850268221736
 30
0.0
 11
20.79339772972926
 21
102.2850268221736
 31
0.0
  0
LINE
  5
167F
330
1F
100
AcDbEntity
  8
外枠
100
AcDbLine
 10
20.70339772972912
 20
102.2850268221736
 30
0.0
 11
20.79339772972926
 21
102.2850268221736
 31
0.0
  0
LINE
  5
1680
330
1F
100
AcDbEntity
  8
外枠
100
AcDbLine
 10
20.70339772972912
 20
102.1049228296887
 30
0.0
 11
20.79339772972926
 21
102.1049228296887
 31
0.0
  0
LINE
  5
1681
330
1F
100
AcDbEntity
  8
外枠
100
AcDbLine
 10
20.70339772972912
 20
102.1049228296887
 30
0.0
 11
20.79339772972926
 21
102.1049228296887
 31
0.0
  0
LINE
  5
1682
330
1F
100
AcDbEntity
  8
外枠
100
AcDbLine
 10
20.70339772972912
 20
102.2850268221736
 30
0.0
 11
20.70339772972912
 21
102.1049228296887
 31
0.0
  0
LINE
  5
1683
330
1F
100
AcDbEntity
  8
外枠
100
AcDbLine
 10
21.04339772972926
 20
101.9449748259311
 30
0.0
 11
21.04339772972926
 21
102.4449748259311
 31
0.0
  0
LINE
  5
1684
330
1F
100
AcDbEntity
  8
外枠
100
AcDbLine
 10
18.70339772972911
 20
102.1049228296887
 30
0.0
 11
18.79339772972926
 21
102.1049228296887
 31
0.0
  0
LINE
  5
1685
330
1F
100
AcDbEntity
  8
外枠
100
AcDbLine
 10
18.70339772972911
 20
102.1049228296887
 30
0.0
 11
18.79339772972926
 21
102.1049228296887
 31
0.0
  0
LINE
  5
1686
330
1F
100
AcDbEntity
  8
外枠
100
AcDbLine
 10
18.70339772972911
 20
102.2850268221736
 30
0.0
 11
18.79339772972926
 21
102.2850268221736
 31
0.0
  0
LINE
  5
1687
330
1F
100
AcDbEntity
  8
外枠
100
AcDbLine
 10
18.8833977297294
 20
102.2850268221736
 30
0.0
 11
18.79339772972926
 21
102.2850268221736
 31
0.0
  0
LINE
  5
1688
330
1F
100
AcDbEntity
  8
外枠
100
AcDbLine
 10
18.8833977297294
 20
102.1049228296887
 30
0.0
 11
18.79339772972926
 21
102.1049228296887
 31
0.0
  0
LINE
  5
1689
330
1F
100
AcDbEntity
  8
外枠
100
AcDbLine
 10
18.8833977297294
 20
102.1049228296887
 30
0.0
 11
18.79339772972926
 21
102.1049228296887
 31
0.0
  0
LINE
  5
168A
330
1F
100
AcDbEntity
  8
外枠
100
AcDbLine
 10
18.8833977297294
 20
102.2850268221736
 30
0.0
 11
18.8833977297294
 21
102.1049228296887
 31
0.0
  0
LINE
  5
168B
330
1F
100
AcDbEntity
  8
外枠
100
AcDbLine
 10
19.04339772972926
 20
101.9449748259311
 30
0.0
 11
19.04339772972926
 21
102.4449748259311
 31
0.0
  0
LINE
  5
168C
330
1F
100
AcDbEntity
  8
外枠
100
AcDbLine
 10
18.70339772972911
 20
102.2850268221736
 30
0.0
 11
18.70339772972911
 21
102.1049228296887
 31
0.0
  0
LINE
  5
168D
330
1F
100
AcDbEntity
  8
外枠
100
AcDbLine
 10
18.54339772972926
 20
102.4449748259311
 30
0.0
 11
18.54339772972926
 21
101.9449748259311
 31
0.0
  0
LINE
  5
168E
330
1F
100
AcDbEntity
  8
外枠
100
AcDbLine
 10
18.54339772972926
 20
101.9449748259311
 30
0.0
 11
19.04339772972926
 21
101.9449748259311
 31
0.0
  0
LINE
  5
168F
330
1F
100
AcDbEntity
  8
外枠
100
AcDbLine
 10
18.54339772972926
 20
102.4449748259311
 30
0.0
 11
19.04339772972926
 21
102.4449748259311
 31
0.0
  0
LINE
  5
1690
330
1F
100
AcDbEntity
  8
外枠
100
AcDbLine
 10
20.54339772972926
 20
102.4449748259311
 30
0.0
 11
20.54339772972926
 21
101.9449748259311
 31
0.0
  0
LINE
  5
1691
330
1F
100
AcDbEntity
  8
外枠
100
AcDbLine
 10
20.54339772972923
 20
103.9449748259311
 30
0.0
 11
21.04339772972923
 21
103.9449748259311
 31
0.0
  0
LINE
  5
1692
330
1F
100
AcDbEntity
  8
外枠
100
AcDbLine
 10
20.54339772972923
 20
104.4449748259311
 30
0.0
 11
21.04339772972923
 21
104.4449748259311
 31
0.0
  0
LINE
  5
1693
330
1F
100
AcDbEntity
  8
外枠
100
AcDbLine
 10
20.88339772972938
 20
104.2850268221736
 30
0.0
 11
20.88339772972938
 21
104.1049228296887
 31
0.0
  0
LINE
  5
1694
330
1F
100
AcDbEntity
  8
外枠
100
AcDbLine
 10
20.88339772972938
 20
104.1049228296887
 30
0.0
 11
20.79339772972923
 21
104.1049228296887
 31
0.0
  0
LINE
  5
1695
330
1F
100
AcDbEntity
  8
外枠
100
AcDbLine
 10
20.88339772972938
 20
104.1049228296887
 30
0.0
 11
20.79339772972923
 21
104.1049228296887
 31
0.0
  0
LINE
  5
1696
330
1F
100
AcDbEntity
  8
外枠
100
AcDbLine
 10
20.88339772972938
 20
104.2850268221736
 30
0.0
 11
20.79339772972923
 21
104.2850268221736
 31
0.0
  0
LINE
  5
1697
330
1F
100
AcDbEntity
  8
外枠
100
AcDbLine
 10
20.70339772972908
 20
104.2850268221736
 30
0.0
 11
20.79339772972923
 21
104.2850268221736
 31
0.0
  0
LINE
  5
1698
330
1F
100
AcDbEntity
  8
外枠
100
AcDbLine
 10
20.70339772972908
 20
104.1049228296887
 30
0.0
 11
20.79339772972923
 21
104.1049228296887
 31
0.0
  0
LINE
  5
1699
330
1F
100
AcDbEntity
  8
外枠
100
AcDbLine
 10
20.70339772972908
 20
104.1049228296887
 30
0.0
 11
20.79339772972923
 21
104.1049228296887
 31
0.0
  0
LINE
  5
169A
330
1F
100
AcDbEntity
  8
外枠
100
AcDbLine
 10
20.70339772972908
 20
104.2850268221736
 30
0.0
 11
20.70339772972908
 21
104.1049228296887
 31
0.0
  0
LINE
  5
169B
330
1F
100
AcDbEntity
  8
外枠
100
AcDbLine
 10
21.04339772972923
 20
103.9449748259311
 30
0.0
 11
21.04339772972923
 21
104.4449748259311
 31
0.0
  0
LINE
  5
169C
330
1F
100
AcDbEntity
  8
外枠
100
AcDbLine
 10
19.04339772972923
 20
103.9449748259311
 30
0.0
 11
19.04339772972923
 21
104.4449748259311
 31
0.0
  0
LINE
  5
169D
330
1F
100
AcDbEntity
  8
外枠
100
AcDbLine
 10
18.70339772972909
 20
104.2850268221736
 30
0.0
 11
18.70339772972909
 21
104.1049228296887
 31
0.0
  0
LINE
  5
169E
330
1F
100
AcDbEntity
  8
外枠
100
AcDbLine
 10
18.70339772972909
 20
104.1049228296887
 30
0.0
 11
18.79339772972923
 21
104.1049228296887
 31
0.0
  0
LINE
  5
169F
330
1F
100
AcDbEntity
  8
外枠
100
AcDbLine
 10
18.70339772972909
 20
104.1049228296887
 30
0.0
 11
18.79339772972923
 21
104.1049228296887
 31
0.0
  0
LINE
  5
16A0
330
1F
100
AcDbEntity
  8
外枠
100
AcDbLine
 10
18.70339772972909
 20
104.2850268221736
 30
0.0
 11
18.79339772972923
 21
104.2850268221736
 31
0.0
  0
LINE
  5
16A1
330
1F
100
AcDbEntity
  8
外枠
100
AcDbLine
 10
18.88339772972938
 20
104.2850268221736
 30
0.0
 11
18.79339772972923
 21
104.2850268221736
 31
0.0
  0
LINE
  5
16A2
330
1F
100
AcDbEntity
  8
外枠
100
AcDbLine
 10
18.88339772972938
 20
104.1049228296887
 30
0.0
 11
18.79339772972923
 21
104.1049228296887
 31
0.0
  0
LINE
  5
16A3
330
1F
100
AcDbEntity
  8
外枠
100
AcDbLine
 10
18.88339772972938
 20
104.1049228296887
 30
0.0
 11
18.79339772972923
 21
104.1049228296887
 31
0.0
  0
LINE
  5
16A4
330
1F
100
AcDbEntity
  8
外枠
100
AcDbLine
 10
18.88339772972938
 20
104.2850268221736
 30
0.0
 11
18.88339772972938
 21
104.1049228296887
 31
0.0
  0
LINE
  5
16A5
330
1F
100
AcDbEntity
  8
外枠
100
AcDbLine
 10
18.54339772972923
 20
104.4449748259311
 30
0.0
 11
18.54339772972923
 21
103.9449748259311
 31
0.0
  0
LINE
  5
16A6
330
1F
100
AcDbEntity
  8
外枠
100
AcDbLine
 10
18.54339772972923
 20
104.4449748259311
 30
0.0
 11
19.04339772972923
 21
104.4449748259311
 31
0.0
  0
LINE
  5
16A7
330
1F
100
AcDbEntity
  8
外枠
100
AcDbLine
 10
18.54339772972923
 20
103.9449748259311
 30
0.0
 11
19.04339772972923
 21
103.9449748259311
 31
0.0
  0
LINE
  5
16A8
330
1F
100
AcDbEntity
  8
外枠
100
AcDbLine
 10
20.54339772972923
 20
104.4449748259311
 30
0.0
 11
20.54339772972923
 21
103.9449748259311
 31
0.0
  0
LINE
  5
16A9
330
1F
100
AcDbEntity
  8
外枠
100
AcDbLine
 10
20.54339772972926
 20
98.44497482593119
 30
0.0
 11
21.04339772972926
 21
98.44497482593119
 31
0.0
  0
LINE
  5
16AA
330
1F
100
AcDbEntity
  8
外枠
100
AcDbLine
 10
20.88339772972941
 20
98.28502682217362
 30
0.0
 11
20.79339772972926
 21
98.28502682217362
 31
0.0
  0
LINE
  5
16AB
330
1F
100
AcDbEntity
  8
外枠
100
AcDbLine
 10
20.70339772972912
 20
98.28502682217362
 30
0.0
 11
20.79339772972926
 21
98.28502682217362
 31
0.0
  0
LINE
  5
16AC
330
1F
100
AcDbEntity
  8
外枠
100
AcDbLine
 10
20.88339772972941
 20
98.10492282968874
 30
0.0
 11
20.79339772972926
 21
98.10492282968874
 31
0.0
  0
LINE
  5
16AD
330
1F
100
AcDbEntity
  8
外枠
100
AcDbLine
 10
20.88339772972941
 20
98.10492282968874
 30
0.0
 11
20.79339772972926
 21
98.10492282968874
 31
0.0
  0
LINE
  5
16AE
330
1F
100
AcDbEntity
  8
外枠
100
AcDbLine
 10
20.70339772972912
 20
98.10492282968874
 30
0.0
 11
20.79339772972926
 21
98.10492282968874
 31
0.0
  0
LINE
  5
16AF
330
1F
100
AcDbEntity
  8
外枠
100
AcDbLine
 10
20.70339772972912
 20
98.10492282968874
 30
0.0
 11
20.79339772972926
 21
98.10492282968874
 31
0.0
  0
LINE
  5
16B0
330
1F
100
AcDbEntity
  8
外枠
100
AcDbLine
 10
20.88339772972941
 20
98.28502682217362
 30
0.0
 11
20.88339772972941
 21
98.10492282968874
 31
0.0
  0
LINE
  5
16B1
330
1F
100
AcDbEntity
  8
外枠
100
AcDbLine
 10
20.70339772972912
 20
98.28502682217362
 30
0.0
 11
20.70339772972912
 21
98.10492282968874
 31
0.0
  0
LINE
  5
16B2
330
1F
100
AcDbEntity
  8
外枠
100
AcDbLine
 10
18.70339772972911
 20
98.28502682217362
 30
0.0
 11
18.79339772972926
 21
98.28502682217362
 31
0.0
  0
LINE
  5
16B3
330
1F
100
AcDbEntity
  8
外枠
100
AcDbLine
 10
18.8833977297294
 20
98.28502682217362
 30
0.0
 11
18.79339772972926
 21
98.28502682217362
 31
0.0
  0
LINE
  5
16B4
330
1F
100
AcDbEntity
  8
外枠
100
AcDbLine
 10
18.70339772972911
 20
98.10492282968874
 30
0.0
 11
18.79339772972926
 21
98.10492282968874
 31
0.0
  0
LINE
  5
16B5
330
1F
100
AcDbEntity
  8
外枠
100
AcDbLine
 10
18.70339772972911
 20
98.10492282968874
 30
0.0
 11
18.79339772972926
 21
98.10492282968874
 31
0.0
  0
LINE
  5
16B6
330
1F
100
AcDbEntity
  8
外枠
100
AcDbLine
 10
18.8833977297294
 20
98.10492282968874
 30
0.0
 11
18.79339772972926
 21
98.10492282968874
 31
0.0
  0
LINE
  5
16B7
330
1F
100
AcDbEntity
  8
外枠
100
AcDbLine
 10
18.8833977297294
 20
98.10492282968874
 30
0.0
 11
18.79339772972926
 21
98.10492282968874
 31
0.0
  0
LINE
  5
16B8
330
1F
100
AcDbEntity
  8
外枠
100
AcDbLine
 10
18.70339772972911
 20
98.28502682217362
 30
0.0
 11
18.70339772972911
 21
98.10492282968874
 31
0.0
  0
LINE
  5
16B9
330
1F
100
AcDbEntity
  8
外枠
100
AcDbLine
 10
18.8833977297294
 20
98.28502682217362
 30
0.0
 11
18.8833977297294
 21
98.10492282968874
 31
0.0
  0
LINE
  5
16BA
330
1F
100
AcDbEntity
  8
外枠
100
AcDbLine
 10
18.54339772972926
 20
98.44497482593119
 30
0.0
 11
19.04339772972926
 21
98.44497482593119
 31
0.0
  0
LINE
  5
16BB
330
1F
100
AcDbEntity
  8
外枠
100
AcDbLine
 10
20.54339772972926
 20
109.9449748259311
 30
0.0
 11
21.04339772972926
 21
109.9449748259311
 31
0.0
  0
LINE
  5
16BC
330
1F
100
AcDbEntity
  8
外枠
100
AcDbLine
 10
20.54339772972926
 20
110.4449748259311
 30
0.0
 11
21.04339772972926
 21
110.4449748259311
 31
0.0
  0
LINE
  5
16BD
330
1F
100
AcDbEntity
  8
外枠
100
AcDbLine
 10
20.54339772972923
 20
107.9449748259311
 30
0.0
 11
21.04339772972923
 21
107.9449748259311
 31
0.0
  0
LINE
  5
16BE
330
1F
100
AcDbEntity
  8
外枠
100
AcDbLine
 10
20.54339772972923
 20
108.4449748259311
 30
0.0
 11
21.04339772972923
 21
108.4449748259311
 31
0.0
  0
LINE
  5
16BF
330
1F
100
AcDbEntity
  8
外枠
100
AcDbLine
 10
20.88339772972938
 20
108.2850268221736
 30
0.0
 11
20.88339772972938
 21
108.1049228296887
 31
0.0
  0
LINE
  5
16C0
330
1F
100
AcDbEntity
  8
外枠
100
AcDbLine
 10
20.88339772972938
 20
108.1049228296887
 30
0.0
 11
20.79339772972923
 21
108.1049228296887
 31
0.0
  0
LINE
  5
16C1
330
1F
100
AcDbEntity
  8
外枠
100
AcDbLine
 10
20.88339772972938
 20
108.1049228296887
 30
0.0
 11
20.79339772972923
 21
108.1049228296887
 31
0.0
  0
LINE
  5
16C2
330
1F
100
AcDbEntity
  8
外枠
100
AcDbLine
 10
20.88339772972938
 20
108.2850268221736
 30
0.0
 11
20.79339772972923
 21
108.2850268221736
 31
0.0
  0
LINE
  5
16C3
330
1F
100
AcDbEntity
  8
外枠
100
AcDbLine
 10
20.70339772972908
 20
108.2850268221736
 30
0.0
 11
20.79339772972923
 21
108.2850268221736
 31
0.0
  0
LINE
  5
16C4
330
1F
100
AcDbEntity
  8
外枠
100
AcDbLine
 10
20.70339772972908
 20
108.1049228296887
 30
0.0
 11
20.79339772972923
 21
108.1049228296887
 31
0.0
  0
LINE
  5
16C5
330
1F
100
AcDbEntity
  8
外枠
100
AcDbLine
 10
20.70339772972908
 20
108.1049228296887
 30
0.0
 11
20.79339772972923
 21
108.1049228296887
 31
0.0
  0
LINE
  5
16C6
330
1F
100
AcDbEntity
  8
外枠
100
AcDbLine
 10
20.70339772972908
 20
108.2850268221736
 30
0.0
 11
20.70339772972908
 21
108.1049228296887
 31
0.0
  0
LINE
  5
16C7
330
1F
100
AcDbEntity
  8
外枠
100
AcDbLine
 10
21.04339772972923
 20
107.9449748259311
 30
0.0
 11
21.04339772972923
 21
108.4449748259311
 31
0.0
  0
LINE
  5
16C8
330
1F
100
AcDbEntity
  8
外枠
100
AcDbLine
 10
21.04339772972926
 20
109.9449748259311
 30
0.0
 11
21.04339772972926
 21
110.4449748259311
 31
0.0
  0
LINE
  5
16C9
330
1F
100
AcDbEntity
  8
外枠
100
AcDbLine
 10
20.70339772972912
 20
110.1049228296887
 30
0.0
 11
20.79339772972926
 21
110.1049228296887
 31
0.0
  0
LINE
  5
16CA
330
1F
100
AcDbEntity
  8
外枠
100
AcDbLine
 10
20.70339772972912
 20
110.1049228296887
 30
0.0
 11
20.79339772972926
 21
110.1049228296887
 31
0.0
  0
LINE
  5
16CB
330
1F
100
AcDbEntity
  8
外枠
100
AcDbLine
 10
20.88339772972941
 20
110.1049228296887
 30
0.0
 11
20.79339772972926
 21
110.1049228296887
 31
0.0
  0
LINE
  5
16CC
330
1F
100
AcDbEntity
  8
外枠
100
AcDbLine
 10
20.88339772972941
 20
110.1049228296887
 30
0.0
 11
20.79339772972926
 21
110.1049228296887
 31
0.0
  0
LINE
  5
16CD
330
1F
100
AcDbEntity
  8
外枠
100
AcDbLine
 10
20.70339772972912
 20
110.2850268221736
 30
0.0
 11
20.79339772972926
 21
110.2850268221736
 31
0.0
  0
LINE
  5
16CE
330
1F
100
AcDbEntity
  8
外枠
100
AcDbLine
 10
20.88339772972941
 20
110.2850268221736
 30
0.0
 11
20.79339772972926
 21
110.2850268221736
 31
0.0
  0
LINE
  5
16CF
330
1F
100
AcDbEntity
  8
外枠
100
AcDbLine
 10
20.70339772972912
 20
110.2850268221736
 30
0.0
 11
20.70339772972912
 21
110.1049228296887
 31
0.0
  0
LINE
  5
16D0
330
1F
100
AcDbEntity
  8
外枠
100
AcDbLine
 10
20.88339772972941
 20
110.2850268221736
 30
0.0
 11
20.88339772972941
 21
110.1049228296887
 31
0.0
  0
LINE
  5
16D1
330
1F
100
AcDbEntity
  8
外枠
100
AcDbLine
 10
19.04339772972923
 20
107.9449748259311
 30
0.0
 11
19.04339772972923
 21
108.4449748259311
 31
0.0
  0
LINE
  5
16D2
330
1F
100
AcDbEntity
  8
外枠
100
AcDbLine
 10
18.70339772972909
 20
108.2850268221736
 30
0.0
 11
18.70339772972909
 21
108.1049228296887
 31
0.0
  0
LINE
  5
16D3
330
1F
100
AcDbEntity
  8
外枠
100
AcDbLine
 10
18.70339772972909
 20
108.1049228296887
 30
0.0
 11
18.79339772972923
 21
108.1049228296887
 31
0.0
  0
LINE
  5
16D4
330
1F
100
AcDbEntity
  8
外枠
100
AcDbLine
 10
18.70339772972909
 20
108.1049228296887
 30
0.0
 11
18.79339772972923
 21
108.1049228296887
 31
0.0
  0
LINE
  5
16D5
330
1F
100
AcDbEntity
  8
外枠
100
AcDbLine
 10
18.70339772972909
 20
108.2850268221736
 30
0.0
 11
18.79339772972923
 21
108.2850268221736
 31
0.0
  0
LINE
  5
16D6
330
1F
100
AcDbEntity
  8
外枠
100
AcDbLine
 10
18.88339772972938
 20
108.2850268221736
 30
0.0
 11
18.79339772972923
 21
108.2850268221736
 31
0.0
  0
LINE
  5
16D7
330
1F
100
AcDbEntity
  8
外枠
100
AcDbLine
 10
18.88339772972938
 20
108.1049228296887
 30
0.0
 11
18.79339772972923
 21
108.1049228296887
 31
0.0
  0
LINE
  5
16D8
330
1F
100
AcDbEntity
  8
外枠
100
AcDbLine
 10
18.88339772972938
 20
108.1049228296887
 30
0.0
 11
18.79339772972923
 21
108.1049228296887
 31
0.0
  0
LINE
  5
16D9
330
1F
100
AcDbEntity
  8
外枠
100
AcDbLine
 10
18.88339772972938
 20
108.2850268221736
 30
0.0
 11
18.88339772972938
 21
108.1049228296887
 31
0.0
  0
LINE
  5
16DA
330
1F
100
AcDbEntity
  8
外枠
100
AcDbLine
 10
18.54339772972923
 20
108.4449748259311
 30
0.0
 11
18.54339772972923
 21
107.9449748259311
 31
0.0
  0
LINE
  5
16DB
330
1F
100
AcDbEntity
  8
外枠
100
AcDbLine
 10
18.54339772972923
 20
108.4449748259311
 30
0.0
 11
19.04339772972923
 21
108.4449748259311
 31
0.0
  0
LINE
  5
16DC
330
1F
100
AcDbEntity
  8
外枠
100
AcDbLine
 10
18.54339772972923
 20
107.9449748259311
 30
0.0
 11
19.04339772972923
 21
107.9449748259311
 31
0.0
  0
LINE
  5
16DD
330
1F
100
AcDbEntity
  8
外枠
100
AcDbLine
 10
20.54339772972923
 20
108.4449748259311
 30
0.0
 11
20.54339772972923
 21
107.9449748259311
 31
0.0
  0
LINE
  5
16DE
330
1F
100
AcDbEntity
  8
外枠
100
AcDbLine
 10
19.04339772972926
 20
109.9449748259311
 30
0.0
 11
19.04339772972926
 21
110.4449748259311
 31
0.0
  0
LINE
  5
16DF
330
1F
100
AcDbEntity
  8
外枠
100
AcDbLine
 10
18.54339772972926
 20
110.4449748259311
 30
0.0
 11
18.54339772972926
 21
109.9449748259311
 31
0.0
  0
LINE
  5
16E0
330
1F
100
AcDbEntity
  8
外枠
100
AcDbLine
 10
18.8833977297294
 20
110.1049228296887
 30
0.0
 11
18.79339772972926
 21
110.1049228296887
 31
0.0
  0
LINE
  5
16E1
330
1F
100
AcDbEntity
  8
外枠
100
AcDbLine
 10
18.8833977297294
 20
110.1049228296887
 30
0.0
 11
18.79339772972926
 21
110.1049228296887
 31
0.0
  0
LINE
  5
16E2
330
1F
100
AcDbEntity
  8
外枠
100
AcDbLine
 10
18.70339772972911
 20
110.1049228296887
 30
0.0
 11
18.79339772972926
 21
110.1049228296887
 31
0.0
  0
LINE
  5
16E3
330
1F
100
AcDbEntity
  8
外枠
100
AcDbLine
 10
18.70339772972911
 20
110.1049228296887
 30
0.0
 11
18.79339772972926
 21
110.1049228296887
 31
0.0
  0
LINE
  5
16E4
330
1F
100
AcDbEntity
  8
外枠
100
AcDbLine
 10
18.8833977297294
 20
110.2850268221736
 30
0.0
 11
18.79339772972926
 21
110.2850268221736
 31
0.0
  0
LINE
  5
16E5
330
1F
100
AcDbEntity
  8
外枠
100
AcDbLine
 10
18.70339772972911
 20
110.2850268221736
 30
0.0
 11
18.79339772972926
 21
110.2850268221736
 31
0.0
  0
LINE
  5
16E6
330
1F
100
AcDbEntity
  8
外枠
100
AcDbLine
 10
18.8833977297294
 20
110.2850268221736
 30
0.0
 11
18.8833977297294
 21
110.1049228296887
 31
0.0
  0
LINE
  5
16E7
330
1F
100
AcDbEntity
  8
外枠
100
AcDbLine
 10
18.70339772972911
 20
110.2850268221736
 30
0.0
 11
18.70339772972911
 21
110.1049228296887
 31
0.0
  0
LINE
  5
16E8
330
1F
100
AcDbEntity
  8
外枠
100
AcDbLine
 10
18.54339772972926
 20
109.9449748259311
 30
0.0
 11
19.04339772972926
 21
109.9449748259311
 31
0.0
  0
LINE
  5
16E9
330
1F
100
AcDbEntity
  8
外枠
100
AcDbLine
 10
18.54339772972926
 20
110.4449748259311
 30
0.0
 11
19.04339772972926
 21
110.4449748259311
 31
0.0
  0
LINE
  5
16EA
330
1F
100
AcDbEntity
  8
外枠
100
AcDbLine
 10
20.54339772972926
 20
110.4449748259311
 30
0.0
 11
20.54339772972926
 21
109.9449748259311
 31
0.0
  0
LINE
  5
16EB
330
1F
100
AcDbEntity
  8
外枠
100
AcDbLine
 10
20.54339772972923
 20
105.9449748259311
 30
0.0
 11
21.04339772972923
 21
105.9449748259311
 31
0.0
  0
LINE
  5
16EC
330
1F
100
AcDbEntity
  8
外枠
100
AcDbLine
 10
20.54339772972923
 20
106.4449748259311
 30
0.0
 11
21.04339772972923
 21
106.4449748259311
 31
0.0
  0
LINE
  5
16ED
330
1F
100
AcDbEntity
  8
外枠
100
AcDbLine
 10
21.04339772972923
 20
105.9449748259311
 30
0.0
 11
21.04339772972923
 21
106.4449748259311
 31
0.0
  0
LINE
  5
16EE
330
1F
100
AcDbEntity
  8
外枠
100
AcDbLine
 10
20.88339772972938
 20
106.2850268221736
 30
0.0
 11
20.88339772972938
 21
106.1049228296887
 31
0.0
  0
LINE
  5
16EF
330
1F
100
AcDbEntity
  8
外枠
100
AcDbLine
 10
20.88339772972938
 20
106.1049228296887
 30
0.0
 11
20.79339772972923
 21
106.1049228296887
 31
0.0
  0
LINE
  5
16F0
330
1F
100
AcDbEntity
  8
外枠
100
AcDbLine
 10
20.88339772972938
 20
106.1049228296887
 30
0.0
 11
20.79339772972923
 21
106.1049228296887
 31
0.0
  0
LINE
  5
16F1
330
1F
100
AcDbEntity
  8
外枠
100
AcDbLine
 10
20.88339772972938
 20
106.2850268221736
 30
0.0
 11
20.79339772972923
 21
106.2850268221736
 31
0.0
  0
LINE
  5
16F2
330
1F
100
AcDbEntity
  8
外枠
100
AcDbLine
 10
20.70339772972908
 20
106.2850268221736
 30
0.0
 11
20.79339772972923
 21
106.2850268221736
 31
0.0
  0
LINE
  5
16F3
330
1F
100
AcDbEntity
  8
外枠
100
AcDbLine
 10
20.70339772972908
 20
106.1049228296887
 30
0.0
 11
20.79339772972923
 21
106.1049228296887
 31
0.0
  0
LINE
  5
16F4
330
1F
100
AcDbEntity
  8
外枠
100
AcDbLine
 10
20.70339772972908
 20
106.1049228296887
 30
0.0
 11
20.79339772972923
 21
106.1049228296887
 31
0.0
  0
LINE
  5
16F5
330
1F
100
AcDbEntity
  8
外枠
100
AcDbLine
 10
20.70339772972908
 20
106.2850268221736
 30
0.0
 11
20.70339772972908
 21
106.1049228296887
 31
0.0
  0
LINE
  5
16F6
330
1F
100
AcDbEntity
  8
外枠
100
AcDbLine
 10
19.04339772972923
 20
105.9449748259311
 30
0.0
 11
19.04339772972923
 21
106.4449748259311
 31
0.0
  0
LINE
  5
16F7
330
1F
100
AcDbEntity
  8
外枠
100
AcDbLine
 10
18.54339772972923
 20
106.4449748259311
 30
0.0
 11
18.54339772972923
 21
105.9449748259311
 31
0.0
  0
LINE
  5
16F8
330
1F
100
AcDbEntity
  8
外枠
100
AcDbLine
 10
20.54339772972923
 20
106.4449748259311
 30
0.0
 11
20.54339772972923
 21
105.9449748259311
 31
0.0
  0
LINE
  5
16F9
330
1F
100
AcDbEntity
  8
外枠
100
AcDbLine
 10
18.70339772972909
 20
106.2850268221736
 30
0.0
 11
18.70339772972909
 21
106.1049228296887
 31
0.0
  0
LINE
  5
16FA
330
1F
100
AcDbEntity
  8
外枠
100
AcDbLine
 10
18.70339772972909
 20
106.1049228296887
 30
0.0
 11
18.79339772972923
 21
106.1049228296887
 31
0.0
  0
LINE
  5
16FB
330
1F
100
AcDbEntity
  8
外枠
100
AcDbLine
 10
18.70339772972909
 20
106.1049228296887
 30
0.0
 11
18.79339772972923
 21
106.1049228296887
 31
0.0
  0
LINE
  5
16FC
330
1F
100
AcDbEntity
  8
外枠
100
AcDbLine
 10
18.70339772972909
 20
106.2850268221736
 30
0.0
 11
18.79339772972923
 21
106.2850268221736
 31
0.0
  0
LINE
  5
16FD
330
1F
100
AcDbEntity
  8
外枠
100
AcDbLine
 10
18.88339772972938
 20
106.2850268221736
 30
0.0
 11
18.79339772972923
 21
106.2850268221736
 31
0.0
  0
LINE
  5
16FE
330
1F
100
AcDbEntity
  8
外枠
100
AcDbLine
 10
18.88339772972938
 20
106.1049228296887
 30
0.0
 11
18.79339772972923
 21
106.1049228296887
 31
0.0
  0
LINE
  5
16FF
330
1F
100
AcDbEntity
  8
外枠
100
AcDbLine
 10
18.88339772972938
 20
106.1049228296887
 30
0.0
 11
18.79339772972923
 21
106.1049228296887
 31
0.0
  0
LINE
  5
1700
330
1F
100
AcDbEntity
  8
外枠
100
AcDbLine
 10
18.88339772972938
 20
106.2850268221736
 30
0.0
 11
18.88339772972938
 21
106.1049228296887
 31
0.0
  0
LINE
  5
1701
330
1F
100
AcDbEntity
  8
外枠
100
AcDbLine
 10
18.54339772972923
 20
105.9449748259311
 30
0.0
 11
19.04339772972923
 21
105.9449748259311
 31
0.0
  0
LINE
  5
1702
330
1F
100
AcDbEntity
  8
外枠
100
AcDbLine
 10
18.54339772972923
 20
106.4449748259311
 30
0.0
 11
19.04339772972923
 21
106.4449748259311
 31
0.0
  0
LINE
  5
1703
330
1F
100
AcDbEntity
  8
外枠
100
AcDbLine
 10
19.04339772972926
 20
113.9449748259311
 30
0.0
 11
19.04339772972926
 21
114.4449748259311
 31
0.0
  0
LINE
  5
1704
330
1F
100
AcDbEntity
  8
外枠
100
AcDbLine
 10
18.54339772972926
 20
114.4449748259311
 30
0.0
 11
18.54339772972926
 21
113.9449748259311
 31
0.0
  0
LINE
  5
1705
330
1F
100
AcDbEntity
  8
外枠
100
AcDbLine
 10
21.04339772972926
 20
113.9449748259311
 30
0.0
 11
21.04339772972926
 21
114.4449748259311
 31
0.0
  0
LINE
  5
1706
330
1F
100
AcDbEntity
  8
外枠
100
AcDbLine
 10
20.54339772972926
 20
114.4449748259311
 30
0.0
 11
20.54339772972926
 21
113.9449748259311
 31
0.0
  0
LINE
  5
1707
330
1F
100
AcDbEntity
  8
外枠
100
AcDbLine
 10
20.54339772972926
 20
113.9449748259311
 30
0.0
 11
21.04339772972926
 21
113.9449748259311
 31
0.0
  0
LINE
  5
1708
330
1F
100
AcDbEntity
  8
外枠
100
AcDbLine
 10
18.54339772972926
 20
113.9449748259311
 30
0.0
 11
19.04339772972926
 21
113.9449748259311
 31
0.0
  0
LINE
  5
1709
330
1F
100
AcDbEntity
  8
外枠
100
AcDbLine
 10
20.54339772972926
 20
114.4449748259311
 30
0.0
 11
21.04339772972926
 21
114.4449748259311
 31
0.0
  0
LINE
  5
170A
330
1F
100
AcDbEntity
  8
外枠
100
AcDbLine
 10
20.88339772972941
 20
114.2850268221736
 30
0.0
 11
20.88339772972941
 21
114.1049228296887
 31
0.0
  0
LINE
  5
170B
330
1F
100
AcDbEntity
  8
外枠
100
AcDbLine
 10
20.88339772972941
 20
114.1049228296887
 30
0.0
 11
20.79339772972926
 21
114.1049228296887
 31
0.0
  0
LINE
  5
170C
330
1F
100
AcDbEntity
  8
外枠
100
AcDbLine
 10
20.88339772972941
 20
114.1049228296887
 30
0.0
 11
20.79339772972926
 21
114.1049228296887
 31
0.0
  0
LINE
  5
170D
330
1F
100
AcDbEntity
  8
外枠
100
AcDbLine
 10
20.88339772972941
 20
114.2850268221736
 30
0.0
 11
20.79339772972926
 21
114.2850268221736
 31
0.0
  0
LINE
  5
170E
330
1F
100
AcDbEntity
  8
外枠
100
AcDbLine
 10
20.70339772972912
 20
114.2850268221736
 30
0.0
 11
20.79339772972926
 21
114.2850268221736
 31
0.0
  0
LINE
  5
170F
330
1F
100
AcDbEntity
  8
外枠
100
AcDbLine
 10
20.70339772972912
 20
114.1049228296887
 30
0.0
 11
20.79339772972926
 21
114.1049228296887
 31
0.0
  0
LINE
  5
1710
330
1F
100
AcDbEntity
  8
外枠
100
AcDbLine
 10
20.70339772972912
 20
114.1049228296887
 30
0.0
 11
20.79339772972926
 21
114.1049228296887
 31
0.0
  0
LINE
  5
1711
330
1F
100
AcDbEntity
  8
外枠
100
AcDbLine
 10
20.70339772972912
 20
114.2850268221736
 30
0.0
 11
20.70339772972912
 21
114.1049228296887
 31
0.0
  0
LINE
  5
1712
330
1F
100
AcDbEntity
  8
外枠
100
AcDbLine
 10
18.70339772972911
 20
114.2850268221736
 30
0.0
 11
18.70339772972911
 21
114.1049228296887
 31
0.0
  0
LINE
  5
1713
330
1F
100
AcDbEntity
  8
外枠
100
AcDbLine
 10
18.70339772972911
 20
114.1049228296887
 30
0.0
 11
18.79339772972926
 21
114.1049228296887
 31
0.0
  0
LINE
  5
1714
330
1F
100
AcDbEntity
  8
外枠
100
AcDbLine
 10
18.70339772972911
 20
114.1049228296887
 30
0.0
 11
18.79339772972926
 21
114.1049228296887
 31
0.0
  0
LINE
  5
1715
330
1F
100
AcDbEntity
  8
外枠
100
AcDbLine
 10
18.70339772972911
 20
114.2850268221736
 30
0.0
 11
18.79339772972926
 21
114.2850268221736
 31
0.0
  0
LINE
  5
1716
330
1F
100
AcDbEntity
  8
外枠
100
AcDbLine
 10
18.8833977297294
 20
114.2850268221736
 30
0.0
 11
18.79339772972926
 21
114.2850268221736
 31
0.0
  0
LINE
  5
1717
330
1F
100
AcDbEntity
  8
外枠
100
AcDbLine
 10
18.8833977297294
 20
114.1049228296887
 30
0.0
 11
18.79339772972926
 21
114.1049228296887
 31
0.0
  0
LINE
  5
1718
330
1F
100
AcDbEntity
  8
外枠
100
AcDbLine
 10
18.8833977297294
 20
114.1049228296887
 30
0.0
 11
18.79339772972926
 21
114.1049228296887
 31
0.0
  0
LINE
  5
1719
330
1F
100
AcDbEntity
  8
外枠
100
AcDbLine
 10
18.8833977297294
 20
114.2850268221736
 30
0.0
 11
18.8833977297294
 21
114.1049228296887
 31
0.0
  0
LINE
  5
171A
330
1F
100
AcDbEntity
  8
外枠
100
AcDbLine
 10
18.54339772972926
 20
114.4449748259311
 30
0.0
 11
19.04339772972926
 21
114.4449748259311
 31
0.0
  0
LINE
  5
171B
330
1F
100
AcDbEntity
  8
外枠
100
AcDbLine
 10
20.54339772972926
 20
111.9449748259311
 30
0.0
 11
21.04339772972926
 21
111.9449748259311
 31
0.0
  0
LINE
  5
171C
330
1F
100
AcDbEntity
  8
外枠
100
AcDbLine
 10
20.54339772972926
 20
112.4449748259311
 30
0.0
 11
21.04339772972926
 21
112.4449748259311
 31
0.0
  0
LINE
  5
171D
330
1F
100
AcDbEntity
  8
外枠
100
AcDbLine
 10
21.04339772972926
 20
111.9449748259311
 30
0.0
 11
21.04339772972926
 21
112.4449748259311
 31
0.0
  0
LINE
  5
171E
330
1F
100
AcDbEntity
  8
外枠
100
AcDbLine
 10
20.70339772972912
 20
112.1049228296887
 30
0.0
 11
20.79339772972926
 21
112.1049228296887
 31
0.0
  0
LINE
  5
171F
330
1F
100
AcDbEntity
  8
外枠
100
AcDbLine
 10
20.70339772972912
 20
112.1049228296887
 30
0.0
 11
20.79339772972926
 21
112.1049228296887
 31
0.0
  0
LINE
  5
1720
330
1F
100
AcDbEntity
  8
外枠
100
AcDbLine
 10
20.88339772972941
 20
112.1049228296887
 30
0.0
 11
20.79339772972926
 21
112.1049228296887
 31
0.0
  0
LINE
  5
1721
330
1F
100
AcDbEntity
  8
外枠
100
AcDbLine
 10
20.88339772972941
 20
112.1049228296887
 30
0.0
 11
20.79339772972926
 21
112.1049228296887
 31
0.0
  0
LINE
  5
1722
330
1F
100
AcDbEntity
  8
外枠
100
AcDbLine
 10
20.70339772972912
 20
112.2850268221736
 30
0.0
 11
20.79339772972926
 21
112.2850268221736
 31
0.0
  0
LINE
  5
1723
330
1F
100
AcDbEntity
  8
外枠
100
AcDbLine
 10
20.88339772972941
 20
112.2850268221736
 30
0.0
 11
20.79339772972926
 21
112.2850268221736
 31
0.0
  0
LINE
  5
1724
330
1F
100
AcDbEntity
  8
外枠
100
AcDbLine
 10
20.70339772972912
 20
112.2850268221736
 30
0.0
 11
20.70339772972912
 21
112.1049228296887
 31
0.0
  0
LINE
  5
1725
330
1F
100
AcDbEntity
  8
外枠
100
AcDbLine
 10
20.88339772972941
 20
112.2850268221736
 30
0.0
 11
20.88339772972941
 21
112.1049228296887
 31
0.0
  0
LINE
  5
1726
330
1F
100
AcDbEntity
  8
外枠
100
AcDbLine
 10
19.04339772972926
 20
111.9449748259311
 30
0.0
 11
19.04339772972926
 21
112.4449748259311
 31
0.0
  0
LINE
  5
1727
330
1F
100
AcDbEntity
  8
外枠
100
AcDbLine
 10
18.54339772972926
 20
112.4449748259311
 30
0.0
 11
18.54339772972926
 21
111.9449748259311
 31
0.0
  0
LINE
  5
1728
330
1F
100
AcDbEntity
  8
外枠
100
AcDbLine
 10
18.8833977297294
 20
112.1049228296887
 30
0.0
 11
18.79339772972926
 21
112.1049228296887
 31
0.0
  0
LINE
  5
1729
330
1F
100
AcDbEntity
  8
外枠
100
AcDbLine
 10
18.8833977297294
 20
112.1049228296887
 30
0.0
 11
18.79339772972926
 21
112.1049228296887
 31
0.0
  0
LINE
  5
172A
330
1F
100
AcDbEntity
  8
外枠
100
AcDbLine
 10
18.70339772972911
 20
112.1049228296887
 30
0.0
 11
18.79339772972926
 21
112.1049228296887
 31
0.0
  0
LINE
  5
172B
330
1F
100
AcDbEntity
  8
外枠
100
AcDbLine
 10
18.70339772972911
 20
112.1049228296887
 30
0.0
 11
18.79339772972926
 21
112.1049228296887
 31
0.0
  0
LINE
  5
172C
330
1F
100
AcDbEntity
  8
外枠
100
AcDbLine
 10
18.8833977297294
 20
112.2850268221736
 30
0.0
 11
18.79339772972926
 21
112.2850268221736
 31
0.0
  0
LINE
  5
172D
330
1F
100
AcDbEntity
  8
外枠
100
AcDbLine
 10
18.70339772972911
 20
112.2850268221736
 30
0.0
 11
18.79339772972926
 21
112.2850268221736
 31
0.0
  0
LINE
  5
172E
330
1F
100
AcDbEntity
  8
外枠
100
AcDbLine
 10
18.8833977297294
 20
112.2850268221736
 30
0.0
 11
18.8833977297294
 21
112.1049228296887
 31
0.0
  0
LINE
  5
172F
330
1F
100
AcDbEntity
  8
外枠
100
AcDbLine
 10
18.70339772972911
 20
112.2850268221736
 30
0.0
 11
18.70339772972911
 21
112.1049228296887
 31
0.0
  0
LINE
  5
1730
330
1F
100
AcDbEntity
  8
外枠
100
AcDbLine
 10
18.54339772972926
 20
111.9449748259311
 30
0.0
 11
19.04339772972926
 21
111.9449748259311
 31
0.0
  0
LINE
  5
1731
330
1F
100
AcDbEntity
  8
外枠
100
AcDbLine
 10
18.54339772972926
 20
112.4449748259311
 30
0.0
 11
19.04339772972926
 21
112.4449748259311
 31
0.0
  0
LINE
  5
1732
330
1F
100
AcDbEntity
  8
外枠
100
AcDbLine
 10
20.54339772972926
 20
112.4449748259311
 30
0.0
 11
20.54339772972926
 21
111.9449748259311
 31
0.0
  0
LINE
  5
1733
330
1F
100
AcDbEntity
  8
ﾚｲﾔ_1
  6
CONTINUOUS
 62
     7
100
AcDbLine
 10
18.3349377297267
 20
124.1203584021077
 30
0.0
 11
17.7423807297267
 21
124.1203584021077
 31
0.0
  0
LINE
  5
1734
330
1F
100
AcDbEntity
  8
ﾚｲﾔ_1
  6
CONTINUOUS
 62
     7
100
AcDbLine
 10
18.77280872972667
 20
122.2927344021076
 30
0.0
 11
18.77280872972667
 21
123.6547534021077
 31
0.0
  0
LINE
  5
1735
330
1F
100
AcDbEntity
  8
ﾚｲﾔ_1
  6
CONTINUOUS
 62
     7
100
AcDbLine
 10
17.7423807297267
 20
122.6735904021077
 30
0.0
 11
18.3349377297267
 21
122.6735904021077
 31
0.0
  0
LINE
  5
1736
330
1F
100
AcDbEntity
  8
ﾚｲﾔ_1
  6
CONTINUOUS
 62
     7
100
AcDbLine
 10
17.7423807297267
 20
123.6547534021077
 30
0.0
 11
17.7423807297267
 21
122.6735904021077
 31
0.0
  0
LINE
  5
1737
330
1F
100
AcDbEntity
  8
ﾚｲﾔ_1
  6
CONTINUOUS
 62
     7
100
AcDbLine
 10
18.3349377297267
 20
123.6547534021077
 30
0.0
 11
17.7423807297267
 21
123.6547534021077
 31
0.0
  0
LINE
  5
1738
330
1F
100
AcDbEntity
  8
ﾚｲﾔ_1
  6
CONTINUOUS
 62
     7
100
AcDbLine
 10
18.3349377297267
 20
122.6735904021077
 30
0.0
 11
18.3349377297267
 21
123.6547534021077
 31
0.0
  0
LINE
  5
1739
330
1F
100
AcDbEntity
  8
外枠
100
AcDbLine
 10
18.7728087297277
 20
122.2927344021072
 30
0.0
 11
18.33493772972761
 21
122.6735904021069
 31
0.0
  0
LINE
  5
173A
330
1F
100
AcDbEntity
  8
外枠
100
AcDbLine
 10
8.815647148801701
 20
131.644974825931
 30
0.0
 11
23.21564714880171
 21
131.644974825931
 31
0.0
  0
LINE
  5
173B
330
1F
100
AcDbEntity
  8
ﾚｲﾔ_1
  6
CONTINUOUS
 62
     7
100
AcDbLine
 10
17.30485372972671
 20
125.4825484021076
 30
0.0
 11
18.77280872972667
 21
125.4825484021076
 31
0.0
  0
LINE
  5
173C
330
1F
100
AcDbEntity
  8
外枠
100
AcDbLine
 10
17.30485372972762
 20
125.4825484021065
 30
0.0
 11
17.74238072972767
 21
125.1015214021071
 31
0.0
  0
LINE
  5
173D
330
1F
100
AcDbEntity
  8
外枠
100
AcDbLine
 10
10.79339772972923
 20
131.644974825931
 30
0.0
 11
22.29339772972923
 21
131.644974825931
 31
0.0
  0
LINE
  5
173E
330
1F
100
AcDbEntity
  8
外枠
100
AcDbLine
 10
9.493397729726325
 20
130.8949748259309
 30
0.0
 11
22.29339772972741
 21
130.8949748259309
 31
0.0
  0
LINE
  5
173F
330
1F
100
AcDbEntity
  8
ﾚｲﾔ_1
  6
CONTINUOUS
 62
     7
100
AcDbLine
 10
13.15506372972672
 20
124.6283374021076
 30
0.0
 11
11.23562872972669
 21
124.6283374021077
 31
0.0
  0
LINE
  5
1740
330
1F
100
AcDbEntity
  8
ﾚｲﾔ_1
  6
CONTINUOUS
 62
     7
100
AcDbLine
 10
13.15506372972672
 20
124.6283374021076
 30
0.0
 11
11.23562872972669
 21
124.6283374021077
 31
0.0
  0
LINE
  5
1741
330
1F
100
AcDbEntity
  8
ﾚｲﾔ_1
  6
CONTINUOUS
 62
     7
100
AcDbLine
 10
13.77604272972664
 20
125.0379594021076
 30
0.0
 11
15.13806072972667
 21
125.0379594021076
 31
0.0
  0
LINE
  5
1742
330
1F
100
AcDbEntity
  8
ﾚｲﾔ_1
  6
CONTINUOUS
 62
     7
100
AcDbLine
 10
15.13806072972664
 20
126.5059144021077
 30
0.0
 11
13.77604272972661
 21
126.5059144021076
 31
0.0
  0
LINE
  5
1743
330
1F
100
AcDbEntity
  8
ﾚｲﾔ_1
  6
CONTINUOUS
 62
     7
100
AcDbLine
 10
15.13806072972667
 20
124.6636494021077
 30
0.0
 11
13.77604272972664
 21
124.6636494021077
 31
0.0
  0
LINE
  5
1744
330
1F
100
AcDbEntity
  8
外枠
100
AcDbLine
 10
13.7763867297275
 20
126.5055694021074
 30
0.0
 11
14.15741472972732
 21
126.0680424021074
 31
0.0
  0
LINE
  5
1745
330
1F
100
AcDbEntity
  8
外枠
100
AcDbLine
 10
13.77638672972753
 20
125.0379594021077
 30
0.0
 11
14.15741472972732
 21
125.4754864021078
 31
0.0
  0
LINE
  5
1746
330
1F
100
AcDbEntity
  8
ﾚｲﾔ_1
  6
CONTINUOUS
 62
     7
100
AcDbLine
 10
14.15706972972665
 20
125.4754864021076
 30
0.0
 11
15.13806072972667
 21
125.4754864021076
 31
0.0
  0
LINE
  5
1747
330
1F
100
AcDbEntity
  8
ﾚｲﾔ_1
  6
CONTINUOUS
 62
     7
100
AcDbLine
 10
15.13806072972667
 20
126.0680424021076
 30
0.0
 11
14.15706972972665
 21
126.0680424021076
 31
0.0
  0
LINE
  5
1748
330
1F
100
AcDbEntity
  8
ﾚｲﾔ_1
  6
CONTINUOUS
 62
     7
100
AcDbLine
 10
15.13806072972667
 20
125.0379594021076
 30
0.0
 11
15.13806072972664
 21
126.5059144021077
 31
0.0
  0
LINE
  5
1749
330
1F
100
AcDbEntity
  8
ﾚｲﾔ_1
  6
CONTINUOUS
 62
     7
100
AcDbLine
 10
15.13806072972667
 20
125.4754864021076
 30
0.0
 11
15.13806072972667
 21
126.0680424021076
 31
0.0
  0
LINE
  5
174A
330
1F
100
AcDbEntity
  8
ﾚｲﾔ_1
  6
CONTINUOUS
 62
     7
100
AcDbLine
 10
14.15706972972665
 20
126.0680424021076
 30
0.0
 11
14.15706972972665
 21
125.4754864021076
 31
0.0
  0
LINE
  5
174B
330
1F
100
AcDbEntity
  8
ﾚｲﾔ_1
  6
CONTINUOUS
 62
     7
100
AcDbLine
 10
13.77604272972661
 20
126.5059144021076
 30
0.0
 11
13.77604272972664
 21
125.0379594021076
 31
0.0
  0
LINE
  5
174C
330
1F
100
AcDbEntity
  8
外枠
100
AcDbLine
 10
15.5547447297271
 20
124.988522402108
 30
0.0
 11
15.99209972972713
 21
124.6071504021064
 31
0.0
  0
LINE
  5
174D
330
1F
100
AcDbEntity
  8
外枠
100
AcDbLine
 10
17.02270072972751
 20
124.988522402108
 30
0.0
 11
16.58517372972747
 21
124.6071504021064
 31
0.0
  0
LINE
  5
174E
330
1F
100
AcDbEntity
  8
ﾚｲﾔ_1
  6
CONTINUOUS
 62
     7
100
AcDbLine
 10
16.58517372972667
 20
124.6074944021076
 30
0.0
 11
15.99261672972667
 21
124.6074944021076
 31
0.0
  0
LINE
  5
174F
330
1F
100
AcDbEntity
  8
ﾚｲﾔ_1
  6
CONTINUOUS
 62
     7
100
AcDbLine
 10
15.99261672972667
 20
125.4472364021076
 30
0.0
 11
16.58517372972667
 21
125.4472364021076
 31
0.0
  0
LINE
  5
1750
330
1F
100
AcDbEntity
  8
ﾚｲﾔ_1
  6
CONTINUOUS
 62
     7
100
AcDbLine
 10
15.99261672972664
 20
126.4282274021077
 30
0.0
 11
15.99261672972667
 21
125.4472364021076
 31
0.0
  0
LINE
  5
1751
330
1F
100
AcDbEntity
  8
ﾚｲﾔ_1
  6
CONTINUOUS
 62
     7
100
AcDbLine
 10
16.58517372972664
 20
126.4282274021077
 30
0.0
 11
15.99261672972664
 21
126.4282274021077
 31
0.0
  0
LINE
  5
1752
330
1F
100
AcDbEntity
  8
ﾚｲﾔ_1
  6
CONTINUOUS
 62
     7
100
AcDbLine
 10
16.58517372972667
 20
125.4472364021076
 30
0.0
 11
16.58517372972664
 21
126.4282274021077
 31
0.0
  0
LINE
  5
1753
330
1F
100
AcDbEntity
  8
ﾚｲﾔ_1
  6
CONTINUOUS
 62
     7
100
AcDbLine
 10
15.55474472972665
 20
125.4472364021076
 30
0.0
 11
17.02270072972666
 21
125.4472364021076
 31
0.0
  0
LINE
  5
1754
330
1F
100
AcDbEntity
  8
ﾚｲﾔ_1
  6
CONTINUOUS
 62
     7
100
AcDbLine
 10
15.55474472972662
 20
126.8092554021077
 30
0.0
 11
15.55474472972665
 21
125.4472364021076
 31
0.0
  0
LINE
  5
1755
330
1F
100
AcDbEntity
  8
ﾚｲﾔ_1
  6
CONTINUOUS
 62
     7
100
AcDbLine
 10
17.02270072972663
 20
126.8092554021077
 30
0.0
 11
15.55474472972662
 21
126.8092554021077
 31
0.0
  0
LINE
  5
1756
330
1F
100
AcDbEntity
  8
ﾚｲﾔ_1
  6
CONTINUOUS
 62
     7
100
AcDbLine
 10
17.02270072972666
 20
125.4472364021076
 30
0.0
 11
17.02270072972663
 21
126.8092554021077
 31
0.0
  0
LINE
  5
1757
330
1F
100
AcDbEntity
  8
ﾚｲﾔ_1
  6
CONTINUOUS
 62
     7
100
AcDbLine
 10
17.02270072972666
 20
124.9885224021076
 30
0.0
 11
15.55474472972665
 21
124.9885224021076
 31
0.0
  0
LINE
  5
1758
330
1F
100
AcDbEntity
  8
外枠
100
AcDbLine
 10
17.02270072972749
 20
126.8092554021067
 30
0.0
 11
16.58517372972744
 21
126.4278834021069
 31
0.0
  0
LINE
  5
1759
330
1F
100
AcDbEntity
  8
外枠
100
AcDbLine
 10
15.55474472972707
 20
126.8092554021067
 30
0.0
 11
15.9920997297271
 21
126.4278834021069
 31
0.0
  0
LINE
  5
175A
330
1F
100
AcDbEntity
  8
ﾚｲﾔ_1
  6
CONTINUOUS
 62
     7
100
AcDbLine
 10
17.7423807297267
 20
125.1015214021077
 30
0.0
 11
18.3349377297267
 21
125.1015214021077
 31
0.0
  0
LINE
  5
175B
330
1F
100
AcDbEntity
  8
外枠
100
AcDbLine
 10
18.7728087297277
 20
125.4825484021065
 30
0.0
 11
18.33493772972761
 21
125.1015214021071
 31
0.0
  0
LINE
  5
175C
330
1F
100
AcDbEntity
  8
0
100
AcDbLine
 10
15.01564714880176
 20
167.1696455021468
 30
0.0
 11
20.01564714880176
 21
167.1696455021468
 31
0.0
  0
LINE
  5
175D
330
1F
100
AcDbEntity
  8
0
  6
CONTINUOUS
100
AcDbLine
 10
3.515648148802142
 20
171.9196455021469
 30
0.0
 11
31.51564614880237
 21
171.9196455021469
 31
0.0
  0
LINE
  5
175E
330
1F
100
AcDbEntity
  8
0
  6
CONTINUOUS
100
AcDbLine
 10
6.115647148802167
 20
159.3196455021474
 30
0.0
 11
28.91564714880235
 21
159.3196455021474
 31
0.0
  0
ARC
  5
175F
330
1F
100
AcDbEntity
  8
0
  6
CONTINUOUS
100
AcDbCircle
 10
17.51564714878854
 20
4508.492201502148
 30
0.0
 40
4346.596707999999
100
AcDbArc
 50
269.8222190000181
 51
270.1777809999823
  0
ARC
  5
1760
330
1F
100
AcDbEntity
  8
0
  6
CONTINUOUS
100
AcDbCircle
 10
17.51564714878849
 20
4520.579094502148
 30
0.0
 40
4358.569174999999
100
AcDbArc
 50
269.8747589999643
 51
270.125241000036
  0
LINE
  5
1761
330
1F
100
AcDbEntity
  8
0
  6
CONTINUOUS
100
AcDbLine
 10
7.191326148801778
 20
162.4193845021467
 30
0.0
 11
27.83996914880222
 21
162.4193845021467
 31
0.0
  0
LINE
  5
1762
330
1F
100
AcDbEntity
  8
0
  6
CONTINUOUS
100
AcDbLine
 10
6.015647148801804
 20
159.4196455021468
 30
0.0
 11
29.0156471488018
 21
159.4196455021469
 31
0.0
  0
CIRCLE
  5
1763
330
1F
100
AcDbEntity
  8
0
  6
CONTINUOUS
100
AcDbCircle
 10
17.51564714880176
 20
167.1696455021468
 30
0.0
 40
2.5
  0
LINE
  5
1764
330
1F
100
AcDbEntity
  8
0
  6
CONTINUOUS
100
AcDbLine
 10
2.015648148802171
 20
162.4196455021468
 30
0.0
 11
2.015648148802142
 21
170.4196455021468
 31
0.0
  0
ARC
  5
1765
330
1F
100
AcDbEntity
  8
0
  6
CONTINUOUS
100
AcDbCircle
 10
7.990616148801663
 20
163.0203295021468
 30
0.0
 40
1.0
100
AcDbArc
 50
213.9536969999895
 51
269.8747589999643
  0
LINE
  5
1766
330
1F
100
AcDbEntity
  8
0
  6
CONTINUOUS
100
AcDbLine
 10
2.015647148801804
 20
158.4412215021469
 30
0.0
 11
2.947059148801741
 21
157.0350515021468
 31
0.0
  0
LINE
  5
1767
330
1F
100
AcDbEntity
  8
0
  6
CONTINUOUS
100
AcDbLine
 10
2.015647148801804
 20
158.4412215021469
 30
0.0
 11
2.947059148801741
 21
157.0350515021468
 31
0.0
  0
ARC
  5
1768
330
1F
100
AcDbEntity
  8
0
  6
CONTINUOUS
100
AcDbCircle
 10
1.000000148801618
 20
157.4412215021468
 30
0.0
 40
1.0
100
AcDbArc
 50
90.00000000000019
 51
180.0
  0
LINE
  5
1769
330
1F
100
AcDbEntity
  8
0
  6
CONTINUOUS
100
AcDbLine
 10
1.946822148802453
 20
157.0350515021467
 30
0.0
 11
2.947059148801741
 21
157.0350515021468
 31
0.0
  0
ARC
  5
176A
330
1F
100
AcDbEntity
  8
0
  6
CONTINUOUS
100
AcDbCircle
 10
1.946822148802439
 20
156.0350515021466
 30
0.0
 40
1.0
100
AcDbArc
 50
90.00000000000019
 51
180.0
  0
ARC
  5
176B
330
1F
100
AcDbEntity
  8
0
  6
CONTINUOUS
100
AcDbCircle
 10
3.015647148801789
 20
162.4196455021467
 30
0.0
 40
1.0
100
AcDbArc
 50
90.00000000000019
 51
180.0
  0
LINE
  5
176C
330
1F
100
AcDbEntity
  8
0
  6
CONTINUOUS
100
AcDbLine
 10
2.015647148801832
 20
162.4196455021468
 30
0.0
 11
2.015647148801804
 21
158.4412215021469
 31
0.0
  0
LINE
  5
176D
330
1F
100
AcDbEntity
  8
0
  6
CONTINUOUS
100
AcDbLine
 10
2.015647148801804
 20
158.4412215021469
 30
0.0
 11
1.000000148801632
 21
158.4412215021469
 31
0.0
  0
ARC
  5
176E
330
1F
100
AcDbEntity
  8
0
  6
CONTINUOUS
100
AcDbCircle
 10
6.115647148802153
 20
158.3196455021473
 30
0.0
 40
1.0
100
AcDbArc
 50
90.00000000000019
 51
180.0
  0
ARC
  5
176F
330
1F
100
AcDbEntity
  8
0
  6
CONTINUOUS
100
AcDbCircle
 10
6.015647148801789
 20
158.4196455021467
 30
0.0
 40
1.0
100
AcDbArc
 50
90.00000000000019
 51
180.0
  0
LINE
  5
1770
330
1F
100
AcDbEntity
  8
0
  6
CONTINUOUS
100
AcDbLine
 10
6.516181148801621
 20
163.4196455021468
 30
0.0
 11
7.161126148801628
 21
162.4618065021471
 31
0.0
  0
ARC
  5
1771
330
1F
100
AcDbEntity
  8
0
  6
CONTINUOUS
100
AcDbCircle
 10
4.025647148802008
 20
160.916422502147
 30
0.0
 40
1.0
100
AcDbArc
 50
89.82221899996595
 51
180.0
  0
LINE
  5
1772
330
1F
100
AcDbEntity
  8
0
  6
CONTINUOUS
100
AcDbLine
 10
3.015647148801832
 20
163.4196455021469
 30
0.0
 11
6.516181148801621
 21
163.4196455021468
 31
0.0
  0
ARC
  5
1773
330
1F
100
AcDbEntity
  8
0
  6
CONTINUOUS
100
AcDbCircle
 10
3.5156481488021
 20
170.4196455021467
 30
0.0
 40
1.5
100
AcDbArc
 50
90.00000000000019
 51
180.0
  0
LINE
  5
1774
330
1F
100
AcDbEntity
  8
0
100
AcDbLine
 10
17.51564714880176
 20
164.6696455021467
 30
0.0
 11
17.51564714880176
 21
169.6696455021467
 31
0.0
  0
LINE
  5
1775
330
1F
100
AcDbEntity
  8
0
  6
CONTINUOUS
100
AcDbLine
 10
33.0156461488024
 20
162.4196455021469
 30
0.0
 11
33.01564614880237
 21
170.4196455021469
 31
0.0
  0
ARC
  5
1776
330
1F
100
AcDbEntity
  8
0
  6
CONTINUOUS
100
AcDbCircle
 10
27.04067914880225
 20
163.0203295021468
 30
0.0
 40
1.0
100
AcDbArc
 50
270.125241000036
 51
326.0463030000106
  0
LINE
  5
1777
330
1F
100
AcDbEntity
  8
0
  6
CONTINUOUS
100
AcDbLine
 10
28.51511314880204
 20
163.4196455021469
 30
0.0
 11
27.87016814880203
 21
162.4618065021472
 31
0.0
  0
LINE
  5
1778
330
1F
100
AcDbEntity
  8
0
  6
CONTINUOUS
100
AcDbLine
 10
23.51564714880183
 20
151.2196455021468
 30
0.0
 11
21.31564714880178
 21
151.2196455021468
 31
0.0
  0
LINE
  5
1779
330
1F
100
AcDbEntity
  8
0
  6
CONTINUOUS
100
AcDbLine
 10
23.51564714880183
 20
154.519645502147
 30
0.0
 11
21.31564714880178
 21
154.519645502147
 31
0.0
  0
LINE
  5
177A
330
1F
100
AcDbEntity
  8
0
100
AcDbLine
 10
23.21564714880165
 20
151.5196455021472
 30
0.0
 11
21.61564714880219
 21
151.5196455021472
 31
0.0
  0
LINE
  5
177B
330
1F
100
AcDbEntity
  8
0
100
AcDbLine
 10
23.51564714880183
 20
151.2196455021471
 30
0.0
 11
21.31564714880201
 21
151.2196455021471
 31
0.0
  0
LINE
  5
177C
330
1F
100
AcDbEntity
  8
0
100
AcDbLine
 10
23.51564714880183
 20
151.2196455021471
 30
0.0
 11
21.31564714880201
 21
151.2196455021471
 31
0.0
  0
LINE
  5
177D
330
1F
100
AcDbEntity
  8
0
100
AcDbLine
 10
23.21564714880165
 20
154.1196455021467
 30
0.0
 11
21.61564714880219
 21
154.1196455021467
 31
0.0
  0
LINE
  5
177E
330
1F
100
AcDbEntity
  8
0
  6
CONTINUOUS
100
AcDbLine
 10
21.31564714880178
 20
151.2196455021468
 30
0.0
 11
21.31564714880178
 21
154.519645502147
 31
0.0
  0
LINE
  5
177F
330
1F
100
AcDbEntity
  8
0
100
AcDbLine
 10
21.61564714880219
 20
151.5196455021472
 30
0.0
 11
21.61564714880219
 21
154.1196455021467
 31
0.0
  0
LINE
  5
1780
330
1F
100
AcDbEntity
  8
0
100
AcDbLine
 10
21.31564714880201
 20
151.2196455021471
 30
0.0
 11
21.31564714880201
 21
154.4196455021469
 31
0.0
  0
LINE
  5
1781
330
1F
100
AcDbEntity
  8
0
  6
CONTINUOUS
100
AcDbLine
 10
23.51564714880183
 20
154.519645502147
 30
0.0
 11
23.51564714880183
 21
151.2196455021468
 31
0.0
  0
LINE
  5
1782
330
1F
100
AcDbEntity
  8
0
100
AcDbLine
 10
23.21564714880165
 20
154.1196455021467
 30
0.0
 11
23.21564714880165
 21
151.5196455021472
 31
0.0
  0
LINE
  5
1783
330
1F
100
AcDbEntity
  8
0
100
AcDbLine
 10
23.51564714880183
 20
154.4196455021469
 30
0.0
 11
23.51564714880183
 21
151.2196455021471
 31
0.0
  0
LINE
  5
1784
330
1F
100
AcDbEntity
  8
0
  6
CONTINUOUS
100
AcDbLine
 10
33.0156471488018
 20
158.441221502147
 30
0.0
 11
32.08423514880192
 21
157.0350515021468
 31
0.0
  0
LINE
  5
1785
330
1F
100
AcDbEntity
  8
0
  6
CONTINUOUS
100
AcDbLine
 10
33.0156471488018
 20
158.441221502147
 30
0.0
 11
32.08423514880192
 21
157.0350515021468
 31
0.0
  0
ARC
  5
1786
330
1F
100
AcDbEntity
  8
0
  6
CONTINUOUS
100
AcDbCircle
 10
34.03129414880196
 20
157.4412215021469
 30
0.0
 40
1.0
100
AcDbArc
 50
0.0
 51
89.99999900000529
  0
LINE
  5
1787
330
1F
100
AcDbEntity
  8
0
  6
CONTINUOUS
100
AcDbLine
 10
33.08447214880212
 20
157.0350515021468
 30
0.0
 11
32.08423514880192
 21
157.0350515021468
 31
0.0
  0
ARC
  5
1788
330
1F
100
AcDbEntity
  8
0
  6
CONTINUOUS
100
AcDbCircle
 10
33.0844721488021
 20
156.0350515021467
 30
0.0
 40
1.0
100
AcDbArc
 50
0.0
 51
90.00000000000019
  0
LINE
  5
1789
330
1F
100
AcDbEntity
  8
0
  6
CONTINUOUS
100
AcDbLine
 10
33.0156471488018
 20
158.441221502147
 30
0.0
 11
34.03129414880197
 21
158.441221502147
 31
0.0
  0
ARC
  5
178A
330
1F
100
AcDbEntity
  8
0
  6
CONTINUOUS
100
AcDbCircle
 10
32.01564714880179
 20
162.4196455021468
 30
0.0
 40
1.0
100
AcDbArc
 50
0.0
 51
90.00000000000019
  0
LINE
  5
178B
330
1F
100
AcDbEntity
  8
0
  6
CONTINUOUS
100
AcDbLine
 10
33.01564714880183
 20
162.4196455021469
 30
0.0
 11
33.0156471488018
 21
158.441221502147
 31
0.0
  0
ARC
  5
178C
330
1F
100
AcDbEntity
  8
0
  6
CONTINUOUS
100
AcDbCircle
 10
28.91564714880233
 20
158.3196455021474
 30
0.0
 40
1.0
100
AcDbArc
 50
0.0
 51
90.00000000000019
  0
ARC
  5
178D
330
1F
100
AcDbEntity
  8
0
  6
CONTINUOUS
100
AcDbCircle
 10
29.01564714880178
 20
158.4196455021468
 30
0.0
 40
1.0
100
AcDbArc
 50
0.0
 51
90.00000000000019
  0
ARC
  5
178E
330
1F
100
AcDbEntity
  8
0
  6
CONTINUOUS
100
AcDbCircle
 10
31.00564714880248
 20
160.9164225021471
 30
0.0
 40
1.0
100
AcDbArc
 50
0.0
 51
90.17778099998229
  0
LINE
  5
178F
330
1F
100
AcDbEntity
  8
0
  6
CONTINUOUS
100
AcDbLine
 10
28.51511314880204
 20
163.4196455021469
 30
0.0
 11
32.01564714880183
 21
163.4196455021469
 31
0.0
  0
ARC
  5
1790
330
1F
100
AcDbEntity
  8
0
  6
CONTINUOUS
100
AcDbCircle
 10
31.51564614880233
 20
170.4196455021468
 30
0.0
 40
1.5
100
AcDbArc
 50
0.0
 51
90.00000000000019
  0
ARC
  5
1791
330
1F
100
AcDbEntity
  8
0
  6
CONTINUOUS
100
AcDbCircle
 10
65.1208026897457
 20
161.6681165021486
 30
0.0
 40
1.0
100
AcDbArc
 50
91.31099500000026
 51
180.0
  0
LINE
  5
1792
330
1F
100
AcDbEntity
  8
0
  6
CONTINUOUS
100
AcDbLine
 10
64.90512868974565
 20
160.1696455021478
 30
0.0
 11
64.12080268974569
 21
160.1696455021478
 31
0.0
  0
LINE
  5
1793
330
1F
100
AcDbEntity
  8
0
  6
CONTINUOUS
100
AcDbLine
 10
64.12080268974569
 20
161.6681165021486
 30
0.0
 11
64.12080268974569
 21
160.1696455021478
 31
0.0
  0
LINE
  5
1794
330
1F
100
AcDbEntity
  8
0
  6
CONTINUOUS
100
AcDbLine
 10
65.17617168974538
 20
162.6696455021478
 30
0.0
 11
65.17617168974538
 21
161.6922685021486
 31
0.0
  0
ARC
  5
1795
330
1F
100
AcDbEntity
  8
0
  6
CONTINUOUS
100
AcDbCircle
 10
66.1761716897454
 20
161.6922685021486
 30
0.0
 40
1.0
100
AcDbArc
 50
91.31099500000026
 51
180.0
  0
ARC
  5
1796
330
1F
100
AcDbEntity
  8
0
  6
CONTINUOUS
100
AcDbCircle
 10
71.27617168974577
 20
156.8076735021481
 30
0.0
 40
1.0
100
AcDbArc
 50
91.31099500000026
 51
180.0
  0
ARC
  5
1797
330
1F
100
AcDbEntity
  8
2_カバ_
  6
CONTINUOUS
 62
     7
100
AcDbCircle
 10
164.1208026897456
 20
203.1063172253606
 30
0.0
 40
100.0
100
AcDbArc
 50
187.8398270000317
 51
188.331489000008
  0
LINE
  5
1798
330
1F
100
AcDbEntity
  8
2_カバ_
  6
CONTINUOUS
 62
     7
100
AcDbLine
 10
65.17617168974538
 20
188.6163162253605
 30
0.0
 11
66.03062068974577
 21
188.6031502253607
 31
0.0
  0
ARC
  5
1799
330
1F
100
AcDbEntity
  8
0
  6
CONTINUOUS
100
AcDbCircle
 10
66.04602868974507
 20
189.6030312253605
 30
0.0
 40
1.0
100
AcDbArc
 50
187.8393999999904
 51
269.1171789999794
  0
ARC
  5
179A
330
1F
100
AcDbEntity
  8
0
  6
CONTINUOUS
100
AcDbCircle
 10
71.27617168974575
 20
187.5222012253606
 30
0.0
 40
1.0
100
AcDbArc
 50
180.0
 51
269.1171789999794
  0
LINE
  5
179B
330
1F
100
AcDbEntity
  8
0
  6
CONTINUOUS
100
AcDbLine
 10
70.27617168974575
 20
187.5222012253606
 30
0.0
 11
70.27617168974575
 21
188.5377292253605
 31
0.0
  0
ARC
  5
179C
330
1F
100
AcDbEntity
  8
0
  6
CONTINUOUS
100
AcDbCircle
 10
71.45495968974501
 20
195.0203362253604
 30
0.0
 40
2.0
100
AcDbArc
 50
184.7328559999832
 51
269.1171789999794
  0
LINE
  5
179D
330
1F
100
AcDbEntity
  8
0
  6
CONTINUOUS
100
AcDbLine
 10
77.12080268974569
 20
197.1063172253606
 30
0.0
 11
75.12080268974568
 21
197.1063172253606
 31
0.0
  0
ARC
  5
179E
330
1F
100
AcDbEntity
  8
2_カバ_
  6
CONTINUOUS
 62
     7
100
AcDbCircle
 10
164.1208026897456
 20
203.1063172253606
 30
0.0
 40
100.0
100
AcDbArc
 50
171.6685120000162
 51
172.1601739999855
  0
ARC
  5
179F
330
1F
100
AcDbEntity
  8
0
  6
CONTINUOUS
100
AcDbCircle
 10
66.04602868974507
 20
216.6096022253603
 30
0.0
 40
1.0
100
AcDbArc
 50
90.88282099996842
 51
172.1606020000356
  0
LINE
  5
17A0
330
1F
100
AcDbEntity
  8
0
  6
CONTINUOUS
100
AcDbLine
 10
75.12080268974568
 20
209.1063172253606
 30
0.0
 11
77.12080268974569
 21
209.1063172253606
 31
0.0
  0
ARC
  5
17A1
330
1F
100
AcDbEntity
  8
0
  6
CONTINUOUS
100
AcDbCircle
 10
71.45495868974558
 20
211.1922972253604
 30
0.0
 40
2.0
100
AcDbArc
 50
90.88282099996842
 51
175.2671449999835
  0
LINE
  5
17A2
330
1F
100
AcDbEntity
  8
2_カバ_
  6
CONTINUOUS
 62
     7
100
AcDbLine
 10
65.17617168974538
 20
217.5963162253609
 30
0.0
 11
66.03062068974577
 21
217.6094832253601
 31
0.0
  0
LINE
  5
17A3
330
1F
100
AcDbEntity
  8
0
  6
CONTINUOUS
100
AcDbLine
 10
70.27617168974575
 20
218.6904322253602
 30
0.0
 11
70.27617168974575
 21
217.6749042253603
 31
0.0
  0
ARC
  5
17A4
330
1F
100
AcDbEntity
  8
0
  6
CONTINUOUS
100
AcDbCircle
 10
71.27617168974575
 20
218.6904322253602
 30
0.0
 40
1.0
100
AcDbArc
 50
90.88282099996842
 51
180.0
  0
LWPOLYLINE
  5
17A5
330
1F
100
AcDbEntity
  8
0
100
AcDbPolyline
 90
        4
 70
     1
 43
0.0
 10
130.7208026897451
 20
187.6061072253604
 10
130.7208026897451
 20
218.60652522536
 10
132.2208026897451
 20
218.60652522536
 10
132.2208026897451
 20
187.6061072253604
  0
LINE
  5
17A6
330
1F
100
AcDbEntity
  8
0
  6
CONTINUOUS
100
AcDbLine
 10
81.12080268974569
 20
209.1063172253606
 30
0.0
 11
81.12080268974569
 21
197.1063172253606
 31
0.0
  0
LINE
  5
17A7
330
1F
100
AcDbEntity
  8
0
  6
CONTINUOUS
100
AcDbLine
 10
101.1208026897456
 20
209.1063162253602
 30
0.0
 11
101.1208026897456
 21
197.1063172253606
 31
0.0
  0
LINE
  5
17A8
330
1F
100
AcDbEntity
  8
0
  6
CONTINUOUS
100
AcDbLine
 10
103.1208026897456
 20
197.1063172253606
 30
0.0
 11
103.1208026897456
 21
209.1063162253602
 31
0.0
  0
LINE
  5
17A9
330
1F
100
AcDbEntity
  8
0
  6
CONTINUOUS
100
AcDbLine
 10
95.12080268974569
 20
197.1063172253606
 30
0.0
 11
95.12080268974569
 21
209.1063162253602
 31
0.0
  0
LINE
  5
17AA
330
1F
100
AcDbEntity
  8
0
  6
CONTINUOUS
100
AcDbLine
 10
97.12080268974569
 20
209.1063162253602
 30
0.0
 11
97.12080268974569
 21
197.1063172253606
 31
0.0
  0
LINE
  5
17AB
330
1F
100
AcDbEntity
  8
0
  6
CONTINUOUS
100
AcDbLine
 10
85.12080268974569
 20
209.1063172253606
 30
0.0
 11
85.12080268974569
 21
197.1063172253606
 31
0.0
  0
LINE
  5
17AC
330
1F
100
AcDbEntity
  8
0
  6
CONTINUOUS
100
AcDbLine
 10
87.12080268974569
 20
197.1063172253606
 30
0.0
 11
87.12080268974569
 21
209.1063172253606
 31
0.0
  0
LINE
  5
17AD
330
1F
100
AcDbEntity
  8
0
  6
CONTINUOUS
100
AcDbLine
 10
89.12080268974568
 20
209.1063172253606
 30
0.0
 11
89.12080268974568
 21
197.1063172253606
 31
0.0
  0
LINE
  5
17AE
330
1F
100
AcDbEntity
  8
0
  6
CONTINUOUS
100
AcDbLine
 10
83.12080268974568
 20
197.1063172253606
 30
0.0
 11
83.12080268974568
 21
209.1063172253606
 31
0.0
  0
LINE
  5
17AF
330
1F
100
AcDbEntity
  8
0
  6
CONTINUOUS
100
AcDbLine
 10
99.1208026897457
 20
197.1063172253606
 30
0.0
 11
99.1208026897457
 21
209.1063162253602
 31
0.0
  0
LINE
  5
17B0
330
1F
100
AcDbEntity
  8
0
  6
CONTINUOUS
100
AcDbLine
 10
91.12080268974569
 20
197.1063172253606
 30
0.0
 11
91.12080268974569
 21
209.1063172253606
 31
0.0
  0
LINE
  5
17B1
330
1F
100
AcDbEntity
  8
0
  6
CONTINUOUS
100
AcDbLine
 10
93.12080268974568
 20
209.1063172253606
 30
0.0
 11
93.12080268974568
 21
197.1063172253606
 31
0.0
  0
LINE
  5
17B2
330
1F
100
AcDbEntity
  8
0
  6
CONTINUOUS
100
AcDbLine
 10
108.8208026897454
 20
204.2063162253606
 30
0.0
 11
108.8208026897454
 21
205.2063162253606
 31
0.0
  0
LINE
  5
17B3
330
1F
100
AcDbEntity
  8
0
  6
CONTINUOUS
100
AcDbLine
 10
106.6708026897449
 20
202.6313162253608
 30
0.0
 11
106.6708026897449
 21
206.7813162253604
 31
0.0
  0
LINE
  5
17B4
330
1F
100
AcDbEntity
  8
0
  6
CONTINUOUS
100
AcDbLine
 10
116.8208026897455
 20
204.2063162253606
 30
0.0
 11
116.8208026897455
 21
205.2063162253606
 31
0.0
  0
LINE
  5
17B5
330
1F
100
AcDbEntity
  8
0
  6
CONTINUOUS
100
AcDbLine
 10
118.9708026897451
 20
202.6313162253608
 30
0.0
 11
118.9708026897451
 21
206.7813162253604
 31
0.0
  0
LINE
  5
17B6
330
1F
100
AcDbEntity
  8
0
  6
CONTINUOUS
100
AcDbLine
 10
105.1208026897456
 20
209.1063162253602
 30
0.0
 11
105.1208026897456
 21
197.1063172253606
 31
0.0
  0
LINE
  5
17B7
330
1F
100
AcDbEntity
  8
0
  6
CONTINUOUS
100
AcDbLine
 10
121.1208026897456
 20
209.1063172253606
 30
0.0
 11
121.1208026897456
 21
197.1063172253606
 31
0.0
  0
LINE
  5
17B8
330
1F
100
AcDbEntity
  8
0
  6
CONTINUOUS
100
AcDbLine
 10
123.1208026897457
 20
197.1063172253606
 30
0.0
 11
123.1208026897457
 21
209.1063172253606
 31
0.0
  0
LINE
  5
17B9
330
1F
100
AcDbEntity
  8
0
  6
CONTINUOUS
100
AcDbLine
 10
125.1208026897456
 20
209.1063172253606
 30
0.0
 11
125.1208026897456
 21
197.1063172253606
 31
0.0
  0
LINE
  5
17BA
330
1F
100
AcDbEntity
  8
0
  6
CONTINUOUS
100
AcDbLine
 10
120.1208026897456
 20
209.1063162253602
 30
0.0
 11
120.1208026897456
 21
200.2063162253606
 31
0.0
  0
LINE
  5
17BB
330
1F
100
AcDbEntity
  8
0
  6
CONTINUOUS
100
AcDbLine
 10
130.7208026897451
 20
218.6063162253602
 30
0.0
 11
130.7208026897451
 21
187.6063162253602
 31
0.0
  0
LINE
  5
17BC
330
1F
100
AcDbEntity
  8
0
  6
CONTINUOUS
100
AcDbLine
 10
123.7208026897451
 20
116.9196455021478
 30
0.0
 11
123.7208026897451
 21
106.9196455021478
 31
0.0
  0
LINE
  5
17BD
330
1F
100
AcDbEntity
  8
0
  6
CONTINUOUS
100
AcDbLine
 10
125.8208026897455
 20
116.9196455021478
 30
0.0
 11
125.8208026897455
 21
106.9196455021478
 31
0.0
  0
LINE
  5
17BE
330
1F
100
AcDbEntity
  8
0
  6
CONTINUOUS
100
AcDbLine
 10
125.8208026897455
 20
106.9196455021478
 30
0.0
 11
123.7208026897451
 21
106.9196455021478
 31
0.0
  0
ARC
  5
17BF
330
1F
100
AcDbEntity
  8
0
  6
CONTINUOUS
100
AcDbCircle
 10
126.2333026897449
 20
108.4196455021478
 30
0.0
 40
0.8125
100
AcDbArc
 50
120.5102370000203
 51
239.4897629999796
  0
LINE
  5
17C0
330
1F
100
AcDbEntity
  8
0
  6
CONTINUOUS
100
AcDbLine
 10
123.7208026897451
 20
116.9196455021478
 30
0.0
 11
125.8208026897455
 21
116.9196455021478
 31
0.0
  0
ARC
  5
17C1
330
1F
100
AcDbEntity
  8
0
  6
CONTINUOUS
100
AcDbCircle
 10
126.2333026897449
 20
115.4196455021478
 30
0.0
 40
0.8125
100
AcDbArc
 50
120.5102370000203
 51
239.4897629999796
  0
LINE
  5
17C2
330
1F
100
AcDbEntity
  8
0
  6
CONTINUOUS
100
AcDbLine
 10
121.1208026897456
 20
197.1063172253606
 30
0.0
 11
119.1208026897456
 21
197.1063172253606
 31
0.0
  0
LINE
  5
17C3
330
1F
100
AcDbEntity
  8
0
  6
CONTINUOUS
100
AcDbLine
 10
101.1208026897456
 20
197.1063172253606
 30
0.0
 11
99.1208026897457
 21
197.1063172253606
 31
0.0
  0
LINE
  5
17C4
330
1F
100
AcDbEntity
  8
0
  6
CONTINUOUS
100
AcDbLine
 10
85.12080268974569
 20
197.1063172253606
 30
0.0
 11
83.12080268974568
 21
197.1063172253606
 31
0.0
  0
LINE
  5
17C5
330
1F
100
AcDbEntity
  8
0
  6
CONTINUOUS
100
AcDbLine
 10
89.12080268974568
 20
197.1063172253606
 30
0.0
 11
87.12080268974569
 21
197.1063172253606
 31
0.0
  0
LINE
  5
17C6
330
1F
100
AcDbEntity
  8
0
  6
CONTINUOUS
100
AcDbLine
 10
93.12080268974568
 20
197.1063172253606
 30
0.0
 11
91.12080268974569
 21
197.1063172253606
 31
0.0
  0
LINE
  5
17C7
330
1F
100
AcDbEntity
  8
0
  6
CONTINUOUS
100
AcDbLine
 10
97.12080268974569
 20
197.1063172253606
 30
0.0
 11
95.12080268974569
 21
197.1063172253606
 31
0.0
  0
LINE
  5
17C8
330
1F
100
AcDbEntity
  8
0
  6
CONTINUOUS
100
AcDbLine
 10
109.3208026897455
 20
203.7063162253606
 30
0.0
 11
116.3208026897455
 21
203.7063162253606
 31
0.0
  0
LINE
  5
17C9
330
1F
100
AcDbEntity
  8
0
  6
CONTINUOUS
100
AcDbLine
 10
107.9208026897449
 20
202.0063162253608
 30
0.0
 11
117.7208026897451
 21
202.0063162253608
 31
0.0
  0
LINE
  5
17CA
330
1F
100
AcDbEntity
  8
0
  6
CONTINUOUS
100
AcDbLine
 10
109.1208026897456
 20
197.1063172253606
 30
0.0
 11
109.1208026897456
 21
200.2063162253606
 31
0.0
  0
LINE
  5
17CB
330
1F
100
AcDbEntity
  8
0
  6
CONTINUOUS
100
AcDbLine
 10
107.1208026897456
 20
197.1063172253606
 30
0.0
 11
107.1208026897456
 21
200.2063162253606
 31
0.0
  0
LINE
  5
17CC
330
1F
100
AcDbEntity
  8
0
  6
CONTINUOUS
100
AcDbLine
 10
105.1208026897456
 20
197.1063172253606
 30
0.0
 11
103.1208026897456
 21
197.1063172253606
 31
0.0
  0
LINE
  5
17CD
330
1F
100
AcDbEntity
  8
0
  6
CONTINUOUS
100
AcDbLine
 10
107.1208026897456
 20
197.1063172253606
 30
0.0
 11
109.1208026897456
 21
197.1063172253606
 31
0.0
  0
ARC
  5
17CE
330
1F
100
AcDbEntity
  8
0
  6
CONTINUOUS
100
AcDbCircle
 10
109.3208026897455
 20
204.2063162253606
 30
0.0
 40
0.5
100
AcDbArc
 50
180.0
 51
270.0
  0
LINE
  5
17CF
330
1F
100
AcDbEntity
  8
0
  6
CONTINUOUS
100
AcDbLine
 10
106.6708026897449
 20
202.6313162253608
 30
0.0
 11
107.9208026897449
 21
202.6313162253608
 31
0.0
  0
LINE
  5
17D0
330
1F
100
AcDbEntity
  8
0
  6
CONTINUOUS
100
AcDbLine
 10
107.9208026897449
 20
202.0063162253608
 30
0.0
 11
107.9208026897449
 21
202.6313162253608
 31
0.0
  0
LINE
  5
17D1
330
1F
100
AcDbEntity
  8
0
  6
CONTINUOUS
100
AcDbLine
 10
107.1208026897456
 20
200.2063162253606
 30
0.0
 11
109.1208026897456
 21
200.2063162253606
 31
0.0
  0
LINE
  5
17D2
330
1F
100
AcDbEntity
  8
0
  6
CONTINUOUS
100
AcDbLine
 10
111.1208026897456
 20
197.1063172253606
 30
0.0
 11
111.1208026897456
 21
200.2063162253606
 31
0.0
  0
LINE
  5
17D3
330
1F
100
AcDbEntity
  8
0
  6
CONTINUOUS
100
AcDbLine
 10
113.1208026897456
 20
197.1063172253606
 30
0.0
 11
113.1208026897456
 21
200.2063162253606
 31
0.0
  0
LINE
  5
17D4
330
1F
100
AcDbEntity
  8
0
  6
CONTINUOUS
100
AcDbLine
 10
115.1208026897456
 20
197.1063172253606
 30
0.0
 11
115.1208026897456
 21
200.2063162253606
 31
0.0
  0
LINE
  5
17D5
330
1F
100
AcDbEntity
  8
0
  6
CONTINUOUS
100
AcDbLine
 10
119.1208026897456
 20
197.1063172253606
 30
0.0
 11
119.1208026897456
 21
200.2063162253606
 31
0.0
  0
LINE
  5
17D6
330
1F
100
AcDbEntity
  8
0
  6
CONTINUOUS
100
AcDbLine
 10
117.1208026897456
 20
197.1063172253606
 30
0.0
 11
117.1208026897456
 21
200.2063162253606
 31
0.0
  0
LINE
  5
17D7
330
1F
100
AcDbEntity
  8
0
  6
CONTINUOUS
100
AcDbLine
 10
115.1208026897456
 20
197.1063172253606
 30
0.0
 11
117.1208026897456
 21
197.1063172253606
 31
0.0
  0
LINE
  5
17D8
330
1F
100
AcDbEntity
  8
0
  6
CONTINUOUS
100
AcDbLine
 10
111.1208026897456
 20
197.1063172253606
 30
0.0
 11
113.1208026897456
 21
197.1063172253606
 31
0.0
  0
LINE
  5
17D9
330
1F
100
AcDbEntity
  8
0
  6
CONTINUOUS
100
AcDbLine
 10
115.1208026897456
 20
200.2063162253606
 30
0.0
 11
117.1208026897456
 21
200.2063162253606
 31
0.0
  0
LINE
  5
17DA
330
1F
100
AcDbEntity
  8
0
  6
CONTINUOUS
100
AcDbLine
 10
112.2208026897451
 20
202.0063162253608
 30
0.0
 11
112.2208026897451
 21
203.7063162253606
 31
0.0
  0
LINE
  5
17DB
330
1F
100
AcDbEntity
  8
0
  6
CONTINUOUS
100
AcDbLine
 10
113.4208026897449
 20
202.0063162253608
 30
0.0
 11
113.4208026897449
 21
203.7063162253606
 31
0.0
  0
LINE
  5
17DC
330
1F
100
AcDbEntity
  8
0
  6
CONTINUOUS
100
AcDbLine
 10
111.1208026897456
 20
200.2063162253606
 30
0.0
 11
113.1208026897456
 21
200.2063162253606
 31
0.0
  0
LINE
  5
17DD
330
1F
100
AcDbEntity
  8
0
  6
CONTINUOUS
100
AcDbLine
 10
117.7208026897451
 20
202.0063162253608
 30
0.0
 11
117.7208026897451
 21
202.6313162253608
 31
0.0
  0
LINE
  5
17DE
330
1F
100
AcDbEntity
  8
0
  6
CONTINUOUS
100
AcDbLine
 10
117.7208026897451
 20
202.6313162253608
 30
0.0
 11
118.9708026897451
 21
202.6313162253608
 31
0.0
  0
ARC
  5
17DF
330
1F
100
AcDbEntity
  8
0
  6
CONTINUOUS
100
AcDbCircle
 10
116.3208026897455
 20
204.2063162253606
 30
0.0
 40
0.5
100
AcDbArc
 50
270.0
 51
0.0
  0
LINE
  5
17E0
330
1F
100
AcDbEntity
  8
0
  6
CONTINUOUS
100
AcDbLine
 10
120.1208026897456
 20
200.2063162253606
 30
0.0
 11
119.1208026897456
 21
200.2063162253606
 31
0.0
  0
LINE
  5
17E1
330
1F
100
AcDbEntity
  8
0
100
AcDbLine
 10
130.7208026897451
 20
159.168074502148
 30
0.0
 11
130.7208026897451
 21
171.9196455021478
 31
0.0
  0
ARC
  5
17E2
330
1F
100
AcDbEntity
  8
0
  6
CONTINUOUS
100
AcDbCircle
 10
130.7208026897451
 20
158.168074502148
 30
0.0
 40
1.0
100
AcDbArc
 50
0.0
 51
91.31099500000026
  0
LINE
  5
17E3
330
1F
100
AcDbEntity
  8
0
  6
CONTINUOUS
100
AcDbLine
 10
130.7208026897451
 20
164.1696455021478
 30
0.0
 11
130.7208026897451
 21
159.1683555021486
 31
0.0
  0
LINE
  5
17E4
330
1F
100
AcDbEntity
  8
0
100
AcDbLine
 10
132.2208026897451
 20
171.9196455021478
 30
0.0
 11
130.7208026897451
 21
171.9196455021478
 31
0.0
  0
LINE
  5
17E5
330
1F
100
AcDbEntity
  8
0
  6
CONTINUOUS
100
AcDbLine
 10
131.7208026897451
 20
187.6063162253602
 30
0.0
 11
130.7208026897451
 21
187.6063162253602
 31
0.0
  0
LINE
  5
17E6
330
1F
100
AcDbEntity
  8
0
  6
CONTINUOUS
100
AcDbLine
 10
131.7208026897451
 20
187.6063162253602
 30
0.0
 11
131.7208026897451
 21
186.0984342253603
 31
0.0
  0
ARC
  5
17E7
330
1F
100
AcDbEntity
  8
0
  6
CONTINUOUS
100
AcDbCircle
 10
131.2208026897451
 20
186.0984342253603
 30
0.0
 40
0.5
100
AcDbArc
 50
269.1171789999794
 51
0.0
  0
LINE
  5
17E8
330
1F
100
AcDbEntity
  8
0
  6
CONTINUOUS
100
AcDbLine
 10
125.1208026897456
 20
197.1063172253606
 30
0.0
 11
123.1208026897457
 21
197.1063172253606
 31
0.0
  0
LINE
  5
17E9
330
1F
100
AcDbEntity
  8
0
  6
CONTINUOUS
100
AcDbLine
 10
120.1208026897456
 20
209.1063172253606
 30
0.0
 11
121.1208026897456
 21
209.1063172253606
 31
0.0
  0
LINE
  5
17EA
330
1F
100
AcDbEntity
  8
0
  6
CONTINUOUS
100
AcDbLine
 10
101.1208026897456
 20
209.1063162253602
 30
0.0
 11
99.1208026897457
 21
209.1063162253602
 31
0.0
  0
LINE
  5
17EB
330
1F
100
AcDbEntity
  8
0
  6
CONTINUOUS
100
AcDbLine
 10
83.12080268974568
 20
209.1063172253606
 30
0.0
 11
85.12080268974569
 21
209.1063172253606
 31
0.0
  0
LINE
  5
17EC
330
1F
100
AcDbEntity
  8
0
  6
CONTINUOUS
100
AcDbLine
 10
87.12080268974569
 20
209.1063172253606
 30
0.0
 11
89.12080268974568
 21
209.1063172253606
 31
0.0
  0
LINE
  5
17ED
330
1F
100
AcDbEntity
  8
0
  6
CONTINUOUS
100
AcDbLine
 10
91.12080268974569
 20
209.1063172253606
 30
0.0
 11
93.12080268974568
 21
209.1063172253606
 31
0.0
  0
LINE
  5
17EE
330
1F
100
AcDbEntity
  8
0
  6
CONTINUOUS
100
AcDbLine
 10
97.12080268974569
 20
209.1063162253602
 30
0.0
 11
95.12080268974569
 21
209.1063162253602
 31
0.0
  0
LINE
  5
17EF
330
1F
100
AcDbEntity
  8
0
  6
CONTINUOUS
100
AcDbLine
 10
107.9208026897449
 20
207.3063162253601
 30
0.0
 11
110.8208026897455
 21
207.3063162253601
 31
0.0
  0
LINE
  5
17F0
330
1F
100
AcDbEntity
  8
0
  6
CONTINUOUS
100
AcDbLine
 10
109.3208026897455
 20
205.7063162253606
 30
0.0
 11
116.3208026897455
 21
205.7063162253606
 31
0.0
  0
LINE
  5
17F1
330
1F
100
AcDbEntity
  8
0
  6
CONTINUOUS
100
AcDbLine
 10
105.1208026897456
 20
209.1063162253602
 30
0.0
 11
103.1208026897456
 21
209.1063162253602
 31
0.0
  0
ARC
  5
17F2
330
1F
100
AcDbEntity
  8
0
  6
CONTINUOUS
100
AcDbCircle
 10
109.3208026897455
 20
205.2063162253606
 30
0.0
 40
0.5
100
AcDbArc
 50
90.00000000000003
 51
180.0
  0
LINE
  5
17F3
330
1F
100
AcDbEntity
  8
0
  6
CONTINUOUS
100
AcDbLine
 10
107.9208026897449
 20
206.7813162253604
 30
0.0
 11
107.9208026897449
 21
207.3063162253601
 31
0.0
  0
LINE
  5
17F4
330
1F
100
AcDbEntity
  8
0
  6
CONTINUOUS
100
AcDbLine
 10
106.6708026897449
 20
206.7813162253604
 30
0.0
 11
107.9208026897449
 21
206.7813162253604
 31
0.0
  0
LINE
  5
17F5
330
1F
100
AcDbEntity
  8
0
  6
CONTINUOUS
100
AcDbLine
 10
114.8208026897455
 20
207.3063162253601
 30
0.0
 11
117.7208026897451
 21
207.3063162253601
 31
0.0
  0
LINE
  5
17F6
330
1F
100
AcDbEntity
  8
0
  6
CONTINUOUS
100
AcDbLine
 10
110.8208026897455
 20
209.0063162253608
 30
0.0
 11
114.8208026897455
 21
209.0063162253608
 31
0.0
  0
LINE
  5
17F7
330
1F
100
AcDbEntity
  8
0
  6
CONTINUOUS
100
AcDbLine
 10
113.4208026897449
 20
205.7063162253606
 30
0.0
 11
113.4208026897449
 21
209.0063162253608
 31
0.0
  0
LINE
  5
17F8
330
1F
100
AcDbEntity
  8
0
  6
CONTINUOUS
100
AcDbLine
 10
112.2208026897451
 20
205.7063162253606
 30
0.0
 11
112.2208026897451
 21
209.0063162253608
 31
0.0
  0
LINE
  5
17F9
330
1F
100
AcDbEntity
  8
0
  6
CONTINUOUS
100
AcDbLine
 10
114.8208026897455
 20
207.3063162253601
 30
0.0
 11
114.8208026897455
 21
209.0063162253608
 31
0.0
  0
LINE
  5
17FA
330
1F
100
AcDbEntity
  8
0
  6
CONTINUOUS
100
AcDbLine
 10
110.8208026897455
 20
207.3063162253601
 30
0.0
 11
110.8208026897455
 21
209.0063162253608
 31
0.0
  0
LINE
  5
17FB
330
1F
100
AcDbEntity
  8
0
  6
CONTINUOUS
100
AcDbLine
 10
117.7208026897451
 20
206.7813162253604
 30
0.0
 11
117.7208026897451
 21
207.3063162253601
 31
0.0
  0
LINE
  5
17FC
330
1F
100
AcDbEntity
  8
0
  6
CONTINUOUS
100
AcDbLine
 10
117.7208026897451
 20
206.7813162253604
 30
0.0
 11
118.9708026897451
 21
206.7813162253604
 31
0.0
  0
ARC
  5
17FD
330
1F
100
AcDbEntity
  8
0
  6
CONTINUOUS
100
AcDbCircle
 10
116.3208026897455
 20
205.2063162253606
 30
0.0
 40
0.5
100
AcDbArc
 50
0.0
 51
90.00000000000003
  0
LINE
  5
17FE
330
1F
100
AcDbEntity
  8
0
  6
CONTINUOUS
100
AcDbLine
 10
123.1208026897457
 20
209.1063172253606
 30
0.0
 11
125.1208026897456
 21
209.1063172253606
 31
0.0
  0
LINE
  5
17FF
330
1F
100
AcDbEntity
  8
0
  6
CONTINUOUS
100
AcDbLine
 10
130.7208026897451
 20
218.6063162253602
 30
0.0
 11
131.7208026897451
 21
218.6063162253602
 31
0.0
  0
LINE
  5
1800
330
1F
100
AcDbEntity
  8
0
  6
CONTINUOUS
100
AcDbLine
 10
131.7208026897451
 20
218.6063162253602
 30
0.0
 11
131.7208026897451
 21
220.1141992253604
 31
0.0
  0
ARC
  5
1801
330
1F
100
AcDbEntity
  8
0
  6
CONTINUOUS
100
AcDbCircle
 10
131.2208026897451
 20
220.1141992253604
 30
0.0
 40
0.5
100
AcDbArc
 50
0.0
 51
90.88282099996842
  0
ENDSEC
  0
SECTION
  2
OBJECTS
  0
DICTIONARY
  5
C
330
0
100
AcDbDictionary
  3
ACAD_GROUP
350
D
  3
ACAD_LAYOUT
350
1A
  3
ACAD_MLINESTYLE
350
17
  3
ACAD_PLOTSETTINGS
350
19
  3
ACAD_PLOTSTYLENAME
350
9E6
  3
ACDBHEADERROUNDTRIPXREC
350
1812
  3
ACDBVARIABLEDICTIONARY
350
180F
1001
ACAD
1000
TREAT_AS_HARD
1070
     0
  0
DICTIONARY
  5
7F
330
2
100
AcDbDictionary
  3
ACAD_LAYERSTATES
350
80
1001
ACAD
1000
TREAT_AS_HARD
1070
     1
  0
DICTIONARY
  5
9E0
330
1F
100
AcDbDictionary
  3
ACAD_LAYOUTSELFREF
350
1833
  0
DICTIONARY
  5
9DE
330
1B
100
AcDbDictionary
  3
ACAD_LAYOUTSELFREF
350
1832
  0
DICTIONARY
  5
D
102
{ACAD_REACTORS
330
C
102
}
330
C
100
AcDbDictionary
1001
ACAD
1000
TREAT_AS_HARD
1070
     0
  0
DICTIONARY
  5
1A
102
{ACAD_REACTORS
330
C
102
}
330
C
100
AcDbDictionary
1001
ACAD
1000
TREAT_AS_HARD
1070
     0
  0
DICTIONARY
  5
17
102
{ACAD_REACTORS
330
C
102
}
330
C
100
AcDbDictionary
  3
STANDARD
350
18
1001
ACAD
1000
TREAT_AS_HARD
1070
     0
  0
DICTIONARY
  5
19
102
{ACAD_REACTORS
330
C
102
}
330
C
100
AcDbDictionary
1001
ACAD
1000
TREAT_AS_HARD
1070
     0
  0
ACDBDICTIONARYWDFLT
  5
9E6
102
{ACAD_REACTORS
330
C
102
}
330
C
100
AcDbDictionary
281
     1
  3
Normal
350
9E7
100
AcDbDictionaryWithDefault
340
9E7
  0
DICTIONARY
  5
1812
102
{ACAD_REACTORS
330
C
102
}
330
C
100
AcDbDictionary
  3
CEPSNTYPE
350
181C
  3
FINGERPRINTGUID
350
181D
  3
HYPERLINKBASE
350
1815
  3
INSUNITS
350
181B
  3
LAYOUTDICT
350
1817
  3
LWETCUNION
350
181A
  3
PLOTSETDICT
350
1818
  3
PLOTSTYLNAMDICT
350
1819
  3
PSVPSCALE
350
181F
  3
PUCSBASE
350
1822
  3
PUCSORGBACK
350
1828
  3
PUCSORGBOTTOM
350
1824
  3
PUCSORGFRONT
350
1827
  3
PUCSORGLEFT
350
1825
  3
PUCSORGRIGHT
350
1826
  3
PUCSORGTOP
350
1823
  3
PUCSORTHOREF
350
1820
  3
PUCSORTHOVIEW
350
1821
  3
STYLESHEET
350
1816
  3
TSTACKALIGN
350
1813
  3
TSTACKSIZE
350
1814
  3
UCSBASE
350
182B
  3
UCSORGBACK
350
1831
  3
UCSORGBOTTOM
350
182D
  3
UCSORGFRONT
350
1830
  3
UCSORGLEFT
350
182E
  3
UCSORGRIGHT
350
182F
  3
UCSORGTOP
350
182C
  3
UCSORTHOREF
350
1829
  3
UCSORTHOVIEW
350
182A
  3
VERSIONGUID
350
181E
  0
DICTIONARY
  5
180F
102
{ACAD_REACTORS
330
C
102
}
330
C
100
AcDbDictionary
  3
DIMASSOC
350
1810
  0
DICTIONARY
  5
80
102
{ACAD_REACTORS
330
7F
102
}
330
7F
100
AcDbDictionary
1001
ACAD
1000
TREAT_AS_HARD
1070
     0
  0
XRECORD
  5
1833
102
{ACAD_REACTORS
330
9E0
102
}
330
9E0
100
AcDbXrecord
340
1F
  0
XRECORD
  5
1832
102
{ACAD_REACTORS
330
9DE
102
}
330
9DE
100
AcDbXrecord
340
1B
  0
MLINESTYLE
  5
18
102
{ACAD_REACTORS
330
17
102
}
330
17
100
AcDbMlineStyle
  2
STANDARD
 70
     0
  3

 62
   256
 51
90.0
 52
90.0
 71
     2
 49
0.5
 62
   256
  6
BYLAYER
 49
-0.5
 62
   256
  6
BYLAYER
  0
ACDBPLACEHOLDER
  5
9E7
102
{ACAD_REACTORS
330
9E6
102
}
330
9E6
100
AcDbPlaceHolder
280
     0
  0
XRECORD
  5
181C
102
{ACAD_REACTORS
330
1812
102
}
330
1812
100
AcDbXrecord
 90
        0
  0
XRECORD
  5
181D
102
{ACAD_REACTORS
330
1812
102
}
330
1812
100
AcDbXrecord
  1
{DE2C8223-AA28-41FF-A40F-1B52D2192D0B}
  0
XRECORD
  5
1815
102
{ACAD_REACTORS
330
1812
102
}
330
1812
100
AcDbXrecord
  1

  0
XRECORD
  5
181B
102
{ACAD_REACTORS
330
1812
102
}
330
1812
100
AcDbXrecord
 90
        0
  0
XRECORD
  5
1817
102
{ACAD_REACTORS
330
1812
102
}
330
1812
100
AcDbXrecord
340
1A
  0
XRECORD
  5
181A
102
{ACAD_REACTORS
330
1812
102
}
330
1812
100
AcDbXrecord
 90
    10781
  0
XRECORD
  5
1818
102
{ACAD_REACTORS
330
1812
102
}
330
1812
100
AcDbXrecord
340
19
  0
XRECORD
  5
1819
102
{ACAD_REACTORS
330
1812
102
}
330
1812
100
AcDbXrecord
340
9E6
  0
XRECORD
  5
181F
102
{ACAD_REACTORS
330
1812
102
}
330
1812
100
AcDbXrecord
 40
0.0
  0
XRECORD
  5
1822
102
{ACAD_REACTORS
330
1812
102
}
330
1812
100
AcDbXrecord
340
0
  0
XRECORD
  5
1828
102
{ACAD_REACTORS
330
1812
102
}
330
1812
100
AcDbXrecord
 10
0.0
 20
0.0
 30
0.0
  0
XRECORD
  5
1824
102
{ACAD_REACTORS
330
1812
102
}
330
1812
100
AcDbXrecord
 10
0.0
 20
0.0
 30
0.0
  0
XRECORD
  5
1827
102
{ACAD_REACTORS
330
1812
102
}
330
1812
100
AcDbXrecord
 10
0.0
 20
0.0
 30
0.0
  0
XRECORD
  5
1825
102
{ACAD_REACTORS
330
1812
102
}
330
1812
100
AcDbXrecord
 10
0.0
 20
0.0
 30
0.0
  0
XRECORD
  5
1826
102
{ACAD_REACTORS
330
1812
102
}
330
1812
100
AcDbXrecord
 10
0.0
 20
0.0
 30
0.0
  0
XRECORD
  5
1823
102
{ACAD_REACTORS
330
1812
102
}
330
1812
100
AcDbXrecord
 10
0.0
 20
0.0
 30
0.0
  0
XRECORD
  5
1820
102
{ACAD_REACTORS
330
1812
102
}
330
1812
100
AcDbXrecord
340
0
  0
XRECORD
  5
1821
102
{ACAD_REACTORS
330
1812
102
}
330
1812
100
AcDbXrecord
 70
     0
  0
XRECORD
  5
1816
102
{ACAD_REACTORS
330
1812
102
}
330
1812
100
AcDbXrecord
  1

  0
XRECORD
  5
1813
102
{ACAD_REACTORS
330
1812
102
}
330
1812
100
AcDbXrecord
 90
        1
  0
XRECORD
  5
1814
102
{ACAD_REACTORS
330
1812
102
}
330
1812
100
AcDbXrecord
 90
       70
  0
XRECORD
  5
182B
102
{ACAD_REACTORS
330
1812
102
}
330
1812
100
AcDbXrecord
340
0
  0
XRECORD
  5
1831
102
{ACAD_REACTORS
330
1812
102
}
330
1812
100
AcDbXrecord
 10
0.0
 20
0.0
 30
0.0
  0
XRECORD
  5
182D
102
{ACAD_REACTORS
330
1812
102
}
330
1812
100
AcDbXrecord
 10
0.0
 20
0.0
 30
0.0
  0
XRECORD
  5
1830
102
{ACAD_REACTORS
330
1812
102
}
330
1812
100
AcDbXrecord
 10
0.0
 20
0.0
 30
0.0
  0
XRECORD
  5
182E
102
{ACAD_REACTORS
330
1812
102
}
330
1812
100
AcDbXrecord
 10
0.0
 20
0.0
 30
0.0
  0
XRECORD
  5
182F
102
{ACAD_REACTORS
330
1812
102
}
330
1812
100
AcDbXrecord
 10
0.0
 20
0.0
 30
0.0
  0
XRECORD
  5
182C
102
{ACAD_REACTORS
330
1812
102
}
330
1812
100
AcDbXrecord
 10
0.0
 20
0.0
 30
0.0
  0
XRECORD
  5
1829
102
{ACAD_REACTORS
330
1812
102
}
330
1812
100
AcDbXrecord
340
0
  0
XRECORD
  5
182A
102
{ACAD_REACTORS
330
1812
102
}
330
1812
100
AcDbXrecord
 70
     0
  0
XRECORD
  5
181E
102
{ACAD_REACTORS
330
1812
102
}
330
1812
100
AcDbXrecord
  1
{FFC51F22-ADB3-4637-927C-C638FFE99BC9}
  0
DICTIONARYVAR
  5
1810
102
{ACAD_REACTORS
330
180F
102
}
330
180F
100
DictionaryVariables
280
     0
  1
1
  0
ENDSEC
  0
EOF
