  0
SECTION
  2
HEADER
  9
$ACADVER
  1
AC1009
  9
$INSBASE
 10
0.0
 20
0.0
 30
0.0
  9
$EXTMIN
 10
-0.0269493811620123
 20
14.484269265299639
 30
-0.0000000000000156
  9
$EXTMAX
 10
441.58173381351548
 20
178.42932004167341
 30
0.0000000000000149
  9
$LIMMIN
 10
0.0
 20
0.0
  9
$LIMMAX
 10
420.0
 20
297.0
  9
$ORTHOMODE
 70
     0
  9
$REGENMODE
 70
     1
  9
$FILLMODE
 70
     1
  9
$QTEXTMODE
 70
     0
  9
$MIRRTEXT
 70
     1
  9
$DRAGMODE
 70
     2
  9
$LTSCALE
 40
1.0
  9
$OSMODE
 70
    53
  9
$ATTMODE
 70
     1
  9
$TEXTSIZE
 40
2.5
  9
$TRACEWID
 40
1.0
  9
$TEXTSTYLE
  7
STANDARD
  9
$CLAYER
  8
0
  9
$CELTYPE
  6
BYLAYER
  9
$CECOLOR
 62
   256
  9
$DIMSCALE
 40
1.0
  9
$DIMASZ
 40
2.5
  9
$DIMEXO
 40
0.625
  9
$DIMDLI
 40
3.75
  9
$DIMRND
 40
0.0
  9
$DIMDLE
 40
0.0
  9
$DIMEXE
 40
1.25
  9
$DIMTP
 40
0.0
  9
$DIMTM
 40
0.0
  9
$DIMTXT
 40
2.5
  9
$DIMCEN
 40
2.5
  9
$DIMTSZ
 40
0.0
  9
$DIMTOL
 70
     0
  9
$DIMLIM
 70
     0
  9
$DIMTIH
 70
     0
  9
$DIMTOH
 70
     0
  9
$DIMSE1
 70
     0
  9
$DIMSE2
 70
     0
  9
$DIMTAD
 70
     1
  9
$DIMZIN
 70
     8
  9
$DIMBLK
  1

  9
$DIMASO
 70
     1
  9
$DIMSHO
 70
     1
  9
$DIMPOST
  1

  9
$DIMAPOST
  1

  9
$DIMALT
 70
     0
  9
$DIMALTD
 70
     3
  9
$DIMALTF
 40
0.03937007874016
  9
$DIMLFAC
 40
1.0
  9
$DIMTOFL
 70
     1
  9
$DIMTVP
 40
0.0
  9
$DIMTIX
 70
     0
  9
$DIMSOXD
 70
     0
  9
$DIMSAH
 70
     0
  9
$DIMBLK1
  1

  9
$DIMBLK2
  1

  9
$DIMSTYLE
  2
ISO-25
  9
$DIMCLRD
 70
     0
  9
$DIMCLRE
 70
     0
  9
$DIMCLRT
 70
     0
  9
$DIMTFAC
 40
1.0
  9
$DIMGAP
 40
0.625
  9
$LUNITS
 70
     2
  9
$LUPREC
 70
     4
  9
$SKETCHINC
 40
1.0
  9
$FILLETRAD
 40
10.0
  9
$AUNITS
 70
     0
  9
$AUPREC
 70
     0
  9
$MENU
  1
.
  9
$ELEVATION
 40
0.0
  9
$PELEVATION
 40
0.0
  9
$THICKNESS
 40
0.0
  9
$LIMCHECK
 70
     0
  9
$BLIPMODE
 70
     0
  9
$CHAMFERA
 40
10.0
  9
$CHAMFERB
 40
10.0
  9
$SKPOLY
 70
     0
  9
$TDCREATE
 40
2453949.4028372099
  9
$TDUPDATE
 40
2453949.4147151159
  9
$TDINDWG
 40
0.0064929398
  9
$TDUSRTIMER
 40
0.0064922222
  9
$USRTIMER
 70
     1
  9
$ANGBASE
 50
0.0
  9
$ANGDIR
 70
     0
  9
$PDMODE
 70
     0
  9
$PDSIZE
 40
0.0
  9
$PLINEWID
 40
0.0
  9
$COORDS
 70
     0
  9
$SPLFRAME
 70
     0
  9
$SPLINETYPE
 70
     6
  9
$SPLINESEGS
 70
     8
  9
$ATTDIA
 70
     0
  9
$ATTREQ
 70
     1
  9
$HANDLING
 70
 22529
  9
$HANDSEED
  5
257F
  9
$SURFTAB1
 70
     6
  9
$SURFTAB2
 70
     6
  9
$SURFTYPE
 70
     6
  9
$SURFU
 70
     6
  9
$SURFV
 70
     6
  9
$UCSNAME
  2

  9
$UCSORG
 10
0.0
 20
0.0
 30
0.0
  9
$UCSXDIR
 10
1.0
 20
0.0
 30
0.0
  9
$UCSYDIR
 10
0.0
 20
1.0
 30
0.0
  9
$PUCSNAME
  2

  9
$PUCSORG
 10
0.0
 20
0.0
 30
0.0
  9
$PUCSXDIR
 10
1.0
 20
0.0
 30
0.0
  9
$PUCSYDIR
 10
0.0
 20
1.0
 30
0.0
  9
$USERI1
 70
     0
  9
$USERI2
 70
     0
  9
$USERI3
 70
     0
  9
$USERI4
 70
     0
  9
$USERI5
 70
     0
  9
$USERR1
 40
0.0
  9
$USERR2
 40
0.0
  9
$USERR3
 40
0.0
  9
$USERR4
 40
0.0
  9
$USERR5
 40
0.0
  9
$WORLDVIEW
 70
     1
  9
$SHADEDGE
 70
     3
  9
$SHADEDIF
 70
    70
  9
$TILEMODE
 70
     1
  9
$MAXACTVP
 70
    64
  9
$PLIMCHECK
 70
     0
  9
$PEXTMIN
 10
1.0000000000000000E+020
 20
1.0000000000000000E+020
 30
1.0000000000000000E+020
  9
$PEXTMAX
 10
-1.0000000000000000E+020
 20
-1.0000000000000000E+020
 30
-1.0000000000000000E+020
  9
$PLIMMIN
 10
0.0
 20
0.0
  9
$PLIMMAX
 10
420.0
 20
297.0
  9
$UNITMODE
 70
     0
  9
$VISRETAIN
 70
     1
  9
$PLINEGEN
 70
     0
  9
$PSLTSCALE
 70
     1
  0
ENDSEC
  0
SECTION
  2
TABLES
  0
TABLE
  2
VPORT
 70
     2
  0
VPORT
  2
*ACTIVE
 70
     0
 10
0.0
 20
0.0
 11
1.0
 21
1.0
 12
220.77739221617659
 22
96.456794653486554
 13
0.0
 23
0.0
 14
10.0
 24
10.0
 15
10.0
 25
10.0
 16
0.0
 26
0.0
 36
1.0
 17
0.0
 27
0.0
 37
0.0
 40
258.18000584136689
 41
1.7189728958630519
 42
50.0
 43
0.0
 44
0.0
 50
0.0
 51
0.0
 71
     0
 72
   100
 73
     1
 74
     3
 75
     0
 76
     0
 77
     0
 78
     0
  0
ENDTAB
  0
TABLE
  2
LTYPE
 70
     2
  0
LTYPE
  2
CONTINUOUS
 70
     0
  3
Solid line
 72
    65
 73
     0
 40
0.0
  0
LTYPE
  2
DASHDOT
 70
     0
  3
__ . __ . __ . __ . __ . __ . __ . __ . __ . __
 72
    65
 73
     4
 40
7.5
 49
6.0
 49
-0.5
 49
0.5
 49
-0.5
  0
ENDTAB
  0
TABLE
  2
LAYER
 70
     8
  0
LAYER
  2
0
 70
     0
 62
     7
  6
CONTINUOUS
  0
LAYER
  2
寸法
 70
     0
 62
     5
  6
CONTINUOUS
  0
LAYER
  2
DEFPOINTS
 70
     0
 62
    -7
  6
CONTINUOUS
  0
LAYER
  2
LAYER1
 70
     0
 62
     7
  6
CONTINUOUS
  0
LAYER
  2
LAYER2
 70
     0
 62
     7
  6
CONTINUOUS
  0
LAYER
  2
LAYER3
 70
     0
 62
     7
  6
CONTINUOUS
  0
LAYER
  2
LAYER4
 70
     0
 62
     7
  6
CONTINUOUS
  0
LAYER
  2
LAYER5
 70
     0
 62
     7
  6
CONTINUOUS
  0
ENDTAB
  0
TABLE
  2
STYLE
 70
     1
  0
STYLE
  2
STANDARD
 70
     0
 40
0.0
 41
1.0
 50
0.0
 71
     0
 42
2.5
  3
txt
  4

  0
ENDTAB
  0
TABLE
  2
VIEW
 70
     0
  0
ENDTAB
  0
TABLE
  2
UCS
 70
     0
  0
ENDTAB
  0
TABLE
  2
APPID
 70
     1
  0
APPID
  2
ACAD
 70
     0
  0
ENDTAB
  0
TABLE
  2
DIMSTYLE
 70
     4
  0
DIMSTYLE
  2
ISO-25
 70
     0
  3

  4

  5

  6

  7

 40
1.0
 41
2.5
 42
0.625
 43
3.75
 44
1.25
 45
0.0
 46
0.0
 47
0.0
 48
0.0
140
2.5
141
2.5
142
0.0
143
0.03937007874016
144
1.0
145
0.0
146
1.0
147
0.625
 71
     0
 72
     0
 73
     0
 74
     0
 75
     0
 76
     0
 77
     1
 78
     8
170
     0
171
     3
172
     1
173
     0
174
     0
175
     0
176
     0
177
     0
178
     0
  0
DIMSTYLE
  2
STANDARD
 70
     0
  3

  4

  5

  6

  7

 40
1.0
 41
0.18
 42
0.0625
 43
0.38
 44
0.18
 45
0.0
 46
0.0
 47
0.0
 48
0.0
140
0.18
141
0.09
142
0.0
143
25.399999999999999
144
1.0
145
0.0
146
1.0
147
0.09
 71
     0
 72
     0
 73
     1
 74
     1
 75
     0
 76
     0
 77
     0
 78
     0
170
     0
171
     2
172
     0
173
     0
174
     0
175
     0
176
     0
177
     0
178
     0
  0
DIMSTYLE
  2
STANDARD00
 70
     0
  3

  4

  5

  6

  7

 40
0.0
 41
2.5
 42
0.625
 43
3.75
 44
1.25
 45
0.0
 46
0.0
 47
0.0
 48
0.0
140
2.5
141
2.5
142
0.0
143
0.0394
144
1.0
145
0.0
146
1.0
147
0.625
 71
     0
 72
     0
 73
     0
 74
     0
 75
     0
 76
     0
 77
     1
 78
     8
170
     0
171
     4
172
     1
173
     0
174
     0
175
     0
176
     0
177
     0
178
     0
  0
DIMSTYLE
  2
STANDARD00X2
 70
     0
  3

  4

  5

  6

  7

 40
2.0
 41
2.5
 42
0.625
 43
3.75
 44
1.25
 45
0.0
 46
0.0
 47
0.0
 48
0.0
140
2.5
141
2.5
142
0.0
143
0.0394
144
1.0
145
0.0
146
1.0
147
0.625
 71
     0
 72
     0
 73
     0
 74
     0
 75
     0
 76
     0
 77
     1
 78
     8
170
     0
171
     4
172
     1
173
     0
174
     0
175
     0
176
     0
177
     0
178
     0
  0
ENDTAB
  0
ENDSEC
  0
SECTION
  2
BLOCKS
  0
BLOCK
  8
0
  2
$MODEL_SPACE
 70
     0
 10
0.0
 20
0.0
 30
0.0
  3
$MODEL_SPACE
  1

  0
ENDBLK
  5
1B48
  8
0
  0
BLOCK
 67
     1
  8
0
  2
$PAPER_SPACE
 70
     0
 10
0.0
 20
0.0
 30
0.0
  3
$PAPER_SPACE
  1

  0
ENDBLK
  5
1B44
 67
     1
  8
0
  0
BLOCK
  8
0
  2
*D2
 70
     1
 10
0.0
 20
0.0
 30
0.0
  3
*D2
  1

  0
LINE
  5
1B60
  8
寸法
  6
CONTINUOUS
 62
     0
 10
218.0326313241562
 20
241.45163960284901
 30
0.0
 11
218.0326313241562
 21
263.1722785096627
 31
0.0
  0
LINE
  5
1B61
  8
寸法
  6
CONTINUOUS
 62
     0
 10
261.03263132415611
 20
241.34690977057559
 30
0.0
 11
261.03263132415611
 21
263.1722785096627
 31
0.0
  0
LINE
  5
1B62
  8
寸法
  6
CONTINUOUS
 62
     0
 10
223.03263132415611
 20
260.6722785096627
 30
0.0
 11
256.03263132415611
 21
260.6722785096627
 31
0.0
  0
SOLID
  5
1B63
  8
寸法
  6
CONTINUOUS
 62
     0
 10
223.03263132415611
 20
261.5056118429959
 30
0.0
 11
223.03263132415611
 21
259.83894517632922
 31
0.0
 12
218.0326313241562
 22
260.6722785096627
 32
0.0
 13
218.0326313241562
 23
260.6722785096627
 33
0.0
  0
SOLID
  5
1B64
  8
寸法
  6
CONTINUOUS
 62
     0
 10
256.03263132415611
 20
261.5056118429959
 30
0.0
 11
256.03263132415611
 21
259.83894517632922
 31
0.0
 12
261.03263132415611
 22
260.6722785096627
 32
0.0
 13
261.03263132415611
 23
260.6722785096627
 33
0.0
  0
TEXT
  5
1B65
  8
0
 62
     0
 10
236.43914360576329
 20
261.92227850966242
 30
0.0
 40
5.0
  1
43
  0
POINT
  5
1B66
  8
DEFPOINTS
  6
CONTINUOUS
 62
     0
 10
218.0326313241562
 20
240.20163960284901
 30
0.0
  0
POINT
  5
1B67
  8
DEFPOINTS
  6
CONTINUOUS
 62
     0
 10
261.03263132415611
 20
240.09690977057551
 30
0.0
  0
POINT
  5
1B68
  8
DEFPOINTS
  6
CONTINUOUS
 62
     0
 10
261.03263132415611
 20
260.6722785096627
 30
0.0
  0
ENDBLK
  5
1B69
  8
0
  0
BLOCK
  8
0
  2
*D3
 70
     1
 10
0.0
 20
0.0
 30
0.0
  3
*D3
  1

  0
LINE
  5
1B6C
  8
寸法
  6
CONTINUOUS
 62
     0
 10
218.28263132415611
 20
241.70163960284901
 30
0.0
 11
162.48092179928281
 21
241.70163960284901
 31
0.0
  0
LINE
  5
1B6D
  8
寸法
  6
CONTINUOUS
 62
     0
 10
218.28263132415611
 20
82.701639602849127
 30
0.0
 11
162.48092179928281
 21
82.701639602849127
 31
0.0
  0
LINE
  5
1B6E
  8
寸法
  6
CONTINUOUS
 62
     0
 10
164.98092179928281
 20
236.70163960284901
 30
0.0
 11
164.98092179928281
 21
87.701639602849127
 31
0.0
  0
SOLID
  5
1B6F
  8
寸法
  6
CONTINUOUS
 62
     0
 10
164.14758846594941
 20
236.70163960284901
 30
0.0
 11
165.81425513261601
 21
236.70163960284901
 31
0.0
 12
164.98092179928281
 22
241.70163960284901
 32
0.0
 13
164.98092179928281
 23
241.70163960284901
 33
0.0
  0
SOLID
  5
1B70
  8
寸法
  6
CONTINUOUS
 62
     0
 10
164.14758846594941
 20
87.701639602849127
 30
0.0
 11
165.81425513261601
 21
87.701639602849127
 31
0.0
 12
164.98092179928281
 22
82.701639602849127
 32
0.0
 13
164.98092179928281
 23
82.701639602849127
 33
0.0
  0
TEXT
  5
1B71
  8
0
 62
     0
 10
163.7309217992827
 20
160.08335872238081
 30
0.0
 40
5.0
  1
159
 50
90.0
  0
POINT
  5
1B72
  8
DEFPOINTS
  6
CONTINUOUS
 62
     0
 10
219.5326313241562
 20
241.70163960284901
 30
0.0
  0
POINT
  5
1B73
  8
DEFPOINTS
  6
CONTINUOUS
 62
     0
 10
219.5326313241562
 20
82.701639602849127
 30
0.0
  0
POINT
  5
1B74
  8
DEFPOINTS
  6
CONTINUOUS
 62
     0
 10
164.98092179928281
 20
82.701639602849127
 30
0.0
  0
ENDBLK
  5
1B75
  8
0
  0
BLOCK
  8
0
  2
*D4
 70
     1
 10
0.0
 20
0.0
 30
0.0
  3
*D4
  1

  0
LINE
  5
1B78
  8
寸法
  6
CONTINUOUS
 62
     0
 10
199.7826313241562
 20
230.70163960284901
 30
0.0
 11
173.10164929099179
 21
230.70163960284901
 31
0.0
  0
LINE
  5
1B79
  8
寸法
  6
CONTINUOUS
 62
     0
 10
217.7826313241562
 20
93.701639602849113
 30
0.0
 11
173.10164929099179
 21
93.701639602849113
 31
0.0
  0
LINE
  5
1B7A
  8
寸法
  6
CONTINUOUS
 62
     0
 10
175.6016492909919
 20
225.70163960284901
 30
0.0
 11
175.6016492909919
 21
98.701639602849113
 31
0.0
  0
SOLID
  5
1B7B
  8
寸法
  6
CONTINUOUS
 62
     0
 10
174.7683159576585
 20
225.70163960284901
 30
0.0
 11
176.4349826243251
 21
225.70163960284901
 31
0.0
 12
175.6016492909919
 22
230.70163960284901
 32
0.0
 13
175.6016492909919
 23
230.70163960284901
 33
0.0
  0
SOLID
  5
1B7C
  8
寸法
  6
CONTINUOUS
 62
     0
 10
174.7683159576585
 20
98.701639602849113
 30
0.0
 11
176.4349826243251
 21
98.701639602849113
 31
0.0
 12
175.6016492909919
 22
93.701639602849113
 32
0.0
 13
175.6016492909919
 23
93.701639602849113
 33
0.0
  0
TEXT
  5
1B7D
  8
0
 62
     0
 10
174.35164929099179
 20
160.19279652664869
 30
0.0
 40
5.0
  1
137
 50
90.0
  0
POINT
  5
1B7E
  8
DEFPOINTS
  6
CONTINUOUS
 62
     0
 10
201.0326313241562
 20
230.70163960284901
 30
0.0
  0
POINT
  5
1B7F
  8
DEFPOINTS
  6
CONTINUOUS
 62
     0
 10
219.0326313241562
 20
93.701639602849113
 30
0.0
  0
POINT
  5
1B80
  8
DEFPOINTS
  6
CONTINUOUS
 62
     0
 10
175.6016492909919
 20
93.701639602849113
 30
0.0
  0
ENDBLK
  5
1B81
  8
0
  0
BLOCK
  8
0
  2
*D5
 70
     1
 10
0.0
 20
0.0
 30
0.0
  3
*D5
  1

  0
LINE
  5
1B84
  8
寸法
  6
CONTINUOUS
 62
     0
 10
443.08256094070151
 20
242.95163960284901
 30
0.0
 11
443.08256094070151
 21
252.5437427864976
 31
0.0
  0
LINE
  5
1B85
  8
寸法
  6
CONTINUOUS
 62
     0
 10
333.0825609407014
 20
230.95163960284901
 30
0.0
 11
333.0825609407014
 21
252.5437427864976
 31
0.0
  0
LINE
  5
1B86
  8
寸法
  6
CONTINUOUS
 62
     0
 10
438.08256094070163
 20
250.0437427864976
 30
0.0
 11
338.08256094070151
 21
250.0437427864976
 31
0.0
  0
SOLID
  5
1B87
  8
寸法
  6
CONTINUOUS
 62
     0
 10
438.08256094070163
 20
250.8770761198308
 30
0.0
 11
438.08256094070163
 21
249.21040945316409
 31
0.0
 12
443.08256094070151
 22
250.0437427864976
 32
0.0
 13
443.08256094070151
 23
250.0437427864976
 33
0.0
  0
SOLID
  5
1B88
  8
寸法
  6
CONTINUOUS
 62
     0
 10
338.08256094070151
 20
250.8770761198308
 30
0.0
 11
338.08256094070151
 21
249.21040945316409
 31
0.0
 12
333.0825609407014
 22
250.0437427864976
 32
0.0
 13
333.0825609407014
 23
250.0437427864976
 33
0.0
  0
TEXT
  5
1B89
  8
0
 62
     0
 10
383.49922760736803
 20
251.2937427864974
 30
0.0
 40
5.0
  1
110
  0
POINT
  5
1B8A
  8
DEFPOINTS
  6
CONTINUOUS
 62
     0
 10
443.08256094070151
 20
241.70163960284901
 30
0.0
  0
POINT
  5
1B8B
  8
DEFPOINTS
  6
CONTINUOUS
 62
     0
 10
333.0825609407014
 20
229.70163960284901
 30
0.0
  0
POINT
  5
1B8C
  8
DEFPOINTS
  6
CONTINUOUS
 62
     0
 10
333.0825609407014
 20
250.0437427864976
 30
0.0
  0
ENDBLK
  5
1B8D
  8
0
  0
BLOCK
  8
0
  2
*D6
 70
     1
 10
0.0
 20
0.0
 30
0.0
  3
*D6
  1

  0
LINE
  5
1B90
  8
寸法
 62
     0
 10
218.28263132415611
 20
82.701639602849127
 30
0.0
 11
162.48092179928281
 21
82.701639602849127
 31
0.0
  0
LINE
  5
1B91
  8
寸法
 62
     0
 10
255.78263132415611
 20
63.601639602849119
 30
0.0
 11
162.48092179928281
 21
63.60163960284914
 31
0.0
  0
LINE
  5
1B92
  8
寸法
 62
     0
 10
164.98092179928281
 20
77.701639602849127
 30
0.0
 11
164.98092179928281
 21
68.601639602849147
 31
0.0
  0
SOLID
  5
1B93
  8
寸法
 62
     0
 10
164.14758846594941
 20
77.701639602849127
 30
0.0
 11
165.81425513261601
 21
77.701639602849127
 31
0.0
 12
164.98092179928281
 22
82.701639602849127
 32
0.0
 13
164.98092179928281
 23
82.701639602849127
 33
0.0
  0
SOLID
  5
1B94
  8
寸法
 62
     0
 10
164.14758846594941
 20
68.601639602849147
 30
0.0
 11
165.81425513261601
 21
68.601639602849147
 31
0.0
 12
164.98092179928241
 22
63.60163960284914
 32
0.0
 13
164.98092179928241
 23
63.60163960284914
 33
0.0
  0
TEXT
  5
1B95
  8
0
 62
     0
 10
163.7309217992827
 20
66.06830626951583
 30
0.0
 40
5.0
  1
(20)
 50
90.0
  0
POINT
  5
1B96
  8
DEFPOINTS
 62
     0
 10
219.5326313241562
 20
82.701639602849127
 30
0.0
  0
POINT
  5
1B97
  8
DEFPOINTS
 62
     0
 10
257.03263132415611
 20
63.601639602849119
 30
0.0
  0
POINT
  5
1B98
  8
DEFPOINTS
 62
     0
 10
164.98092179928241
 20
63.60163960284914
 30
0.0
  0
ENDBLK
  5
1B99
  8
0
  0
BLOCK
  8
0
  2
*D7
 70
     1
 10
0.0
 20
0.0
 30
0.0
  3
*D7
  1

  0
LINE
  5
1B9C
  8
寸法
 62
     0
 10
218.0326313241562
 20
241.45163960284901
 30
0.0
 11
218.0326313241562
 21
263.1722785096627
 31
0.0
  0
LINE
  5
1B9D
  8
寸法
 62
     0
 10
201.0326313241562
 20
231.95163960284901
 30
0.0
 11
201.0326313241562
 21
263.1722785096627
 31
0.0
  0
LINE
  5
1B9E
  8
寸法
 62
     0
 10
213.0326313241562
 20
260.6722785096627
 30
0.0
 11
206.03263132415611
 21
260.6722785096627
 31
0.0
  0
SOLID
  5
1B9F
  8
寸法
 62
     0
 10
213.0326313241562
 20
261.5056118429959
 30
0.0
 11
213.0326313241562
 21
259.83894517632922
 31
0.0
 12
218.0326313241562
 22
260.6722785096627
 32
0.0
 13
218.0326313241562
 23
260.6722785096627
 33
0.0
  0
SOLID
  5
1BA0
  8
寸法
 62
     0
 10
206.03263132415611
 20
261.5056118429959
 30
0.0
 11
206.03263132415611
 21
259.83894517632922
 31
0.0
 12
201.0326313241562
 22
260.6722785096627
 32
0.0
 13
201.0326313241562
 23
260.6722785096627
 33
0.0
  0
TEXT
  5
1BA1
  8
0
 62
     0
 10
202.86596465748951
 20
261.92227850966242
 30
0.0
 40
5.0
  1
(17)
  0
POINT
  5
1BA2
  8
DEFPOINTS
 62
     0
 10
218.0326313241562
 20
240.20163960284901
 30
0.0
  0
POINT
  5
1BA3
  8
DEFPOINTS
 62
     0
 10
201.0326313241562
 20
230.70163960284901
 30
0.0
  0
POINT
  5
1BA4
  8
DEFPOINTS
 62
     0
 10
201.0326313241562
 20
260.6722785096627
 30
0.0
  0
ENDBLK
  5
1BA5
  8
0
  0
BLOCK
  8
0
  2
*D8
 70
     1
 10
0.0
 20
0.0
 30
0.0
  3
*D8
  1

  0
LINE
  5
1BA8
  8
寸法
 62
     0
 10
199.7826313241562
 20
230.70163960284901
 30
0.0
 11
183.03198765792541
 21
230.70163960284901
 31
0.0
  0
LINE
  5
1BA9
  8
寸法
 62
     0
 10
199.7826313241562
 20
178.70163960284901
 30
0.0
 11
183.03198765792541
 21
178.70163960284901
 31
0.0
  0
LINE
  5
1BAA
  8
寸法
 62
     0
 10
185.5319876579255
 20
225.70163960284901
 30
0.0
 11
185.5319876579255
 21
183.70163960284901
 31
0.0
  0
SOLID
  5
1BAB
  8
寸法
 62
     0
 10
184.69865432459201
 20
225.70163960284901
 30
0.0
 11
186.3653209912589
 21
225.70163960284901
 31
0.0
 12
185.5319876579255
 22
230.70163960284901
 32
0.0
 13
185.5319876579255
 23
230.70163960284901
 33
0.0
  0
SOLID
  5
1BAC
  8
寸法
 62
     0
 10
184.69865432459201
 20
183.70163960284901
 30
0.0
 11
186.3653209912589
 21
183.70163960284901
 31
0.0
 12
185.5319876579255
 22
178.70163960284901
 32
0.0
 13
185.5319876579255
 23
178.70163960284901
 33
0.0
  0
TEXT
  5
1BAD
  8
0
 62
     0
 10
184.28198765792541
 20
197.20163960284901
 30
0.0
 40
5.0
  1
(52)
 50
90.0
  0
POINT
  5
1BAE
  8
DEFPOINTS
 62
     0
 10
201.0326313241562
 20
230.70163960284901
 30
0.0
  0
POINT
  5
1BAF
  8
DEFPOINTS
 62
     0
 10
201.0326313241562
 20
178.70163960284901
 30
0.0
  0
POINT
  5
1BB0
  8
DEFPOINTS
 62
     0
 10
185.5319876579255
 20
178.70163960284901
 30
0.0
  0
ENDBLK
  5
1BB1
  8
0
  0
BLOCK
  8
0
  2
*D9
 70
     1
 10
0.0
 20
0.0
 30
0.0
  3
*D9
  1

  0
LINE
  5
1BB4
  8
寸法
 62
     0
 10
1.5277801210868309
 20
242.95163960284901
 30
0.0
 11
1.5277801210868329
 21
263.14217159284613
 31
0.0
  0
LINE
  5
1BB5
  8
寸法
 62
     0
 10
27.527780121087051
 20
231.95163960284901
 30
0.0
 11
27.527780121087051
 21
263.14217159284613
 31
0.0
  0
LINE
  5
1BB6
  8
寸法
 62
     0
 10
6.527780121086832
 20
260.64217159284613
 30
0.0
 11
22.527780121087051
 21
260.64217159284613
 31
0.0
  0
SOLID
  5
1BB7
  8
寸法
 62
     0
 10
6.527780121086832
 20
261.47550492617933
 30
0.0
 11
6.527780121086832
 21
259.80883825951281
 31
0.0
 12
1.527780121086832
 22
260.64217159284613
 32
0.0
 13
1.527780121086832
 23
260.64217159284613
 33
0.0
  0
SOLID
  5
1BB8
  8
寸法
 62
     0
 10
22.527780121087051
 20
261.47550492617933
 30
0.0
 11
22.527780121087051
 21
259.80883825951281
 31
0.0
 12
27.527780121087051
 22
260.64217159284613
 32
0.0
 13
27.527780121087051
 23
260.64217159284613
 33
0.0
  0
TEXT
  5
1BB9
  8
0
 62
     0
 10
7.027780121086951
 20
261.89217159284613
 30
0.0
 40
5.0
  1
(26)
  0
POINT
  5
1BBA
  8
DEFPOINTS
 62
     0
 10
1.5277801210868309
 20
241.70163960284901
 30
0.0
  0
POINT
  5
1BBB
  8
DEFPOINTS
 62
     0
 10
27.527780121087051
 20
230.70163960284901
 30
0.0
  0
POINT
  5
1BBC
  8
DEFPOINTS
 62
     0
 10
27.527780121087051
 20
260.64217159284613
 30
0.0
  0
ENDBLK
  5
1BBD
  8
0
  0
BLOCK
  8
0
  2
*D10
 70
     1
 10
0.0
 20
0.0
 30
0.0
  3
*D10
  1

  0
LINE
  5
1BC0
  8
寸法
  6
CONTINUOUS
 62
     0
 10
441.55478056977182
 20
179.34999992395899
 30
0.0
 11
441.55478056977182
 21
188.94210310760769
 31
0.0
  0
LINE
  5
1BC1
  8
寸法
  6
CONTINUOUS
 62
     0
 10
331.55478056977182
 20
167.3499999239591
 30
0.0
 11
331.55478056977182
 21
188.94210310760769
 31
0.0
  0
LINE
  5
1BC2
  8
寸法
  6
CONTINUOUS
 62
     0
 10
436.55478056977182
 20
186.44210310760761
 30
0.0
 11
336.55478056977182
 21
186.44210310760761
 31
0.0
  0
SOLID
  5
1BC3
  8
寸法
  6
CONTINUOUS
 62
     0
 10
436.55478056977182
 20
187.27543644094081
 30
0.0
 11
436.55478056977182
 21
185.60876977427429
 31
0.0
 12
441.55478056977182
 22
186.44210310760761
 32
0.0
 13
441.55478056977182
 23
186.44210310760761
 33
0.0
  0
SOLID
  5
1BC4
  8
寸法
  6
CONTINUOUS
 62
     0
 10
336.55478056977182
 20
187.27543644094081
 30
0.0
 11
336.55478056977182
 21
185.60876977427429
 31
0.0
 12
331.55478056977182
 22
186.44210310760761
 32
0.0
 13
331.55478056977182
 23
186.44210310760761
 33
0.0
  0
TEXT
  5
1BC5
  8
0
 62
     0
 10
381.97144723643851
 20
187.69210310760761
 30
0.0
 40
5.0
  1
110
  0
POINT
  5
1BC6
  8
DEFPOINTS
  6
CONTINUOUS
 62
     0
 10
441.55478056977182
 20
178.09999992395899
 30
0.0
  0
POINT
  5
1BC7
  8
DEFPOINTS
  6
CONTINUOUS
 62
     0
 10
331.55478056977182
 20
166.09999992395899
 30
0.0
  0
POINT
  5
1BC8
  8
DEFPOINTS
  6
CONTINUOUS
 62
     0
 10
331.55478056977182
 20
186.44210310760761
 30
0.0
  0
ENDBLK
  5
1BC9
  8
0
  0
BLOCK
  8
0
  2
*D11
 70
     1
 10
0.0
 20
0.0
 30
0.0
  3
*D11
  1

  0
LINE
  5
1BCC
  8
寸法
 62
     0
 10
216.75485095322631
 20
19.099999923959199
 30
0.0
 11
160.95314142835301
 21
19.099999923959231
 31
0.0
  0
LINE
  5
1BCD
  8
寸法
 62
     0
 10
254.25485095322631
 20
-0.0000000760407911
 30
0.0
 11
160.95314142835301
 21
-0.0000000760407647
 31
0.0
  0
LINE
  5
1BCE
  8
寸法
 62
     0
 10
163.45314142835301
 20
14.09999992395923
 30
0.0
 11
163.45314142835301
 21
4.9999999239592334
 31
0.0
  0
SOLID
  5
1BCF
  8
寸法
 62
     0
 10
162.61980809501941
 20
14.09999992395923
 30
0.0
 11
164.28647476168609
 21
14.09999992395923
 31
0.0
 12
163.45314142835301
 22
19.099999923959231
 32
0.0
 13
163.45314142835301
 23
19.099999923959231
 33
0.0
  0
SOLID
  5
1BD0
  8
寸法
 62
     0
 10
162.61980809501941
 20
4.9999999239592334
 30
0.0
 11
164.28647476168609
 21
4.9999999239592334
 31
0.0
 12
163.45314142835301
 22
-0.0000000760407654
 32
0.0
 13
163.45314142835301
 23
-0.0000000760407654
 33
0.0
  0
TEXT
  5
1BD1
  8
0
 62
     0
 10
162.20314142835301
 20
2.4666665906259242
 30
0.0
 40
5.0
  1
(20)
 50
90.0
  0
POINT
  5
1BD2
  8
DEFPOINTS
 62
     0
 10
218.00485095322651
 20
19.099999923959199
 30
0.0
  0
POINT
  5
1BD3
  8
DEFPOINTS
 62
     0
 10
255.50485095322651
 20
-0.0000000760407914
 30
0.0
  0
POINT
  5
1BD4
  8
DEFPOINTS
 62
     0
 10
163.45314142835301
 20
-0.0000000760407654
 30
0.0
  0
ENDBLK
  5
1BD5
  8
0
  0
BLOCK
  8
0
  2
*D12
 70
     1
 10
0.0
 20
0.0
 30
0.0
  3
*D12
  1

  0
LINE
  5
1BD8
  8
寸法
 62
     0
 10
216.50485095322639
 20
177.84999992395899
 30
0.0
 11
216.50485095322639
 21
199.57063883077271
 31
0.0
  0
LINE
  5
1BD9
  8
寸法
 62
     0
 10
199.50485095322639
 20
168.3499999239591
 30
0.0
 11
199.50485095322639
 21
199.57063883077271
 31
0.0
  0
LINE
  5
1BDA
  8
寸法
 62
     0
 10
211.50485095322639
 20
197.07063883077279
 30
0.0
 11
204.50485095322631
 21
197.07063883077279
 31
0.0
  0
SOLID
  5
1BDB
  8
寸法
 62
     0
 10
211.50485095322639
 20
197.90397216410611
 30
0.0
 11
211.50485095322639
 21
196.23730549743939
 31
0.0
 12
216.50485095322639
 22
197.07063883077279
 32
0.0
 13
216.50485095322639
 23
197.07063883077279
 33
0.0
  0
SOLID
  5
1BDC
  8
寸法
 62
     0
 10
204.50485095322631
 20
197.90397216410611
 30
0.0
 11
204.50485095322631
 21
196.23730549743939
 31
0.0
 12
199.50485095322639
 22
197.07063883077279
 32
0.0
 13
199.50485095322639
 23
197.07063883077279
 33
0.0
  0
TEXT
  5
1BDD
  8
0
 62
     0
 10
201.3381842865596
 20
198.32063883077279
 30
0.0
 40
5.0
  1
(17)
  0
POINT
  5
1BDE
  8
DEFPOINTS
 62
     0
 10
216.50485095322639
 20
176.59999992395899
 30
0.0
  0
POINT
  5
1BDF
  8
DEFPOINTS
 62
     0
 10
199.50485095322639
 20
167.09999992395899
 30
0.0
  0
POINT
  5
1BE0
  8
DEFPOINTS
 62
     0
 10
199.50485095322639
 20
197.07063883077279
 30
0.0
  0
ENDBLK
  5
1BE1
  8
0
  0
BLOCK
  8
0
  2
*D13
 70
     1
 10
0.0
 20
0.0
 30
0.0
  3
*D13
  1

  0
LINE
  5
1BE4
  8
寸法
 62
     0
 10
198.25485095322631
 20
167.09999992395899
 30
0.0
 11
181.50420728699581
 21
167.09999992395899
 31
0.0
  0
LINE
  5
1BE5
  8
寸法
 62
     0
 10
198.25485095322631
 20
115.099999923959
 30
0.0
 11
181.50420728699581
 21
115.099999923959
 31
0.0
  0
LINE
  5
1BE6
  8
寸法
 62
     0
 10
184.00420728699549
 20
162.0999999239591
 30
0.0
 11
184.00420728699549
 21
120.099999923959
 31
0.0
  0
SOLID
  5
1BE7
  8
寸法
 62
     0
 10
183.17087395366241
 20
162.0999999239591
 30
0.0
 11
184.83754062032901
 21
162.0999999239591
 31
0.0
 12
184.00420728699549
 22
167.09999992395899
 32
0.0
 13
184.00420728699549
 23
167.09999992395899
 33
0.0
  0
SOLID
  5
1BE8
  8
寸法
 62
     0
 10
183.17087395366241
 20
120.099999923959
 30
0.0
 11
184.83754062032901
 21
120.099999923959
 31
0.0
 12
184.00420728699549
 22
115.099999923959
 32
0.0
 13
184.00420728699549
 23
115.099999923959
 33
0.0
  0
TEXT
  5
1BE9
  8
0
 62
     0
 10
182.75420728699549
 20
133.5999999239591
 30
0.0
 40
5.0
  1
(52)
 50
90.0
  0
POINT
  5
1BEA
  8
DEFPOINTS
 62
     0
 10
199.50485095322639
 20
167.09999992395899
 30
0.0
  0
POINT
  5
1BEB
  8
DEFPOINTS
 62
     0
 10
199.50485095322639
 20
115.099999923959
 30
0.0
  0
POINT
  5
1BEC
  8
DEFPOINTS
 62
     0
 10
184.00420728699549
 20
115.099999923959
 30
0.0
  0
ENDBLK
  5
1BED
  8
0
  0
BLOCK
  8
0
  2
*D14
 70
     1
 10
0.0
 20
0.0
 30
0.0
  3
*D14
  1

  0
LINE
  5
1BF0
  8
寸法
 62
     0
 10
-0.0000002498428563
 20
179.34999992395899
 30
0.0
 11
-0.0000002498428551
 21
199.5405319139561
 31
0.0
  0
LINE
  5
1BF1
  8
寸法
 62
     0
 10
25.999999750157361
 20
168.3499999239591
 30
0.0
 11
25.999999750157372
 21
199.5405319139561
 31
0.0
  0
LINE
  5
1BF2
  8
寸法
 62
     0
 10
4.9999997501571452
 20
197.04053191395599
 30
0.0
 11
20.99999975015735
 21
197.04053191395599
 31
0.0
  0
SOLID
  5
1BF3
  8
寸法
 62
     0
 10
4.9999997501571452
 20
197.8738652472895
 30
0.0
 11
4.9999997501571452
 21
196.2071985806229
 31
0.0
 12
-0.0000002498428552
 22
197.04053191395599
 32
0.0
 13
-0.0000002498428552
 23
197.04053191395599
 33
0.0
  0
SOLID
  5
1BF4
  8
寸法
 62
     0
 10
20.99999975015735
 20
197.8738652472895
 30
0.0
 11
20.99999975015735
 21
196.2071985806229
 31
0.0
 12
25.999999750157372
 22
197.04053191395599
 32
0.0
 13
25.999999750157372
 23
197.04053191395599
 33
0.0
  0
TEXT
  5
1BF5
  8
0
 62
     0
 10
5.4999997501572571
 20
198.2905319139561
 30
0.0
 40
5.0
  1
(26)
  0
POINT
  5
1BF6
  8
DEFPOINTS
 62
     0
 10
-0.0000002498428564
 20
178.09999992395899
 30
0.0
  0
POINT
  5
1BF7
  8
DEFPOINTS
 62
     0
 10
25.999999750157361
 20
167.09999992395899
 30
0.0
  0
POINT
  5
1BF8
  8
DEFPOINTS
 62
     0
 10
25.999999750157372
 20
197.04053191395599
 30
0.0
  0
ENDBLK
  5
1BF9
  8
0
  0
BLOCK
  8
0
  2
*D15
 70
     1
 10
0.0
 20
0.0
 30
0.0
  3
*D15
  1

  0
LINE
  5
1BFC
  8
寸法
  6
CONTINUOUS
 62
     0
 10
216.50485095322639
 20
177.84999992395899
 30
0.0
 11
216.50485095322639
 21
199.57063883077271
 31
0.0
  0
LINE
  5
1BFD
  8
寸法
  6
CONTINUOUS
 62
     0
 10
259.50485095322648
 20
177.74527009168551
 30
0.0
 11
259.50485095322648
 21
199.57063883077271
 31
0.0
  0
LINE
  5
1BFE
  8
寸法
  6
CONTINUOUS
 62
     0
 10
221.50485095322631
 20
197.07063883077279
 30
0.0
 11
254.50485095322631
 21
197.07063883077279
 31
0.0
  0
SOLID
  5
1BFF
  8
寸法
  6
CONTINUOUS
 62
     0
 10
221.50485095322631
 20
197.90397216410611
 30
0.0
 11
221.50485095322631
 21
196.23730549743939
 31
0.0
 12
216.50485095322639
 22
197.07063883077279
 32
0.0
 13
216.50485095322639
 23
197.07063883077279
 33
0.0
  0
SOLID
  5
1C00
  8
寸法
  6
CONTINUOUS
 62
     0
 10
254.50485095322631
 20
197.90397216410611
 30
0.0
 11
254.50485095322631
 21
196.23730549743939
 31
0.0
 12
259.50485095322648
 22
197.07063883077279
 32
0.0
 13
259.50485095322648
 23
197.07063883077279
 33
0.0
  0
TEXT
  5
1C01
  8
0
 62
     0
 10
234.9113632348334
 20
198.32063883077279
 30
0.0
 40
5.0
  1
43
  0
POINT
  5
1C02
  8
DEFPOINTS
  6
CONTINUOUS
 62
     0
 10
216.50485095322639
 20
176.59999992395899
 30
0.0
  0
POINT
  5
1C03
  8
DEFPOINTS
  6
CONTINUOUS
 62
     0
 10
259.50485095322648
 20
176.4952700916856
 30
0.0
  0
POINT
  5
1C04
  8
DEFPOINTS
  6
CONTINUOUS
 62
     0
 10
259.50485095322648
 20
197.07063883077279
 30
0.0
  0
ENDBLK
  5
1C05
  8
0
  0
BLOCK
  8
0
  2
*D16
 70
     1
 10
0.0
 20
0.0
 30
0.0
  3
*D16
  1

  0
LINE
  5
1C08
  8
寸法
  6
CONTINUOUS
 62
     0
 10
216.75485095322631
 20
178.09999992395899
 30
0.0
 11
160.95314142835301
 21
178.09999992395899
 31
0.0
  0
LINE
  5
1C09
  8
寸法
  6
CONTINUOUS
 62
     0
 10
216.75485095322631
 20
19.099999923959199
 30
0.0
 11
160.95314142835301
 21
19.099999923959231
 31
0.0
  0
LINE
  5
1C0A
  8
寸法
  6
CONTINUOUS
 62
     0
 10
163.45314142835301
 20
173.09999992395899
 30
0.0
 11
163.45314142835301
 21
24.099999923959231
 31
0.0
  0
SOLID
  5
1C0B
  8
寸法
  6
CONTINUOUS
 62
     0
 10
162.61980809501969
 20
173.09999992395899
 30
0.0
 11
164.28647476168609
 21
173.09999992395899
 31
0.0
 12
163.45314142835301
 22
178.09999992395899
 32
0.0
 13
163.45314142835301
 23
178.09999992395899
 33
0.0
  0
SOLID
  5
1C0C
  8
寸法
  6
CONTINUOUS
 62
     0
 10
162.61980809501941
 20
24.099999923959231
 30
0.0
 11
164.28647476168609
 21
24.099999923959231
 31
0.0
 12
163.45314142835301
 22
19.099999923959231
 32
0.0
 13
163.45314142835301
 23
19.099999923959231
 33
0.0
  0
TEXT
  5
1C0D
  8
0
 62
     0
 10
162.20314142835301
 20
96.481719043490941
 30
0.0
 40
5.0
  1
159
 50
90.0
  0
POINT
  5
1C0E
  8
DEFPOINTS
  6
CONTINUOUS
 62
     0
 10
218.00485095322651
 20
178.09999992395899
 30
0.0
  0
POINT
  5
1C0F
  8
DEFPOINTS
  6
CONTINUOUS
 62
     0
 10
218.00485095322651
 20
19.099999923959199
 30
0.0
  0
POINT
  5
1C10
  8
DEFPOINTS
  6
CONTINUOUS
 62
     0
 10
163.45314142835301
 20
19.099999923959231
 30
0.0
  0
ENDBLK
  5
1C11
  8
0
  0
BLOCK
  8
0
  2
*D17
 70
     1
 10
0.0
 20
0.0
 30
0.0
  3
*D17
  1

  0
LINE
  5
1C14
  8
寸法
  6
CONTINUOUS
 62
     0
 10
198.25485095322631
 20
167.09999992395899
 30
0.0
 11
171.5738689200621
 21
167.09999992395899
 31
0.0
  0
LINE
  5
1C15
  8
寸法
  6
CONTINUOUS
 62
     0
 10
216.25485095322639
 20
30.09999992395921
 30
0.0
 11
171.5738689200621
 21
30.099999923959231
 31
0.0
  0
LINE
  5
1C16
  8
寸法
  6
CONTINUOUS
 62
     0
 10
174.0738689200619
 20
162.0999999239591
 30
0.0
 11
174.0738689200619
 21
35.099999923959238
 31
0.0
  0
SOLID
  5
1C17
  8
寸法
  6
CONTINUOUS
 62
     0
 10
173.24053558672881
 20
162.0999999239591
 30
0.0
 11
174.9072022533955
 21
162.0999999239591
 31
0.0
 12
174.0738689200619
 22
167.09999992395899
 32
0.0
 13
174.0738689200619
 23
167.09999992395899
 33
0.0
  0
SOLID
  5
1C18
  8
寸法
  6
CONTINUOUS
 62
     0
 10
173.2405355867285
 20
35.099999923959238
 30
0.0
 11
174.90720225339541
 21
35.099999923959238
 31
0.0
 12
174.0738689200619
 22
30.099999923959231
 32
0.0
 13
174.0738689200619
 23
30.099999923959231
 33
0.0
  0
TEXT
  5
1C19
  8
0
 62
     0
 10
172.8238689200621
 20
96.591156847758853
 30
0.0
 40
5.0
  1
137
 50
90.0
  0
POINT
  5
1C1A
  8
DEFPOINTS
  6
CONTINUOUS
 62
     0
 10
199.50485095322639
 20
167.09999992395899
 30
0.0
  0
POINT
  5
1C1B
  8
DEFPOINTS
  6
CONTINUOUS
 62
     0
 10
217.50485095322631
 20
30.09999992395921
 30
0.0
  0
POINT
  5
1C1C
  8
DEFPOINTS
  6
CONTINUOUS
 62
     0
 10
174.0738689200619
 20
30.099999923959231
 30
0.0
  0
ENDBLK
  5
1C1D
  8
0
  0
BLOCK
  8
0
  2
*D18
 70
     1
 10
0.0
 20
0.0
 30
0.0
  3
*D18
  1

  0
LINE
  5
1C20
  8
0
 62
     0
 10
331.55478056977182
 20
189.56710310760761
 30
0.0
 11
331.55478056977182
 21
206.27434748228811
 31
0.0
  0
LINE
  5
1C21
  8
0
 62
     0
 10
441.55478056977182
 20
187.06710310760761
 30
0.0
 11
441.55478056977182
 21
206.27434748228811
 31
0.0
  0
LINE
  5
1C22
  8
0
 62
     0
 10
334.05478056977182
 20
205.02434748228811
 30
0.0
 11
439.05478056977182
 21
205.02434748228811
 31
0.0
  0
SOLID
  5
1C23
  8
0
 62
     0
 10
334.05478056977182
 20
205.44101414895479
 30
0.0
 11
334.05478056977182
 21
204.60768081562151
 31
0.0
 12
331.55478056977182
 22
205.02434748228811
 32
0.0
 13
331.55478056977182
 23
205.02434748228811
 33
0.0
  0
SOLID
  5
1C24
  8
0
 62
     0
 10
439.05478056977182
 20
205.44101414895479
 30
0.0
 11
439.05478056977182
 21
204.60768081562151
 31
0.0
 12
441.55478056977182
 22
205.02434748228811
 32
0.0
 13
441.55478056977182
 23
205.02434748228811
 33
0.0
  0
TEXT
  5
1C25
  8
0
 62
     0
 10
384.26311390310502
 20
205.64934748228811
 30
0.0
 40
2.5
  1
110
  0
POINT
  5
1C26
  8
DEFPOINTS
 62
     0
 10
331.55478056977182
 20
188.94210310760769
 30
0.0
  0
POINT
  5
1C27
  8
DEFPOINTS
 62
     0
 10
441.55478056977182
 20
186.44210310760761
 30
0.0
  0
POINT
  5
1C28
  8
DEFPOINTS
 62
     0
 10
441.55478056977182
 20
205.02434748228811
 30
0.0
  0
ENDBLK
  5
1C29
  8
0
  0
BLOCK
  8
0
  2
*D19
 70
     1
 10
0.0
 20
0.0
 30
0.0
  3
*D19
  1

  0
LINE
  5
1C2C
  8
0
 62
     0
 10
160.32814142835301
 20
178.09999992395899
 30
0.0
 11
137.13785861762929
 21
178.09999992395899
 31
0.0
  0
LINE
  5
1C2D
  8
0
 62
     0
 10
160.32814142835301
 20
19.099999923959231
 30
0.0
 11
137.13785861762921
 21
19.099999923959231
 31
0.0
  0
LINE
  5
1C2E
  8
0
 62
     0
 10
138.38785861762929
 20
175.59999992395899
 30
0.0
 11
138.38785861762921
 21
21.599999923959231
 31
0.0
  0
SOLID
  5
1C2F
  8
0
 62
     0
 10
137.97119195096261
 20
175.59999992395899
 30
0.0
 11
138.80452528429581
 21
175.59999992395899
 31
0.0
 12
138.38785861762929
 22
178.09999992395899
 32
0.0
 13
138.38785861762929
 23
178.09999992395899
 33
0.0
  0
SOLID
  5
1C30
  8
0
 62
     0
 10
137.97119195096261
 20
21.599999923959231
 30
0.0
 11
138.80452528429581
 21
21.599999923959231
 31
0.0
 12
138.38785861762921
 22
19.099999923959231
 32
0.0
 13
138.38785861762921
 23
19.099999923959231
 33
0.0
  0
TEXT
  5
1C31
  8
0
 62
     0
 10
137.76285861762921
 20
95.683333257292503
 30
0.0
 40
2.5
  1
159
 50
90.0
  0
POINT
  5
1C32
  8
DEFPOINTS
 62
     0
 10
160.95314142835301
 20
178.09999992395899
 30
0.0
  0
POINT
  5
1C33
  8
DEFPOINTS
 62
     0
 10
160.95314142835301
 20
19.099999923959231
 30
0.0
  0
POINT
  5
1C34
  8
DEFPOINTS
 62
     0
 10
138.38785861762921
 20
19.099999923959231
 30
0.0
  0
ENDBLK
  5
1C35
  8
0
  0
ENDSEC
  0
SECTION
  2
ENTITIES
  0
LINE
  5
1C36
  8
LAYER4
  6
CONTINUOUS
 10
243.55485095322641
 20
158.89999992395909
 30
0.0
 11
251.00485095322639
 21
158.89999992395909
 31
0.0
  0
LINE
  5
1C37
  8
LAYER4
  6
CONTINUOUS
 10
251.00485095322639
 20
148.89999992395909
 30
0.0
 11
243.55485095322641
 21
148.89999992395909
 31
0.0
  0
POLYLINE
  5
1C41
  8
LAYER3
 66
     1
 10
0.0
 20
0.0
 30
0.0
 70
     1
  0
VERTEX
  5
2352
  8
LAYER3
 10
244.50485095322651
 20
125.41999992396001
 30
0.0
  0
VERTEX
  5
2353
  8
LAYER3
 10
251.50485095322671
 20
125.41999992396001
 30
0.0
  0
VERTEX
  5
2354
  8
LAYER3
 10
251.50485095322671
 20
103.4199999239584
 30
0.0
  0
VERTEX
  5
2355
  8
LAYER3
 10
244.50485095322651
 20
103.4199999239584
 30
0.0
  0
SEQEND
  5
2356
  8
LAYER3
  0
ARC
  5
1C47
  8
LAYER3
 10
246.00485095322671
 20
128.11999992395911
 30
0.0
 40
1.5
 50
90.0
 51
270.0
  0
POLYLINE
  5
1C48
  8
LAYER3
 66
     1
 10
0.0
 20
0.0
 30
0.0
 70
     1
  0
VERTEX
  5
2357
  8
LAYER3
 10
244.50485095322651
 20
53.91999992395921
 30
0.0
  0
VERTEX
  5
2358
  8
LAYER3
 10
251.50485095322671
 20
53.91999992395921
 30
0.0
  0
VERTEX
  5
2359
  8
LAYER3
 10
251.50485095322671
 20
39.919999923957683
 30
0.0
  0
VERTEX
  5
235A
  8
LAYER3
 10
244.50485095322651
 20
39.919999923957683
 30
0.0
  0
SEQEND
  5
235B
  8
LAYER3
  0
LINE
  5
1C55
  8
LAYER4
  6
CONTINUOUS
 10
249.80485095322641
 20
149.29999992395901
 30
0.0
 11
244.30485095322641
 21
149.29999992395901
 31
0.0
  0
LINE
  5
1C56
  8
LAYER4
  6
CONTINUOUS
 10
244.30485095322641
 20
158.49999992395911
 30
0.0
 11
246.30485095322641
 21
158.49999992395911
 31
0.0
  0
LINE
  5
1C59
  8
LAYER1
  6
CONTINUOUS
 10
258.00485095322631
 20
178.04763472917401
 30
0.0
 11
218.00485095322651
 21
178.04763472917401
 31
0.0
  0
LINE
  5
1C5B
  8
LAYER1
  6
CONTINUOUS
 10
258.00485095322631
 20
178.09999992395899
 30
0.0
 11
218.00485095322651
 21
178.09999992395899
 31
0.0
  0
LINE
  5
1C5C
  8
LAYER2
  6
CONTINUOUS
 10
258.50485095322631
 20
30.09999992395921
 30
0.0
 11
217.50485095322631
 21
30.09999992395921
 31
0.0
  0
LINE
  5
1C5D
  8
LAYER2
  6
CONTINUOUS
 10
258.50485095322631
 20
167.09999992395899
 30
0.0
 11
217.50485095322631
 21
167.09999992395899
 31
0.0
  0
LINE
  5
1C5E
  8
LAYER2
  6
CONTINUOUS
 10
222.50754795322641
 20
35.59999992395921
 30
0.0
 11
253.5021539532263
 21
35.59999992395921
 31
0.0
  0
LINE
  5
1C5F
  8
LAYER2
  6
CONTINUOUS
 10
253.50485095322651
 20
36.599999923959189
 30
0.0
 11
222.50485095322639
 21
36.599999923959189
 31
0.0
  0
LINE
  5
1C60
  8
LAYER2
  6
CONTINUOUS
 10
222.50754795322641
 20
162.01999992395909
 30
0.0
 11
253.5021539532263
 21
162.01999992395909
 31
0.0
  0
LINE
  5
1C61
  8
LAYER2
  6
CONTINUOUS
 10
222.50485095322639
 20
161.01999992395909
 30
0.0
 11
253.50485095322651
 21
161.01999992395909
 31
0.0
  0
LINE
  5
1C62
  8
LAYER2
  6
CONTINUOUS
 10
82.524133507732245
 20
107.8487634310149
 30
0.0
 11
78.362414398840031
 21
87.848764924493196
 31
0.0
  0
LINE
  5
1C63
  8
LAYER2
  6
CONTINUOUS
 10
71.153932128148313
 20
87.848764924493196
 30
0.0
 11
74.840556825074259
 21
104.8858124474699
 31
0.0
  0
LINE
  5
1C64
  8
LAYER2
  6
CONTINUOUS
 10
61.50822981023942
 20
107.8166195558321
 30
0.0
 11
65.385177995287336
 21
87.816700416903089
 31
0.0
  0
LINE
  5
1C65
  8
LAYER2
  6
CONTINUOUS
 10
29.475786727768408
 20
87.848764924493196
 30
0.0
 11
33.162411424694362
 21
104.8858124474699
 31
0.0
  0
LINE
  5
1C66
  8
LAYER2
  6
CONTINUOUS
 10
40.845988107352341
 20
107.8487634310149
 30
0.0
 11
36.68426899846019
 21
87.848764924493196
 31
0.0
  0
LINE
  5
1C67
  8
LAYER2
  6
CONTINUOUS
 10
40.694475372230357
 20
87.819240179881149
 30
0.0
 11
53.84346324713227
 21
105.74353802550399
 31
0.0
  0
LINE
  5
1C68
  8
LAYER1
  6
CONTINUOUS
 10
2.999999750157142
 20
137.57381732656711
 30
0.0
 11
2.999999750157142
 21
59.626182521351083
 31
0.0
  0
LINE
  5
1C69
  8
LAYER2
  6
CONTINUOUS
 10
108.9999997501569
 20
166.09999992395899
 30
0.0
 11
108.9999997501569
 21
31.099999923959221
 31
0.0
  0
LINE
  5
1C6A
  8
LAYER2
  6
CONTINUOUS
 10
2.9999997501573712
 20
137.57381732656711
 30
0.0
 11
2.999999750157142
 21
59.626182521351183
 31
0.0
  0
LINE
  5
1C6B
  8
LAYER2
  6
CONTINUOUS
 10
109.3381678370322
 20
161.35816801083419
 30
0.0
 11
109.3381678370322
 21
36.26183183708406
 31
0.0
  0
LINE
  5
1C6C
  8
LAYER1
  6
CONTINUOUS
 10
-0.0000002498428564
 20
178.09999992395899
 30
0.0
 11
-0.0000002498428564
 21
19.099999923959199
 31
0.0
  0
LINE
  5
1C6D
  8
LAYER2
  6
CONTINUOUS
 10
221.50485095322631
 20
37.599999923959182
 30
0.0
 11
221.50485095322631
 21
160.01999992395901
 31
0.0
  0
LINE
  5
1C6E
  8
LAYER2
  6
CONTINUOUS
 10
220.50754795322641
 20
160.01999992395901
 30
0.0
 11
220.50754795322641
 21
37.599999923959182
 31
0.0
  0
LINE
  5
1C6F
  8
LAYER2
  6
CONTINUOUS
 10
216.50485095322639
 20
31.09999892395917
 30
0.0
 11
216.50485095322639
 21
166.09999892395911
 31
0.0
  0
LINE
  5
1C70
  8
LAYER2
  6
CONTINUOUS
 10
36.68426899846019
 20
87.848764924493196
 30
0.0
 11
29.475786727768408
 21
87.848764924493196
 31
0.0
  0
LINE
  5
1C71
  8
LAYER2
  6
CONTINUOUS
 10
108.9999997501569
 20
30.09999992395921
 30
0.0
 11
2.999999750157142
 21
30.09999992395921
 31
0.0
  0
LINE
  5
1C72
  8
LAYER1
  6
CONTINUOUS
 10
2.999999750157142
 20
50.57381732656718
 30
0.0
 11
2.999999750157142
 21
19.152365118744211
 31
0.0
  0
LINE
  5
1C73
  8
LAYER2
  6
CONTINUOUS
 10
2.999999750157142
 20
50.573817326567088
 30
0.0
 11
2.999999750157142
 21
30.09999992395921
 31
0.0
  0
LINE
  5
1C74
  8
LAYER1
  6
CONTINUOUS
 10
-0.0000002498428564
 20
36.370090923959211
 30
0.0
 11
-0.0000002498428564
 21
34.370090923959211
 31
0.0
  0
LINE
  5
1C75
  8
LAYER1
  6
CONTINUOUS
 10
-0.0000002498428564
 20
19.099999923959199
 30
0.0
 11
2.9995428356261269
 21
19.152357143271161
 31
0.0
  0
LINE
  5
1C76
  8
LAYER1
  6
CONTINUOUS
 10
-0.0000002498428564
 20
30.09999992395921
 30
0.0
 11
-0.0000002498428564
 21
32.09999992395921
 31
0.0
  0
LINE
  5
1C77
  8
LAYER2
  6
CONTINUOUS
 10
1.499999750157142
 20
59.599999923959189
 30
0.0
 11
1.499999750157142
 21
50.586908625263192
 31
0.0
  0
LINE
  5
1C78
  8
LAYER1
  6
CONTINUOUS
 10
1.299999750157097
 20
50.099999923959182
 30
0.0
 11
1.299999750157097
 21
60.099999923959182
 31
0.0
  0
LINE
  5
1C79
  8
LAYER2
  6
CONTINUOUS
 10
1.499999750157142
 20
50.599999923959189
 30
0.0
 11
2.999999750157142
 21
50.57381732656718
 31
0.0
  0
LINE
  5
1C7A
  8
LAYER1
  6
CONTINUOUS
 10
2.999999750157142
 20
50.07381732656718
 30
0.0
 11
1.2999997501600531
 21
50.099999923959182
 31
0.0
  0
LINE
  5
1C7B
  8
LAYER2
  6
CONTINUOUS
 10
2.999999750157142
 20
59.626182521351083
 30
0.0
 11
1.499999750157142
 21
59.599999923959189
 31
0.0
  0
LINE
  5
1C7C
  8
LAYER1
  6
CONTINUOUS
 10
2.999999750157142
 20
60.12618252135109
 30
0.0
 11
1.299999750157097
 21
60.099999923959182
 31
0.0
  0
LINE
  5
1C7D
  8
LAYER2
  6
CONTINUOUS
 10
109.9999997501569
 20
35.599999923959317
 30
0.0
 11
109.9999997501569
 21
31.099999923959221
 31
0.0
  0
ARC
  5
1C7E
  8
LAYER2
  6
CONTINUOUS
 10
108.9999997501569
 20
31.099999923959221
 30
0.0
 40
1.0
 50
270.0
 51
0.0
  0
ARC
  5
1C7F
  8
LAYER2
  6
CONTINUOUS
 10
107.9999997501569
 20
31.099999923959221
 30
0.0
 40
1.0
 50
270.0
 51
0.0
  0
LINE
  5
1C80
  8
LAYER2
  6
CONTINUOUS
 10
78.362414398840031
 20
87.848764924493196
 30
0.0
 11
71.153932128148313
 21
87.848764924493196
 31
0.0
  0
LINE
  5
1C81
  8
LAYER2
  6
CONTINUOUS
 10
56.912846172950253
 20
92.856860045614184
 30
0.0
 11
49.3030019842314
 21
92.856860045614184
 31
0.0
  0
LINE
  5
1C82
  8
LAYER2
  6
CONTINUOUS
 10
47.879623570567077
 20
87.819240179881149
 30
0.0
 11
40.694475372230357
 21
87.819240179881149
 31
0.0
  0
LINE
  5
1C83
  8
LAYER2
  6
CONTINUOUS
 10
49.3030019842314
 20
92.856860045614184
 30
0.0
 11
47.443339911601349
 21
90.141853422741079
 31
0.0
  0
POLYLINE
  5
1C84
  8
LAYER2
  6
CONTINUOUS
 66
     1
 10
0.0
 20
0.0
 30
0.0
  0
VERTEX
  5
235C
  8
LAYER2
  6
CONTINUOUS
 10
47.879623570567077
 20
87.819240179881149
 30
0.0
  0
VERTEX
  5
235D
  8
LAYER2
  6
CONTINUOUS
 10
47.864983963532147
 20
87.839080930746206
 30
0.0
  0
VERTEX
  5
235E
  8
LAYER2
  6
CONTINUOUS
 10
47.831406031893373
 20
87.861560190804198
 30
0.0
  0
VERTEX
  5
235F
  8
LAYER2
  6
CONTINUOUS
 10
47.760255956993319
 20
87.899543722615164
 30
0.0
  0
VERTEX
  5
2360
  8
LAYER2
  6
CONTINUOUS
 10
47.711360254311209
 20
87.935308246136174
 30
0.0
  0
VERTEX
  5
2361
  8
LAYER2
  6
CONTINUOUS
 10
47.699999294615168
 20
87.945442710785102
 30
0.0
  0
VERTEX
  5
2362
  8
LAYER2
  6
CONTINUOUS
 10
47.649983940131371
 20
87.997196668445184
 30
0.0
  0
VERTEX
  5
2363
  8
LAYER2
  6
CONTINUOUS
 10
47.599168844967032
 20
88.052782032707199
 30
0.0
  0
VERTEX
  5
2364
  8
LAYER2
  6
CONTINUOUS
 10
47.549684866991463
 20
88.110652583911062
 30
0.0
  0
VERTEX
  5
2365
  8
LAYER2
  6
CONTINUOUS
 10
47.502942652103343
 20
88.173198498429144
 30
0.0
  0
VERTEX
  5
2366
  8
LAYER2
  6
CONTINUOUS
 10
47.460236084586199
 20
88.238365035558189
 30
0.0
  0
VERTEX
  5
2367
  8
LAYER2
  6
CONTINUOUS
 10
47.419657005328077
 20
88.307607074092175
 30
0.0
  0
VERTEX
  5
2368
  8
LAYER2
  6
CONTINUOUS
 10
47.382514939923212
 20
88.378787589927214
 30
0.0
  0
VERTEX
  5
2369
  8
LAYER2
  6
CONTINUOUS
 10
47.348087138557162
 20
88.453779297924186
 30
0.0
  0
VERTEX
  5
236A
  8
LAYER2
  6
CONTINUOUS
 10
47.317398780017243
 20
88.530373813561198
 30
0.0
  0
VERTEX
  5
236B
  8
LAYER2
  6
CONTINUOUS
 10
47.289688756044463
 20
88.610368807249074
 30
0.0
  0
VERTEX
  5
236C
  8
LAYER2
  6
CONTINUOUS
 10
47.265764951875433
 20
88.691577273004185
 30
0.0
  0
VERTEX
  5
236D
  8
LAYER2
  6
CONTINUOUS
 10
47.245168119306193
 20
88.775782286882205
 30
0.0
  0
VERTEX
  5
236E
  8
LAYER2
  6
CONTINUOUS
 10
47.228490802510223
 20
88.860851534796083
 30
0.0
  0
VERTEX
  5
236F
  8
LAYER2
  6
CONTINUOUS
 10
47.215462244137477
 20
88.948499602671092
 30
0.0
  0
VERTEX
  5
2370
  8
LAYER2
  6
CONTINUOUS
 10
47.206453678933137
 20
89.0366501654822
 30
0.0
  0
VERTEX
  5
2371
  8
LAYER2
  6
CONTINUOUS
 10
47.201378720818298
 20
89.126962553820192
 30
0.0
  0
VERTEX
  5
2372
  8
LAYER2
  6
CONTINUOUS
 10
47.200530928153171
 20
89.217426731604192
 30
0.0
  0
VERTEX
  5
2373
  8
LAYER2
  6
CONTINUOUS
 10
47.20402703605405
 20
89.309687655415203
 30
0.0
  0
VERTEX
  5
2374
  8
LAYER2
  6
CONTINUOUS
 10
47.211599897182502
 20
89.401634799704183
 30
0.0
  0
VERTEX
  5
2375
  8
LAYER2
  6
CONTINUOUS
 10
47.223422646617209
 20
89.494917653077167
 30
0.0
  0
VERTEX
  5
2376
  8
LAYER2
  6
CONTINUOUS
 10
47.24053793303014
 20
89.587727936325095
 30
0.0
  0
VERTEX
  5
2377
  8
LAYER2
  6
CONTINUOUS
 10
47.263786233070157
 20
89.681936723578175
 30
0.0
  0
VERTEX
  5
2378
  8
LAYER2
  6
CONTINUOUS
 10
47.288222382709243
 20
89.774159708010089
 30
0.0
  0
VERTEX
  5
2379
  8
LAYER2
  6
CONTINUOUS
 10
47.313126142957231
 20
89.866002532989086
 30
0.0
  0
VERTEX
  5
237A
  8
LAYER2
  6
CONTINUOUS
 10
47.339456755560491
 20
89.930005195164185
 30
0.0
  0
VERTEX
  5
237B
  8
LAYER2
  6
CONTINUOUS
 10
47.355530593229219
 20
89.959383681301105
 30
0.0
  0
VERTEX
  5
237C
  8
LAYER2
  6
CONTINUOUS
 10
47.422225478049398
 20
90.057949510508195
 30
0.0
  0
VERTEX
  5
237D
  8
LAYER2
  6
CONTINUOUS
 10
47.442564814014418
 20
90.097440976804194
 30
0.0
  0
VERTEX
  5
237E
  8
LAYER2
  6
CONTINUOUS
 10
47.447332463224363
 20
90.123902552614197
 30
0.0
  0
VERTEX
  5
237F
  8
LAYER2
  6
CONTINUOUS
 10
47.443339911601349
 20
90.141853422741079
 30
0.0
  0
SEQEND
  5
2380
  8
LAYER2
  6
CONTINUOUS
  0
LINE
  5
1CAA
  8
LAYER2
  6
CONTINUOUS
 10
65.385177995287336
 20
87.816700416903089
 30
0.0
 11
57.896051915588139
 21
87.816700416903089
 31
0.0
  0
LINE
  5
1CAB
  8
LAYER2
  6
CONTINUOUS
 10
57.896051915588139
 20
87.816700416903089
 30
0.0
 11
56.912846172950253
 21
92.856860045614184
 31
0.0
  0
ARC
  5
1CAC
  8
LAYER4
 10
110.00999975015711
 20
63.664999923959193
 30
0.0
 40
1.0
 50
0.0
 51
90.0
  0
LINE
  5
1CAD
  8
LAYER4
 10
111.00999975015679
 20
46.264999923959202
 30
0.0
 11
111.00999975015679
 21
63.6649999239593
 31
0.0
  0
LINE
  5
1CAE
  8
LAYER4
 10
110.4999997501568
 20
43.344999923959371
 30
0.0
 11
110.4999997501568
 21
42.344999923959378
 31
0.0
  0
LINE
  5
1CAF
  8
LAYER4
 10
111.8099997501569
 20
43.344999923959087
 30
0.0
 11
110.4999997501568
 21
42.344999923959378
 31
0.0
  0
LINE
  5
1CB0
  8
LAYER2
  6
CONTINUOUS
 10
109.3381678370322
 20
36.26183183708406
 30
0.0
 11
109.9999997501569
 21
35.59999992395921
 31
0.0
  0
ARC
  5
1CB1
  8
LAYER4
 10
110.00999975015711
 20
46.264999923959088
 30
0.0
 40
1.0
 50
270.0
 51
0.0
  0
LINE
  5
1CB2
  8
LAYER4
 10
111.8099997501569
 20
44.344999923959087
 30
0.0
 11
111.8099997501569
 21
43.344999923959087
 31
0.0
  0
LINE
  5
1CB3
  8
LAYER4
 10
109.3381678370322
 20
43.344999923959371
 30
0.0
 11
110.4999997501568
 21
43.344999923959371
 31
0.0
  0
LINE
  5
1CB4
  8
LAYER4
 10
109.3381678370322
 20
44.344999923959172
 30
0.0
 11
111.8099997501569
 21
44.344999923959087
 31
0.0
  0
LINE
  5
1CB5
  8
LAYER4
 10
109.3381678370322
 20
45.264999923959181
 30
0.0
 11
110.00999975015711
 21
45.264999923959181
 31
0.0
  0
LINE
  5
1CB6
  8
LAYER4
 10
111.8099997501569
 20
66.584999923959373
 30
0.0
 11
110.4999997501568
 21
67.584999923959089
 31
0.0
  0
LINE
  5
1CB7
  8
LAYER4
 10
111.8099997501569
 20
65.584999923959373
 30
0.0
 11
111.8099997501569
 21
66.584999923959373
 31
0.0
  0
LINE
  5
1CB8
  8
LAYER4
 10
110.4999997501568
 20
66.584999923959089
 30
0.0
 11
110.4999997501568
 21
67.584999923959089
 31
0.0
  0
LINE
  5
1CB9
  8
LAYER4
 10
109.3381678370322
 20
65.584999923959202
 30
0.0
 11
111.8099997501569
 21
65.584999923959373
 31
0.0
  0
LINE
  5
1CBA
  8
LAYER4
 10
109.3381678370322
 20
66.584999923959089
 30
0.0
 11
110.4999997501568
 21
66.584999923959089
 31
0.0
  0
LINE
  5
1CBB
  8
LAYER4
 10
109.3381678370322
 20
64.6649999239593
 30
0.0
 11
110.00999975015711
 21
64.6649999239593
 31
0.0
  0
LINE
  5
1CBC
  8
LAYER1
  6
CONTINUOUS
 10
216.55721614801121
 20
20.599999923959199
 30
0.0
 11
216.55721614801121
 21
30.780643890753449
 31
0.0
  0
ARC
  5
1CBD
  8
LAYER2
  6
CONTINUOUS
 10
222.50754795322641
 20
37.599999923959182
 30
0.0
 40
2.0
 50
180.0
 51
270.0
  0
LINE
  5
1CBE
  8
LAYER1
  6
CONTINUOUS
 10
234.00485095322631
 20
19.152365118744211
 30
0.0
 11
218.00485095322651
 21
19.152365118744211
 31
0.0
  0
LINE
  5
1CBF
  8
LAYER1
  6
CONTINUOUS
 10
234.00485095322631
 20
19.099999923959199
 30
0.0
 11
218.00485095322651
 21
19.099999923959199
 31
0.0
  0
ARC
  5
1CC0
  8
LAYER1
  6
CONTINUOUS
 10
218.00485095322651
 20
20.599999923959199
 30
0.0
 40
1.4476348052149981
 50
180.00001200000051
 51
270.0
  0
ARC
  5
1CC1
  8
LAYER1
  6
CONTINUOUS
 10
218.00485095322651
 20
20.599999923959199
 30
0.0
 40
1.5
 50
180.00001200000051
 51
270.0
  0
ARC
  5
1CC2
  8
LAYER2
  6
CONTINUOUS
 10
217.50485095322631
 20
31.099999923959221
 30
0.0
 40
1.0
 50
180.0
 51
270.0
  0
LINE
  5
1CC3
  8
LAYER1
  6
CONTINUOUS
 10
240.55721614801129
 20
23.060087923959181
 30
0.0
 11
240.55721614801129
 21
20.599999923959199
 31
0.0
  0
LINE
  5
1CC4
  8
LAYER1
  6
CONTINUOUS
 10
235.4524857584411
 20
23.060087923959181
 30
0.0
 11
235.4524857584411
 21
20.599999923959199
 31
0.0
  0
LINE
  5
1CC5
  8
LAYER1
  6
CONTINUOUS
 10
240.50485095322631
 20
23.060087923959181
 30
0.0
 11
240.50485095322631
 21
20.599999923959199
 31
0.0
  0
LINE
  5
1CC6
  8
LAYER1
  6
CONTINUOUS
 10
235.50485095322631
 20
23.060087923959181
 30
0.0
 11
235.50485095322631
 21
20.599999923959199
 31
0.0
  0
ARC
  5
1CC7
  8
LAYER1
  6
CONTINUOUS
 10
234.00485095322631
 20
20.599999923959199
 30
0.0
 40
1.4476348052149981
 50
270.0
 51
0.0
  0
ARC
  5
1CC8
  8
LAYER1
  6
CONTINUOUS
 10
234.00485095322631
 20
20.599999923959199
 30
0.0
 40
1.5
 50
270.0
 51
0.0
  0
ARC
  5
1CC9
  8
LAYER1
  6
CONTINUOUS
 10
242.00485095322631
 20
20.599999923959199
 30
0.0
 40
1.4476348052149981
 50
180.0
 51
270.0
  0
ARC
  5
1CCA
  8
LAYER1
  6
CONTINUOUS
 10
242.00485095322631
 20
20.599999923959199
 30
0.0
 40
1.5
 50
180.0
 51
270.0
  0
LINE
  5
1CCB
  8
LAYER1
  6
CONTINUOUS
 10
232.4612132909065
 20
30.056362261638171
 30
0.0
 11
243.54848861554709
 21
30.056362261638171
 31
0.0
  0
LINE
  5
1CCC
  8
LAYER1
  6
CONTINUOUS
 10
232.4524857584413
 20
29.547634729174199
 30
0.0
 11
243.55721614801121
 21
29.547634729174199
 31
0.0
  0
LINE
  5
1CCD
  8
LAYER1
  6
CONTINUOUS
 10
232.50485095322651
 20
30.09999992395921
 30
0.0
 11
243.50485095322639
 21
30.09999992395921
 31
0.0
  0
LINE
  5
1CCE
  8
LAYER1
  6
CONTINUOUS
 10
232.4612132909065
 20
30.056362261638171
 30
0.0
 11
232.4524857584413
 21
29.547634729174199
 31
0.0
  0
LINE
  5
1CCF
  8
LAYER1
  6
CONTINUOUS
 10
232.50485095322651
 20
30.09999992395921
 30
0.0
 11
232.4612132909065
 21
30.056362261638171
 31
0.0
  0
LINE
  5
1CD0
  8
LAYER1
  6
CONTINUOUS
 10
232.45248575844241
 20
30.09999992395921
 30
0.0
 11
232.45248575844241
 21
29.547634729174199
 31
0.0
  0
ARC
  5
1CD1
  8
LAYER1
  6
CONTINUOUS
 10
238.00485095322631
 20
23.060087923959181
 30
0.0
 40
2.5523651947850001
 50
0.0
 51
180.0
  0
ARC
  5
1CD2
  8
LAYER1
  6
CONTINUOUS
 10
238.00485095322631
 20
23.060087923959181
 30
0.0
 40
2.5
 50
0.0
 51
180.0
  0
LINE
  5
1CD3
  8
LAYER1
  6
CONTINUOUS
 10
243.54848861554709
 20
30.056362261639201
 30
0.0
 11
243.55721614801121
 21
29.547634729174199
 31
0.0
  0
LINE
  5
1CD4
  8
LAYER1
  6
CONTINUOUS
 10
243.50485095322639
 20
30.09999992395921
 30
0.0
 11
243.54848861554709
 21
30.056362261638171
 31
0.0
  0
LINE
  5
1CD5
  8
LAYER1
  6
CONTINUOUS
 10
243.55721614801121
 20
30.09999992395921
 30
0.0
 11
243.55721614801121
 21
29.547634729174199
 31
0.0
  0
POLYLINE
  5
1CD6
  8
LAYER3
  6
CONTINUOUS
 66
     1
 10
0.0
 20
0.0
 30
0.0
 70
     1
  0
VERTEX
  5
2381
  8
LAYER3
  6
CONTINUOUS
 10
223.30485095322641
 20
42.019999923959091
 30
0.0
  0
VERTEX
  5
2382
  8
LAYER3
  6
CONTINUOUS
 10
229.30485095322641
 20
42.019999923959091
 30
0.0
  0
VERTEX
  5
2383
  8
LAYER3
  6
CONTINUOUS
 10
229.30485095322641
 20
68.019999923959091
 30
0.0
  0
VERTEX
  5
2384
  8
LAYER3
  6
CONTINUOUS
 10
223.30485095322641
 20
68.019999923959091
 30
0.0
  0
SEQEND
  5
2385
  8
LAYER3
  6
CONTINUOUS
  0
ARC
  5
1CDC
  8
LAYER4
 10
227.42985095322649
 20
64.053362491667599
 30
0.0
 40
0.5
 50
0.0
 51
101.4695303328683
  0
LINE
  5
1CDD
  8
LAYER4
 10
223.50485095322631
 20
42.019999923959091
 30
0.0
 11
223.50485095322631
 21
68.019999923959091
 31
0.0
  0
LINE
  5
1CDE
  8
LAYER4
 10
228.9048509532264
 20
42.019999923959091
 30
0.0
 11
228.9048509532264
 21
68.019999923959091
 31
0.0
  0
ARC
  5
1CDF
  8
LAYER4
 10
224.9798509532265
 20
46.373738805527069
 30
0.0
 40
0.5
 50
180.0
 51
258.5304696671314
  0
ARC
  5
1CE0
  8
LAYER4
 10
224.9798509532265
 20
63.556261042391881
 30
0.0
 40
0.5
 50
101.4695303328815
 51
180.0
  0
ARC
  5
1CE1
  8
LAYER2
  6
CONTINUOUS
 10
222.50485095322639
 20
37.599999923959182
 30
0.0
 40
1.0
 50
180.0
 51
270.0
  0
LINE
  5
1CE2
  8
LAYER4
 10
224.4798509532265
 20
63.556261042391881
 30
0.0
 11
224.4798509532265
 21
46.373738805527069
 31
0.0
  0
LINE
  5
1CE3
  8
LAYER4
 10
227.92985095322641
 20
64.053362491667599
 30
0.0
 11
227.92985095322641
 21
45.876637356251592
 31
0.0
  0
LINE
  5
1CE4
  8
LAYER4
 10
227.80485095322669
 20
44.344999923959087
 30
0.0
 11
227.80485095322641
 21
42.344999923959378
 31
0.0
  0
LINE
  5
1CE5
  8
LAYER4
 10
224.60485095322639
 20
44.344999923959087
 30
0.0
 11
224.60485095322639
 21
42.344999923959378
 31
0.0
  0
ARC
  5
1CE6
  8
LAYER4
 10
226.2048509532263
 20
41.499249899464381
 30
0.0
 40
1.5999999999999941
 50
31.910490366514541
 51
148.08950963348539
  0
LINE
  5
1CE7
  8
LAYER4
 10
227.80485095322641
 20
42.344999923959378
 30
0.0
 11
227.56305082661279
 21
42.344999923959378
 31
0.0
  0
LINE
  5
1CE8
  8
LAYER4
 10
224.8466510798398
 20
42.344999923959087
 30
0.0
 11
224.60485095322639
 21
42.344999923959378
 31
0.0
  0
ARC
  5
1CE9
  8
LAYER4
 10
227.42985095322649
 20
45.876637356251592
 30
0.0
 40
0.5
 50
258.5304696671314
 51
0.0
  0
LINE
  5
1CEA
  8
LAYER4
 10
227.80485095322669
 20
44.344999923959087
 30
0.0
 11
224.60485095322639
 21
44.344999923959087
 31
0.0
  0
LINE
  5
1CEB
  8
LAYER4
 10
227.33042756012679
 20
45.386622061689494
 30
0.0
 11
224.88042756012689
 21
45.883723510965083
 31
0.0
  0
LINE
  5
1CEC
  8
LAYER4
 10
227.33042756012679
 20
64.543377786229598
 30
0.0
 11
224.88042756012689
 21
64.046276336953596
 31
0.0
  0
POLYLINE
  5
1CED
  8
LAYER3
  6
CONTINUOUS
 66
     1
 10
0.0
 20
0.0
 30
0.0
 70
     1
  0
VERTEX
  5
2386
  8
LAYER3
  6
CONTINUOUS
 10
222.50485095322639
 20
87.419999923959026
 30
0.0
  0
VERTEX
  5
2387
  8
LAYER3
  6
CONTINUOUS
 10
235.50485095322631
 20
87.419999923959026
 30
0.0
  0
VERTEX
  5
2388
  8
LAYER3
  6
CONTINUOUS
 10
235.50485095322631
 20
73.419999923959097
 30
0.0
  0
VERTEX
  5
2389
  8
LAYER3
  6
CONTINUOUS
 10
222.50485095322639
 20
73.419999923959097
 30
0.0
  0
SEQEND
  5
238A
  8
LAYER3
  6
CONTINUOUS
  0
POLYLINE
  5
1CF3
  8
LAYER4
 66
     1
 10
0.0
 20
0.0
 30
0.0
 70
     1
  0
VERTEX
  5
238B
  8
LAYER4
 10
223.50485095322631
 20
86.439999923959164
 30
0.0
  0
VERTEX
  5
238C
  8
LAYER4
 10
234.50485095322651
 20
86.439999923959164
 30
0.0
  0
VERTEX
  5
238D
  8
LAYER4
 10
234.50485095322651
 20
74.399999923959214
 30
0.0
  0
VERTEX
  5
238E
  8
LAYER4
 10
223.50485095322631
 20
74.399999923959214
 30
0.0
  0
SEQEND
  5
238F
  8
LAYER4
  0
ARC
  5
1CF9
  8
LAYER3
 10
225.50485095322631
 20
91.619999923959185
 30
0.0
 40
1.5
 50
90.0
 51
270.0
  0
LINE
  5
1CFA
  8
0
  6
CONTINUOUS
 10
223.50485095322631
 20
87.419999923959026
 30
0.0
 11
223.50485095322631
 21
73.419999923959097
 31
0.0
  0
LINE
  5
1CFB
  8
LAYER4
  6
BYBLOCK
 10
230.4448509532269
 20
80.41999992395867
 30
0.0
 11
230.4448509532269
 21
77.969999923959804
 31
0.0
  0
LINE
  5
1CFC
  8
LAYER4
  6
BYBLOCK
 10
231.7311145122824
 20
79.859460243854897
 30
0.0
 11
231.7311145122824
 21
78.909575876415687
 31
0.0
  0
LINE
  5
1CFD
  8
LAYER4
  6
BYBLOCK
 10
231.46848346435769
 20
79.859460243854897
 30
0.0
 11
231.46848346435769
 21
78.909575876415687
 31
0.0
  0
LINE
  5
1CFE
  8
LAYER4
  6
BYBLOCK
 10
230.74485095322621
 20
80.41999992395867
 30
0.0
 11
230.74485095322621
 21
77.66999992395867
 31
0.0
  0
LINE
  5
1CFF
  8
LAYER4
  6
BYBLOCK
 10
232.71737807134011
 20
77.77985653672809
 30
0.0
 11
232.7173780713394
 21
80.41999992395867
 31
0.0
  0
LINE
  5
1D00
  8
LAYER4
  6
BYBLOCK
 10
233.08485095322629
 20
80.41999992395867
 30
0.0
 11
233.08485095322629
 21
77.66999992395867
 31
0.0
  0
LINE
  5
1D01
  8
LAYER4
  6
BYBLOCK
 10
227.94485095322511
 20
80.41999992395867
 30
0.0
 11
227.94485095322511
 21
77.969999923959804
 31
0.0
  0
LINE
  5
1D02
  8
LAYER4
  6
BYBLOCK
 10
227.94485095322511
 20
80.41999992395867
 30
0.0
 11
227.94485095322511
 21
77.969999923959804
 31
0.0
  0
LINE
  5
1D03
  8
LAYER4
  6
BYBLOCK
 10
226.6585873941695
 20
79.859460243853974
 30
0.0
 11
226.6585873941695
 21
78.909575876414749
 31
0.0
  0
LINE
  5
1D04
  8
LAYER4
  6
BYBLOCK
 10
226.92121844209311
 20
79.859460243853974
 30
0.0
 11
226.92121844209399
 21
78.909575876414749
 31
0.0
  0
LINE
  5
1D05
  8
LAYER4
  6
BYBLOCK
 10
225.3048509532255
 20
80.41999992395867
 30
0.0
 11
225.3048509532255
 21
76.194999923959287
 31
0.0
  0
LINE
  5
1D06
  8
LAYER4
  6
BYBLOCK
 10
225.67232383511171
 20
76.522165241425412
 30
0.0
 11
225.67232383511239
 21
80.41999992395867
 31
0.0
  0
LINE
  5
1D07
  8
LAYER4
  6
BYBLOCK
 10
227.64485095322561
 20
80.41999992395867
 30
0.0
 11
227.64485095322561
 21
77.66999992395867
 31
0.0
  0
LINE
  5
1D08
  8
LAYER4
  6
BYBLOCK
 10
227.64485095322561
 20
80.41999992395867
 30
0.0
 11
227.64485095322561
 21
77.66999992395867
 31
0.0
  0
LINE
  5
1D09
  8
LAYER4
 10
227.80485095322641
 20
67.584999923959089
 30
0.0
 11
227.56305082661279
 21
67.584999923959089
 31
0.0
  0
LINE
  5
1D0A
  8
LAYER4
 10
227.80485095322669
 20
65.584999923959373
 30
0.0
 11
227.80485095322641
 21
67.584999923959089
 31
0.0
  0
LINE
  5
1D0B
  8
LAYER4
 10
224.8466510798398
 20
67.584999923959373
 30
0.0
 11
224.60485095322639
 21
67.584999923959089
 31
0.0
  0
LINE
  5
1D0C
  8
LAYER4
 10
224.60485095322639
 20
65.584999923959373
 30
0.0
 11
224.60485095322639
 21
67.584999923959089
 31
0.0
  0
ARC
  5
1D0D
  8
LAYER4
 10
226.2048509532263
 20
68.430749948454093
 30
0.0
 40
1.5999999999999941
 50
211.9104903665141
 51
328.0895096334857
  0
LINE
  5
1D0E
  8
LAYER4
 10
227.80485095322669
 20
65.584999923959373
 30
0.0
 11
224.60485095322639
 21
65.584999923959373
 31
0.0
  0
LINE
  5
1D0F
  8
LAYER4
  6
BYBLOCK
 10
229.19485095322599
 20
77.969999923959804
 30
0.0
 11
230.4448509532269
 21
77.969999923959804
 31
0.0
  0
LINE
  5
1D10
  8
LAYER4
  6
BYBLOCK
 10
229.19485095322599
 20
77.66999992395867
 30
0.0
 11
230.74485095322621
 21
77.66999992395867
 31
0.0
  0
LINE
  5
1D11
  8
LAYER4
  6
BYBLOCK
 10
229.9407938889928
 20
77.15129012073487
 30
0.0
 11
229.19485095322599
 21
77.15129012073487
 31
0.0
  0
LINE
  5
1D12
  8
LAYER4
  6
BYBLOCK
 10
227.64485095322561
 20
78.909575876414749
 30
0.0
 11
226.6585873941695
 21
78.909575876414749
 31
0.0
  0
LINE
  5
1D13
  8
LAYER4
  6
BYBLOCK
 10
225.67232383511171
 20
76.522165241425412
 30
0.0
 11
228.13509606609139
 21
76.522165241425412
 31
0.0
  0
LINE
  5
1D14
  8
LAYER4
  6
BYBLOCK
 10
226.77985095322589
 20
76.194999923959287
 30
0.0
 11
225.3048509532255
 21
76.194999923959287
 31
0.0
  0
LINE
  5
1D15
  8
LAYER4
  6
BYBLOCK
 10
225.67232383511171
 20
76.522165241425412
 30
0.0
 11
225.3048509532255
 21
76.194999923959287
 31
0.0
  0
LINE
  5
1D16
  8
LAYER4
  6
BYBLOCK
 10
227.82923604741521
 20
76.194999923959287
 30
0.0
 11
228.13509606609139
 21
76.522165241425412
 31
0.0
  0
LINE
  5
1D17
  8
LAYER4
  6
BYBLOCK
 10
227.82923604741521
 20
76.194999923959287
 30
0.0
 11
228.1132502699914
 21
75.297499923959194
 31
0.0
  0
LINE
  5
1D18
  8
LAYER4
  6
BYBLOCK
 10
228.13509606609139
 20
76.522165241425412
 30
0.0
 11
228.1132502699914
 21
75.297499923959194
 31
0.0
  0
LINE
  5
1D19
  8
LAYER4
  6
BYBLOCK
 10
228.1132502699914
 20
75.297499923959194
 30
0.0
 11
228.44890801745919
 21
77.15129012073487
 31
0.0
  0
LINE
  5
1D1A
  8
LAYER4
  6
BYBLOCK
 10
226.77985095322589
 20
76.194999923959287
 30
0.0
 11
227.82923604741521
 21
76.194999923959287
 31
0.0
  0
LINE
  5
1D1B
  8
LAYER4
  6
BYBLOCK
 10
227.94485095322511
 20
77.969999923959804
 30
0.0
 11
227.64485095322561
 21
77.66999992395867
 31
0.0
  0
LINE
  5
1D1C
  8
LAYER4
  6
BYBLOCK
 10
227.94485095322511
 20
77.969999923959804
 30
0.0
 11
227.64485095322561
 21
77.66999992395867
 31
0.0
  0
LINE
  5
1D1D
  8
LAYER4
  6
BYBLOCK
 10
229.19485095322599
 20
77.969999923959804
 30
0.0
 11
227.94485095322511
 21
77.969999923959804
 31
0.0
  0
LINE
  5
1D1E
  8
LAYER4
  6
BYBLOCK
 10
229.19485095322599
 20
77.66999992395867
 30
0.0
 11
227.64485095322561
 21
77.66999992395867
 31
0.0
  0
LINE
  5
1D1F
  8
LAYER4
  6
BYBLOCK
 10
229.19485095322599
 20
77.969999923959804
 30
0.0
 11
227.94485095322511
 21
77.969999923959804
 31
0.0
  0
LINE
  5
1D20
  8
LAYER4
  6
BYBLOCK
 10
229.19485095322599
 20
77.66999992395867
 30
0.0
 11
227.64485095322561
 21
77.66999992395867
 31
0.0
  0
LINE
  5
1D21
  8
LAYER4
  6
BYBLOCK
 10
228.44890801745919
 20
77.15129012073487
 30
0.0
 11
229.19485095322599
 21
77.15129012073487
 31
0.0
  0
LINE
  5
1D22
  8
LAYER4
  6
BYBLOCK
 10
230.74485095322621
 20
78.909575876415687
 30
0.0
 11
231.7311145122824
 21
78.909575876415687
 31
0.0
  0
LINE
  5
1D23
  8
LAYER4
  6
BYBLOCK
 10
230.27645163646071
 20
75.297499923959194
 30
0.0
 11
229.9407938889928
 21
77.15129012073487
 31
0.0
  0
LINE
  5
1D24
  8
LAYER4
  6
BYBLOCK
 10
230.25460584036071
 20
76.522165241425412
 30
0.0
 11
230.27645163646071
 21
75.297499923959194
 31
0.0
  0
LINE
  5
1D25
  8
LAYER4
  6
BYBLOCK
 10
230.56046585903661
 20
76.194999923959287
 30
0.0
 11
230.27645163646071
 21
75.297499923959194
 31
0.0
  0
LINE
  5
1D26
  8
LAYER4
  6
BYBLOCK
 10
230.56046585903661
 20
76.194999923959287
 30
0.0
 11
230.25460584036071
 21
76.522165241425412
 31
0.0
  0
LINE
  5
1D27
  8
LAYER4
  6
BYBLOCK
 10
233.08485095322629
 20
77.66999992395867
 30
0.0
 11
231.6098509532261
 21
76.194999923959287
 31
0.0
  0
LINE
  5
1D28
  8
LAYER4
  6
BYBLOCK
 10
232.71737807134011
 20
77.77985653672809
 30
0.0
 11
231.4596867760375
 21
76.522165241425412
 31
0.0
  0
LINE
  5
1D29
  8
LAYER4
  6
BYBLOCK
 10
231.6098509532261
 20
76.194999923959287
 30
0.0
 11
231.4596867760375
 21
76.522165241425412
 31
0.0
  0
LINE
  5
1D2A
  8
LAYER4
  6
BYBLOCK
 10
231.6098509532261
 20
76.194999923959287
 30
0.0
 11
230.56046585903661
 21
76.194999923959287
 31
0.0
  0
LINE
  5
1D2B
  8
LAYER4
  6
BYBLOCK
 10
231.4596867760375
 20
76.522165241425412
 30
0.0
 11
230.25460584036071
 21
76.522165241425412
 31
0.0
  0
LINE
  5
1D2C
  8
LAYER4
  6
BYBLOCK
 10
230.4448509532269
 20
77.969999923959804
 30
0.0
 11
230.74485095322621
 21
77.66999992395867
 31
0.0
  0
LINE
  5
1D2D
  8
LAYER4
  6
BYBLOCK
 10
229.19485095322599
 20
82.869999923959384
 30
0.0
 11
230.4448509532269
 21
82.869999923959384
 31
0.0
  0
LINE
  5
1D2E
  8
LAYER4
  6
BYBLOCK
 10
229.19485095322599
 20
83.16999992395867
 30
0.0
 11
230.74485095322621
 21
83.16999992395867
 31
0.0
  0
LINE
  5
1D2F
  8
LAYER4
  6
BYBLOCK
 10
229.9407938889928
 20
83.688709727184417
 30
0.0
 11
229.19485095322599
 21
83.688709727184417
 31
0.0
  0
LINE
  5
1D30
  8
LAYER4
  6
BYBLOCK
 10
225.67232383511171
 20
84.317834606492951
 30
0.0
 11
228.13509606609139
 21
84.317834606492951
 31
0.0
  0
LINE
  5
1D31
  8
LAYER4
  6
BYBLOCK
 10
226.77985095322589
 20
84.644999923959091
 30
0.0
 11
225.3048509532255
 21
84.644999923959091
 31
0.0
  0
LINE
  5
1D32
  8
LAYER4
  6
BYBLOCK
 10
225.67232383511171
 20
84.317834606492951
 30
0.0
 11
225.3048509532255
 21
84.644999923959091
 31
0.0
  0
LINE
  5
1D33
  8
LAYER4
  6
BYBLOCK
 10
226.77985095322589
 20
84.644999923959091
 30
0.0
 11
227.82923604741521
 21
84.644999923959091
 31
0.0
  0
LINE
  5
1D34
  8
LAYER4
  6
BYBLOCK
 10
228.13509606609139
 20
84.317834606492951
 30
0.0
 11
228.1132502699914
 21
85.54249992395998
 31
0.0
  0
LINE
  5
1D35
  8
LAYER4
  6
BYBLOCK
 10
227.82923604741521
 20
84.644999923959091
 30
0.0
 11
228.1132502699914
 21
85.54249992395998
 31
0.0
  0
LINE
  5
1D36
  8
LAYER4
  6
BYBLOCK
 10
227.82923604741521
 20
84.644999923959091
 30
0.0
 11
228.13509606609139
 21
84.317834606492951
 31
0.0
  0
LINE
  5
1D37
  8
LAYER4
  6
BYBLOCK
 10
226.92121844209311
 20
80.980539604064404
 30
0.0
 11
226.92121844209399
 21
81.930423971503501
 31
0.0
  0
LINE
  5
1D38
  8
LAYER4
  6
BYBLOCK
 10
226.6585873941695
 20
80.980539604064404
 30
0.0
 11
226.6585873941695
 21
81.930423971503501
 31
0.0
  0
LINE
  5
1D39
  8
LAYER4
  6
BYBLOCK
 10
227.64485095322561
 20
80.41999992395867
 30
0.0
 11
227.64485095322561
 21
83.16999992395867
 31
0.0
  0
LINE
  5
1D3A
  8
LAYER4
  6
BYBLOCK
 10
227.94485095322511
 20
80.41999992395867
 30
0.0
 11
227.94485095322511
 21
82.869999923959384
 31
0.0
  0
LINE
  5
1D3B
  8
LAYER4
  6
BYBLOCK
 10
227.64485095322561
 20
80.41999992395867
 30
0.0
 11
227.64485095322561
 21
83.16999992395867
 31
0.0
  0
LINE
  5
1D3C
  8
LAYER4
  6
BYBLOCK
 10
227.94485095322511
 20
80.41999992395867
 30
0.0
 11
227.94485095322511
 21
82.869999923959384
 31
0.0
  0
LINE
  5
1D3D
  8
LAYER4
  6
BYBLOCK
 10
227.64485095322561
 20
79.859460243853974
 30
0.0
 11
226.6585873941695
 21
79.859460243853974
 31
0.0
  0
LINE
  5
1D3E
  8
LAYER4
  6
BYBLOCK
 10
227.64485095322561
 20
80.980539604064404
 30
0.0
 11
226.6585873941695
 21
80.980539604064404
 31
0.0
  0
LINE
  5
1D3F
  8
LAYER4
  6
BYBLOCK
 10
227.64485095322561
 20
81.930423971503501
 30
0.0
 11
226.6585873941695
 21
81.930423971503501
 31
0.0
  0
LINE
  5
1D40
  8
LAYER4
  6
BYBLOCK
 10
227.94485095322511
 20
82.869999923959384
 30
0.0
 11
227.64485095322561
 21
83.16999992395867
 31
0.0
  0
LINE
  5
1D41
  8
LAYER4
  6
BYBLOCK
 10
227.94485095322511
 20
82.869999923959384
 30
0.0
 11
227.64485095322561
 21
83.16999992395867
 31
0.0
  0
LINE
  5
1D42
  8
LAYER4
  6
BYBLOCK
 10
225.67232383511171
 20
84.317834606492951
 30
0.0
 11
225.67232383511239
 21
80.41999992395867
 31
0.0
  0
LINE
  5
1D43
  8
LAYER4
  6
BYBLOCK
 10
225.3048509532255
 20
80.41999992395867
 30
0.0
 11
225.3048509532255
 21
84.644999923959091
 31
0.0
  0
LINE
  5
1D44
  8
LAYER4
  6
BYBLOCK
 10
228.1132502699914
 20
85.54249992395998
 30
0.0
 11
228.44890801745919
 21
83.688709727184417
 31
0.0
  0
LINE
  5
1D45
  8
LAYER4
  6
BYBLOCK
 10
228.44890801745919
 20
83.688709727184417
 30
0.0
 11
229.19485095322599
 21
83.688709727184417
 31
0.0
  0
LINE
  5
1D46
  8
LAYER4
  6
BYBLOCK
 10
229.19485095322599
 20
83.16999992395867
 30
0.0
 11
227.64485095322561
 21
83.16999992395867
 31
0.0
  0
LINE
  5
1D47
  8
LAYER4
  6
BYBLOCK
 10
229.19485095322599
 20
82.869999923959384
 30
0.0
 11
227.94485095322511
 21
82.869999923959384
 31
0.0
  0
LINE
  5
1D48
  8
LAYER4
  6
BYBLOCK
 10
229.19485095322599
 20
83.16999992395867
 30
0.0
 11
227.64485095322561
 21
83.16999992395867
 31
0.0
  0
LINE
  5
1D49
  8
LAYER4
  6
BYBLOCK
 10
229.19485095322599
 20
82.869999923959384
 30
0.0
 11
227.94485095322511
 21
82.869999923959384
 31
0.0
  0
LINE
  5
1D4A
  8
LAYER4
  6
BYBLOCK
 10
230.25460584036071
 20
84.317834606492951
 30
0.0
 11
230.27645163646071
 21
85.54249992395998
 31
0.0
  0
LINE
  5
1D4B
  8
LAYER4
  6
BYBLOCK
 10
230.56046585903661
 20
84.644999923959091
 30
0.0
 11
230.25460584036071
 21
84.317834606492951
 31
0.0
  0
LINE
  5
1D4C
  8
LAYER4
  6
BYBLOCK
 10
230.56046585903661
 20
84.644999923959091
 30
0.0
 11
230.27645163646071
 21
85.54249992395998
 31
0.0
  0
LINE
  5
1D4D
  8
LAYER4
  6
BYBLOCK
 10
231.6098509532261
 20
84.644999923959091
 30
0.0
 11
231.4596867760375
 21
84.317834606492951
 31
0.0
  0
LINE
  5
1D4E
  8
LAYER4
  6
BYBLOCK
 10
231.4596867760375
 20
84.317834606492951
 30
0.0
 11
230.25460584036071
 21
84.317834606492951
 31
0.0
  0
LINE
  5
1D4F
  8
LAYER4
  6
BYBLOCK
 10
231.6098509532261
 20
84.644999923959091
 30
0.0
 11
230.56046585903661
 21
84.644999923959091
 31
0.0
  0
LINE
  5
1D50
  8
LAYER4
  6
BYBLOCK
 10
230.4448509532269
 20
80.41999992395867
 30
0.0
 11
230.4448509532269
 21
82.869999923959384
 31
0.0
  0
LINE
  5
1D51
  8
LAYER4
  6
BYBLOCK
 10
230.74485095322621
 20
80.41999992395867
 30
0.0
 11
230.74485095322621
 21
83.16999992395867
 31
0.0
  0
LINE
  5
1D52
  8
LAYER4
  6
BYBLOCK
 10
231.46848346435769
 20
80.980539604064404
 30
0.0
 11
231.46848346435769
 21
81.930423971503501
 31
0.0
  0
LINE
  5
1D53
  8
LAYER4
  6
BYBLOCK
 10
231.7311145122824
 20
80.980539604064404
 30
0.0
 11
231.7311145122824
 21
81.930423971503501
 31
0.0
  0
LINE
  5
1D54
  8
LAYER4
  6
BYBLOCK
 10
232.71737807134011
 20
83.060143311190259
 30
0.0
 11
232.7173780713394
 21
80.41999992395867
 31
0.0
  0
LINE
  5
1D55
  8
LAYER4
  6
BYBLOCK
 10
233.08485095322629
 20
80.41999992395867
 30
0.0
 11
233.08485095322629
 21
83.16999992395867
 31
0.0
  0
LINE
  5
1D56
  8
LAYER4
  6
BYBLOCK
 10
230.74485095322621
 20
79.859460243854897
 30
0.0
 11
231.7311145122824
 21
79.859460243854897
 31
0.0
  0
LINE
  5
1D57
  8
LAYER4
  6
BYBLOCK
 10
230.74485095322621
 20
80.980539604064404
 30
0.0
 11
231.7311145122824
 21
80.980539604064404
 31
0.0
  0
LINE
  5
1D58
  8
LAYER4
  6
BYBLOCK
 10
230.4448509532269
 20
82.869999923959384
 30
0.0
 11
230.74485095322621
 21
83.16999992395867
 31
0.0
  0
LINE
  5
1D59
  8
LAYER4
  6
BYBLOCK
 10
230.74485095322621
 20
81.930423971503501
 30
0.0
 11
231.7311145122824
 21
81.930423971503501
 31
0.0
  0
LINE
  5
1D5A
  8
LAYER4
  6
BYBLOCK
 10
230.27645163646071
 20
85.54249992395998
 30
0.0
 11
229.9407938889928
 21
83.688709727184417
 31
0.0
  0
LINE
  5
1D5B
  8
LAYER4
  6
BYBLOCK
 10
232.71737807134011
 20
83.060143311190259
 30
0.0
 11
231.4596867760375
 21
84.317834606492951
 31
0.0
  0
LINE
  5
1D5C
  8
LAYER4
  6
BYBLOCK
 10
233.08485095322629
 20
83.16999992395867
 30
0.0
 11
231.6098509532261
 21
84.644999923959091
 31
0.0
  0
ARC
  5
1D5D
  8
LAYER3
 10
228.50485095322651
 20
91.619999923959185
 30
0.0
 40
1.5
 50
270.0
 51
90.0
  0
ARC
  5
1D5E
  8
LAYER4
  6
CONTINUOUS
 10
227.00485095322639
 20
91.669999923959409
 30
0.0
 40
2.0
 50
133.53115216737561
 51
230.80503257402731
  0
LINE
  5
1D5F
  8
LAYER3
 10
228.50485095322651
 20
93.119999923959199
 30
0.0
 11
225.50485095322631
 21
93.119999923959199
 31
0.0
  0
LINE
  5
1D60
  8
LAYER3
 10
228.50485095322651
 20
90.119999923959185
 30
0.0
 11
225.50485095322631
 21
90.119999923959185
 31
0.0
  0
ARC
  5
1D61
  8
LAYER4
  6
CONTINUOUS
 10
227.00485095322639
 20
91.669999923959409
 30
0.0
 40
2.0
 50
309.19496742597232
 51
46.4688478326241
  0
CIRCLE
  5
1D62
  8
LAYER4
  6
CONTINUOUS
 10
228.00485095322631
 20
91.669999923959409
 30
0.0
 40
0.85
  0
LINE
  5
1D63
  8
LAYER4
  6
CONTINUOUS
 10
227.00485095322639
 20
90.819999923959415
 30
0.0
 11
228.00485095322631
 21
90.819999923959415
 31
0.0
  0
LINE
  5
1D64
  8
LAYER4
  6
CONTINUOUS
 10
227.00485095322639
 20
92.519999923959404
 30
0.0
 11
228.00485095322631
 21
92.519999923959404
 31
0.0
  0
ARC
  5
1D65
  8
LAYER4
  6
CONTINUOUS
 10
227.00485095322639
 20
91.669999923959409
 30
0.0
 40
0.85
 50
90.0
 51
270.0
  0
LINE
  5
1D66
  8
LAYER2
  6
CONTINUOUS
 10
108.9999997501569
 20
167.09999992395899
 30
0.0
 11
2.999999750157142
 21
167.09999992395899
 31
0.0
  0
LINE
  5
1D67
  8
LAYER2
  6
CONTINUOUS
 10
2.999999750157142
 20
167.09999992395899
 30
0.0
 11
2.9999997501573712
 21
146.6261825213509
 31
0.0
  0
LINE
  5
1D68
  8
LAYER1
  6
CONTINUOUS
 10
2.999999750157142
 20
178.0476427046471
 30
0.0
 11
2.999999750157142
 21
146.6261825213509
 31
0.0
  0
LINE
  5
1D69
  8
LAYER1
  6
CONTINUOUS
 10
1.299999750157097
 20
147.0999999239591
 30
0.0
 11
1.299999750157097
 21
137.0999999239591
 31
0.0
  0
LINE
  5
1D6A
  8
LAYER1
  6
CONTINUOUS
 10
1.299999750157097
 20
137.0999999239591
 30
0.0
 11
2.999999750157142
 21
137.07381732656711
 31
0.0
  0
LINE
  5
1D6B
  8
LAYER2
  6
CONTINUOUS
 10
1.499999750157142
 20
146.5999999239591
 30
0.0
 11
1.499999750157142
 21
137.5999999239591
 31
0.0
  0
LINE
  5
1D6C
  8
LAYER2
  6
CONTINUOUS
 10
1.499999750157142
 20
137.5999999239591
 30
0.0
 11
2.999999750157142
 21
137.57381732656711
 31
0.0
  0
LINE
  5
1D6D
  8
LAYER2
  6
CONTINUOUS
 10
2.999999750157142
 20
146.6261825213509
 30
0.0
 11
1.499999750157142
 21
146.5999999239591
 31
0.0
  0
LINE
  5
1D6E
  8
LAYER1
  6
CONTINUOUS
 10
1.299999750157097
 20
147.0999999239591
 30
0.0
 11
2.9999997501580511
 21
147.1261825213511
 31
0.0
  0
LINE
  5
1D6F
  8
LAYER5
 10
7.052777936311597
 20
167.09999992395899
 30
0.0000000000000041
 11
25.94722156400292
 21
167.09999992395899
 31
-0.0000000000000073
  0
LINE
  5
1D70
  8
LAYER1
  6
CONTINUOUS
 10
-0.0000002498428564
 20
178.09999992395899
 30
0.0
 11
2.9995428356261269
 21
178.0476427046471
 31
0.0
  0
LINE
  5
1D71
  8
LAYER5
  6
CONTINUOUS
 10
23.999999750157361
 20
167.09999992395899
 30
-0.0000000000000016
 11
22.499999750157119
 21
167.09999992395899
 31
-0.0000000000000016
  0
LINE
  5
1D72
  8
LAYER4
  6
CONTINUOUS
 10
114.08999975015691
 20
153.0699999239593
 30
0.0
 11
120.150999750157
 21
153.0699999239593
 31
0.0
  0
LINE
  5
1D73
  8
LAYER4
  6
CONTINUOUS
 10
114.08999975015691
 20
157.89999992395909
 30
0.0
 11
124.08999975015691
 21
157.89999992395909
 31
0.0
  0
LINE
  5
1D74
  8
LAYER4
  6
CONTINUOUS
 10
114.08999975015691
 20
100.2599999239591
 30
0.0
 11
124.08999975015691
 21
100.2599999239591
 31
0.0
  0
LINE
  5
1D75
  8
LAYER4
  6
CONTINUOUS
 10
114.08999975015691
 20
105.0899999239591
 30
0.0
 11
120.150999750157
 21
105.0899999239591
 31
0.0
  0
LINE
  5
1D76
  8
LAYER4
  6
CONTINUOUS
 10
114.08999975015691
 20
153.0699999239593
 30
0.0
 11
110.58999975015691
 21
150.77799992395941
 31
0.0
  0
LINE
  5
1D77
  8
LAYER2
  6
CONTINUOUS
 10
56.426163911417348
 20
95.432021159925085
 30
0.0
 11
50.977816978256328
 21
95.426465352019193
 31
0.0
  0
LINE
  5
1D78
  8
LAYER2
  6
CONTINUOUS
 10
50.977816978256328
 20
95.426465352019193
 30
0.0
 11
55.209776489585352
 21
101.815318227963
 31
0.0
  0
LINE
  5
1D79
  8
LAYER2
  6
CONTINUOUS
 10
32.206190663692361
 20
107.8487634310149
 30
0.0
 11
40.845988107352341
 21
107.8487634310149
 31
0.0
  0
POLYLINE
  5
1D7A
  8
LAYER2
  6
CONTINUOUS
 66
     1
 10
0.0
 20
0.0
 30
0.0
  0
VERTEX
  5
2390
  8
LAYER2
  6
CONTINUOUS
 10
32.206190663692361
 20
107.8487634310149
 30
0.0
  0
VERTEX
  5
2391
  8
LAYER2
  6
CONTINUOUS
 10
32.226107360480547
 20
107.806997802401
 30
0.0
  0
VERTEX
  5
2392
  8
LAYER2
  6
CONTINUOUS
 10
32.268161819278362
 20
107.762325358967
 30
0.0
  0
VERTEX
  5
2393
  8
LAYER2
  6
CONTINUOUS
 10
32.301044961109369
 20
107.7373123054669
 30
0.0
  0
VERTEX
  5
2394
  8
LAYER2
  6
CONTINUOUS
 10
32.447143339082572
 20
107.6443027755731
 30
0.0
  0
VERTEX
  5
2395
  8
LAYER2
  6
CONTINUOUS
 10
32.531202124192411
 20
107.5742341411781
 30
0.0
  0
VERTEX
  5
2396
  8
LAYER2
  6
CONTINUOUS
 10
32.55715361129716
 20
107.5482908990321
 30
0.0
  0
VERTEX
  5
2397
  8
LAYER2
  6
CONTINUOUS
 10
32.650315347008579
 20
107.442818722342
 30
0.0
  0
VERTEX
  5
2398
  8
LAYER2
  6
CONTINUOUS
 10
32.73527212816645
 20
107.34466442935179
 30
0.0
  0
VERTEX
  5
2399
  8
LAYER2
  6
CONTINUOUS
 10
32.818583392336322
 20
107.24385284410199
 30
0.0
  0
VERTEX
  5
239A
  8
LAYER2
  6
CONTINUOUS
 10
32.88953121260748
 20
107.1472567420231
 30
0.0
  0
VERTEX
  5
239B
  8
LAYER2
  6
CONTINUOUS
 10
32.95482417993037
 20
107.046946713637
 30
0.0
  0
VERTEX
  5
239C
  8
LAYER2
  6
CONTINUOUS
 10
33.01087423994646
 20
106.9506767721541
 30
0.0
  0
VERTEX
  5
239D
  8
LAYER2
  6
CONTINUOUS
 10
33.061914414657501
 20
106.85164190373
 30
0.0
  0
VERTEX
  5
239E
  8
LAYER2
  6
CONTINUOUS
 10
33.10494534823134
 20
106.755651144084
 30
0.0
  0
VERTEX
  5
239F
  8
LAYER2
  6
CONTINUOUS
 10
33.142730801382299
 20
106.65747998716211
 30
0.0
  0
VERTEX
  5
23A0
  8
LAYER2
  6
CONTINUOUS
 10
33.173938154286233
 20
106.561481214384
 30
0.0
  0
VERTEX
  5
23A1
  8
LAYER2
  6
CONTINUOUS
 10
33.20015004497246
 20
106.4640025367169
 30
0.0
  0
VERTEX
  5
23A2
  8
LAYER2
  6
CONTINUOUS
 10
33.220900136082371
 20
106.367816519752
 30
0.0
  0
VERTEX
  5
23A3
  8
LAYER2
  6
CONTINUOUS
 10
33.23704885029256
 20
106.27075112517591
 30
0.0
  0
VERTEX
  5
23A4
  8
LAYER2
  6
CONTINUOUS
 10
33.248681668324359
 20
106.1742075947819
 30
0.0
  0
VERTEX
  5
23A5
  8
LAYER2
  6
CONTINUOUS
 10
33.256303922207373
 20
106.07726732532311
 30
0.0
  0
VERTEX
  5
23A6
  8
LAYER2
  6
CONTINUOUS
 10
33.26022963657158
 20
105.980224602386
 30
0.0
  0
VERTEX
  5
23A7
  8
LAYER2
  6
CONTINUOUS
 10
33.26079196558419
 20
105.8830927099412
 30
0.0
  0
VERTEX
  5
23A8
  8
LAYER2
  6
CONTINUOUS
 10
33.25833400794852
 20
105.785359573761
 30
0.0
  0
VERTEX
  5
23A9
  8
LAYER2
  6
CONTINUOUS
 10
33.253389685288191
 20
105.687768851811
 30
0.0
  0
VERTEX
  5
23AA
  8
LAYER2
  6
CONTINUOUS
 10
33.246311261051559
 20
105.589310076142
 30
0.0
  0
VERTEX
  5
23AB
  8
LAYER2
  6
CONTINUOUS
 10
33.236973786186461
 20
105.49083732371599
 30
0.0
  0
VERTEX
  5
23AC
  8
LAYER2
  6
CONTINUOUS
 10
33.225454497420387
 20
105.3909574952569
 30
0.0
  0
VERTEX
  5
23AD
  8
LAYER2
  6
CONTINUOUS
 10
33.214420973142182
 20
105.29183969843911
 30
0.0
  0
VERTEX
  5
23AE
  8
LAYER2
  6
CONTINUOUS
 10
33.20471188840736
 20
105.1922712496899
 30
0.0
  0
VERTEX
  5
23AF
  8
LAYER2
  6
CONTINUOUS
 10
33.188607951023279
 20
105.090317548763
 30
0.0
  0
VERTEX
  5
23B0
  8
LAYER2
  6
CONTINUOUS
 10
33.163822225255331
 20
104.98344942817801
 30
0.0
  0
VERTEX
  5
23B1
  8
LAYER2
  6
CONTINUOUS
 10
33.157677866462222
 20
104.9165748356258
 30
0.0
  0
VERTEX
  5
23B2
  8
LAYER2
  6
CONTINUOUS
 10
33.162411424694362
 20
104.8858124474699
 30
0.0
  0
SEQEND
  5
23B3
  8
LAYER2
  6
CONTINUOUS
  0
LINE
  5
1D9F
  8
LAYER2
  6
CONTINUOUS
 10
55.209776489585352
 20
101.815318227963
 30
0.0
 11
56.426163911417348
 21
95.432021159925085
 31
0.0
  0
LINE
  5
1DA0
  8
LAYER2
  6
CONTINUOUS
 10
53.615836990280172
 20
107.81273054377191
 30
0.0
 11
61.50822981023942
 21
107.8166195558321
 31
0.0
  0
POLYLINE
  5
1DA1
  8
LAYER2
  6
CONTINUOUS
 66
     1
 10
0.0
 20
0.0
 30
0.0
  0
VERTEX
  5
23B4
  8
LAYER2
  6
CONTINUOUS
 10
53.615836990280172
 20
107.81273054377191
 30
0.0
  0
VERTEX
  5
23B5
  8
LAYER2
  6
CONTINUOUS
 10
53.622012539336417
 20
107.7915604192392
 30
0.0
  0
VERTEX
  5
23B6
  8
LAYER2
  6
CONTINUOUS
 10
53.636930691241218
 20
107.769014444978
 30
0.0
  0
VERTEX
  5
23B7
  8
LAYER2
  6
CONTINUOUS
 10
53.665008895971262
 20
107.741791237012
 30
0.0
  0
VERTEX
  5
23B8
  8
LAYER2
  6
CONTINUOUS
 10
53.750175354306172
 20
107.6743609879929
 30
0.0
  0
VERTEX
  5
23B9
  8
LAYER2
  6
CONTINUOUS
 10
53.79318743745818
 20
107.6321861026849
 30
0.0
  0
VERTEX
  5
23BA
  8
LAYER2
  6
CONTINUOUS
 10
53.813605296158237
 20
107.608515108002
 30
0.0
  0
VERTEX
  5
23BB
  8
LAYER2
  6
CONTINUOUS
 10
53.86573682734717
 20
107.539411081965
 30
0.0
  0
VERTEX
  5
23BC
  8
LAYER2
  6
CONTINUOUS
 10
53.914603599994393
 20
107.474090322042
 30
0.0
  0
VERTEX
  5
23BD
  8
LAYER2
  6
CONTINUOUS
 10
53.962926078302289
 20
107.4071056335879
 30
0.0
  0
VERTEX
  5
23BE
  8
LAYER2
  6
CONTINUOUS
 10
54.004334856155197
 20
107.3428587652708
 30
0.0
  0
VERTEX
  5
23BF
  8
LAYER2
  6
CONTINUOUS
 10
54.042147776073392
 20
107.2766694507621
 30
0.0
  0
VERTEX
  5
23C0
  8
LAYER2
  6
CONTINUOUS
 10
54.074647747983249
 20
107.21281439153999
 30
0.0
  0
VERTEX
  5
23C1
  8
LAYER2
  6
CONTINUOUS
 10
54.10380658956214
 20
107.14732734138811
 30
0.0
  0
VERTEX
  5
23C2
  8
LAYER2
  6
CONTINUOUS
 10
54.127967175608418
 20
107.0834702765948
 30
0.0
  0
VERTEX
  5
23C3
  8
LAYER2
  6
CONTINUOUS
 10
54.148307187669282
 20
107.0183041133651
 30
0.0
  0
VERTEX
  5
23C4
  8
LAYER2
  6
CONTINUOUS
 10
54.164172359238457
 20
106.9539908871719
 30
0.0
  0
VERTEX
  5
23C5
  8
LAYER2
  6
CONTINUOUS
 10
54.176054239295262
 20
106.88882457459491
 30
0.0
  0
VERTEX
  5
23C6
  8
LAYER2
  6
CONTINUOUS
 10
54.183772010982132
 20
106.8236453072159
 30
0.0
  0
VERTEX
  5
23C7
  8
LAYER2
  6
CONTINUOUS
 10
54.187452413342378
 20
106.7581135329761
 30
0.0
  0
VERTEX
  5
23C8
  8
LAYER2
  6
CONTINUOUS
 10
54.1871272883592
 20
106.69168796959291
 30
0.0
  0
VERTEX
  5
23C9
  8
LAYER2
  6
CONTINUOUS
 10
54.182906378711451
 20
106.6253957964089
 30
0.0
  0
VERTEX
  5
23CA
  8
LAYER2
  6
CONTINUOUS
 10
54.174696160084409
 20
106.55737937391299
 30
0.0
  0
VERTEX
  5
23CB
  8
LAYER2
  6
CONTINUOUS
 10
54.162820804302207
 20
106.489896172794
 30
0.0
  0
VERTEX
  5
23CC
  8
LAYER2
  6
CONTINUOUS
 10
54.146785492615088
 20
106.41994690019899
 30
0.0
  0
VERTEX
  5
23CD
  8
LAYER2
  6
CONTINUOUS
 10
54.127600359016107
 20
106.35083947003091
 30
0.0
  0
VERTEX
  5
23CE
  8
LAYER2
  6
CONTINUOUS
 10
54.104312636804359
 20
106.27867451650189
 30
0.0
  0
VERTEX
  5
23CF
  8
LAYER2
  6
CONTINUOUS
 10
54.077649711756401
 20
106.207450496021
 30
0.0
  0
VERTEX
  5
23D0
  8
LAYER2
  6
CONTINUOUS
 10
54.045721095058397
 20
106.1325462825351
 30
0.0
  0
VERTEX
  5
23D1
  8
LAYER2
  6
CONTINUOUS
 10
54.01337353142128
 20
106.0589540586621
 30
0.0
  0
VERTEX
  5
23D2
  8
LAYER2
  6
CONTINUOUS
 10
53.979569735128173
 20
105.981731556433
 30
0.0
  0
VERTEX
  5
23D3
  8
LAYER2
  6
CONTINUOUS
 10
53.947829152472309
 20
105.923771621409
 30
0.0
  0
VERTEX
  5
23D4
  8
LAYER2
  6
CONTINUOUS
 10
53.935176486913292
 20
105.9045749658569
 30
0.0
  0
VERTEX
  5
23D5
  8
LAYER2
  6
CONTINUOUS
 10
53.872635923106259
 20
105.8214929809742
 30
0.0
  0
VERTEX
  5
23D6
  8
LAYER2
  6
CONTINUOUS
 10
53.852034791758221
 20
105.7870685182271
 30
0.0
  0
VERTEX
  5
23D7
  8
LAYER2
  6
CONTINUOUS
 10
53.843938458140308
 20
105.7615747860701
 30
0.0
  0
VERTEX
  5
23D8
  8
LAYER2
  6
CONTINUOUS
 10
53.84346324713227
 20
105.74353802550399
 30
0.0
  0
SEQEND
  5
23D9
  8
LAYER2
  6
CONTINUOUS
  0
LINE
  5
1DC8
  8
LAYER4
  6
CONTINUOUS
 10
110.58999975015691
 20
150.77799992395941
 30
0.0
 11
110.58999975015691
 21
107.3819999239592
 31
0.0
  0
LINE
  5
1DC9
  8
LAYER2
  6
CONTINUOUS
 10
73.884336064072244
 20
107.8487634310149
 30
0.0
 11
82.524133507732245
 21
107.8487634310149
 31
0.0
  0
POLYLINE
  5
1DCA
  8
LAYER2
  6
CONTINUOUS
 66
     1
 10
0.0
 20
0.0
 30
0.0
  0
VERTEX
  5
23DA
  8
LAYER2
  6
CONTINUOUS
 10
73.884336064072244
 20
107.8487634310149
 30
0.0
  0
VERTEX
  5
23DB
  8
LAYER2
  6
CONTINUOUS
 10
73.904252760860459
 20
107.806997802401
 30
0.0
  0
VERTEX
  5
23DC
  8
LAYER2
  6
CONTINUOUS
 10
73.946307219658266
 20
107.762325358967
 30
0.0
  0
VERTEX
  5
23DD
  8
LAYER2
  6
CONTINUOUS
 10
73.979190361489273
 20
107.7373123054669
 30
0.0
  0
VERTEX
  5
23DE
  8
LAYER2
  6
CONTINUOUS
 10
74.125288739462434
 20
107.6443027755731
 30
0.0
  0
VERTEX
  5
23DF
  8
LAYER2
  6
CONTINUOUS
 10
74.209347524572294
 20
107.5742341411781
 30
0.0
  0
VERTEX
  5
23E0
  8
LAYER2
  6
CONTINUOUS
 10
74.235299011677071
 20
107.5482908990321
 30
0.0
  0
VERTEX
  5
23E1
  8
LAYER2
  6
CONTINUOUS
 10
74.328460747388434
 20
107.442818722342
 30
0.0
  0
VERTEX
  5
23E2
  8
LAYER2
  6
CONTINUOUS
 10
74.413417528546375
 20
107.34466442935179
 30
0.0
  0
VERTEX
  5
23E3
  8
LAYER2
  6
CONTINUOUS
 10
74.49672879271624
 20
107.24385284410199
 30
0.0
  0
VERTEX
  5
23E4
  8
LAYER2
  6
CONTINUOUS
 10
74.56767661298737
 20
107.1472567420231
 30
0.0
  0
VERTEX
  5
23E5
  8
LAYER2
  6
CONTINUOUS
 10
74.632969580310217
 20
107.046946713637
 30
0.0
  0
VERTEX
  5
23E6
  8
LAYER2
  6
CONTINUOUS
 10
74.68901964032635
 20
106.9506767721541
 30
0.0
  0
VERTEX
  5
23E7
  8
LAYER2
  6
CONTINUOUS
 10
74.740059815037341
 20
106.85164190373
 30
0.0
  0
VERTEX
  5
23E8
  8
LAYER2
  6
CONTINUOUS
 10
74.783090748611215
 20
106.755651144084
 30
0.0
  0
VERTEX
  5
23E9
  8
LAYER2
  6
CONTINUOUS
 10
74.820876201762189
 20
106.65747998716211
 30
0.0
  0
VERTEX
  5
23EA
  8
LAYER2
  6
CONTINUOUS
 10
74.852083554666095
 20
106.561481214384
 30
0.0
  0
VERTEX
  5
23EB
  8
LAYER2
  6
CONTINUOUS
 10
74.87829544535235
 20
106.4640025367169
 30
0.0
  0
VERTEX
  5
23EC
  8
LAYER2
  6
CONTINUOUS
 10
74.899045536462253
 20
106.367816519752
 30
0.0
  0
VERTEX
  5
23ED
  8
LAYER2
  6
CONTINUOUS
 10
74.915194250672457
 20
106.27075112517591
 30
0.0
  0
VERTEX
  5
23EE
  8
LAYER2
  6
CONTINUOUS
 10
74.926827068704256
 20
106.1742075947819
 30
0.0
  0
VERTEX
  5
23EF
  8
LAYER2
  6
CONTINUOUS
 10
74.934449322587284
 20
106.07726732532311
 30
0.0
  0
VERTEX
  5
23F0
  8
LAYER2
  6
CONTINUOUS
 10
74.93837503695147
 20
105.980224602386
 30
0.0
  0
VERTEX
  5
23F1
  8
LAYER2
  6
CONTINUOUS
 10
74.93893736596408
 20
105.8830927099412
 30
0.0
  0
VERTEX
  5
23F2
  8
LAYER2
  6
CONTINUOUS
 10
74.936479408328339
 20
105.785359573761
 30
0.0
  0
VERTEX
  5
23F3
  8
LAYER2
  6
CONTINUOUS
 10
74.931535085668031
 20
105.687768851811
 30
0.0
  0
VERTEX
  5
23F4
  8
LAYER2
  6
CONTINUOUS
 10
74.924456661431449
 20
105.589310076142
 30
0.0
  0
VERTEX
  5
23F5
  8
LAYER2
  6
CONTINUOUS
 10
74.915119186566372
 20
105.49083732371599
 30
0.0
  0
VERTEX
  5
23F6
  8
LAYER2
  6
CONTINUOUS
 10
74.903599897800291
 20
105.3909574952569
 30
0.0
  0
VERTEX
  5
23F7
  8
LAYER2
  6
CONTINUOUS
 10
74.892566373522044
 20
105.29183969843911
 30
0.0
  0
VERTEX
  5
23F8
  8
LAYER2
  6
CONTINUOUS
 10
74.88285728878725
 20
105.1922712496899
 30
0.0
  0
VERTEX
  5
23F9
  8
LAYER2
  6
CONTINUOUS
 10
74.86675335140319
 20
105.090317548763
 30
0.0
  0
VERTEX
  5
23FA
  8
LAYER2
  6
CONTINUOUS
 10
74.841967625635206
 20
104.98344942817801
 30
0.0
  0
VERTEX
  5
23FB
  8
LAYER2
  6
CONTINUOUS
 10
74.835823266842112
 20
104.9165748356258
 30
0.0
  0
VERTEX
  5
23FC
  8
LAYER2
  6
CONTINUOUS
 10
74.840556825074259
 20
104.8858124474699
 30
0.0
  0
SEQEND
  5
23FD
  8
LAYER2
  6
CONTINUOUS
  0
LINE
  5
1DEF
  8
LAYER4
  6
CONTINUOUS
 10
114.08999975015691
 20
105.0899999239591
 30
0.0
 11
114.08999975015691
 21
100.2599999239591
 31
0.0
  0
LINE
  5
1DF0
  8
LAYER4
  6
CONTINUOUS
 10
114.08999975015691
 20
100.2599999239591
 30
0.0
 11
109.3381678370322
 21
99.062142295858905
 31
0.0
  0
LINE
  5
1DF1
  8
LAYER4
  6
CONTINUOUS
 10
110.58999975015691
 20
107.3819999239592
 30
0.0
 11
114.08999975015691
 21
105.0899999239591
 31
0.0
  0
ARC
  5
1DF2
  8
LAYER2
  6
CONTINUOUS
 10
108.9999997501569
 20
166.09999992395899
 30
0.0
 40
1.0
 50
0.0
 51
90.0
  0
ARC
  5
1DF3
  8
LAYER2
  6
CONTINUOUS
 10
107.9999997501569
 20
166.09999992395899
 30
0.0
 40
1.0
 50
0.0
 51
90.0
  0
LINE
  5
1DF4
  8
LAYER4
  6
CONTINUOUS
 10
114.08999975015691
 20
157.89999992395909
 30
0.0
 11
114.08999975015691
 21
153.0699999239593
 31
0.0
  0
LINE
  5
1DF5
  8
LAYER4
  6
CONTINUOUS
 10
109.3381678370322
 20
159.09785755205939
 30
0.0
 11
114.08999975015691
 21
157.89999992395909
 31
0.0
  0
LINE
  5
1DF6
  8
LAYER2
  6
CONTINUOUS
 10
109.9999997501569
 20
166.09999992395899
 30
0.0
 11
109.9999997501569
 21
162.01999992395881
 31
0.0
  0
LINE
  5
1DF7
  8
LAYER2
  6
CONTINUOUS
 10
109.3381678370322
 20
161.35816801083419
 30
0.0
 11
109.9999997501569
 21
162.01999992395909
 31
0.0
  0
LINE
  5
1DF8
  8
0
  6
CONTINUOUS
 10
223.50485095322631
 20
161.01999992395909
 30
0.0
 11
223.50485095322631
 21
97.319999923958491
 31
0.0
  0
LINE
  5
1DF9
  8
LAYER4
  6
CONTINUOUS
 10
120.150999750157
 20
153.0699999239593
 30
0.0
 11
120.150999750157
 21
150.57399992395901
 31
0.0
  0
LINE
  5
1DFA
  8
LAYER4
  6
CONTINUOUS
 10
124.08999975015691
 20
156.21999992395911
 30
0.0
 11
121.2699997501569
 21
150.57399992395901
 31
0.0
  0
LINE
  5
1DFB
  8
LAYER5
 10
216.50485095322639
 20
157.0999999239591
 30
0.0
 11
216.50485095322639
 21
115.099999923959
 31
0.0
  0
POLYLINE
  5
1DFC
  8
LAYER3
 66
     1
 10
0.0
 20
0.0
 30
0.0
  0
VERTEX
  5
23FE
  8
LAYER3
 10
233.00485095322639
 20
161.01999992395909
 30
0.0
  0
VERTEX
  5
23FF
  8
LAYER3
 10
233.00485095322639
 20
97.319999923958491
 30
0.0
  0
VERTEX
  5
2400
  8
LAYER3
 10
222.50485095322639
 20
97.319999923958491
 30
0.0
  0
VERTEX
  5
2401
  8
LAYER3
 10
222.50485095322639
 20
161.01999992395909
 30
0.0
  0
SEQEND
  5
2402
  8
LAYER3
  0
LINE
  5
1E02
  8
LAYER4
  6
CONTINUOUS
 10
232.00485095322631
 20
160.32099992395911
 30
0.0
 11
232.00485095322631
 21
97.839999923959184
 31
0.0
  0
LINE
  5
1E03
  8
LAYER4
  6
CONTINUOUS
 10
232.00485095322631
 20
160.32099992395911
 30
0.0
 11
232.00485095322631
 21
97.839999923959184
 31
0.0
  0
LINE
  5
1E04
  8
LAYER4
  6
CONTINUOUS
 10
231.90585095322629
 20
157.8729999239591
 30
0.0
 11
231.90585095322629
 21
150.870999923959
 31
0.0
  0
LINE
  5
1E05
  8
LAYER4
  6
CONTINUOUS
 10
243.2048509532263
 20
151.79999992395901
 30
0.0
 11
243.2048509532263
 21
155.99999992395911
 31
0.0
  0
LINE
  5
1E06
  8
LAYER4
  6
CONTINUOUS
 10
242.50485095322631
 20
156.5999999239591
 30
0.0
 11
242.50485095322631
 21
151.19999992395901
 31
0.0
  0
LINE
  5
1E07
  8
LAYER4
  6
CONTINUOUS
 10
223.50485095322631
 20
97.839999923959184
 30
0.0
 11
223.50485095322631
 21
160.32099992395911
 31
0.0
  0
LINE
  5
1E08
  8
LAYER4
  6
CONTINUOUS
 10
223.80585095322641
 20
160.32099992395911
 30
0.0
 11
223.80585095322641
 21
97.839999923959184
 31
0.0
  0
LINE
  5
1E09
  8
LAYER4
  6
CONTINUOUS
 10
223.9048509532262
 20
157.8729999239591
 30
0.0
 11
223.9048509532262
 21
150.870999923959
 31
0.0
  0
LINE
  5
1E0A
  8
LAYER4
  6
CONTINUOUS
 10
124.08999975015691
 20
101.93999992395911
 30
0.0
 11
124.08999975015691
 21
100.2599999239591
 31
0.0
  0
LINE
  5
1E0B
  8
LAYER4
  6
CONTINUOUS
 10
120.150999750157
 20
107.58599992395899
 30
0.0
 11
120.150999750157
 21
105.0899999239591
 31
0.0
  0
LINE
  5
1E0C
  8
LAYER4
  6
CONTINUOUS
 10
120.150999750157
 20
107.58599992395899
 30
0.0
 11
121.2699997501569
 21
107.58599992395899
 31
0.0
  0
LINE
  5
1E0D
  8
LAYER4
  6
CONTINUOUS
 10
121.2699997501569
 20
107.58599992395899
 30
0.0
 11
124.08999975015691
 21
101.93999992395911
 31
0.0
  0
LINE
  5
1E0E
  8
LAYER4
  6
CONTINUOUS
 10
120.150999750157
 20
150.57399992395901
 30
0.0
 11
121.2699997501569
 21
150.57399992395901
 31
0.0
  0
LINE
  5
1E0F
  8
LAYER4
  6
CONTINUOUS
 10
231.0058509532264
 20
127.032999923959
 30
0.0
 11
231.0058509532264
 21
107.3919999239591
 31
0.0
  0
LINE
  5
1E10
  8
LAYER4
  6
CONTINUOUS
 10
224.80485095322641
 20
150.870999923959
 30
0.0
 11
224.80485095322641
 21
107.3919999239591
 31
0.0
  0
LINE
  5
1E11
  8
LAYER4
  6
CONTINUOUS
 10
232.00485095322631
 20
97.839999923959184
 30
0.0
 11
223.50485095322631
 21
97.839999923959184
 31
0.0
  0
LINE
  5
1E12
  8
LAYER4
  6
CONTINUOUS
 10
223.80585095322641
 20
97.839999923959184
 30
0.0
 11
232.00485095322631
 21
97.839999923959184
 31
0.0
  0
LINE
  5
1E13
  8
LAYER4
  6
CONTINUOUS
 10
223.9048509532262
 20
107.3919999239591
 30
0.0
 11
231.90585095322629
 21
107.3919999239591
 31
0.0
  0
LINE
  5
1E14
  8
LAYER4
  6
CONTINUOUS
 10
223.80585095322641
 20
100.2399999239591
 30
0.0
 11
232.00485095322631
 21
100.2399999239591
 31
0.0
  0
LINE
  5
1E15
  8
LAYER4
  6
CONTINUOUS
 10
223.9048509532262
 20
100.3899999239591
 30
0.0
 11
231.90585095322629
 21
100.3899999239591
 31
0.0
  0
LINE
  5
1E16
  8
LAYER4
  6
CONTINUOUS
 10
223.9048509532262
 20
102.3909999239591
 30
0.0
 11
231.90585095322629
 21
102.3909999239591
 31
0.0
  0
LINE
  5
1E17
  8
LAYER4
  6
CONTINUOUS
 10
223.9048509532262
 20
107.3919999239591
 30
0.0
 11
223.9048509532262
 21
100.3899999239591
 31
0.0
  0
LINE
  5
1E18
  8
LAYER4
  6
CONTINUOUS
 10
223.80585095322641
 20
107.04099992395911
 30
0.0
 11
223.9048509532262
 21
107.04099992395911
 31
0.0
  0
LINE
  5
1E19
  8
LAYER4
  6
CONTINUOUS
 10
223.80585095322641
 20
105.039999923959
 30
0.0
 11
223.9048509532262
 21
105.039999923959
 31
0.0
  0
LINE
  5
1E1A
  8
LAYER4
  6
CONTINUOUS
 10
231.90585095322629
 20
107.3919999239591
 30
0.0
 11
231.90585095322629
 21
100.3899999239591
 31
0.0
  0
LINE
  5
1E1B
  8
LAYER4
  6
CONTINUOUS
 10
231.90585095322629
 20
105.039999923959
 30
0.0
 11
232.00485095322631
 21
105.039999923959
 31
0.0
  0
LINE
  5
1E1C
  8
LAYER4
  6
CONTINUOUS
 10
231.90585095322629
 20
107.04099992395911
 30
0.0
 11
232.00485095322631
 21
107.04099992395911
 31
0.0
  0
LINE
  5
1E1D
  8
LAYER4
  6
CONTINUOUS
 10
229.4758509532264
 20
111.61299992395899
 30
0.0
 11
229.4758509532264
 21
111.012999923959
 31
0.0
  0
LINE
  5
1E1E
  8
LAYER4
  6
CONTINUOUS
 10
229.4758509532264
 20
109.0719999239591
 30
0.0
 11
229.4758509532264
 21
108.4719999239591
 31
0.0
  0
LINE
  5
1E1F
  8
LAYER4
  6
CONTINUOUS
 10
228.8758509532264
 20
114.15399992395911
 30
0.0
 11
229.4758509532264
 21
114.15399992395911
 31
0.0
  0
LINE
  5
1E20
  8
LAYER4
  6
CONTINUOUS
 10
229.4758509532264
 20
114.15399992395911
 30
0.0
 11
229.4758509532264
 21
113.553999923959
 31
0.0
  0
LINE
  5
1E21
  8
LAYER4
  6
CONTINUOUS
 10
228.8758509532264
 20
109.0719999239591
 30
0.0
 11
229.4758509532264
 21
109.0719999239591
 31
0.0
  0
LINE
  5
1E22
  8
LAYER4
  6
CONTINUOUS
 10
228.8758509532264
 20
108.4719999239591
 30
0.0
 11
229.4758509532264
 21
108.4719999239591
 31
0.0
  0
LINE
  5
1E23
  8
LAYER4
  6
CONTINUOUS
 10
228.8758509532264
 20
111.012999923959
 30
0.0
 11
229.4758509532264
 21
111.012999923959
 31
0.0
  0
LINE
  5
1E24
  8
LAYER4
  6
CONTINUOUS
 10
228.8758509532264
 20
111.61299992395899
 30
0.0
 11
229.4758509532264
 21
111.61299992395899
 31
0.0
  0
LINE
  5
1E25
  8
LAYER4
  6
CONTINUOUS
 10
228.8758509532264
 20
113.553999923959
 30
0.0
 11
229.4758509532264
 21
113.553999923959
 31
0.0
  0
LINE
  5
1E26
  8
LAYER4
  6
CONTINUOUS
 10
228.8758509532264
 20
109.0719999239591
 30
0.0
 11
228.8758509532264
 21
108.4719999239591
 31
0.0
  0
LINE
  5
1E27
  8
LAYER4
  6
CONTINUOUS
 10
226.9348509532262
 20
109.0719999239591
 30
0.0
 11
226.9348509532262
 21
108.4719999239591
 31
0.0
  0
LINE
  5
1E28
  8
LAYER4
  6
CONTINUOUS
 10
226.33485095322641
 20
109.0719999239591
 30
0.0
 11
226.33485095322641
 21
108.4719999239591
 31
0.0
  0
LINE
  5
1E29
  8
LAYER4
  6
CONTINUOUS
 10
226.33485095322641
 20
109.0719999239591
 30
0.0
 11
226.9348509532262
 21
109.0719999239591
 31
0.0
  0
LINE
  5
1E2A
  8
LAYER4
  6
CONTINUOUS
 10
226.33485095322641
 20
108.4719999239591
 30
0.0
 11
226.9348509532262
 21
108.4719999239591
 31
0.0
  0
LINE
  5
1E2B
  8
LAYER4
  6
CONTINUOUS
 10
226.9348509532262
 20
114.15399992395911
 30
0.0
 11
226.9348509532262
 21
113.553999923959
 31
0.0
  0
LINE
  5
1E2C
  8
LAYER4
  6
CONTINUOUS
 10
226.33485095322641
 20
111.61299992395899
 30
0.0
 11
226.33485095322641
 21
111.012999923959
 31
0.0
  0
LINE
  5
1E2D
  8
LAYER4
  6
CONTINUOUS
 10
226.33485095322641
 20
111.012999923959
 30
0.0
 11
226.9348509532262
 21
111.012999923959
 31
0.0
  0
LINE
  5
1E2E
  8
LAYER4
  6
CONTINUOUS
 10
226.33485095322641
 20
114.15399992395911
 30
0.0
 11
226.33485095322641
 21
113.553999923959
 31
0.0
  0
LINE
  5
1E2F
  8
LAYER4
  6
CONTINUOUS
 10
228.8758509532264
 20
114.15399992395911
 30
0.0
 11
228.8758509532264
 21
113.553999923959
 31
0.0
  0
LINE
  5
1E30
  8
LAYER4
  6
CONTINUOUS
 10
228.8758509532264
 20
111.61299992395899
 30
0.0
 11
228.8758509532264
 21
111.012999923959
 31
0.0
  0
LINE
  5
1E31
  8
LAYER4
  6
CONTINUOUS
 10
226.9348509532262
 20
111.61299992395899
 30
0.0
 11
226.9348509532262
 21
111.012999923959
 31
0.0
  0
LINE
  5
1E32
  8
LAYER4
  6
CONTINUOUS
 10
226.33485095322641
 20
111.61299992395899
 30
0.0
 11
226.9348509532262
 21
111.61299992395899
 31
0.0
  0
LINE
  5
1E33
  8
LAYER4
  6
CONTINUOUS
 10
226.33485095322641
 20
113.553999923959
 30
0.0
 11
226.9348509532262
 21
113.553999923959
 31
0.0
  0
LINE
  5
1E34
  8
LAYER4
  6
CONTINUOUS
 10
226.33485095322641
 20
114.15399992395911
 30
0.0
 11
226.9348509532262
 21
114.15399992395911
 31
0.0
  0
LINE
  5
1E35
  8
LAYER4
  6
CONTINUOUS
 10
228.8758509532264
 20
121.173999923959
 30
0.0
 11
229.4758509532264
 21
121.173999923959
 31
0.0
  0
LINE
  5
1E36
  8
LAYER4
  6
CONTINUOUS
 10
228.8758509532264
 20
121.773999923959
 30
0.0
 11
229.4758509532264
 21
121.773999923959
 31
0.0
  0
LINE
  5
1E37
  8
LAYER4
  6
CONTINUOUS
 10
228.8758509532264
 20
116.09199992395899
 30
0.0
 11
229.4758509532264
 21
116.09199992395899
 31
0.0
  0
LINE
  5
1E38
  8
LAYER4
  6
CONTINUOUS
 10
228.8758509532264
 20
116.6919999239591
 30
0.0
 11
229.4758509532264
 21
116.6919999239591
 31
0.0
  0
LINE
  5
1E39
  8
LAYER4
  6
CONTINUOUS
 10
228.8758509532264
 20
118.6329999239591
 30
0.0
 11
229.4758509532264
 21
118.6329999239591
 31
0.0
  0
LINE
  5
1E3A
  8
LAYER4
  6
CONTINUOUS
 10
229.4758509532264
 20
119.2329999239591
 30
0.0
 11
229.4758509532264
 21
118.6329999239591
 31
0.0
  0
LINE
  5
1E3B
  8
LAYER4
  6
CONTINUOUS
 10
228.8758509532264
 20
119.2329999239591
 30
0.0
 11
229.4758509532264
 21
119.2329999239591
 31
0.0
  0
LINE
  5
1E3C
  8
LAYER4
  6
CONTINUOUS
 10
229.4758509532264
 20
121.773999923959
 30
0.0
 11
229.4758509532264
 21
121.173999923959
 31
0.0
  0
LINE
  5
1E3D
  8
LAYER4
  6
CONTINUOUS
 10
229.4758509532264
 20
116.6919999239591
 30
0.0
 11
229.4758509532264
 21
116.09199992395899
 31
0.0
  0
LINE
  5
1E3E
  8
LAYER4
  6
CONTINUOUS
 10
226.9348509532262
 20
116.6919999239591
 30
0.0
 11
226.9348509532262
 21
116.09199992395899
 31
0.0
  0
LINE
  5
1E3F
  8
LAYER4
  6
CONTINUOUS
 10
226.33485095322641
 20
116.6919999239591
 30
0.0
 11
226.33485095322641
 21
116.09199992395899
 31
0.0
  0
LINE
  5
1E40
  8
LAYER4
  6
CONTINUOUS
 10
226.33485095322641
 20
119.2329999239591
 30
0.0
 11
226.33485095322641
 21
118.6329999239591
 31
0.0
  0
LINE
  5
1E41
  8
LAYER4
  6
CONTINUOUS
 10
226.33485095322641
 20
118.6329999239591
 30
0.0
 11
226.9348509532262
 21
118.6329999239591
 31
0.0
  0
LINE
  5
1E42
  8
LAYER4
  6
CONTINUOUS
 10
226.33485095322641
 20
119.2329999239591
 30
0.0
 11
226.9348509532262
 21
119.2329999239591
 31
0.0
  0
LINE
  5
1E43
  8
LAYER4
  6
CONTINUOUS
 10
228.8758509532264
 20
121.773999923959
 30
0.0
 11
228.8758509532264
 21
121.173999923959
 31
0.0
  0
LINE
  5
1E44
  8
LAYER4
  6
CONTINUOUS
 10
226.33485095322641
 20
116.6919999239591
 30
0.0
 11
226.9348509532262
 21
116.6919999239591
 31
0.0
  0
LINE
  5
1E45
  8
LAYER4
  6
CONTINUOUS
 10
226.33485095322641
 20
121.773999923959
 30
0.0
 11
226.33485095322641
 21
121.173999923959
 31
0.0
  0
LINE
  5
1E46
  8
LAYER4
  6
CONTINUOUS
 10
228.8758509532264
 20
119.2329999239591
 30
0.0
 11
228.8758509532264
 21
118.6329999239591
 31
0.0
  0
LINE
  5
1E47
  8
LAYER4
  6
CONTINUOUS
 10
226.9348509532262
 20
119.2329999239591
 30
0.0
 11
226.9348509532262
 21
118.6329999239591
 31
0.0
  0
LINE
  5
1E48
  8
LAYER4
  6
CONTINUOUS
 10
226.9348509532262
 20
121.773999923959
 30
0.0
 11
226.9348509532262
 21
121.173999923959
 31
0.0
  0
LINE
  5
1E49
  8
LAYER4
  6
CONTINUOUS
 10
226.33485095322641
 20
121.173999923959
 30
0.0
 11
226.9348509532262
 21
121.173999923959
 31
0.0
  0
LINE
  5
1E4A
  8
LAYER4
  6
CONTINUOUS
 10
226.33485095322641
 20
121.773999923959
 30
0.0
 11
226.9348509532262
 21
121.773999923959
 31
0.0
  0
LINE
  5
1E4B
  8
LAYER4
  6
CONTINUOUS
 10
228.8758509532264
 20
116.6919999239591
 30
0.0
 11
228.8758509532264
 21
116.09199992395899
 31
0.0
  0
LINE
  5
1E4C
  8
LAYER4
  6
CONTINUOUS
 10
226.33485095322641
 20
116.09199992395899
 30
0.0
 11
226.9348509532262
 21
116.09199992395899
 31
0.0
  0
LINE
  5
1E4D
  8
LAYER4
  6
CONTINUOUS
 10
223.9048509532262
 20
150.870999923959
 30
0.0
 11
231.90585095322629
 21
150.870999923959
 31
0.0
  0
LINE
  5
1E4E
  8
LAYER4
  6
CONTINUOUS
 10
223.80585095322641
 20
151.12299992395899
 30
0.0
 11
223.9048509532262
 21
151.12299992395899
 31
0.0
  0
LINE
  5
1E50
  8
LAYER4
  6
CONTINUOUS
 10
231.0058509532264
 20
150.870999923959
 30
0.0
 11
231.0058509532264
 21
131.13399992395901
 31
0.0
  0
LINE
  5
1E52
  8
LAYER4
  6
CONTINUOUS
 10
230.00685095322629
 20
131.13399992395901
 30
0.0
 11
230.00685095322629
 21
127.032999923959
 31
0.0
  0
LINE
  5
1E53
  8
LAYER4
  6
CONTINUOUS
 10
228.8758509532264
 20
123.711999923959
 30
0.0
 11
229.4758509532264
 21
123.711999923959
 31
0.0
  0
LINE
  5
1E54
  8
LAYER4
  6
CONTINUOUS
 10
228.8758509532264
 20
124.31199992395911
 30
0.0
 11
229.4758509532264
 21
124.31199992395911
 31
0.0
  0
LINE
  5
1E55
  8
LAYER4
  6
CONTINUOUS
 10
228.8758509532264
 20
126.8529999239591
 30
0.0
 11
229.4758509532264
 21
126.8529999239591
 31
0.0
  0
LINE
  5
1E56
  8
LAYER4
  6
CONTINUOUS
 10
228.8758509532264
 20
128.79399992395909
 30
0.0
 11
229.4758509532264
 21
128.79399992395909
 31
0.0
  0
LINE
  5
1E57
  8
LAYER4
  6
CONTINUOUS
 10
228.8758509532264
 20
129.393999923959
 30
0.0
 11
229.4758509532264
 21
129.393999923959
 31
0.0
  0
LINE
  5
1E58
  8
LAYER4
  6
CONTINUOUS
 10
229.4758509532264
 20
124.31199992395911
 30
0.0
 11
229.4758509532264
 21
123.711999923959
 31
0.0
  0
LINE
  5
1E59
  8
LAYER4
  6
CONTINUOUS
 10
229.4758509532264
 20
129.393999923959
 30
0.0
 11
229.4758509532264
 21
128.79399992395909
 31
0.0
  0
LINE
  5
1E5A
  8
LAYER4
  6
CONTINUOUS
 10
229.4758509532264
 20
126.8529999239591
 30
0.0
 11
229.4758509532264
 21
126.252999923959
 31
0.0
  0
LINE
  5
1E5B
  8
LAYER4
  6
CONTINUOUS
 10
228.8758509532264
 20
126.252999923959
 30
0.0
 11
229.4758509532264
 21
126.252999923959
 31
0.0
  0
LINE
  5
1E5C
  8
LAYER4
  6
CONTINUOUS
 10
226.33485095322641
 20
126.8529999239591
 30
0.0
 11
226.9348509532262
 21
126.8529999239591
 31
0.0
  0
LINE
  5
1E5D
  8
LAYER4
  6
CONTINUOUS
 10
226.33485095322641
 20
126.8529999239591
 30
0.0
 11
226.33485095322641
 21
126.252999923959
 31
0.0
  0
LINE
  5
1E5E
  8
LAYER4
  6
CONTINUOUS
 10
226.33485095322641
 20
126.252999923959
 30
0.0
 11
226.9348509532262
 21
126.252999923959
 31
0.0
  0
LINE
  5
1E5F
  8
LAYER4
  6
CONTINUOUS
 10
228.8758509532264
 20
126.8529999239591
 30
0.0
 11
228.8758509532264
 21
126.252999923959
 31
0.0
  0
LINE
  5
1E60
  8
LAYER4
  6
CONTINUOUS
 10
228.8758509532264
 20
129.393999923959
 30
0.0
 11
228.8758509532264
 21
128.79399992395909
 31
0.0
  0
LINE
  5
1E61
  8
LAYER4
  6
CONTINUOUS
 10
228.8758509532264
 20
124.31199992395911
 30
0.0
 11
228.8758509532264
 21
123.711999923959
 31
0.0
  0
LINE
  5
1E62
  8
LAYER4
  6
CONTINUOUS
 10
226.33485095322641
 20
129.393999923959
 30
0.0
 11
226.9348509532262
 21
129.393999923959
 31
0.0
  0
LINE
  5
1E63
  8
LAYER4
  6
CONTINUOUS
 10
226.9348509532262
 20
129.393999923959
 30
0.0
 11
226.9348509532262
 21
128.79399992395909
 31
0.0
  0
LINE
  5
1E64
  8
LAYER4
  6
CONTINUOUS
 10
226.33485095322641
 20
129.393999923959
 30
0.0
 11
226.33485095322641
 21
128.79399992395909
 31
0.0
  0
LINE
  5
1E65
  8
LAYER4
  6
CONTINUOUS
 10
226.33485095322641
 20
124.31199992395911
 30
0.0
 11
226.33485095322641
 21
123.711999923959
 31
0.0
  0
LINE
  5
1E66
  8
LAYER4
  6
CONTINUOUS
 10
226.9348509532262
 20
126.8529999239591
 30
0.0
 11
226.9348509532262
 21
126.252999923959
 31
0.0
  0
LINE
  5
1E67
  8
LAYER4
  6
CONTINUOUS
 10
226.9348509532262
 20
124.31199992395911
 30
0.0
 11
226.9348509532262
 21
123.711999923959
 31
0.0
  0
LINE
  5
1E68
  8
LAYER4
  6
CONTINUOUS
 10
226.33485095322641
 20
123.711999923959
 30
0.0
 11
226.9348509532262
 21
123.711999923959
 31
0.0
  0
LINE
  5
1E69
  8
LAYER4
  6
CONTINUOUS
 10
226.33485095322641
 20
124.31199992395911
 30
0.0
 11
226.9348509532262
 21
124.31199992395911
 31
0.0
  0
LINE
  5
1E6A
  8
LAYER4
  6
CONTINUOUS
 10
226.33485095322641
 20
128.79399992395909
 30
0.0
 11
226.9348509532262
 21
128.79399992395909
 31
0.0
  0
LINE
  5
1E6B
  8
LAYER4
  6
CONTINUOUS
 10
230.00685095322629
 20
127.032999923959
 30
0.0
 11
232.00485095322631
 21
127.032999923959
 31
0.0
  0
LINE
  5
1E6C
  8
LAYER4
  6
CONTINUOUS
 10
229.4758509532264
 20
134.47299992395901
 30
0.0
 11
229.4758509532264
 21
133.8729999239591
 31
0.0
  0
LINE
  5
1E6D
  8
LAYER4
  6
CONTINUOUS
 10
229.4758509532264
 20
137.01399992395901
 30
0.0
 11
229.4758509532264
 21
136.4139999239591
 31
0.0
  0
LINE
  5
1E6E
  8
LAYER4
  6
CONTINUOUS
 10
228.8758509532264
 20
131.33199992395899
 30
0.0
 11
229.4758509532264
 21
131.33199992395899
 31
0.0
  0
LINE
  5
1E6F
  8
LAYER4
  6
CONTINUOUS
 10
228.8758509532264
 20
136.4139999239591
 30
0.0
 11
229.4758509532264
 21
136.4139999239591
 31
0.0
  0
LINE
  5
1E70
  8
LAYER4
  6
CONTINUOUS
 10
228.8758509532264
 20
137.01399992395901
 30
0.0
 11
229.4758509532264
 21
137.01399992395901
 31
0.0
  0
LINE
  5
1E71
  8
LAYER4
  6
CONTINUOUS
 10
228.8758509532264
 20
134.47299992395901
 30
0.0
 11
229.4758509532264
 21
134.47299992395901
 31
0.0
  0
LINE
  5
1E72
  8
LAYER4
  6
CONTINUOUS
 10
229.4758509532264
 20
131.93199992395901
 30
0.0
 11
229.4758509532264
 21
131.33199992395899
 31
0.0
  0
LINE
  5
1E73
  8
LAYER4
  6
CONTINUOUS
 10
228.8758509532264
 20
131.93199992395901
 30
0.0
 11
229.4758509532264
 21
131.93199992395901
 31
0.0
  0
LINE
  5
1E74
  8
LAYER4
  6
CONTINUOUS
 10
228.8758509532264
 20
133.8729999239591
 30
0.0
 11
229.4758509532264
 21
133.8729999239591
 31
0.0
  0
LINE
  5
1E75
  8
LAYER4
  6
CONTINUOUS
 10
226.33485095322641
 20
137.01399992395901
 30
0.0
 11
226.33485095322641
 21
136.4139999239591
 31
0.0
  0
LINE
  5
1E76
  8
LAYER4
  6
CONTINUOUS
 10
228.8758509532264
 20
134.47299992395901
 30
0.0
 11
228.8758509532264
 21
133.8729999239591
 31
0.0
  0
LINE
  5
1E77
  8
LAYER4
  6
CONTINUOUS
 10
226.33485095322641
 20
133.8729999239591
 30
0.0
 11
226.9348509532262
 21
133.8729999239591
 31
0.0
  0
LINE
  5
1E78
  8
LAYER4
  6
CONTINUOUS
 10
226.9348509532262
 20
137.01399992395901
 30
0.0
 11
226.9348509532262
 21
136.4139999239591
 31
0.0
  0
LINE
  5
1E79
  8
LAYER4
  6
CONTINUOUS
 10
226.33485095322641
 20
134.47299992395901
 30
0.0
 11
226.9348509532262
 21
134.47299992395901
 31
0.0
  0
LINE
  5
1E7A
  8
LAYER4
  6
CONTINUOUS
 10
226.33485095322641
 20
136.4139999239591
 30
0.0
 11
226.9348509532262
 21
136.4139999239591
 31
0.0
  0
LINE
  5
1E7B
  8
LAYER4
  6
CONTINUOUS
 10
226.33485095322641
 20
131.93199992395901
 30
0.0
 11
226.33485095322641
 21
131.33199992395899
 31
0.0
  0
LINE
  5
1E7C
  8
LAYER4
  6
CONTINUOUS
 10
226.33485095322641
 20
131.93199992395901
 30
0.0
 11
226.9348509532262
 21
131.93199992395901
 31
0.0
  0
LINE
  5
1E7D
  8
LAYER4
  6
CONTINUOUS
 10
226.33485095322641
 20
137.01399992395901
 30
0.0
 11
226.9348509532262
 21
137.01399992395901
 31
0.0
  0
LINE
  5
1E7E
  8
LAYER4
  6
CONTINUOUS
 10
226.33485095322641
 20
131.33199992395899
 30
0.0
 11
226.9348509532262
 21
131.33199992395899
 31
0.0
  0
LINE
  5
1E7F
  8
LAYER4
  6
CONTINUOUS
 10
228.8758509532264
 20
131.93199992395901
 30
0.0
 11
228.8758509532264
 21
131.33199992395899
 31
0.0
  0
LINE
  5
1E80
  8
LAYER4
  6
CONTINUOUS
 10
226.9348509532262
 20
131.93199992395901
 30
0.0
 11
226.9348509532262
 21
131.33199992395899
 31
0.0
  0
LINE
  5
1E81
  8
LAYER4
  6
CONTINUOUS
 10
226.9348509532262
 20
134.47299992395901
 30
0.0
 11
226.9348509532262
 21
133.8729999239591
 31
0.0
  0
LINE
  5
1E82
  8
LAYER4
  6
CONTINUOUS
 10
226.33485095322641
 20
134.47299992395901
 30
0.0
 11
226.33485095322641
 21
133.8729999239591
 31
0.0
  0
LINE
  5
1E83
  8
LAYER4
  6
CONTINUOUS
 10
228.8758509532264
 20
137.01399992395901
 30
0.0
 11
228.8758509532264
 21
136.4139999239591
 31
0.0
  0
LINE
  5
1E84
  8
LAYER4
  6
CONTINUOUS
 10
230.00685095322629
 20
131.13399992395901
 30
0.0
 11
232.00485095322631
 21
131.13399992395901
 31
0.0
  0
LINE
  5
1E85
  8
LAYER4
  6
CONTINUOUS
 10
228.8758509532264
 20
144.63399992395901
 30
0.0
 11
229.4758509532264
 21
144.63399992395901
 31
0.0
  0
LINE
  5
1E86
  8
LAYER4
  6
CONTINUOUS
 10
229.4758509532264
 20
142.09299992395901
 30
0.0
 11
229.4758509532264
 21
141.4929999239591
 31
0.0
  0
LINE
  5
1E87
  8
LAYER4
  6
CONTINUOUS
 10
229.4758509532264
 20
139.5519999239591
 30
0.0
 11
229.4758509532264
 21
138.95199992395911
 31
0.0
  0
LINE
  5
1E88
  8
LAYER4
  6
CONTINUOUS
 10
229.4758509532264
 20
144.63399992395901
 30
0.0
 11
229.4758509532264
 21
144.03399992395919
 31
0.0
  0
LINE
  5
1E89
  8
LAYER4
  6
CONTINUOUS
 10
228.8758509532264
 20
144.03399992395919
 30
0.0
 11
229.4758509532264
 21
144.03399992395919
 31
0.0
  0
LINE
  5
1E8A
  8
LAYER4
  6
CONTINUOUS
 10
228.8758509532264
 20
141.4929999239591
 30
0.0
 11
229.4758509532264
 21
141.4929999239591
 31
0.0
  0
LINE
  5
1E8B
  8
LAYER4
  6
CONTINUOUS
 10
228.8758509532264
 20
142.09299992395901
 30
0.0
 11
229.4758509532264
 21
142.09299992395901
 31
0.0
  0
LINE
  5
1E8C
  8
LAYER4
  6
CONTINUOUS
 10
228.8758509532264
 20
138.95199992395911
 30
0.0
 11
229.4758509532264
 21
138.95199992395911
 31
0.0
  0
LINE
  5
1E8D
  8
LAYER4
  6
CONTINUOUS
 10
228.8758509532264
 20
139.5519999239591
 30
0.0
 11
229.4758509532264
 21
139.5519999239591
 31
0.0
  0
LINE
  5
1E8E
  8
LAYER4
  6
CONTINUOUS
 10
226.9348509532262
 20
144.63399992395901
 30
0.0
 11
226.9348509532262
 21
144.03399992395919
 31
0.0
  0
LINE
  5
1E8F
  8
LAYER4
  6
CONTINUOUS
 10
226.9348509532262
 20
139.5519999239591
 30
0.0
 11
226.9348509532262
 21
138.95199992395911
 31
0.0
  0
LINE
  5
1E90
  8
LAYER4
  6
CONTINUOUS
 10
226.9348509532262
 20
142.09299992395901
 30
0.0
 11
226.9348509532262
 21
141.4929999239591
 31
0.0
  0
LINE
  5
1E91
  8
LAYER4
  6
CONTINUOUS
 10
226.33485095322641
 20
142.09299992395901
 30
0.0
 11
226.33485095322641
 21
141.4929999239591
 31
0.0
  0
LINE
  5
1E92
  8
LAYER4
  6
CONTINUOUS
 10
226.33485095322641
 20
139.5519999239591
 30
0.0
 11
226.33485095322641
 21
138.95199992395911
 31
0.0
  0
LINE
  5
1E93
  8
LAYER4
  6
CONTINUOUS
 10
226.33485095322641
 20
144.63399992395901
 30
0.0
 11
226.33485095322641
 21
144.03399992395919
 31
0.0
  0
LINE
  5
1E94
  8
LAYER4
  6
CONTINUOUS
 10
228.8758509532264
 20
139.5519999239591
 30
0.0
 11
228.8758509532264
 21
138.95199992395911
 31
0.0
  0
LINE
  5
1E95
  8
LAYER4
  6
CONTINUOUS
 10
226.33485095322641
 20
138.95199992395911
 30
0.0
 11
226.9348509532262
 21
138.95199992395911
 31
0.0
  0
LINE
  5
1E96
  8
LAYER4
  6
CONTINUOUS
 10
226.33485095322641
 20
139.5519999239591
 30
0.0
 11
226.9348509532262
 21
139.5519999239591
 31
0.0
  0
LINE
  5
1E97
  8
LAYER4
  6
CONTINUOUS
 10
226.33485095322641
 20
142.09299992395901
 30
0.0
 11
226.9348509532262
 21
142.09299992395901
 31
0.0
  0
LINE
  5
1E98
  8
LAYER4
  6
CONTINUOUS
 10
228.8758509532264
 20
144.63399992395901
 30
0.0
 11
228.8758509532264
 21
144.03399992395919
 31
0.0
  0
LINE
  5
1E99
  8
LAYER4
  6
CONTINUOUS
 10
226.33485095322641
 20
144.03399992395919
 30
0.0
 11
226.9348509532262
 21
144.03399992395919
 31
0.0
  0
LINE
  5
1E9A
  8
LAYER4
  6
CONTINUOUS
 10
226.33485095322641
 20
144.63399992395901
 30
0.0
 11
226.9348509532262
 21
144.63399992395901
 31
0.0
  0
LINE
  5
1E9B
  8
LAYER4
  6
CONTINUOUS
 10
226.33485095322641
 20
141.4929999239591
 30
0.0
 11
226.9348509532262
 21
141.4929999239591
 31
0.0
  0
LINE
  5
1E9C
  8
LAYER4
  6
CONTINUOUS
 10
228.8758509532264
 20
142.09299992395901
 30
0.0
 11
228.8758509532264
 21
141.4929999239591
 31
0.0
  0
LINE
  5
1E9D
  8
LAYER4
  6
CONTINUOUS
 10
228.8758509532264
 20
146.57199992395911
 30
0.0
 11
229.4758509532264
 21
146.57199992395911
 31
0.0
  0
LINE
  5
1E9E
  8
LAYER4
  6
CONTINUOUS
 10
229.4758509532264
 20
147.17199992395911
 30
0.0
 11
229.4758509532264
 21
146.57199992395911
 31
0.0
  0
LINE
  5
1E9F
  8
LAYER4
  6
CONTINUOUS
 10
228.8758509532264
 20
149.71299992395899
 30
0.0
 11
229.4758509532264
 21
149.71299992395899
 31
0.0
  0
LINE
  5
1EA0
  8
LAYER4
  6
CONTINUOUS
 10
228.8758509532264
 20
147.17199992395911
 30
0.0
 11
229.4758509532264
 21
147.17199992395911
 31
0.0
  0
LINE
  5
1EA1
  8
LAYER4
  6
CONTINUOUS
 10
228.8758509532264
 20
149.11299992395911
 30
0.0
 11
229.4758509532264
 21
149.11299992395911
 31
0.0
  0
LINE
  5
1EA2
  8
LAYER4
  6
CONTINUOUS
 10
229.4758509532264
 20
149.71299992395899
 30
0.0
 11
229.4758509532264
 21
149.11299992395911
 31
0.0
  0
LINE
  5
1EA3
  8
LAYER4
  6
CONTINUOUS
 10
226.9348509532262
 20
147.17199992395911
 30
0.0
 11
226.9348509532262
 21
146.57199992395911
 31
0.0
  0
LINE
  5
1EA4
  8
LAYER4
  6
CONTINUOUS
 10
226.33485095322641
 20
149.11299992395911
 30
0.0
 11
226.9348509532262
 21
149.11299992395911
 31
0.0
  0
LINE
  5
1EA5
  8
LAYER4
  6
CONTINUOUS
 10
226.33485095322641
 20
149.71299992395899
 30
0.0
 11
226.9348509532262
 21
149.71299992395899
 31
0.0
  0
LINE
  5
1EA6
  8
LAYER4
  6
CONTINUOUS
 10
226.33485095322641
 20
147.17199992395911
 30
0.0
 11
226.33485095322641
 21
146.57199992395911
 31
0.0
  0
LINE
  5
1EA7
  8
LAYER4
  6
CONTINUOUS
 10
228.8758509532264
 20
147.17199992395911
 30
0.0
 11
228.8758509532264
 21
146.57199992395911
 31
0.0
  0
LINE
  5
1EA8
  8
LAYER4
  6
CONTINUOUS
 10
226.33485095322641
 20
146.57199992395911
 30
0.0
 11
226.9348509532262
 21
146.57199992395911
 31
0.0
  0
LINE
  5
1EA9
  8
LAYER4
  6
CONTINUOUS
 10
226.33485095322641
 20
147.17199992395911
 30
0.0
 11
226.9348509532262
 21
147.17199992395911
 31
0.0
  0
LINE
  5
1EAA
  8
LAYER4
  6
CONTINUOUS
 10
226.9348509532262
 20
149.71299992395899
 30
0.0
 11
226.9348509532262
 21
149.11299992395911
 31
0.0
  0
LINE
  5
1EAB
  8
LAYER4
  6
CONTINUOUS
 10
226.33485095322641
 20
149.71299992395899
 30
0.0
 11
226.33485095322641
 21
149.11299992395911
 31
0.0
  0
LINE
  5
1EAC
  8
LAYER4
  6
CONTINUOUS
 10
228.8758509532264
 20
149.71299992395899
 30
0.0
 11
228.8758509532264
 21
149.11299992395911
 31
0.0
  0
LINE
  5
1EAD
  8
LAYER4
  6
CONTINUOUS
 10
231.90585095322629
 20
151.12299992395899
 30
0.0
 11
232.00485095322631
 21
151.12299992395899
 31
0.0
  0
LINE
  5
1EB8
  8
LAYER4
  6
CONTINUOUS
 10
243.55485095322641
 20
148.89999992395909
 30
0.0
 11
243.55485095322641
 21
151.19999992395901
 31
0.0
  0
LINE
  5
1EB9
  8
LAYER4
  6
CONTINUOUS
 10
244.80485095322629
 20
151.79999992395901
 30
0.0
 11
244.80485095322629
 21
150.79999992395901
 31
0.0
  0
LINE
  5
1EBC
  8
LAYER4
  6
CONTINUOUS
 10
242.50485095322631
 20
151.19999992395901
 30
0.0
 11
243.55485095322641
 21
151.19999992395901
 31
0.0
  0
LINE
  5
1EBD
  8
LAYER4
  6
CONTINUOUS
 10
244.30485095322641
 20
150.79999992395901
 30
0.0
 11
244.30485095322641
 21
149.29999992395901
 31
0.0
  0
LINE
  5
1EBE
  8
LAYER4
  6
CONTINUOUS
 10
244.80485095322629
 20
151.79999992395901
 30
0.0
 11
243.2048509532263
 21
151.79999992395901
 31
0.0
  0
LINE
  5
1EBF
  8
LAYER4
  6
CONTINUOUS
 10
244.80485095322629
 20
150.79999992395901
 30
0.0
 11
244.30485095322641
 21
150.79999992395901
 31
0.0
  0
LINE
  5
1EC0
  8
LAYER4
  6
CONTINUOUS
 10
124.08999975015691
 20
157.89999992395909
 30
0.0
 11
124.08999975015691
 21
156.21999992395911
 31
0.0
  0
LINE
  5
1EC1
  8
LAYER4
  6
CONTINUOUS
 10
223.80585095322641
 20
157.9209999239591
 30
0.0
 11
232.00485095322631
 21
157.9209999239591
 31
0.0
  0
LINE
  5
1EC2
  8
LAYER4
  6
CONTINUOUS
 10
223.50485095322631
 20
160.32099992395911
 30
0.0
 11
232.00485095322631
 21
160.32099992395911
 31
0.0
  0
LINE
  5
1EC3
  8
LAYER4
  6
CONTINUOUS
 10
223.80585095322641
 20
160.32099992395911
 30
0.0
 11
232.00485095322631
 21
160.32099992395911
 31
0.0
  0
LINE
  5
1EC4
  8
LAYER4
  6
CONTINUOUS
 10
223.9048509532262
 20
155.87199992395909
 30
0.0
 11
231.90585095322629
 21
155.87199992395909
 31
0.0
  0
LINE
  5
1EC5
  8
LAYER4
  6
CONTINUOUS
 10
223.9048509532262
 20
157.8729999239591
 30
0.0
 11
231.90585095322629
 21
157.8729999239591
 31
0.0
  0
ARC
  5
1EC6
  8
LAYER2
  6
CONTINUOUS
 10
217.50485095322631
 20
166.09999992395899
 30
0.0
 40
1.0
 50
90.0
 51
180.0
  0
LINE
  5
1EC7
  8
LAYER4
  6
CONTINUOUS
 10
223.80585095322641
 20
153.120999923959
 30
0.0
 11
223.9048509532262
 21
153.120999923959
 31
0.0
  0
ARC
  5
1EC8
  8
LAYER2
  6
CONTINUOUS
 10
222.50485095322639
 20
160.01999992395901
 30
0.0
 40
1.0
 50
90.0
 51
180.0
  0
ARC
  5
1EC9
  8
LAYER2
  6
CONTINUOUS
 10
222.50754795322641
 20
160.01999992395901
 30
0.0
 40
2.0
 50
90.0
 51
180.0
  0
ARC
  5
1ECA
  8
LAYER1
  6
CONTINUOUS
 10
218.00485095322651
 20
176.59999992395899
 30
0.0
 40
1.4476348052149981
 50
90.0
 51
179.99999100000031
  0
ARC
  5
1ECB
  8
LAYER1
  6
CONTINUOUS
 10
218.00485095322651
 20
176.59999992395899
 30
0.0
 40
1.5
 50
90.0
 51
179.99999100000031
  0
LINE
  5
1ECC
  8
LAYER2
  6
CONTINUOUS
 10
234.41650562223509
 20
166.0410418869715
 30
0.0
 11
235.71947580020679
 21
166.0410418869715
 31
0.0
  0
LINE
  5
1ECD
  8
LAYER2
  6
CONTINUOUS
 10
235.09184582122381
 20
163.024836728991
 30
0.0
 11
234.0047326697414
 21
163.024836728991
 31
0.0
  0
LINE
  5
1ECE
  8
LAYER4
  6
CONTINUOUS
 10
231.90585095322629
 20
153.120999923959
 30
0.0
 11
232.00485095322631
 21
153.120999923959
 31
0.0
  0
POLYLINE
  5
1ECF
  8
LAYER2
  6
CONTINUOUS
 66
     1
 10
0.0
 20
0.0
 30
0.0
  0
VERTEX
  5
2403
  8
LAYER2
  6
CONTINUOUS
 10
234.41650562223509
 20
166.0410418869715
 30
0.0
  0
VERTEX
  5
2404
  8
LAYER2
  6
CONTINUOUS
 10
234.41950926463829
 20
166.03474320127859
 30
0.0
  0
VERTEX
  5
2405
  8
LAYER2
  6
CONTINUOUS
 10
234.42585150888911
 20
166.02800613806031
 30
0.0
  0
VERTEX
  5
2406
  8
LAYER2
  6
CONTINUOUS
 10
234.4308106243594
 20
166.0242339127293
 30
0.0
  0
VERTEX
  5
2407
  8
LAYER2
  6
CONTINUOUS
 10
234.4528437600656
 20
166.0102071204914
 30
0.0
  0
VERTEX
  5
2408
  8
LAYER2
  6
CONTINUOUS
 10
234.4655206880735
 20
165.9996400508787
 30
0.0
  0
VERTEX
  5
2409
  8
LAYER2
  6
CONTINUOUS
 10
234.4694344388289
 20
165.9957275435475
 30
0.0
  0
VERTEX
  5
240A
  8
LAYER2
  6
CONTINUOUS
 10
234.4834841852668
 20
165.97982125619211
 30
0.0
  0
VERTEX
  5
240B
  8
LAYER2
  6
CONTINUOUS
 10
234.49629654030031
 20
165.9650185808471
 30
0.0
  0
VERTEX
  5
240C
  8
LAYER2
  6
CONTINUOUS
 10
234.5088607344739
 20
165.9498151585411
 30
0.0
  0
VERTEX
  5
240D
  8
LAYER2
  6
CONTINUOUS
 10
234.51956039434509
 20
165.9352474743867
 30
0.0
  0
VERTEX
  5
240E
  8
LAYER2
  6
CONTINUOUS
 10
234.5294072443215
 20
165.9201196920061
 30
0.0
  0
VERTEX
  5
240F
  8
LAYER2
  6
CONTINUOUS
 10
234.53786016895901
 20
165.90560119621901
 30
0.0
  0
VERTEX
  5
2410
  8
LAYER2
  6
CONTINUOUS
 10
234.54555755144511
 20
165.89066572105591
 30
0.0
  0
VERTEX
  5
2411
  8
LAYER2
  6
CONTINUOUS
 10
234.5520470581198
 20
165.87618932875671
 30
0.0
  0
VERTEX
  5
2412
  8
LAYER2
  6
CONTINUOUS
 10
234.5577454924796
 20
165.86138411015739
 30
0.0
  0
VERTEX
  5
2413
  8
LAYER2
  6
CONTINUOUS
 10
234.56245188177101
 20
165.84690650939569
 30
0.0
  0
VERTEX
  5
2414
  8
LAYER2
  6
CONTINUOUS
 10
234.56640490406031
 20
165.83220572377931
 30
0.0
  0
VERTEX
  5
2415
  8
LAYER2
  6
CONTINUOUS
 10
234.56953423088601
 20
165.81769988467141
 30
0.0
  0
VERTEX
  5
2416
  8
LAYER2
  6
CONTINUOUS
 10
234.57196962282271
 20
165.80306142638901
 30
0.0
  0
VERTEX
  5
2417
  8
LAYER2
  6
CONTINUOUS
 10
234.57372397124109
 20
165.78850167058471
 30
0.0
  0
VERTEX
  5
2418
  8
LAYER2
  6
CONTINUOUS
 10
234.57487348540059
 20
165.7738820824552
 30
0.0
  0
VERTEX
  5
2419
  8
LAYER2
  6
CONTINUOUS
 10
234.5754655234407
 20
165.75924704328881
 30
0.0
  0
VERTEX
  5
241A
  8
LAYER2
  6
CONTINUOUS
 10
234.57555032843041
 20
165.74459855644511
 30
0.0
  0
VERTEX
  5
241B
  8
LAYER2
  6
CONTINUOUS
 10
234.57517964317759
 20
165.7298593958721
 30
0.0
  0
VERTEX
  5
241C
  8
LAYER2
  6
CONTINUOUS
 10
234.5744339885465
 20
165.71514171282701
 30
0.0
  0
VERTEX
  5
241D
  8
LAYER2
  6
CONTINUOUS
 10
234.57336648948211
 20
165.7002931183674
 30
0.0
  0
VERTEX
  5
241E
  8
LAYER2
  6
CONTINUOUS
 10
234.57195830238439
 20
165.68544241606881
 30
0.0
  0
VERTEX
  5
241F
  8
LAYER2
  6
CONTINUOUS
 10
234.5702210753453
 20
165.67037951225541
 30
0.0
  0
VERTEX
  5
2420
  8
LAYER2
  6
CONTINUOUS
 10
234.56855710657911
 20
165.65543153063859
 30
0.0
  0
VERTEX
  5
2421
  8
LAYER2
  6
CONTINUOUS
 10
234.56709287689679
 20
165.64041558608281
 30
0.0
  0
VERTEX
  5
2422
  8
LAYER2
  6
CONTINUOUS
 10
234.56466423776541
 20
165.62503992100409
 30
0.0
  0
VERTEX
  5
2423
  8
LAYER2
  6
CONTINUOUS
 10
234.56092629579101
 20
165.6089231109741
 30
0.0
  0
VERTEX
  5
2424
  8
LAYER2
  6
CONTINUOUS
 10
234.5599996633874
 20
165.59883773567111
 30
0.0
  0
VERTEX
  5
2425
  8
LAYER2
  6
CONTINUOUS
 10
234.5607135325784
 20
165.5941984516335
 30
0.0
  0
SEQEND
  5
2426
  8
LAYER2
  6
CONTINUOUS
  0
LINE
  5
1EF4
  8
LAYER2
  6
CONTINUOUS
 10
234.0047326697414
 20
163.024836728991
 30
0.0
 11
234.56071353257889
 21
165.5941984516333
 31
0.0
  0
LINE
  5
1EF5
  8
LAYER4
  6
CONTINUOUS
 10
243.55485095322641
 20
156.5999999239591
 30
0.0
 11
243.55485095322641
 21
158.89999992395909
 31
0.0
  0
LINE
  5
1EF6
  8
LAYER4
  6
CONTINUOUS
 10
243.55485095322641
 20
156.5999999239591
 30
0.0
 11
242.50485095322631
 21
156.5999999239591
 31
0.0
  0
LINE
  5
1EF7
  8
LAYER4
  6
CONTINUOUS
 10
244.30485095322641
 20
156.99999992395911
 30
0.0
 11
244.80485095322629
 21
156.99999992395911
 31
0.0
  0
LINE
  5
1EF8
  8
LAYER4
  6
CONTINUOUS
 10
243.2048509532263
 20
155.99999992395911
 30
0.0
 11
244.80485095322629
 21
155.99999992395911
 31
0.0
  0
LINE
  5
1EF9
  8
LAYER4
  6
CONTINUOUS
 10
244.80485095322629
 20
156.99999992395911
 30
0.0
 11
244.80485095322629
 21
155.99999992395911
 31
0.0
  0
LINE
  5
1EFA
  8
LAYER4
  6
CONTINUOUS
 10
244.30485095322641
 20
158.49999992395911
 30
0.0
 11
244.30485095322641
 21
156.99999992395911
 31
0.0
  0
POLYLINE
  5
1EFB
  8
LAYER2
  6
CONTINUOUS
 66
     1
 10
0.0
 20
0.0
 30
0.0
  0
VERTEX
  5
2427
  8
LAYER2
  6
CONTINUOUS
 10
237.64530014738111
 20
166.0356077575475
 30
0.0
  0
VERTEX
  5
2428
  8
LAYER2
  6
CONTINUOUS
 10
237.64623148359681
 20
166.03241508536871
 30
0.0
  0
VERTEX
  5
2429
  8
LAYER2
  6
CONTINUOUS
 10
237.64848129410061
 20
166.0290149209219
 30
0.0
  0
VERTEX
  5
242A
  8
LAYER2
  6
CONTINUOUS
 10
237.65271577571349
 20
166.02490938160111
 30
0.0
  0
VERTEX
  5
242B
  8
LAYER2
  6
CONTINUOUS
 10
237.6655597522188
 20
166.0147402075971
 30
0.0
  0
VERTEX
  5
242C
  8
LAYER2
  6
CONTINUOUS
 10
237.67204641605591
 20
166.0083798017919
 30
0.0
  0
VERTEX
  5
242D
  8
LAYER2
  6
CONTINUOUS
 10
237.67512563882229
 20
166.00480997271251
 30
0.0
  0
VERTEX
  5
242E
  8
LAYER2
  6
CONTINUOUS
 10
237.68298760907271
 20
165.9943883759459
 30
0.0
  0
VERTEX
  5
242F
  8
LAYER2
  6
CONTINUOUS
 10
237.69035722020831
 20
165.98453733456
 30
0.0
  0
VERTEX
  5
2430
  8
LAYER2
  6
CONTINUOUS
 10
237.69764474616849
 20
165.97443535566461
 30
0.0
  0
VERTEX
  5
2431
  8
LAYER2
  6
CONTINUOUS
 10
237.70388961510201
 20
165.96474626816081
 30
0.0
  0
VERTEX
  5
2432
  8
LAYER2
  6
CONTINUOUS
 10
237.70959219173261
 20
165.95476423982441
 30
0.0
  0
VERTEX
  5
2433
  8
LAYER2
  6
CONTINUOUS
 10
237.71449352124421
 20
165.9451342411559
 30
0.0
  0
VERTEX
  5
2434
  8
LAYER2
  6
CONTINUOUS
 10
237.71889097399119
 20
165.93525812149579
 30
0.0
  0
VERTEX
  5
2435
  8
LAYER2
  6
CONTINUOUS
 10
237.72253463847599
 20
165.9256278203664
 30
0.0
  0
VERTEX
  5
2436
  8
LAYER2
  6
CONTINUOUS
 10
237.7256021211694
 20
165.91580009374991
 30
0.0
  0
VERTEX
  5
2437
  8
LAYER2
  6
CONTINUOUS
 10
237.7279947519641
 20
165.906100998797
 30
0.0
  0
VERTEX
  5
2438
  8
LAYER2
  6
CONTINUOUS
 10
237.72978666149359
 20
165.89627324965701
 30
0.0
  0
VERTEX
  5
2439
  8
LAYER2
  6
CONTINUOUS
 10
237.7309505807192
 20
165.88644354679991
 30
0.0
  0
VERTEX
  5
243A
  8
LAYER2
  6
CONTINUOUS
 10
237.73150562318949
 20
165.87656068228841
 30
0.0
  0
VERTEX
  5
243B
  8
LAYER2
  6
CONTINUOUS
 10
237.73145659100339
 20
165.8665430251954
 30
0.0
  0
VERTEX
  5
243C
  8
LAYER2
  6
CONTINUOUS
 10
237.73082003448309
 20
165.8565454847143
 30
0.0
  0
VERTEX
  5
243D
  8
LAYER2
  6
CONTINUOUS
 10
237.72958184920239
 20
165.84628790973011
 30
0.0
  0
VERTEX
  5
243E
  8
LAYER2
  6
CONTINUOUS
 10
237.72779092360039
 20
165.8361107500055
 30
0.0
  0
VERTEX
  5
243F
  8
LAYER2
  6
CONTINUOUS
 10
237.7253726339286
 20
165.82556168137791
 30
0.0
  0
VERTEX
  5
2440
  8
LAYER2
  6
CONTINUOUS
 10
237.7224793187666
 20
165.8151395712334
 30
0.0
  0
VERTEX
  5
2441
  8
LAYER2
  6
CONTINUOUS
 10
237.71896729111211
 20
165.80425635516761
 30
0.0
  0
VERTEX
  5
2442
  8
LAYER2
  6
CONTINUOUS
 10
237.71494624820869
 20
165.79351504146811
 30
0.0
  0
VERTEX
  5
2443
  8
LAYER2
  6
CONTINUOUS
 10
237.71013108493079
 20
165.78221871687111
 30
0.0
  0
VERTEX
  5
2444
  8
LAYER2
  6
CONTINUOUS
 10
237.70525274015159
 20
165.77112025378091
 30
0.0
  0
VERTEX
  5
2445
  8
LAYER2
  6
CONTINUOUS
 10
237.70015478053409
 20
165.7594743074344
 30
0.0
  0
VERTEX
  5
2446
  8
LAYER2
  6
CONTINUOUS
 10
237.6953679747206
 20
165.7507333540328
 30
0.0
  0
VERTEX
  5
2447
  8
LAYER2
  6
CONTINUOUS
 10
237.69345982282201
 20
165.74783830124201
 30
0.0
  0
VERTEX
  5
2448
  8
LAYER2
  6
CONTINUOUS
 10
237.6840280635609
 20
165.73530868473929
 30
0.0
  0
VERTEX
  5
2449
  8
LAYER2
  6
CONTINUOUS
 10
237.6809212013973
 20
165.7301171222469
 30
0.0
  0
VERTEX
  5
244A
  8
LAYER2
  6
CONTINUOUS
 10
237.67970019114529
 20
165.72627240563841
 30
0.0
  0
VERTEX
  5
244B
  8
LAYER2
  6
CONTINUOUS
 10
237.67962852444489
 20
165.7235522769225
 30
0.0
  0
SEQEND
  5
244C
  8
LAYER2
  6
CONTINUOUS
  0
LINE
  5
1F22
  8
LAYER2
  6
CONTINUOUS
 10
237.64530014738111
 20
166.0356077575475
 30
0.0
 11
238.83555403288079
 21
166.03619426050341
 31
0.0
  0
LINE
  5
1F23
  8
LAYER2
  6
CONTINUOUS
 10
238.06912630678741
 20
164.16846964297059
 30
0.0
 11
237.2474596393173
 21
164.16763177008471
 31
0.0
  0
LINE
  5
1F24
  8
LAYER2
  6
CONTINUOUS
 10
238.2908005123322
 20
163.02000107197091
 30
0.0
 11
238.1425229896449
 21
163.78010890218931
 31
0.0
  0
LINE
  5
1F25
  8
LAYER2
  6
CONTINUOUS
 10
238.1425229896449
 20
163.78010890218931
 30
0.0
 11
236.99488033927381
 21
163.78010890218931
 31
0.0
  0
LINE
  5
1F26
  8
LAYER2
  6
CONTINUOUS
 10
239.42023763218961
 20
163.02000107197091
 30
0.0
 11
238.2908005123322
 21
163.02000107197091
 31
0.0
  0
LINE
  5
1F27
  8
LAYER2
  6
CONTINUOUS
 10
238.83555403288079
 20
166.03619426050341
 30
0.0
 11
239.42023763218961
 21
163.02000107197091
 31
0.0
  0
LINE
  5
1F28
  8
LAYER2
  6
CONTINUOUS
 10
237.88568259229709
 20
165.1311363919335
 30
0.0
 11
238.06912630678741
 21
164.16846964297059
 31
0.0
  0
LINE
  5
1F29
  8
LAYER2
  6
CONTINUOUS
 10
237.2474596393173
 20
164.16763177008471
 30
0.0
 11
237.88568259229709
 21
165.1311363919335
 31
0.0
  0
LINE
  5
1F2A
  8
LAYER2
  6
CONTINUOUS
 10
235.71947580020679
 20
166.0410418869715
 30
0.0
 11
235.09184582122381
 21
163.024836728991
 31
0.0
  0
LINE
  5
1F2B
  8
LAYER2
  6
CONTINUOUS
 10
236.99488033927381
 20
163.78010890218931
 30
0.0
 11
236.7144242015529
 21
163.37065802262109
 31
0.0
  0
LINE
  5
1F2C
  8
LAYER2
  6
CONTINUOUS
 10
236.78022025759171
 20
163.02038409430941
 30
0.0
 11
235.69662612384181
 21
163.02038409430941
 31
0.0
  0
LINE
  5
1F2D
  8
LAYER2
  6
CONTINUOUS
 10
235.69662612384181
 20
163.02038409430941
 30
0.0
 11
237.67962852444521
 21
165.7235522769225
 31
0.0
  0
POLYLINE
  5
1F2E
  8
LAYER2
  6
CONTINUOUS
 66
     1
 10
0.0
 20
0.0
 30
0.0
  0
VERTEX
  5
244D
  8
LAYER2
  6
CONTINUOUS
 10
236.78022025759151
 20
163.02038409430941
 30
0.0
  0
VERTEX
  5
244E
  8
LAYER2
  6
CONTINUOUS
 10
236.77801245451431
 20
163.0233762832876
 30
0.0
  0
VERTEX
  5
244F
  8
LAYER2
  6
CONTINUOUS
 10
236.77294855760599
 20
163.02676638654759
 30
0.0
  0
VERTEX
  5
2450
  8
LAYER2
  6
CONTINUOUS
 10
236.7622183956596
 20
163.0324946932034
 30
0.0
  0
VERTEX
  5
2451
  8
LAYER2
  6
CONTINUOUS
 10
236.7548444215771
 20
163.03788835062201
 30
0.0
  0
VERTEX
  5
2452
  8
LAYER2
  6
CONTINUOUS
 10
236.75313107218739
 20
163.03941673196371
 30
0.0
  0
VERTEX
  5
2453
  8
LAYER2
  6
CONTINUOUS
 10
236.74558824311569
 20
163.0472217602485
 30
0.0
  0
VERTEX
  5
2454
  8
LAYER2
  6
CONTINUOUS
 10
236.73792480493631
 20
163.05560460399411
 30
0.0
  0
VERTEX
  5
2455
  8
LAYER2
  6
CONTINUOUS
 10
236.73046211289881
 20
163.06433207739781
 30
0.0
  0
VERTEX
  5
2456
  8
LAYER2
  6
CONTINUOUS
 10
236.72341290689039
 20
163.07376464360109
 30
0.0
  0
VERTEX
  5
2457
  8
LAYER2
  6
CONTINUOUS
 10
236.71697231794809
 20
163.0835924266058
 30
0.0
  0
VERTEX
  5
2458
  8
LAYER2
  6
CONTINUOUS
 10
236.71085257608291
 20
163.09403483707439
 30
0.0
  0
VERTEX
  5
2459
  8
LAYER2
  6
CONTINUOUS
 10
236.70525117120229
 20
163.10476958982639
 30
0.0
  0
VERTEX
  5
245A
  8
LAYER2
  6
CONTINUOUS
 10
236.70005910521161
 20
163.11607910949431
 30
0.0
  0
VERTEX
  5
245B
  8
LAYER2
  6
CONTINUOUS
 10
236.6954309856001
 20
163.12763034901371
 30
0.0
  0
VERTEX
  5
245C
  8
LAYER2
  6
CONTINUOUS
 10
236.69125202942641
 20
163.1396944155434
 30
0.0
  0
VERTEX
  5
245D
  8
LAYER2
  6
CONTINUOUS
 10
236.68764407407991
 20
163.1519414861219
 30
0.0
  0
VERTEX
  5
245E
  8
LAYER2
  6
CONTINUOUS
 10
236.68453786021661
 20
163.1646404669296
 30
0.0
  0
VERTEX
  5
245F
  8
LAYER2
  6
CONTINUOUS
 10
236.6820227495819
 20
163.1774697831047
 30
0.0
  0
VERTEX
  5
2460
  8
LAYER2
  6
CONTINUOUS
 10
236.6800579091865
 20
163.1906880118124
 30
0.0
  0
VERTEX
  5
2461
  8
LAYER2
  6
CONTINUOUS
 10
236.67869932504351
 20
163.2039820219166
 30
0.0
  0
VERTEX
  5
2462
  8
LAYER2
  6
CONTINUOUS
 10
236.67793396924401
 20
163.21760205751011
 30
0.0
  0
VERTEX
  5
2463
  8
LAYER2
  6
CONTINUOUS
 10
236.67780611340399
 20
163.23124498451131
 30
0.0
  0
VERTEX
  5
2464
  8
LAYER2
  6
CONTINUOUS
 10
236.6783333623778
 20
163.2451588792643
 30
0.0
  0
VERTEX
  5
2465
  8
LAYER2
  6
CONTINUOUS
 10
236.6794754276028
 20
163.25902545284279
 30
0.0
  0
VERTEX
  5
2466
  8
LAYER2
  6
CONTINUOUS
 10
236.6812584196272
 20
163.27309346506831
 30
0.0
  0
VERTEX
  5
2467
  8
LAYER2
  6
CONTINUOUS
 10
236.68383958057771
 20
163.28709020886581
 30
0.0
  0
VERTEX
  5
2468
  8
LAYER2
  6
CONTINUOUS
 10
236.6873456629643
 20
163.30129786142879
 30
0.0
  0
VERTEX
  5
2469
  8
LAYER2
  6
CONTINUOUS
 10
236.6910308852689
 20
163.3152060345337
 30
0.0
  0
VERTEX
  5
246A
  8
LAYER2
  6
CONTINUOUS
 10
236.694786628055
 20
163.3290568756893
 30
0.0
  0
VERTEX
  5
246B
  8
LAYER2
  6
CONTINUOUS
 10
236.6987575548288
 20
163.3387091343989
 30
0.0
  0
VERTEX
  5
246C
  8
LAYER2
  6
CONTINUOUS
 10
236.7011816546142
 20
163.3431397118006
 30
0.0
  0
VERTEX
  5
246D
  8
LAYER2
  6
CONTINUOUS
 10
236.71123992814549
 20
163.35800445103331
 30
0.0
  0
VERTEX
  5
246E
  8
LAYER2
  6
CONTINUOUS
 10
236.71430730887681
 20
163.36396016969491
 30
0.0
  0
VERTEX
  5
246F
  8
LAYER2
  6
CONTINUOUS
 10
236.71502631933751
 20
163.3679508470654
 30
0.0
  0
VERTEX
  5
2470
  8
LAYER2
  6
CONTINUOUS
 10
236.7144242015525
 20
163.37065802262109
 30
0.0
  0
SEQEND
  5
2471
  8
LAYER2
  6
CONTINUOUS
  0
POLYLINE
  5
1F54
  8
LAYER2
  6
CONTINUOUS
 66
     1
 10
0.0
 20
0.0
 30
0.0
  0
VERTEX
  5
2472
  8
LAYER2
  6
CONTINUOUS
 10
240.7019979481816
 20
166.0410418869715
 30
0.0
  0
VERTEX
  5
2473
  8
LAYER2
  6
CONTINUOUS
 10
240.7050015905848
 20
166.03474320127859
 30
0.0
  0
VERTEX
  5
2474
  8
LAYER2
  6
CONTINUOUS
 10
240.7113438348357
 20
166.02800613806031
 30
0.0
  0
VERTEX
  5
2475
  8
LAYER2
  6
CONTINUOUS
 10
240.7163029503059
 20
166.0242339127293
 30
0.0
  0
VERTEX
  5
2476
  8
LAYER2
  6
CONTINUOUS
 10
240.73833608601191
 20
166.0102071204914
 30
0.0
  0
VERTEX
  5
2477
  8
LAYER2
  6
CONTINUOUS
 10
240.75101301401969
 20
165.9996400508787
 30
0.0
  0
VERTEX
  5
2478
  8
LAYER2
  6
CONTINUOUS
 10
240.75492676477509
 20
165.9957275435475
 30
0.0
  0
VERTEX
  5
2479
  8
LAYER2
  6
CONTINUOUS
 10
240.768976511213
 20
165.97982125619211
 30
0.0
  0
VERTEX
  5
247A
  8
LAYER2
  6
CONTINUOUS
 10
240.7817888662465
 20
165.9650185808471
 30
0.0
  0
VERTEX
  5
247B
  8
LAYER2
  6
CONTINUOUS
 10
240.79435306042009
 20
165.9498151585411
 30
0.0
  0
VERTEX
  5
247C
  8
LAYER2
  6
CONTINUOUS
 10
240.8050527202918
 20
165.9352474743867
 30
0.0
  0
VERTEX
  5
247D
  8
LAYER2
  6
CONTINUOUS
 10
240.81489957026801
 20
165.9201196920061
 30
0.0
  0
VERTEX
  5
247E
  8
LAYER2
  6
CONTINUOUS
 10
240.82335249490541
 20
165.90560119621901
 30
0.0
  0
VERTEX
  5
247F
  8
LAYER2
  6
CONTINUOUS
 10
240.83104987739171
 20
165.89066572105591
 30
0.0
  0
VERTEX
  5
2480
  8
LAYER2
  6
CONTINUOUS
 10
240.83753938406599
 20
165.87618932875671
 30
0.0
  0
VERTEX
  5
2481
  8
LAYER2
  6
CONTINUOUS
 10
240.8432378184261
 20
165.86138411015739
 30
0.0
  0
VERTEX
  5
2482
  8
LAYER2
  6
CONTINUOUS
 10
240.84794420771721
 20
165.84690650939569
 30
0.0
  0
VERTEX
  5
2483
  8
LAYER2
  6
CONTINUOUS
 10
240.85189723000701
 20
165.83220572377931
 30
0.0
  0
VERTEX
  5
2484
  8
LAYER2
  6
CONTINUOUS
 10
240.8550265568324
 20
165.81769988467141
 30
0.0
  0
VERTEX
  5
2485
  8
LAYER2
  6
CONTINUOUS
 10
240.8574619487691
 20
165.80306142638901
 30
0.0
  0
VERTEX
  5
2486
  8
LAYER2
  6
CONTINUOUS
 10
240.85921629718749
 20
165.78850167058471
 30
0.0
  0
VERTEX
  5
2487
  8
LAYER2
  6
CONTINUOUS
 10
240.86036581134709
 20
165.7738820824552
 30
0.0
  0
VERTEX
  5
2488
  8
LAYER2
  6
CONTINUOUS
 10
240.86095784938729
 20
165.75924704328881
 30
0.0
  0
VERTEX
  5
2489
  8
LAYER2
  6
CONTINUOUS
 10
240.861042654377
 20
165.74459855644511
 30
0.0
  0
VERTEX
  5
248A
  8
LAYER2
  6
CONTINUOUS
 10
240.8606719691241
 20
165.7298593958721
 30
0.0
  0
VERTEX
  5
248B
  8
LAYER2
  6
CONTINUOUS
 10
240.85992631449301
 20
165.71514171282701
 30
0.0
  0
VERTEX
  5
248C
  8
LAYER2
  6
CONTINUOUS
 10
240.8588588154287
 20
165.7002931183674
 30
0.0
  0
VERTEX
  5
248D
  8
LAYER2
  6
CONTINUOUS
 10
240.8574506283307
 20
165.68544241606881
 30
0.0
  0
VERTEX
  5
248E
  8
LAYER2
  6
CONTINUOUS
 10
240.85571340129181
 20
165.67037951225541
 30
0.0
  0
VERTEX
  5
248F
  8
LAYER2
  6
CONTINUOUS
 10
240.8540494325253
 20
165.65543153063859
 30
0.0
  0
VERTEX
  5
2490
  8
LAYER2
  6
CONTINUOUS
 10
240.8525852028433
 20
165.64041558608281
 30
0.0
  0
VERTEX
  5
2491
  8
LAYER2
  6
CONTINUOUS
 10
240.85015656371189
 20
165.62503992100409
 30
0.0
  0
VERTEX
  5
2492
  8
LAYER2
  6
CONTINUOUS
 10
240.84641862173751
 20
165.6089231109741
 30
0.0
  0
VERTEX
  5
2493
  8
LAYER2
  6
CONTINUOUS
 10
240.84549198933399
 20
165.59883773567111
 30
0.0
  0
VERTEX
  5
2494
  8
LAYER2
  6
CONTINUOUS
 10
240.846205858525
 20
165.5941984516335
 30
0.0
  0
SEQEND
  5
2495
  8
LAYER2
  6
CONTINUOUS
  0
LINE
  5
1F79
  8
LAYER2
  6
CONTINUOUS
 10
240.7019979481816
 20
166.0410418869715
 30
0.0
 11
242.0049681261529
 21
166.0410418869715
 31
0.0
  0
LINE
  5
1F7A
  8
LAYER2
  6
CONTINUOUS
 10
241.37733814717029
 20
163.024836728991
 30
0.0
 11
240.29022499568791
 21
163.024836728991
 31
0.0
  0
LINE
  5
1F7B
  8
LAYER2
  6
CONTINUOUS
 10
242.0049681261529
 20
166.0410418869715
 30
0.0
 11
241.37733814717029
 21
163.024836728991
 31
0.0
  0
LINE
  5
1F7C
  8
LAYER2
  6
CONTINUOUS
 10
240.29022499568791
 20
163.024836728991
 30
0.0
 11
240.84620585852539
 21
165.5941984516333
 31
0.0
  0
LINE
  5
1F7D
  8
LAYER1
  6
CONTINUOUS
 10
232.4524857584413
 20
167.65236511874389
 30
0.0
 11
243.55721614801121
 21
167.65236511874389
 31
0.0
  0
LINE
  5
1F7E
  8
LAYER1
  6
CONTINUOUS
 10
243.54848861554709
 20
167.14363758628011
 30
0.0
 11
232.4612132909065
 21
167.14363758628011
 31
0.0
  0
LINE
  5
1F7F
  8
LAYER1
  6
CONTINUOUS
 10
243.50485095322639
 20
167.09999992395899
 30
0.0
 11
232.50485095322651
 21
167.09999992395899
 31
0.0
  0
LINE
  5
1F80
  8
LAYER1
  6
CONTINUOUS
 10
232.4612132909065
 20
167.14363758627911
 30
0.0
 11
232.4524857584413
 21
167.65236511874389
 31
0.0
  0
LINE
  5
1F81
  8
LAYER1
  6
CONTINUOUS
 10
232.50485095322651
 20
167.09999992395899
 30
0.0
 11
232.4612132909065
 21
167.14363758627911
 31
0.0
  0
LINE
  5
1F82
  8
LAYER1
  6
CONTINUOUS
 10
232.4524857584413
 20
167.65236511874389
 30
0.0
 11
232.4524857584413
 21
167.09999992395899
 31
0.0
  0
CIRCLE
  5
1F83
  8
LAYER1
  6
CONTINUOUS
 10
238.00485095322631
 20
174.060087923959
 30
0.0
 40
2.5523651947850001
  0
CIRCLE
  5
1F84
  8
LAYER1
  6
CONTINUOUS
 10
238.00485095322631
 20
174.060087923959
 30
0.0
 40
2.5
  0
LINE
  5
1F85
  8
LAYER1
  6
CONTINUOUS
 10
243.55721614801121
 20
167.65236511874389
 30
0.0
 11
243.54848861554709
 21
167.14363758627911
 31
0.0
  0
LINE
  5
1F86
  8
LAYER1
  6
CONTINUOUS
 10
243.50485095322639
 20
167.09999992395899
 30
0.0
 11
243.54848861554709
 21
167.14363758628011
 31
0.0
  0
LINE
  5
1F87
  8
LAYER1
  6
CONTINUOUS
 10
243.55721614801121
 20
167.09999992395899
 30
0.0
 11
243.55721614801121
 21
167.65236511874389
 31
0.0
  0
LINE
  5
1F8C
  8
LAYER1
  6
CONTINUOUS
 10
375.90076892696652
 20
108.59999943101511
 30
0.0
 11
371.73904981807431
 21
88.600000924493202
 31
0.0
  0
LINE
  5
1F8D
  8
LAYER1
  6
CONTINUOUS
 10
364.53056754738282
 20
88.600000924493202
 30
0.0
 11
368.21719224430871
 21
105.63704844746989
 31
0.0
  0
LINE
  5
1F8E
  8
LAYER1
  6
CONTINUOUS
 10
375.74925619184472
 20
88.570476179881197
 30
0.0
 11
388.89824406674671
 21
106.494774025504
 31
0.0
  0
LINE
  5
1F8F
  8
LAYER1
  6
CONTINUOUS
 10
396.56301062985392
 20
108.5678555558321
 30
0.0
 11
400.43995881490162
 21
88.567936416903194
 31
0.0
  0
LINE
  5
1F90
  8
LAYER1
  6
CONTINUOUS
 10
406.20871294776271
 20
88.600000924493202
 30
0.0
 11
409.8953376446886
 21
105.63704844746989
 31
0.0
  0
LINE
  5
1F91
  8
LAYER1
  6
CONTINUOUS
 10
417.57891432734652
 20
108.59999943101511
 30
0.0
 11
413.41719521845448
 21
88.600000924493202
 31
0.0
  0
LINE
  5
1F93
  8
LAYER1
  6
CONTINUOUS
 10
349.55478056977182
 20
106.5999997406995
 30
0.0
 11
349.55478056977182
 21
90.599999740699559
 31
0.0
  0
LINE
  5
1F94
  8
LAYER2
  6
CONTINUOUS
 10
332.21661248289661
 20
161.35816801083419
 30
0.0
 11
332.21661248289661
 21
36.26183183708406
 31
0.0
  0
LINE
  5
1F95
  8
LAYER1
  6
CONTINUOUS
 10
357.55478056977267
 20
107.599999923959
 30
0.0
 11
357.55478056977267
 21
89.599999923959189
 31
0.0
  0
LINE
  5
1F96
  8
LAYER2
  6
CONTINUOUS
 10
352.65478056889981
 20
106.6999999239591
 30
0.0
 11
352.65478056889981
 21
90.499999923959194
 31
0.0
  0
LINE
  5
1F97
  8
LAYER2
  6
CONTINUOUS
 10
349.45478056889982
 20
106.6999999239591
 30
0.0
 11
349.45478056889982
 21
90.499999923959194
 31
0.0
  0
LINE
  5
1F98
  8
LAYER2
  6
CONTINUOUS
 10
332.55478056977182
 20
166.09999992395899
 30
0.0
 11
332.55478056977182
 21
31.099999923959221
 31
0.0
  0
LINE
  5
1F99
  8
LAYER2
  6
CONTINUOUS
 10
355.05478056889979
 20
157.67710747620211
 30
0.0
 11
355.05478056889979
 21
39.52289237167718
 31
0.0
  0
LINE
  5
1F9A
  8
LAYER1
  6
CONTINUOUS
 10
259.50485095322648
 20
28.896693235183129
 30
0.0
 11
259.50485095322648
 21
176.59999992395899
 31
0.0
  0
LINE
  5
1F9B
  8
LAYER1
  6
CONTINUOUS
 10
352.55478056977182
 20
106.599999923959
 30
0.0
 11
352.55478056977182
 21
90.599999923959217
 31
0.0
  0
LINE
  5
1F9C
  8
LAYER1
  6
CONTINUOUS
 10
441.55478056977182
 20
178.09999992395899
 30
0.0
 11
441.55478056977182
 21
19.099999923959199
 31
0.0
  0
LINE
  5
1F9D
  8
LAYER2
  6
CONTINUOUS
 10
254.50485095322631
 20
160.01999992395901
 30
0.0
 11
254.50485095322631
 21
37.599999923959182
 31
0.0
  0
LINE
  5
1F9E
  8
LAYER2
  6
CONTINUOUS
 10
255.5021539532263
 20
160.01999992395901
 30
0.0
 11
255.5021539532263
 21
37.599999923959182
 31
0.0
  0
LINE
  5
1F9F
  8
LAYER2
  6
CONTINUOUS
 10
259.50485095322648
 20
31.099999923959221
 30
0.0
 11
259.50485095322648
 21
166.09999992395899
 31
0.0
  0
LINE
  5
1FA0
  8
LAYER1
  6
CONTINUOUS
 10
413.41719521845448
 20
88.600000924493202
 30
0.0
 11
406.20871294776271
 21
88.600000924493202
 31
0.0
  0
LINE
  5
1FA1
  8
LAYER2
  6
CONTINUOUS
 10
408.05478056977188
 20
36.632379404263183
 30
0.0
 11
385.55478056977262
 21
37.025118365142092
 31
0.0
  0
LINE
  5
1FA2
  8
LAYER1
  6
CONTINUOUS
 10
385.55478056977182
 20
37.525118365154079
 30
0.0
 11
408.05478056977188
 21
37.13237940427009
 31
0.0
  0
LINE
  5
1FA3
  8
LAYER2
  6
CONTINUOUS
 10
332.55478056977182
 20
30.09999992395921
 30
0.0
 11
379.05478056977182
 21
30.09999992395921
 31
0.0
  0
ARC
  5
1FA4
  8
LAYER2
  6
CONTINUOUS
 10
253.5021539532263
 20
37.599999923959182
 30
0.0
 40
2.0
 50
270.0
 51
0.0
  0
ARC
  5
1FA5
  8
LAYER2
  6
CONTINUOUS
 10
258.50485095322631
 20
31.099999923959221
 30
0.0
 40
1.0
 50
270.0
 51
0.0
  0
CIRCLE
  5
1FA6
  8
LAYER3
 10
250.50485095322631
 20
63.919999923959281
 30
0.0
 40
1.0
  0
LINE
  5
1FA7
  8
LAYER4
  6
CONTINUOUS
 10
250.50485095322631
 20
52.399999923959193
 30
0.0
 11
250.50485095322631
 21
41.399999923959157
 31
0.0
  0
LINE
  5
1FA8
  8
LAYER4
  6
CONTINUOUS
 10
251.00485095322639
 20
52.899999923959193
 30
0.0
 11
251.00485095322639
 21
40.899999923959172
 31
0.0
  0
LINE
  5
1FA9
  8
LAYER4
  6
CONTINUOUS
 10
246.00485095322631
 20
40.899999923959172
 30
0.0
 11
246.00485095322631
 21
52.899999923959193
 31
0.0
  0
LINE
  5
1FAA
  8
0
  6
CONTINUOUS
 10
251.00485095322639
 20
39.919999923957683
 30
0.0
 11
251.00485095322639
 21
53.91999992395921
 31
0.0
  0
LINE
  5
1FAB
  8
LAYER4
  6
CONTINUOUS
 10
246.50485095322631
 20
41.399999923959157
 30
0.0
 11
246.50485095322631
 21
43.399999923959172
 31
0.0
  0
CIRCLE
  5
1FAC
  8
LAYER4
  6
CONTINUOUS
 10
249.50485095322639
 20
42.899999923959193
 30
0.0
 40
0.4
  0
CIRCLE
  5
1FAD
  8
LAYER4
  6
CONTINUOUS
 10
247.50485095322639
 20
42.899999923959193
 30
0.0
 40
0.4
  0
LINE
  5
1FAE
  8
LAYER4
  6
CONTINUOUS
 10
251.00485095322639
 20
40.899999923959172
 30
0.0
 11
246.00485095322631
 21
40.899999923959172
 31
0.0
  0
LINE
  5
1FAF
  8
LAYER4
  6
CONTINUOUS
 10
250.50485095322631
 20
41.399999923959157
 30
0.0
 11
246.50485095322631
 21
41.399999923959157
 31
0.0
  0
ARC
  5
1FB0
  8
LAYER2
  6
CONTINUOUS
 10
253.50485095322651
 20
37.599999923959182
 30
0.0
 40
1.0
 50
270.0
 51
0.0
  0
LINE
  5
1FB1
  8
LAYER4
  6
CONTINUOUS
 10
246.50485095322631
 20
44.399999923959172
 30
0.0
 11
246.50485095322631
 21
49.399999923959179
 31
0.0
  0
CIRCLE
  5
1FB2
  8
LAYER4
  6
CONTINUOUS
 10
249.50485095322639
 20
44.899999923959172
 30
0.0
 40
0.4
  0
LINE
  5
1FB3
  8
LAYER4
  6
CONTINUOUS
 10
246.50485095322631
 20
44.399999923959172
 30
0.0
 11
246.00485095322631
 21
44.399999923959172
 31
0.0
  0
CIRCLE
  5
1FB4
  8
LAYER4
  6
CONTINUOUS
 10
247.50485095322639
 20
46.899999923959172
 30
0.0
 40
0.4
  0
CIRCLE
  5
1FB5
  8
LAYER4
  6
CONTINUOUS
 10
247.50485095322639
 20
44.899999923959172
 30
0.0
 40
0.4
  0
CIRCLE
  5
1FB6
  8
LAYER4
  6
CONTINUOUS
 10
247.50485095322639
 20
48.899999923959172
 30
0.0
 40
0.4
  0
CIRCLE
  5
1FB7
  8
LAYER4
  6
CONTINUOUS
 10
249.50485095322639
 20
48.899999923959172
 30
0.0
 40
0.4
  0
LINE
  5
1FB8
  8
LAYER4
  6
CONTINUOUS
 10
246.50485095322631
 20
49.399999923959179
 30
0.0
 11
246.00485095322631
 21
49.399999923959179
 31
0.0
  0
LINE
  5
1FB9
  8
LAYER4
  6
CONTINUOUS
 10
246.50485095322631
 20
43.399999923959172
 30
0.0
 11
246.00485095322631
 21
43.399999923959172
 31
0.0
  0
CIRCLE
  5
1FBA
  8
LAYER4
  6
CONTINUOUS
 10
249.50485095322639
 20
46.899999923959172
 30
0.0
 40
0.4
  0
LINE
  5
1FBC
  8
LAYER4
  6
CONTINUOUS
 10
246.00485095322631
 20
52.899999923959193
 30
0.0
 11
251.00485095322639
 21
52.899999923959193
 31
0.0
  0
LINE
  5
1FBD
  8
LAYER4
  6
CONTINUOUS
 10
246.50485095322631
 20
50.399999923959193
 30
0.0
 11
246.50485095322631
 21
52.399999923959193
 31
0.0
  0
LINE
  5
1FBE
  8
LAYER4
  6
CONTINUOUS
 10
246.50485095322631
 20
52.399999923959193
 30
0.0
 11
250.50485095322631
 21
52.399999923959193
 31
0.0
  0
CIRCLE
  5
1FBF
  8
LAYER4
  6
CONTINUOUS
 10
247.50485095322639
 20
50.899999923959179
 30
0.0
 40
0.4
  0
LINE
  5
1FC0
  8
LAYER4
  6
CONTINUOUS
 10
246.50485095322631
 20
50.399999923959193
 30
0.0
 11
246.00485095322631
 21
50.399999923959193
 31
0.0
  0
CIRCLE
  5
1FC1
  8
LAYER4
  6
CONTINUOUS
 10
249.50485095322639
 20
50.899999923959179
 30
0.0
 40
0.4
  0
CIRCLE
  5
1FC2
  8
LAYER3
 10
250.50485095322631
 20
61.419999923959281
 30
0.0
 40
1.0
  0
CIRCLE
  5
1FC3
  8
LAYER3
 10
250.50485095322631
 20
58.919999923959281
 30
0.0
 40
1.0
  0
CIRCLE
  5
1FC5
  8
LAYER3
 10
250.50485095322631
 20
66.419999923959296
 30
0.0
 40
1.0
  0
CIRCLE
  5
1FC6
  8
LAYER3
 10
250.50485095322631
 20
68.919999923959296
 30
0.0
 40
1.0
  0
LINE
  5
205E
  8
LAYER2
  6
CONTINUOUS
 10
331.55478056977199
 20
35.599999923959317
 30
0.0
 11
331.55478056977182
 21
31.099999923959221
 31
0.0
  0
ARC
  5
205F
  8
LAYER2
  6
CONTINUOUS
 10
333.55478056977182
 20
31.099999923959221
 30
0.0
 40
1.0
 50
180.0
 51
270.0
  0
ARC
  5
2060
  8
LAYER2
  6
CONTINUOUS
 10
332.55478056977182
 20
31.099999923959221
 30
0.0
 40
1.0
 50
180.0
 51
270.0
  0
LINE
  5
2061
  8
LAYER1
  6
CONTINUOUS
 10
371.73904981807431
 20
88.600000924493202
 30
0.0
 11
364.53056754738282
 21
88.600000924493202
 31
0.0
  0
LINE
  5
2062
  8
LAYER2
  6
CONTINUOUS
 10
375.05478056977182
 20
37.208396546886171
 30
0.0
 11
357.01987575692681
 21
37.523196981365167
 31
0.0
  0
LINE
  5
2063
  8
LAYER1
  6
CONTINUOUS
 10
357.02860063110262
 20
38.023044688137091
 30
0.0
 11
375.05478056977182
 21
37.70839654690019
 31
0.0
  0
LINE
  5
2064
  8
LAYER1
  6
CONTINUOUS
 10
355.55478056977182
 20
89.599999923959103
 30
0.0
 11
355.55478056977182
 21
39.52289237167718
 31
0.0
  0
LINE
  5
2065
  8
LAYER2
  6
CONTINUOUS
 10
332.21661248289661
 20
36.26183183708406
 30
0.0
 11
331.55478056977182
 21
35.59999992395921
 31
0.0
  0
ARC
  5
2066
  8
LAYER2
  6
CONTINUOUS
 10
357.05478056980058
 20
39.52289237167718
 30
0.0
 40
2.0
 50
180.00000000001299
 51
269.00000000001103
  0
ARC
  5
2067
  8
LAYER1
  6
CONTINUOUS
 10
357.05478056980058
 20
39.52289237167718
 30
0.0
 40
1.5
 50
180.00000000001299
 51
269.00000000001103
  0
LINE
  5
2068
  8
LAYER2
  6
CONTINUOUS
 10
355.55478056977182
 20
60.765823040777292
 30
0.0
 11
355.05478056890018
 21
60.757095508297887
 31
0.0
  0
LINE
  5
2069
  8
LAYER1
  6
CONTINUOUS
 10
355.55478056977182
 20
59.599999923959189
 30
0.0
 11
355.05478056889979
 21
59.591272391479791
 31
0.0
  0
LINE
  5
206A
  8
LAYER2
  6
CONTINUOUS
 10
355.55478056977182
 20
72.434176807140801
 30
0.0
 11
355.05478056890018
 21
72.4429043396201
 31
0.0
  0
LINE
  5
206B
  8
LAYER1
  6
CONTINUOUS
 10
355.55478056977182
 20
73.599999923959203
 30
0.0
 11
355.05478056889979
 21
73.608727456438487
 31
0.0
  0
ARC
  5
206C
  8
LAYER2
  6
CONTINUOUS
 10
351.05478056889842
 20
90.499999923959194
 30
0.0
 40
1.6000000000000001
 50
180.0
 51
0.0
  0
ARC
  5
206D
  8
LAYER1
  6
CONTINUOUS
 10
351.05478056977182
 20
90.599999923959217
 30
0.0
 40
1.5
 50
179.99999699999901
 51
0.0000140000001062
  0
LINE
  5
206E
  8
LAYER1
  6
CONTINUOUS
 10
355.55478056977182
 20
89.599999923959189
 30
0.0
 11
357.55478056977267
 21
89.599999923959189
 31
0.0
  0
LINE
  5
206F
  8
LAYER2
  6
CONTINUOUS
 10
375.05478056977182
 20
35.774845923959198
 30
0.0
 11
385.55478056977262
 21
35.774845923959198
 31
0.0
  0
LINE
  5
2070
  8
LAYER1
  6
CONTINUOUS
 10
385.55478056977262
 20
35.774845923959198
 30
0.0
 11
375.05478056977182
 21
35.774845923959198
 31
0.0
  0
LINE
  5
2071
  8
LAYER1
  6
CONTINUOUS
 10
385.55478056977182
 20
40.274845923959191
 30
0.0
 11
375.05478056977182
 21
40.274845923959191
 31
0.0
  0
LINE
  5
2072
  8
LAYER2
  6
CONTINUOUS
 10
375.05478056977182
 20
35.774845923959198
 30
0.0
 11
375.05478056977182
 21
37.208396546886171
 31
0.0
  0
LINE
  5
2073
  8
LAYER1
  6
CONTINUOUS
 10
375.05478056977182
 20
35.774845923959198
 30
0.0
 11
375.05478056977182
 21
40.274845923959191
 31
0.0
  0
LINE
  5
2074
  8
LAYER2
  6
CONTINUOUS
 10
385.55478056977262
 20
35.774845923959198
 30
0.0
 11
385.55478056977262
 21
37.025118365142092
 31
0.0
  0
LINE
  5
2075
  8
LAYER1
  6
CONTINUOUS
 10
385.55478056977182
 20
35.774845923959198
 30
0.0
 11
385.55478056977182
 21
40.274845923959191
 31
0.0
  0
LINE
  5
2076
  8
LAYER1
  6
CONTINUOUS
 10
391.96762699256442
 20
93.608096045614204
 30
0.0
 11
384.35778280384591
 21
93.608096045614204
 31
0.0
  0
LINE
  5
2077
  8
LAYER1
  6
CONTINUOUS
 10
382.93440439018133
 20
88.570476179881197
 30
0.0
 11
375.74925619184472
 21
88.570476179881197
 31
0.0
  0
LINE
  5
2078
  8
LAYER1
  6
CONTINUOUS
 10
384.35778280384591
 20
93.608096045614204
 30
0.0
 11
382.49812073121558
 21
90.893089422741056
 31
0.0
  0
POLYLINE
  5
2079
  8
LAYER1
  6
CONTINUOUS
 66
     1
 10
0.0
 20
0.0
 30
0.0
  0
VERTEX
  5
2496
  8
LAYER1
  6
CONTINUOUS
 10
382.93440439018133
 20
88.570476179881197
 30
0.0
  0
VERTEX
  5
2497
  8
LAYER1
  6
CONTINUOUS
 10
382.91976478314649
 20
88.590316930746184
 30
0.0
  0
VERTEX
  5
2498
  8
LAYER1
  6
CONTINUOUS
 10
382.8861868515076
 20
88.612796190804175
 30
0.0
  0
VERTEX
  5
2499
  8
LAYER1
  6
CONTINUOUS
 10
382.81503677660783
 20
88.650779722615155
 30
0.0
  0
VERTEX
  5
249A
  8
LAYER1
  6
CONTINUOUS
 10
382.76614107392561
 20
88.686544246136194
 30
0.0
  0
VERTEX
  5
249B
  8
LAYER1
  6
CONTINUOUS
 10
382.75478011422962
 20
88.696678710785164
 30
0.0
  0
VERTEX
  5
249C
  8
LAYER1
  6
CONTINUOUS
 10
382.70476475974567
 20
88.748432668445204
 30
0.0
  0
VERTEX
  5
249D
  8
LAYER1
  6
CONTINUOUS
 10
382.65394966458109
 20
88.804018032707177
 30
0.0
  0
VERTEX
  5
249E
  8
LAYER1
  6
CONTINUOUS
 10
382.60446568660592
 20
88.861888583911195
 30
0.0
  0
VERTEX
  5
249F
  8
LAYER1
  6
CONTINUOUS
 10
382.55772347171762
 20
88.924434498429179
 30
0.0
  0
VERTEX
  5
24A0
  8
LAYER1
  6
CONTINUOUS
 10
382.51501690420048
 20
88.989601035558152
 30
0.0
  0
VERTEX
  5
24A1
  8
LAYER1
  6
CONTINUOUS
 10
382.47443782494241
 20
89.058843074092181
 30
0.0
  0
VERTEX
  5
24A2
  8
LAYER1
  6
CONTINUOUS
 10
382.43729575953762
 20
89.130023589927177
 30
0.0
  0
VERTEX
  5
24A3
  8
LAYER1
  6
CONTINUOUS
 10
382.40286795817138
 20
89.205015297924149
 30
0.0
  0
VERTEX
  5
24A4
  8
LAYER1
  6
CONTINUOUS
 10
382.37217959963158
 20
89.281609813561175
 30
0.0
  0
VERTEX
  5
24A5
  8
LAYER1
  6
CONTINUOUS
 10
382.34446957565882
 20
89.361604807249165
 30
0.0
  0
VERTEX
  5
24A6
  8
LAYER1
  6
CONTINUOUS
 10
382.32054577148972
 20
89.442813273004191
 30
0.0
  0
VERTEX
  5
24A7
  8
LAYER1
  6
CONTINUOUS
 10
382.29994893892052
 20
89.527018286882196
 30
0.0
  0
VERTEX
  5
24A8
  8
LAYER1
  6
CONTINUOUS
 10
382.2832716221244
 20
89.612087534796061
 30
0.0
  0
VERTEX
  5
24A9
  8
LAYER1
  6
CONTINUOUS
 10
382.27024306375188
 20
89.699735602671055
 30
0.0
  0
VERTEX
  5
24AA
  8
LAYER1
  6
CONTINUOUS
 10
382.26123449854759
 20
89.787886165482206
 30
0.0
  0
VERTEX
  5
24AB
  8
LAYER1
  6
CONTINUOUS
 10
382.25615954043269
 20
89.878198553820184
 30
0.0
  0
VERTEX
  5
24AC
  8
LAYER1
  6
CONTINUOUS
 10
382.25531174776751
 20
89.968662731604098
 30
0.0
  0
VERTEX
  5
24AD
  8
LAYER1
  6
CONTINUOUS
 10
382.25880785566841
 20
90.060923655415053
 30
0.0
  0
VERTEX
  5
24AE
  8
LAYER1
  6
CONTINUOUS
 10
382.2663807167969
 20
90.152870799704132
 30
0.0
  0
VERTEX
  5
24AF
  8
LAYER1
  6
CONTINUOUS
 10
382.27820346623162
 20
90.246153653077187
 30
0.0
  0
VERTEX
  5
24B0
  8
LAYER1
  6
CONTINUOUS
 10
382.29531875264462
 20
90.338963936325086
 30
0.0
  0
VERTEX
  5
24B1
  8
LAYER1
  6
CONTINUOUS
 10
382.31856705268461
 20
90.433172723578167
 30
0.0
  0
VERTEX
  5
24B2
  8
LAYER1
  6
CONTINUOUS
 10
382.3430032023237
 20
90.525395708010194
 30
0.0
  0
VERTEX
  5
24B3
  8
LAYER1
  6
CONTINUOUS
 10
382.36790696257168
 20
90.617238532989049
 30
0.0
  0
VERTEX
  5
24B4
  8
LAYER1
  6
CONTINUOUS
 10
382.39423757517471
 20
90.681241195164176
 30
0.0
  0
VERTEX
  5
24B5
  8
LAYER1
  6
CONTINUOUS
 10
382.41031141284373
 20
90.710619681301225
 30
0.0
  0
VERTEX
  5
24B6
  8
LAYER1
  6
CONTINUOUS
 10
382.47700629766388
 20
90.809185510508073
 30
0.0
  0
VERTEX
  5
24B7
  8
LAYER1
  6
CONTINUOUS
 10
382.49734563362881
 20
90.848676976804214
 30
0.0
  0
VERTEX
  5
24B8
  8
LAYER1
  6
CONTINUOUS
 10
382.50211328283871
 20
90.87513855261416
 30
0.0
  0
VERTEX
  5
24B9
  8
LAYER1
  6
CONTINUOUS
 10
382.49812073121558
 20
90.893089422741056
 30
0.0
  0
SEQEND
  5
24BA
  8
LAYER1
  6
CONTINUOUS
  0
LINE
  5
209F
  8
LAYER1
  6
CONTINUOUS
 10
400.43995881490162
 20
88.567936416903194
 30
0.0
 11
392.9508327352026
 21
88.567936416903194
 31
0.0
  0
LINE
  5
20A0
  8
LAYER1
  6
CONTINUOUS
 10
392.9508327352026
 20
88.567936416903194
 30
0.0
 11
391.96762699256442
 21
93.608096045614204
 31
0.0
  0
LINE
  5
20A1
  8
LAYER2
  6
CONTINUOUS
 10
438.55478056977159
 20
36.099999923958769
 30
0.0
 11
438.55478056977182
 21
30.09999992395921
 31
0.0
  0
LINE
  5
20A2
  8
LAYER1
  6
CONTINUOUS
 10
438.55478056977182
 20
36.599999923959281
 30
0.0
 11
438.55478056977182
 21
19.152357143271161
 31
0.0
  0
LINE
  5
20A3
  8
LAYER1
  6
CONTINUOUS
 10
441.55478056977182
 20
19.099999923959199
 30
0.0
 11
438.55523748430272
 21
19.152357143271161
 31
0.0
  0
LINE
  5
20A4
  8
LAYER2
  6
CONTINUOUS
 10
438.55478056977159
 20
36.099999923958769
 30
0.0
 11
418.55478056977182
 21
36.449101222519168
 31
0.0
  0
LINE
  5
20A5
  8
LAYER1
  6
CONTINUOUS
 10
418.55478056977182
 20
36.94910122252319
 30
0.0
 11
438.55478056977182
 21
36.599999923959281
 31
0.0
  0
LINE
  5
20A6
  8
LAYER2
  6
CONTINUOUS
 10
408.05478056977188
 20
35.774845923959198
 30
0.0
 11
418.55478056977182
 21
35.774845923959198
 31
0.0
  0
LINE
  5
20A7
  8
LAYER1
  6
CONTINUOUS
 10
418.55478056977182
 20
35.774845923959198
 30
0.0
 11
408.05478056977188
 21
35.774845923959198
 31
0.0
  0
LINE
  5
20A8
  8
LAYER1
  6
CONTINUOUS
 10
418.55478056977182
 20
40.274845923959191
 30
0.0
 11
408.05478056977188
 21
40.274845923959191
 31
0.0
  0
LINE
  5
20A9
  8
LAYER2
  6
CONTINUOUS
 10
408.05478056977188
 20
35.774845923959198
 30
0.0
 11
408.05478056977188
 21
36.632379404263183
 31
0.0
  0
LINE
  5
20AA
  8
LAYER1
  6
CONTINUOUS
 10
408.05478056977188
 20
40.274845923959191
 30
0.0
 11
408.05478056977188
 21
35.774845923959198
 31
0.0
  0
LINE
  5
20AB
  8
LAYER2
  6
CONTINUOUS
 10
418.55478056977182
 20
35.774845923959198
 30
0.0
 11
418.55478056977182
 21
36.449101222519168
 31
0.0
  0
LINE
  5
20AC
  8
LAYER1
  6
CONTINUOUS
 10
418.55478056977182
 20
35.774536923959218
 30
0.0
 11
418.55478056977182
 21
40.274845923959191
 31
0.0
  0
CIRCLE
  5
20AD
  8
LAYER1
  6
CONTINUOUS
 10
433.85478056977161
 20
40.399999923959193
 30
0.0
 40
1.04
  0
LINE
  5
20AE
  8
LAYER1
  6
DASHDOT
 10
431.95370987011171
 20
40.399999923959193
 30
0.0
 11
435.76182698287471
 21
40.399999923959193
 31
0.0
  0
LINE
  5
20AF
  8
LAYER1
  6
DASHDOT
 10
433.85478056977161
 20
42.256731207223183
 30
0.0
 11
433.85478056977161
 21
38.556188024199173
 31
0.0
  0
LINE
  5
20B0
  8
LAYER2
  6
CONTINUOUS
 10
438.55478056977182
 20
161.09999992395819
 30
0.0
 11
357.01987575689873
 21
159.676802866515
 31
0.0
  0
LINE
  5
20B1
  8
LAYER1
  6
CONTINUOUS
 10
357.02860063107482
 20
159.17695515977911
 30
0.0
 11
438.55478056977182
 21
160.5999999239591
 31
0.0
  0
LINE
  5
20B2
  8
LAYER2
  6
CONTINUOUS
 10
332.55478056977182
 20
167.09999992395899
 30
0.0
 11
438.55478056977182
 21
167.09999992395899
 31
0.0
  0
LINE
  5
20B3
  8
LAYER4
  6
CONTINUOUS
 10
327.4647805697719
 20
105.089999923959
 30
0.0
 11
321.40378056977193
 21
105.089999923959
 31
0.0
  0
LINE
  5
20B4
  8
LAYER4
  6
CONTINUOUS
 10
327.4647805697719
 20
100.2599999239591
 30
0.0
 11
317.46478056977179
 21
100.2599999239591
 31
0.0
  0
LINE
  5
20B5
  8
LAYER4
  6
CONTINUOUS
 10
327.4647805697719
 20
153.0699999239591
 30
0.0
 11
321.40378056977193
 21
153.0699999239591
 31
0.0
  0
LINE
  5
20B6
  8
LAYER4
  6
CONTINUOUS
 10
327.4647805697719
 20
157.899999923959
 30
0.0
 11
317.46478056977179
 21
157.899999923959
 31
0.0
  0
LINE
  5
20B7
  8
LAYER4
  6
CONTINUOUS
 10
251.00485095322639
 20
158.89999992395909
 30
0.0
 11
251.00485095322639
 21
148.89999992395909
 31
0.0
  0
LINE
  5
20B9
  8
LAYER4
  6
CONTINUOUS
 10
317.46478056977179
 20
156.21999992395911
 30
0.0
 11
320.28478056977178
 21
150.57399992395901
 31
0.0
  0
LINE
  5
20BA
  8
LAYER4
  6
CONTINUOUS
 10
321.40378056977193
 20
153.0699999239591
 30
0.0
 11
321.40378056977193
 21
150.57399992395901
 31
0.0
  0
LINE
  5
20BB
  8
LAYER4
  6
CONTINUOUS
 10
250.50485095322631
 20
150.89999992395909
 30
0.0
 11
250.50485095322631
 21
156.89999992395909
 31
0.0
  0
LINE
  5
20BC
  8
LAYER4
  6
CONTINUOUS
 10
249.80485095322641
 20
158.49999992395911
 30
0.0
 11
249.80485095322641
 21
149.29999992395901
 31
0.0
  0
LINE
  5
20BD
  8
LAYER4
  6
CONTINUOUS
 10
246.00485095322631
 20
104.449999923959
 30
0.0
 11
246.00485095322631
 21
124.349999923959
 31
0.0
  0
LINE
  5
20BE
  8
LAYER4
  6
CONTINUOUS
 10
251.00485095322639
 20
124.349999923959
 30
0.0
 11
251.00485095322639
 21
104.449999923959
 31
0.0
  0
LINE
  5
20BF
  8
LAYER4
  6
CONTINUOUS
 10
246.50485095322631
 20
121.8499999239591
 30
0.0
 11
246.50485095322631
 21
123.8499999239591
 31
0.0
  0
LINE
  5
20C0
  8
LAYER4
  6
CONTINUOUS
 10
250.50485095322631
 20
123.8499999239591
 30
0.0
 11
250.50485095322631
 21
104.8499999239591
 31
0.0
  0
LINE
  5
20C1
  8
0
  6
CONTINUOUS
 10
251.00485095322639
 20
103.4199999239584
 30
0.0
 11
251.00485095322639
 21
125.41999992396001
 31
0.0
  0
LINE
  5
20C2
  8
LAYER4
  6
CONTINUOUS
 10
249.25485095322651
 20
108.1499999239591
 30
0.0
 11
249.25485095322651
 21
108.649999923959
 31
0.0
  0
LINE
  5
20C3
  8
LAYER4
  6
CONTINUOUS
 10
249.75485095322639
 20
108.649999923959
 30
0.0
 11
249.75485095322639
 21
108.1499999239591
 31
0.0
  0
LINE
  5
20C4
  8
LAYER4
  6
CONTINUOUS
 10
247.25485095322651
 20
108.1499999239591
 30
0.0
 11
247.25485095322651
 21
108.649999923959
 31
0.0
  0
LINE
  5
20C5
  8
LAYER4
  6
CONTINUOUS
 10
247.75485095322639
 20
108.649999923959
 30
0.0
 11
247.75485095322639
 21
108.1499999239591
 31
0.0
  0
LINE
  5
20C6
  8
LAYER4
  6
CONTINUOUS
 10
246.50485095322631
 20
107.8499999239591
 30
0.0
 11
246.50485095322631
 21
120.8499999239591
 31
0.0
  0
LINE
  5
20D2
  8
LAYER4
  6
CONTINUOUS
 10
251.00485095322639
 20
104.449999923959
 30
0.0
 11
246.00485095322631
 21
104.449999923959
 31
0.0
  0
LINE
  5
20D3
  8
LAYER4
  6
CONTINUOUS
 10
249.75485095322639
 20
106.1499999239591
 30
0.0
 11
249.25485095322651
 21
106.1499999239591
 31
0.0
  0
LINE
  5
20D4
  8
LAYER4
  6
CONTINUOUS
 10
249.25485095322651
 20
106.1499999239591
 30
0.0
 11
249.25485095322651
 21
106.6499999239592
 31
0.0
  0
LINE
  5
20D5
  8
LAYER4
  6
CONTINUOUS
 10
249.25485095322651
 20
106.6499999239592
 30
0.0
 11
249.75485095322639
 21
106.6499999239592
 31
0.0
  0
LINE
  5
20D6
  8
LAYER4
  6
CONTINUOUS
 10
249.75485095322639
 20
106.6499999239592
 30
0.0
 11
249.75485095322639
 21
106.1499999239591
 31
0.0
  0
LINE
  5
20D7
  8
LAYER4
  6
CONTINUOUS
 10
249.5948509532264
 20
106.309947923959
 30
0.0
 11
249.41485095322631
 21
106.309947923959
 31
0.0
  0
LINE
  5
20D8
  8
LAYER4
  6
CONTINUOUS
 10
249.41485095322631
 20
106.309947923959
 30
0.0
 11
249.41485095322631
 21
106.48994792395921
 31
0.0
  0
LINE
  5
20D9
  8
LAYER4
  6
CONTINUOUS
 10
249.41485095322631
 20
106.48994792395921
 30
0.0
 11
249.5948509532264
 21
106.48994792395921
 31
0.0
  0
LINE
  5
20DA
  8
LAYER4
  6
CONTINUOUS
 10
249.5948509532264
 20
106.48994792395921
 30
0.0
 11
249.5948509532264
 21
106.309947923959
 31
0.0
  0
LINE
  5
20DB
  8
LAYER4
  6
CONTINUOUS
 10
247.75485095322639
 20
106.1499999239591
 30
0.0
 11
247.25485095322651
 21
106.1499999239591
 31
0.0
  0
LINE
  5
20DC
  8
LAYER4
  6
CONTINUOUS
 10
247.25485095322651
 20
106.1499999239591
 30
0.0
 11
247.25485095322651
 21
106.6499999239592
 31
0.0
  0
LINE
  5
20DD
  8
LAYER4
  6
CONTINUOUS
 10
247.25485095322651
 20
106.6499999239592
 30
0.0
 11
247.75485095322639
 21
106.6499999239592
 31
0.0
  0
LINE
  5
20DE
  8
LAYER4
  6
CONTINUOUS
 10
247.75485095322639
 20
106.6499999239592
 30
0.0
 11
247.75485095322639
 21
106.1499999239591
 31
0.0
  0
LINE
  5
20DF
  8
LAYER4
  6
CONTINUOUS
 10
247.5948509532264
 20
106.309947923959
 30
0.0
 11
247.41485095322631
 21
106.309947923959
 31
0.0
  0
LINE
  5
20E0
  8
LAYER4
  6
CONTINUOUS
 10
247.41485095322631
 20
106.309947923959
 30
0.0
 11
247.41485095322631
 21
106.48994792395921
 31
0.0
  0
LINE
  5
20E1
  8
LAYER4
  6
CONTINUOUS
 10
247.41485095322631
 20
106.48994792395921
 30
0.0
 11
247.5948509532264
 21
106.48994792395921
 31
0.0
  0
LINE
  5
20E2
  8
LAYER4
  6
CONTINUOUS
 10
247.5948509532264
 20
106.48994792395921
 30
0.0
 11
247.5948509532264
 21
106.309947923959
 31
0.0
  0
LINE
  5
20E3
  8
LAYER4
  6
CONTINUOUS
 10
249.75485095322639
 20
108.1499999239591
 30
0.0
 11
249.25485095322651
 21
108.1499999239591
 31
0.0
  0
LINE
  5
20E4
  8
LAYER4
  6
CONTINUOUS
 10
247.75485095322639
 20
108.1499999239591
 30
0.0
 11
247.25485095322651
 21
108.1499999239591
 31
0.0
  0
LINE
  5
20E5
  8
LAYER4
  6
CONTINUOUS
 10
250.50485095322631
 20
104.8499999239591
 30
0.0
 11
246.50485095322631
 21
104.8499999239591
 31
0.0
  0
LINE
  5
20E6
  8
LAYER4
  6
CONTINUOUS
 10
246.50485095322631
 20
104.8499999239591
 30
0.0
 11
246.50485095322631
 21
106.8499999239591
 31
0.0
  0
LINE
  5
20E7
  8
LAYER4
  6
CONTINUOUS
 10
246.50485095322631
 20
107.8499999239591
 30
0.0
 11
246.00485095322631
 21
107.8499999239591
 31
0.0
  0
LINE
  5
20E8
  8
LAYER4
  6
CONTINUOUS
 10
246.50485095322631
 20
106.8499999239591
 30
0.0
 11
246.00485095322631
 21
106.8499999239591
 31
0.0
  0
LINE
  5
20E9
  8
LAYER4
  6
CONTINUOUS
 10
249.75485095322639
 20
114.1499999239591
 30
0.0
 11
249.25485095322651
 21
114.1499999239591
 31
0.0
  0
LINE
  5
20EA
  8
LAYER4
  6
CONTINUOUS
 10
249.25485095322651
 20
114.1499999239591
 30
0.0
 11
249.25485095322651
 21
114.6499999239591
 31
0.0
  0
LINE
  5
20EB
  8
LAYER4
  6
CONTINUOUS
 10
249.25485095322651
 20
114.6499999239591
 30
0.0
 11
249.75485095322639
 21
114.6499999239591
 31
0.0
  0
LINE
  5
20EC
  8
LAYER4
  6
CONTINUOUS
 10
249.75485095322639
 20
114.6499999239591
 30
0.0
 11
249.75485095322639
 21
114.1499999239591
 31
0.0
  0
LINE
  5
20ED
  8
LAYER4
  6
CONTINUOUS
 10
249.5948509532264
 20
114.309947923959
 30
0.0
 11
249.41485095322631
 21
114.309947923959
 31
0.0
  0
LINE
  5
20EE
  8
LAYER4
  6
CONTINUOUS
 10
249.41485095322631
 20
114.309947923959
 30
0.0
 11
249.41485095322631
 21
114.48994792395899
 31
0.0
  0
LINE
  5
20EF
  8
LAYER4
  6
CONTINUOUS
 10
249.41485095322631
 20
114.48994792395899
 30
0.0
 11
249.5948509532264
 21
114.48994792395899
 31
0.0
  0
LINE
  5
20F0
  8
LAYER4
  6
CONTINUOUS
 10
249.5948509532264
 20
114.48994792395899
 30
0.0
 11
249.5948509532264
 21
114.309947923959
 31
0.0
  0
LINE
  5
20F1
  8
LAYER4
  6
CONTINUOUS
 10
249.75485095322639
 20
112.1499999239591
 30
0.0
 11
249.25485095322651
 21
112.1499999239591
 31
0.0
  0
LINE
  5
20F2
  8
LAYER4
  6
CONTINUOUS
 10
249.25485095322651
 20
112.1499999239591
 30
0.0
 11
249.25485095322651
 21
112.649999923959
 31
0.0
  0
LINE
  5
20F3
  8
LAYER4
  6
CONTINUOUS
 10
249.25485095322651
 20
112.649999923959
 30
0.0
 11
249.75485095322639
 21
112.649999923959
 31
0.0
  0
LINE
  5
20F4
  8
LAYER4
  6
CONTINUOUS
 10
249.75485095322639
 20
112.649999923959
 30
0.0
 11
249.75485095322639
 21
112.1499999239591
 31
0.0
  0
LINE
  5
20F5
  8
LAYER4
  6
CONTINUOUS
 10
249.5948509532264
 20
112.309947923959
 30
0.0
 11
249.41485095322631
 21
112.309947923959
 31
0.0
  0
LINE
  5
20F6
  8
LAYER4
  6
CONTINUOUS
 10
249.41485095322631
 20
112.309947923959
 30
0.0
 11
249.41485095322631
 21
112.48994792395899
 31
0.0
  0
LINE
  5
20F7
  8
LAYER4
  6
CONTINUOUS
 10
249.41485095322631
 20
112.48994792395899
 30
0.0
 11
249.5948509532264
 21
112.48994792395899
 31
0.0
  0
LINE
  5
20F8
  8
LAYER4
  6
CONTINUOUS
 10
249.5948509532264
 20
112.48994792395899
 30
0.0
 11
249.5948509532264
 21
112.309947923959
 31
0.0
  0
LINE
  5
20F9
  8
LAYER4
  6
CONTINUOUS
 10
247.5948509532264
 20
112.309947923959
 30
0.0
 11
247.41485095322631
 21
112.309947923959
 31
0.0
  0
LINE
  5
20FA
  8
LAYER4
  6
CONTINUOUS
 10
247.41485095322631
 20
112.309947923959
 30
0.0
 11
247.41485095322631
 21
112.48994792395899
 31
0.0
  0
LINE
  5
20FB
  8
LAYER4
  6
CONTINUOUS
 10
247.41485095322631
 20
112.48994792395899
 30
0.0
 11
247.5948509532264
 21
112.48994792395899
 31
0.0
  0
LINE
  5
20FC
  8
LAYER4
  6
CONTINUOUS
 10
247.5948509532264
 20
112.48994792395899
 30
0.0
 11
247.5948509532264
 21
112.309947923959
 31
0.0
  0
LINE
  5
20FD
  8
LAYER4
  6
CONTINUOUS
 10
247.75485095322639
 20
112.1499999239591
 30
0.0
 11
247.25485095322651
 21
112.1499999239591
 31
0.0
  0
LINE
  5
20FE
  8
LAYER4
  6
CONTINUOUS
 10
247.25485095322651
 20
112.1499999239591
 30
0.0
 11
247.25485095322651
 21
112.649999923959
 31
0.0
  0
LINE
  5
20FF
  8
LAYER4
  6
CONTINUOUS
 10
247.25485095322651
 20
112.649999923959
 30
0.0
 11
247.75485095322639
 21
112.649999923959
 31
0.0
  0
LINE
  5
2100
  8
LAYER4
  6
CONTINUOUS
 10
247.75485095322639
 20
112.649999923959
 30
0.0
 11
247.75485095322639
 21
112.1499999239591
 31
0.0
  0
LINE
  5
2101
  8
LAYER4
  6
CONTINUOUS
 10
247.5948509532264
 20
110.309947923959
 30
0.0
 11
247.41485095322631
 21
110.309947923959
 31
0.0
  0
LINE
  5
2102
  8
LAYER4
  6
CONTINUOUS
 10
247.41485095322631
 20
110.309947923959
 30
0.0
 11
247.41485095322631
 21
110.48994792395899
 31
0.0
  0
LINE
  5
2103
  8
LAYER4
  6
CONTINUOUS
 10
247.41485095322631
 20
110.48994792395899
 30
0.0
 11
247.5948509532264
 21
110.48994792395899
 31
0.0
  0
LINE
  5
2104
  8
LAYER4
  6
CONTINUOUS
 10
247.5948509532264
 20
110.48994792395899
 30
0.0
 11
247.5948509532264
 21
110.309947923959
 31
0.0
  0
LINE
  5
2105
  8
LAYER4
  6
CONTINUOUS
 10
247.75485095322639
 20
110.1499999239591
 30
0.0
 11
247.25485095322651
 21
110.1499999239591
 31
0.0
  0
LINE
  5
2106
  8
LAYER4
  6
CONTINUOUS
 10
247.25485095322651
 20
110.1499999239591
 30
0.0
 11
247.25485095322651
 21
110.649999923959
 31
0.0
  0
LINE
  5
2107
  8
LAYER4
  6
CONTINUOUS
 10
247.25485095322651
 20
110.649999923959
 30
0.0
 11
247.75485095322639
 21
110.649999923959
 31
0.0
  0
LINE
  5
2108
  8
LAYER4
  6
CONTINUOUS
 10
247.75485095322639
 20
110.649999923959
 30
0.0
 11
247.75485095322639
 21
110.1499999239591
 31
0.0
  0
LINE
  5
2109
  8
LAYER4
  6
CONTINUOUS
 10
247.75485095322639
 20
114.1499999239591
 30
0.0
 11
247.25485095322651
 21
114.1499999239591
 31
0.0
  0
LINE
  5
210A
  8
LAYER4
  6
CONTINUOUS
 10
247.25485095322651
 20
114.1499999239591
 30
0.0
 11
247.25485095322651
 21
114.6499999239591
 31
0.0
  0
LINE
  5
210B
  8
LAYER4
  6
CONTINUOUS
 10
247.25485095322651
 20
114.6499999239591
 30
0.0
 11
247.75485095322639
 21
114.6499999239591
 31
0.0
  0
LINE
  5
210C
  8
LAYER4
  6
CONTINUOUS
 10
247.75485095322639
 20
114.6499999239591
 30
0.0
 11
247.75485095322639
 21
114.1499999239591
 31
0.0
  0
LINE
  5
210D
  8
LAYER4
  6
CONTINUOUS
 10
247.5948509532264
 20
114.309947923959
 30
0.0
 11
247.41485095322631
 21
114.309947923959
 31
0.0
  0
LINE
  5
210E
  8
LAYER4
  6
CONTINUOUS
 10
247.41485095322631
 20
114.309947923959
 30
0.0
 11
247.41485095322631
 21
114.48994792395899
 31
0.0
  0
LINE
  5
210F
  8
LAYER4
  6
CONTINUOUS
 10
247.41485095322631
 20
114.48994792395899
 30
0.0
 11
247.5948509532264
 21
114.48994792395899
 31
0.0
  0
LINE
  5
2110
  8
LAYER4
  6
CONTINUOUS
 10
247.5948509532264
 20
114.48994792395899
 30
0.0
 11
247.5948509532264
 21
114.309947923959
 31
0.0
  0
LINE
  5
2111
  8
LAYER4
  6
CONTINUOUS
 10
249.5948509532264
 20
110.309947923959
 30
0.0
 11
249.41485095322631
 21
110.309947923959
 31
0.0
  0
LINE
  5
2112
  8
LAYER4
  6
CONTINUOUS
 10
249.41485095322631
 20
110.309947923959
 30
0.0
 11
249.41485095322631
 21
110.48994792395899
 31
0.0
  0
LINE
  5
2113
  8
LAYER4
  6
CONTINUOUS
 10
249.41485095322631
 20
110.48994792395899
 30
0.0
 11
249.5948509532264
 21
110.48994792395899
 31
0.0
  0
LINE
  5
2114
  8
LAYER4
  6
CONTINUOUS
 10
249.5948509532264
 20
110.48994792395899
 30
0.0
 11
249.5948509532264
 21
110.309947923959
 31
0.0
  0
LINE
  5
2115
  8
LAYER4
  6
CONTINUOUS
 10
249.75485095322639
 20
110.1499999239591
 30
0.0
 11
249.25485095322651
 21
110.1499999239591
 31
0.0
  0
LINE
  5
2116
  8
LAYER4
  6
CONTINUOUS
 10
249.25485095322651
 20
110.1499999239591
 30
0.0
 11
249.25485095322651
 21
110.649999923959
 31
0.0
  0
LINE
  5
2117
  8
LAYER4
  6
CONTINUOUS
 10
249.25485095322651
 20
110.649999923959
 30
0.0
 11
249.75485095322639
 21
110.649999923959
 31
0.0
  0
LINE
  5
2118
  8
LAYER4
  6
CONTINUOUS
 10
249.75485095322639
 20
110.649999923959
 30
0.0
 11
249.75485095322639
 21
110.1499999239591
 31
0.0
  0
LINE
  5
2119
  8
LAYER4
  6
CONTINUOUS
 10
249.25485095322651
 20
108.649999923959
 30
0.0
 11
249.75485095322639
 21
108.649999923959
 31
0.0
  0
LINE
  5
211A
  8
LAYER4
  6
CONTINUOUS
 10
249.5948509532264
 20
108.309947923959
 30
0.0
 11
249.41485095322631
 21
108.309947923959
 31
0.0
  0
LINE
  5
211B
  8
LAYER4
  6
CONTINUOUS
 10
249.41485095322631
 20
108.309947923959
 30
0.0
 11
249.41485095322631
 21
108.48994792395899
 31
0.0
  0
LINE
  5
211C
  8
LAYER4
  6
CONTINUOUS
 10
249.41485095322631
 20
108.48994792395899
 30
0.0
 11
249.5948509532264
 21
108.48994792395899
 31
0.0
  0
LINE
  5
211D
  8
LAYER4
  6
CONTINUOUS
 10
249.5948509532264
 20
108.48994792395899
 30
0.0
 11
249.5948509532264
 21
108.309947923959
 31
0.0
  0
LINE
  5
211E
  8
LAYER4
  6
CONTINUOUS
 10
247.25485095322651
 20
108.649999923959
 30
0.0
 11
247.75485095322639
 21
108.649999923959
 31
0.0
  0
LINE
  5
211F
  8
LAYER4
  6
CONTINUOUS
 10
247.5948509532264
 20
108.309947923959
 30
0.0
 11
247.41485095322631
 21
108.309947923959
 31
0.0
  0
LINE
  5
2120
  8
LAYER4
  6
CONTINUOUS
 10
247.41485095322631
 20
108.309947923959
 30
0.0
 11
247.41485095322631
 21
108.48994792395899
 31
0.0
  0
LINE
  5
2121
  8
LAYER4
  6
CONTINUOUS
 10
247.41485095322631
 20
108.48994792395899
 30
0.0
 11
247.5948509532264
 21
108.48994792395899
 31
0.0
  0
LINE
  5
2122
  8
LAYER4
  6
CONTINUOUS
 10
247.5948509532264
 20
108.48994792395899
 30
0.0
 11
247.5948509532264
 21
108.309947923959
 31
0.0
  0
LINE
  5
2123
  8
LAYER4
  6
CONTINUOUS
 10
249.5948509532264
 20
118.3099479239591
 30
0.0
 11
249.41485095322631
 21
118.3099479239591
 31
0.0
  0
LINE
  5
2124
  8
LAYER4
  6
CONTINUOUS
 10
249.41485095322631
 20
118.3099479239591
 30
0.0
 11
249.41485095322631
 21
118.48994792395899
 31
0.0
  0
LINE
  5
2125
  8
LAYER4
  6
CONTINUOUS
 10
249.41485095322631
 20
118.48994792395899
 30
0.0
 11
249.5948509532264
 21
118.48994792395899
 31
0.0
  0
LINE
  5
2126
  8
LAYER4
  6
CONTINUOUS
 10
249.5948509532264
 20
118.48994792395899
 30
0.0
 11
249.5948509532264
 21
118.3099479239591
 31
0.0
  0
LINE
  5
2127
  8
LAYER4
  6
CONTINUOUS
 10
247.75485095322639
 20
118.149999923959
 30
0.0
 11
247.25485095322651
 21
118.149999923959
 31
0.0
  0
LINE
  5
2128
  8
LAYER4
  6
CONTINUOUS
 10
247.25485095322651
 20
118.149999923959
 30
0.0
 11
247.25485095322651
 21
118.6499999239591
 31
0.0
  0
LINE
  5
2129
  8
LAYER4
  6
CONTINUOUS
 10
247.25485095322651
 20
118.6499999239591
 30
0.0
 11
247.75485095322639
 21
118.6499999239591
 31
0.0
  0
LINE
  5
212A
  8
LAYER4
  6
CONTINUOUS
 10
247.75485095322639
 20
118.6499999239591
 30
0.0
 11
247.75485095322639
 21
118.149999923959
 31
0.0
  0
LINE
  5
212B
  8
LAYER4
  6
CONTINUOUS
 10
247.5948509532264
 20
118.3099479239591
 30
0.0
 11
247.41485095322631
 21
118.3099479239591
 31
0.0
  0
LINE
  5
212C
  8
LAYER4
  6
CONTINUOUS
 10
247.41485095322631
 20
118.3099479239591
 30
0.0
 11
247.41485095322631
 21
118.48994792395899
 31
0.0
  0
LINE
  5
212D
  8
LAYER4
  6
CONTINUOUS
 10
247.41485095322631
 20
118.48994792395899
 30
0.0
 11
247.5948509532264
 21
118.48994792395899
 31
0.0
  0
LINE
  5
212E
  8
LAYER4
  6
CONTINUOUS
 10
247.5948509532264
 20
118.48994792395899
 30
0.0
 11
247.5948509532264
 21
118.3099479239591
 31
0.0
  0
LINE
  5
212F
  8
LAYER4
  6
CONTINUOUS
 10
247.5948509532264
 20
122.3099479239591
 30
0.0
 11
247.41485095322631
 21
122.3099479239591
 31
0.0
  0
LINE
  5
2130
  8
LAYER4
  6
CONTINUOUS
 10
247.41485095322631
 20
122.3099479239591
 30
0.0
 11
247.41485095322631
 21
122.48994792395899
 31
0.0
  0
LINE
  5
2131
  8
LAYER4
  6
CONTINUOUS
 10
247.41485095322631
 20
122.48994792395899
 30
0.0
 11
247.5948509532264
 21
122.48994792395899
 31
0.0
  0
LINE
  5
2132
  8
LAYER4
  6
CONTINUOUS
 10
247.5948509532264
 20
122.48994792395899
 30
0.0
 11
247.5948509532264
 21
122.3099479239591
 31
0.0
  0
LINE
  5
2133
  8
LAYER4
  6
CONTINUOUS
 10
249.75485095322639
 20
122.149999923959
 30
0.0
 11
249.25485095322651
 21
122.149999923959
 31
0.0
  0
LINE
  5
2134
  8
LAYER4
  6
CONTINUOUS
 10
249.25485095322651
 20
122.149999923959
 30
0.0
 11
249.25485095322651
 21
122.6499999239591
 31
0.0
  0
LINE
  5
2135
  8
LAYER4
  6
CONTINUOUS
 10
249.25485095322651
 20
122.6499999239591
 30
0.0
 11
249.75485095322639
 21
122.6499999239591
 31
0.0
  0
LINE
  5
2136
  8
LAYER4
  6
CONTINUOUS
 10
249.75485095322639
 20
122.6499999239591
 30
0.0
 11
249.75485095322639
 21
122.149999923959
 31
0.0
  0
LINE
  5
2137
  8
LAYER4
  6
CONTINUOUS
 10
249.5948509532264
 20
122.3099479239591
 30
0.0
 11
249.41485095322631
 21
122.3099479239591
 31
0.0
  0
LINE
  5
2138
  8
LAYER4
  6
CONTINUOUS
 10
249.41485095322631
 20
122.3099479239591
 30
0.0
 11
249.41485095322631
 21
122.48994792395899
 31
0.0
  0
LINE
  5
2139
  8
LAYER4
  6
CONTINUOUS
 10
249.41485095322631
 20
122.48994792395899
 30
0.0
 11
249.5948509532264
 21
122.48994792395899
 31
0.0
  0
LINE
  5
213A
  8
LAYER4
  6
CONTINUOUS
 10
249.5948509532264
 20
122.48994792395899
 30
0.0
 11
249.5948509532264
 21
122.3099479239591
 31
0.0
  0
LINE
  5
213B
  8
LAYER4
  6
CONTINUOUS
 10
247.75485095322639
 20
122.149999923959
 30
0.0
 11
247.25485095322651
 21
122.149999923959
 31
0.0
  0
LINE
  5
213C
  8
LAYER4
  6
CONTINUOUS
 10
247.25485095322651
 20
122.149999923959
 30
0.0
 11
247.25485095322651
 21
122.6499999239591
 31
0.0
  0
LINE
  5
213D
  8
LAYER4
  6
CONTINUOUS
 10
247.25485095322651
 20
122.6499999239591
 30
0.0
 11
247.75485095322639
 21
122.6499999239591
 31
0.0
  0
LINE
  5
213E
  8
LAYER4
  6
CONTINUOUS
 10
247.75485095322639
 20
122.6499999239591
 30
0.0
 11
247.75485095322639
 21
122.149999923959
 31
0.0
  0
LINE
  5
213F
  8
LAYER4
  6
CONTINUOUS
 10
249.75485095322639
 20
118.149999923959
 30
0.0
 11
249.25485095322651
 21
118.149999923959
 31
0.0
  0
LINE
  5
2140
  8
LAYER4
  6
CONTINUOUS
 10
249.25485095322651
 20
118.149999923959
 30
0.0
 11
249.25485095322651
 21
118.6499999239591
 31
0.0
  0
LINE
  5
2141
  8
LAYER4
  6
CONTINUOUS
 10
249.25485095322651
 20
118.6499999239591
 30
0.0
 11
249.75485095322639
 21
118.6499999239591
 31
0.0
  0
LINE
  5
2142
  8
LAYER4
  6
CONTINUOUS
 10
249.75485095322639
 20
118.6499999239591
 30
0.0
 11
249.75485095322639
 21
118.149999923959
 31
0.0
  0
LINE
  5
2143
  8
LAYER4
  6
CONTINUOUS
 10
247.75485095322639
 20
120.149999923959
 30
0.0
 11
247.25485095322651
 21
120.149999923959
 31
0.0
  0
LINE
  5
2144
  8
LAYER4
  6
CONTINUOUS
 10
247.25485095322651
 20
120.149999923959
 30
0.0
 11
247.25485095322651
 21
120.6499999239591
 31
0.0
  0
LINE
  5
2145
  8
LAYER4
  6
CONTINUOUS
 10
247.25485095322651
 20
120.6499999239591
 30
0.0
 11
247.75485095322639
 21
120.6499999239591
 31
0.0
  0
LINE
  5
2146
  8
LAYER4
  6
CONTINUOUS
 10
247.75485095322639
 20
120.6499999239591
 30
0.0
 11
247.75485095322639
 21
120.149999923959
 31
0.0
  0
LINE
  5
2147
  8
LAYER4
  6
CONTINUOUS
 10
247.5948509532264
 20
120.3099479239591
 30
0.0
 11
247.41485095322631
 21
120.3099479239591
 31
0.0
  0
LINE
  5
2148
  8
LAYER4
  6
CONTINUOUS
 10
247.41485095322631
 20
120.3099479239591
 30
0.0
 11
247.41485095322631
 21
120.48994792395899
 31
0.0
  0
LINE
  5
2149
  8
LAYER4
  6
CONTINUOUS
 10
247.41485095322631
 20
120.48994792395899
 30
0.0
 11
247.5948509532264
 21
120.48994792395899
 31
0.0
  0
LINE
  5
214A
  8
LAYER4
  6
CONTINUOUS
 10
247.5948509532264
 20
120.48994792395899
 30
0.0
 11
247.5948509532264
 21
120.3099479239591
 31
0.0
  0
LINE
  5
214B
  8
LAYER4
  6
CONTINUOUS
 10
249.5948509532264
 20
120.3099479239591
 30
0.0
 11
249.41485095322631
 21
120.3099479239591
 31
0.0
  0
LINE
  5
214C
  8
LAYER4
  6
CONTINUOUS
 10
249.41485095322631
 20
120.3099479239591
 30
0.0
 11
249.41485095322631
 21
120.48994792395899
 31
0.0
  0
LINE
  5
214D
  8
LAYER4
  6
CONTINUOUS
 10
249.41485095322631
 20
120.48994792395899
 30
0.0
 11
249.5948509532264
 21
120.48994792395899
 31
0.0
  0
LINE
  5
214E
  8
LAYER4
  6
CONTINUOUS
 10
249.5948509532264
 20
120.48994792395899
 30
0.0
 11
249.5948509532264
 21
120.3099479239591
 31
0.0
  0
LINE
  5
214F
  8
LAYER4
  6
CONTINUOUS
 10
249.75485095322639
 20
120.149999923959
 30
0.0
 11
249.25485095322651
 21
120.149999923959
 31
0.0
  0
LINE
  5
2150
  8
LAYER4
  6
CONTINUOUS
 10
249.25485095322651
 20
120.149999923959
 30
0.0
 11
249.25485095322651
 21
120.6499999239591
 31
0.0
  0
LINE
  5
2151
  8
LAYER4
  6
CONTINUOUS
 10
249.25485095322651
 20
120.6499999239591
 30
0.0
 11
249.75485095322639
 21
120.6499999239591
 31
0.0
  0
LINE
  5
2152
  8
LAYER4
  6
CONTINUOUS
 10
249.75485095322639
 20
120.6499999239591
 30
0.0
 11
249.75485095322639
 21
120.149999923959
 31
0.0
  0
LINE
  5
2153
  8
LAYER4
  6
CONTINUOUS
 10
249.75485095322639
 20
116.1499999239591
 30
0.0
 11
249.25485095322651
 21
116.1499999239591
 31
0.0
  0
LINE
  5
2154
  8
LAYER4
  6
CONTINUOUS
 10
249.25485095322651
 20
116.1499999239591
 30
0.0
 11
249.25485095322651
 21
116.6499999239591
 31
0.0
  0
LINE
  5
2155
  8
LAYER4
  6
CONTINUOUS
 10
249.25485095322651
 20
116.6499999239591
 30
0.0
 11
249.75485095322639
 21
116.6499999239591
 31
0.0
  0
LINE
  5
2156
  8
LAYER4
  6
CONTINUOUS
 10
249.75485095322639
 20
116.6499999239591
 30
0.0
 11
249.75485095322639
 21
116.1499999239591
 31
0.0
  0
LINE
  5
2157
  8
LAYER4
  6
CONTINUOUS
 10
249.5948509532264
 20
116.3099479239591
 30
0.0
 11
249.41485095322631
 21
116.3099479239591
 31
0.0
  0
LINE
  5
2158
  8
LAYER4
  6
CONTINUOUS
 10
249.41485095322631
 20
116.3099479239591
 30
0.0
 11
249.41485095322631
 21
116.48994792395899
 31
0.0
  0
LINE
  5
2159
  8
LAYER4
  6
CONTINUOUS
 10
249.41485095322631
 20
116.48994792395899
 30
0.0
 11
249.5948509532264
 21
116.48994792395899
 31
0.0
  0
LINE
  5
215A
  8
LAYER4
  6
CONTINUOUS
 10
249.5948509532264
 20
116.48994792395899
 30
0.0
 11
249.5948509532264
 21
116.3099479239591
 31
0.0
  0
LINE
  5
215B
  8
LAYER4
  6
CONTINUOUS
 10
247.75485095322639
 20
116.1499999239591
 30
0.0
 11
247.25485095322651
 21
116.1499999239591
 31
0.0
  0
LINE
  5
215C
  8
LAYER4
  6
CONTINUOUS
 10
247.25485095322651
 20
116.1499999239591
 30
0.0
 11
247.25485095322651
 21
116.6499999239591
 31
0.0
  0
LINE
  5
215D
  8
LAYER4
  6
CONTINUOUS
 10
247.25485095322651
 20
116.6499999239591
 30
0.0
 11
247.75485095322639
 21
116.6499999239591
 31
0.0
  0
LINE
  5
215E
  8
LAYER4
  6
CONTINUOUS
 10
247.75485095322639
 20
116.6499999239591
 30
0.0
 11
247.75485095322639
 21
116.1499999239591
 31
0.0
  0
LINE
  5
215F
  8
LAYER4
  6
CONTINUOUS
 10
247.5948509532264
 20
116.3099479239591
 30
0.0
 11
247.41485095322631
 21
116.3099479239591
 31
0.0
  0
LINE
  5
2160
  8
LAYER4
  6
CONTINUOUS
 10
247.41485095322631
 20
116.3099479239591
 30
0.0
 11
247.41485095322631
 21
116.48994792395899
 31
0.0
  0
LINE
  5
2161
  8
LAYER4
  6
CONTINUOUS
 10
247.41485095322631
 20
116.48994792395899
 30
0.0
 11
247.5948509532264
 21
116.48994792395899
 31
0.0
  0
LINE
  5
2162
  8
LAYER4
  6
CONTINUOUS
 10
247.5948509532264
 20
116.48994792395899
 30
0.0
 11
247.5948509532264
 21
116.3099479239591
 31
0.0
  0
LINE
  5
2163
  8
LAYER4
  6
CONTINUOUS
 10
246.50485095322631
 20
121.8499999239591
 30
0.0
 11
246.00485095322631
 21
121.8499999239591
 31
0.0
  0
LINE
  5
2164
  8
LAYER4
  6
CONTINUOUS
 10
246.50485095322631
 20
120.8499999239591
 30
0.0
 11
246.00485095322631
 21
120.8499999239591
 31
0.0
  0
LINE
  5
2167
  8
LAYER4
  6
CONTINUOUS
 10
246.00485095322631
 20
124.349999923959
 30
0.0
 11
251.00485095322639
 21
124.349999923959
 31
0.0
  0
LINE
  5
2168
  8
LAYER4
  6
CONTINUOUS
 10
246.50485095322631
 20
123.8499999239591
 30
0.0
 11
250.50485095322631
 21
123.8499999239591
 31
0.0
  0
ARC
  5
2169
  8
LAYER4
  6
CONTINUOUS
 10
247.50485095322639
 20
128.1299999239591
 30
0.0
 40
2.0
 50
131.840901071383
 51
229.02536977055459
  0
LINE
  5
216A
  8
LAYER3
 10
249.00485095322671
 20
129.61999992395911
 30
0.0
 11
246.00485095322671
 21
129.61999992395911
 31
0.0
  0
LINE
  5
216B
  8
LAYER3
 10
249.00485095322671
 20
126.619999923959
 30
0.0
 11
246.00485095322671
 21
126.619999923959
 31
0.0
  0
ARC
  5
216C
  8
LAYER3
 10
249.00485095322671
 20
128.11999992395911
 30
0.0
 40
1.5
 50
270.0
 51
90.0
  0
ARC
  5
216D
  8
LAYER4
  6
CONTINUOUS
 10
247.50485095322639
 20
128.1299999239591
 30
0.0
 40
0.85
 50
90.0
 51
270.0
  0
LINE
  5
216E
  8
LAYER4
  6
CONTINUOUS
 10
247.50485095322639
 20
128.97999992395901
 30
0.0
 11
248.50485095322631
 21
128.97999992395901
 31
0.0
  0
CIRCLE
  5
216F
  8
LAYER4
  6
CONTINUOUS
 10
248.50485095322631
 20
128.1299999239591
 30
0.0
 40
0.85
  0
ARC
  5
2170
  8
LAYER4
  6
CONTINUOUS
 10
247.50485095322639
 20
128.1299999239591
 30
0.0
 40
2.0
 50
310.97463022944481
 51
48.159098928616721
  0
LINE
  5
2171
  8
LAYER4
  6
CONTINUOUS
 10
247.50485095322639
 20
127.2799999239591
 30
0.0
 11
248.50485095322631
 21
127.2799999239591
 31
0.0
  0
LINE
  5
2178
  8
LAYER4
  6
CONTINUOUS
 10
250.50485095322631
 20
150.89999992395909
 30
0.0
 11
251.00485095322639
 21
150.89999992395909
 31
0.0
  0
CIRCLE
  5
217C
  8
LAYER4
  6
CONTINUOUS
 10
247.0298509532264
 20
151.39999992395909
 30
0.0
 40
0.32
  0
LINE
  5
217D
  8
LAYER4
  6
CONTINUOUS
 10
317.46478056977179
 20
101.93999992395911
 30
0.0
 11
317.46478056977179
 21
100.2599999239591
 31
0.0
  0
LINE
  5
217E
  8
LAYER4
  6
CONTINUOUS
 10
320.28478056977178
 20
107.58599992395899
 30
0.0
 11
317.46478056977179
 21
101.93999992395911
 31
0.0
  0
LINE
  5
217F
  8
LAYER4
  6
CONTINUOUS
 10
321.40378056977193
 20
107.58599992395899
 30
0.0
 11
321.40378056977193
 21
105.089999923959
 31
0.0
  0
LINE
  5
2180
  8
LAYER4
  6
CONTINUOUS
 10
321.40378056977193
 20
107.58599992395899
 30
0.0
 11
320.28478056977178
 21
107.58599992395899
 31
0.0
  0
LINE
  5
2181
  8
LAYER4
  6
CONTINUOUS
 10
321.40378056977193
 20
150.57399992395901
 30
0.0
 11
320.28478056977178
 21
150.57399992395901
 31
0.0
  0
ARC
  5
2182
  8
LAYER2
  6
CONTINUOUS
 10
258.50485095322631
 20
166.09999992395899
 30
0.0
 40
1.0
 50
0.0
 51
90.0
  0
ARC
  5
2183
  8
LAYER2
  6
CONTINUOUS
 10
253.5021539532263
 20
160.01999992395901
 30
0.0
 40
2.0
 50
0.0
 51
90.0
  0
LINE
  5
2184
  8
LAYER4
  6
CONTINUOUS
 10
250.50485095322631
 20
156.89999992395909
 30
0.0
 11
251.00485095322639
 21
156.89999992395909
 31
0.0
  0
LINE
  5
2185
  8
LAYER4
  6
CONTINUOUS
 10
246.30485095322641
 20
158.49999992395911
 30
0.0
 11
246.30485095322641
 21
158.89999992395909
 31
0.0
  0
CIRCLE
  5
2186
  8
LAYER4
  6
CONTINUOUS
 10
247.0298509532264
 20
153.89999992395909
 30
0.0
 40
0.32
  0
CIRCLE
  5
2187
  8
LAYER4
  6
CONTINUOUS
 10
247.0298509532264
 20
156.39999992395909
 30
0.0
 40
0.32
  0
LINE
  5
2188
  8
LAYER4
  6
CONTINUOUS
 10
249.80485095322641
 20
158.49999992395911
 30
0.0
 11
247.80485095322641
 21
158.49999992395911
 31
0.0
  0
LINE
  5
2189
  8
LAYER4
  6
CONTINUOUS
 10
247.80485095322641
 20
158.49999992395911
 30
0.0
 11
247.80485095322641
 21
158.89999992395909
 31
0.0
  0
ARC
  5
218A
  8
LAYER2
  6
CONTINUOUS
 10
253.50485095322651
 20
160.01999992395901
 30
0.0
 40
1.0
 50
0.0
 51
90.0
  0
ARC
  5
218B
  8
LAYER1
  6
CONTINUOUS
 10
258.00576526002629
 20
176.5476350078271
 30
0.0
 40
1.5
 50
2.0005989560853661
 51
93.636392518778905
  0
ARC
  5
218C
  8
LAYER1
  6
CONTINUOUS
 10
258.00576526002629
 20
176.5476350078271
 30
0.0
 40
1.5
 50
357.999401044058
 51
2.000598955941975
  0
ARC
  5
218D
  8
LAYER1
  6
CONTINUOUS
 10
258.00485095322631
 20
176.59999992395899
 30
0.0
 40
1.5
 50
0.0
 51
90.0
  0
LINE
  5
218E
  8
LAYER4
  6
CONTINUOUS
 10
317.46478056977179
 20
157.899999923959
 30
0.0
 11
317.46478056977179
 21
156.21999992395911
 31
0.0
  0
LINE
  5
218F
  8
LAYER4
  6
CONTINUOUS
 10
327.4647805697719
 20
153.0699999239591
 30
0.0
 11
330.9647805697719
 21
150.7779999239591
 31
0.0
  0
LINE
  5
2190
  8
LAYER1
  6
CONTINUOUS
 10
355.55478056977182
 20
157.67710747620211
 30
0.0
 11
355.55478056977182
 21
107.599999923959
 31
0.0
  0
LINE
  5
2191
  8
LAYER4
  6
CONTINUOUS
 10
330.9647805697719
 20
150.7779999239591
 30
0.0
 11
330.9647805697719
 21
107.381999923959
 31
0.0
  0
LINE
  5
2192
  8
LAYER4
  6
CONTINUOUS
 10
327.4647805697719
 20
105.089999923959
 30
0.0
 11
327.4647805697719
 21
100.2599999239591
 31
0.0
  0
LINE
  5
2193
  8
LAYER4
  6
CONTINUOUS
 10
327.4647805697719
 20
100.2599999239591
 30
0.0
 11
332.21661248289661
 21
99.062142295858905
 31
0.0
  0
LINE
  5
2194
  8
LAYER4
  6
CONTINUOUS
 10
330.9647805697719
 20
107.381999923959
 30
0.0
 11
327.4647805697719
 21
105.089999923959
 31
0.0
  0
ARC
  5
2195
  8
LAYER2
  6
CONTINUOUS
 10
351.05478056889842
 20
106.6999999239591
 30
0.0
 40
1.6000000000000001
 50
0.0
 51
180.0
  0
ARC
  5
2196
  8
LAYER1
  6
CONTINUOUS
 10
351.05478056977182
 20
106.599999923959
 30
0.0
 40
1.5
 50
0.0000179999992061
 51
180.00000700000001
  0
LINE
  5
2197
  8
LAYER1
  6
CONTINUOUS
 10
355.55478056977182
 20
107.599999923959
 30
0.0
 11
357.55478056977267
 21
107.599999923959
 31
0.0
  0
LINE
  5
2198
  8
LAYER4
  6
CONTINUOUS
 10
332.21661248289661
 20
127.07999992395899
 30
0.0
 11
330.9647805697719
 21
127.07999992395899
 31
0.0
  0
LINE
  5
2199
  8
LAYER4
  6
CONTINUOUS
 10
332.21661248289661
 20
131.07999992395901
 30
0.0
 11
330.9647805697719
 21
131.07999992395901
 31
0.0
  0
LINE
  5
219A
  8
LAYER2
  6
CONTINUOUS
 10
355.55478056977182
 20
124.76582304077731
 30
0.0
 11
355.05478056889979
 21
124.75709550829779
 31
0.0
  0
LINE
  5
219B
  8
LAYER1
  6
CONTINUOUS
 10
355.55478056977182
 20
123.5999999239591
 30
0.0
 11
355.05478056889979
 21
123.59127239147981
 31
0.0
  0
LINE
  5
219C
  8
LAYER2
  6
CONTINUOUS
 10
355.55478056977182
 20
136.4341768071406
 30
0.0
 11
355.05478056889979
 21
136.44290433961979
 31
0.0
  0
LINE
  5
219D
  8
LAYER1
  6
CONTINUOUS
 10
355.55478056977182
 20
137.5999999239591
 30
0.0
 11
355.05478056889979
 21
137.6087274564382
 31
0.0
  0
LINE
  5
219E
  8
LAYER1
  6
CONTINUOUS
 10
386.03259779787072
 20
96.177701352019227
 30
0.0
 11
390.2645573091998
 21
102.566554227963
 31
0.0
  0
LINE
  5
219F
  8
LAYER1
  6
CONTINUOUS
 10
391.4809447310318
 20
96.183257159925105
 30
0.0
 11
386.03259779787072
 21
96.177701352019227
 31
0.0
  0
POLYLINE
  5
21A0
  8
LAYER1
  6
CONTINUOUS
 66
     1
 10
0.0
 20
0.0
 30
0.0
  0
VERTEX
  5
24BB
  8
LAYER1
  6
CONTINUOUS
 10
367.26097148330678
 20
108.59999943101511
 30
0.0
  0
VERTEX
  5
24BC
  8
LAYER1
  6
CONTINUOUS
 10
367.28088818009502
 20
108.55823380240111
 30
0.0
  0
VERTEX
  5
24BD
  8
LAYER1
  6
CONTINUOUS
 10
367.32294263889258
 20
108.5135613589671
 30
0.0
  0
VERTEX
  5
24BE
  8
LAYER1
  6
CONTINUOUS
 10
367.35582578072382
 20
108.48854830546711
 30
0.0
  0
VERTEX
  5
24BF
  8
LAYER1
  6
CONTINUOUS
 10
367.50192415869691
 20
108.3955387755731
 30
0.0
  0
VERTEX
  5
24C0
  8
LAYER1
  6
CONTINUOUS
 10
367.5859829438067
 20
108.325470141178
 30
0.0
  0
VERTEX
  5
24C1
  8
LAYER1
  6
CONTINUOUS
 10
367.61193443091139
 20
108.2995268990321
 30
0.0
  0
VERTEX
  5
24C2
  8
LAYER1
  6
CONTINUOUS
 10
367.70509616662309
 20
108.1940547223419
 30
0.0
  0
VERTEX
  5
24C3
  8
LAYER1
  6
CONTINUOUS
 10
367.79005294778079
 20
108.0959004293521
 30
0.0
  0
VERTEX
  5
24C4
  8
LAYER1
  6
CONTINUOUS
 10
367.87336421195079
 20
107.995088844102
 30
0.0
  0
VERTEX
  5
24C5
  8
LAYER1
  6
CONTINUOUS
 10
367.94431203222172
 20
107.8984927420229
 30
0.0
  0
VERTEX
  5
24C6
  8
LAYER1
  6
CONTINUOUS
 10
368.00960499954471
 20
107.7981827136371
 30
0.0
  0
VERTEX
  5
24C7
  8
LAYER1
  6
CONTINUOUS
 10
368.0656550595607
 20
107.7019127721541
 30
0.0
  0
VERTEX
  5
24C8
  8
LAYER1
  6
CONTINUOUS
 10
368.11669523427202
 20
107.6028779037299
 30
0.0
  0
VERTEX
  5
24C9
  8
LAYER1
  6
CONTINUOUS
 10
368.1597261678458
 20
107.5068871440839
 30
0.0
  0
VERTEX
  5
24CA
  8
LAYER1
  6
CONTINUOUS
 10
368.19751162099641
 20
107.4087159871621
 30
0.0
  0
VERTEX
  5
24CB
  8
LAYER1
  6
CONTINUOUS
 10
368.2287189739007
 20
107.31271721438399
 30
0.0
  0
VERTEX
  5
24CC
  8
LAYER1
  6
CONTINUOUS
 10
368.25493086458681
 20
107.2152385367171
 30
0.0
  0
VERTEX
  5
24CD
  8
LAYER1
  6
CONTINUOUS
 10
368.27568095569671
 20
107.1190525197521
 30
0.0
  0
VERTEX
  5
24CE
  8
LAYER1
  6
CONTINUOUS
 10
368.2918296699068
 20
107.021987125176
 30
0.0
  0
VERTEX
  5
24CF
  8
LAYER1
  6
CONTINUOUS
 10
368.30346248793882
 20
106.925443594782
 30
0.0
  0
VERTEX
  5
24D0
  8
LAYER1
  6
CONTINUOUS
 10
368.31108474182162
 20
106.828503325323
 30
0.0
  0
VERTEX
  5
24D1
  8
LAYER1
  6
CONTINUOUS
 10
368.31501045618592
 20
106.73146060238589
 30
0.0
  0
VERTEX
  5
24D2
  8
LAYER1
  6
CONTINUOUS
 10
368.31557278519853
 20
106.6343287099412
 30
0.0
  0
VERTEX
  5
24D3
  8
LAYER1
  6
CONTINUOUS
 10
368.3131148275628
 20
106.5365955737611
 30
0.0
  0
VERTEX
  5
24D4
  8
LAYER1
  6
CONTINUOUS
 10
368.30817050490231
 20
106.43900485181121
 30
0.0
  0
VERTEX
  5
24D5
  8
LAYER1
  6
CONTINUOUS
 10
368.30109208066591
 20
106.340546076142
 30
0.0
  0
VERTEX
  5
24D6
  8
LAYER1
  6
CONTINUOUS
 10
368.29175460580069
 20
106.2420733237159
 30
0.0
  0
VERTEX
  5
24D7
  8
LAYER1
  6
CONTINUOUS
 10
368.28023531703491
 20
106.1421934952569
 30
0.0
  0
VERTEX
  5
24D8
  8
LAYER1
  6
CONTINUOUS
 10
368.26920179275652
 20
106.043075698439
 30
0.0
  0
VERTEX
  5
24D9
  8
LAYER1
  6
CONTINUOUS
 10
368.25949270802158
 20
105.9435072496901
 30
0.0
  0
VERTEX
  5
24DA
  8
LAYER1
  6
CONTINUOUS
 10
368.24338877063758
 20
105.841553548763
 30
0.0
  0
VERTEX
  5
24DB
  8
LAYER1
  6
CONTINUOUS
 10
368.21860304486961
 20
105.734685428178
 30
0.0
  0
VERTEX
  5
24DC
  8
LAYER1
  6
CONTINUOUS
 10
368.21245868607662
 20
105.6678108356259
 30
0.0
  0
VERTEX
  5
24DD
  8
LAYER1
  6
CONTINUOUS
 10
368.21719224430871
 20
105.63704844746989
 30
0.0
  0
SEQEND
  5
24DE
  8
LAYER1
  6
CONTINUOUS
  0
LINE
  5
21C5
  8
LAYER1
  6
CONTINUOUS
 10
367.26097148330678
 20
108.59999943101511
 30
0.0
 11
375.90076892696652
 21
108.59999943101511
 31
0.0
  0
POLYLINE
  5
21C6
  8
LAYER1
  6
CONTINUOUS
 66
     1
 10
0.0
 20
0.0
 30
0.0
  0
VERTEX
  5
24DF
  8
LAYER1
  6
CONTINUOUS
 10
388.67061780989451
 20
108.563966543772
 30
0.0
  0
VERTEX
  5
24E0
  8
LAYER1
  6
CONTINUOUS
 10
388.67679335895082
 20
108.542796419239
 30
0.0
  0
VERTEX
  5
24E1
  8
LAYER1
  6
CONTINUOUS
 10
388.69171151085561
 20
108.520250444978
 30
0.0
  0
VERTEX
  5
24E2
  8
LAYER1
  6
CONTINUOUS
 10
388.71978971558559
 20
108.4930272370121
 30
0.0
  0
VERTEX
  5
24E3
  8
LAYER1
  6
CONTINUOUS
 10
388.80495617392052
 20
108.4255969879929
 30
0.0
  0
VERTEX
  5
24E4
  8
LAYER1
  6
CONTINUOUS
 10
388.84796825707252
 20
108.3834221026851
 30
0.0
  0
VERTEX
  5
24E5
  8
LAYER1
  6
CONTINUOUS
 10
388.86838611577241
 20
108.359751108002
 30
0.0
  0
VERTEX
  5
24E6
  8
LAYER1
  6
CONTINUOUS
 10
388.92051764696151
 20
108.29064708196501
 30
0.0
  0
VERTEX
  5
24E7
  8
LAYER1
  6
CONTINUOUS
 10
388.96938441960879
 20
108.22532632204199
 30
0.0
  0
VERTEX
  5
24E8
  8
LAYER1
  6
CONTINUOUS
 10
389.01770689791681
 20
108.15834163358799
 30
0.0
  0
VERTEX
  5
24E9
  8
LAYER1
  6
CONTINUOUS
 10
389.05911567576948
 20
108.0940947652708
 30
0.0
  0
VERTEX
  5
24EA
  8
LAYER1
  6
CONTINUOUS
 10
389.09692859568793
 20
108.02790545076211
 30
0.0
  0
VERTEX
  5
24EB
  8
LAYER1
  6
CONTINUOUS
 10
389.12942856759759
 20
107.96405039154
 30
0.0
  0
VERTEX
  5
24EC
  8
LAYER1
  6
CONTINUOUS
 10
389.1585874091765
 20
107.898563341388
 30
0.0
  0
VERTEX
  5
24ED
  8
LAYER1
  6
CONTINUOUS
 10
389.18274799522271
 20
107.8347062765949
 30
0.0
  0
VERTEX
  5
24EE
  8
LAYER1
  6
CONTINUOUS
 10
389.20308800728372
 20
107.7695401133651
 30
0.0
  0
VERTEX
  5
24EF
  8
LAYER1
  6
CONTINUOUS
 10
389.21895317885281
 20
107.7052268871721
 30
0.0
  0
VERTEX
  5
24F0
  8
LAYER1
  6
CONTINUOUS
 10
389.23083505890969
 20
107.640060574595
 30
0.0
  0
VERTEX
  5
24F1
  8
LAYER1
  6
CONTINUOUS
 10
389.2385528305964
 20
107.5748813072159
 30
0.0
  0
VERTEX
  5
24F2
  8
LAYER1
  6
CONTINUOUS
 10
389.24223323295678
 20
107.5093495329759
 30
0.0
  0
VERTEX
  5
24F3
  8
LAYER1
  6
CONTINUOUS
 10
389.24190810797359
 20
107.442923969593
 30
0.0
  0
VERTEX
  5
24F4
  8
LAYER1
  6
CONTINUOUS
 10
389.23768719832572
 20
107.3766317964089
 30
0.0
  0
VERTEX
  5
24F5
  8
LAYER1
  6
CONTINUOUS
 10
389.2294769796988
 20
107.3086153739132
 30
0.0
  0
VERTEX
  5
24F6
  8
LAYER1
  6
CONTINUOUS
 10
389.21760162391661
 20
107.241132172794
 30
0.0
  0
VERTEX
  5
24F7
  8
LAYER1
  6
CONTINUOUS
 10
389.20156631222949
 20
107.171182900199
 30
0.0
  0
VERTEX
  5
24F8
  8
LAYER1
  6
CONTINUOUS
 10
389.18238117863052
 20
107.1020754700309
 30
0.0
  0
VERTEX
  5
24F9
  8
LAYER1
  6
CONTINUOUS
 10
389.15909345641882
 20
107.0299105165021
 30
0.0
  0
VERTEX
  5
24FA
  8
LAYER1
  6
CONTINUOUS
 10
389.1324305313708
 20
106.958686496021
 30
0.0
  0
VERTEX
  5
24FB
  8
LAYER1
  6
CONTINUOUS
 10
389.10050191467269
 20
106.8837822825349
 30
0.0
  0
VERTEX
  5
24FC
  8
LAYER1
  6
CONTINUOUS
 10
389.06815435103567
 20
106.810190058662
 30
0.0
  0
VERTEX
  5
24FD
  8
LAYER1
  6
CONTINUOUS
 10
389.03435055474239
 20
106.732967556433
 30
0.0
  0
VERTEX
  5
24FE
  8
LAYER1
  6
CONTINUOUS
 10
389.00260997208682
 20
106.67500762140899
 30
0.0
  0
VERTEX
  5
24FF
  8
LAYER1
  6
CONTINUOUS
 10
388.98995730652757
 20
106.6558109658569
 30
0.0
  0
VERTEX
  5
2500
  8
LAYER1
  6
CONTINUOUS
 10
388.9274167427206
 20
106.57272898097411
 30
0.0
  0
VERTEX
  5
2501
  8
LAYER1
  6
CONTINUOUS
 10
388.90681561137268
 20
106.53830451822699
 30
0.0
  0
VERTEX
  5
2502
  8
LAYER1
  6
CONTINUOUS
 10
388.89871927775471
 20
106.5128107860702
 30
0.0
  0
VERTEX
  5
2503
  8
LAYER1
  6
CONTINUOUS
 10
388.89824406674671
 20
106.494774025504
 30
0.0
  0
SEQEND
  5
2504
  8
LAYER1
  6
CONTINUOUS
  0
LINE
  5
21ED
  8
LAYER1
  6
CONTINUOUS
 10
390.2645573091998
 20
102.566554227963
 30
0.0
 11
391.4809447310318
 21
96.183257159925105
 31
0.0
  0
LINE
  5
21EE
  8
LAYER1
  6
CONTINUOUS
 10
388.67061780989451
 20
108.563966543772
 30
0.0
 11
396.56301062985392
 21
108.5678555558321
 31
0.0
  0
ARC
  5
21EF
  8
LAYER2
  6
CONTINUOUS
 10
333.55478056977182
 20
166.09999992395899
 30
0.0
 40
1.0
 50
90.0
 51
180.0
  0
ARC
  5
21F0
  8
LAYER2
  6
CONTINUOUS
 10
332.55478056977182
 20
166.09999992395899
 30
0.0
 40
1.0
 50
90.0
 51
180.0
  0
LINE
  5
21F1
  8
LAYER4
  6
CONTINUOUS
 10
332.21661248289661
 20
159.09785755205939
 30
0.0
 11
327.4647805697719
 21
157.899999923959
 31
0.0
  0
LINE
  5
21F2
  8
LAYER4
  6
CONTINUOUS
 10
327.4647805697719
 20
157.899999923959
 30
0.0
 11
327.4647805697719
 21
153.0699999239591
 31
0.0
  0
LINE
  5
21F3
  8
LAYER2
  6
CONTINUOUS
 10
332.21661248289661
 20
161.35816801083419
 30
0.0
 11
331.55478056977182
 21
162.01999992395909
 31
0.0
  0
LINE
  5
21F4
  8
LAYER2
  6
CONTINUOUS
 10
331.55478056977182
 20
166.09999992395899
 30
0.0
 11
331.55478056977199
 21
162.01999992395881
 31
0.0
  0
ARC
  5
21F5
  8
LAYER2
  6
CONTINUOUS
 10
357.05478056977392
 20
157.67710747620211
 30
0.0
 40
2.0
 50
91.000000000014822
 51
180.00000000001299
  0
ARC
  5
21F6
  8
LAYER1
  6
CONTINUOUS
 10
357.05478056977392
 20
157.67710747620211
 30
0.0
 40
1.5
 50
91.000000000014822
 51
180.00000000001299
  0
POLYLINE
  5
21F7
  8
LAYER1
  6
CONTINUOUS
 66
     1
 10
0.0
 20
0.0
 30
0.0
  0
VERTEX
  5
2505
  8
LAYER1
  6
CONTINUOUS
 10
408.93911688368678
 20
108.59999943101511
 30
0.0
  0
VERTEX
  5
2506
  8
LAYER1
  6
CONTINUOUS
 10
408.95903358047468
 20
108.55823380240111
 30
0.0
  0
VERTEX
  5
2507
  8
LAYER1
  6
CONTINUOUS
 10
409.0010880392727
 20
108.5135613589671
 30
0.0
  0
VERTEX
  5
2508
  8
LAYER1
  6
CONTINUOUS
 10
409.0339711811036
 20
108.48854830546711
 30
0.0
  0
VERTEX
  5
2509
  8
LAYER1
  6
CONTINUOUS
 10
409.1800695590768
 20
108.3955387755731
 30
0.0
  0
VERTEX
  5
250A
  8
LAYER1
  6
CONTINUOUS
 10
409.26412834418659
 20
108.325470141178
 30
0.0
  0
VERTEX
  5
250B
  8
LAYER1
  6
CONTINUOUS
 10
409.29007983129151
 20
108.2995268990321
 30
0.0
  0
VERTEX
  5
250C
  8
LAYER1
  6
CONTINUOUS
 10
409.38324156700281
 20
108.1940547223419
 30
0.0
  0
VERTEX
  5
250D
  8
LAYER1
  6
CONTINUOUS
 10
409.46819834816068
 20
108.0959004293521
 30
0.0
  0
VERTEX
  5
250E
  8
LAYER1
  6
CONTINUOUS
 10
409.55150961233039
 20
107.995088844102
 30
0.0
  0
VERTEX
  5
250F
  8
LAYER1
  6
CONTINUOUS
 10
409.62245743260178
 20
107.8984927420229
 30
0.0
  0
VERTEX
  5
2510
  8
LAYER1
  6
CONTINUOUS
 10
409.68775039992448
 20
107.7981827136371
 30
0.0
  0
VERTEX
  5
2511
  8
LAYER1
  6
CONTINUOUS
 10
409.74380045994081
 20
107.7019127721541
 30
0.0
  0
VERTEX
  5
2512
  8
LAYER1
  6
CONTINUOUS
 10
409.79484063465168
 20
107.6028779037299
 30
0.0
  0
VERTEX
  5
2513
  8
LAYER1
  6
CONTINUOUS
 10
409.83787156822558
 20
107.5068871440839
 30
0.0
  0
VERTEX
  5
2514
  8
LAYER1
  6
CONTINUOUS
 10
409.87565702137641
 20
107.4087159871621
 30
0.0
  0
VERTEX
  5
2515
  8
LAYER1
  6
CONTINUOUS
 10
409.90686437428042
 20
107.31271721438399
 30
0.0
  0
VERTEX
  5
2516
  8
LAYER1
  6
CONTINUOUS
 10
409.93307626496681
 20
107.2152385367171
 30
0.0
  0
VERTEX
  5
2517
  8
LAYER1
  6
CONTINUOUS
 10
409.9538263560766
 20
107.1190525197521
 30
0.0
  0
VERTEX
  5
2518
  8
LAYER1
  6
CONTINUOUS
 10
409.96997507028681
 20
107.021987125176
 30
0.0
  0
VERTEX
  5
2519
  8
LAYER1
  6
CONTINUOUS
 10
409.98160788831842
 20
106.925443594782
 30
0.0
  0
VERTEX
  5
251A
  8
LAYER1
  6
CONTINUOUS
 10
409.98923014220151
 20
106.828503325323
 30
0.0
  0
VERTEX
  5
251B
  8
LAYER1
  6
CONTINUOUS
 10
409.99315585656598
 20
106.73146060238589
 30
0.0
  0
VERTEX
  5
251C
  8
LAYER1
  6
CONTINUOUS
 10
409.9937181855783
 20
106.6343287099412
 30
0.0
  0
VERTEX
  5
251D
  8
LAYER1
  6
CONTINUOUS
 10
409.99126022794269
 20
106.5365955737611
 30
0.0
  0
VERTEX
  5
251E
  8
LAYER1
  6
CONTINUOUS
 10
409.98631590528248
 20
106.43900485181121
 30
0.0
  0
VERTEX
  5
251F
  8
LAYER1
  6
CONTINUOUS
 10
409.9792374810458
 20
106.340546076142
 30
0.0
  0
VERTEX
  5
2520
  8
LAYER1
  6
CONTINUOUS
 10
409.96990000618081
 20
106.2420733237159
 30
0.0
  0
VERTEX
  5
2521
  8
LAYER1
  6
CONTINUOUS
 10
409.95838071741463
 20
106.1421934952569
 30
0.0
  0
VERTEX
  5
2522
  8
LAYER1
  6
CONTINUOUS
 10
409.9473471931363
 20
106.043075698439
 30
0.0
  0
VERTEX
  5
2523
  8
LAYER1
  6
CONTINUOUS
 10
409.93763810840159
 20
105.9435072496901
 30
0.0
  0
VERTEX
  5
2524
  8
LAYER1
  6
CONTINUOUS
 10
409.92153417101753
 20
105.841553548763
 30
0.0
  0
VERTEX
  5
2525
  8
LAYER1
  6
CONTINUOUS
 10
409.8967484452495
 20
105.734685428178
 30
0.0
  0
VERTEX
  5
2526
  8
LAYER1
  6
CONTINUOUS
 10
409.89060408645651
 20
105.6678108356259
 30
0.0
  0
VERTEX
  5
2527
  8
LAYER1
  6
CONTINUOUS
 10
409.8953376446886
 20
105.63704844746989
 30
0.0
  0
SEQEND
  5
2528
  8
LAYER1
  6
CONTINUOUS
  0
LINE
  5
221C
  8
LAYER1
  6
CONTINUOUS
 10
408.93911688368678
 20
108.59999943101511
 30
0.0
 11
417.57891432734652
 21
108.59999943101511
 31
0.0
  0
LINE
  5
221D
  8
LAYER2
  6
CONTINUOUS
 10
438.55478056977182
 20
167.09999992395899
 30
0.0
 11
438.55478056977182
 21
161.09999992395819
 31
0.0
  0
LINE
  5
221E
  8
LAYER1
  6
CONTINUOUS
 10
438.55478056977182
 20
178.04763472917401
 30
0.0
 11
438.55478056977182
 21
160.5999999239591
 31
0.0
  0
LINE
  5
221F
  8
LAYER1
  6
DASHDOT
 10
433.85478056977161
 20
159.71944765281401
 30
0.0
 11
433.85478056977161
 21
155.994731801005
 31
0.0
  0
CIRCLE
  5
2220
  8
LAYER1
  6
CONTINUOUS
 10
433.85478056977161
 20
157.89999992395909
 30
0.0
 40
1.04
  0
LINE
  5
2221
  8
LAYER1
  6
DASHDOT
 10
431.89569229583662
 20
157.89999992395909
 30
0.0
 11
435.85815596797329
 21
157.89999992395909
 31
0.0
  0
LINE
  5
2222
  8
LAYER1
  6
CONTINUOUS
 10
441.55478056977182
 20
178.09999992395899
 30
0.0
 11
438.55523748430272
 21
178.0476427046471
 31
0.0
  0
ARC
  5
2223
  8
LAYER5
 10
255.50485095322651
 20
22.84999992395921
 30
0.0
 40
8.3499999999999979
 50
180.0
 51
0.0
  0
CIRCLE
  5
2225
  8
LAYER5
 10
255.50485095322651
 20
22.84999992395921
 30
0.0
 40
7.25
  0
LINE
  5
2226
  8
LAYER5
 10
247.1548509532264
 20
30.09999992395921
 30
0.0
 11
247.1548509532264
 21
22.84999992395921
 31
0.0
  0
LINE
  5
2227
  8
LAYER5
 10
248.25485095322631
 20
30.09999992395921
 30
0.0
 11
248.25485095322631
 21
22.84999992395921
 31
0.0
  0
LINE
  5
2228
  8
LAYER5
 10
263.85485095322639
 20
31.728152612735371
 30
0.0
 11
263.85485095322639
 21
22.84999992395921
 31
0.0
  0
LINE
  5
2229
  8
LAYER5
 10
262.75485095322631
 20
31.728152612735322
 30
-0.0000000000000018
 11
262.75485095322631
 21
22.84999992395921
 31
-0.0000000000000011
  0
ARC
  5
222A
  8
LAYER5
 10
255.50485095322651
 20
31.728152612735322
 30
-0.0000000000000018
 40
7.25
 50
0.0
 51
33.92896203184187
  0
ARC
  5
222B
  8
LAYER5
 10
255.1048509532267
 20
31.728152612735371
 30
0.0
 40
8.7499999999998295
 50
359.9999999999996
 51
27.547204112932729
  0
POLYLINE
  5
222C
  8
LAYER5
 66
     1
 10
0.0
 20
0.0
 30
0.0
  0
VERTEX
  5
2529
  8
LAYER5
 10
381.55478056977182
 20
15.599999923959199
 30
0.0
  0
VERTEX
  5
252A
  8
LAYER5
 10
412.05478056977188
 20
15.59999992395921
 30
0.0
  0
SEQEND
  5
252B
  8
LAYER5
  0
ARC
  5
2230
  8
LAYER5
 10
372.05478056977182
 20
29.09999992395921
 30
0.0
 40
1.5
 50
270.0
 51
0.0
  0
LINE
  5
2231
  8
LAYER5
 10
372.05478056977182
 20
27.59999992395921
 30
0.0
 11
370.55478056977182
 21
27.59999992395921
 31
0.0
  0
LINE
  5
2232
  8
LAYER5
 10
370.55478056977182
 20
16.09999992395921
 30
0.0
 11
370.55478056977182
 21
27.59999992395921
 31
0.0
  0
POLYLINE
  5
2239
  8
LAYER5
 66
     1
 10
0.0
 20
0.0
 30
0.0
 70
     1
  0
VERTEX
  5
252C
  8
LAYER5
 10
351.35478056977161
 20
30.09999992395921
 30
0.0
  0
VERTEX
  5
252D
  8
LAYER5
 10
356.85478056977161
 20
30.09999992395921
 30
0.0
  0
VERTEX
  5
252E
  8
LAYER5
 10
356.85478056977161
 20
26.979999923959209
 30
0.0
  0
VERTEX
  5
252F
  8
LAYER5
 10
351.35478056977161
 20
26.979999923959209
 30
0.0
  0
SEQEND
  5
2530
  8
LAYER5
  0
LINE
  5
223F
  8
LAYER5
 10
352.35478056977161
 20
25.979999923959191
 30
0.0
 11
352.35478056977161
 21
26.979999923959209
 31
0.0
  0
LINE
  5
2240
  8
LAYER5
 10
353.35478056977161
 20
26.479999923959209
 30
0.0
 11
353.35478056977161
 21
26.979999923959209
 31
0.0
  0
ARC
  5
2241
  8
LAYER5
 10
353.85478056977161
 20
26.479999923959209
 30
0.0
 40
0.5
 50
180.0
 51
260.40593177314162
  0
LINE
  5
2242
  8
LAYER5
 10
353.60478056977161
 20
24.500979978184262
 30
0.0
 11
353.60478056977161
 21
17.59999992395921
 31
0.0
  0
LINE
  5
2243
  8
LAYER5
 10
354.60478056977161
 20
25.000979978184318
 30
0.0
 11
354.60478056977161
 21
17.59999992395916
 31
0.0
  0
ARC
  5
2244
  8
LAYER5
 10
353.35478056977161
 20
25.979999923959191
 30
0.0
 40
1.0
 50
179.9999999999981
 51
260.40593177313832
  0
ARC
  5
2245
  8
LAYER5
 10
353.10478056977161
 20
24.500979978184262
 30
0.0
 40
0.5
 50
0.0
 51
80.405931773148339
  0
ARC
  5
2246
  8
LAYER5
 10
353.60478056977161
 20
25.000979978184318
 30
0.0
 40
1.0
 50
0.0
 51
80.405931773135293
  0
LINE
  5
2247
  8
LAYER5
 10
355.85478056977161
 20
25.979999923959191
 30
0.0
 11
355.85478056977161
 21
26.979999923959209
 31
0.0
  0
LINE
  5
2248
  8
LAYER5
 10
354.85478056977161
 20
26.479999923959209
 30
0.0
 11
354.85478056977161
 21
26.979999923959209
 31
0.0
  0
ARC
  5
2249
  8
LAYER5
 10
354.35478056977161
 20
26.479999923959209
 30
0.0
 40
0.5
 50
279.5940682268581
 51
0.0
  0
ARC
  5
224A
  8
LAYER5
 10
354.85478056977161
 20
25.979999923959191
 30
0.0
 40
1.0
 50
279.59406822686151
 51
0.0000000000016284
  0
ARC
  5
224B
  8
LAYER5
 10
355.10478056977161
 20
24.500979978184262
 30
0.0
 40
0.5
 50
99.594068226851704
 51
180.0
  0
ARC
  5
224C
  8
LAYER5
 10
354.60478056977161
 20
25.000979978184318
 30
0.0
 40
1.0
 50
99.594068226864664
 51
120.0000000000035
  0
LINE
  5
224D
  8
LAYER5
 10
355.10478056977161
 20
16.09999992395921
 30
0.0
 11
373.55478056977182
 21
16.09999992395921
 31
0.0
  0
LINE
  5
224E
  8
LAYER5
 10
355.10478056977161
 20
17.099999923959189
 30
0.0
 11
370.55478056977182
 21
17.099999923959189
 31
0.0
  0
ARC
  5
224F
  8
LAYER5
 10
355.10478056977161
 20
17.59999992395916
 30
0.0
 40
0.5
 50
179.99999999999659
 51
270.00000000000648
  0
ARC
  5
2250
  8
LAYER5
 10
355.10478056977161
 20
17.59999992395921
 30
0.0
 40
1.5
 50
180.0000000000004
 51
269.99999999999773
  0
LINE
  5
226C
  8
LAYER5
 10
263.46709275487888
 20
39.274845923959191
 30
0.0
 11
260.34260915157381
 21
39.274845923959191
 31
0.0
  0
LINE
  5
226D
  8
LAYER5
 10
264.30485095322649
 20
35.774845923959198
 30
0.0
 11
264.30485095322649
 21
36.274845923959198
 31
0.0
  0
LINE
  5
226E
  8
LAYER5
 10
264.30485095322649
 20
36.274845923959198
 30
0.0
 11
263.9627067052204
 21
38.840927784004677
 31
0.0
  0
LINE
  5
226F
  8
LAYER5
 10
259.50485095322648
 20
36.274845923959198
 30
0.0
 11
259.8469952012324
 21
38.840927784004677
 31
0.0
  0
ARC
  5
2270
  8
LAYER5
 10
263.46709275487888
 20
38.774845923959091
 30
0.0
 40
0.5
 50
7.5946433685986454
 51
89.999999999993477
  0
ARC
  5
2271
  8
LAYER5
 10
260.34260915157381
 20
38.774845923959091
 30
0.0
 40
0.5
 50
89.999999999993477
 51
172.40535663139909
  0
LINE
  5
2272
  8
LAYER5
 10
259.50485095322648
 20
35.774845923959198
 30
0.0
 11
264.30485095322649
 21
35.774845923959198
 31
0.0
  0
LINE
  5
2273
  8
LAYER5
 10
377.9047805697719
 20
36.274845923959198
 30
0.0
 11
378.24692481777771
 21
38.840927784004677
 31
0.0
  0
ARC
  5
2274
  8
LAYER5
 10
378.74253876811912
 20
38.774845923959091
 30
0.0
 40
0.5
 50
89.999999999993477
 51
172.40535663139909
  0
LINE
  5
2275
  8
LAYER5
 10
382.7047805697718
 20
35.774845923959198
 30
0.0
 11
382.7047805697718
 21
36.274845923959198
 31
0.0
  0
LINE
  5
2276
  8
LAYER5
 10
382.7047805697718
 20
36.274845923959198
 30
0.0
 11
382.36263632176548
 21
38.840927784004677
 31
0.0
  0
ARC
  5
2277
  8
LAYER5
 10
381.86702237142441
 20
38.774845923959091
 30
0.0
 40
0.5
 50
7.5946433685986454
 51
89.999999999993477
  0
LINE
  5
2278
  8
LAYER5
 10
382.7047805697718
 20
35.774845923959198
 30
0.0
 11
377.9047805697719
 21
35.774845923959198
 31
0.0
  0
LINE
  5
2279
  8
LAYER5
 10
377.9047805697719
 20
35.774845923959198
 30
0.0
 11
377.9047805697719
 21
36.274845923959198
 31
0.0
  0
LINE
  5
227A
  8
LAYER5
 10
378.74253876811912
 20
39.274845923959091
 30
0.0
 11
381.86702237142441
 21
39.274845923959091
 31
0.0
  0
POLYLINE
  5
227B
  8
LAYER5
 66
     1
 10
0.0
 20
0.0
 30
0.0
 70
     1
  0
VERTEX
  5
2531
  8
LAYER5
 10
379.05478056977182
 20
35.774845923959198
 30
0.0
  0
VERTEX
  5
2532
  8
LAYER5
 10
381.55478056977182
 20
35.774845923959198
 30
0.0
  0
VERTEX
  5
2533
  8
LAYER5
 10
381.55478056977182
 20
14.4999999239592
 30
0.0
  0
VERTEX
  5
2534
  8
LAYER5
 10
379.05478056977182
 20
14.4999999239592
 30
0.0
  0
SEQEND
  5
2535
  8
LAYER5
  0
LINE
  5
2289
  8
LAYER5
 10
410.90478056977162
 20
36.274845923959198
 30
0.0
 11
411.2469248177776
 21
38.840927784004677
 31
0.0
  0
ARC
  5
228A
  8
LAYER5
 10
411.74253876811912
 20
38.774845923959091
 30
0.0
 40
0.5
 50
89.999999999993477
 51
172.40535663139909
  0
LINE
  5
228B
  8
LAYER5
 10
415.70478056977157
 20
35.774845923959198
 30
0.0
 11
415.70478056977157
 21
36.274845923959198
 31
0.0
  0
LINE
  5
228C
  8
LAYER5
 10
415.70478056977157
 20
36.274845923959198
 30
0.0
 11
415.36263632176548
 21
38.840927784004677
 31
0.0
  0
ARC
  5
228D
  8
LAYER5
 10
414.86702237142441
 20
38.774845923959091
 30
0.0
 40
0.5
 50
7.5946433685986454
 51
89.999999999993477
  0
LINE
  5
228E
  8
LAYER5
 10
415.70478056977157
 20
35.774845923959198
 30
0.0
 11
410.90478056977162
 21
35.774845923959198
 31
0.0
  0
LINE
  5
228F
  8
LAYER5
 10
410.90478056977162
 20
35.774845923959198
 30
0.0
 11
410.90478056977162
 21
36.274845923959198
 31
0.0
  0
LINE
  5
2290
  8
LAYER5
 10
411.74253876811912
 20
39.274845923959091
 30
0.0
 11
414.86702237142441
 21
39.274845923959091
 31
0.0
  0
POLYLINE
  5
2291
  8
LAYER5
 66
     1
 10
0.0
 20
0.0
 30
0.0
 70
     1
  0
VERTEX
  5
2536
  8
LAYER5
 10
412.05478056977188
 20
35.774845923959198
 30
0.0
  0
VERTEX
  5
2537
  8
LAYER5
 10
414.55478056977159
 20
35.774845923959198
 30
0.0
  0
VERTEX
  5
2538
  8
LAYER5
 10
414.55478056977159
 20
14.4999999239592
 30
0.0
  0
VERTEX
  5
2539
  8
LAYER5
 10
412.05478056977188
 20
14.4999999239592
 30
0.0
  0
SEQEND
  5
253A
  8
LAYER5
  0
POLYLINE
  5
229F
  8
LAYER5
 66
     1
 10
0.0
 20
0.0
 30
0.0
  0
VERTEX
  5
253B
  8
LAYER5
 10
412.05478056977188
 20
15.59999992395921
 30
0.0
  0
VERTEX
  5
253C
  8
LAYER5
 10
381.55478056977182
 20
15.599999923959199
 30
0.0
  0
SEQEND
  5
253D
  8
LAYER5
  0
POLYLINE
  5
22A3
  8
LAYER5
 66
     1
 10
0.0
 20
0.0
 30
0.0
  0
VERTEX
  5
253E
  8
LAYER5
 10
414.55478056977159
 20
15.59999992395921
 30
0.0
  0
VERTEX
  5
253F
  8
LAYER5
 10
420.05478056977188
 20
15.59999992395921
 30
0.0
 42
0.4142135623730951
  0
VERTEX
  5
2540
  8
LAYER5
 10
420.55478056977188
 20
16.09999992395921
 30
0.0
  0
VERTEX
  5
2541
  8
LAYER5
 10
420.55478056977188
 20
29.59999992395921
 30
0.0
 42
0.4142135623730951
  0
VERTEX
  5
2542
  8
LAYER5
 10
420.05478056977188
 20
30.09999992395921
 30
0.0
  0
VERTEX
  5
2543
  8
LAYER5
 10
414.55478056977159
 20
30.09999992395921
 30
0.0
  0
SEQEND
  5
2544
  8
LAYER5
  0
LINE
  5
22AB
  8
LAYER1
  6
CONTINUOUS
 10
216.55721614801121
 20
176.59999992395899
 30
0.0
 11
216.55721614801121
 21
166.4193559571649
 31
0.0
  0
LINE
  5
22AC
  8
LAYER1
  6
CONTINUOUS
 10
216.50485095322639
 20
176.59999992395899
 30
0.0
 11
216.50485095322639
 21
20.599999609800161
 31
0.0
  0
POLYLINE
  5
22AD
  8
LAYER5
 66
     1
 10
0.0
 20
0.0
 30
0.0
  0
VERTEX
  5
2545
  8
LAYER5
 10
379.05478056977182
 20
30.099999923959182
 30
0.0
  0
VERTEX
  5
2546
  8
LAYER5
 10
374.05478056977182
 20
30.099999923959182
 30
0.0
 42
0.4142135623730951
  0
VERTEX
  5
2547
  8
LAYER5
 10
373.55478056977182
 20
29.59999992395921
 30
0.0
  0
VERTEX
  5
2548
  8
LAYER5
 10
373.55478056977182
 20
16.099999923959199
 30
0.0
 42
0.4142135623730951
  0
VERTEX
  5
2549
  8
LAYER5
 10
374.05478056977182
 20
15.599999923959199
 30
0.0
  0
VERTEX
  5
254A
  8
LAYER5
 10
379.05478056977182
 20
15.599999923959199
 30
0.0
  0
SEQEND
  5
254B
  8
LAYER5
  0
LINE
  5
22B5
  8
LAYER2
  6
CONTINUOUS
 10
381.55478056977182
 20
30.09999992395921
 30
0.0
 11
412.05478056977188
 21
30.09999992395921
 31
0.0
  0
LINE
  5
22B6
  8
LAYER2
  6
CONTINUOUS
 10
414.55478056977159
 20
30.09999992395921
 30
0.0
 11
438.55478056977182
 21
30.09999992395921
 31
0.0
  0
POLYLINE
  5
22B7
  8
LAYER5
 66
     1
 10
0.0
 20
0.0
 30
0.0
  0
VERTEX
  5
254C
  8
LAYER5
 10
412.05478056977188
 20
30.09999992395921
 30
0.0
  0
VERTEX
  5
254D
  8
LAYER5
 10
381.55478056977182
 20
30.099999923959182
 30
0.0
  0
SEQEND
  5
254E
  8
LAYER5
  0
LINE
  5
22BB
  8
LAYER4
 10
330.54478056977172
 20
46.264999923959202
 30
0.0
 11
330.54478056977172
 21
63.6649999239593
 31
0.0
  0
LINE
  5
22BC
  8
LAYER4
 10
332.21661248289661
 20
45.264999923959181
 30
0.0
 11
331.54478056977172
 21
45.264999923959181
 31
0.0
  0
LINE
  5
22BD
  8
LAYER4
 10
332.21661248289661
 20
43.344999923959293
 30
0.0
 11
331.05478056977182
 21
43.344999923959371
 31
0.0
  0
LINE
  5
22BE
  8
LAYER4
 10
332.21661248289661
 20
44.344999923959172
 30
0.0
 11
329.74478056977182
 21
44.344999923959087
 31
0.0
  0
LINE
  5
22BF
  8
LAYER4
 10
329.74478056977182
 20
44.344999923959087
 30
0.0
 11
329.74478056977182
 21
43.344999923959087
 31
0.0
  0
LINE
  5
22C0
  8
LAYER4
 10
331.05478056977182
 20
43.344999923959371
 30
0.0
 11
331.05478056977182
 21
42.344999923959378
 31
0.0
  0
LINE
  5
22C1
  8
LAYER4
 10
329.74478056977182
 20
43.344999923959087
 30
0.0
 11
331.05478056977182
 21
42.344999923959378
 31
0.0
  0
ARC
  5
22C2
  8
LAYER4
 10
331.54478056977172
 20
46.264999923959088
 30
0.0
 40
1.0
 50
180.0
 51
270.0
  0
ARC
  5
22C3
  8
LAYER4
 10
331.54478056977172
 20
63.664999923959193
 30
0.0
 40
1.0
 50
90.0
 51
180.0
  0
LINE
  5
22C4
  8
LAYER4
 10
332.21661248289661
 20
64.6649999239593
 30
0.0
 11
331.54478056977172
 21
64.6649999239593
 31
0.0
  0
LINE
  5
22C5
  8
LAYER4
 10
332.21661248289661
 20
66.584999923959089
 30
0.0
 11
331.05478056977188
 21
66.584999923959089
 31
0.0
  0
LINE
  5
22C6
  8
LAYER4
 10
332.21661248289661
 20
65.584999923959202
 30
0.0
 11
329.74478056977182
 21
65.584999923959373
 31
0.0
  0
LINE
  5
22C7
  8
LAYER4
 10
329.74478056977182
 20
65.584999923959373
 30
0.0
 11
329.74478056977182
 21
66.584999923959373
 31
0.0
  0
LINE
  5
22C8
  8
LAYER4
 10
331.05478056977188
 20
66.584999923959089
 30
0.0
 11
331.05478056977188
 21
67.584999923959089
 31
0.0
  0
LINE
  5
22C9
  8
LAYER4
 10
329.74478056977182
 20
66.584999923959373
 30
0.0
 11
331.05478056977188
 21
67.584999923959089
 31
0.0
  0
POLYLINE
  5
22CA
  8
LAYER5
 66
     1
 10
0.0
 20
0.0
 30
0.0
  0
VERTEX
  5
254F
  8
LAYER5
 10
59.999542835626137
 20
15.599999923959199
 30
0.0
  0
VERTEX
  5
2550
  8
LAYER5
 10
29.49954283562613
 20
15.59999992395921
 30
0.0
  0
SEQEND
  5
2551
  8
LAYER5
  0
ARC
  5
22CE
  8
LAYER5
 10
69.49954283562613
 20
29.09999992395921
 30
0.0
 40
1.5
 50
180.0
 51
270.0
  0
LINE
  5
22CF
  8
LAYER5
 10
69.49954283562613
 20
27.59999992395921
 30
0.0
 11
70.99954283562613
 21
27.59999992395921
 31
0.0
  0
LINE
  5
22D0
  8
LAYER5
 10
70.99954283562613
 20
16.09999992395921
 30
0.0
 11
70.99954283562613
 21
27.59999992395921
 31
0.0
  0
POLYLINE
  5
22D7
  8
LAYER5
 66
     1
 10
0.0
 20
0.0
 30
0.0
 70
     1
  0
VERTEX
  5
2552
  8
LAYER5
 10
90.199542835626175
 20
30.09999992395921
 30
0.0
  0
VERTEX
  5
2553
  8
LAYER5
 10
84.699542835626204
 20
30.09999992395921
 30
0.0
  0
VERTEX
  5
2554
  8
LAYER5
 10
84.699542835626204
 20
26.979999923959209
 30
0.0
  0
VERTEX
  5
2555
  8
LAYER5
 10
90.199542835626175
 20
26.979999923959209
 30
0.0
  0
SEQEND
  5
2556
  8
LAYER5
  0
LINE
  5
22DD
  8
LAYER5
 10
89.199542835626175
 20
25.979999923959191
 30
0.0
 11
89.199542835626175
 21
26.979999923959209
 31
0.0
  0
LINE
  5
22DE
  8
LAYER5
 10
88.199542835626175
 20
26.479999923959209
 30
0.0
 11
88.199542835626175
 21
26.979999923959209
 31
0.0
  0
ARC
  5
22DF
  8
LAYER5
 10
87.699542835626175
 20
26.479999923959209
 30
0.0
 40
0.5
 50
279.5940682268581
 51
0.0
  0
LINE
  5
22E0
  8
LAYER5
 10
87.949542835626175
 20
24.500979978184262
 30
0.0
 11
87.949542835626175
 21
17.59999992395921
 31
0.0
  0
LINE
  5
22E1
  8
LAYER5
 10
86.949542835626175
 20
25.000979978184318
 30
0.0
 11
86.949542835626175
 21
17.59999992395916
 31
0.0
  0
ARC
  5
22E2
  8
LAYER5
 10
88.199542835626175
 20
25.979999923959191
 30
0.0
 40
1.0
 50
279.59406822686151
 51
0.0000000000016284
  0
ARC
  5
22E3
  8
LAYER5
 10
88.449542835626119
 20
24.500979978184262
 30
0.0
 40
0.5
 50
99.594068226851704
 51
180.0
  0
ARC
  5
22E4
  8
LAYER5
 10
87.949542835626204
 20
25.000979978184318
 30
0.0
 40
1.0
 50
99.594068226864664
 51
180.0
  0
LINE
  5
22E5
  8
LAYER5
 10
85.69954283562619
 20
25.979999923959191
 30
0.0
 11
85.69954283562619
 21
26.979999923959209
 31
0.0
  0
LINE
  5
22E6
  8
LAYER5
 10
86.699542835626175
 20
26.479999923959209
 30
0.0
 11
86.699542835626175
 21
26.979999923959209
 31
0.0
  0
ARC
  5
22E7
  8
LAYER5
 10
87.199542835626175
 20
26.479999923959209
 30
0.0
 40
0.5
 50
180.0
 51
260.40593177314162
  0
ARC
  5
22E8
  8
LAYER5
 10
86.699542835626175
 20
25.979999923959191
 30
0.0
 40
1.0
 50
179.9999999999981
 51
260.40593177313832
  0
ARC
  5
22E9
  8
LAYER5
 10
86.449542835626247
 20
24.500979978184262
 30
0.0
 40
0.5
 50
0.0
 51
80.405931773148339
  0
ARC
  5
22EA
  8
LAYER5
 10
86.949542835626119
 20
25.000979978184318
 30
0.0
 40
1.0
 50
59.99999999999622
 51
80.405931773135293
  0
LINE
  5
22EB
  8
LAYER5
 10
86.449542835626175
 20
16.09999992395921
 30
0.0
 11
67.999542835626116
 21
16.09999992395921
 31
0.0
  0
LINE
  5
22EC
  8
LAYER5
 10
86.449542835626175
 20
17.099999923959189
 30
0.0
 11
70.99954283562613
 21
17.099999923959189
 31
0.0
  0
ARC
  5
22ED
  8
LAYER5
 10
86.449542835626247
 20
17.59999992395916
 30
0.0
 40
0.5
 50
269.99999999999341
 51
0.0000000000032569
  0
ARC
  5
22EE
  8
LAYER5
 10
86.449542835626104
 20
17.59999992395921
 30
0.0
 40
1.5
 50
270.0000000000021
 51
359.99999999999898
  0
POLYLINE
  5
2308
  8
LAYER5
 66
     1
 10
0.0
 20
0.0
 30
0.0
 70
     1
  0
VERTEX
  5
2557
  8
LAYER5
 10
62.499542835626137
 20
30.09999992395921
 30
0.0
  0
VERTEX
  5
2558
  8
LAYER5
 10
59.999542835626137
 20
30.09999992395921
 30
0.0
  0
VERTEX
  5
2559
  8
LAYER5
 10
59.999542835626137
 20
14.49999992395921
 30
0.0
  0
VERTEX
  5
255A
  8
LAYER5
 10
62.499542835626137
 20
14.49999992395921
 30
0.0
  0
SEQEND
  5
255B
  8
LAYER5
  0
POLYLINE
  5
2316
  8
LAYER5
 66
     1
 10
0.0
 20
0.0
 30
0.0
 70
     1
  0
VERTEX
  5
255C
  8
LAYER5
 10
29.49954283562613
 20
30.09999992395921
 30
0.0
  0
VERTEX
  5
255D
  8
LAYER5
 10
26.99954283562613
 20
30.09999992395921
 30
0.0
  0
VERTEX
  5
255E
  8
LAYER5
 10
26.99954283562613
 20
14.49999992395921
 30
0.0
  0
VERTEX
  5
255F
  8
LAYER5
 10
29.49954283562613
 20
14.49999992395921
 30
0.0
  0
SEQEND
  5
2560
  8
LAYER5
  0
POLYLINE
  5
2324
  8
LAYER5
 66
     1
 10
0.0
 20
0.0
 30
0.0
  0
VERTEX
  5
2561
  8
LAYER5
 10
29.49954283562613
 20
15.59999992395921
 30
0.0
  0
VERTEX
  5
2562
  8
LAYER5
 10
59.999542835626137
 20
15.599999923959199
 30
0.0
  0
SEQEND
  5
2563
  8
LAYER5
  0
POLYLINE
  5
2328
  8
LAYER5
 66
     1
 10
0.0
 20
0.0
 30
0.0
  0
VERTEX
  5
2564
  8
LAYER5
 10
26.99954283562613
 20
15.59999992395921
 30
0.0
  0
VERTEX
  5
2565
  8
LAYER5
 10
21.49954283562613
 20
15.59999992395921
 30
0.0
 42
-0.4142135623730951
  0
VERTEX
  5
2566
  8
LAYER5
 10
20.999542835626109
 20
16.09999992395921
 30
0.0
  0
VERTEX
  5
2567
  8
LAYER5
 10
20.999542835626109
 20
29.59999992395921
 30
0.0
 42
-0.4142135623730951
  0
VERTEX
  5
2568
  8
LAYER5
 10
21.49954283562613
 20
30.09999992395921
 30
0.0
  0
VERTEX
  5
2569
  8
LAYER5
 10
26.99954283562613
 20
30.09999992395921
 30
0.0
  0
SEQEND
  5
256A
  8
LAYER5
  0
POLYLINE
  5
2330
  8
LAYER5
 66
     1
 10
0.0
 20
0.0
 30
0.0
  0
VERTEX
  5
256B
  8
LAYER5
 10
62.499542835626137
 20
30.099999923959182
 30
0.0
  0
VERTEX
  5
256C
  8
LAYER5
 10
67.49954283562613
 20
30.099999923959182
 30
0.0
 42
-0.4142135623730951
  0
VERTEX
  5
256D
  8
LAYER5
 10
67.999542835626116
 20
29.59999992395921
 30
0.0
  0
VERTEX
  5
256E
  8
LAYER5
 10
67.999542835626116
 20
16.099999923959199
 30
0.0
 42
-0.4142135623730951
  0
VERTEX
  5
256F
  8
LAYER5
 10
67.49954283562613
 20
15.599999923959199
 30
0.0
  0
VERTEX
  5
2570
  8
LAYER5
 10
62.499542835626137
 20
15.599999923959199
 30
0.0
  0
SEQEND
  5
2571
  8
LAYER5
  0
LINE
  5
2338
  8
LAYER2
  6
CONTINUOUS
 10
59.999542835626137
 20
30.09999992395921
 30
0.0
 11
29.49954283562613
 21
30.09999992395921
 31
0.0
  0
POLYLINE
  5
2339
  8
LAYER5
 66
     1
 10
0.0
 20
0.0
 30
0.0
  0
VERTEX
  5
2572
  8
LAYER5
 10
29.49954283562613
 20
30.09999992395921
 30
0.0
  0
VERTEX
  5
2573
  8
LAYER5
 10
59.999542835626137
 20
30.099999923959182
 30
0.0
  0
SEQEND
  5
2574
  8
LAYER5
  0
LINE
  5
233D
  8
LAYER5
  6
CONTINUOUS
 10
417.5547805697712
 20
167.09999992395899
 30
-0.0000000000000016
 11
419.05478056977171
 21
167.09999992395899
 31
-0.0000000000000016
  0
LINE
  5
2340
  8
LAYER1
  6
CONTINUOUS
 10
248.01819637008569
 20
19.1523651187442
 30
0.0
 11
242.00485095322631
 21
19.152365118744211
 31
0.0
  0
LINE
  5
2341
  8
LAYER1
  6
CONTINUOUS
 10
248.04428797178861
 20
19.099999923959238
 30
0.0
 11
242.00485095322631
 21
19.099999923959199
 31
0.0
  0
LINE
  5
2349
  8
0
  6
CONTINUOUS
 10
251.00485095322639
 20
159.91999992395921
 30
0.0
 11
251.00485095322639
 21
147.91999992395921
 31
0.0
  0
POLYLINE
  5
234A
  8
LAYER3
 66
     1
 10
0.0
 20
0.0
 30
0.0
 70
     1
  0
VERTEX
  5
257A
  8
LAYER3
 10
241.00485095322571
 20
159.91999992395921
 30
0.0
  0
VERTEX
  5
257B
  8
LAYER3
 10
251.50485095322659
 20
159.91999992395921
 30
0.0
  0
VERTEX
  5
257C
  8
LAYER3
 10
251.50485095322659
 20
147.91999992395921
 30
0.0
  0
VERTEX
  5
257D
  8
LAYER3
 10
241.00485095322571
 20
147.91999992395921
 30
0.0
  0
SEQEND
  5
257E
  8
LAYER3
  0
ENDSEC
  0
EOF
