  0
SECTION
  2
HEADER
  9
$ACADVER
  1
AC1009
  9
$INSBASE
 10
0.0
 20
0.0
 30
0.0
  9
$EXTMIN
 10
-0.0134744043039064
 20
-0.0090631052497656
 30
-0.000000000000008
  9
$EXTMAX
 10
441.56825678038228
 20
178.43293814519049
 30
0.0000000000000073
  9
$LIMMIN
 10
0.0
 20
0.0
  9
$LIMMAX
 10
420.0
 20
297.0
  9
$ORTHOMODE
 70
     0
  9
$REGENMODE
 70
     1
  9
$FILLMODE
 70
     1
  9
$QTEXTMODE
 70
     0
  9
$MIRRTEXT
 70
     1
  9
$DRAGMODE
 70
     2
  9
$LTSCALE
 40
1.0
  9
$OSMODE
 70
    53
  9
$ATTMODE
 70
     1
  9
$TEXTSIZE
 40
2.5
  9
$TRACEWID
 40
1.0
  9
$TEXTSTYLE
  7
STANDARD
  9
$CLAYER
  8
0
  9
$CELTYPE
  6
BYLAYER
  9
$CECOLOR
 62
   256
  9
$DIMSCALE
 40
1.0
  9
$DIMASZ
 40
2.5
  9
$DIMEXO
 40
0.625
  9
$DIMDLI
 40
3.75
  9
$DIMRND
 40
0.0
  9
$DIMDLE
 40
0.0
  9
$DIMEXE
 40
1.25
  9
$DIMTP
 40
0.0
  9
$DIMTM
 40
0.0
  9
$DIMTXT
 40
2.5
  9
$DIMCEN
 40
2.5
  9
$DIMTSZ
 40
0.0
  9
$DIMTOL
 70
     0
  9
$DIMLIM
 70
     0
  9
$DIMTIH
 70
     0
  9
$DIMTOH
 70
     0
  9
$DIMSE1
 70
     0
  9
$DIMSE2
 70
     0
  9
$DIMTAD
 70
     1
  9
$DIMZIN
 70
     8
  9
$DIMBLK
  1

  9
$DIMASO
 70
     1
  9
$DIMSHO
 70
     1
  9
$DIMPOST
  1

  9
$DIMAPOST
  1

  9
$DIMALT
 70
     0
  9
$DIMALTD
 70
     3
  9
$DIMALTF
 40
0.03937007874016
  9
$DIMLFAC
 40
1.0
  9
$DIMTOFL
 70
     1
  9
$DIMTVP
 40
0.0
  9
$DIMTIX
 70
     0
  9
$DIMSOXD
 70
     0
  9
$DIMSAH
 70
     0
  9
$DIMBLK1
  1

  9
$DIMBLK2
  1

  9
$DIMSTYLE
  2
ISO-25
  9
$DIMCLRD
 70
     0
  9
$DIMCLRE
 70
     0
  9
$DIMCLRT
 70
     0
  9
$DIMTFAC
 40
1.0
  9
$DIMGAP
 40
0.625
  9
$LUNITS
 70
     2
  9
$LUPREC
 70
     4
  9
$SKETCHINC
 40
1.0
  9
$FILLETRAD
 40
10.0
  9
$AUNITS
 70
     0
  9
$AUPREC
 70
     0
  9
$MENU
  1
.
  9
$ELEVATION
 40
0.0
  9
$PELEVATION
 40
0.0
  9
$THICKNESS
 40
0.0
  9
$LIMCHECK
 70
     0
  9
$BLIPMODE
 70
     0
  9
$CHAMFERA
 40
10.0
  9
$CHAMFERB
 40
10.0
  9
$SKPOLY
 70
     0
  9
$TDCREATE
 40
2453949.4028372099
  9
$TDUPDATE
 40
2453949.4064526609
  9
$TDINDWG
 40
0.0017189815
  9
$TDUSRTIMER
 40
0.0017188079
  9
$USRTIMER
 70
     1
  9
$ANGBASE
 50
0.0
  9
$ANGDIR
 70
     0
  9
$PDMODE
 70
     0
  9
$PDSIZE
 40
0.0
  9
$PLINEWID
 40
0.0
  9
$COORDS
 70
     0
  9
$SPLFRAME
 70
     0
  9
$SPLINETYPE
 70
     6
  9
$SPLINESEGS
 70
     8
  9
$ATTDIA
 70
     0
  9
$ATTREQ
 70
     1
  9
$HANDLING
 70
 22529
  9
$HANDSEED
  5
1B29
  9
$SURFTAB1
 70
     6
  9
$SURFTAB2
 70
     6
  9
$SURFTYPE
 70
     6
  9
$SURFU
 70
     6
  9
$SURFV
 70
     6
  9
$UCSNAME
  2

  9
$UCSORG
 10
0.0
 20
0.0
 30
0.0
  9
$UCSXDIR
 10
1.0
 20
0.0
 30
0.0
  9
$UCSYDIR
 10
0.0
 20
1.0
 30
0.0
  9
$PUCSNAME
  2

  9
$PUCSORG
 10
0.0
 20
0.0
 30
0.0
  9
$PUCSXDIR
 10
1.0
 20
0.0
 30
0.0
  9
$PUCSYDIR
 10
0.0
 20
1.0
 30
0.0
  9
$USERI1
 70
     0
  9
$USERI2
 70
     0
  9
$USERI3
 70
     0
  9
$USERI4
 70
     0
  9
$USERI5
 70
     0
  9
$USERR1
 40
0.0
  9
$USERR2
 40
0.0
  9
$USERR3
 40
0.0
  9
$USERR4
 40
0.0
  9
$USERR5
 40
0.0
  9
$WORLDVIEW
 70
     1
  9
$SHADEDGE
 70
     3
  9
$SHADEDIF
 70
    70
  9
$TILEMODE
 70
     1
  9
$MAXACTVP
 70
    64
  9
$PLIMCHECK
 70
     0
  9
$PEXTMIN
 10
1.0000000000000000E+020
 20
1.0000000000000000E+020
 30
1.0000000000000000E+020
  9
$PEXTMAX
 10
-1.0000000000000000E+020
 20
-1.0000000000000000E+020
 30
-1.0000000000000000E+020
  9
$PLIMMIN
 10
0.0
 20
0.0
  9
$PLIMMAX
 10
420.0
 20
297.0
  9
$UNITMODE
 70
     0
  9
$VISRETAIN
 70
     1
  9
$PLINEGEN
 70
     0
  9
$PSLTSCALE
 70
     1
  0
ENDSEC
  0
SECTION
  2
TABLES
  0
TABLE
  2
VPORT
 70
     2
  0
VPORT
  2
*ACTIVE
 70
     0
 10
0.0
 20
0.0
 11
1.0
 21
1.0
 12
220.77739118803919
 22
89.211937519970377
 13
0.0
 23
0.0
 14
10.0
 24
10.0
 15
10.0
 25
10.0
 16
0.0
 26
0.0
 36
1.0
 17
0.0
 27
0.0
 37
0.0
 40
258.16424874608839
 41
1.7189728958630519
 42
50.0
 43
0.0
 44
0.0
 50
0.0
 51
0.0
 71
     0
 72
   100
 73
     1
 74
     3
 75
     0
 76
     0
 77
     0
 78
     0
  0
ENDTAB
  0
TABLE
  2
LTYPE
 70
     2
  0
LTYPE
  2
CONTINUOUS
 70
     0
  3
Solid line
 72
    65
 73
     0
 40
0.0
  0
LTYPE
  2
DASHDOT
 70
     0
  3
__ . __ . __ . __ . __ . __ . __ . __ . __ . __
 72
    65
 73
     4
 40
7.5
 49
6.0
 49
-0.5
 49
0.5
 49
-0.5
  0
ENDTAB
  0
TABLE
  2
LAYER
 70
     8
  0
LAYER
  2
0
 70
     0
 62
     7
  6
CONTINUOUS
  0
LAYER
  2
寸法
 70
     0
 62
     5
  6
CONTINUOUS
  0
LAYER
  2
DEFPOINTS
 70
     0
 62
    -7
  6
CONTINUOUS
  0
LAYER
  2
LAYER1
 70
     0
 62
     7
  6
CONTINUOUS
  0
LAYER
  2
LAYER2
 70
     0
 62
     7
  6
CONTINUOUS
  0
LAYER
  2
LAYER3
 70
     0
 62
     7
  6
CONTINUOUS
  0
LAYER
  2
LAYER4
 70
     0
 62
     7
  6
CONTINUOUS
  0
LAYER
  2
LAYER5
 70
     0
 62
     7
  6
CONTINUOUS
  0
ENDTAB
  0
TABLE
  2
STYLE
 70
     1
  0
STYLE
  2
STANDARD
 70
     0
 40
0.0
 41
1.0
 50
0.0
 71
     0
 42
2.5
  3
txt
  4

  0
ENDTAB
  0
TABLE
  2
VIEW
 70
     0
  0
ENDTAB
  0
TABLE
  2
UCS
 70
     0
  0
ENDTAB
  0
TABLE
  2
APPID
 70
     1
  0
APPID
  2
ACAD
 70
     0
  0
ENDTAB
  0
TABLE
  2
DIMSTYLE
 70
     4
  0
DIMSTYLE
  2
ISO-25
 70
     0
  3

  4

  5

  6

  7

 40
1.0
 41
2.5
 42
0.625
 43
3.75
 44
1.25
 45
0.0
 46
0.0
 47
0.0
 48
0.0
140
2.5
141
2.5
142
0.0
143
0.03937007874016
144
1.0
145
0.0
146
1.0
147
0.625
 71
     0
 72
     0
 73
     0
 74
     0
 75
     0
 76
     0
 77
     1
 78
     8
170
     0
171
     3
172
     1
173
     0
174
     0
175
     0
176
     0
177
     0
178
     0
  0
DIMSTYLE
  2
STANDARD
 70
     0
  3

  4

  5

  6

  7

 40
1.0
 41
0.18
 42
0.0625
 43
0.38
 44
0.18
 45
0.0
 46
0.0
 47
0.0
 48
0.0
140
0.18
141
0.09
142
0.0
143
25.399999999999999
144
1.0
145
0.0
146
1.0
147
0.09
 71
     0
 72
     0
 73
     1
 74
     1
 75
     0
 76
     0
 77
     0
 78
     0
170
     0
171
     2
172
     0
173
     0
174
     0
175
     0
176
     0
177
     0
178
     0
  0
DIMSTYLE
  2
STANDARD00
 70
     0
  3

  4

  5

  6

  7

 40
0.0
 41
2.5
 42
0.625
 43
3.75
 44
1.25
 45
0.0
 46
0.0
 47
0.0
 48
0.0
140
2.5
141
2.5
142
0.0
143
0.0394
144
1.0
145
0.0
146
1.0
147
0.625
 71
     0
 72
     0
 73
     0
 74
     0
 75
     0
 76
     0
 77
     1
 78
     8
170
     0
171
     4
172
     1
173
     0
174
     0
175
     0
176
     0
177
     0
178
     0
  0
DIMSTYLE
  2
STANDARD00X2
 70
     0
  3

  4

  5

  6

  7

 40
2.0
 41
2.5
 42
0.625
 43
3.75
 44
1.25
 45
0.0
 46
0.0
 47
0.0
 48
0.0
140
2.5
141
2.5
142
0.0
143
0.0394
144
1.0
145
0.0
146
1.0
147
0.625
 71
     0
 72
     0
 73
     0
 74
     0
 75
     0
 76
     0
 77
     1
 78
     8
170
     0
171
     4
172
     1
173
     0
174
     0
175
     0
176
     0
177
     0
178
     0
  0
ENDTAB
  0
ENDSEC
  0
SECTION
  2
BLOCKS
  0
BLOCK
  8
0
  2
$MODEL_SPACE
 70
     0
 10
0.0
 20
0.0
 30
0.0
  3
$MODEL_SPACE
  1

  0
ENDBLK
  5
105F
  8
0
  0
BLOCK
 67
     1
  8
0
  2
$PAPER_SPACE
 70
     0
 10
0.0
 20
0.0
 30
0.0
  3
$PAPER_SPACE
  1

  0
ENDBLK
  5
105B
 67
     1
  8
0
  0
BLOCK
  8
0
  2
*D2
 70
     1
 10
0.0
 20
0.0
 30
0.0
  3
*D2
  1

  0
LINE
  5
1077
  8
寸法
  6
CONTINUOUS
 62
     0
 10
218.0326313241562
 20
241.45163960284901
 30
0.0
 11
218.0326313241562
 21
263.1722785096627
 31
0.0
  0
LINE
  5
1078
  8
寸法
  6
CONTINUOUS
 62
     0
 10
261.03263132415611
 20
241.34690977057559
 30
0.0
 11
261.03263132415611
 21
263.1722785096627
 31
0.0
  0
LINE
  5
1079
  8
寸法
  6
CONTINUOUS
 62
     0
 10
223.03263132415611
 20
260.6722785096627
 30
0.0
 11
256.03263132415611
 21
260.6722785096627
 31
0.0
  0
SOLID
  5
107A
  8
寸法
  6
CONTINUOUS
 62
     0
 10
223.03263132415611
 20
261.5056118429959
 30
0.0
 11
223.03263132415611
 21
259.83894517632928
 31
0.0
 12
218.0326313241562
 22
260.6722785096627
 32
0.0
 13
218.0326313241562
 23
260.6722785096627
 33
0.0
  0
SOLID
  5
107B
  8
寸法
  6
CONTINUOUS
 62
     0
 10
256.03263132415611
 20
261.5056118429959
 30
0.0
 11
256.03263132415611
 21
259.83894517632928
 31
0.0
 12
261.03263132415611
 22
260.6722785096627
 32
0.0
 13
261.03263132415611
 23
260.6722785096627
 33
0.0
  0
TEXT
  5
107C
  8
0
 62
     0
 10
236.43914360576329
 20
261.92227850966248
 30
0.0
 40
5.0
  1
43
  0
POINT
  5
107D
  8
DEFPOINTS
  6
CONTINUOUS
 62
     0
 10
218.0326313241562
 20
240.20163960284901
 30
0.0
  0
POINT
  5
107E
  8
DEFPOINTS
  6
CONTINUOUS
 62
     0
 10
261.03263132415611
 20
240.09690977057551
 30
0.0
  0
POINT
  5
107F
  8
DEFPOINTS
  6
CONTINUOUS
 62
     0
 10
261.03263132415611
 20
260.6722785096627
 30
0.0
  0
ENDBLK
  5
1080
  8
0
  0
BLOCK
  8
0
  2
*D3
 70
     1
 10
0.0
 20
0.0
 30
0.0
  3
*D3
  1

  0
LINE
  5
1083
  8
寸法
  6
CONTINUOUS
 62
     0
 10
218.28263132415611
 20
241.70163960284901
 30
0.0
 11
162.48092179928281
 21
241.70163960284901
 31
0.0
  0
LINE
  5
1084
  8
寸法
  6
CONTINUOUS
 62
     0
 10
218.28263132415611
 20
82.701639602849127
 30
0.0
 11
162.48092179928281
 21
82.701639602849127
 31
0.0
  0
LINE
  5
1085
  8
寸法
  6
CONTINUOUS
 62
     0
 10
164.98092179928281
 20
236.70163960284901
 30
0.0
 11
164.98092179928281
 21
87.701639602849127
 31
0.0
  0
SOLID
  5
1086
  8
寸法
  6
CONTINUOUS
 62
     0
 10
164.14758846594941
 20
236.70163960284901
 30
0.0
 11
165.81425513261601
 21
236.70163960284901
 31
0.0
 12
164.98092179928281
 22
241.70163960284901
 32
0.0
 13
164.98092179928281
 23
241.70163960284901
 33
0.0
  0
SOLID
  5
1087
  8
寸法
  6
CONTINUOUS
 62
     0
 10
164.14758846594941
 20
87.701639602849127
 30
0.0
 11
165.81425513261601
 21
87.701639602849127
 31
0.0
 12
164.98092179928281
 22
82.701639602849127
 32
0.0
 13
164.98092179928281
 23
82.701639602849127
 33
0.0
  0
TEXT
  5
1088
  8
0
 62
     0
 10
163.7309217992827
 20
160.08335872238081
 30
0.0
 40
5.0
  1
159
 50
90.0
  0
POINT
  5
1089
  8
DEFPOINTS
  6
CONTINUOUS
 62
     0
 10
219.5326313241562
 20
241.70163960284901
 30
0.0
  0
POINT
  5
108A
  8
DEFPOINTS
  6
CONTINUOUS
 62
     0
 10
219.5326313241562
 20
82.701639602849127
 30
0.0
  0
POINT
  5
108B
  8
DEFPOINTS
  6
CONTINUOUS
 62
     0
 10
164.98092179928281
 20
82.701639602849127
 30
0.0
  0
ENDBLK
  5
108C
  8
0
  0
BLOCK
  8
0
  2
*D4
 70
     1
 10
0.0
 20
0.0
 30
0.0
  3
*D4
  1

  0
LINE
  5
108F
  8
寸法
  6
CONTINUOUS
 62
     0
 10
199.7826313241562
 20
230.70163960284901
 30
0.0
 11
173.10164929099179
 21
230.70163960284901
 31
0.0
  0
LINE
  5
1090
  8
寸法
  6
CONTINUOUS
 62
     0
 10
217.7826313241562
 20
93.701639602849113
 30
0.0
 11
173.10164929099179
 21
93.701639602849113
 31
0.0
  0
LINE
  5
1091
  8
寸法
  6
CONTINUOUS
 62
     0
 10
175.6016492909919
 20
225.70163960284901
 30
0.0
 11
175.6016492909919
 21
98.701639602849113
 31
0.0
  0
SOLID
  5
1092
  8
寸法
  6
CONTINUOUS
 62
     0
 10
174.7683159576585
 20
225.70163960284901
 30
0.0
 11
176.4349826243251
 21
225.70163960284901
 31
0.0
 12
175.6016492909919
 22
230.70163960284901
 32
0.0
 13
175.6016492909919
 23
230.70163960284901
 33
0.0
  0
SOLID
  5
1093
  8
寸法
  6
CONTINUOUS
 62
     0
 10
174.7683159576585
 20
98.701639602849113
 30
0.0
 11
176.4349826243251
 21
98.701639602849113
 31
0.0
 12
175.6016492909919
 22
93.701639602849113
 32
0.0
 13
175.6016492909919
 23
93.701639602849113
 33
0.0
  0
TEXT
  5
1094
  8
0
 62
     0
 10
174.35164929099179
 20
160.19279652664869
 30
0.0
 40
5.0
  1
137
 50
90.0
  0
POINT
  5
1095
  8
DEFPOINTS
  6
CONTINUOUS
 62
     0
 10
201.0326313241562
 20
230.70163960284901
 30
0.0
  0
POINT
  5
1096
  8
DEFPOINTS
  6
CONTINUOUS
 62
     0
 10
219.0326313241562
 20
93.701639602849113
 30
0.0
  0
POINT
  5
1097
  8
DEFPOINTS
  6
CONTINUOUS
 62
     0
 10
175.6016492909919
 20
93.701639602849113
 30
0.0
  0
ENDBLK
  5
1098
  8
0
  0
BLOCK
  8
0
  2
*D5
 70
     1
 10
0.0
 20
0.0
 30
0.0
  3
*D5
  1

  0
LINE
  5
109B
  8
寸法
  6
CONTINUOUS
 62
     0
 10
443.08256094070151
 20
242.95163960284901
 30
0.0
 11
443.08256094070151
 21
252.5437427864976
 31
0.0
  0
LINE
  5
109C
  8
寸法
  6
CONTINUOUS
 62
     0
 10
333.0825609407014
 20
230.95163960284901
 30
0.0
 11
333.0825609407014
 21
252.5437427864976
 31
0.0
  0
LINE
  5
109D
  8
寸法
  6
CONTINUOUS
 62
     0
 10
438.08256094070163
 20
250.0437427864976
 30
0.0
 11
338.08256094070151
 21
250.0437427864976
 31
0.0
  0
SOLID
  5
109E
  8
寸法
  6
CONTINUOUS
 62
     0
 10
438.08256094070163
 20
250.8770761198308
 30
0.0
 11
438.08256094070163
 21
249.2104094531642
 31
0.0
 12
443.08256094070151
 22
250.0437427864976
 32
0.0
 13
443.08256094070151
 23
250.0437427864976
 33
0.0
  0
SOLID
  5
109F
  8
寸法
  6
CONTINUOUS
 62
     0
 10
338.08256094070151
 20
250.8770761198308
 30
0.0
 11
338.08256094070151
 21
249.2104094531642
 31
0.0
 12
333.0825609407014
 22
250.0437427864976
 32
0.0
 13
333.0825609407014
 23
250.0437427864976
 33
0.0
  0
TEXT
  5
10A0
  8
0
 62
     0
 10
383.49922760736803
 20
251.2937427864974
 30
0.0
 40
5.0
  1
110
  0
POINT
  5
10A1
  8
DEFPOINTS
  6
CONTINUOUS
 62
     0
 10
443.08256094070151
 20
241.70163960284901
 30
0.0
  0
POINT
  5
10A2
  8
DEFPOINTS
  6
CONTINUOUS
 62
     0
 10
333.0825609407014
 20
229.70163960284901
 30
0.0
  0
POINT
  5
10A3
  8
DEFPOINTS
  6
CONTINUOUS
 62
     0
 10
333.0825609407014
 20
250.0437427864976
 30
0.0
  0
ENDBLK
  5
10A4
  8
0
  0
BLOCK
  8
0
  2
*D6
 70
     1
 10
0.0
 20
0.0
 30
0.0
  3
*D6
  1

  0
LINE
  5
10A7
  8
寸法
 62
     0
 10
218.28263132415611
 20
82.701639602849127
 30
0.0
 11
162.48092179928281
 21
82.701639602849127
 31
0.0
  0
LINE
  5
10A8
  8
寸法
 62
     0
 10
255.78263132415611
 20
63.601639602849119
 30
0.0
 11
162.48092179928281
 21
63.60163960284914
 31
0.0
  0
LINE
  5
10A9
  8
寸法
 62
     0
 10
164.98092179928281
 20
77.701639602849127
 30
0.0
 11
164.98092179928281
 21
68.601639602849147
 31
0.0
  0
SOLID
  5
10AA
  8
寸法
 62
     0
 10
164.14758846594941
 20
77.701639602849127
 30
0.0
 11
165.81425513261601
 21
77.701639602849127
 31
0.0
 12
164.98092179928281
 22
82.701639602849127
 32
0.0
 13
164.98092179928281
 23
82.701639602849127
 33
0.0
  0
SOLID
  5
10AB
  8
寸法
 62
     0
 10
164.14758846594941
 20
68.601639602849147
 30
0.0
 11
165.81425513261601
 21
68.601639602849147
 31
0.0
 12
164.9809217992825
 22
63.60163960284914
 32
0.0
 13
164.9809217992825
 23
63.60163960284914
 33
0.0
  0
TEXT
  5
10AC
  8
0
 62
     0
 10
163.7309217992827
 20
66.06830626951583
 30
0.0
 40
5.0
  1
(20)
 50
90.0
  0
POINT
  5
10AD
  8
DEFPOINTS
 62
     0
 10
219.5326313241562
 20
82.701639602849127
 30
0.0
  0
POINT
  5
10AE
  8
DEFPOINTS
 62
     0
 10
257.03263132415611
 20
63.601639602849119
 30
0.0
  0
POINT
  5
10AF
  8
DEFPOINTS
 62
     0
 10
164.9809217992825
 20
63.60163960284914
 30
0.0
  0
ENDBLK
  5
10B0
  8
0
  0
BLOCK
  8
0
  2
*D7
 70
     1
 10
0.0
 20
0.0
 30
0.0
  3
*D7
  1

  0
LINE
  5
10B3
  8
寸法
 62
     0
 10
218.0326313241562
 20
241.45163960284901
 30
0.0
 11
218.0326313241562
 21
263.1722785096627
 31
0.0
  0
LINE
  5
10B4
  8
寸法
 62
     0
 10
201.0326313241562
 20
231.95163960284901
 30
0.0
 11
201.0326313241562
 21
263.1722785096627
 31
0.0
  0
LINE
  5
10B5
  8
寸法
 62
     0
 10
213.0326313241562
 20
260.6722785096627
 30
0.0
 11
206.03263132415611
 21
260.6722785096627
 31
0.0
  0
SOLID
  5
10B6
  8
寸法
 62
     0
 10
213.0326313241562
 20
261.5056118429959
 30
0.0
 11
213.0326313241562
 21
259.83894517632928
 31
0.0
 12
218.0326313241562
 22
260.6722785096627
 32
0.0
 13
218.0326313241562
 23
260.6722785096627
 33
0.0
  0
SOLID
  5
10B7
  8
寸法
 62
     0
 10
206.03263132415611
 20
261.5056118429959
 30
0.0
 11
206.03263132415611
 21
259.83894517632928
 31
0.0
 12
201.0326313241562
 22
260.6722785096627
 32
0.0
 13
201.0326313241562
 23
260.6722785096627
 33
0.0
  0
TEXT
  5
10B8
  8
0
 62
     0
 10
202.86596465748951
 20
261.92227850966248
 30
0.0
 40
5.0
  1
(17)
  0
POINT
  5
10B9
  8
DEFPOINTS
 62
     0
 10
218.0326313241562
 20
240.20163960284901
 30
0.0
  0
POINT
  5
10BA
  8
DEFPOINTS
 62
     0
 10
201.0326313241562
 20
230.70163960284901
 30
0.0
  0
POINT
  5
10BB
  8
DEFPOINTS
 62
     0
 10
201.0326313241562
 20
260.6722785096627
 30
0.0
  0
ENDBLK
  5
10BC
  8
0
  0
BLOCK
  8
0
  2
*D8
 70
     1
 10
0.0
 20
0.0
 30
0.0
  3
*D8
  1

  0
LINE
  5
10BF
  8
寸法
 62
     0
 10
199.7826313241562
 20
230.70163960284901
 30
0.0
 11
183.03198765792541
 21
230.70163960284901
 31
0.0
  0
LINE
  5
10C0
  8
寸法
 62
     0
 10
199.7826313241562
 20
178.70163960284901
 30
0.0
 11
183.03198765792541
 21
178.70163960284901
 31
0.0
  0
LINE
  5
10C1
  8
寸法
 62
     0
 10
185.5319876579255
 20
225.70163960284901
 30
0.0
 11
185.5319876579255
 21
183.70163960284901
 31
0.0
  0
SOLID
  5
10C2
  8
寸法
 62
     0
 10
184.69865432459201
 20
225.70163960284901
 30
0.0
 11
186.3653209912589
 21
225.70163960284901
 31
0.0
 12
185.5319876579255
 22
230.70163960284901
 32
0.0
 13
185.5319876579255
 23
230.70163960284901
 33
0.0
  0
SOLID
  5
10C3
  8
寸法
 62
     0
 10
184.69865432459201
 20
183.70163960284901
 30
0.0
 11
186.3653209912589
 21
183.70163960284901
 31
0.0
 12
185.5319876579255
 22
178.70163960284901
 32
0.0
 13
185.5319876579255
 23
178.70163960284901
 33
0.0
  0
TEXT
  5
10C4
  8
0
 62
     0
 10
184.28198765792541
 20
197.20163960284901
 30
0.0
 40
5.0
  1
(52)
 50
90.0
  0
POINT
  5
10C5
  8
DEFPOINTS
 62
     0
 10
201.0326313241562
 20
230.70163960284901
 30
0.0
  0
POINT
  5
10C6
  8
DEFPOINTS
 62
     0
 10
201.0326313241562
 20
178.70163960284901
 30
0.0
  0
POINT
  5
10C7
  8
DEFPOINTS
 62
     0
 10
185.5319876579255
 20
178.70163960284901
 30
0.0
  0
ENDBLK
  5
10C8
  8
0
  0
BLOCK
  8
0
  2
*D9
 70
     1
 10
0.0
 20
0.0
 30
0.0
  3
*D9
  1

  0
LINE
  5
10CB
  8
寸法
 62
     0
 10
1.527780121086832
 20
242.95163960284901
 30
0.0
 11
1.527780121086834
 21
263.14217159284613
 31
0.0
  0
LINE
  5
10CC
  8
寸法
 62
     0
 10
27.527780121087051
 20
231.95163960284901
 30
0.0
 11
27.527780121087051
 21
263.14217159284613
 31
0.0
  0
LINE
  5
10CD
  8
寸法
 62
     0
 10
6.5277801210868329
 20
260.64217159284613
 30
0.0
 11
22.527780121087051
 21
260.64217159284613
 31
0.0
  0
SOLID
  5
10CE
  8
寸法
 62
     0
 10
6.5277801210868329
 20
261.47550492617933
 30
0.0
 11
6.5277801210868329
 21
259.80883825951281
 31
0.0
 12
1.5277801210868329
 22
260.64217159284613
 32
0.0
 13
1.5277801210868329
 23
260.64217159284613
 33
0.0
  0
SOLID
  5
10CF
  8
寸法
 62
     0
 10
22.527780121087051
 20
261.47550492617933
 30
0.0
 11
22.527780121087051
 21
259.80883825951281
 31
0.0
 12
27.527780121087051
 22
260.64217159284613
 32
0.0
 13
27.527780121087051
 23
260.64217159284613
 33
0.0
  0
TEXT
  5
10D0
  8
0
 62
     0
 10
7.027780121086951
 20
261.89217159284613
 30
0.0
 40
5.0
  1
(26)
  0
POINT
  5
10D1
  8
DEFPOINTS
 62
     0
 10
1.527780121086832
 20
241.70163960284901
 30
0.0
  0
POINT
  5
10D2
  8
DEFPOINTS
 62
     0
 10
27.527780121087051
 20
230.70163960284901
 30
0.0
  0
POINT
  5
10D3
  8
DEFPOINTS
 62
     0
 10
27.527780121087051
 20
260.64217159284613
 30
0.0
  0
ENDBLK
  5
10D4
  8
0
  0
BLOCK
  8
0
  2
*D10
 70
     1
 10
0.0
 20
0.0
 30
0.0
  3
*D10
  1

  0
LINE
  5
10D7
  8
寸法
  6
CONTINUOUS
 62
     0
 10
441.55478056977182
 20
179.34999992395899
 30
0.0
 11
441.55478056977182
 21
188.94210310760769
 31
0.0
  0
LINE
  5
10D8
  8
寸法
  6
CONTINUOUS
 62
     0
 10
331.55478056977182
 20
167.3499999239591
 30
0.0
 11
331.55478056977182
 21
188.94210310760769
 31
0.0
  0
LINE
  5
10D9
  8
寸法
  6
CONTINUOUS
 62
     0
 10
436.55478056977182
 20
186.44210310760761
 30
0.0
 11
336.55478056977182
 21
186.44210310760761
 31
0.0
  0
SOLID
  5
10DA
  8
寸法
  6
CONTINUOUS
 62
     0
 10
436.55478056977182
 20
187.27543644094089
 30
0.0
 11
436.55478056977182
 21
185.60876977427429
 31
0.0
 12
441.55478056977182
 22
186.44210310760761
 32
0.0
 13
441.55478056977182
 23
186.44210310760761
 33
0.0
  0
SOLID
  5
10DB
  8
寸法
  6
CONTINUOUS
 62
     0
 10
336.55478056977182
 20
187.27543644094089
 30
0.0
 11
336.55478056977182
 21
185.60876977427429
 31
0.0
 12
331.55478056977182
 22
186.44210310760761
 32
0.0
 13
331.55478056977182
 23
186.44210310760761
 33
0.0
  0
TEXT
  5
10DC
  8
0
 62
     0
 10
381.97144723643851
 20
187.69210310760761
 30
0.0
 40
5.0
  1
110
  0
POINT
  5
10DD
  8
DEFPOINTS
  6
CONTINUOUS
 62
     0
 10
441.55478056977182
 20
178.09999992395899
 30
0.0
  0
POINT
  5
10DE
  8
DEFPOINTS
  6
CONTINUOUS
 62
     0
 10
331.55478056977182
 20
166.09999992395899
 30
0.0
  0
POINT
  5
10DF
  8
DEFPOINTS
  6
CONTINUOUS
 62
     0
 10
331.55478056977182
 20
186.44210310760761
 30
0.0
  0
ENDBLK
  5
10E0
  8
0
  0
BLOCK
  8
0
  2
*D11
 70
     1
 10
0.0
 20
0.0
 30
0.0
  3
*D11
  1

  0
LINE
  5
10E3
  8
寸法
 62
     0
 10
216.75485095322639
 20
19.099999923959199
 30
0.0
 11
160.95314142835301
 21
19.099999923959231
 31
0.0
  0
LINE
  5
10E4
  8
寸法
 62
     0
 10
254.25485095322631
 20
-0.0000000760407911
 30
0.0
 11
160.95314142835301
 21
-0.0000000760407647
 31
0.0
  0
LINE
  5
10E5
  8
寸法
 62
     0
 10
163.45314142835301
 20
14.09999992395923
 30
0.0
 11
163.45314142835301
 21
4.9999999239592334
 31
0.0
  0
SOLID
  5
10E6
  8
寸法
 62
     0
 10
162.61980809501949
 20
14.09999992395923
 30
0.0
 11
164.28647476168621
 21
14.09999992395923
 31
0.0
 12
163.45314142835301
 22
19.099999923959231
 32
0.0
 13
163.45314142835301
 23
19.099999923959231
 33
0.0
  0
SOLID
  5
10E7
  8
寸法
 62
     0
 10
162.61980809501949
 20
4.9999999239592334
 30
0.0
 11
164.28647476168621
 21
4.9999999239592334
 31
0.0
 12
163.45314142835301
 22
-0.0000000760407654
 32
0.0
 13
163.45314142835301
 23
-0.0000000760407654
 33
0.0
  0
TEXT
  5
10E8
  8
0
 62
     0
 10
162.20314142835301
 20
2.4666665906259251
 30
0.0
 40
5.0
  1
(20)
 50
90.0
  0
POINT
  5
10E9
  8
DEFPOINTS
 62
     0
 10
218.00485095322651
 20
19.099999923959199
 30
0.0
  0
POINT
  5
10EA
  8
DEFPOINTS
 62
     0
 10
255.50485095322651
 20
-0.0000000760407914
 30
0.0
  0
POINT
  5
10EB
  8
DEFPOINTS
 62
     0
 10
163.45314142835301
 20
-0.0000000760407654
 30
0.0
  0
ENDBLK
  5
10EC
  8
0
  0
BLOCK
  8
0
  2
*D12
 70
     1
 10
0.0
 20
0.0
 30
0.0
  3
*D12
  1

  0
LINE
  5
10EF
  8
寸法
 62
     0
 10
216.50485095322639
 20
177.84999992395899
 30
0.0
 11
216.50485095322639
 21
199.57063883077271
 31
0.0
  0
LINE
  5
10F0
  8
寸法
 62
     0
 10
199.50485095322639
 20
168.3499999239591
 30
0.0
 11
199.50485095322639
 21
199.57063883077271
 31
0.0
  0
LINE
  5
10F1
  8
寸法
 62
     0
 10
211.50485095322639
 20
197.07063883077279
 30
0.0
 11
204.50485095322639
 21
197.07063883077279
 31
0.0
  0
SOLID
  5
10F2
  8
寸法
 62
     0
 10
211.50485095322639
 20
197.90397216410611
 30
0.0
 11
211.50485095322639
 21
196.23730549743939
 31
0.0
 12
216.50485095322639
 22
197.07063883077279
 32
0.0
 13
216.50485095322639
 23
197.07063883077279
 33
0.0
  0
SOLID
  5
10F3
  8
寸法
 62
     0
 10
204.50485095322639
 20
197.90397216410611
 30
0.0
 11
204.50485095322639
 21
196.23730549743939
 31
0.0
 12
199.50485095322639
 22
197.07063883077279
 32
0.0
 13
199.50485095322639
 23
197.07063883077279
 33
0.0
  0
TEXT
  5
10F4
  8
0
 62
     0
 10
201.33818428655971
 20
198.32063883077279
 30
0.0
 40
5.0
  1
(17)
  0
POINT
  5
10F5
  8
DEFPOINTS
 62
     0
 10
216.50485095322639
 20
176.59999992395899
 30
0.0
  0
POINT
  5
10F6
  8
DEFPOINTS
 62
     0
 10
199.50485095322639
 20
167.09999992395899
 30
0.0
  0
POINT
  5
10F7
  8
DEFPOINTS
 62
     0
 10
199.50485095322639
 20
197.07063883077279
 30
0.0
  0
ENDBLK
  5
10F8
  8
0
  0
BLOCK
  8
0
  2
*D13
 70
     1
 10
0.0
 20
0.0
 30
0.0
  3
*D13
  1

  0
LINE
  5
10FB
  8
寸法
 62
     0
 10
198.25485095322631
 20
167.09999992395899
 30
0.0
 11
181.50420728699581
 21
167.09999992395899
 31
0.0
  0
LINE
  5
10FC
  8
寸法
 62
     0
 10
198.25485095322631
 20
115.099999923959
 30
0.0
 11
181.50420728699581
 21
115.099999923959
 31
0.0
  0
LINE
  5
10FD
  8
寸法
 62
     0
 10
184.00420728699561
 20
162.0999999239591
 30
0.0
 11
184.00420728699561
 21
120.099999923959
 31
0.0
  0
SOLID
  5
10FE
  8
寸法
 62
     0
 10
183.17087395366241
 20
162.0999999239591
 30
0.0
 11
184.83754062032901
 21
162.0999999239591
 31
0.0
 12
184.00420728699561
 22
167.09999992395899
 32
0.0
 13
184.00420728699561
 23
167.09999992395899
 33
0.0
  0
SOLID
  5
10FF
  8
寸法
 62
     0
 10
183.17087395366241
 20
120.099999923959
 30
0.0
 11
184.83754062032901
 21
120.099999923959
 31
0.0
 12
184.00420728699561
 22
115.099999923959
 32
0.0
 13
184.00420728699561
 23
115.099999923959
 33
0.0
  0
TEXT
  5
1100
  8
0
 62
     0
 10
182.75420728699561
 20
133.5999999239591
 30
0.0
 40
5.0
  1
(52)
 50
90.0
  0
POINT
  5
1101
  8
DEFPOINTS
 62
     0
 10
199.50485095322639
 20
167.09999992395899
 30
0.0
  0
POINT
  5
1102
  8
DEFPOINTS
 62
     0
 10
199.50485095322639
 20
115.099999923959
 30
0.0
  0
POINT
  5
1103
  8
DEFPOINTS
 62
     0
 10
184.00420728699561
 20
115.099999923959
 30
0.0
  0
ENDBLK
  5
1104
  8
0
  0
BLOCK
  8
0
  2
*D14
 70
     1
 10
0.0
 20
0.0
 30
0.0
  3
*D14
  1

  0
LINE
  5
1107
  8
寸法
 62
     0
 10
-0.0000002498428563
 20
179.34999992395899
 30
0.0
 11
-0.0000002498428551
 21
199.5405319139561
 31
0.0
  0
LINE
  5
1108
  8
寸法
 62
     0
 10
25.999999750157361
 20
168.3499999239591
 30
0.0
 11
25.999999750157372
 21
199.5405319139561
 31
0.0
  0
LINE
  5
1109
  8
寸法
 62
     0
 10
4.9999997501571452
 20
197.0405319139561
 30
0.0
 11
20.999999750157361
 21
197.0405319139561
 31
0.0
  0
SOLID
  5
110A
  8
寸法
 62
     0
 10
4.9999997501571452
 20
197.8738652472895
 30
0.0
 11
4.9999997501571452
 21
196.2071985806229
 31
0.0
 12
-0.0000002498428552
 22
197.0405319139561
 32
0.0
 13
-0.0000002498428552
 23
197.0405319139561
 33
0.0
  0
SOLID
  5
110B
  8
寸法
 62
     0
 10
20.999999750157361
 20
197.8738652472895
 30
0.0
 11
20.999999750157361
 21
196.2071985806229
 31
0.0
 12
25.999999750157372
 22
197.0405319139561
 32
0.0
 13
25.999999750157372
 23
197.0405319139561
 33
0.0
  0
TEXT
  5
110C
  8
0
 62
     0
 10
5.4999997501572571
 20
198.2905319139561
 30
0.0
 40
5.0
  1
(26)
  0
POINT
  5
110D
  8
DEFPOINTS
 62
     0
 10
-0.0000002498428564
 20
178.09999992395899
 30
0.0
  0
POINT
  5
110E
  8
DEFPOINTS
 62
     0
 10
25.999999750157361
 20
167.09999992395899
 30
0.0
  0
POINT
  5
110F
  8
DEFPOINTS
 62
     0
 10
25.999999750157372
 20
197.0405319139561
 30
0.0
  0
ENDBLK
  5
1110
  8
0
  0
BLOCK
  8
0
  2
*D15
 70
     1
 10
0.0
 20
0.0
 30
0.0
  3
*D15
  1

  0
LINE
  5
1113
  8
寸法
  6
CONTINUOUS
 62
     0
 10
216.50485095322639
 20
177.84999992395899
 30
0.0
 11
216.50485095322639
 21
199.57063883077271
 31
0.0
  0
LINE
  5
1114
  8
寸法
  6
CONTINUOUS
 62
     0
 10
259.50485095322648
 20
177.74527009168551
 30
0.0
 11
259.50485095322648
 21
199.57063883077271
 31
0.0
  0
LINE
  5
1115
  8
寸法
  6
CONTINUOUS
 62
     0
 10
221.50485095322639
 20
197.07063883077279
 30
0.0
 11
254.50485095322631
 21
197.07063883077279
 31
0.0
  0
SOLID
  5
1116
  8
寸法
  6
CONTINUOUS
 62
     0
 10
221.50485095322639
 20
197.90397216410611
 30
0.0
 11
221.50485095322639
 21
196.23730549743939
 31
0.0
 12
216.50485095322639
 22
197.07063883077279
 32
0.0
 13
216.50485095322639
 23
197.07063883077279
 33
0.0
  0
SOLID
  5
1117
  8
寸法
  6
CONTINUOUS
 62
     0
 10
254.50485095322631
 20
197.90397216410611
 30
0.0
 11
254.50485095322631
 21
196.23730549743939
 31
0.0
 12
259.50485095322648
 22
197.07063883077279
 32
0.0
 13
259.50485095322648
 23
197.07063883077279
 33
0.0
  0
TEXT
  5
1118
  8
0
 62
     0
 10
234.9113632348334
 20
198.32063883077279
 30
0.0
 40
5.0
  1
43
  0
POINT
  5
1119
  8
DEFPOINTS
  6
CONTINUOUS
 62
     0
 10
216.50485095322639
 20
176.59999992395899
 30
0.0
  0
POINT
  5
111A
  8
DEFPOINTS
  6
CONTINUOUS
 62
     0
 10
259.50485095322648
 20
176.4952700916856
 30
0.0
  0
POINT
  5
111B
  8
DEFPOINTS
  6
CONTINUOUS
 62
     0
 10
259.50485095322648
 20
197.07063883077279
 30
0.0
  0
ENDBLK
  5
111C
  8
0
  0
BLOCK
  8
0
  2
*D16
 70
     1
 10
0.0
 20
0.0
 30
0.0
  3
*D16
  1

  0
LINE
  5
111F
  8
寸法
  6
CONTINUOUS
 62
     0
 10
216.75485095322639
 20
178.09999992395899
 30
0.0
 11
160.95314142835301
 21
178.09999992395899
 31
0.0
  0
LINE
  5
1120
  8
寸法
  6
CONTINUOUS
 62
     0
 10
216.75485095322639
 20
19.099999923959199
 30
0.0
 11
160.95314142835301
 21
19.099999923959231
 31
0.0
  0
LINE
  5
1121
  8
寸法
  6
CONTINUOUS
 62
     0
 10
163.45314142835301
 20
173.09999992395899
 30
0.0
 11
163.45314142835301
 21
24.099999923959231
 31
0.0
  0
SOLID
  5
1122
  8
寸法
  6
CONTINUOUS
 62
     0
 10
162.61980809501969
 20
173.09999992395899
 30
0.0
 11
164.28647476168621
 21
173.09999992395899
 31
0.0
 12
163.45314142835301
 22
178.09999992395899
 32
0.0
 13
163.45314142835301
 23
178.09999992395899
 33
0.0
  0
SOLID
  5
1123
  8
寸法
  6
CONTINUOUS
 62
     0
 10
162.61980809501949
 20
24.099999923959231
 30
0.0
 11
164.28647476168621
 21
24.099999923959231
 31
0.0
 12
163.45314142835301
 22
19.099999923959231
 32
0.0
 13
163.45314142835301
 23
19.099999923959231
 33
0.0
  0
TEXT
  5
1124
  8
0
 62
     0
 10
162.20314142835301
 20
96.481719043490941
 30
0.0
 40
5.0
  1
159
 50
90.0
  0
POINT
  5
1125
  8
DEFPOINTS
  6
CONTINUOUS
 62
     0
 10
218.00485095322651
 20
178.09999992395899
 30
0.0
  0
POINT
  5
1126
  8
DEFPOINTS
  6
CONTINUOUS
 62
     0
 10
218.00485095322651
 20
19.099999923959199
 30
0.0
  0
POINT
  5
1127
  8
DEFPOINTS
  6
CONTINUOUS
 62
     0
 10
163.45314142835301
 20
19.099999923959231
 30
0.0
  0
ENDBLK
  5
1128
  8
0
  0
BLOCK
  8
0
  2
*D17
 70
     1
 10
0.0
 20
0.0
 30
0.0
  3
*D17
  1

  0
LINE
  5
112B
  8
寸法
  6
CONTINUOUS
 62
     0
 10
198.25485095322631
 20
167.09999992395899
 30
0.0
 11
171.5738689200621
 21
167.09999992395899
 31
0.0
  0
LINE
  5
112C
  8
寸法
  6
CONTINUOUS
 62
     0
 10
216.25485095322639
 20
30.09999992395921
 30
0.0
 11
171.5738689200621
 21
30.099999923959231
 31
0.0
  0
LINE
  5
112D
  8
寸法
  6
CONTINUOUS
 62
     0
 10
174.07386892006201
 20
162.0999999239591
 30
0.0
 11
174.07386892006201
 21
35.099999923959238
 31
0.0
  0
SOLID
  5
112E
  8
寸法
  6
CONTINUOUS
 62
     0
 10
173.24053558672881
 20
162.0999999239591
 30
0.0
 11
174.9072022533955
 21
162.0999999239591
 31
0.0
 12
174.07386892006201
 22
167.09999992395899
 32
0.0
 13
174.07386892006201
 23
167.09999992395899
 33
0.0
  0
SOLID
  5
112F
  8
寸法
  6
CONTINUOUS
 62
     0
 10
173.24053558672861
 20
35.099999923959238
 30
0.0
 11
174.90720225339541
 21
35.099999923959238
 31
0.0
 12
174.07386892006201
 22
30.099999923959231
 32
0.0
 13
174.07386892006201
 23
30.099999923959231
 33
0.0
  0
TEXT
  5
1130
  8
0
 62
     0
 10
172.8238689200621
 20
96.591156847758853
 30
0.0
 40
5.0
  1
137
 50
90.0
  0
POINT
  5
1131
  8
DEFPOINTS
  6
CONTINUOUS
 62
     0
 10
199.50485095322639
 20
167.09999992395899
 30
0.0
  0
POINT
  5
1132
  8
DEFPOINTS
  6
CONTINUOUS
 62
     0
 10
217.50485095322639
 20
30.09999992395921
 30
0.0
  0
POINT
  5
1133
  8
DEFPOINTS
  6
CONTINUOUS
 62
     0
 10
174.07386892006201
 20
30.099999923959231
 30
0.0
  0
ENDBLK
  5
1134
  8
0
  0
BLOCK
  8
0
  2
*D18
 70
     1
 10
0.0
 20
0.0
 30
0.0
  3
*D18
  1

  0
LINE
  5
18B1
  8
0
 62
     0
 10
331.55478056977182
 20
189.56710310760761
 30
0.0
 11
331.55478056977182
 21
206.27434748228819
 31
0.0
  0
LINE
  5
18B2
  8
0
 62
     0
 10
441.55478056977182
 20
187.06710310760761
 30
0.0
 11
441.55478056977182
 21
206.27434748228819
 31
0.0
  0
LINE
  5
18B3
  8
0
 62
     0
 10
334.05478056977182
 20
205.02434748228819
 30
0.0
 11
439.05478056977182
 21
205.02434748228819
 31
0.0
  0
SOLID
  5
18B4
  8
0
 62
     0
 10
334.05478056977182
 20
205.44101414895491
 30
0.0
 11
334.05478056977182
 21
204.60768081562151
 31
0.0
 12
331.55478056977182
 22
205.02434748228819
 32
0.0
 13
331.55478056977182
 23
205.02434748228819
 33
0.0
  0
SOLID
  5
18B5
  8
0
 62
     0
 10
439.05478056977182
 20
205.44101414895491
 30
0.0
 11
439.05478056977182
 21
204.60768081562151
 31
0.0
 12
441.55478056977182
 22
205.02434748228819
 32
0.0
 13
441.55478056977182
 23
205.02434748228819
 33
0.0
  0
TEXT
  5
18B6
  8
0
 62
     0
 10
384.26311390310508
 20
205.64934748228819
 30
0.0
 40
2.5
  1
110
  0
POINT
  5
18B7
  8
DEFPOINTS
 62
     0
 10
331.55478056977182
 20
188.94210310760769
 30
0.0
  0
POINT
  5
18B8
  8
DEFPOINTS
 62
     0
 10
441.55478056977182
 20
186.44210310760761
 30
0.0
  0
POINT
  5
18B9
  8
DEFPOINTS
 62
     0
 10
441.55478056977182
 20
205.02434748228819
 30
0.0
  0
ENDBLK
  5
18BB
  8
0
  0
BLOCK
  8
0
  2
*D19
 70
     1
 10
0.0
 20
0.0
 30
0.0
  3
*D19
  1

  0
LINE
  5
18BE
  8
0
 62
     0
 10
160.32814142835301
 20
178.09999992395899
 30
0.0
 11
137.13785861762929
 21
178.09999992395899
 31
0.0
  0
LINE
  5
18BF
  8
0
 62
     0
 10
160.32814142835301
 20
19.099999923959231
 30
0.0
 11
137.13785861762921
 21
19.099999923959231
 31
0.0
  0
LINE
  5
18C0
  8
0
 62
     0
 10
138.38785861762929
 20
175.59999992395899
 30
0.0
 11
138.38785861762921
 21
21.599999923959238
 31
0.0
  0
SOLID
  5
18C1
  8
0
 62
     0
 10
137.97119195096261
 20
175.59999992395899
 30
0.0
 11
138.80452528429589
 21
175.59999992395899
 31
0.0
 12
138.38785861762929
 22
178.09999992395899
 32
0.0
 13
138.38785861762929
 23
178.09999992395899
 33
0.0
  0
SOLID
  5
18C2
  8
0
 62
     0
 10
137.97119195096261
 20
21.599999923959238
 30
0.0
 11
138.80452528429589
 21
21.599999923959238
 31
0.0
 12
138.38785861762921
 22
19.099999923959231
 32
0.0
 13
138.38785861762921
 23
19.099999923959231
 33
0.0
  0
TEXT
  5
18C3
  8
0
 62
     0
 10
137.76285861762921
 20
95.683333257292503
 30
0.0
 40
2.5
  1
159
 50
90.0
  0
POINT
  5
18C4
  8
DEFPOINTS
 62
     0
 10
160.95314142835301
 20
178.09999992395899
 30
0.0
  0
POINT
  5
18C5
  8
DEFPOINTS
 62
     0
 10
160.95314142835301
 20
19.099999923959231
 30
0.0
  0
POINT
  5
18C6
  8
DEFPOINTS
 62
     0
 10
138.38785861762921
 20
19.099999923959231
 30
0.0
  0
ENDBLK
  5
18C8
  8
0
  0
ENDSEC
  0
SECTION
  2
ENTITIES
  0
LINE
  5
1136
  8
LAYER4
  6
CONTINUOUS
 10
243.55485095322641
 20
158.89999992395909
 30
0.0
 11
251.00485095322639
 21
158.89999992395909
 31
0.0
  0
LINE
  5
1137
  8
LAYER4
  6
CONTINUOUS
 10
251.00485095322639
 20
148.89999992395909
 30
0.0
 11
243.55485095322641
 21
148.89999992395909
 31
0.0
  0
LINE
  5
1138
  8
LAYER4
  6
CONTINUOUS
 10
243.55485095322641
 20
146.89999992395909
 30
0.0
 11
251.00485095322639
 21
146.89999992395909
 31
0.0
  0
LINE
  5
1139
  8
LAYER4
  6
CONTINUOUS
 10
251.00485095322639
 20
136.899999923959
 30
0.0
 11
243.55485095322641
 21
136.899999923959
 31
0.0
  0
POLYLINE
  5
113A
  8
LAYER3
 66
     1
 10
0.0
 20
0.0
 30
0.0
 70
     1
  0
VERTEX
  5
18D0
  8
LAYER3
 10
241.0048509532256
 20
159.9199999239591
 30
0.0
  0
VERTEX
  5
18D1
  8
LAYER3
 10
251.50485095322671
 20
159.9199999239591
 30
0.0
  0
VERTEX
  5
18D2
  8
LAYER3
 10
251.50485095322671
 20
135.91999992395921
 30
0.0
  0
VERTEX
  5
18D3
  8
LAYER3
 10
241.0048509532256
 20
135.91999992395921
 30
0.0
  0
SEQEND
  5
18D4
  8
LAYER3
  0
ARC
  5
1140
  8
LAYER3
 10
246.00485095322671
 20
98.119999923959213
 30
0.0
 40
1.5
 50
90.0
 51
270.0
  0
POLYLINE
  5
1141
  8
LAYER3
 66
     1
 10
0.0
 20
0.0
 30
0.0
 70
     1
  0
VERTEX
  5
18D5
  8
LAYER3
 10
244.50485095322659
 20
125.41999992396001
 30
0.0
  0
VERTEX
  5
18D6
  8
LAYER3
 10
251.50485095322671
 20
125.41999992396001
 30
0.0
  0
VERTEX
  5
18D7
  8
LAYER3
 10
251.50485095322671
 20
103.4199999239584
 30
0.0
  0
VERTEX
  5
18D8
  8
LAYER3
 10
244.50485095322659
 20
103.4199999239584
 30
0.0
  0
SEQEND
  5
18D9
  8
LAYER3
  0
ARC
  5
1147
  8
LAYER3
 10
246.00485095322671
 20
128.11999992395911
 30
0.0
 40
1.5
 50
90.0
 51
270.0
  0
POLYLINE
  5
1148
  8
LAYER3
 66
     1
 10
0.0
 20
0.0
 30
0.0
 70
     1
  0
VERTEX
  5
18DA
  8
LAYER3
 10
244.50485095322659
 20
53.91999992395921
 30
0.0
  0
VERTEX
  5
18DB
  8
LAYER3
 10
251.50485095322671
 20
53.91999992395921
 30
0.0
  0
VERTEX
  5
18DC
  8
LAYER3
 10
251.50485095322671
 20
39.919999923957683
 30
0.0
  0
VERTEX
  5
18DD
  8
LAYER3
 10
244.50485095322659
 20
39.919999923957683
 30
0.0
  0
SEQEND
  5
18DE
  8
LAYER3
  0
POLYLINE
  5
114E
  8
LAYER3
 66
     1
 10
0.0
 20
0.0
 30
0.0
 70
     1
  0
VERTEX
  5
18DF
  8
LAYER3
 10
244.50485095322659
 20
95.419999923960006
 30
0.0
  0
VERTEX
  5
18E0
  8
LAYER3
 10
251.50485095322671
 20
95.419999923960006
 30
0.0
  0
VERTEX
  5
18E1
  8
LAYER3
 10
251.50485095322671
 20
73.4199999239585
 30
0.0
  0
VERTEX
  5
18E2
  8
LAYER3
 10
244.50485095322659
 20
73.4199999239585
 30
0.0
  0
SEQEND
  5
18E3
  8
LAYER3
  0
LINE
  5
1154
  8
LAYER4
  6
CONTINUOUS
 10
249.80485095322641
 20
137.29999992395901
 30
0.0
 11
244.30485095322641
 21
137.29999992395901
 31
0.0
  0
LINE
  5
1155
  8
LAYER4
  6
CONTINUOUS
 10
249.80485095322641
 20
149.29999992395901
 30
0.0
 11
244.30485095322641
 21
149.29999992395901
 31
0.0
  0
LINE
  5
1156
  8
LAYER4
  6
CONTINUOUS
 10
244.30485095322641
 20
158.49999992395911
 30
0.0
 11
246.30485095322641
 21
158.49999992395911
 31
0.0
  0
LINE
  5
1157
  8
LAYER4
  6
CONTINUOUS
 10
244.30485095322641
 20
146.49999992395911
 30
0.0
 11
246.30485095322641
 21
146.49999992395911
 31
0.0
  0
LINE
  5
1158
  8
LAYER1
  6
CONTINUOUS
 10
249.26866647493671
 20
19.152365118744221
 30
0.0
 11
248.25485095322631
 21
19.1523651187442
 31
0.0
  0
LINE
  5
1159
  8
LAYER1
  6
CONTINUOUS
 10
258.00485095322631
 20
178.04763472917401
 30
0.0
 11
218.00485095322651
 21
178.04763472917401
 31
0.0
  0
LINE
  5
115A
  8
LAYER1
  6
CONTINUOUS
 10
249.30001413023109
 20
19.099999923959199
 30
0.0
 11
248.25485095322639
 21
19.099999923959231
 31
0.0
  0
LINE
  5
115B
  8
LAYER1
  6
CONTINUOUS
 10
258.00485095322631
 20
178.09999992395899
 30
0.0
 11
218.00485095322651
 21
178.09999992395899
 31
0.0
  0
LINE
  5
115C
  8
LAYER2
  6
CONTINUOUS
 10
258.50485095322631
 20
30.09999992395921
 30
0.0
 11
217.50485095322639
 21
30.09999992395921
 31
0.0
  0
LINE
  5
115D
  8
LAYER2
  6
CONTINUOUS
 10
258.50485095322631
 20
167.09999992395899
 30
0.0
 11
217.50485095322639
 21
167.09999992395899
 31
0.0
  0
LINE
  5
115E
  8
LAYER2
  6
CONTINUOUS
 10
222.50754795322641
 20
35.59999992395921
 30
0.0
 11
253.5021539532263
 21
35.59999992395921
 31
0.0
  0
LINE
  5
115F
  8
LAYER2
  6
CONTINUOUS
 10
253.50485095322651
 20
36.599999923959189
 30
0.0
 11
222.50485095322639
 21
36.599999923959189
 31
0.0
  0
LINE
  5
1160
  8
LAYER2
  6
CONTINUOUS
 10
222.50754795322641
 20
162.01999992395909
 30
0.0
 11
253.5021539532263
 21
162.01999992395909
 31
0.0
  0
LINE
  5
1161
  8
LAYER2
  6
CONTINUOUS
 10
222.50485095322639
 20
161.01999992395909
 30
0.0
 11
253.50485095322651
 21
161.01999992395909
 31
0.0
  0
LINE
  5
1164
  8
LAYER2
  6
CONTINUOUS
 10
82.524133507732245
 20
107.8487634310149
 30
0.0
 11
78.362414398840045
 21
87.848764924493196
 31
0.0
  0
LINE
  5
1165
  8
LAYER2
  6
CONTINUOUS
 10
71.153932128148313
 20
87.848764924493196
 30
0.0
 11
74.840556825074259
 21
104.88581244747
 31
0.0
  0
LINE
  5
1166
  8
LAYER2
  6
CONTINUOUS
 10
61.50822981023942
 20
107.8166195558321
 30
0.0
 11
65.385177995287336
 21
87.816700416903089
 31
0.0
  0
LINE
  5
1167
  8
LAYER2
  6
CONTINUOUS
 10
29.475786727768408
 20
87.848764924493196
 30
0.0
 11
33.162411424694362
 21
104.88581244747
 31
0.0
  0
LINE
  5
1168
  8
LAYER2
  6
CONTINUOUS
 10
40.845988107352341
 20
107.8487634310149
 30
0.0
 11
36.68426899846019
 21
87.848764924493196
 31
0.0
  0
LINE
  5
1169
  8
LAYER2
  6
CONTINUOUS
 10
40.694475372230357
 20
87.819240179881149
 30
0.0
 11
53.84346324713227
 21
105.74353802550399
 31
0.0
  0
LINE
  5
116A
  8
LAYER1
  6
CONTINUOUS
 10
2.999999750157142
 20
137.57381732656711
 30
0.0
 11
2.999999750157142
 21
59.626182521351083
 31
0.0
  0
LINE
  5
116B
  8
LAYER2
  6
CONTINUOUS
 10
108.999999750157
 20
166.09999992395899
 30
0.0
 11
108.999999750157
 21
31.099999923959221
 31
0.0
  0
LINE
  5
116C
  8
LAYER2
  6
CONTINUOUS
 10
2.9999997501573712
 20
137.57381732656711
 30
0.0
 11
2.999999750157142
 21
59.626182521351183
 31
0.0
  0
LINE
  5
116D
  8
LAYER2
  6
CONTINUOUS
 10
109.3381678370322
 20
161.35816801083419
 30
0.0
 11
109.3381678370322
 21
36.26183183708406
 31
0.0
  0
LINE
  5
116F
  8
LAYER1
  6
CONTINUOUS
 10
-0.0000002498428564
 20
178.09999992395899
 30
0.0
 11
-0.0000002498428564
 21
19.099999923959199
 31
0.0
  0
LINE
  5
1170
  8
LAYER2
  6
CONTINUOUS
 10
221.50485095322639
 20
37.599999923959182
 30
0.0
 11
221.50485095322639
 21
160.01999992395901
 31
0.0
  0
LINE
  5
1171
  8
LAYER2
  6
CONTINUOUS
 10
220.50754795322641
 20
160.01999992395901
 30
0.0
 11
220.50754795322641
 21
37.599999923959182
 31
0.0
  0
LINE
  5
1172
  8
LAYER2
  6
CONTINUOUS
 10
216.50485095322639
 20
31.09999892395917
 30
0.0
 11
216.50485095322639
 21
166.09999892395911
 31
0.0
  0
LINE
  5
1173
  8
LAYER2
  6
CONTINUOUS
 10
36.68426899846019
 20
87.848764924493196
 30
0.0
 11
29.475786727768408
 21
87.848764924493196
 31
0.0
  0
LINE
  5
1174
  8
LAYER2
  6
CONTINUOUS
 10
108.999999750157
 20
30.09999992395921
 30
0.0
 11
2.999999750157142
 21
30.09999992395921
 31
0.0
  0
LINE
  5
1175
  8
LAYER1
  6
CONTINUOUS
 10
2.999999750157142
 20
50.57381732656718
 30
0.0
 11
2.999999750157142
 21
19.152365118744221
 31
0.0
  0
LINE
  5
1176
  8
LAYER2
  6
CONTINUOUS
 10
2.999999750157142
 20
50.573817326567088
 30
0.0
 11
2.999999750157142
 21
30.09999992395921
 31
0.0
  0
LINE
  5
1177
  8
LAYER1
  6
CONTINUOUS
 10
-0.0000002498428564
 20
36.370090923959211
 30
0.0
 11
-0.0000002498428564
 21
34.370090923959211
 31
0.0
  0
LINE
  5
1178
  8
LAYER1
  6
CONTINUOUS
 10
-0.0000002498428564
 20
19.099999923959199
 30
0.0
 11
2.9995428356261278
 21
19.152357143271161
 31
0.0
  0
LINE
  5
1179
  8
LAYER1
  6
CONTINUOUS
 10
-0.0000002498428564
 20
30.09999992395921
 30
0.0
 11
-0.0000002498428564
 21
32.09999992395921
 31
0.0
  0
LINE
  5
117A
  8
LAYER2
  6
CONTINUOUS
 10
1.499999750157142
 20
59.599999923959189
 30
0.0
 11
1.499999750157142
 21
50.586908625263192
 31
0.0
  0
LINE
  5
117B
  8
LAYER1
  6
CONTINUOUS
 10
1.299999750157097
 20
50.099999923959182
 30
0.0
 11
1.299999750157097
 21
60.099999923959182
 31
0.0
  0
LINE
  5
117C
  8
LAYER2
  6
CONTINUOUS
 10
1.499999750157142
 20
50.599999923959189
 30
0.0
 11
2.999999750157142
 21
50.57381732656718
 31
0.0
  0
LINE
  5
117D
  8
LAYER1
  6
CONTINUOUS
 10
2.999999750157142
 20
50.07381732656718
 30
0.0
 11
1.2999997501600531
 21
50.099999923959182
 31
0.0
  0
LINE
  5
117E
  8
LAYER2
  6
CONTINUOUS
 10
2.999999750157142
 20
59.626182521351083
 30
0.0
 11
1.499999750157142
 21
59.599999923959189
 31
0.0
  0
LINE
  5
117F
  8
LAYER1
  6
CONTINUOUS
 10
2.999999750157142
 20
60.12618252135109
 30
0.0
 11
1.299999750157097
 21
60.099999923959182
 31
0.0
  0
LINE
  5
1180
  8
LAYER2
  6
CONTINUOUS
 10
109.9999997501569
 20
35.599999923959317
 30
0.0
 11
109.999999750157
 21
31.099999923959221
 31
0.0
  0
ARC
  5
1181
  8
LAYER2
  6
CONTINUOUS
 10
108.999999750157
 20
31.099999923959221
 30
0.0
 40
1.0
 50
270.0
 51
0.0
  0
ARC
  5
1182
  8
LAYER2
  6
CONTINUOUS
 10
107.999999750157
 20
31.099999923959221
 30
0.0
 40
1.0
 50
270.0
 51
0.0
  0
LINE
  5
1183
  8
LAYER2
  6
CONTINUOUS
 10
78.362414398840045
 20
87.848764924493196
 30
0.0
 11
71.153932128148313
 21
87.848764924493196
 31
0.0
  0
LINE
  5
1184
  8
LAYER2
  6
CONTINUOUS
 10
56.912846172950253
 20
92.856860045614184
 30
0.0
 11
49.3030019842314
 21
92.856860045614184
 31
0.0
  0
LINE
  5
1185
  8
LAYER2
  6
CONTINUOUS
 10
47.879623570567077
 20
87.819240179881149
 30
0.0
 11
40.694475372230357
 21
87.819240179881149
 31
0.0
  0
LINE
  5
1186
  8
LAYER2
  6
CONTINUOUS
 10
49.3030019842314
 20
92.856860045614184
 30
0.0
 11
47.443339911601349
 21
90.141853422741079
 31
0.0
  0
POLYLINE
  5
1187
  8
LAYER2
  6
CONTINUOUS
 66
     1
 10
0.0
 20
0.0
 30
0.0
  0
VERTEX
  5
18E4
  8
LAYER2
  6
CONTINUOUS
 10
47.879623570567077
 20
87.819240179881149
 30
0.0
  0
VERTEX
  5
18E5
  8
LAYER2
  6
CONTINUOUS
 10
47.864983963532147
 20
87.839080930746206
 30
0.0
  0
VERTEX
  5
18E6
  8
LAYER2
  6
CONTINUOUS
 10
47.831406031893373
 20
87.861560190804198
 30
0.0
  0
VERTEX
  5
18E7
  8
LAYER2
  6
CONTINUOUS
 10
47.760255956993319
 20
87.899543722615164
 30
0.0
  0
VERTEX
  5
18E8
  8
LAYER2
  6
CONTINUOUS
 10
47.711360254311209
 20
87.935308246136174
 30
0.0
  0
VERTEX
  5
18E9
  8
LAYER2
  6
CONTINUOUS
 10
47.699999294615168
 20
87.945442710785102
 30
0.0
  0
VERTEX
  5
18EA
  8
LAYER2
  6
CONTINUOUS
 10
47.649983940131371
 20
87.997196668445184
 30
0.0
  0
VERTEX
  5
18EB
  8
LAYER2
  6
CONTINUOUS
 10
47.599168844967032
 20
88.052782032707199
 30
0.0
  0
VERTEX
  5
18EC
  8
LAYER2
  6
CONTINUOUS
 10
47.549684866991463
 20
88.110652583911062
 30
0.0
  0
VERTEX
  5
18ED
  8
LAYER2
  6
CONTINUOUS
 10
47.502942652103343
 20
88.173198498429144
 30
0.0
  0
VERTEX
  5
18EE
  8
LAYER2
  6
CONTINUOUS
 10
47.460236084586199
 20
88.238365035558189
 30
0.0
  0
VERTEX
  5
18EF
  8
LAYER2
  6
CONTINUOUS
 10
47.419657005328077
 20
88.307607074092175
 30
0.0
  0
VERTEX
  5
18F0
  8
LAYER2
  6
CONTINUOUS
 10
47.382514939923212
 20
88.378787589927214
 30
0.0
  0
VERTEX
  5
18F1
  8
LAYER2
  6
CONTINUOUS
 10
47.348087138557162
 20
88.453779297924186
 30
0.0
  0
VERTEX
  5
18F2
  8
LAYER2
  6
CONTINUOUS
 10
47.317398780017243
 20
88.530373813561198
 30
0.0
  0
VERTEX
  5
18F3
  8
LAYER2
  6
CONTINUOUS
 10
47.28968875604447
 20
88.610368807249074
 30
0.0
  0
VERTEX
  5
18F4
  8
LAYER2
  6
CONTINUOUS
 10
47.265764951875433
 20
88.691577273004185
 30
0.0
  0
VERTEX
  5
18F5
  8
LAYER2
  6
CONTINUOUS
 10
47.245168119306193
 20
88.775782286882205
 30
0.0
  0
VERTEX
  5
18F6
  8
LAYER2
  6
CONTINUOUS
 10
47.228490802510223
 20
88.860851534796083
 30
0.0
  0
VERTEX
  5
18F7
  8
LAYER2
  6
CONTINUOUS
 10
47.215462244137477
 20
88.948499602671092
 30
0.0
  0
VERTEX
  5
18F8
  8
LAYER2
  6
CONTINUOUS
 10
47.206453678933137
 20
89.0366501654822
 30
0.0
  0
VERTEX
  5
18F9
  8
LAYER2
  6
CONTINUOUS
 10
47.201378720818298
 20
89.126962553820192
 30
0.0
  0
VERTEX
  5
18FA
  8
LAYER2
  6
CONTINUOUS
 10
47.200530928153171
 20
89.217426731604192
 30
0.0
  0
VERTEX
  5
18FB
  8
LAYER2
  6
CONTINUOUS
 10
47.20402703605405
 20
89.309687655415203
 30
0.0
  0
VERTEX
  5
18FC
  8
LAYER2
  6
CONTINUOUS
 10
47.211599897182502
 20
89.401634799704183
 30
0.0
  0
VERTEX
  5
18FD
  8
LAYER2
  6
CONTINUOUS
 10
47.223422646617209
 20
89.494917653077167
 30
0.0
  0
VERTEX
  5
18FE
  8
LAYER2
  6
CONTINUOUS
 10
47.240537933030147
 20
89.587727936325095
 30
0.0
  0
VERTEX
  5
18FF
  8
LAYER2
  6
CONTINUOUS
 10
47.263786233070157
 20
89.681936723578175
 30
0.0
  0
VERTEX
  5
1900
  8
LAYER2
  6
CONTINUOUS
 10
47.288222382709243
 20
89.774159708010089
 30
0.0
  0
VERTEX
  5
1901
  8
LAYER2
  6
CONTINUOUS
 10
47.313126142957231
 20
89.866002532989086
 30
0.0
  0
VERTEX
  5
1902
  8
LAYER2
  6
CONTINUOUS
 10
47.339456755560491
 20
89.930005195164185
 30
0.0
  0
VERTEX
  5
1903
  8
LAYER2
  6
CONTINUOUS
 10
47.355530593229219
 20
89.959383681301105
 30
0.0
  0
VERTEX
  5
1904
  8
LAYER2
  6
CONTINUOUS
 10
47.422225478049398
 20
90.057949510508195
 30
0.0
  0
VERTEX
  5
1905
  8
LAYER2
  6
CONTINUOUS
 10
47.442564814014418
 20
90.097440976804194
 30
0.0
  0
VERTEX
  5
1906
  8
LAYER2
  6
CONTINUOUS
 10
47.447332463224363
 20
90.123902552614197
 30
0.0
  0
VERTEX
  5
1907
  8
LAYER2
  6
CONTINUOUS
 10
47.443339911601349
 20
90.141853422741079
 30
0.0
  0
SEQEND
  5
1908
  8
LAYER2
  6
CONTINUOUS
  0
LINE
  5
11AD
  8
LAYER2
  6
CONTINUOUS
 10
65.385177995287336
 20
87.816700416903089
 30
0.0
 11
57.896051915588139
 21
87.816700416903089
 31
0.0
  0
LINE
  5
11AE
  8
LAYER2
  6
CONTINUOUS
 10
57.896051915588139
 20
87.816700416903089
 30
0.0
 11
56.912846172950253
 21
92.856860045614184
 31
0.0
  0
ARC
  5
11AF
  8
LAYER4
 10
110.00999975015711
 20
63.664999923959193
 30
0.0
 40
1.0
 50
0.0
 51
90.0
  0
LINE
  5
11B0
  8
LAYER4
 10
111.00999975015689
 20
46.264999923959202
 30
0.0
 11
111.00999975015689
 21
63.6649999239593
 31
0.0
  0
LINE
  5
11B1
  8
LAYER4
 10
110.4999997501569
 20
43.344999923959371
 30
0.0
 11
110.4999997501569
 21
42.344999923959378
 31
0.0
  0
LINE
  5
11B2
  8
LAYER4
 10
111.8099997501569
 20
43.344999923959087
 30
0.0
 11
110.4999997501569
 21
42.344999923959378
 31
0.0
  0
LINE
  5
11B3
  8
LAYER2
  6
CONTINUOUS
 10
109.3381678370322
 20
36.26183183708406
 30
0.0
 11
109.999999750157
 21
35.59999992395921
 31
0.0
  0
ARC
  5
11B4
  8
LAYER4
 10
110.00999975015711
 20
46.264999923959088
 30
0.0
 40
1.0
 50
270.0
 51
0.0
  0
LINE
  5
11B5
  8
LAYER4
 10
111.8099997501569
 20
44.344999923959087
 30
0.0
 11
111.8099997501569
 21
43.344999923959087
 31
0.0
  0
LINE
  5
11B6
  8
LAYER4
 10
109.3381678370322
 20
43.344999923959371
 30
0.0
 11
110.4999997501569
 21
43.344999923959371
 31
0.0
  0
LINE
  5
11B7
  8
LAYER4
 10
109.3381678370322
 20
44.344999923959179
 30
0.0
 11
111.8099997501569
 21
44.344999923959087
 31
0.0
  0
LINE
  5
11B8
  8
LAYER4
 10
109.3381678370322
 20
45.264999923959181
 30
0.0
 11
110.00999975015711
 21
45.264999923959181
 31
0.0
  0
LINE
  5
11B9
  8
LAYER4
 10
111.8099997501569
 20
66.584999923959373
 30
0.0
 11
110.4999997501568
 21
67.584999923959089
 31
0.0
  0
LINE
  5
11BA
  8
LAYER4
 10
111.8099997501569
 20
65.584999923959373
 30
0.0
 11
111.8099997501569
 21
66.584999923959373
 31
0.0
  0
LINE
  5
11BB
  8
LAYER4
 10
110.4999997501568
 20
66.584999923959089
 30
0.0
 11
110.4999997501568
 21
67.584999923959089
 31
0.0
  0
LINE
  5
11BC
  8
LAYER4
 10
109.3381678370322
 20
65.584999923959202
 30
0.0
 11
111.8099997501569
 21
65.584999923959373
 31
0.0
  0
LINE
  5
11BD
  8
LAYER4
 10
109.3381678370322
 20
66.584999923959089
 30
0.0
 11
110.4999997501568
 21
66.584999923959089
 31
0.0
  0
LINE
  5
11BE
  8
LAYER4
 10
109.3381678370322
 20
64.6649999239593
 30
0.0
 11
110.00999975015711
 21
64.6649999239593
 31
0.0
  0
LINE
  5
11BF
  8
LAYER1
  6
CONTINUOUS
 10
216.55721614801121
 20
20.599999923959199
 30
0.0
 11
216.55721614801121
 21
30.780643890753449
 31
0.0
  0
ARC
  5
11C0
  8
LAYER2
  6
CONTINUOUS
 10
222.50754795322641
 20
37.599999923959182
 30
0.0
 40
2.0
 50
180.0
 51
270.0
  0
LINE
  5
11C1
  8
LAYER1
  6
CONTINUOUS
 10
234.00485095322639
 20
19.152365118744221
 30
0.0
 11
218.00485095322651
 21
19.152365118744221
 31
0.0
  0
LINE
  5
11C2
  8
LAYER1
  6
CONTINUOUS
 10
234.00485095322639
 20
19.099999923959199
 30
0.0
 11
218.00485095322651
 21
19.099999923959199
 31
0.0
  0
ARC
  5
11C3
  8
LAYER1
  6
CONTINUOUS
 10
218.00485095322651
 20
20.599999923959199
 30
0.0
 40
1.4476348052149981
 50
180.00001200000051
 51
270.0
  0
ARC
  5
11C4
  8
LAYER1
  6
CONTINUOUS
 10
218.00485095322651
 20
20.599999923959199
 30
0.0
 40
1.5
 50
180.00001200000051
 51
270.0
  0
ARC
  5
11C5
  8
LAYER2
  6
CONTINUOUS
 10
217.50485095322639
 20
31.099999923959221
 30
0.0
 40
1.0
 50
180.0
 51
270.0
  0
LINE
  5
11C6
  8
LAYER1
  6
CONTINUOUS
 10
240.55721614801129
 20
23.060087923959181
 30
0.0
 11
240.55721614801129
 21
20.599999923959199
 31
0.0
  0
LINE
  5
11C7
  8
LAYER1
  6
CONTINUOUS
 10
235.4524857584411
 20
23.060087923959181
 30
0.0
 11
235.4524857584411
 21
20.599999923959199
 31
0.0
  0
LINE
  5
11C8
  8
LAYER1
  6
CONTINUOUS
 10
240.50485095322639
 20
23.060087923959181
 30
0.0
 11
240.50485095322639
 21
20.599999923959199
 31
0.0
  0
LINE
  5
11C9
  8
LAYER1
  6
CONTINUOUS
 10
235.50485095322639
 20
23.060087923959181
 30
0.0
 11
235.50485095322639
 21
20.599999923959199
 31
0.0
  0
ARC
  5
11CA
  8
LAYER1
  6
CONTINUOUS
 10
234.00485095322639
 20
20.599999923959199
 30
0.0
 40
1.4476348052149981
 50
270.0
 51
0.0
  0
ARC
  5
11CB
  8
LAYER1
  6
CONTINUOUS
 10
234.00485095322639
 20
20.599999923959199
 30
0.0
 40
1.5
 50
270.0
 51
0.0
  0
ARC
  5
11CC
  8
LAYER1
  6
CONTINUOUS
 10
242.00485095322639
 20
20.599999923959199
 30
0.0
 40
1.4476348052149981
 50
180.0
 51
270.0
  0
ARC
  5
11CD
  8
LAYER1
  6
CONTINUOUS
 10
242.00485095322639
 20
20.599999923959199
 30
0.0
 40
1.5
 50
180.0
 51
270.0
  0
LINE
  5
11CE
  8
LAYER1
  6
CONTINUOUS
 10
232.4612132909065
 20
30.056362261638171
 30
0.0
 11
243.5484886155472
 21
30.056362261638171
 31
0.0
  0
LINE
  5
11CF
  8
LAYER1
  6
CONTINUOUS
 10
232.4524857584413
 20
29.547634729174199
 30
0.0
 11
243.55721614801121
 21
29.547634729174199
 31
0.0
  0
LINE
  5
11D0
  8
LAYER1
  6
CONTINUOUS
 10
232.50485095322651
 20
30.09999992395921
 30
0.0
 11
243.50485095322639
 21
30.09999992395921
 31
0.0
  0
LINE
  5
11D1
  8
LAYER1
  6
CONTINUOUS
 10
232.4612132909065
 20
30.056362261638171
 30
0.0
 11
232.4524857584413
 21
29.547634729174199
 31
0.0
  0
LINE
  5
11D2
  8
LAYER1
  6
CONTINUOUS
 10
232.50485095322651
 20
30.09999992395921
 30
0.0
 11
232.4612132909065
 21
30.056362261638171
 31
0.0
  0
LINE
  5
11D3
  8
LAYER1
  6
CONTINUOUS
 10
232.45248575844241
 20
30.09999992395921
 30
0.0
 11
232.45248575844241
 21
29.547634729174199
 31
0.0
  0
ARC
  5
11D4
  8
LAYER1
  6
CONTINUOUS
 10
238.00485095322639
 20
23.060087923959181
 30
0.0
 40
2.5523651947850001
 50
0.0
 51
180.0
  0
ARC
  5
11D5
  8
LAYER1
  6
CONTINUOUS
 10
238.00485095322639
 20
23.060087923959181
 30
0.0
 40
2.5
 50
0.0
 51
180.0
  0
LINE
  5
11D6
  8
LAYER1
  6
CONTINUOUS
 10
243.5484886155472
 20
30.056362261639201
 30
0.0
 11
243.55721614801121
 21
29.547634729174199
 31
0.0
  0
LINE
  5
11D7
  8
LAYER1
  6
CONTINUOUS
 10
243.50485095322639
 20
30.09999992395921
 30
0.0
 11
243.5484886155472
 21
30.056362261638171
 31
0.0
  0
LINE
  5
11D8
  8
LAYER1
  6
CONTINUOUS
 10
243.55721614801121
 20
30.09999992395921
 30
0.0
 11
243.55721614801121
 21
29.547634729174199
 31
0.0
  0
POLYLINE
  5
11D9
  8
LAYER3
  6
CONTINUOUS
 66
     1
 10
0.0
 20
0.0
 30
0.0
 70
     1
  0
VERTEX
  5
1909
  8
LAYER3
  6
CONTINUOUS
 10
223.30485095322641
 20
42.019999923959091
 30
0.0
  0
VERTEX
  5
190A
  8
LAYER3
  6
CONTINUOUS
 10
229.30485095322641
 20
42.019999923959091
 30
0.0
  0
VERTEX
  5
190B
  8
LAYER3
  6
CONTINUOUS
 10
229.30485095322641
 20
68.019999923959091
 30
0.0
  0
VERTEX
  5
190C
  8
LAYER3
  6
CONTINUOUS
 10
223.30485095322641
 20
68.019999923959091
 30
0.0
  0
SEQEND
  5
190D
  8
LAYER3
  6
CONTINUOUS
  0
ARC
  5
11DF
  8
LAYER4
 10
227.42985095322661
 20
64.053362491667599
 30
0.0
 40
0.5
 50
0.0
 51
101.4695303328684
  0
LINE
  5
11E0
  8
LAYER4
 10
223.50485095322639
 20
42.019999923959091
 30
0.0
 11
223.50485095322639
 21
68.019999923959091
 31
0.0
  0
LINE
  5
11E1
  8
LAYER4
 10
228.9048509532264
 20
42.019999923959091
 30
0.0
 11
228.9048509532264
 21
68.019999923959091
 31
0.0
  0
ARC
  5
11E2
  8
LAYER4
 10
224.9798509532265
 20
46.373738805527069
 30
0.0
 40
0.5
 50
180.0
 51
258.5304696671314
  0
ARC
  5
11E3
  8
LAYER4
 10
224.9798509532265
 20
63.556261042391881
 30
0.0
 40
0.5
 50
101.4695303328815
 51
180.0
  0
ARC
  5
11E4
  8
LAYER2
  6
CONTINUOUS
 10
222.50485095322639
 20
37.599999923959182
 30
0.0
 40
1.0
 50
180.0
 51
270.0
  0
LINE
  5
11E5
  8
LAYER4
 10
224.4798509532265
 20
63.556261042391881
 30
0.0
 11
224.4798509532265
 21
46.373738805527069
 31
0.0
  0
LINE
  5
11E6
  8
LAYER4
 10
227.92985095322641
 20
64.053362491667599
 30
0.0
 11
227.92985095322641
 21
45.876637356251592
 31
0.0
  0
LINE
  5
11E7
  8
LAYER4
 10
227.80485095322669
 20
44.344999923959087
 30
0.0
 11
227.80485095322641
 21
42.344999923959378
 31
0.0
  0
LINE
  5
11E8
  8
LAYER4
 10
224.6048509532265
 20
44.344999923959087
 30
0.0
 11
224.6048509532265
 21
42.344999923959378
 31
0.0
  0
ARC
  5
11E9
  8
LAYER4
 10
226.2048509532263
 20
41.499249899464381
 30
0.0
 40
1.5999999999999941
 50
31.910490366514541
 51
148.08950963348539
  0
LINE
  5
11EA
  8
LAYER4
 10
227.80485095322641
 20
42.344999923959378
 30
0.0
 11
227.56305082661279
 21
42.344999923959378
 31
0.0
  0
LINE
  5
11EB
  8
LAYER4
 10
224.84665107983989
 20
42.344999923959087
 30
0.0
 11
224.6048509532265
 21
42.344999923959378
 31
0.0
  0
ARC
  5
11EC
  8
LAYER4
 10
227.42985095322661
 20
45.876637356251592
 30
0.0
 40
0.5
 50
258.5304696671314
 51
0.0
  0
LINE
  5
11ED
  8
LAYER4
 10
227.80485095322669
 20
44.344999923959087
 30
0.0
 11
224.6048509532265
 21
44.344999923959087
 31
0.0
  0
LINE
  5
11EE
  8
LAYER4
 10
227.33042756012679
 20
45.386622061689494
 30
0.0
 11
224.88042756012689
 21
45.883723510965083
 31
0.0
  0
LINE
  5
11EF
  8
LAYER4
 10
227.33042756012679
 20
64.543377786229598
 30
0.0
 11
224.88042756012689
 21
64.046276336953596
 31
0.0
  0
POLYLINE
  5
11F0
  8
LAYER3
  6
CONTINUOUS
 66
     1
 10
0.0
 20
0.0
 30
0.0
 70
     1
  0
VERTEX
  5
190E
  8
LAYER3
  6
CONTINUOUS
 10
222.50485095322639
 20
87.419999923959026
 30
0.0
  0
VERTEX
  5
190F
  8
LAYER3
  6
CONTINUOUS
 10
235.50485095322639
 20
87.419999923959026
 30
0.0
  0
VERTEX
  5
1910
  8
LAYER3
  6
CONTINUOUS
 10
235.50485095322639
 20
73.419999923959097
 30
0.0
  0
VERTEX
  5
1911
  8
LAYER3
  6
CONTINUOUS
 10
222.50485095322639
 20
73.419999923959097
 30
0.0
  0
SEQEND
  5
1912
  8
LAYER3
  6
CONTINUOUS
  0
POLYLINE
  5
11F6
  8
LAYER4
 66
     1
 10
0.0
 20
0.0
 30
0.0
 70
     1
  0
VERTEX
  5
1913
  8
LAYER4
 10
223.50485095322639
 20
86.439999923959164
 30
0.0
  0
VERTEX
  5
1914
  8
LAYER4
 10
234.50485095322651
 20
86.439999923959164
 30
0.0
  0
VERTEX
  5
1915
  8
LAYER4
 10
234.50485095322651
 20
74.399999923959214
 30
0.0
  0
VERTEX
  5
1916
  8
LAYER4
 10
223.50485095322639
 20
74.399999923959214
 30
0.0
  0
SEQEND
  5
1917
  8
LAYER4
  0
ARC
  5
11FC
  8
LAYER3
 10
225.50485095322639
 20
91.619999923959185
 30
0.0
 40
1.5
 50
90.0
 51
270.0
  0
LINE
  5
11FD
  8
0
  6
CONTINUOUS
 10
223.50485095322639
 20
87.419999923959026
 30
0.0
 11
223.50485095322639
 21
73.419999923959097
 31
0.0
  0
LINE
  5
11FE
  8
LAYER4
  6
BYBLOCK
 10
230.4448509532269
 20
80.41999992395867
 30
0.0
 11
230.4448509532269
 21
77.969999923959804
 31
0.0
  0
LINE
  5
11FF
  8
LAYER4
  6
BYBLOCK
 10
231.7311145122824
 20
79.859460243854897
 30
0.0
 11
231.7311145122824
 21
78.909575876415687
 31
0.0
  0
LINE
  5
1200
  8
LAYER4
  6
BYBLOCK
 10
231.46848346435769
 20
79.859460243854897
 30
0.0
 11
231.46848346435769
 21
78.909575876415687
 31
0.0
  0
LINE
  5
1201
  8
LAYER4
  6
BYBLOCK
 10
230.74485095322621
 20
80.41999992395867
 30
0.0
 11
230.74485095322621
 21
77.66999992395867
 31
0.0
  0
LINE
  5
1202
  8
LAYER4
  6
BYBLOCK
 10
232.71737807134019
 20
77.77985653672809
 30
0.0
 11
232.7173780713394
 21
80.41999992395867
 31
0.0
  0
LINE
  5
1203
  8
LAYER4
  6
BYBLOCK
 10
233.08485095322629
 20
80.41999992395867
 30
0.0
 11
233.08485095322629
 21
77.66999992395867
 31
0.0
  0
LINE
  5
1204
  8
LAYER4
  6
BYBLOCK
 10
227.94485095322511
 20
80.41999992395867
 30
0.0
 11
227.94485095322511
 21
77.969999923959804
 31
0.0
  0
LINE
  5
1205
  8
LAYER4
  6
BYBLOCK
 10
227.94485095322511
 20
80.41999992395867
 30
0.0
 11
227.94485095322511
 21
77.969999923959804
 31
0.0
  0
LINE
  5
1206
  8
LAYER4
  6
BYBLOCK
 10
226.65858739416959
 20
79.859460243853974
 30
0.0
 11
226.65858739416959
 21
78.909575876414749
 31
0.0
  0
LINE
  5
1207
  8
LAYER4
  6
BYBLOCK
 10
226.92121844209319
 20
79.859460243853974
 30
0.0
 11
226.9212184420941
 21
78.909575876414749
 31
0.0
  0
LINE
  5
1208
  8
LAYER4
  6
BYBLOCK
 10
225.3048509532255
 20
80.41999992395867
 30
0.0
 11
225.3048509532255
 21
76.194999923959287
 31
0.0
  0
LINE
  5
1209
  8
LAYER4
  6
BYBLOCK
 10
225.67232383511171
 20
76.522165241425412
 30
0.0
 11
225.67232383511251
 21
80.41999992395867
 31
0.0
  0
LINE
  5
120A
  8
LAYER4
  6
BYBLOCK
 10
227.6448509532257
 20
80.41999992395867
 30
0.0
 11
227.6448509532257
 21
77.66999992395867
 31
0.0
  0
LINE
  5
120B
  8
LAYER4
  6
BYBLOCK
 10
227.6448509532257
 20
80.41999992395867
 30
0.0
 11
227.6448509532257
 21
77.66999992395867
 31
0.0
  0
LINE
  5
120C
  8
LAYER4
 10
227.80485095322641
 20
67.584999923959089
 30
0.0
 11
227.56305082661279
 21
67.584999923959089
 31
0.0
  0
LINE
  5
120D
  8
LAYER4
 10
227.80485095322669
 20
65.584999923959373
 30
0.0
 11
227.80485095322641
 21
67.584999923959089
 31
0.0
  0
LINE
  5
120E
  8
LAYER4
 10
224.84665107983989
 20
67.584999923959373
 30
0.0
 11
224.6048509532265
 21
67.584999923959089
 31
0.0
  0
LINE
  5
120F
  8
LAYER4
 10
224.6048509532265
 20
65.584999923959373
 30
0.0
 11
224.6048509532265
 21
67.584999923959089
 31
0.0
  0
ARC
  5
1210
  8
LAYER4
 10
226.2048509532263
 20
68.430749948454093
 30
0.0
 40
1.5999999999999941
 50
211.9104903665141
 51
328.0895096334857
  0
LINE
  5
1211
  8
LAYER4
 10
227.80485095322669
 20
65.584999923959373
 30
0.0
 11
224.6048509532265
 21
65.584999923959373
 31
0.0
  0
LINE
  5
1212
  8
LAYER4
  6
BYBLOCK
 10
229.19485095322599
 20
77.969999923959804
 30
0.0
 11
230.4448509532269
 21
77.969999923959804
 31
0.0
  0
LINE
  5
1213
  8
LAYER4
  6
BYBLOCK
 10
229.19485095322599
 20
77.66999992395867
 30
0.0
 11
230.74485095322621
 21
77.66999992395867
 31
0.0
  0
LINE
  5
1214
  8
LAYER4
  6
BYBLOCK
 10
229.9407938889928
 20
77.15129012073487
 30
0.0
 11
229.19485095322599
 21
77.15129012073487
 31
0.0
  0
LINE
  5
1215
  8
LAYER4
  6
BYBLOCK
 10
227.6448509532257
 20
78.909575876414749
 30
0.0
 11
226.65858739416959
 21
78.909575876414749
 31
0.0
  0
LINE
  5
1216
  8
LAYER4
  6
BYBLOCK
 10
225.67232383511171
 20
76.522165241425412
 30
0.0
 11
228.13509606609139
 21
76.522165241425412
 31
0.0
  0
LINE
  5
1217
  8
LAYER4
  6
BYBLOCK
 10
226.779850953226
 20
76.194999923959287
 30
0.0
 11
225.3048509532255
 21
76.194999923959287
 31
0.0
  0
LINE
  5
1218
  8
LAYER4
  6
BYBLOCK
 10
225.67232383511171
 20
76.522165241425412
 30
0.0
 11
225.3048509532255
 21
76.194999923959287
 31
0.0
  0
LINE
  5
1219
  8
LAYER4
  6
BYBLOCK
 10
227.82923604741529
 20
76.194999923959287
 30
0.0
 11
228.13509606609139
 21
76.522165241425412
 31
0.0
  0
LINE
  5
121A
  8
LAYER4
  6
BYBLOCK
 10
227.82923604741529
 20
76.194999923959287
 30
0.0
 11
228.1132502699914
 21
75.297499923959194
 31
0.0
  0
LINE
  5
121B
  8
LAYER4
  6
BYBLOCK
 10
228.13509606609139
 20
76.522165241425412
 30
0.0
 11
228.1132502699914
 21
75.297499923959194
 31
0.0
  0
LINE
  5
121C
  8
LAYER4
  6
BYBLOCK
 10
228.1132502699914
 20
75.297499923959194
 30
0.0
 11
228.44890801745919
 21
77.15129012073487
 31
0.0
  0
LINE
  5
121D
  8
LAYER4
  6
BYBLOCK
 10
226.779850953226
 20
76.194999923959287
 30
0.0
 11
227.82923604741529
 21
76.194999923959287
 31
0.0
  0
LINE
  5
121E
  8
LAYER4
  6
BYBLOCK
 10
227.94485095322511
 20
77.969999923959804
 30
0.0
 11
227.6448509532257
 21
77.66999992395867
 31
0.0
  0
LINE
  5
121F
  8
LAYER4
  6
BYBLOCK
 10
227.94485095322511
 20
77.969999923959804
 30
0.0
 11
227.6448509532257
 21
77.66999992395867
 31
0.0
  0
LINE
  5
1220
  8
LAYER4
  6
BYBLOCK
 10
229.19485095322599
 20
77.969999923959804
 30
0.0
 11
227.94485095322511
 21
77.969999923959804
 31
0.0
  0
LINE
  5
1221
  8
LAYER4
  6
BYBLOCK
 10
229.19485095322599
 20
77.66999992395867
 30
0.0
 11
227.6448509532257
 21
77.66999992395867
 31
0.0
  0
LINE
  5
1222
  8
LAYER4
  6
BYBLOCK
 10
229.19485095322599
 20
77.969999923959804
 30
0.0
 11
227.94485095322511
 21
77.969999923959804
 31
0.0
  0
LINE
  5
1223
  8
LAYER4
  6
BYBLOCK
 10
229.19485095322599
 20
77.66999992395867
 30
0.0
 11
227.6448509532257
 21
77.66999992395867
 31
0.0
  0
LINE
  5
1224
  8
LAYER4
  6
BYBLOCK
 10
228.44890801745919
 20
77.15129012073487
 30
0.0
 11
229.19485095322599
 21
77.15129012073487
 31
0.0
  0
LINE
  5
1225
  8
LAYER4
  6
BYBLOCK
 10
230.74485095322621
 20
78.909575876415687
 30
0.0
 11
231.7311145122824
 21
78.909575876415687
 31
0.0
  0
LINE
  5
1226
  8
LAYER4
  6
BYBLOCK
 10
230.27645163646071
 20
75.297499923959194
 30
0.0
 11
229.9407938889928
 21
77.15129012073487
 31
0.0
  0
LINE
  5
1227
  8
LAYER4
  6
BYBLOCK
 10
230.25460584036071
 20
76.522165241425412
 30
0.0
 11
230.27645163646071
 21
75.297499923959194
 31
0.0
  0
LINE
  5
1228
  8
LAYER4
  6
BYBLOCK
 10
230.56046585903661
 20
76.194999923959287
 30
0.0
 11
230.27645163646071
 21
75.297499923959194
 31
0.0
  0
LINE
  5
1229
  8
LAYER4
  6
BYBLOCK
 10
230.56046585903661
 20
76.194999923959287
 30
0.0
 11
230.25460584036071
 21
76.522165241425412
 31
0.0
  0
LINE
  5
122A
  8
LAYER4
  6
BYBLOCK
 10
233.08485095322629
 20
77.66999992395867
 30
0.0
 11
231.6098509532261
 21
76.194999923959287
 31
0.0
  0
LINE
  5
122B
  8
LAYER4
  6
BYBLOCK
 10
232.71737807134019
 20
77.77985653672809
 30
0.0
 11
231.45968677603761
 21
76.522165241425412
 31
0.0
  0
LINE
  5
122C
  8
LAYER4
  6
BYBLOCK
 10
231.6098509532261
 20
76.194999923959287
 30
0.0
 11
231.45968677603761
 21
76.522165241425412
 31
0.0
  0
LINE
  5
122D
  8
LAYER4
  6
BYBLOCK
 10
231.6098509532261
 20
76.194999923959287
 30
0.0
 11
230.56046585903661
 21
76.194999923959287
 31
0.0
  0
LINE
  5
122E
  8
LAYER4
  6
BYBLOCK
 10
231.45968677603761
 20
76.522165241425412
 30
0.0
 11
230.25460584036071
 21
76.522165241425412
 31
0.0
  0
LINE
  5
122F
  8
LAYER4
  6
BYBLOCK
 10
230.4448509532269
 20
77.969999923959804
 30
0.0
 11
230.74485095322621
 21
77.66999992395867
 31
0.0
  0
LINE
  5
1230
  8
LAYER4
  6
BYBLOCK
 10
229.19485095322599
 20
82.869999923959384
 30
0.0
 11
230.4448509532269
 21
82.869999923959384
 31
0.0
  0
LINE
  5
1231
  8
LAYER4
  6
BYBLOCK
 10
229.19485095322599
 20
83.16999992395867
 30
0.0
 11
230.74485095322621
 21
83.16999992395867
 31
0.0
  0
LINE
  5
1232
  8
LAYER4
  6
BYBLOCK
 10
229.9407938889928
 20
83.688709727184417
 30
0.0
 11
229.19485095322599
 21
83.688709727184417
 31
0.0
  0
LINE
  5
1233
  8
LAYER4
  6
BYBLOCK
 10
225.67232383511171
 20
84.317834606492966
 30
0.0
 11
228.13509606609139
 21
84.317834606492966
 31
0.0
  0
LINE
  5
1234
  8
LAYER4
  6
BYBLOCK
 10
226.779850953226
 20
84.644999923959091
 30
0.0
 11
225.3048509532255
 21
84.644999923959091
 31
0.0
  0
LINE
  5
1235
  8
LAYER4
  6
BYBLOCK
 10
225.67232383511171
 20
84.317834606492966
 30
0.0
 11
225.3048509532255
 21
84.644999923959091
 31
0.0
  0
LINE
  5
1236
  8
LAYER4
  6
BYBLOCK
 10
226.779850953226
 20
84.644999923959091
 30
0.0
 11
227.82923604741529
 21
84.644999923959091
 31
0.0
  0
LINE
  5
1237
  8
LAYER4
  6
BYBLOCK
 10
228.13509606609139
 20
84.317834606492966
 30
0.0
 11
228.1132502699914
 21
85.54249992395998
 31
0.0
  0
LINE
  5
1238
  8
LAYER4
  6
BYBLOCK
 10
227.82923604741529
 20
84.644999923959091
 30
0.0
 11
228.1132502699914
 21
85.54249992395998
 31
0.0
  0
LINE
  5
1239
  8
LAYER4
  6
BYBLOCK
 10
227.82923604741529
 20
84.644999923959091
 30
0.0
 11
228.13509606609139
 21
84.317834606492966
 31
0.0
  0
LINE
  5
123A
  8
LAYER4
  6
BYBLOCK
 10
226.92121844209319
 20
80.980539604064404
 30
0.0
 11
226.9212184420941
 21
81.930423971503501
 31
0.0
  0
LINE
  5
123B
  8
LAYER4
  6
BYBLOCK
 10
226.65858739416959
 20
80.980539604064404
 30
0.0
 11
226.65858739416959
 21
81.930423971503501
 31
0.0
  0
LINE
  5
123C
  8
LAYER4
  6
BYBLOCK
 10
227.6448509532257
 20
80.41999992395867
 30
0.0
 11
227.6448509532257
 21
83.16999992395867
 31
0.0
  0
LINE
  5
123D
  8
LAYER4
  6
BYBLOCK
 10
227.94485095322511
 20
80.41999992395867
 30
0.0
 11
227.94485095322511
 21
82.869999923959384
 31
0.0
  0
LINE
  5
123E
  8
LAYER4
  6
BYBLOCK
 10
227.6448509532257
 20
80.41999992395867
 30
0.0
 11
227.6448509532257
 21
83.16999992395867
 31
0.0
  0
LINE
  5
123F
  8
LAYER4
  6
BYBLOCK
 10
227.94485095322511
 20
80.41999992395867
 30
0.0
 11
227.94485095322511
 21
82.869999923959384
 31
0.0
  0
LINE
  5
1240
  8
LAYER4
  6
BYBLOCK
 10
227.6448509532257
 20
79.859460243853974
 30
0.0
 11
226.65858739416959
 21
79.859460243853974
 31
0.0
  0
LINE
  5
1241
  8
LAYER4
  6
BYBLOCK
 10
227.6448509532257
 20
80.980539604064404
 30
0.0
 11
226.65858739416959
 21
80.980539604064404
 31
0.0
  0
LINE
  5
1242
  8
LAYER4
  6
BYBLOCK
 10
227.6448509532257
 20
81.930423971503501
 30
0.0
 11
226.65858739416959
 21
81.930423971503501
 31
0.0
  0
LINE
  5
1243
  8
LAYER4
  6
BYBLOCK
 10
227.94485095322511
 20
82.869999923959384
 30
0.0
 11
227.6448509532257
 21
83.16999992395867
 31
0.0
  0
LINE
  5
1244
  8
LAYER4
  6
BYBLOCK
 10
227.94485095322511
 20
82.869999923959384
 30
0.0
 11
227.6448509532257
 21
83.16999992395867
 31
0.0
  0
LINE
  5
1245
  8
LAYER4
  6
BYBLOCK
 10
225.67232383511171
 20
84.317834606492966
 30
0.0
 11
225.67232383511251
 21
80.41999992395867
 31
0.0
  0
LINE
  5
1246
  8
LAYER4
  6
BYBLOCK
 10
225.3048509532255
 20
80.41999992395867
 30
0.0
 11
225.3048509532255
 21
84.644999923959091
 31
0.0
  0
LINE
  5
1247
  8
LAYER4
  6
BYBLOCK
 10
228.1132502699914
 20
85.54249992395998
 30
0.0
 11
228.44890801745919
 21
83.688709727184417
 31
0.0
  0
LINE
  5
1248
  8
LAYER4
  6
BYBLOCK
 10
228.44890801745919
 20
83.688709727184417
 30
0.0
 11
229.19485095322599
 21
83.688709727184417
 31
0.0
  0
LINE
  5
1249
  8
LAYER4
  6
BYBLOCK
 10
229.19485095322599
 20
83.16999992395867
 30
0.0
 11
227.6448509532257
 21
83.16999992395867
 31
0.0
  0
LINE
  5
124A
  8
LAYER4
  6
BYBLOCK
 10
229.19485095322599
 20
82.869999923959384
 30
0.0
 11
227.94485095322511
 21
82.869999923959384
 31
0.0
  0
LINE
  5
124B
  8
LAYER4
  6
BYBLOCK
 10
229.19485095322599
 20
83.16999992395867
 30
0.0
 11
227.6448509532257
 21
83.16999992395867
 31
0.0
  0
LINE
  5
124C
  8
LAYER4
  6
BYBLOCK
 10
229.19485095322599
 20
82.869999923959384
 30
0.0
 11
227.94485095322511
 21
82.869999923959384
 31
0.0
  0
LINE
  5
124D
  8
LAYER4
  6
BYBLOCK
 10
230.25460584036071
 20
84.317834606492966
 30
0.0
 11
230.27645163646071
 21
85.54249992395998
 31
0.0
  0
LINE
  5
124E
  8
LAYER4
  6
BYBLOCK
 10
230.56046585903661
 20
84.644999923959091
 30
0.0
 11
230.25460584036071
 21
84.317834606492966
 31
0.0
  0
LINE
  5
124F
  8
LAYER4
  6
BYBLOCK
 10
230.56046585903661
 20
84.644999923959091
 30
0.0
 11
230.27645163646071
 21
85.54249992395998
 31
0.0
  0
LINE
  5
1250
  8
LAYER4
  6
BYBLOCK
 10
231.6098509532261
 20
84.644999923959091
 30
0.0
 11
231.45968677603761
 21
84.317834606492966
 31
0.0
  0
LINE
  5
1251
  8
LAYER4
  6
BYBLOCK
 10
231.45968677603761
 20
84.317834606492966
 30
0.0
 11
230.25460584036071
 21
84.317834606492966
 31
0.0
  0
LINE
  5
1252
  8
LAYER4
  6
BYBLOCK
 10
231.6098509532261
 20
84.644999923959091
 30
0.0
 11
230.56046585903661
 21
84.644999923959091
 31
0.0
  0
LINE
  5
1253
  8
LAYER4
  6
BYBLOCK
 10
230.4448509532269
 20
80.41999992395867
 30
0.0
 11
230.4448509532269
 21
82.869999923959384
 31
0.0
  0
LINE
  5
1254
  8
LAYER4
  6
BYBLOCK
 10
230.74485095322621
 20
80.41999992395867
 30
0.0
 11
230.74485095322621
 21
83.16999992395867
 31
0.0
  0
LINE
  5
1255
  8
LAYER4
  6
BYBLOCK
 10
231.46848346435769
 20
80.980539604064404
 30
0.0
 11
231.46848346435769
 21
81.930423971503501
 31
0.0
  0
LINE
  5
1256
  8
LAYER4
  6
BYBLOCK
 10
231.7311145122824
 20
80.980539604064404
 30
0.0
 11
231.7311145122824
 21
81.930423971503501
 31
0.0
  0
LINE
  5
1257
  8
LAYER4
  6
BYBLOCK
 10
232.71737807134019
 20
83.060143311190259
 30
0.0
 11
232.7173780713394
 21
80.41999992395867
 31
0.0
  0
LINE
  5
1258
  8
LAYER4
  6
BYBLOCK
 10
233.08485095322629
 20
80.41999992395867
 30
0.0
 11
233.08485095322629
 21
83.16999992395867
 31
0.0
  0
LINE
  5
1259
  8
LAYER4
  6
BYBLOCK
 10
230.74485095322621
 20
79.859460243854897
 30
0.0
 11
231.7311145122824
 21
79.859460243854897
 31
0.0
  0
LINE
  5
125A
  8
LAYER4
  6
BYBLOCK
 10
230.74485095322621
 20
80.980539604064404
 30
0.0
 11
231.7311145122824
 21
80.980539604064404
 31
0.0
  0
LINE
  5
125B
  8
LAYER4
  6
BYBLOCK
 10
230.4448509532269
 20
82.869999923959384
 30
0.0
 11
230.74485095322621
 21
83.16999992395867
 31
0.0
  0
LINE
  5
125C
  8
LAYER4
  6
BYBLOCK
 10
230.74485095322621
 20
81.930423971503501
 30
0.0
 11
231.7311145122824
 21
81.930423971503501
 31
0.0
  0
LINE
  5
125D
  8
LAYER4
  6
BYBLOCK
 10
230.27645163646071
 20
85.54249992395998
 30
0.0
 11
229.9407938889928
 21
83.688709727184417
 31
0.0
  0
LINE
  5
125E
  8
LAYER4
  6
BYBLOCK
 10
232.71737807134019
 20
83.060143311190259
 30
0.0
 11
231.45968677603761
 21
84.317834606492966
 31
0.0
  0
LINE
  5
125F
  8
LAYER4
  6
BYBLOCK
 10
233.08485095322629
 20
83.16999992395867
 30
0.0
 11
231.6098509532261
 21
84.644999923959091
 31
0.0
  0
ARC
  5
1260
  8
LAYER3
 10
228.50485095322651
 20
91.619999923959185
 30
0.0
 40
1.5
 50
270.0
 51
90.0
  0
ARC
  5
1261
  8
LAYER4
  6
CONTINUOUS
 10
227.00485095322639
 20
91.669999923959409
 30
0.0
 40
2.0
 50
133.53115216737569
 51
230.80503257402739
  0
LINE
  5
1262
  8
LAYER3
 10
228.50485095322651
 20
93.119999923959213
 30
0.0
 11
225.50485095322639
 21
93.119999923959213
 31
0.0
  0
LINE
  5
1263
  8
LAYER3
 10
228.50485095322651
 20
90.119999923959185
 30
0.0
 11
225.50485095322639
 21
90.119999923959185
 31
0.0
  0
ARC
  5
1264
  8
LAYER4
  6
CONTINUOUS
 10
227.00485095322639
 20
91.669999923959409
 30
0.0
 40
2.0
 50
309.19496742597232
 51
46.4688478326241
  0
CIRCLE
  5
1265
  8
LAYER4
  6
CONTINUOUS
 10
228.00485095322639
 20
91.669999923959409
 30
0.0
 40
0.85
  0
LINE
  5
1266
  8
LAYER4
  6
CONTINUOUS
 10
227.00485095322639
 20
90.819999923959415
 30
0.0
 11
228.00485095322639
 21
90.819999923959415
 31
0.0
  0
LINE
  5
1267
  8
LAYER4
  6
CONTINUOUS
 10
227.00485095322639
 20
92.519999923959404
 30
0.0
 11
228.00485095322639
 21
92.519999923959404
 31
0.0
  0
ARC
  5
1268
  8
LAYER4
  6
CONTINUOUS
 10
227.00485095322639
 20
91.669999923959409
 30
0.0
 40
0.85
 50
90.0
 51
270.0
  0
LINE
  5
126A
  8
LAYER2
  6
CONTINUOUS
 10
108.999999750157
 20
167.09999992395899
 30
0.0
 11
2.999999750157142
 21
167.09999992395899
 31
0.0
  0
LINE
  5
126B
  8
LAYER2
  6
CONTINUOUS
 10
2.999999750157142
 20
167.09999992395899
 30
0.0
 11
2.9999997501573712
 21
146.62618252135101
 31
0.0
  0
LINE
  5
1272
  8
LAYER1
  6
CONTINUOUS
 10
2.999999750157142
 20
178.0476427046471
 30
0.0
 11
2.999999750157142
 21
146.62618252135101
 31
0.0
  0
LINE
  5
1279
  8
LAYER1
  6
CONTINUOUS
 10
1.299999750157097
 20
147.0999999239591
 30
0.0
 11
1.299999750157097
 21
137.0999999239591
 31
0.0
  0
LINE
  5
127A
  8
LAYER1
  6
CONTINUOUS
 10
1.299999750157097
 20
137.0999999239591
 30
0.0
 11
2.999999750157142
 21
137.07381732656711
 31
0.0
  0
LINE
  5
127B
  8
LAYER2
  6
CONTINUOUS
 10
1.499999750157142
 20
146.5999999239591
 30
0.0
 11
1.499999750157142
 21
137.5999999239591
 31
0.0
  0
LINE
  5
127C
  8
LAYER2
  6
CONTINUOUS
 10
1.499999750157142
 20
137.5999999239591
 30
0.0
 11
2.999999750157142
 21
137.57381732656711
 31
0.0
  0
LINE
  5
127D
  8
LAYER2
  6
CONTINUOUS
 10
2.999999750157142
 20
146.62618252135101
 30
0.0
 11
1.499999750157142
 21
146.5999999239591
 31
0.0
  0
LINE
  5
127E
  8
LAYER1
  6
CONTINUOUS
 10
1.299999750157097
 20
147.0999999239591
 30
0.0
 11
2.999999750158052
 21
147.1261825213511
 31
0.0
  0
LINE
  5
1281
  8
LAYER5
 10
7.0527779363115979
 20
167.09999992395899
 30
0.0000000000000041
 11
25.94722156400292
 21
167.09999992395899
 31
-0.0000000000000073
  0
LINE
  5
1283
  8
LAYER1
  6
CONTINUOUS
 10
-0.0000002498428564
 20
178.09999992395899
 30
0.0
 11
2.9995428356261278
 21
178.0476427046471
 31
0.0
  0
LINE
  5
1285
  8
LAYER5
  6
CONTINUOUS
 10
23.999999750157361
 20
167.09999992395899
 30
-0.0000000000000016
 11
22.499999750157119
 21
167.09999992395899
 31
-0.0000000000000016
  0
LINE
  5
1286
  8
LAYER4
  6
CONTINUOUS
 10
114.08999975015691
 20
153.0699999239593
 30
0.0
 11
120.1509997501571
 21
153.0699999239593
 31
0.0
  0
LINE
  5
1287
  8
LAYER4
  6
CONTINUOUS
 10
114.08999975015691
 20
157.89999992395909
 30
0.0
 11
124.08999975015691
 21
157.89999992395909
 31
0.0
  0
LINE
  5
1288
  8
LAYER4
  6
CONTINUOUS
 10
114.08999975015691
 20
100.2599999239591
 30
0.0
 11
124.08999975015691
 21
100.2599999239591
 31
0.0
  0
LINE
  5
1289
  8
LAYER4
  6
CONTINUOUS
 10
114.08999975015691
 20
105.0899999239591
 30
0.0
 11
120.1509997501571
 21
105.0899999239591
 31
0.0
  0
LINE
  5
128A
  8
LAYER4
  6
CONTINUOUS
 10
114.08999975015691
 20
153.0699999239593
 30
0.0
 11
110.58999975015691
 21
150.77799992395941
 31
0.0
  0
LINE
  5
128B
  8
LAYER2
  6
CONTINUOUS
 10
56.426163911417348
 20
95.432021159925085
 30
0.0
 11
50.977816978256328
 21
95.426465352019193
 31
0.0
  0
LINE
  5
128C
  8
LAYER2
  6
CONTINUOUS
 10
50.977816978256328
 20
95.426465352019193
 30
0.0
 11
55.209776489585352
 21
101.815318227963
 31
0.0
  0
LINE
  5
128D
  8
LAYER2
  6
CONTINUOUS
 10
32.206190663692361
 20
107.8487634310149
 30
0.0
 11
40.845988107352341
 21
107.8487634310149
 31
0.0
  0
POLYLINE
  5
128E
  8
LAYER2
  6
CONTINUOUS
 66
     1
 10
0.0
 20
0.0
 30
0.0
  0
VERTEX
  5
1918
  8
LAYER2
  6
CONTINUOUS
 10
32.206190663692361
 20
107.8487634310149
 30
0.0
  0
VERTEX
  5
1919
  8
LAYER2
  6
CONTINUOUS
 10
32.226107360480547
 20
107.806997802401
 30
0.0
  0
VERTEX
  5
191A
  8
LAYER2
  6
CONTINUOUS
 10
32.268161819278362
 20
107.762325358967
 30
0.0
  0
VERTEX
  5
191B
  8
LAYER2
  6
CONTINUOUS
 10
32.301044961109369
 20
107.7373123054669
 30
0.0
  0
VERTEX
  5
191C
  8
LAYER2
  6
CONTINUOUS
 10
32.447143339082572
 20
107.6443027755731
 30
0.0
  0
VERTEX
  5
191D
  8
LAYER2
  6
CONTINUOUS
 10
32.531202124192411
 20
107.5742341411781
 30
0.0
  0
VERTEX
  5
191E
  8
LAYER2
  6
CONTINUOUS
 10
32.55715361129716
 20
107.5482908990321
 30
0.0
  0
VERTEX
  5
191F
  8
LAYER2
  6
CONTINUOUS
 10
32.650315347008579
 20
107.442818722342
 30
0.0
  0
VERTEX
  5
1920
  8
LAYER2
  6
CONTINUOUS
 10
32.73527212816645
 20
107.34466442935189
 30
0.0
  0
VERTEX
  5
1921
  8
LAYER2
  6
CONTINUOUS
 10
32.818583392336322
 20
107.24385284410199
 30
0.0
  0
VERTEX
  5
1922
  8
LAYER2
  6
CONTINUOUS
 10
32.88953121260748
 20
107.1472567420231
 30
0.0
  0
VERTEX
  5
1923
  8
LAYER2
  6
CONTINUOUS
 10
32.95482417993037
 20
107.046946713637
 30
0.0
  0
VERTEX
  5
1924
  8
LAYER2
  6
CONTINUOUS
 10
33.01087423994646
 20
106.9506767721541
 30
0.0
  0
VERTEX
  5
1925
  8
LAYER2
  6
CONTINUOUS
 10
33.061914414657501
 20
106.85164190373
 30
0.0
  0
VERTEX
  5
1926
  8
LAYER2
  6
CONTINUOUS
 10
33.10494534823134
 20
106.755651144084
 30
0.0
  0
VERTEX
  5
1927
  8
LAYER2
  6
CONTINUOUS
 10
33.142730801382299
 20
106.65747998716211
 30
0.0
  0
VERTEX
  5
1928
  8
LAYER2
  6
CONTINUOUS
 10
33.173938154286233
 20
106.561481214384
 30
0.0
  0
VERTEX
  5
1929
  8
LAYER2
  6
CONTINUOUS
 10
33.20015004497246
 20
106.464002536717
 30
0.0
  0
VERTEX
  5
192A
  8
LAYER2
  6
CONTINUOUS
 10
33.220900136082371
 20
106.367816519752
 30
0.0
  0
VERTEX
  5
192B
  8
LAYER2
  6
CONTINUOUS
 10
33.23704885029256
 20
106.27075112517601
 30
0.0
  0
VERTEX
  5
192C
  8
LAYER2
  6
CONTINUOUS
 10
33.248681668324359
 20
106.174207594782
 30
0.0
  0
VERTEX
  5
192D
  8
LAYER2
  6
CONTINUOUS
 10
33.256303922207373
 20
106.07726732532311
 30
0.0
  0
VERTEX
  5
192E
  8
LAYER2
  6
CONTINUOUS
 10
33.26022963657158
 20
105.980224602386
 30
0.0
  0
VERTEX
  5
192F
  8
LAYER2
  6
CONTINUOUS
 10
33.26079196558419
 20
105.8830927099412
 30
0.0
  0
VERTEX
  5
1930
  8
LAYER2
  6
CONTINUOUS
 10
33.25833400794852
 20
105.785359573761
 30
0.0
  0
VERTEX
  5
1931
  8
LAYER2
  6
CONTINUOUS
 10
33.253389685288191
 20
105.687768851811
 30
0.0
  0
VERTEX
  5
1932
  8
LAYER2
  6
CONTINUOUS
 10
33.246311261051559
 20
105.589310076142
 30
0.0
  0
VERTEX
  5
1933
  8
LAYER2
  6
CONTINUOUS
 10
33.236973786186461
 20
105.49083732371599
 30
0.0
  0
VERTEX
  5
1934
  8
LAYER2
  6
CONTINUOUS
 10
33.225454497420387
 20
105.3909574952569
 30
0.0
  0
VERTEX
  5
1935
  8
LAYER2
  6
CONTINUOUS
 10
33.214420973142182
 20
105.29183969843911
 30
0.0
  0
VERTEX
  5
1936
  8
LAYER2
  6
CONTINUOUS
 10
33.20471188840736
 20
105.19227124968999
 30
0.0
  0
VERTEX
  5
1937
  8
LAYER2
  6
CONTINUOUS
 10
33.188607951023279
 20
105.090317548763
 30
0.0
  0
VERTEX
  5
1938
  8
LAYER2
  6
CONTINUOUS
 10
33.163822225255331
 20
104.98344942817801
 30
0.0
  0
VERTEX
  5
1939
  8
LAYER2
  6
CONTINUOUS
 10
33.157677866462222
 20
104.91657483562589
 30
0.0
  0
VERTEX
  5
193A
  8
LAYER2
  6
CONTINUOUS
 10
33.162411424694362
 20
104.88581244747
 30
0.0
  0
SEQEND
  5
193B
  8
LAYER2
  6
CONTINUOUS
  0
LINE
  5
12B3
  8
LAYER2
  6
CONTINUOUS
 10
55.209776489585352
 20
101.815318227963
 30
0.0
 11
56.426163911417348
 21
95.432021159925085
 31
0.0
  0
LINE
  5
12B4
  8
LAYER2
  6
CONTINUOUS
 10
53.615836990280172
 20
107.81273054377201
 30
0.0
 11
61.50822981023942
 21
107.8166195558321
 31
0.0
  0
POLYLINE
  5
12B5
  8
LAYER2
  6
CONTINUOUS
 66
     1
 10
0.0
 20
0.0
 30
0.0
  0
VERTEX
  5
193C
  8
LAYER2
  6
CONTINUOUS
 10
53.615836990280172
 20
107.81273054377201
 30
0.0
  0
VERTEX
  5
193D
  8
LAYER2
  6
CONTINUOUS
 10
53.622012539336417
 20
107.7915604192392
 30
0.0
  0
VERTEX
  5
193E
  8
LAYER2
  6
CONTINUOUS
 10
53.636930691241218
 20
107.769014444978
 30
0.0
  0
VERTEX
  5
193F
  8
LAYER2
  6
CONTINUOUS
 10
53.665008895971262
 20
107.741791237012
 30
0.0
  0
VERTEX
  5
1940
  8
LAYER2
  6
CONTINUOUS
 10
53.750175354306172
 20
107.674360987993
 30
0.0
  0
VERTEX
  5
1941
  8
LAYER2
  6
CONTINUOUS
 10
53.79318743745818
 20
107.632186102685
 30
0.0
  0
VERTEX
  5
1942
  8
LAYER2
  6
CONTINUOUS
 10
53.813605296158237
 20
107.608515108002
 30
0.0
  0
VERTEX
  5
1943
  8
LAYER2
  6
CONTINUOUS
 10
53.86573682734717
 20
107.539411081965
 30
0.0
  0
VERTEX
  5
1944
  8
LAYER2
  6
CONTINUOUS
 10
53.914603599994393
 20
107.474090322042
 30
0.0
  0
VERTEX
  5
1945
  8
LAYER2
  6
CONTINUOUS
 10
53.962926078302289
 20
107.4071056335879
 30
0.0
  0
VERTEX
  5
1946
  8
LAYER2
  6
CONTINUOUS
 10
54.004334856155197
 20
107.3428587652709
 30
0.0
  0
VERTEX
  5
1947
  8
LAYER2
  6
CONTINUOUS
 10
54.042147776073399
 20
107.2766694507621
 30
0.0
  0
VERTEX
  5
1948
  8
LAYER2
  6
CONTINUOUS
 10
54.074647747983249
 20
107.21281439153999
 30
0.0
  0
VERTEX
  5
1949
  8
LAYER2
  6
CONTINUOUS
 10
54.10380658956214
 20
107.14732734138811
 30
0.0
  0
VERTEX
  5
194A
  8
LAYER2
  6
CONTINUOUS
 10
54.127967175608433
 20
107.08347027659489
 30
0.0
  0
VERTEX
  5
194B
  8
LAYER2
  6
CONTINUOUS
 10
54.148307187669282
 20
107.0183041133651
 30
0.0
  0
VERTEX
  5
194C
  8
LAYER2
  6
CONTINUOUS
 10
54.164172359238457
 20
106.953990887172
 30
0.0
  0
VERTEX
  5
194D
  8
LAYER2
  6
CONTINUOUS
 10
54.176054239295247
 20
106.88882457459491
 30
0.0
  0
VERTEX
  5
194E
  8
LAYER2
  6
CONTINUOUS
 10
54.183772010982132
 20
106.8236453072159
 30
0.0
  0
VERTEX
  5
194F
  8
LAYER2
  6
CONTINUOUS
 10
54.187452413342378
 20
106.7581135329761
 30
0.0
  0
VERTEX
  5
1950
  8
LAYER2
  6
CONTINUOUS
 10
54.1871272883592
 20
106.691687969593
 30
0.0
  0
VERTEX
  5
1951
  8
LAYER2
  6
CONTINUOUS
 10
54.182906378711451
 20
106.62539579640899
 30
0.0
  0
VERTEX
  5
1952
  8
LAYER2
  6
CONTINUOUS
 10
54.174696160084409
 20
106.55737937391299
 30
0.0
  0
VERTEX
  5
1953
  8
LAYER2
  6
CONTINUOUS
 10
54.162820804302207
 20
106.489896172794
 30
0.0
  0
VERTEX
  5
1954
  8
LAYER2
  6
CONTINUOUS
 10
54.146785492615088
 20
106.41994690019899
 30
0.0
  0
VERTEX
  5
1955
  8
LAYER2
  6
CONTINUOUS
 10
54.127600359016107
 20
106.350839470031
 30
0.0
  0
VERTEX
  5
1956
  8
LAYER2
  6
CONTINUOUS
 10
54.104312636804359
 20
106.27867451650199
 30
0.0
  0
VERTEX
  5
1957
  8
LAYER2
  6
CONTINUOUS
 10
54.077649711756401
 20
106.207450496021
 30
0.0
  0
VERTEX
  5
1958
  8
LAYER2
  6
CONTINUOUS
 10
54.045721095058397
 20
106.1325462825351
 30
0.0
  0
VERTEX
  5
1959
  8
LAYER2
  6
CONTINUOUS
 10
54.01337353142128
 20
106.0589540586621
 30
0.0
  0
VERTEX
  5
195A
  8
LAYER2
  6
CONTINUOUS
 10
53.979569735128173
 20
105.981731556433
 30
0.0
  0
VERTEX
  5
195B
  8
LAYER2
  6
CONTINUOUS
 10
53.947829152472309
 20
105.923771621409
 30
0.0
  0
VERTEX
  5
195C
  8
LAYER2
  6
CONTINUOUS
 10
53.935176486913292
 20
105.90457496585699
 30
0.0
  0
VERTEX
  5
195D
  8
LAYER2
  6
CONTINUOUS
 10
53.872635923106259
 20
105.8214929809742
 30
0.0
  0
VERTEX
  5
195E
  8
LAYER2
  6
CONTINUOUS
 10
53.852034791758221
 20
105.7870685182271
 30
0.0
  0
VERTEX
  5
195F
  8
LAYER2
  6
CONTINUOUS
 10
53.843938458140308
 20
105.7615747860701
 30
0.0
  0
VERTEX
  5
1960
  8
LAYER2
  6
CONTINUOUS
 10
53.84346324713227
 20
105.74353802550399
 30
0.0
  0
SEQEND
  5
1961
  8
LAYER2
  6
CONTINUOUS
  0
LINE
  5
12DC
  8
LAYER4
  6
CONTINUOUS
 10
110.58999975015691
 20
150.77799992395941
 30
0.0
 11
110.58999975015691
 21
107.3819999239592
 31
0.0
  0
LINE
  5
12DD
  8
LAYER2
  6
CONTINUOUS
 10
73.884336064072244
 20
107.8487634310149
 30
0.0
 11
82.524133507732245
 21
107.8487634310149
 31
0.0
  0
POLYLINE
  5
12DE
  8
LAYER2
  6
CONTINUOUS
 66
     1
 10
0.0
 20
0.0
 30
0.0
  0
VERTEX
  5
1962
  8
LAYER2
  6
CONTINUOUS
 10
73.884336064072244
 20
107.8487634310149
 30
0.0
  0
VERTEX
  5
1963
  8
LAYER2
  6
CONTINUOUS
 10
73.904252760860459
 20
107.806997802401
 30
0.0
  0
VERTEX
  5
1964
  8
LAYER2
  6
CONTINUOUS
 10
73.946307219658266
 20
107.762325358967
 30
0.0
  0
VERTEX
  5
1965
  8
LAYER2
  6
CONTINUOUS
 10
73.979190361489273
 20
107.7373123054669
 30
0.0
  0
VERTEX
  5
1966
  8
LAYER2
  6
CONTINUOUS
 10
74.125288739462448
 20
107.6443027755731
 30
0.0
  0
VERTEX
  5
1967
  8
LAYER2
  6
CONTINUOUS
 10
74.209347524572294
 20
107.5742341411781
 30
0.0
  0
VERTEX
  5
1968
  8
LAYER2
  6
CONTINUOUS
 10
74.235299011677071
 20
107.5482908990321
 30
0.0
  0
VERTEX
  5
1969
  8
LAYER2
  6
CONTINUOUS
 10
74.328460747388434
 20
107.442818722342
 30
0.0
  0
VERTEX
  5
196A
  8
LAYER2
  6
CONTINUOUS
 10
74.413417528546375
 20
107.34466442935189
 30
0.0
  0
VERTEX
  5
196B
  8
LAYER2
  6
CONTINUOUS
 10
74.49672879271624
 20
107.24385284410199
 30
0.0
  0
VERTEX
  5
196C
  8
LAYER2
  6
CONTINUOUS
 10
74.56767661298737
 20
107.1472567420231
 30
0.0
  0
VERTEX
  5
196D
  8
LAYER2
  6
CONTINUOUS
 10
74.632969580310231
 20
107.046946713637
 30
0.0
  0
VERTEX
  5
196E
  8
LAYER2
  6
CONTINUOUS
 10
74.68901964032635
 20
106.9506767721541
 30
0.0
  0
VERTEX
  5
196F
  8
LAYER2
  6
CONTINUOUS
 10
74.740059815037355
 20
106.85164190373
 30
0.0
  0
VERTEX
  5
1970
  8
LAYER2
  6
CONTINUOUS
 10
74.783090748611215
 20
106.755651144084
 30
0.0
  0
VERTEX
  5
1971
  8
LAYER2
  6
CONTINUOUS
 10
74.820876201762189
 20
106.65747998716211
 30
0.0
  0
VERTEX
  5
1972
  8
LAYER2
  6
CONTINUOUS
 10
74.852083554666095
 20
106.561481214384
 30
0.0
  0
VERTEX
  5
1973
  8
LAYER2
  6
CONTINUOUS
 10
74.87829544535235
 20
106.464002536717
 30
0.0
  0
VERTEX
  5
1974
  8
LAYER2
  6
CONTINUOUS
 10
74.899045536462253
 20
106.367816519752
 30
0.0
  0
VERTEX
  5
1975
  8
LAYER2
  6
CONTINUOUS
 10
74.915194250672457
 20
106.27075112517601
 30
0.0
  0
VERTEX
  5
1976
  8
LAYER2
  6
CONTINUOUS
 10
74.926827068704256
 20
106.174207594782
 30
0.0
  0
VERTEX
  5
1977
  8
LAYER2
  6
CONTINUOUS
 10
74.934449322587284
 20
106.07726732532311
 30
0.0
  0
VERTEX
  5
1978
  8
LAYER2
  6
CONTINUOUS
 10
74.93837503695147
 20
105.980224602386
 30
0.0
  0
VERTEX
  5
1979
  8
LAYER2
  6
CONTINUOUS
 10
74.93893736596408
 20
105.8830927099412
 30
0.0
  0
VERTEX
  5
197A
  8
LAYER2
  6
CONTINUOUS
 10
74.936479408328367
 20
105.785359573761
 30
0.0
  0
VERTEX
  5
197B
  8
LAYER2
  6
CONTINUOUS
 10
74.931535085668045
 20
105.687768851811
 30
0.0
  0
VERTEX
  5
197C
  8
LAYER2
  6
CONTINUOUS
 10
74.924456661431449
 20
105.589310076142
 30
0.0
  0
VERTEX
  5
197D
  8
LAYER2
  6
CONTINUOUS
 10
74.915119186566372
 20
105.49083732371599
 30
0.0
  0
VERTEX
  5
197E
  8
LAYER2
  6
CONTINUOUS
 10
74.903599897800291
 20
105.3909574952569
 30
0.0
  0
VERTEX
  5
197F
  8
LAYER2
  6
CONTINUOUS
 10
74.892566373522044
 20
105.29183969843911
 30
0.0
  0
VERTEX
  5
1980
  8
LAYER2
  6
CONTINUOUS
 10
74.88285728878725
 20
105.19227124968999
 30
0.0
  0
VERTEX
  5
1981
  8
LAYER2
  6
CONTINUOUS
 10
74.86675335140319
 20
105.090317548763
 30
0.0
  0
VERTEX
  5
1982
  8
LAYER2
  6
CONTINUOUS
 10
74.841967625635206
 20
104.98344942817801
 30
0.0
  0
VERTEX
  5
1983
  8
LAYER2
  6
CONTINUOUS
 10
74.835823266842112
 20
104.91657483562589
 30
0.0
  0
VERTEX
  5
1984
  8
LAYER2
  6
CONTINUOUS
 10
74.840556825074259
 20
104.88581244747
 30
0.0
  0
SEQEND
  5
1985
  8
LAYER2
  6
CONTINUOUS
  0
LINE
  5
1303
  8
LAYER4
  6
CONTINUOUS
 10
114.08999975015691
 20
105.0899999239591
 30
0.0
 11
114.08999975015691
 21
100.2599999239591
 31
0.0
  0
LINE
  5
1304
  8
LAYER4
  6
CONTINUOUS
 10
114.08999975015691
 20
100.2599999239591
 30
0.0
 11
109.3381678370322
 21
99.062142295858905
 31
0.0
  0
LINE
  5
1305
  8
LAYER4
  6
CONTINUOUS
 10
110.58999975015691
 20
107.3819999239592
 30
0.0
 11
114.08999975015691
 21
105.0899999239591
 31
0.0
  0
ARC
  5
1306
  8
LAYER2
  6
CONTINUOUS
 10
108.999999750157
 20
166.09999992395899
 30
0.0
 40
1.0
 50
0.0
 51
90.0
  0
ARC
  5
1307
  8
LAYER2
  6
CONTINUOUS
 10
107.999999750157
 20
166.09999992395899
 30
0.0
 40
1.0
 50
0.0
 51
90.0
  0
LINE
  5
1308
  8
LAYER4
  6
CONTINUOUS
 10
114.08999975015691
 20
157.89999992395909
 30
0.0
 11
114.08999975015691
 21
153.0699999239593
 31
0.0
  0
LINE
  5
1309
  8
LAYER4
  6
CONTINUOUS
 10
109.3381678370322
 20
159.09785755205939
 30
0.0
 11
114.08999975015691
 21
157.89999992395909
 31
0.0
  0
LINE
  5
130A
  8
LAYER2
  6
CONTINUOUS
 10
109.999999750157
 20
166.09999992395899
 30
0.0
 11
109.9999997501569
 21
162.01999992395881
 31
0.0
  0
LINE
  5
130B
  8
LAYER2
  6
CONTINUOUS
 10
109.3381678370322
 20
161.35816801083419
 30
0.0
 11
109.999999750157
 21
162.01999992395909
 31
0.0
  0
LINE
  5
130C
  8
0
  6
CONTINUOUS
 10
223.50485095322639
 20
161.01999992395909
 30
0.0
 11
223.50485095322639
 21
97.319999923958491
 31
0.0
  0
LINE
  5
130D
  8
LAYER4
  6
CONTINUOUS
 10
120.1509997501571
 20
153.0699999239593
 30
0.0
 11
120.1509997501571
 21
150.57399992395901
 31
0.0
  0
LINE
  5
130E
  8
LAYER4
  6
CONTINUOUS
 10
124.08999975015691
 20
156.21999992395911
 30
0.0
 11
121.269999750157
 21
150.57399992395901
 31
0.0
  0
LINE
  5
1310
  8
LAYER5
 10
216.50485095322639
 20
157.0999999239591
 30
0.0
 11
216.50485095322639
 21
115.099999923959
 31
0.0
  0
POLYLINE
  5
1311
  8
LAYER3
 66
     1
 10
0.0
 20
0.0
 30
0.0
  0
VERTEX
  5
1986
  8
LAYER3
 10
233.00485095322639
 20
161.01999992395909
 30
0.0
  0
VERTEX
  5
1987
  8
LAYER3
 10
233.00485095322639
 20
97.319999923958491
 30
0.0
  0
VERTEX
  5
1988
  8
LAYER3
 10
222.50485095322639
 20
97.319999923958491
 30
0.0
  0
VERTEX
  5
1989
  8
LAYER3
 10
222.50485095322639
 20
161.01999992395909
 30
0.0
  0
SEQEND
  5
198A
  8
LAYER3
  0
LINE
  5
1317
  8
LAYER4
  6
CONTINUOUS
 10
232.00485095322639
 20
160.32099992395911
 30
0.0
 11
232.00485095322639
 21
97.839999923959184
 31
0.0
  0
LINE
  5
1318
  8
LAYER4
  6
CONTINUOUS
 10
232.00485095322639
 20
160.32099992395911
 30
0.0
 11
232.00485095322639
 21
97.839999923959184
 31
0.0
  0
LINE
  5
1319
  8
LAYER4
  6
CONTINUOUS
 10
231.90585095322629
 20
157.8729999239591
 30
0.0
 11
231.90585095322629
 21
150.870999923959
 31
0.0
  0
LINE
  5
131A
  8
LAYER4
  6
CONTINUOUS
 10
243.2048509532263
 20
151.79999992395901
 30
0.0
 11
243.2048509532263
 21
155.99999992395911
 31
0.0
  0
LINE
  5
131B
  8
LAYER4
  6
CONTINUOUS
 10
242.50485095322639
 20
156.5999999239591
 30
0.0
 11
242.50485095322639
 21
151.19999992395901
 31
0.0
  0
LINE
  5
131C
  8
LAYER4
  6
CONTINUOUS
 10
223.50485095322639
 20
97.839999923959184
 30
0.0
 11
223.50485095322639
 21
160.32099992395911
 31
0.0
  0
LINE
  5
131D
  8
LAYER4
  6
CONTINUOUS
 10
223.80585095322641
 20
160.32099992395911
 30
0.0
 11
223.80585095322641
 21
97.839999923959184
 31
0.0
  0
LINE
  5
131E
  8
LAYER4
  6
CONTINUOUS
 10
223.9048509532262
 20
157.8729999239591
 30
0.0
 11
223.9048509532262
 21
150.870999923959
 31
0.0
  0
LINE
  5
1322
  8
LAYER4
  6
CONTINUOUS
 10
124.08999975015691
 20
101.93999992395911
 30
0.0
 11
124.08999975015691
 21
100.2599999239591
 31
0.0
  0
LINE
  5
1323
  8
LAYER4
  6
CONTINUOUS
 10
120.1509997501571
 20
107.58599992395899
 30
0.0
 11
120.1509997501571
 21
105.0899999239591
 31
0.0
  0
LINE
  5
1324
  8
LAYER4
  6
CONTINUOUS
 10
120.1509997501571
 20
107.58599992395899
 30
0.0
 11
121.269999750157
 21
107.58599992395899
 31
0.0
  0
LINE
  5
1325
  8
LAYER4
  6
CONTINUOUS
 10
121.269999750157
 20
107.58599992395899
 30
0.0
 11
124.08999975015691
 21
101.93999992395911
 31
0.0
  0
LINE
  5
1326
  8
LAYER4
  6
CONTINUOUS
 10
120.1509997501571
 20
150.57399992395901
 30
0.0
 11
121.269999750157
 21
150.57399992395901
 31
0.0
  0
LINE
  5
1327
  8
LAYER4
  6
CONTINUOUS
 10
231.0058509532264
 20
127.032999923959
 30
0.0
 11
231.0058509532264
 21
107.3919999239591
 31
0.0
  0
LINE
  5
1328
  8
LAYER4
  6
CONTINUOUS
 10
224.80485095322641
 20
150.870999923959
 30
0.0
 11
224.80485095322641
 21
107.3919999239591
 31
0.0
  0
LINE
  5
1329
  8
LAYER4
  6
CONTINUOUS
 10
232.00485095322639
 20
97.839999923959184
 30
0.0
 11
223.50485095322639
 21
97.839999923959184
 31
0.0
  0
LINE
  5
132A
  8
LAYER4
  6
CONTINUOUS
 10
223.80585095322641
 20
97.839999923959184
 30
0.0
 11
232.00485095322639
 21
97.839999923959184
 31
0.0
  0
LINE
  5
132B
  8
LAYER4
  6
CONTINUOUS
 10
223.9048509532262
 20
107.3919999239591
 30
0.0
 11
231.90585095322629
 21
107.3919999239591
 31
0.0
  0
LINE
  5
132C
  8
LAYER4
  6
CONTINUOUS
 10
223.80585095322641
 20
100.2399999239591
 30
0.0
 11
232.00485095322639
 21
100.2399999239591
 31
0.0
  0
LINE
  5
132D
  8
LAYER4
  6
CONTINUOUS
 10
223.9048509532262
 20
100.3899999239591
 30
0.0
 11
231.90585095322629
 21
100.3899999239591
 31
0.0
  0
LINE
  5
132E
  8
LAYER4
  6
CONTINUOUS
 10
223.9048509532262
 20
102.3909999239591
 30
0.0
 11
231.90585095322629
 21
102.3909999239591
 31
0.0
  0
LINE
  5
132F
  8
LAYER4
  6
CONTINUOUS
 10
223.9048509532262
 20
107.3919999239591
 30
0.0
 11
223.9048509532262
 21
100.3899999239591
 31
0.0
  0
LINE
  5
1330
  8
LAYER4
  6
CONTINUOUS
 10
223.80585095322641
 20
107.04099992395911
 30
0.0
 11
223.9048509532262
 21
107.04099992395911
 31
0.0
  0
LINE
  5
1331
  8
LAYER4
  6
CONTINUOUS
 10
223.80585095322641
 20
105.039999923959
 30
0.0
 11
223.9048509532262
 21
105.039999923959
 31
0.0
  0
LINE
  5
1332
  8
LAYER4
  6
CONTINUOUS
 10
231.90585095322629
 20
107.3919999239591
 30
0.0
 11
231.90585095322629
 21
100.3899999239591
 31
0.0
  0
LINE
  5
1333
  8
LAYER4
  6
CONTINUOUS
 10
231.90585095322629
 20
105.039999923959
 30
0.0
 11
232.00485095322639
 21
105.039999923959
 31
0.0
  0
LINE
  5
1334
  8
LAYER4
  6
CONTINUOUS
 10
231.90585095322629
 20
107.04099992395911
 30
0.0
 11
232.00485095322639
 21
107.04099992395911
 31
0.0
  0
LINE
  5
1335
  8
LAYER4
  6
CONTINUOUS
 10
229.4758509532264
 20
111.61299992395899
 30
0.0
 11
229.4758509532264
 21
111.012999923959
 31
0.0
  0
LINE
  5
1336
  8
LAYER4
  6
CONTINUOUS
 10
229.4758509532264
 20
109.0719999239591
 30
0.0
 11
229.4758509532264
 21
108.4719999239591
 31
0.0
  0
LINE
  5
1337
  8
LAYER4
  6
CONTINUOUS
 10
228.8758509532264
 20
114.15399992395911
 30
0.0
 11
229.4758509532264
 21
114.15399992395911
 31
0.0
  0
LINE
  5
1338
  8
LAYER4
  6
CONTINUOUS
 10
229.4758509532264
 20
114.15399992395911
 30
0.0
 11
229.4758509532264
 21
113.553999923959
 31
0.0
  0
LINE
  5
1339
  8
LAYER4
  6
CONTINUOUS
 10
228.8758509532264
 20
109.0719999239591
 30
0.0
 11
229.4758509532264
 21
109.0719999239591
 31
0.0
  0
LINE
  5
133A
  8
LAYER4
  6
CONTINUOUS
 10
228.8758509532264
 20
108.4719999239591
 30
0.0
 11
229.4758509532264
 21
108.4719999239591
 31
0.0
  0
LINE
  5
133B
  8
LAYER4
  6
CONTINUOUS
 10
228.8758509532264
 20
111.012999923959
 30
0.0
 11
229.4758509532264
 21
111.012999923959
 31
0.0
  0
LINE
  5
133C
  8
LAYER4
  6
CONTINUOUS
 10
228.8758509532264
 20
111.61299992395899
 30
0.0
 11
229.4758509532264
 21
111.61299992395899
 31
0.0
  0
LINE
  5
133D
  8
LAYER4
  6
CONTINUOUS
 10
228.8758509532264
 20
113.553999923959
 30
0.0
 11
229.4758509532264
 21
113.553999923959
 31
0.0
  0
LINE
  5
133E
  8
LAYER4
  6
CONTINUOUS
 10
228.8758509532264
 20
109.0719999239591
 30
0.0
 11
228.8758509532264
 21
108.4719999239591
 31
0.0
  0
LINE
  5
133F
  8
LAYER4
  6
CONTINUOUS
 10
226.9348509532262
 20
109.0719999239591
 30
0.0
 11
226.9348509532262
 21
108.4719999239591
 31
0.0
  0
LINE
  5
1340
  8
LAYER4
  6
CONTINUOUS
 10
226.33485095322641
 20
109.0719999239591
 30
0.0
 11
226.33485095322641
 21
108.4719999239591
 31
0.0
  0
LINE
  5
1341
  8
LAYER4
  6
CONTINUOUS
 10
226.33485095322641
 20
109.0719999239591
 30
0.0
 11
226.9348509532262
 21
109.0719999239591
 31
0.0
  0
LINE
  5
1342
  8
LAYER4
  6
CONTINUOUS
 10
226.33485095322641
 20
108.4719999239591
 30
0.0
 11
226.9348509532262
 21
108.4719999239591
 31
0.0
  0
LINE
  5
1343
  8
LAYER4
  6
CONTINUOUS
 10
226.9348509532262
 20
114.15399992395911
 30
0.0
 11
226.9348509532262
 21
113.553999923959
 31
0.0
  0
LINE
  5
1344
  8
LAYER4
  6
CONTINUOUS
 10
226.33485095322641
 20
111.61299992395899
 30
0.0
 11
226.33485095322641
 21
111.012999923959
 31
0.0
  0
LINE
  5
1345
  8
LAYER4
  6
CONTINUOUS
 10
226.33485095322641
 20
111.012999923959
 30
0.0
 11
226.9348509532262
 21
111.012999923959
 31
0.0
  0
LINE
  5
1346
  8
LAYER4
  6
CONTINUOUS
 10
226.33485095322641
 20
114.15399992395911
 30
0.0
 11
226.33485095322641
 21
113.553999923959
 31
0.0
  0
LINE
  5
1347
  8
LAYER4
  6
CONTINUOUS
 10
228.8758509532264
 20
114.15399992395911
 30
0.0
 11
228.8758509532264
 21
113.553999923959
 31
0.0
  0
LINE
  5
1348
  8
LAYER4
  6
CONTINUOUS
 10
228.8758509532264
 20
111.61299992395899
 30
0.0
 11
228.8758509532264
 21
111.012999923959
 31
0.0
  0
LINE
  5
1349
  8
LAYER4
  6
CONTINUOUS
 10
226.9348509532262
 20
111.61299992395899
 30
0.0
 11
226.9348509532262
 21
111.012999923959
 31
0.0
  0
LINE
  5
134A
  8
LAYER4
  6
CONTINUOUS
 10
226.33485095322641
 20
111.61299992395899
 30
0.0
 11
226.9348509532262
 21
111.61299992395899
 31
0.0
  0
LINE
  5
134B
  8
LAYER4
  6
CONTINUOUS
 10
226.33485095322641
 20
113.553999923959
 30
0.0
 11
226.9348509532262
 21
113.553999923959
 31
0.0
  0
LINE
  5
134C
  8
LAYER4
  6
CONTINUOUS
 10
226.33485095322641
 20
114.15399992395911
 30
0.0
 11
226.9348509532262
 21
114.15399992395911
 31
0.0
  0
LINE
  5
134D
  8
LAYER4
  6
CONTINUOUS
 10
228.8758509532264
 20
121.173999923959
 30
0.0
 11
229.4758509532264
 21
121.173999923959
 31
0.0
  0
LINE
  5
134E
  8
LAYER4
  6
CONTINUOUS
 10
228.8758509532264
 20
121.773999923959
 30
0.0
 11
229.4758509532264
 21
121.773999923959
 31
0.0
  0
LINE
  5
134F
  8
LAYER4
  6
CONTINUOUS
 10
228.8758509532264
 20
116.09199992395899
 30
0.0
 11
229.4758509532264
 21
116.09199992395899
 31
0.0
  0
LINE
  5
1350
  8
LAYER4
  6
CONTINUOUS
 10
228.8758509532264
 20
116.6919999239591
 30
0.0
 11
229.4758509532264
 21
116.6919999239591
 31
0.0
  0
LINE
  5
1351
  8
LAYER4
  6
CONTINUOUS
 10
228.8758509532264
 20
118.6329999239591
 30
0.0
 11
229.4758509532264
 21
118.6329999239591
 31
0.0
  0
LINE
  5
1352
  8
LAYER4
  6
CONTINUOUS
 10
229.4758509532264
 20
119.2329999239591
 30
0.0
 11
229.4758509532264
 21
118.6329999239591
 31
0.0
  0
LINE
  5
1353
  8
LAYER4
  6
CONTINUOUS
 10
228.8758509532264
 20
119.2329999239591
 30
0.0
 11
229.4758509532264
 21
119.2329999239591
 31
0.0
  0
LINE
  5
1354
  8
LAYER4
  6
CONTINUOUS
 10
229.4758509532264
 20
121.773999923959
 30
0.0
 11
229.4758509532264
 21
121.173999923959
 31
0.0
  0
LINE
  5
1355
  8
LAYER4
  6
CONTINUOUS
 10
229.4758509532264
 20
116.6919999239591
 30
0.0
 11
229.4758509532264
 21
116.09199992395899
 31
0.0
  0
LINE
  5
1356
  8
LAYER4
  6
CONTINUOUS
 10
226.9348509532262
 20
116.6919999239591
 30
0.0
 11
226.9348509532262
 21
116.09199992395899
 31
0.0
  0
LINE
  5
1357
  8
LAYER4
  6
CONTINUOUS
 10
226.33485095322641
 20
116.6919999239591
 30
0.0
 11
226.33485095322641
 21
116.09199992395899
 31
0.0
  0
LINE
  5
1358
  8
LAYER4
  6
CONTINUOUS
 10
226.33485095322641
 20
119.2329999239591
 30
0.0
 11
226.33485095322641
 21
118.6329999239591
 31
0.0
  0
LINE
  5
1359
  8
LAYER4
  6
CONTINUOUS
 10
226.33485095322641
 20
118.6329999239591
 30
0.0
 11
226.9348509532262
 21
118.6329999239591
 31
0.0
  0
LINE
  5
135A
  8
LAYER4
  6
CONTINUOUS
 10
226.33485095322641
 20
119.2329999239591
 30
0.0
 11
226.9348509532262
 21
119.2329999239591
 31
0.0
  0
LINE
  5
135B
  8
LAYER4
  6
CONTINUOUS
 10
228.8758509532264
 20
121.773999923959
 30
0.0
 11
228.8758509532264
 21
121.173999923959
 31
0.0
  0
LINE
  5
135C
  8
LAYER4
  6
CONTINUOUS
 10
226.33485095322641
 20
116.6919999239591
 30
0.0
 11
226.9348509532262
 21
116.6919999239591
 31
0.0
  0
LINE
  5
135D
  8
LAYER4
  6
CONTINUOUS
 10
226.33485095322641
 20
121.773999923959
 30
0.0
 11
226.33485095322641
 21
121.173999923959
 31
0.0
  0
LINE
  5
135E
  8
LAYER4
  6
CONTINUOUS
 10
228.8758509532264
 20
119.2329999239591
 30
0.0
 11
228.8758509532264
 21
118.6329999239591
 31
0.0
  0
LINE
  5
135F
  8
LAYER4
  6
CONTINUOUS
 10
226.9348509532262
 20
119.2329999239591
 30
0.0
 11
226.9348509532262
 21
118.6329999239591
 31
0.0
  0
LINE
  5
1360
  8
LAYER4
  6
CONTINUOUS
 10
226.9348509532262
 20
121.773999923959
 30
0.0
 11
226.9348509532262
 21
121.173999923959
 31
0.0
  0
LINE
  5
1361
  8
LAYER4
  6
CONTINUOUS
 10
226.33485095322641
 20
121.173999923959
 30
0.0
 11
226.9348509532262
 21
121.173999923959
 31
0.0
  0
LINE
  5
1362
  8
LAYER4
  6
CONTINUOUS
 10
226.33485095322641
 20
121.773999923959
 30
0.0
 11
226.9348509532262
 21
121.773999923959
 31
0.0
  0
LINE
  5
1363
  8
LAYER4
  6
CONTINUOUS
 10
228.8758509532264
 20
116.6919999239591
 30
0.0
 11
228.8758509532264
 21
116.09199992395899
 31
0.0
  0
LINE
  5
1364
  8
LAYER4
  6
CONTINUOUS
 10
226.33485095322641
 20
116.09199992395899
 30
0.0
 11
226.9348509532262
 21
116.09199992395899
 31
0.0
  0
LINE
  5
1365
  8
LAYER4
  6
CONTINUOUS
 10
223.9048509532262
 20
150.870999923959
 30
0.0
 11
231.90585095322629
 21
150.870999923959
 31
0.0
  0
LINE
  5
1366
  8
LAYER4
  6
CONTINUOUS
 10
223.80585095322641
 20
151.12299992395899
 30
0.0
 11
223.9048509532262
 21
151.12299992395899
 31
0.0
  0
LINE
  5
1367
  8
LAYER4
  6
CONTINUOUS
 10
243.55485095322641
 20
136.899999923959
 30
0.0
 11
243.55485095322641
 21
139.1999999239591
 31
0.0
  0
LINE
  5
1368
  8
LAYER4
  6
CONTINUOUS
 10
231.0058509532264
 20
150.870999923959
 30
0.0
 11
231.0058509532264
 21
131.13399992395901
 31
0.0
  0
LINE
  5
1369
  8
LAYER4
  6
CONTINUOUS
 10
244.30485095322641
 20
138.79999992395909
 30
0.0
 11
244.30485095322641
 21
137.29999992395901
 31
0.0
  0
LINE
  5
136A
  8
LAYER4
  6
CONTINUOUS
 10
230.00685095322629
 20
131.13399992395901
 30
0.0
 11
230.00685095322629
 21
127.032999923959
 31
0.0
  0
LINE
  5
136B
  8
LAYER4
  6
CONTINUOUS
 10
228.8758509532264
 20
123.711999923959
 30
0.0
 11
229.4758509532264
 21
123.711999923959
 31
0.0
  0
LINE
  5
136C
  8
LAYER4
  6
CONTINUOUS
 10
228.8758509532264
 20
124.31199992395911
 30
0.0
 11
229.4758509532264
 21
124.31199992395911
 31
0.0
  0
LINE
  5
136D
  8
LAYER4
  6
CONTINUOUS
 10
228.8758509532264
 20
126.8529999239591
 30
0.0
 11
229.4758509532264
 21
126.8529999239591
 31
0.0
  0
LINE
  5
136E
  8
LAYER4
  6
CONTINUOUS
 10
228.8758509532264
 20
128.79399992395909
 30
0.0
 11
229.4758509532264
 21
128.79399992395909
 31
0.0
  0
LINE
  5
136F
  8
LAYER4
  6
CONTINUOUS
 10
228.8758509532264
 20
129.393999923959
 30
0.0
 11
229.4758509532264
 21
129.393999923959
 31
0.0
  0
LINE
  5
1370
  8
LAYER4
  6
CONTINUOUS
 10
229.4758509532264
 20
124.31199992395911
 30
0.0
 11
229.4758509532264
 21
123.711999923959
 31
0.0
  0
LINE
  5
1371
  8
LAYER4
  6
CONTINUOUS
 10
229.4758509532264
 20
129.393999923959
 30
0.0
 11
229.4758509532264
 21
128.79399992395909
 31
0.0
  0
LINE
  5
1372
  8
LAYER4
  6
CONTINUOUS
 10
229.4758509532264
 20
126.8529999239591
 30
0.0
 11
229.4758509532264
 21
126.252999923959
 31
0.0
  0
LINE
  5
1373
  8
LAYER4
  6
CONTINUOUS
 10
228.8758509532264
 20
126.252999923959
 30
0.0
 11
229.4758509532264
 21
126.252999923959
 31
0.0
  0
LINE
  5
1374
  8
LAYER4
  6
CONTINUOUS
 10
226.33485095322641
 20
126.8529999239591
 30
0.0
 11
226.9348509532262
 21
126.8529999239591
 31
0.0
  0
LINE
  5
1375
  8
LAYER4
  6
CONTINUOUS
 10
226.33485095322641
 20
126.8529999239591
 30
0.0
 11
226.33485095322641
 21
126.252999923959
 31
0.0
  0
LINE
  5
1376
  8
LAYER4
  6
CONTINUOUS
 10
226.33485095322641
 20
126.252999923959
 30
0.0
 11
226.9348509532262
 21
126.252999923959
 31
0.0
  0
LINE
  5
1377
  8
LAYER4
  6
CONTINUOUS
 10
228.8758509532264
 20
126.8529999239591
 30
0.0
 11
228.8758509532264
 21
126.252999923959
 31
0.0
  0
LINE
  5
1378
  8
LAYER4
  6
CONTINUOUS
 10
228.8758509532264
 20
129.393999923959
 30
0.0
 11
228.8758509532264
 21
128.79399992395909
 31
0.0
  0
LINE
  5
1379
  8
LAYER4
  6
CONTINUOUS
 10
228.8758509532264
 20
124.31199992395911
 30
0.0
 11
228.8758509532264
 21
123.711999923959
 31
0.0
  0
LINE
  5
137A
  8
LAYER4
  6
CONTINUOUS
 10
226.33485095322641
 20
129.393999923959
 30
0.0
 11
226.9348509532262
 21
129.393999923959
 31
0.0
  0
LINE
  5
137B
  8
LAYER4
  6
CONTINUOUS
 10
226.9348509532262
 20
129.393999923959
 30
0.0
 11
226.9348509532262
 21
128.79399992395909
 31
0.0
  0
LINE
  5
137C
  8
LAYER4
  6
CONTINUOUS
 10
226.33485095322641
 20
129.393999923959
 30
0.0
 11
226.33485095322641
 21
128.79399992395909
 31
0.0
  0
LINE
  5
137D
  8
LAYER4
  6
CONTINUOUS
 10
226.33485095322641
 20
124.31199992395911
 30
0.0
 11
226.33485095322641
 21
123.711999923959
 31
0.0
  0
LINE
  5
137E
  8
LAYER4
  6
CONTINUOUS
 10
226.9348509532262
 20
126.8529999239591
 30
0.0
 11
226.9348509532262
 21
126.252999923959
 31
0.0
  0
LINE
  5
137F
  8
LAYER4
  6
CONTINUOUS
 10
226.9348509532262
 20
124.31199992395911
 30
0.0
 11
226.9348509532262
 21
123.711999923959
 31
0.0
  0
LINE
  5
1380
  8
LAYER4
  6
CONTINUOUS
 10
226.33485095322641
 20
123.711999923959
 30
0.0
 11
226.9348509532262
 21
123.711999923959
 31
0.0
  0
LINE
  5
1381
  8
LAYER4
  6
CONTINUOUS
 10
226.33485095322641
 20
124.31199992395911
 30
0.0
 11
226.9348509532262
 21
124.31199992395911
 31
0.0
  0
LINE
  5
1382
  8
LAYER4
  6
CONTINUOUS
 10
226.33485095322641
 20
128.79399992395909
 30
0.0
 11
226.9348509532262
 21
128.79399992395909
 31
0.0
  0
LINE
  5
1383
  8
LAYER4
  6
CONTINUOUS
 10
230.00685095322629
 20
127.032999923959
 30
0.0
 11
232.00485095322639
 21
127.032999923959
 31
0.0
  0
LINE
  5
1384
  8
LAYER4
  6
CONTINUOUS
 10
229.4758509532264
 20
134.47299992395901
 30
0.0
 11
229.4758509532264
 21
133.8729999239591
 31
0.0
  0
LINE
  5
1385
  8
LAYER4
  6
CONTINUOUS
 10
229.4758509532264
 20
137.01399992395901
 30
0.0
 11
229.4758509532264
 21
136.4139999239591
 31
0.0
  0
LINE
  5
1386
  8
LAYER4
  6
CONTINUOUS
 10
228.8758509532264
 20
131.33199992395899
 30
0.0
 11
229.4758509532264
 21
131.33199992395899
 31
0.0
  0
LINE
  5
1387
  8
LAYER4
  6
CONTINUOUS
 10
228.8758509532264
 20
136.4139999239591
 30
0.0
 11
229.4758509532264
 21
136.4139999239591
 31
0.0
  0
LINE
  5
1388
  8
LAYER4
  6
CONTINUOUS
 10
228.8758509532264
 20
137.01399992395901
 30
0.0
 11
229.4758509532264
 21
137.01399992395901
 31
0.0
  0
LINE
  5
1389
  8
LAYER4
  6
CONTINUOUS
 10
228.8758509532264
 20
134.47299992395901
 30
0.0
 11
229.4758509532264
 21
134.47299992395901
 31
0.0
  0
LINE
  5
138A
  8
LAYER4
  6
CONTINUOUS
 10
229.4758509532264
 20
131.93199992395901
 30
0.0
 11
229.4758509532264
 21
131.33199992395899
 31
0.0
  0
LINE
  5
138B
  8
LAYER4
  6
CONTINUOUS
 10
228.8758509532264
 20
131.93199992395901
 30
0.0
 11
229.4758509532264
 21
131.93199992395901
 31
0.0
  0
LINE
  5
138C
  8
LAYER4
  6
CONTINUOUS
 10
228.8758509532264
 20
133.8729999239591
 30
0.0
 11
229.4758509532264
 21
133.8729999239591
 31
0.0
  0
LINE
  5
138D
  8
LAYER4
  6
CONTINUOUS
 10
226.33485095322641
 20
137.01399992395901
 30
0.0
 11
226.33485095322641
 21
136.4139999239591
 31
0.0
  0
LINE
  5
138E
  8
LAYER4
  6
CONTINUOUS
 10
228.8758509532264
 20
134.47299992395901
 30
0.0
 11
228.8758509532264
 21
133.8729999239591
 31
0.0
  0
LINE
  5
138F
  8
LAYER4
  6
CONTINUOUS
 10
226.33485095322641
 20
133.8729999239591
 30
0.0
 11
226.9348509532262
 21
133.8729999239591
 31
0.0
  0
LINE
  5
1390
  8
LAYER4
  6
CONTINUOUS
 10
226.9348509532262
 20
137.01399992395901
 30
0.0
 11
226.9348509532262
 21
136.4139999239591
 31
0.0
  0
LINE
  5
1391
  8
LAYER4
  6
CONTINUOUS
 10
226.33485095322641
 20
134.47299992395901
 30
0.0
 11
226.9348509532262
 21
134.47299992395901
 31
0.0
  0
LINE
  5
1392
  8
LAYER4
  6
CONTINUOUS
 10
226.33485095322641
 20
136.4139999239591
 30
0.0
 11
226.9348509532262
 21
136.4139999239591
 31
0.0
  0
LINE
  5
1393
  8
LAYER4
  6
CONTINUOUS
 10
226.33485095322641
 20
131.93199992395901
 30
0.0
 11
226.33485095322641
 21
131.33199992395899
 31
0.0
  0
LINE
  5
1394
  8
LAYER4
  6
CONTINUOUS
 10
226.33485095322641
 20
131.93199992395901
 30
0.0
 11
226.9348509532262
 21
131.93199992395901
 31
0.0
  0
LINE
  5
1395
  8
LAYER4
  6
CONTINUOUS
 10
226.33485095322641
 20
137.01399992395901
 30
0.0
 11
226.9348509532262
 21
137.01399992395901
 31
0.0
  0
LINE
  5
1396
  8
LAYER4
  6
CONTINUOUS
 10
226.33485095322641
 20
131.33199992395899
 30
0.0
 11
226.9348509532262
 21
131.33199992395899
 31
0.0
  0
LINE
  5
1397
  8
LAYER4
  6
CONTINUOUS
 10
228.8758509532264
 20
131.93199992395901
 30
0.0
 11
228.8758509532264
 21
131.33199992395899
 31
0.0
  0
LINE
  5
1398
  8
LAYER4
  6
CONTINUOUS
 10
226.9348509532262
 20
131.93199992395901
 30
0.0
 11
226.9348509532262
 21
131.33199992395899
 31
0.0
  0
LINE
  5
1399
  8
LAYER4
  6
CONTINUOUS
 10
226.9348509532262
 20
134.47299992395901
 30
0.0
 11
226.9348509532262
 21
133.8729999239591
 31
0.0
  0
LINE
  5
139A
  8
LAYER4
  6
CONTINUOUS
 10
226.33485095322641
 20
134.47299992395901
 30
0.0
 11
226.33485095322641
 21
133.8729999239591
 31
0.0
  0
LINE
  5
139B
  8
LAYER4
  6
CONTINUOUS
 10
228.8758509532264
 20
137.01399992395901
 30
0.0
 11
228.8758509532264
 21
136.4139999239591
 31
0.0
  0
LINE
  5
139C
  8
LAYER4
  6
CONTINUOUS
 10
230.00685095322629
 20
131.13399992395901
 30
0.0
 11
232.00485095322639
 21
131.13399992395901
 31
0.0
  0
LINE
  5
139D
  8
LAYER4
  6
CONTINUOUS
 10
228.8758509532264
 20
144.63399992395901
 30
0.0
 11
229.4758509532264
 21
144.63399992395901
 31
0.0
  0
LINE
  5
139E
  8
LAYER4
  6
CONTINUOUS
 10
229.4758509532264
 20
142.09299992395901
 30
0.0
 11
229.4758509532264
 21
141.4929999239591
 31
0.0
  0
LINE
  5
139F
  8
LAYER4
  6
CONTINUOUS
 10
229.4758509532264
 20
139.5519999239591
 30
0.0
 11
229.4758509532264
 21
138.95199992395911
 31
0.0
  0
LINE
  5
13A0
  8
LAYER4
  6
CONTINUOUS
 10
229.4758509532264
 20
144.63399992395901
 30
0.0
 11
229.4758509532264
 21
144.03399992395919
 31
0.0
  0
LINE
  5
13A1
  8
LAYER4
  6
CONTINUOUS
 10
228.8758509532264
 20
144.03399992395919
 30
0.0
 11
229.4758509532264
 21
144.03399992395919
 31
0.0
  0
LINE
  5
13A2
  8
LAYER4
  6
CONTINUOUS
 10
228.8758509532264
 20
141.4929999239591
 30
0.0
 11
229.4758509532264
 21
141.4929999239591
 31
0.0
  0
LINE
  5
13A3
  8
LAYER4
  6
CONTINUOUS
 10
228.8758509532264
 20
142.09299992395901
 30
0.0
 11
229.4758509532264
 21
142.09299992395901
 31
0.0
  0
LINE
  5
13A4
  8
LAYER4
  6
CONTINUOUS
 10
228.8758509532264
 20
138.95199992395911
 30
0.0
 11
229.4758509532264
 21
138.95199992395911
 31
0.0
  0
LINE
  5
13A5
  8
LAYER4
  6
CONTINUOUS
 10
228.8758509532264
 20
139.5519999239591
 30
0.0
 11
229.4758509532264
 21
139.5519999239591
 31
0.0
  0
LINE
  5
13A6
  8
LAYER4
  6
CONTINUOUS
 10
226.9348509532262
 20
144.63399992395901
 30
0.0
 11
226.9348509532262
 21
144.03399992395919
 31
0.0
  0
LINE
  5
13A7
  8
LAYER4
  6
CONTINUOUS
 10
226.9348509532262
 20
139.5519999239591
 30
0.0
 11
226.9348509532262
 21
138.95199992395911
 31
0.0
  0
LINE
  5
13A8
  8
LAYER4
  6
CONTINUOUS
 10
226.9348509532262
 20
142.09299992395901
 30
0.0
 11
226.9348509532262
 21
141.4929999239591
 31
0.0
  0
LINE
  5
13A9
  8
LAYER4
  6
CONTINUOUS
 10
226.33485095322641
 20
142.09299992395901
 30
0.0
 11
226.33485095322641
 21
141.4929999239591
 31
0.0
  0
LINE
  5
13AA
  8
LAYER4
  6
CONTINUOUS
 10
226.33485095322641
 20
139.5519999239591
 30
0.0
 11
226.33485095322641
 21
138.95199992395911
 31
0.0
  0
LINE
  5
13AB
  8
LAYER4
  6
CONTINUOUS
 10
226.33485095322641
 20
144.63399992395901
 30
0.0
 11
226.33485095322641
 21
144.03399992395919
 31
0.0
  0
LINE
  5
13AC
  8
LAYER4
  6
CONTINUOUS
 10
228.8758509532264
 20
139.5519999239591
 30
0.0
 11
228.8758509532264
 21
138.95199992395911
 31
0.0
  0
LINE
  5
13AD
  8
LAYER4
  6
CONTINUOUS
 10
226.33485095322641
 20
138.95199992395911
 30
0.0
 11
226.9348509532262
 21
138.95199992395911
 31
0.0
  0
LINE
  5
13AE
  8
LAYER4
  6
CONTINUOUS
 10
226.33485095322641
 20
139.5519999239591
 30
0.0
 11
226.9348509532262
 21
139.5519999239591
 31
0.0
  0
LINE
  5
13AF
  8
LAYER4
  6
CONTINUOUS
 10
226.33485095322641
 20
142.09299992395901
 30
0.0
 11
226.9348509532262
 21
142.09299992395901
 31
0.0
  0
LINE
  5
13B0
  8
LAYER4
  6
CONTINUOUS
 10
228.8758509532264
 20
144.63399992395901
 30
0.0
 11
228.8758509532264
 21
144.03399992395919
 31
0.0
  0
LINE
  5
13B1
  8
LAYER4
  6
CONTINUOUS
 10
226.33485095322641
 20
144.03399992395919
 30
0.0
 11
226.9348509532262
 21
144.03399992395919
 31
0.0
  0
LINE
  5
13B2
  8
LAYER4
  6
CONTINUOUS
 10
226.33485095322641
 20
144.63399992395901
 30
0.0
 11
226.9348509532262
 21
144.63399992395901
 31
0.0
  0
LINE
  5
13B3
  8
LAYER4
  6
CONTINUOUS
 10
226.33485095322641
 20
141.4929999239591
 30
0.0
 11
226.9348509532262
 21
141.4929999239591
 31
0.0
  0
LINE
  5
13B4
  8
LAYER4
  6
CONTINUOUS
 10
228.8758509532264
 20
142.09299992395901
 30
0.0
 11
228.8758509532264
 21
141.4929999239591
 31
0.0
  0
LINE
  5
13B5
  8
LAYER4
  6
CONTINUOUS
 10
228.8758509532264
 20
146.57199992395911
 30
0.0
 11
229.4758509532264
 21
146.57199992395911
 31
0.0
  0
LINE
  5
13B6
  8
LAYER4
  6
CONTINUOUS
 10
229.4758509532264
 20
147.17199992395911
 30
0.0
 11
229.4758509532264
 21
146.57199992395911
 31
0.0
  0
LINE
  5
13B7
  8
LAYER4
  6
CONTINUOUS
 10
228.8758509532264
 20
149.71299992395899
 30
0.0
 11
229.4758509532264
 21
149.71299992395899
 31
0.0
  0
LINE
  5
13B8
  8
LAYER4
  6
CONTINUOUS
 10
228.8758509532264
 20
147.17199992395911
 30
0.0
 11
229.4758509532264
 21
147.17199992395911
 31
0.0
  0
LINE
  5
13B9
  8
LAYER4
  6
CONTINUOUS
 10
228.8758509532264
 20
149.11299992395911
 30
0.0
 11
229.4758509532264
 21
149.11299992395911
 31
0.0
  0
LINE
  5
13BA
  8
LAYER4
  6
CONTINUOUS
 10
229.4758509532264
 20
149.71299992395899
 30
0.0
 11
229.4758509532264
 21
149.11299992395911
 31
0.0
  0
LINE
  5
13BB
  8
LAYER4
  6
CONTINUOUS
 10
226.9348509532262
 20
147.17199992395911
 30
0.0
 11
226.9348509532262
 21
146.57199992395911
 31
0.0
  0
LINE
  5
13BC
  8
LAYER4
  6
CONTINUOUS
 10
226.33485095322641
 20
149.11299992395911
 30
0.0
 11
226.9348509532262
 21
149.11299992395911
 31
0.0
  0
LINE
  5
13BD
  8
LAYER4
  6
CONTINUOUS
 10
226.33485095322641
 20
149.71299992395899
 30
0.0
 11
226.9348509532262
 21
149.71299992395899
 31
0.0
  0
LINE
  5
13BE
  8
LAYER4
  6
CONTINUOUS
 10
226.33485095322641
 20
147.17199992395911
 30
0.0
 11
226.33485095322641
 21
146.57199992395911
 31
0.0
  0
LINE
  5
13BF
  8
LAYER4
  6
CONTINUOUS
 10
228.8758509532264
 20
147.17199992395911
 30
0.0
 11
228.8758509532264
 21
146.57199992395911
 31
0.0
  0
LINE
  5
13C0
  8
LAYER4
  6
CONTINUOUS
 10
226.33485095322641
 20
146.57199992395911
 30
0.0
 11
226.9348509532262
 21
146.57199992395911
 31
0.0
  0
LINE
  5
13C1
  8
LAYER4
  6
CONTINUOUS
 10
226.33485095322641
 20
147.17199992395911
 30
0.0
 11
226.9348509532262
 21
147.17199992395911
 31
0.0
  0
LINE
  5
13C2
  8
LAYER4
  6
CONTINUOUS
 10
226.9348509532262
 20
149.71299992395899
 30
0.0
 11
226.9348509532262
 21
149.11299992395911
 31
0.0
  0
LINE
  5
13C3
  8
LAYER4
  6
CONTINUOUS
 10
226.33485095322641
 20
149.71299992395899
 30
0.0
 11
226.33485095322641
 21
149.11299992395911
 31
0.0
  0
LINE
  5
13C4
  8
LAYER4
  6
CONTINUOUS
 10
228.8758509532264
 20
149.71299992395899
 30
0.0
 11
228.8758509532264
 21
149.11299992395911
 31
0.0
  0
LINE
  5
13C5
  8
LAYER4
  6
CONTINUOUS
 10
231.90585095322629
 20
151.12299992395899
 30
0.0
 11
232.00485095322639
 21
151.12299992395899
 31
0.0
  0
LINE
  5
13C6
  8
LAYER4
  6
CONTINUOUS
 10
243.55485095322641
 20
144.5999999239591
 30
0.0
 11
243.55485095322641
 21
146.89999992395909
 31
0.0
  0
LINE
  5
13C7
  8
LAYER4
  6
CONTINUOUS
 10
244.80485095322629
 20
144.99999992395911
 30
0.0
 11
244.80485095322629
 21
143.99999992395911
 31
0.0
  0
LINE
  5
13C8
  8
LAYER4
  6
CONTINUOUS
 10
243.2048509532263
 20
139.79999992395901
 30
0.0
 11
243.2048509532263
 21
143.99999992395911
 31
0.0
  0
LINE
  5
13C9
  8
LAYER4
  6
CONTINUOUS
 10
244.80485095322629
 20
139.79999992395901
 30
0.0
 11
244.80485095322629
 21
138.79999992395909
 31
0.0
  0
LINE
  5
13CA
  8
LAYER4
  6
CONTINUOUS
 10
244.80485095322629
 20
139.79999992395901
 30
0.0
 11
243.2048509532263
 21
139.79999992395901
 31
0.0
  0
LINE
  5
13CB
  8
LAYER4
  6
CONTINUOUS
 10
242.50485095322639
 20
139.1999999239591
 30
0.0
 11
243.55485095322641
 21
139.1999999239591
 31
0.0
  0
LINE
  5
13CC
  8
LAYER4
  6
CONTINUOUS
 10
244.80485095322629
 20
138.79999992395909
 30
0.0
 11
244.30485095322641
 21
138.79999992395909
 31
0.0
  0
LINE
  5
13CD
  8
LAYER4
  6
CONTINUOUS
 10
243.2048509532263
 20
143.99999992395911
 30
0.0
 11
244.80485095322629
 21
143.99999992395911
 31
0.0
  0
LINE
  5
13CE
  8
LAYER4
  6
CONTINUOUS
 10
242.50485095322639
 20
144.5999999239591
 30
0.0
 11
242.50485095322639
 21
139.1999999239591
 31
0.0
  0
LINE
  5
13CF
  8
LAYER4
  6
CONTINUOUS
 10
243.55485095322641
 20
144.5999999239591
 30
0.0
 11
242.50485095322639
 21
144.5999999239591
 31
0.0
  0
LINE
  5
13D0
  8
LAYER4
  6
CONTINUOUS
 10
243.55485095322641
 20
148.89999992395909
 30
0.0
 11
243.55485095322641
 21
151.19999992395901
 31
0.0
  0
LINE
  5
13D1
  8
LAYER4
  6
CONTINUOUS
 10
244.80485095322629
 20
151.79999992395901
 30
0.0
 11
244.80485095322629
 21
150.79999992395901
 31
0.0
  0
LINE
  5
13D2
  8
LAYER4
  6
CONTINUOUS
 10
244.30485095322641
 20
144.99999992395911
 30
0.0
 11
244.80485095322629
 21
144.99999992395911
 31
0.0
  0
LINE
  5
13D3
  8
LAYER4
  6
CONTINUOUS
 10
244.30485095322641
 20
146.49999992395911
 30
0.0
 11
244.30485095322641
 21
144.99999992395911
 31
0.0
  0
LINE
  5
13D4
  8
LAYER4
  6
CONTINUOUS
 10
242.50485095322639
 20
151.19999992395901
 30
0.0
 11
243.55485095322641
 21
151.19999992395901
 31
0.0
  0
LINE
  5
13D5
  8
LAYER4
  6
CONTINUOUS
 10
244.30485095322641
 20
150.79999992395901
 30
0.0
 11
244.30485095322641
 21
149.29999992395901
 31
0.0
  0
LINE
  5
13D6
  8
LAYER4
  6
CONTINUOUS
 10
244.80485095322629
 20
151.79999992395901
 30
0.0
 11
243.2048509532263
 21
151.79999992395901
 31
0.0
  0
LINE
  5
13D7
  8
LAYER4
  6
CONTINUOUS
 10
244.80485095322629
 20
150.79999992395901
 30
0.0
 11
244.30485095322641
 21
150.79999992395901
 31
0.0
  0
LINE
  5
13DB
  8
LAYER4
  6
CONTINUOUS
 10
124.08999975015691
 20
157.89999992395909
 30
0.0
 11
124.08999975015691
 21
156.21999992395911
 31
0.0
  0
LINE
  5
13DC
  8
LAYER4
  6
CONTINUOUS
 10
223.80585095322641
 20
157.9209999239591
 30
0.0
 11
232.00485095322639
 21
157.9209999239591
 31
0.0
  0
LINE
  5
13DD
  8
LAYER4
  6
CONTINUOUS
 10
223.50485095322639
 20
160.32099992395911
 30
0.0
 11
232.00485095322639
 21
160.32099992395911
 31
0.0
  0
LINE
  5
13DE
  8
LAYER4
  6
CONTINUOUS
 10
223.80585095322641
 20
160.32099992395911
 30
0.0
 11
232.00485095322639
 21
160.32099992395911
 31
0.0
  0
LINE
  5
13DF
  8
LAYER4
  6
CONTINUOUS
 10
223.9048509532262
 20
155.87199992395909
 30
0.0
 11
231.90585095322629
 21
155.87199992395909
 31
0.0
  0
LINE
  5
13E0
  8
LAYER4
  6
CONTINUOUS
 10
223.9048509532262
 20
157.8729999239591
 30
0.0
 11
231.90585095322629
 21
157.8729999239591
 31
0.0
  0
ARC
  5
13E2
  8
LAYER2
  6
CONTINUOUS
 10
217.50485095322639
 20
166.09999992395899
 30
0.0
 40
1.0
 50
90.0
 51
180.0
  0
LINE
  5
13E3
  8
LAYER4
  6
CONTINUOUS
 10
223.80585095322641
 20
153.120999923959
 30
0.0
 11
223.9048509532262
 21
153.120999923959
 31
0.0
  0
ARC
  5
13E4
  8
LAYER2
  6
CONTINUOUS
 10
222.50485095322639
 20
160.01999992395901
 30
0.0
 40
1.0
 50
90.0
 51
180.0
  0
ARC
  5
13E5
  8
LAYER2
  6
CONTINUOUS
 10
222.50754795322641
 20
160.01999992395901
 30
0.0
 40
2.0
 50
90.0
 51
180.0
  0
ARC
  5
13E6
  8
LAYER1
  6
CONTINUOUS
 10
218.00485095322651
 20
176.59999992395899
 30
0.0
 40
1.4476348052149981
 50
90.0
 51
179.99999100000031
  0
ARC
  5
13E7
  8
LAYER1
  6
CONTINUOUS
 10
218.00485095322651
 20
176.59999992395899
 30
0.0
 40
1.5
 50
90.0
 51
179.99999100000031
  0
LINE
  5
13E8
  8
LAYER2
  6
CONTINUOUS
 10
234.41650562223509
 20
166.0410418869715
 30
0.0
 11
235.71947580020679
 21
166.0410418869715
 31
0.0
  0
LINE
  5
13E9
  8
LAYER2
  6
CONTINUOUS
 10
235.09184582122381
 20
163.024836728991
 30
0.0
 11
234.0047326697414
 21
163.024836728991
 31
0.0
  0
LINE
  5
13EA
  8
LAYER4
  6
CONTINUOUS
 10
231.90585095322629
 20
153.120999923959
 30
0.0
 11
232.00485095322639
 21
153.120999923959
 31
0.0
  0
POLYLINE
  5
13EB
  8
LAYER2
  6
CONTINUOUS
 66
     1
 10
0.0
 20
0.0
 30
0.0
  0
VERTEX
  5
198B
  8
LAYER2
  6
CONTINUOUS
 10
234.41650562223509
 20
166.0410418869715
 30
0.0
  0
VERTEX
  5
198C
  8
LAYER2
  6
CONTINUOUS
 10
234.41950926463841
 20
166.03474320127859
 30
0.0
  0
VERTEX
  5
198D
  8
LAYER2
  6
CONTINUOUS
 10
234.42585150888911
 20
166.02800613806031
 30
0.0
  0
VERTEX
  5
198E
  8
LAYER2
  6
CONTINUOUS
 10
234.4308106243594
 20
166.0242339127293
 30
0.0
  0
VERTEX
  5
198F
  8
LAYER2
  6
CONTINUOUS
 10
234.4528437600656
 20
166.01020712049149
 30
0.0
  0
VERTEX
  5
1990
  8
LAYER2
  6
CONTINUOUS
 10
234.4655206880735
 20
165.9996400508787
 30
0.0
  0
VERTEX
  5
1991
  8
LAYER2
  6
CONTINUOUS
 10
234.4694344388289
 20
165.99572754354759
 30
0.0
  0
VERTEX
  5
1992
  8
LAYER2
  6
CONTINUOUS
 10
234.4834841852668
 20
165.97982125619211
 30
0.0
  0
VERTEX
  5
1993
  8
LAYER2
  6
CONTINUOUS
 10
234.49629654030031
 20
165.9650185808471
 30
0.0
  0
VERTEX
  5
1994
  8
LAYER2
  6
CONTINUOUS
 10
234.5088607344739
 20
165.9498151585411
 30
0.0
  0
VERTEX
  5
1995
  8
LAYER2
  6
CONTINUOUS
 10
234.51956039434521
 20
165.9352474743867
 30
0.0
  0
VERTEX
  5
1996
  8
LAYER2
  6
CONTINUOUS
 10
234.52940724432159
 20
165.9201196920061
 30
0.0
  0
VERTEX
  5
1997
  8
LAYER2
  6
CONTINUOUS
 10
234.53786016895901
 20
165.90560119621901
 30
0.0
  0
VERTEX
  5
1998
  8
LAYER2
  6
CONTINUOUS
 10
234.54555755144511
 20
165.89066572105591
 30
0.0
  0
VERTEX
  5
1999
  8
LAYER2
  6
CONTINUOUS
 10
234.5520470581198
 20
165.87618932875671
 30
0.0
  0
VERTEX
  5
199A
  8
LAYER2
  6
CONTINUOUS
 10
234.5577454924796
 20
165.86138411015739
 30
0.0
  0
VERTEX
  5
199B
  8
LAYER2
  6
CONTINUOUS
 10
234.56245188177101
 20
165.84690650939569
 30
0.0
  0
VERTEX
  5
199C
  8
LAYER2
  6
CONTINUOUS
 10
234.56640490406039
 20
165.83220572377931
 30
0.0
  0
VERTEX
  5
199D
  8
LAYER2
  6
CONTINUOUS
 10
234.56953423088601
 20
165.81769988467141
 30
0.0
  0
VERTEX
  5
199E
  8
LAYER2
  6
CONTINUOUS
 10
234.57196962282271
 20
165.80306142638901
 30
0.0
  0
VERTEX
  5
199F
  8
LAYER2
  6
CONTINUOUS
 10
234.57372397124109
 20
165.78850167058471
 30
0.0
  0
VERTEX
  5
19A0
  8
LAYER2
  6
CONTINUOUS
 10
234.57487348540059
 20
165.7738820824552
 30
0.0
  0
VERTEX
  5
19A1
  8
LAYER2
  6
CONTINUOUS
 10
234.5754655234407
 20
165.75924704328889
 30
0.0
  0
VERTEX
  5
19A2
  8
LAYER2
  6
CONTINUOUS
 10
234.57555032843041
 20
165.74459855644511
 30
0.0
  0
VERTEX
  5
19A3
  8
LAYER2
  6
CONTINUOUS
 10
234.57517964317771
 20
165.7298593958721
 30
0.0
  0
VERTEX
  5
19A4
  8
LAYER2
  6
CONTINUOUS
 10
234.57443398854659
 20
165.71514171282709
 30
0.0
  0
VERTEX
  5
19A5
  8
LAYER2
  6
CONTINUOUS
 10
234.57336648948211
 20
165.7002931183674
 30
0.0
  0
VERTEX
  5
19A6
  8
LAYER2
  6
CONTINUOUS
 10
234.57195830238439
 20
165.68544241606889
 30
0.0
  0
VERTEX
  5
19A7
  8
LAYER2
  6
CONTINUOUS
 10
234.5702210753453
 20
165.67037951225541
 30
0.0
  0
VERTEX
  5
19A8
  8
LAYER2
  6
CONTINUOUS
 10
234.56855710657911
 20
165.65543153063859
 30
0.0
  0
VERTEX
  5
19A9
  8
LAYER2
  6
CONTINUOUS
 10
234.56709287689679
 20
165.64041558608281
 30
0.0
  0
VERTEX
  5
19AA
  8
LAYER2
  6
CONTINUOUS
 10
234.5646642377655
 20
165.62503992100409
 30
0.0
  0
VERTEX
  5
19AB
  8
LAYER2
  6
CONTINUOUS
 10
234.56092629579101
 20
165.6089231109741
 30
0.0
  0
VERTEX
  5
19AC
  8
LAYER2
  6
CONTINUOUS
 10
234.55999966338749
 20
165.59883773567111
 30
0.0
  0
VERTEX
  5
19AD
  8
LAYER2
  6
CONTINUOUS
 10
234.5607135325784
 20
165.5941984516335
 30
0.0
  0
SEQEND
  5
19AE
  8
LAYER2
  6
CONTINUOUS
  0
LINE
  5
1410
  8
LAYER2
  6
CONTINUOUS
 10
234.0047326697414
 20
163.024836728991
 30
0.0
 11
234.560713532579
 21
165.5941984516333
 31
0.0
  0
LINE
  5
1411
  8
LAYER4
  6
CONTINUOUS
 10
243.55485095322641
 20
156.5999999239591
 30
0.0
 11
243.55485095322641
 21
158.89999992395909
 31
0.0
  0
LINE
  5
1412
  8
LAYER4
  6
CONTINUOUS
 10
243.55485095322641
 20
156.5999999239591
 30
0.0
 11
242.50485095322639
 21
156.5999999239591
 31
0.0
  0
LINE
  5
1413
  8
LAYER4
  6
CONTINUOUS
 10
244.30485095322641
 20
156.99999992395911
 30
0.0
 11
244.80485095322629
 21
156.99999992395911
 31
0.0
  0
LINE
  5
1414
  8
LAYER4
  6
CONTINUOUS
 10
243.2048509532263
 20
155.99999992395911
 30
0.0
 11
244.80485095322629
 21
155.99999992395911
 31
0.0
  0
LINE
  5
1415
  8
LAYER4
  6
CONTINUOUS
 10
244.80485095322629
 20
156.99999992395911
 30
0.0
 11
244.80485095322629
 21
155.99999992395911
 31
0.0
  0
LINE
  5
1416
  8
LAYER4
  6
CONTINUOUS
 10
244.30485095322641
 20
158.49999992395911
 30
0.0
 11
244.30485095322641
 21
156.99999992395911
 31
0.0
  0
POLYLINE
  5
1417
  8
LAYER2
  6
CONTINUOUS
 66
     1
 10
0.0
 20
0.0
 30
0.0
  0
VERTEX
  5
19AF
  8
LAYER2
  6
CONTINUOUS
 10
237.64530014738119
 20
166.03560775754761
 30
0.0
  0
VERTEX
  5
19B0
  8
LAYER2
  6
CONTINUOUS
 10
237.64623148359681
 20
166.03241508536871
 30
0.0
  0
VERTEX
  5
19B1
  8
LAYER2
  6
CONTINUOUS
 10
237.64848129410069
 20
166.0290149209219
 30
0.0
  0
VERTEX
  5
19B2
  8
LAYER2
  6
CONTINUOUS
 10
237.6527157757136
 20
166.02490938160111
 30
0.0
  0
VERTEX
  5
19B3
  8
LAYER2
  6
CONTINUOUS
 10
237.6655597522188
 20
166.0147402075971
 30
0.0
  0
VERTEX
  5
19B4
  8
LAYER2
  6
CONTINUOUS
 10
237.67204641605591
 20
166.0083798017919
 30
0.0
  0
VERTEX
  5
19B5
  8
LAYER2
  6
CONTINUOUS
 10
237.67512563882229
 20
166.00480997271251
 30
0.0
  0
VERTEX
  5
19B6
  8
LAYER2
  6
CONTINUOUS
 10
237.68298760907271
 20
165.9943883759459
 30
0.0
  0
VERTEX
  5
19B7
  8
LAYER2
  6
CONTINUOUS
 10
237.69035722020831
 20
165.98453733456
 30
0.0
  0
VERTEX
  5
19B8
  8
LAYER2
  6
CONTINUOUS
 10
237.69764474616849
 20
165.97443535566461
 30
0.0
  0
VERTEX
  5
19B9
  8
LAYER2
  6
CONTINUOUS
 10
237.70388961510201
 20
165.96474626816089
 30
0.0
  0
VERTEX
  5
19BA
  8
LAYER2
  6
CONTINUOUS
 10
237.70959219173261
 20
165.95476423982441
 30
0.0
  0
VERTEX
  5
19BB
  8
LAYER2
  6
CONTINUOUS
 10
237.71449352124429
 20
165.9451342411559
 30
0.0
  0
VERTEX
  5
19BC
  8
LAYER2
  6
CONTINUOUS
 10
237.71889097399119
 20
165.93525812149579
 30
0.0
  0
VERTEX
  5
19BD
  8
LAYER2
  6
CONTINUOUS
 10
237.72253463847599
 20
165.92562782036649
 30
0.0
  0
VERTEX
  5
19BE
  8
LAYER2
  6
CONTINUOUS
 10
237.7256021211694
 20
165.91580009374991
 30
0.0
  0
VERTEX
  5
19BF
  8
LAYER2
  6
CONTINUOUS
 10
237.7279947519641
 20
165.906100998797
 30
0.0
  0
VERTEX
  5
19C0
  8
LAYER2
  6
CONTINUOUS
 10
237.72978666149359
 20
165.89627324965701
 30
0.0
  0
VERTEX
  5
19C1
  8
LAYER2
  6
CONTINUOUS
 10
237.7309505807192
 20
165.88644354679991
 30
0.0
  0
VERTEX
  5
19C2
  8
LAYER2
  6
CONTINUOUS
 10
237.73150562318961
 20
165.87656068228841
 30
0.0
  0
VERTEX
  5
19C3
  8
LAYER2
  6
CONTINUOUS
 10
237.73145659100339
 20
165.8665430251954
 30
0.0
  0
VERTEX
  5
19C4
  8
LAYER2
  6
CONTINUOUS
 10
237.7308200344832
 20
165.8565454847143
 30
0.0
  0
VERTEX
  5
19C5
  8
LAYER2
  6
CONTINUOUS
 10
237.72958184920239
 20
165.84628790973011
 30
0.0
  0
VERTEX
  5
19C6
  8
LAYER2
  6
CONTINUOUS
 10
237.72779092360039
 20
165.83611075000559
 30
0.0
  0
VERTEX
  5
19C7
  8
LAYER2
  6
CONTINUOUS
 10
237.7253726339286
 20
165.82556168137799
 30
0.0
  0
VERTEX
  5
19C8
  8
LAYER2
  6
CONTINUOUS
 10
237.7224793187666
 20
165.8151395712334
 30
0.0
  0
VERTEX
  5
19C9
  8
LAYER2
  6
CONTINUOUS
 10
237.71896729111211
 20
165.80425635516761
 30
0.0
  0
VERTEX
  5
19CA
  8
LAYER2
  6
CONTINUOUS
 10
237.7149462482088
 20
165.79351504146811
 30
0.0
  0
VERTEX
  5
19CB
  8
LAYER2
  6
CONTINUOUS
 10
237.71013108493079
 20
165.78221871687111
 30
0.0
  0
VERTEX
  5
19CC
  8
LAYER2
  6
CONTINUOUS
 10
237.70525274015171
 20
165.77112025378091
 30
0.0
  0
VERTEX
  5
19CD
  8
LAYER2
  6
CONTINUOUS
 10
237.70015478053421
 20
165.7594743074344
 30
0.0
  0
VERTEX
  5
19CE
  8
LAYER2
  6
CONTINUOUS
 10
237.6953679747206
 20
165.7507333540328
 30
0.0
  0
VERTEX
  5
19CF
  8
LAYER2
  6
CONTINUOUS
 10
237.69345982282201
 20
165.74783830124201
 30
0.0
  0
VERTEX
  5
19D0
  8
LAYER2
  6
CONTINUOUS
 10
237.6840280635609
 20
165.73530868473941
 30
0.0
  0
VERTEX
  5
19D1
  8
LAYER2
  6
CONTINUOUS
 10
237.6809212013973
 20
165.7301171222469
 30
0.0
  0
VERTEX
  5
19D2
  8
LAYER2
  6
CONTINUOUS
 10
237.67970019114529
 20
165.72627240563841
 30
0.0
  0
VERTEX
  5
19D3
  8
LAYER2
  6
CONTINUOUS
 10
237.67962852444489
 20
165.72355227692259
 30
0.0
  0
SEQEND
  5
19D4
  8
LAYER2
  6
CONTINUOUS
  0
LINE
  5
143E
  8
LAYER2
  6
CONTINUOUS
 10
237.64530014738119
 20
166.03560775754761
 30
0.0
 11
238.83555403288079
 21
166.03619426050341
 31
0.0
  0
LINE
  5
143F
  8
LAYER2
  6
CONTINUOUS
 10
238.06912630678741
 20
164.16846964297059
 30
0.0
 11
237.2474596393173
 21
164.16763177008471
 31
0.0
  0
LINE
  5
1440
  8
LAYER2
  6
CONTINUOUS
 10
238.2908005123322
 20
163.02000107197091
 30
0.0
 11
238.1425229896449
 21
163.78010890218931
 31
0.0
  0
LINE
  5
1441
  8
LAYER2
  6
CONTINUOUS
 10
238.1425229896449
 20
163.78010890218931
 30
0.0
 11
236.99488033927381
 21
163.78010890218931
 31
0.0
  0
LINE
  5
1442
  8
LAYER2
  6
CONTINUOUS
 10
239.42023763218961
 20
163.02000107197091
 30
0.0
 11
238.2908005123322
 21
163.02000107197091
 31
0.0
  0
LINE
  5
1443
  8
LAYER2
  6
CONTINUOUS
 10
238.83555403288079
 20
166.03619426050341
 30
0.0
 11
239.42023763218961
 21
163.02000107197091
 31
0.0
  0
LINE
  5
1444
  8
LAYER2
  6
CONTINUOUS
 10
237.8856825922972
 20
165.1311363919335
 30
0.0
 11
238.06912630678741
 21
164.16846964297059
 31
0.0
  0
LINE
  5
1445
  8
LAYER2
  6
CONTINUOUS
 10
237.2474596393173
 20
164.16763177008471
 30
0.0
 11
237.8856825922972
 21
165.1311363919335
 31
0.0
  0
LINE
  5
1446
  8
LAYER2
  6
CONTINUOUS
 10
235.71947580020679
 20
166.0410418869715
 30
0.0
 11
235.09184582122381
 21
163.024836728991
 31
0.0
  0
LINE
  5
1447
  8
LAYER2
  6
CONTINUOUS
 10
236.99488033927381
 20
163.78010890218931
 30
0.0
 11
236.7144242015529
 21
163.37065802262109
 31
0.0
  0
LINE
  5
1448
  8
LAYER2
  6
CONTINUOUS
 10
236.78022025759171
 20
163.02038409430941
 30
0.0
 11
235.69662612384181
 21
163.02038409430941
 31
0.0
  0
LINE
  5
1449
  8
LAYER2
  6
CONTINUOUS
 10
235.69662612384181
 20
163.02038409430941
 30
0.0
 11
237.67962852444529
 21
165.72355227692259
 31
0.0
  0
POLYLINE
  5
144A
  8
LAYER2
  6
CONTINUOUS
 66
     1
 10
0.0
 20
0.0
 30
0.0
  0
VERTEX
  5
19D5
  8
LAYER2
  6
CONTINUOUS
 10
236.78022025759151
 20
163.02038409430941
 30
0.0
  0
VERTEX
  5
19D6
  8
LAYER2
  6
CONTINUOUS
 10
236.77801245451431
 20
163.0233762832876
 30
0.0
  0
VERTEX
  5
19D7
  8
LAYER2
  6
CONTINUOUS
 10
236.77294855760599
 20
163.02676638654759
 30
0.0
  0
VERTEX
  5
19D8
  8
LAYER2
  6
CONTINUOUS
 10
236.7622183956596
 20
163.0324946932034
 30
0.0
  0
VERTEX
  5
19D9
  8
LAYER2
  6
CONTINUOUS
 10
236.7548444215771
 20
163.03788835062201
 30
0.0
  0
VERTEX
  5
19DA
  8
LAYER2
  6
CONTINUOUS
 10
236.75313107218739
 20
163.03941673196371
 30
0.0
  0
VERTEX
  5
19DB
  8
LAYER2
  6
CONTINUOUS
 10
236.74558824311569
 20
163.0472217602485
 30
0.0
  0
VERTEX
  5
19DC
  8
LAYER2
  6
CONTINUOUS
 10
236.7379248049364
 20
163.05560460399411
 30
0.0
  0
VERTEX
  5
19DD
  8
LAYER2
  6
CONTINUOUS
 10
236.73046211289881
 20
163.06433207739781
 30
0.0
  0
VERTEX
  5
19DE
  8
LAYER2
  6
CONTINUOUS
 10
236.72341290689039
 20
163.07376464360109
 30
0.0
  0
VERTEX
  5
19DF
  8
LAYER2
  6
CONTINUOUS
 10
236.71697231794809
 20
163.0835924266058
 30
0.0
  0
VERTEX
  5
19E0
  8
LAYER2
  6
CONTINUOUS
 10
236.71085257608291
 20
163.09403483707439
 30
0.0
  0
VERTEX
  5
19E1
  8
LAYER2
  6
CONTINUOUS
 10
236.70525117120229
 20
163.10476958982639
 30
0.0
  0
VERTEX
  5
19E2
  8
LAYER2
  6
CONTINUOUS
 10
236.70005910521161
 20
163.11607910949431
 30
0.0
  0
VERTEX
  5
19E3
  8
LAYER2
  6
CONTINUOUS
 10
236.6954309856001
 20
163.12763034901371
 30
0.0
  0
VERTEX
  5
19E4
  8
LAYER2
  6
CONTINUOUS
 10
236.69125202942641
 20
163.1396944155434
 30
0.0
  0
VERTEX
  5
19E5
  8
LAYER2
  6
CONTINUOUS
 10
236.68764407408
 20
163.1519414861219
 30
0.0
  0
VERTEX
  5
19E6
  8
LAYER2
  6
CONTINUOUS
 10
236.68453786021661
 20
163.1646404669296
 30
0.0
  0
VERTEX
  5
19E7
  8
LAYER2
  6
CONTINUOUS
 10
236.6820227495819
 20
163.1774697831047
 30
0.0
  0
VERTEX
  5
19E8
  8
LAYER2
  6
CONTINUOUS
 10
236.68005790918659
 20
163.1906880118124
 30
0.0
  0
VERTEX
  5
19E9
  8
LAYER2
  6
CONTINUOUS
 10
236.67869932504351
 20
163.2039820219166
 30
0.0
  0
VERTEX
  5
19EA
  8
LAYER2
  6
CONTINUOUS
 10
236.67793396924401
 20
163.21760205751019
 30
0.0
  0
VERTEX
  5
19EB
  8
LAYER2
  6
CONTINUOUS
 10
236.6778061134041
 20
163.23124498451131
 30
0.0
  0
VERTEX
  5
19EC
  8
LAYER2
  6
CONTINUOUS
 10
236.6783333623778
 20
163.2451588792643
 30
0.0
  0
VERTEX
  5
19ED
  8
LAYER2
  6
CONTINUOUS
 10
236.67947542760291
 20
163.25902545284291
 30
0.0
  0
VERTEX
  5
19EE
  8
LAYER2
  6
CONTINUOUS
 10
236.6812584196272
 20
163.27309346506831
 30
0.0
  0
VERTEX
  5
19EF
  8
LAYER2
  6
CONTINUOUS
 10
236.68383958057771
 20
163.28709020886581
 30
0.0
  0
VERTEX
  5
19F0
  8
LAYER2
  6
CONTINUOUS
 10
236.6873456629643
 20
163.30129786142879
 30
0.0
  0
VERTEX
  5
19F1
  8
LAYER2
  6
CONTINUOUS
 10
236.6910308852689
 20
163.3152060345337
 30
0.0
  0
VERTEX
  5
19F2
  8
LAYER2
  6
CONTINUOUS
 10
236.694786628055
 20
163.3290568756893
 30
0.0
  0
VERTEX
  5
19F3
  8
LAYER2
  6
CONTINUOUS
 10
236.6987575548288
 20
163.3387091343989
 30
0.0
  0
VERTEX
  5
19F4
  8
LAYER2
  6
CONTINUOUS
 10
236.7011816546142
 20
163.3431397118006
 30
0.0
  0
VERTEX
  5
19F5
  8
LAYER2
  6
CONTINUOUS
 10
236.71123992814549
 20
163.35800445103331
 30
0.0
  0
VERTEX
  5
19F6
  8
LAYER2
  6
CONTINUOUS
 10
236.71430730887681
 20
163.36396016969499
 30
0.0
  0
VERTEX
  5
19F7
  8
LAYER2
  6
CONTINUOUS
 10
236.71502631933751
 20
163.3679508470654
 30
0.0
  0
VERTEX
  5
19F8
  8
LAYER2
  6
CONTINUOUS
 10
236.7144242015525
 20
163.37065802262109
 30
0.0
  0
SEQEND
  5
19F9
  8
LAYER2
  6
CONTINUOUS
  0
POLYLINE
  5
1470
  8
LAYER2
  6
CONTINUOUS
 66
     1
 10
0.0
 20
0.0
 30
0.0
  0
VERTEX
  5
19FA
  8
LAYER2
  6
CONTINUOUS
 10
240.7019979481816
 20
166.0410418869715
 30
0.0
  0
VERTEX
  5
19FB
  8
LAYER2
  6
CONTINUOUS
 10
240.7050015905848
 20
166.03474320127859
 30
0.0
  0
VERTEX
  5
19FC
  8
LAYER2
  6
CONTINUOUS
 10
240.7113438348357
 20
166.02800613806031
 30
0.0
  0
VERTEX
  5
19FD
  8
LAYER2
  6
CONTINUOUS
 10
240.7163029503059
 20
166.0242339127293
 30
0.0
  0
VERTEX
  5
19FE
  8
LAYER2
  6
CONTINUOUS
 10
240.73833608601191
 20
166.01020712049149
 30
0.0
  0
VERTEX
  5
19FF
  8
LAYER2
  6
CONTINUOUS
 10
240.75101301401969
 20
165.9996400508787
 30
0.0
  0
VERTEX
  5
1A00
  8
LAYER2
  6
CONTINUOUS
 10
240.75492676477509
 20
165.99572754354759
 30
0.0
  0
VERTEX
  5
1A01
  8
LAYER2
  6
CONTINUOUS
 10
240.76897651121311
 20
165.97982125619211
 30
0.0
  0
VERTEX
  5
1A02
  8
LAYER2
  6
CONTINUOUS
 10
240.78178886624659
 20
165.9650185808471
 30
0.0
  0
VERTEX
  5
1A03
  8
LAYER2
  6
CONTINUOUS
 10
240.79435306042021
 20
165.9498151585411
 30
0.0
  0
VERTEX
  5
1A04
  8
LAYER2
  6
CONTINUOUS
 10
240.8050527202918
 20
165.9352474743867
 30
0.0
  0
VERTEX
  5
1A05
  8
LAYER2
  6
CONTINUOUS
 10
240.81489957026801
 20
165.9201196920061
 30
0.0
  0
VERTEX
  5
1A06
  8
LAYER2
  6
CONTINUOUS
 10
240.82335249490549
 20
165.90560119621901
 30
0.0
  0
VERTEX
  5
1A07
  8
LAYER2
  6
CONTINUOUS
 10
240.83104987739171
 20
165.89066572105591
 30
0.0
  0
VERTEX
  5
1A08
  8
LAYER2
  6
CONTINUOUS
 10
240.83753938406599
 20
165.87618932875671
 30
0.0
  0
VERTEX
  5
1A09
  8
LAYER2
  6
CONTINUOUS
 10
240.8432378184261
 20
165.86138411015739
 30
0.0
  0
VERTEX
  5
1A0A
  8
LAYER2
  6
CONTINUOUS
 10
240.84794420771721
 20
165.84690650939569
 30
0.0
  0
VERTEX
  5
1A0B
  8
LAYER2
  6
CONTINUOUS
 10
240.85189723000701
 20
165.83220572377931
 30
0.0
  0
VERTEX
  5
1A0C
  8
LAYER2
  6
CONTINUOUS
 10
240.8550265568324
 20
165.81769988467141
 30
0.0
  0
VERTEX
  5
1A0D
  8
LAYER2
  6
CONTINUOUS
 10
240.8574619487691
 20
165.80306142638901
 30
0.0
  0
VERTEX
  5
1A0E
  8
LAYER2
  6
CONTINUOUS
 10
240.8592162971876
 20
165.78850167058471
 30
0.0
  0
VERTEX
  5
1A0F
  8
LAYER2
  6
CONTINUOUS
 10
240.86036581134709
 20
165.7738820824552
 30
0.0
  0
VERTEX
  5
1A10
  8
LAYER2
  6
CONTINUOUS
 10
240.86095784938729
 20
165.75924704328889
 30
0.0
  0
VERTEX
  5
1A11
  8
LAYER2
  6
CONTINUOUS
 10
240.861042654377
 20
165.74459855644511
 30
0.0
  0
VERTEX
  5
1A12
  8
LAYER2
  6
CONTINUOUS
 10
240.86067196912421
 20
165.7298593958721
 30
0.0
  0
VERTEX
  5
1A13
  8
LAYER2
  6
CONTINUOUS
 10
240.85992631449309
 20
165.71514171282709
 30
0.0
  0
VERTEX
  5
1A14
  8
LAYER2
  6
CONTINUOUS
 10
240.8588588154287
 20
165.7002931183674
 30
0.0
  0
VERTEX
  5
1A15
  8
LAYER2
  6
CONTINUOUS
 10
240.85745062833081
 20
165.68544241606889
 30
0.0
  0
VERTEX
  5
1A16
  8
LAYER2
  6
CONTINUOUS
 10
240.85571340129181
 20
165.67037951225541
 30
0.0
  0
VERTEX
  5
1A17
  8
LAYER2
  6
CONTINUOUS
 10
240.8540494325253
 20
165.65543153063859
 30
0.0
  0
VERTEX
  5
1A18
  8
LAYER2
  6
CONTINUOUS
 10
240.8525852028433
 20
165.64041558608281
 30
0.0
  0
VERTEX
  5
1A19
  8
LAYER2
  6
CONTINUOUS
 10
240.85015656371189
 20
165.62503992100409
 30
0.0
  0
VERTEX
  5
1A1A
  8
LAYER2
  6
CONTINUOUS
 10
240.84641862173751
 20
165.6089231109741
 30
0.0
  0
VERTEX
  5
1A1B
  8
LAYER2
  6
CONTINUOUS
 10
240.84549198933399
 20
165.59883773567111
 30
0.0
  0
VERTEX
  5
1A1C
  8
LAYER2
  6
CONTINUOUS
 10
240.846205858525
 20
165.5941984516335
 30
0.0
  0
SEQEND
  5
1A1D
  8
LAYER2
  6
CONTINUOUS
  0
LINE
  5
1495
  8
LAYER2
  6
CONTINUOUS
 10
240.7019979481816
 20
166.0410418869715
 30
0.0
 11
242.00496812615299
 21
166.0410418869715
 31
0.0
  0
LINE
  5
1496
  8
LAYER2
  6
CONTINUOUS
 10
241.37733814717029
 20
163.024836728991
 30
0.0
 11
240.29022499568791
 21
163.024836728991
 31
0.0
  0
LINE
  5
1497
  8
LAYER2
  6
CONTINUOUS
 10
242.00496812615299
 20
166.0410418869715
 30
0.0
 11
241.37733814717029
 21
163.024836728991
 31
0.0
  0
LINE
  5
1498
  8
LAYER2
  6
CONTINUOUS
 10
240.29022499568791
 20
163.024836728991
 30
0.0
 11
240.84620585852539
 21
165.5941984516333
 31
0.0
  0
LINE
  5
1499
  8
LAYER1
  6
CONTINUOUS
 10
232.4524857584413
 20
167.652365118744
 30
0.0
 11
243.55721614801121
 21
167.652365118744
 31
0.0
  0
LINE
  5
149A
  8
LAYER1
  6
CONTINUOUS
 10
243.5484886155472
 20
167.14363758628011
 30
0.0
 11
232.4612132909065
 21
167.14363758628011
 31
0.0
  0
LINE
  5
149B
  8
LAYER1
  6
CONTINUOUS
 10
243.50485095322639
 20
167.09999992395899
 30
0.0
 11
232.50485095322651
 21
167.09999992395899
 31
0.0
  0
LINE
  5
149C
  8
LAYER1
  6
CONTINUOUS
 10
232.4612132909065
 20
167.14363758627911
 30
0.0
 11
232.4524857584413
 21
167.652365118744
 31
0.0
  0
LINE
  5
149D
  8
LAYER1
  6
CONTINUOUS
 10
232.50485095322651
 20
167.09999992395899
 30
0.0
 11
232.4612132909065
 21
167.14363758627911
 31
0.0
  0
LINE
  5
149E
  8
LAYER1
  6
CONTINUOUS
 10
232.4524857584413
 20
167.652365118744
 30
0.0
 11
232.4524857584413
 21
167.09999992395899
 31
0.0
  0
CIRCLE
  5
149F
  8
LAYER1
  6
CONTINUOUS
 10
238.00485095322639
 20
174.060087923959
 30
0.0
 40
2.5523651947850001
  0
CIRCLE
  5
14A0
  8
LAYER1
  6
CONTINUOUS
 10
238.00485095322639
 20
174.060087923959
 30
0.0
 40
2.5
  0
LINE
  5
14A1
  8
LAYER1
  6
CONTINUOUS
 10
243.55721614801121
 20
167.652365118744
 30
0.0
 11
243.5484886155472
 21
167.14363758627911
 31
0.0
  0
LINE
  5
14A2
  8
LAYER1
  6
CONTINUOUS
 10
243.50485095322639
 20
167.09999992395899
 30
0.0
 11
243.5484886155472
 21
167.14363758628011
 31
0.0
  0
LINE
  5
14A3
  8
LAYER1
  6
CONTINUOUS
 10
243.55721614801121
 20
167.09999992395899
 30
0.0
 11
243.55721614801121
 21
167.652365118744
 31
0.0
  0
LINE
  5
14A4
  8
LAYER4
  6
CONTINUOUS
 10
246.50485095322639
 20
91.849999923959217
 30
0.0
 11
246.50485095322639
 21
93.849999923959174
 31
0.0
  0
LINE
  5
14A5
  8
LAYER4
  6
CONTINUOUS
 10
250.50485095322639
 20
93.849999923959174
 30
0.0
 11
250.50485095322639
 21
74.849999923959203
 31
0.0
  0
LINE
  5
14A6
  8
LAYER4
  6
CONTINUOUS
 10
246.00485095322639
 20
74.449999923959183
 30
0.0
 11
246.00485095322639
 21
94.349999923959217
 31
0.0
  0
LINE
  5
14A7
  8
LAYER4
  6
CONTINUOUS
 10
251.00485095322639
 20
94.349999923959217
 30
0.0
 11
251.00485095322639
 21
74.449999923959183
 31
0.0
  0
LINE
  5
14A8
  8
LAYER1
  6
CONTINUOUS
 10
375.90076892696658
 20
108.59999943101511
 30
0.0
 11
371.73904981807442
 21
88.600000924493202
 31
0.0
  0
LINE
  5
14A9
  8
LAYER1
  6
CONTINUOUS
 10
364.53056754738282
 20
88.600000924493202
 30
0.0
 11
368.21719224430871
 21
105.63704844746999
 31
0.0
  0
LINE
  5
14AA
  8
LAYER1
  6
CONTINUOUS
 10
375.74925619184472
 20
88.570476179881197
 30
0.0
 11
388.89824406674671
 21
106.494774025504
 31
0.0
  0
LINE
  5
14AB
  8
LAYER1
  6
CONTINUOUS
 10
396.56301062985392
 20
108.5678555558321
 30
0.0
 11
400.43995881490167
 21
88.567936416903194
 31
0.0
  0
LINE
  5
14AC
  8
LAYER1
  6
CONTINUOUS
 10
406.20871294776271
 20
88.600000924493202
 30
0.0
 11
409.8953376446886
 21
105.63704844746999
 31
0.0
  0
LINE
  5
14AD
  8
LAYER1
  6
CONTINUOUS
 10
417.57891432734652
 20
108.59999943101511
 30
0.0
 11
413.41719521845448
 21
88.600000924493202
 31
0.0
  0
LINE
  5
14AE
  8
0
  6
CONTINUOUS
 10
251.00485095322639
 20
73.4199999239585
 30
0.0
 11
251.00485095322639
 21
95.419999923960006
 31
0.0
  0
LINE
  5
14AF
  8
LAYER1
  6
CONTINUOUS
 10
349.55478056977182
 20
106.5999997406995
 30
0.0
 11
349.55478056977182
 21
90.599999740699559
 31
0.0
  0
LINE
  5
14B0
  8
LAYER2
  6
CONTINUOUS
 10
332.21661248289661
 20
161.35816801083419
 30
0.0
 11
332.21661248289661
 21
36.26183183708406
 31
0.0
  0
LINE
  5
14B1
  8
LAYER1
  6
CONTINUOUS
 10
357.55478056977267
 20
107.599999923959
 30
0.0
 11
357.55478056977267
 21
89.599999923959189
 31
0.0
  0
LINE
  5
14B2
  8
LAYER2
  6
CONTINUOUS
 10
352.65478056889981
 20
106.6999999239591
 30
0.0
 11
352.65478056889981
 21
90.499999923959194
 31
0.0
  0
LINE
  5
14B3
  8
LAYER2
  6
CONTINUOUS
 10
349.45478056889982
 20
106.6999999239591
 30
0.0
 11
349.45478056889982
 21
90.499999923959194
 31
0.0
  0
LINE
  5
14B4
  8
LAYER2
  6
CONTINUOUS
 10
332.55478056977182
 20
166.09999992395899
 30
0.0
 11
332.55478056977182
 21
31.099999923959221
 31
0.0
  0
LINE
  5
14B5
  8
LAYER2
  6
CONTINUOUS
 10
355.05478056889979
 20
157.67710747620211
 30
0.0
 11
355.05478056889979
 21
39.52289237167718
 31
0.0
  0
LINE
  5
14B6
  8
LAYER1
  6
CONTINUOUS
 10
259.50485095322648
 20
28.896693235183129
 30
0.0
 11
259.50485095322648
 21
176.59999992395899
 31
0.0
  0
LINE
  5
14B7
  8
LAYER1
  6
CONTINUOUS
 10
352.55478056977182
 20
106.599999923959
 30
0.0
 11
352.55478056977182
 21
90.599999923959217
 31
0.0
  0
LINE
  5
14B8
  8
LAYER1
  6
CONTINUOUS
 10
441.55478056977182
 20
178.09999992395899
 30
0.0
 11
441.55478056977182
 21
19.099999923959199
 31
0.0
  0
LINE
  5
14B9
  8
LAYER2
  6
CONTINUOUS
 10
254.50485095322631
 20
160.01999992395901
 30
0.0
 11
254.50485095322631
 21
37.599999923959182
 31
0.0
  0
LINE
  5
14BA
  8
LAYER2
  6
CONTINUOUS
 10
255.5021539532263
 20
160.01999992395901
 30
0.0
 11
255.5021539532263
 21
37.599999923959182
 31
0.0
  0
LINE
  5
14BB
  8
LAYER2
  6
CONTINUOUS
 10
259.50485095322648
 20
31.099999923959221
 30
0.0
 11
259.50485095322648
 21
166.09999992395899
 31
0.0
  0
LINE
  5
14BC
  8
LAYER1
  6
CONTINUOUS
 10
413.41719521845448
 20
88.600000924493202
 30
0.0
 11
406.20871294776271
 21
88.600000924493202
 31
0.0
  0
LINE
  5
14BD
  8
LAYER2
  6
CONTINUOUS
 10
408.05478056977188
 20
36.632379404263183
 30
0.0
 11
385.55478056977262
 21
37.025118365142092
 31
0.0
  0
LINE
  5
14BE
  8
LAYER1
  6
CONTINUOUS
 10
385.55478056977182
 20
37.525118365154079
 30
0.0
 11
408.05478056977188
 21
37.13237940427009
 31
0.0
  0
LINE
  5
14BF
  8
LAYER2
  6
CONTINUOUS
 10
332.55478056977182
 20
30.09999992395921
 30
0.0
 11
379.05478056977182
 21
30.09999992395921
 31
0.0
  0
ARC
  5
14C0
  8
LAYER2
  6
CONTINUOUS
 10
253.5021539532263
 20
37.599999923959182
 30
0.0
 40
2.0
 50
270.0
 51
0.0
  0
ARC
  5
14C1
  8
LAYER2
  6
CONTINUOUS
 10
258.50485095322631
 20
31.099999923959221
 30
0.0
 40
1.0
 50
270.0
 51
0.0
  0
CIRCLE
  5
14C2
  8
LAYER3
 10
250.50485095322639
 20
63.919999923959281
 30
0.0
 40
1.0
  0
LINE
  5
14C3
  8
LAYER4
  6
CONTINUOUS
 10
250.50485095322639
 20
52.399999923959193
 30
0.0
 11
250.50485095322639
 21
41.399999923959157
 31
0.0
  0
LINE
  5
14C4
  8
LAYER4
  6
CONTINUOUS
 10
251.00485095322639
 20
52.899999923959193
 30
0.0
 11
251.00485095322639
 21
40.899999923959172
 31
0.0
  0
LINE
  5
14C5
  8
LAYER4
  6
CONTINUOUS
 10
246.00485095322639
 20
40.899999923959172
 30
0.0
 11
246.00485095322639
 21
52.899999923959193
 31
0.0
  0
LINE
  5
14C6
  8
0
  6
CONTINUOUS
 10
251.00485095322639
 20
39.919999923957683
 30
0.0
 11
251.00485095322639
 21
53.91999992395921
 31
0.0
  0
LINE
  5
14C7
  8
LAYER4
  6
CONTINUOUS
 10
246.50485095322639
 20
41.399999923959157
 30
0.0
 11
246.50485095322639
 21
43.399999923959172
 31
0.0
  0
CIRCLE
  5
14C8
  8
LAYER4
  6
CONTINUOUS
 10
249.50485095322639
 20
42.899999923959193
 30
0.0
 40
0.4
  0
CIRCLE
  5
14C9
  8
LAYER4
  6
CONTINUOUS
 10
247.50485095322639
 20
42.899999923959193
 30
0.0
 40
0.4
  0
LINE
  5
14CA
  8
LAYER4
  6
CONTINUOUS
 10
251.00485095322639
 20
40.899999923959172
 30
0.0
 11
246.00485095322639
 21
40.899999923959172
 31
0.0
  0
LINE
  5
14CB
  8
LAYER4
  6
CONTINUOUS
 10
250.50485095322639
 20
41.399999923959157
 30
0.0
 11
246.50485095322639
 21
41.399999923959157
 31
0.0
  0
ARC
  5
14CC
  8
LAYER2
  6
CONTINUOUS
 10
253.50485095322651
 20
37.599999923959182
 30
0.0
 40
1.0
 50
270.0
 51
0.0
  0
LINE
  5
14CD
  8
LAYER4
  6
CONTINUOUS
 10
246.50485095322639
 20
44.399999923959172
 30
0.0
 11
246.50485095322639
 21
49.399999923959179
 31
0.0
  0
CIRCLE
  5
14CE
  8
LAYER4
  6
CONTINUOUS
 10
249.50485095322639
 20
44.899999923959172
 30
0.0
 40
0.4
  0
LINE
  5
14CF
  8
LAYER4
  6
CONTINUOUS
 10
246.50485095322639
 20
44.399999923959172
 30
0.0
 11
246.00485095322639
 21
44.399999923959172
 31
0.0
  0
CIRCLE
  5
14D0
  8
LAYER4
  6
CONTINUOUS
 10
247.50485095322639
 20
46.899999923959172
 30
0.0
 40
0.4
  0
CIRCLE
  5
14D1
  8
LAYER4
  6
CONTINUOUS
 10
247.50485095322639
 20
44.899999923959172
 30
0.0
 40
0.4
  0
CIRCLE
  5
14D2
  8
LAYER4
  6
CONTINUOUS
 10
247.50485095322639
 20
48.899999923959172
 30
0.0
 40
0.4
  0
CIRCLE
  5
14D3
  8
LAYER4
  6
CONTINUOUS
 10
249.50485095322639
 20
48.899999923959172
 30
0.0
 40
0.4
  0
LINE
  5
14D4
  8
LAYER4
  6
CONTINUOUS
 10
246.50485095322639
 20
49.399999923959179
 30
0.0
 11
246.00485095322639
 21
49.399999923959179
 31
0.0
  0
LINE
  5
14D5
  8
LAYER4
  6
CONTINUOUS
 10
246.50485095322639
 20
43.399999923959172
 30
0.0
 11
246.00485095322639
 21
43.399999923959172
 31
0.0
  0
CIRCLE
  5
14D6
  8
LAYER4
  6
CONTINUOUS
 10
249.50485095322639
 20
46.899999923959172
 30
0.0
 40
0.4
  0
CIRCLE
  5
14D7
  8
LAYER3
 10
250.50485095322639
 20
56.419999923959281
 30
0.0
 40
1.0
  0
LINE
  5
14D8
  8
LAYER4
  6
CONTINUOUS
 10
246.00485095322639
 20
52.899999923959193
 30
0.0
 11
251.00485095322639
 21
52.899999923959193
 31
0.0
  0
LINE
  5
14D9
  8
LAYER4
  6
CONTINUOUS
 10
246.50485095322639
 20
50.399999923959193
 30
0.0
 11
246.50485095322639
 21
52.399999923959193
 31
0.0
  0
LINE
  5
14DA
  8
LAYER4
  6
CONTINUOUS
 10
246.50485095322639
 20
52.399999923959193
 30
0.0
 11
250.50485095322639
 21
52.399999923959193
 31
0.0
  0
CIRCLE
  5
14DB
  8
LAYER4
  6
CONTINUOUS
 10
247.50485095322639
 20
50.899999923959179
 30
0.0
 40
0.4
  0
LINE
  5
14DC
  8
LAYER4
  6
CONTINUOUS
 10
246.50485095322639
 20
50.399999923959193
 30
0.0
 11
246.00485095322639
 21
50.399999923959193
 31
0.0
  0
CIRCLE
  5
14DD
  8
LAYER4
  6
CONTINUOUS
 10
249.50485095322639
 20
50.899999923959179
 30
0.0
 40
0.4
  0
CIRCLE
  5
14DE
  8
LAYER3
 10
250.50485095322639
 20
61.419999923959281
 30
0.0
 40
1.0
  0
CIRCLE
  5
14DF
  8
LAYER3
 10
250.50485095322639
 20
58.919999923959281
 30
0.0
 40
1.0
  0
LINE
  5
14E0
  8
LAYER4
  6
CONTINUOUS
 10
246.50485095322639
 20
77.849999923959203
 30
0.0
 11
246.50485095322639
 21
90.849999923959189
 31
0.0
  0
CIRCLE
  5
14E1
  8
LAYER3
 10
250.50485095322639
 20
66.419999923959296
 30
0.0
 40
1.0
  0
CIRCLE
  5
14E2
  8
LAYER3
 10
250.50485095322639
 20
68.919999923959296
 30
0.0
 40
1.0
  0
LINE
  5
14E3
  8
LAYER4
  6
CONTINUOUS
 10
251.00485095322639
 20
74.449999923959183
 30
0.0
 11
246.00485095322639
 21
74.449999923959183
 31
0.0
  0
LINE
  5
14E4
  8
LAYER4
  6
CONTINUOUS
 10
247.75485095322639
 20
78.149999923959214
 30
0.0
 11
247.25485095322651
 21
78.149999923959214
 31
0.0
  0
LINE
  5
14E5
  8
LAYER4
  6
CONTINUOUS
 10
247.25485095322651
 20
78.149999923959214
 30
0.0
 11
247.25485095322651
 21
78.649999923959214
 31
0.0
  0
LINE
  5
14E6
  8
LAYER4
  6
CONTINUOUS
 10
247.25485095322651
 20
78.649999923959214
 30
0.0
 11
247.75485095322639
 21
78.649999923959214
 31
0.0
  0
LINE
  5
14E7
  8
LAYER4
  6
CONTINUOUS
 10
247.75485095322639
 20
78.649999923959214
 30
0.0
 11
247.75485095322639
 21
78.149999923959214
 31
0.0
  0
LINE
  5
14E8
  8
LAYER4
  6
CONTINUOUS
 10
249.75485095322639
 20
76.149999923959214
 30
0.0
 11
249.25485095322651
 21
76.149999923959214
 31
0.0
  0
LINE
  5
14E9
  8
LAYER4
  6
CONTINUOUS
 10
249.25485095322651
 20
76.149999923959214
 30
0.0
 11
249.25485095322651
 21
76.649999923959214
 31
0.0
  0
LINE
  5
14EA
  8
LAYER4
  6
CONTINUOUS
 10
249.25485095322651
 20
76.649999923959214
 30
0.0
 11
249.75485095322639
 21
76.649999923959214
 31
0.0
  0
LINE
  5
14EB
  8
LAYER4
  6
CONTINUOUS
 10
249.75485095322639
 20
76.649999923959214
 30
0.0
 11
249.75485095322639
 21
76.149999923959214
 31
0.0
  0
LINE
  5
14EC
  8
LAYER4
  6
CONTINUOUS
 10
249.5948509532264
 20
76.309947923959186
 30
0.0
 11
249.41485095322631
 21
76.309947923959186
 31
0.0
  0
LINE
  5
14ED
  8
LAYER4
  6
CONTINUOUS
 10
249.41485095322631
 20
76.309947923959186
 30
0.0
 11
249.41485095322631
 21
76.489947923959193
 31
0.0
  0
LINE
  5
14EE
  8
LAYER4
  6
CONTINUOUS
 10
249.41485095322631
 20
76.489947923959193
 30
0.0
 11
249.5948509532264
 21
76.489947923959193
 31
0.0
  0
LINE
  5
14EF
  8
LAYER4
  6
CONTINUOUS
 10
249.5948509532264
 20
76.489947923959193
 30
0.0
 11
249.5948509532264
 21
76.309947923959186
 31
0.0
  0
LINE
  5
14F0
  8
LAYER4
  6
CONTINUOUS
 10
249.75485095322639
 20
78.149999923959214
 30
0.0
 11
249.25485095322651
 21
78.149999923959214
 31
0.0
  0
LINE
  5
14F1
  8
LAYER4
  6
CONTINUOUS
 10
249.25485095322651
 20
78.149999923959214
 30
0.0
 11
249.25485095322651
 21
78.649999923959214
 31
0.0
  0
LINE
  5
14F2
  8
LAYER4
  6
CONTINUOUS
 10
249.25485095322651
 20
78.649999923959214
 30
0.0
 11
249.75485095322639
 21
78.649999923959214
 31
0.0
  0
LINE
  5
14F3
  8
LAYER4
  6
CONTINUOUS
 10
249.75485095322639
 20
78.649999923959214
 30
0.0
 11
249.75485095322639
 21
78.149999923959214
 31
0.0
  0
LINE
  5
14F4
  8
LAYER4
  6
CONTINUOUS
 10
249.5948509532264
 20
78.309947923959186
 30
0.0
 11
249.41485095322631
 21
78.309947923959186
 31
0.0
  0
LINE
  5
14F5
  8
LAYER4
  6
CONTINUOUS
 10
249.41485095322631
 20
78.309947923959186
 30
0.0
 11
249.41485095322631
 21
78.489947923959193
 31
0.0
  0
LINE
  5
14F6
  8
LAYER4
  6
CONTINUOUS
 10
249.41485095322631
 20
78.489947923959193
 30
0.0
 11
249.5948509532264
 21
78.489947923959193
 31
0.0
  0
LINE
  5
14F7
  8
LAYER4
  6
CONTINUOUS
 10
249.5948509532264
 20
78.489947923959193
 30
0.0
 11
249.5948509532264
 21
78.309947923959186
 31
0.0
  0
LINE
  5
14F8
  8
LAYER4
  6
CONTINUOUS
 10
247.75485095322639
 20
76.149999923959214
 30
0.0
 11
247.25485095322651
 21
76.149999923959214
 31
0.0
  0
LINE
  5
14F9
  8
LAYER4
  6
CONTINUOUS
 10
247.25485095322651
 20
76.149999923959214
 30
0.0
 11
247.25485095322651
 21
76.649999923959214
 31
0.0
  0
LINE
  5
14FA
  8
LAYER4
  6
CONTINUOUS
 10
247.25485095322651
 20
76.649999923959214
 30
0.0
 11
247.75485095322639
 21
76.649999923959214
 31
0.0
  0
LINE
  5
14FB
  8
LAYER4
  6
CONTINUOUS
 10
247.75485095322639
 20
76.649999923959214
 30
0.0
 11
247.75485095322639
 21
76.149999923959214
 31
0.0
  0
LINE
  5
14FC
  8
LAYER4
  6
CONTINUOUS
 10
247.5948509532264
 20
76.309947923959186
 30
0.0
 11
247.41485095322631
 21
76.309947923959186
 31
0.0
  0
LINE
  5
14FD
  8
LAYER4
  6
CONTINUOUS
 10
247.41485095322631
 20
76.309947923959186
 30
0.0
 11
247.41485095322631
 21
76.489947923959193
 31
0.0
  0
LINE
  5
14FE
  8
LAYER4
  6
CONTINUOUS
 10
247.41485095322631
 20
76.489947923959193
 30
0.0
 11
247.5948509532264
 21
76.489947923959193
 31
0.0
  0
LINE
  5
14FF
  8
LAYER4
  6
CONTINUOUS
 10
247.5948509532264
 20
76.489947923959193
 30
0.0
 11
247.5948509532264
 21
76.309947923959186
 31
0.0
  0
LINE
  5
1500
  8
LAYER4
  6
CONTINUOUS
 10
247.5948509532264
 20
78.309947923959186
 30
0.0
 11
247.41485095322631
 21
78.309947923959186
 31
0.0
  0
LINE
  5
1501
  8
LAYER4
  6
CONTINUOUS
 10
247.41485095322631
 20
78.309947923959186
 30
0.0
 11
247.41485095322631
 21
78.489947923959193
 31
0.0
  0
LINE
  5
1502
  8
LAYER4
  6
CONTINUOUS
 10
247.41485095322631
 20
78.489947923959193
 30
0.0
 11
247.5948509532264
 21
78.489947923959193
 31
0.0
  0
LINE
  5
1503
  8
LAYER4
  6
CONTINUOUS
 10
247.5948509532264
 20
78.489947923959193
 30
0.0
 11
247.5948509532264
 21
78.309947923959186
 31
0.0
  0
LINE
  5
1504
  8
LAYER4
  6
CONTINUOUS
 10
250.50485095322639
 20
74.849999923959203
 30
0.0
 11
246.50485095322639
 21
74.849999923959203
 31
0.0
  0
LINE
  5
1505
  8
LAYER4
  6
CONTINUOUS
 10
246.50485095322639
 20
74.849999923959203
 30
0.0
 11
246.50485095322639
 21
76.849999923959203
 31
0.0
  0
LINE
  5
1506
  8
LAYER4
  6
CONTINUOUS
 10
246.50485095322639
 20
77.849999923959203
 30
0.0
 11
246.00485095322639
 21
77.849999923959203
 31
0.0
  0
LINE
  5
1507
  8
LAYER4
  6
CONTINUOUS
 10
246.50485095322639
 20
76.849999923959203
 30
0.0
 11
246.00485095322639
 21
76.849999923959203
 31
0.0
  0
LINE
  5
1508
  8
LAYER4
  6
CONTINUOUS
 10
249.41485095322631
 20
86.309947923959186
 30
0.0
 11
249.41485095322631
 21
86.489947923959164
 31
0.0
  0
LINE
  5
1509
  8
LAYER4
  6
CONTINUOUS
 10
249.5948509532264
 20
86.489947923959164
 30
0.0
 11
249.5948509532264
 21
86.309947923959186
 31
0.0
  0
LINE
  5
150A
  8
LAYER4
  6
CONTINUOUS
 10
247.25485095322651
 20
86.149999923959214
 30
0.0
 11
247.25485095322651
 21
86.6499999239592
 31
0.0
  0
LINE
  5
150B
  8
LAYER4
  6
CONTINUOUS
 10
247.75485095322639
 20
86.6499999239592
 30
0.0
 11
247.75485095322639
 21
86.149999923959214
 31
0.0
  0
LINE
  5
150C
  8
LAYER4
  6
CONTINUOUS
 10
247.41485095322631
 20
86.309947923959186
 30
0.0
 11
247.41485095322631
 21
86.489947923959164
 31
0.0
  0
LINE
  5
150D
  8
LAYER4
  6
CONTINUOUS
 10
247.5948509532264
 20
86.489947923959164
 30
0.0
 11
247.5948509532264
 21
86.309947923959186
 31
0.0
  0
LINE
  5
150E
  8
LAYER4
  6
CONTINUOUS
 10
249.25485095322651
 20
86.149999923959214
 30
0.0
 11
249.25485095322651
 21
86.6499999239592
 31
0.0
  0
LINE
  5
150F
  8
LAYER4
  6
CONTINUOUS
 10
249.75485095322639
 20
86.6499999239592
 30
0.0
 11
249.75485095322639
 21
86.149999923959214
 31
0.0
  0
LINE
  5
1510
  8
LAYER4
  6
CONTINUOUS
 10
249.5948509532264
 20
80.309947923959186
 30
0.0
 11
249.41485095322631
 21
80.309947923959186
 31
0.0
  0
LINE
  5
1511
  8
LAYER4
  6
CONTINUOUS
 10
249.41485095322631
 20
80.309947923959186
 30
0.0
 11
249.41485095322631
 21
80.489947923959193
 31
0.0
  0
LINE
  5
1512
  8
LAYER4
  6
CONTINUOUS
 10
249.41485095322631
 20
80.489947923959193
 30
0.0
 11
249.5948509532264
 21
80.489947923959193
 31
0.0
  0
LINE
  5
1513
  8
LAYER4
  6
CONTINUOUS
 10
249.5948509532264
 20
80.489947923959193
 30
0.0
 11
249.5948509532264
 21
80.309947923959186
 31
0.0
  0
LINE
  5
1514
  8
LAYER4
  6
CONTINUOUS
 10
249.5948509532264
 20
86.309947923959186
 30
0.0
 11
249.41485095322631
 21
86.309947923959186
 31
0.0
  0
LINE
  5
1515
  8
LAYER4
  6
CONTINUOUS
 10
249.75485095322639
 20
80.149999923959186
 30
0.0
 11
249.25485095322651
 21
80.149999923959186
 31
0.0
  0
LINE
  5
1516
  8
LAYER4
  6
CONTINUOUS
 10
249.25485095322651
 20
80.149999923959186
 30
0.0
 11
249.25485095322651
 21
80.649999923959214
 31
0.0
  0
LINE
  5
1517
  8
LAYER4
  6
CONTINUOUS
 10
249.25485095322651
 20
80.649999923959214
 30
0.0
 11
249.75485095322639
 21
80.649999923959214
 31
0.0
  0
LINE
  5
1518
  8
LAYER4
  6
CONTINUOUS
 10
249.75485095322639
 20
80.649999923959214
 30
0.0
 11
249.75485095322639
 21
80.149999923959186
 31
0.0
  0
LINE
  5
1519
  8
LAYER4
  6
CONTINUOUS
 10
249.5948509532264
 20
84.309947923959186
 30
0.0
 11
249.41485095322631
 21
84.309947923959186
 31
0.0
  0
LINE
  5
151A
  8
LAYER4
  6
CONTINUOUS
 10
249.41485095322631
 20
84.309947923959186
 30
0.0
 11
249.41485095322631
 21
84.489947923959207
 31
0.0
  0
LINE
  5
151B
  8
LAYER4
  6
CONTINUOUS
 10
249.41485095322631
 20
84.489947923959207
 30
0.0
 11
249.5948509532264
 21
84.489947923959207
 31
0.0
  0
LINE
  5
151C
  8
LAYER4
  6
CONTINUOUS
 10
249.5948509532264
 20
84.489947923959207
 30
0.0
 11
249.5948509532264
 21
84.309947923959186
 31
0.0
  0
LINE
  5
151D
  8
LAYER4
  6
CONTINUOUS
 10
247.5948509532264
 20
84.309947923959186
 30
0.0
 11
247.41485095322631
 21
84.309947923959186
 31
0.0
  0
LINE
  5
151E
  8
LAYER4
  6
CONTINUOUS
 10
247.41485095322631
 20
84.309947923959186
 30
0.0
 11
247.41485095322631
 21
84.489947923959207
 31
0.0
  0
LINE
  5
151F
  8
LAYER4
  6
CONTINUOUS
 10
247.41485095322631
 20
84.489947923959207
 30
0.0
 11
247.5948509532264
 21
84.489947923959207
 31
0.0
  0
LINE
  5
1520
  8
LAYER4
  6
CONTINUOUS
 10
247.5948509532264
 20
84.489947923959207
 30
0.0
 11
247.5948509532264
 21
84.309947923959186
 31
0.0
  0
LINE
  5
1521
  8
LAYER4
  6
CONTINUOUS
 10
247.5948509532264
 20
80.309947923959186
 30
0.0
 11
247.41485095322631
 21
80.309947923959186
 31
0.0
  0
LINE
  5
1522
  8
LAYER4
  6
CONTINUOUS
 10
247.41485095322631
 20
80.309947923959186
 30
0.0
 11
247.41485095322631
 21
80.489947923959193
 31
0.0
  0
LINE
  5
1523
  8
LAYER4
  6
CONTINUOUS
 10
247.41485095322631
 20
80.489947923959193
 30
0.0
 11
247.5948509532264
 21
80.489947923959193
 31
0.0
  0
LINE
  5
1524
  8
LAYER4
  6
CONTINUOUS
 10
247.5948509532264
 20
80.489947923959193
 30
0.0
 11
247.5948509532264
 21
80.309947923959186
 31
0.0
  0
LINE
  5
1525
  8
LAYER4
  6
CONTINUOUS
 10
249.75485095322639
 20
84.149999923959214
 30
0.0
 11
249.25485095322651
 21
84.149999923959214
 31
0.0
  0
LINE
  5
1526
  8
LAYER4
  6
CONTINUOUS
 10
249.25485095322651
 20
84.149999923959214
 30
0.0
 11
249.25485095322651
 21
84.649999923959214
 31
0.0
  0
LINE
  5
1527
  8
LAYER4
  6
CONTINUOUS
 10
249.25485095322651
 20
84.649999923959214
 30
0.0
 11
249.75485095322639
 21
84.649999923959214
 31
0.0
  0
LINE
  5
1528
  8
LAYER4
  6
CONTINUOUS
 10
249.75485095322639
 20
84.649999923959214
 30
0.0
 11
249.75485095322639
 21
84.149999923959214
 31
0.0
  0
LINE
  5
1529
  8
LAYER4
  6
CONTINUOUS
 10
247.75485095322639
 20
86.149999923959214
 30
0.0
 11
247.25485095322651
 21
86.149999923959214
 31
0.0
  0
LINE
  5
152A
  8
LAYER4
  6
CONTINUOUS
 10
247.5948509532264
 20
86.309947923959186
 30
0.0
 11
247.41485095322631
 21
86.309947923959186
 31
0.0
  0
LINE
  5
152B
  8
LAYER4
  6
CONTINUOUS
 10
249.75485095322639
 20
82.149999923959214
 30
0.0
 11
249.25485095322651
 21
82.149999923959214
 31
0.0
  0
LINE
  5
152C
  8
LAYER4
  6
CONTINUOUS
 10
249.25485095322651
 20
82.149999923959214
 30
0.0
 11
249.25485095322651
 21
82.649999923959186
 31
0.0
  0
LINE
  5
152D
  8
LAYER4
  6
CONTINUOUS
 10
249.25485095322651
 20
82.649999923959186
 30
0.0
 11
249.75485095322639
 21
82.649999923959186
 31
0.0
  0
LINE
  5
152E
  8
LAYER4
  6
CONTINUOUS
 10
249.75485095322639
 20
82.649999923959186
 30
0.0
 11
249.75485095322639
 21
82.149999923959214
 31
0.0
  0
LINE
  5
152F
  8
LAYER4
  6
CONTINUOUS
 10
249.5948509532264
 20
82.309947923959186
 30
0.0
 11
249.41485095322631
 21
82.309947923959186
 31
0.0
  0
LINE
  5
1530
  8
LAYER4
  6
CONTINUOUS
 10
249.41485095322631
 20
82.309947923959186
 30
0.0
 11
249.41485095322631
 21
82.489947923959193
 31
0.0
  0
LINE
  5
1531
  8
LAYER4
  6
CONTINUOUS
 10
249.41485095322631
 20
82.489947923959193
 30
0.0
 11
249.5948509532264
 21
82.489947923959193
 31
0.0
  0
LINE
  5
1532
  8
LAYER4
  6
CONTINUOUS
 10
249.5948509532264
 20
82.489947923959193
 30
0.0
 11
249.5948509532264
 21
82.309947923959186
 31
0.0
  0
LINE
  5
1533
  8
LAYER4
  6
CONTINUOUS
 10
249.75485095322639
 20
86.149999923959214
 30
0.0
 11
249.25485095322651
 21
86.149999923959214
 31
0.0
  0
LINE
  5
1534
  8
LAYER4
  6
CONTINUOUS
 10
247.75485095322639
 20
82.149999923959214
 30
0.0
 11
247.25485095322651
 21
82.149999923959214
 31
0.0
  0
LINE
  5
1535
  8
LAYER4
  6
CONTINUOUS
 10
247.25485095322651
 20
82.149999923959214
 30
0.0
 11
247.25485095322651
 21
82.649999923959186
 31
0.0
  0
LINE
  5
1536
  8
LAYER4
  6
CONTINUOUS
 10
247.25485095322651
 20
82.649999923959186
 30
0.0
 11
247.75485095322639
 21
82.649999923959186
 31
0.0
  0
LINE
  5
1537
  8
LAYER4
  6
CONTINUOUS
 10
247.75485095322639
 20
82.649999923959186
 30
0.0
 11
247.75485095322639
 21
82.149999923959214
 31
0.0
  0
LINE
  5
1538
  8
LAYER4
  6
CONTINUOUS
 10
247.5948509532264
 20
82.309947923959186
 30
0.0
 11
247.41485095322631
 21
82.309947923959186
 31
0.0
  0
LINE
  5
1539
  8
LAYER4
  6
CONTINUOUS
 10
247.41485095322631
 20
82.309947923959186
 30
0.0
 11
247.41485095322631
 21
82.489947923959193
 31
0.0
  0
LINE
  5
153A
  8
LAYER4
  6
CONTINUOUS
 10
247.41485095322631
 20
82.489947923959193
 30
0.0
 11
247.5948509532264
 21
82.489947923959193
 31
0.0
  0
LINE
  5
153B
  8
LAYER4
  6
CONTINUOUS
 10
247.5948509532264
 20
82.489947923959193
 30
0.0
 11
247.5948509532264
 21
82.309947923959186
 31
0.0
  0
LINE
  5
153C
  8
LAYER4
  6
CONTINUOUS
 10
247.75485095322639
 20
84.149999923959214
 30
0.0
 11
247.25485095322651
 21
84.149999923959214
 31
0.0
  0
LINE
  5
153D
  8
LAYER4
  6
CONTINUOUS
 10
247.25485095322651
 20
84.149999923959214
 30
0.0
 11
247.25485095322651
 21
84.649999923959214
 31
0.0
  0
LINE
  5
153E
  8
LAYER4
  6
CONTINUOUS
 10
247.25485095322651
 20
84.649999923959214
 30
0.0
 11
247.75485095322639
 21
84.649999923959214
 31
0.0
  0
LINE
  5
153F
  8
LAYER4
  6
CONTINUOUS
 10
247.75485095322639
 20
84.649999923959214
 30
0.0
 11
247.75485095322639
 21
84.149999923959214
 31
0.0
  0
LINE
  5
1540
  8
LAYER4
  6
CONTINUOUS
 10
247.75485095322639
 20
80.149999923959186
 30
0.0
 11
247.25485095322651
 21
80.149999923959186
 31
0.0
  0
LINE
  5
1541
  8
LAYER4
  6
CONTINUOUS
 10
247.25485095322651
 20
80.149999923959186
 30
0.0
 11
247.25485095322651
 21
80.649999923959214
 31
0.0
  0
LINE
  5
1542
  8
LAYER4
  6
CONTINUOUS
 10
247.25485095322651
 20
80.649999923959214
 30
0.0
 11
247.75485095322639
 21
80.649999923959214
 31
0.0
  0
LINE
  5
1543
  8
LAYER4
  6
CONTINUOUS
 10
247.75485095322639
 20
80.649999923959214
 30
0.0
 11
247.75485095322639
 21
80.149999923959186
 31
0.0
  0
LINE
  5
1544
  8
LAYER4
  6
CONTINUOUS
 10
249.75485095322639
 20
90.149999923959186
 30
0.0
 11
249.25485095322651
 21
90.149999923959186
 31
0.0
  0
LINE
  5
1545
  8
LAYER4
  6
CONTINUOUS
 10
249.25485095322651
 20
90.149999923959186
 30
0.0
 11
249.25485095322651
 21
90.6499999239592
 31
0.0
  0
LINE
  5
1546
  8
LAYER4
  6
CONTINUOUS
 10
249.25485095322651
 20
90.6499999239592
 30
0.0
 11
249.75485095322639
 21
90.6499999239592
 31
0.0
  0
LINE
  5
1547
  8
LAYER4
  6
CONTINUOUS
 10
249.75485095322639
 20
90.6499999239592
 30
0.0
 11
249.75485095322639
 21
90.149999923959186
 31
0.0
  0
LINE
  5
1548
  8
LAYER4
  6
CONTINUOUS
 10
249.5948509532264
 20
90.309947923959186
 30
0.0
 11
249.41485095322631
 21
90.309947923959186
 31
0.0
  0
LINE
  5
1549
  8
LAYER4
  6
CONTINUOUS
 10
249.41485095322631
 20
90.309947923959186
 30
0.0
 11
249.41485095322631
 21
90.489947923959193
 31
0.0
  0
LINE
  5
154A
  8
LAYER4
  6
CONTINUOUS
 10
249.41485095322631
 20
90.489947923959193
 30
0.0
 11
249.5948509532264
 21
90.489947923959193
 31
0.0
  0
LINE
  5
154B
  8
LAYER4
  6
CONTINUOUS
 10
249.5948509532264
 20
90.489947923959193
 30
0.0
 11
249.5948509532264
 21
90.309947923959186
 31
0.0
  0
LINE
  5
154C
  8
LAYER4
  6
CONTINUOUS
 10
247.75485095322639
 20
88.1499999239592
 30
0.0
 11
247.25485095322651
 21
88.1499999239592
 31
0.0
  0
LINE
  5
154D
  8
LAYER4
  6
CONTINUOUS
 10
247.25485095322651
 20
88.1499999239592
 30
0.0
 11
247.25485095322651
 21
88.649999923959214
 31
0.0
  0
LINE
  5
154E
  8
LAYER4
  6
CONTINUOUS
 10
247.25485095322651
 20
88.649999923959214
 30
0.0
 11
247.75485095322639
 21
88.649999923959214
 31
0.0
  0
LINE
  5
154F
  8
LAYER4
  6
CONTINUOUS
 10
247.75485095322639
 20
88.649999923959214
 30
0.0
 11
247.75485095322639
 21
88.1499999239592
 31
0.0
  0
LINE
  5
1550
  8
LAYER4
  6
CONTINUOUS
 10
247.5948509532264
 20
88.309947923959186
 30
0.0
 11
247.41485095322631
 21
88.309947923959186
 31
0.0
  0
LINE
  5
1551
  8
LAYER4
  6
CONTINUOUS
 10
247.41485095322631
 20
88.309947923959186
 30
0.0
 11
247.41485095322631
 21
88.489947923959178
 31
0.0
  0
LINE
  5
1552
  8
LAYER4
  6
CONTINUOUS
 10
247.41485095322631
 20
88.489947923959178
 30
0.0
 11
247.5948509532264
 21
88.489947923959178
 31
0.0
  0
LINE
  5
1553
  8
LAYER4
  6
CONTINUOUS
 10
247.5948509532264
 20
88.489947923959178
 30
0.0
 11
247.5948509532264
 21
88.309947923959186
 31
0.0
  0
LINE
  5
1554
  8
LAYER4
  6
CONTINUOUS
 10
247.75485095322639
 20
90.149999923959186
 30
0.0
 11
247.25485095322651
 21
90.149999923959186
 31
0.0
  0
LINE
  5
1555
  8
LAYER4
  6
CONTINUOUS
 10
247.25485095322651
 20
90.149999923959186
 30
0.0
 11
247.25485095322651
 21
90.6499999239592
 31
0.0
  0
LINE
  5
1556
  8
LAYER4
  6
CONTINUOUS
 10
247.25485095322651
 20
90.6499999239592
 30
0.0
 11
247.75485095322639
 21
90.6499999239592
 31
0.0
  0
LINE
  5
1557
  8
LAYER4
  6
CONTINUOUS
 10
247.75485095322639
 20
90.6499999239592
 30
0.0
 11
247.75485095322639
 21
90.149999923959186
 31
0.0
  0
LINE
  5
1558
  8
LAYER4
  6
CONTINUOUS
 10
247.5948509532264
 20
90.309947923959186
 30
0.0
 11
247.41485095322631
 21
90.309947923959186
 31
0.0
  0
LINE
  5
1559
  8
LAYER4
  6
CONTINUOUS
 10
247.41485095322631
 20
90.309947923959186
 30
0.0
 11
247.41485095322631
 21
90.489947923959193
 31
0.0
  0
LINE
  5
155A
  8
LAYER4
  6
CONTINUOUS
 10
247.41485095322631
 20
90.489947923959193
 30
0.0
 11
247.5948509532264
 21
90.489947923959193
 31
0.0
  0
LINE
  5
155B
  8
LAYER4
  6
CONTINUOUS
 10
247.5948509532264
 20
90.489947923959193
 30
0.0
 11
247.5948509532264
 21
90.309947923959186
 31
0.0
  0
LINE
  5
155C
  8
LAYER4
  6
CONTINUOUS
 10
247.75485095322639
 20
92.1499999239592
 30
0.0
 11
247.25485095322651
 21
92.1499999239592
 31
0.0
  0
LINE
  5
155D
  8
LAYER4
  6
CONTINUOUS
 10
247.25485095322651
 20
92.1499999239592
 30
0.0
 11
247.25485095322651
 21
92.649999923959186
 31
0.0
  0
LINE
  5
155E
  8
LAYER4
  6
CONTINUOUS
 10
247.25485095322651
 20
92.649999923959186
 30
0.0
 11
247.75485095322639
 21
92.649999923959186
 31
0.0
  0
LINE
  5
155F
  8
LAYER4
  6
CONTINUOUS
 10
247.75485095322639
 20
92.649999923959186
 30
0.0
 11
247.75485095322639
 21
92.1499999239592
 31
0.0
  0
LINE
  5
1560
  8
LAYER4
  6
CONTINUOUS
 10
249.5948509532264
 20
92.309947923959186
 30
0.0
 11
249.41485095322631
 21
92.309947923959186
 31
0.0
  0
LINE
  5
1561
  8
LAYER4
  6
CONTINUOUS
 10
249.41485095322631
 20
92.309947923959186
 30
0.0
 11
249.41485095322631
 21
92.489947923959193
 31
0.0
  0
LINE
  5
1562
  8
LAYER4
  6
CONTINUOUS
 10
249.41485095322631
 20
92.489947923959193
 30
0.0
 11
249.5948509532264
 21
92.489947923959193
 31
0.0
  0
LINE
  5
1563
  8
LAYER4
  6
CONTINUOUS
 10
249.5948509532264
 20
92.489947923959193
 30
0.0
 11
249.5948509532264
 21
92.309947923959186
 31
0.0
  0
LINE
  5
1564
  8
LAYER4
  6
CONTINUOUS
 10
249.75485095322639
 20
88.1499999239592
 30
0.0
 11
249.25485095322651
 21
88.1499999239592
 31
0.0
  0
LINE
  5
1565
  8
LAYER4
  6
CONTINUOUS
 10
249.25485095322651
 20
88.1499999239592
 30
0.0
 11
249.25485095322651
 21
88.649999923959214
 31
0.0
  0
LINE
  5
1566
  8
LAYER4
  6
CONTINUOUS
 10
249.25485095322651
 20
88.649999923959214
 30
0.0
 11
249.75485095322639
 21
88.649999923959214
 31
0.0
  0
LINE
  5
1567
  8
LAYER4
  6
CONTINUOUS
 10
249.75485095322639
 20
88.649999923959214
 30
0.0
 11
249.75485095322639
 21
88.1499999239592
 31
0.0
  0
LINE
  5
1568
  8
LAYER4
  6
CONTINUOUS
 10
249.5948509532264
 20
88.309947923959186
 30
0.0
 11
249.41485095322631
 21
88.309947923959186
 31
0.0
  0
LINE
  5
1569
  8
LAYER4
  6
CONTINUOUS
 10
249.41485095322631
 20
88.309947923959186
 30
0.0
 11
249.41485095322631
 21
88.489947923959178
 31
0.0
  0
LINE
  5
156A
  8
LAYER4
  6
CONTINUOUS
 10
249.41485095322631
 20
88.489947923959178
 30
0.0
 11
249.5948509532264
 21
88.489947923959178
 31
0.0
  0
LINE
  5
156B
  8
LAYER4
  6
CONTINUOUS
 10
249.5948509532264
 20
88.489947923959178
 30
0.0
 11
249.5948509532264
 21
88.309947923959186
 31
0.0
  0
LINE
  5
156C
  8
LAYER4
  6
CONTINUOUS
 10
247.5948509532264
 20
92.309947923959186
 30
0.0
 11
247.41485095322631
 21
92.309947923959186
 31
0.0
  0
LINE
  5
156D
  8
LAYER4
  6
CONTINUOUS
 10
247.41485095322631
 20
92.309947923959186
 30
0.0
 11
247.41485095322631
 21
92.489947923959193
 31
0.0
  0
LINE
  5
156E
  8
LAYER4
  6
CONTINUOUS
 10
247.41485095322631
 20
92.489947923959193
 30
0.0
 11
247.5948509532264
 21
92.489947923959193
 31
0.0
  0
LINE
  5
156F
  8
LAYER4
  6
CONTINUOUS
 10
247.5948509532264
 20
92.489947923959193
 30
0.0
 11
247.5948509532264
 21
92.309947923959186
 31
0.0
  0
LINE
  5
1570
  8
LAYER4
  6
CONTINUOUS
 10
249.75485095322639
 20
92.1499999239592
 30
0.0
 11
249.25485095322651
 21
92.1499999239592
 31
0.0
  0
LINE
  5
1571
  8
LAYER4
  6
CONTINUOUS
 10
249.25485095322651
 20
92.1499999239592
 30
0.0
 11
249.25485095322651
 21
92.649999923959186
 31
0.0
  0
LINE
  5
1572
  8
LAYER4
  6
CONTINUOUS
 10
249.25485095322651
 20
92.649999923959186
 30
0.0
 11
249.75485095322639
 21
92.649999923959186
 31
0.0
  0
LINE
  5
1573
  8
LAYER4
  6
CONTINUOUS
 10
249.75485095322639
 20
92.649999923959186
 30
0.0
 11
249.75485095322639
 21
92.1499999239592
 31
0.0
  0
LINE
  5
1574
  8
LAYER4
  6
CONTINUOUS
 10
249.41485095322631
 20
86.489947923959164
 30
0.0
 11
249.5948509532264
 21
86.489947923959164
 31
0.0
  0
LINE
  5
1575
  8
LAYER4
  6
CONTINUOUS
 10
247.25485095322651
 20
86.6499999239592
 30
0.0
 11
247.75485095322639
 21
86.6499999239592
 31
0.0
  0
LINE
  5
1576
  8
LAYER4
  6
CONTINUOUS
 10
247.41485095322631
 20
86.489947923959164
 30
0.0
 11
247.5948509532264
 21
86.489947923959164
 31
0.0
  0
LINE
  5
1577
  8
LAYER4
  6
CONTINUOUS
 10
249.25485095322651
 20
86.6499999239592
 30
0.0
 11
249.75485095322639
 21
86.6499999239592
 31
0.0
  0
LINE
  5
1578
  8
LAYER4
  6
CONTINUOUS
 10
246.50485095322639
 20
90.849999923959189
 30
0.0
 11
246.00485095322639
 21
90.849999923959189
 31
0.0
  0
LINE
  5
1579
  8
LAYER4
  6
CONTINUOUS
 10
246.50485095322639
 20
91.849999923959217
 30
0.0
 11
246.00485095322639
 21
91.849999923959217
 31
0.0
  0
LINE
  5
157A
  8
LAYER2
  6
CONTINUOUS
 10
331.55478056977199
 20
35.599999923959317
 30
0.0
 11
331.55478056977182
 21
31.099999923959221
 31
0.0
  0
ARC
  5
157B
  8
LAYER2
  6
CONTINUOUS
 10
333.55478056977182
 20
31.099999923959221
 30
0.0
 40
1.0
 50
180.0
 51
270.0
  0
ARC
  5
157C
  8
LAYER2
  6
CONTINUOUS
 10
332.55478056977182
 20
31.099999923959221
 30
0.0
 40
1.0
 50
180.0
 51
270.0
  0
LINE
  5
157D
  8
LAYER1
  6
CONTINUOUS
 10
371.73904981807442
 20
88.600000924493202
 30
0.0
 11
364.53056754738282
 21
88.600000924493202
 31
0.0
  0
LINE
  5
157E
  8
LAYER2
  6
CONTINUOUS
 10
375.05478056977182
 20
37.208396546886178
 30
0.0
 11
357.01987575692681
 21
37.523196981365167
 31
0.0
  0
LINE
  5
157F
  8
LAYER1
  6
CONTINUOUS
 10
357.02860063110262
 20
38.023044688137091
 30
0.0
 11
375.05478056977182
 21
37.70839654690019
 31
0.0
  0
LINE
  5
1580
  8
LAYER1
  6
CONTINUOUS
 10
355.55478056977182
 20
89.599999923959103
 30
0.0
 11
355.55478056977182
 21
39.52289237167718
 31
0.0
  0
LINE
  5
1581
  8
LAYER2
  6
CONTINUOUS
 10
332.21661248289661
 20
36.26183183708406
 30
0.0
 11
331.55478056977182
 21
35.59999992395921
 31
0.0
  0
ARC
  5
1582
  8
LAYER2
  6
CONTINUOUS
 10
357.05478056980058
 20
39.52289237167718
 30
0.0
 40
2.0
 50
180.00000000001299
 51
269.00000000001103
  0
ARC
  5
1583
  8
LAYER1
  6
CONTINUOUS
 10
357.05478056980058
 20
39.52289237167718
 30
0.0
 40
1.5
 50
180.00000000001299
 51
269.00000000001103
  0
LINE
  5
1584
  8
LAYER2
  6
CONTINUOUS
 10
355.55478056977182
 20
60.765823040777292
 30
0.0
 11
355.05478056890018
 21
60.757095508297887
 31
0.0
  0
LINE
  5
1585
  8
LAYER1
  6
CONTINUOUS
 10
355.55478056977182
 20
59.599999923959189
 30
0.0
 11
355.05478056889979
 21
59.591272391479791
 31
0.0
  0
LINE
  5
1586
  8
LAYER2
  6
CONTINUOUS
 10
355.55478056977182
 20
72.434176807140801
 30
0.0
 11
355.05478056890018
 21
72.4429043396201
 31
0.0
  0
LINE
  5
1587
  8
LAYER1
  6
CONTINUOUS
 10
355.55478056977182
 20
73.599999923959203
 30
0.0
 11
355.05478056889979
 21
73.608727456438487
 31
0.0
  0
ARC
  5
1588
  8
LAYER2
  6
CONTINUOUS
 10
351.05478056889848
 20
90.499999923959194
 30
0.0
 40
1.6000000000000001
 50
180.0
 51
0.0
  0
ARC
  5
1589
  8
LAYER1
  6
CONTINUOUS
 10
351.05478056977182
 20
90.599999923959217
 30
0.0
 40
1.5
 50
179.99999699999901
 51
0.0000140000001062
  0
LINE
  5
158A
  8
LAYER1
  6
CONTINUOUS
 10
355.55478056977182
 20
89.599999923959189
 30
0.0
 11
357.55478056977267
 21
89.599999923959189
 31
0.0
  0
LINE
  5
158B
  8
LAYER2
  6
CONTINUOUS
 10
375.05478056977182
 20
35.774845923959198
 30
0.0
 11
385.55478056977262
 21
35.774845923959198
 31
0.0
  0
LINE
  5
158C
  8
LAYER1
  6
CONTINUOUS
 10
385.55478056977262
 20
35.774845923959198
 30
0.0
 11
375.05478056977182
 21
35.774845923959198
 31
0.0
  0
LINE
  5
158D
  8
LAYER1
  6
CONTINUOUS
 10
385.55478056977182
 20
40.274845923959191
 30
0.0
 11
375.05478056977182
 21
40.274845923959191
 31
0.0
  0
LINE
  5
158E
  8
LAYER2
  6
CONTINUOUS
 10
375.05478056977182
 20
35.774845923959198
 30
0.0
 11
375.05478056977182
 21
37.208396546886178
 31
0.0
  0
LINE
  5
158F
  8
LAYER1
  6
CONTINUOUS
 10
375.05478056977182
 20
35.774845923959198
 30
0.0
 11
375.05478056977182
 21
40.274845923959191
 31
0.0
  0
LINE
  5
1590
  8
LAYER2
  6
CONTINUOUS
 10
385.55478056977262
 20
35.774845923959198
 30
0.0
 11
385.55478056977262
 21
37.025118365142092
 31
0.0
  0
LINE
  5
1591
  8
LAYER1
  6
CONTINUOUS
 10
385.55478056977182
 20
35.774845923959198
 30
0.0
 11
385.55478056977182
 21
40.274845923959191
 31
0.0
  0
LINE
  5
1592
  8
LAYER1
  6
CONTINUOUS
 10
391.96762699256448
 20
93.608096045614204
 30
0.0
 11
384.35778280384591
 21
93.608096045614204
 31
0.0
  0
LINE
  5
1593
  8
LAYER1
  6
CONTINUOUS
 10
382.93440439018138
 20
88.570476179881197
 30
0.0
 11
375.74925619184472
 21
88.570476179881197
 31
0.0
  0
LINE
  5
1594
  8
LAYER1
  6
CONTINUOUS
 10
384.35778280384591
 20
93.608096045614204
 30
0.0
 11
382.49812073121558
 21
90.893089422741056
 31
0.0
  0
POLYLINE
  5
1595
  8
LAYER1
  6
CONTINUOUS
 66
     1
 10
0.0
 20
0.0
 30
0.0
  0
VERTEX
  5
1A1E
  8
LAYER1
  6
CONTINUOUS
 10
382.93440439018138
 20
88.570476179881197
 30
0.0
  0
VERTEX
  5
1A1F
  8
LAYER1
  6
CONTINUOUS
 10
382.91976478314649
 20
88.590316930746184
 30
0.0
  0
VERTEX
  5
1A20
  8
LAYER1
  6
CONTINUOUS
 10
382.8861868515076
 20
88.612796190804175
 30
0.0
  0
VERTEX
  5
1A21
  8
LAYER1
  6
CONTINUOUS
 10
382.81503677660783
 20
88.650779722615155
 30
0.0
  0
VERTEX
  5
1A22
  8
LAYER1
  6
CONTINUOUS
 10
382.76614107392561
 20
88.686544246136194
 30
0.0
  0
VERTEX
  5
1A23
  8
LAYER1
  6
CONTINUOUS
 10
382.75478011422962
 20
88.696678710785164
 30
0.0
  0
VERTEX
  5
1A24
  8
LAYER1
  6
CONTINUOUS
 10
382.70476475974579
 20
88.748432668445204
 30
0.0
  0
VERTEX
  5
1A25
  8
LAYER1
  6
CONTINUOUS
 10
382.65394966458132
 20
88.804018032707177
 30
0.0
  0
VERTEX
  5
1A26
  8
LAYER1
  6
CONTINUOUS
 10
382.60446568660592
 20
88.861888583911195
 30
0.0
  0
VERTEX
  5
1A27
  8
LAYER1
  6
CONTINUOUS
 10
382.55772347171768
 20
88.924434498429179
 30
0.0
  0
VERTEX
  5
1A28
  8
LAYER1
  6
CONTINUOUS
 10
382.51501690420048
 20
88.989601035558152
 30
0.0
  0
VERTEX
  5
1A29
  8
LAYER1
  6
CONTINUOUS
 10
382.47443782494253
 20
89.058843074092181
 30
0.0
  0
VERTEX
  5
1A2A
  8
LAYER1
  6
CONTINUOUS
 10
382.43729575953762
 20
89.130023589927177
 30
0.0
  0
VERTEX
  5
1A2B
  8
LAYER1
  6
CONTINUOUS
 10
382.4028679581715
 20
89.205015297924149
 30
0.0
  0
VERTEX
  5
1A2C
  8
LAYER1
  6
CONTINUOUS
 10
382.37217959963158
 20
89.281609813561175
 30
0.0
  0
VERTEX
  5
1A2D
  8
LAYER1
  6
CONTINUOUS
 10
382.34446957565888
 20
89.361604807249165
 30
0.0
  0
VERTEX
  5
1A2E
  8
LAYER1
  6
CONTINUOUS
 10
382.32054577148972
 20
89.442813273004191
 30
0.0
  0
VERTEX
  5
1A2F
  8
LAYER1
  6
CONTINUOUS
 10
382.29994893892052
 20
89.527018286882196
 30
0.0
  0
VERTEX
  5
1A30
  8
LAYER1
  6
CONTINUOUS
 10
382.28327162212452
 20
89.612087534796075
 30
0.0
  0
VERTEX
  5
1A31
  8
LAYER1
  6
CONTINUOUS
 10
382.27024306375188
 20
89.699735602671055
 30
0.0
  0
VERTEX
  5
1A32
  8
LAYER1
  6
CONTINUOUS
 10
382.26123449854759
 20
89.787886165482206
 30
0.0
  0
VERTEX
  5
1A33
  8
LAYER1
  6
CONTINUOUS
 10
382.25615954043269
 20
89.878198553820184
 30
0.0
  0
VERTEX
  5
1A34
  8
LAYER1
  6
CONTINUOUS
 10
382.25531174776751
 20
89.968662731604098
 30
0.0
  0
VERTEX
  5
1A35
  8
LAYER1
  6
CONTINUOUS
 10
382.25880785566841
 20
90.060923655415053
 30
0.0
  0
VERTEX
  5
1A36
  8
LAYER1
  6
CONTINUOUS
 10
382.2663807167969
 20
90.152870799704147
 30
0.0
  0
VERTEX
  5
1A37
  8
LAYER1
  6
CONTINUOUS
 10
382.27820346623162
 20
90.246153653077187
 30
0.0
  0
VERTEX
  5
1A38
  8
LAYER1
  6
CONTINUOUS
 10
382.29531875264462
 20
90.338963936325086
 30
0.0
  0
VERTEX
  5
1A39
  8
LAYER1
  6
CONTINUOUS
 10
382.31856705268461
 20
90.433172723578167
 30
0.0
  0
VERTEX
  5
1A3A
  8
LAYER1
  6
CONTINUOUS
 10
382.3430032023237
 20
90.525395708010194
 30
0.0
  0
VERTEX
  5
1A3B
  8
LAYER1
  6
CONTINUOUS
 10
382.36790696257168
 20
90.617238532989063
 30
0.0
  0
VERTEX
  5
1A3C
  8
LAYER1
  6
CONTINUOUS
 10
382.39423757517483
 20
90.681241195164176
 30
0.0
  0
VERTEX
  5
1A3D
  8
LAYER1
  6
CONTINUOUS
 10
382.41031141284373
 20
90.710619681301196
 30
0.0
  0
VERTEX
  5
1A3E
  8
LAYER1
  6
CONTINUOUS
 10
382.47700629766388
 20
90.809185510508073
 30
0.0
  0
VERTEX
  5
1A3F
  8
LAYER1
  6
CONTINUOUS
 10
382.49734563362881
 20
90.848676976804214
 30
0.0
  0
VERTEX
  5
1A40
  8
LAYER1
  6
CONTINUOUS
 10
382.50211328283871
 20
90.87513855261416
 30
0.0
  0
VERTEX
  5
1A41
  8
LAYER1
  6
CONTINUOUS
 10
382.49812073121558
 20
90.893089422741056
 30
0.0
  0
SEQEND
  5
1A42
  8
LAYER1
  6
CONTINUOUS
  0
LINE
  5
15BB
  8
LAYER1
  6
CONTINUOUS
 10
400.43995881490167
 20
88.567936416903194
 30
0.0
 11
392.9508327352026
 21
88.567936416903194
 31
0.0
  0
LINE
  5
15BC
  8
LAYER1
  6
CONTINUOUS
 10
392.9508327352026
 20
88.567936416903194
 30
0.0
 11
391.96762699256448
 21
93.608096045614204
 31
0.0
  0
LINE
  5
15BD
  8
LAYER2
  6
CONTINUOUS
 10
438.55478056977159
 20
36.099999923958769
 30
0.0
 11
438.55478056977182
 21
30.09999992395921
 31
0.0
  0
LINE
  5
15BE
  8
LAYER1
  6
CONTINUOUS
 10
438.55478056977182
 20
36.599999923959281
 30
0.0
 11
438.55478056977182
 21
19.152357143271161
 31
0.0
  0
LINE
  5
15BF
  8
LAYER1
  6
CONTINUOUS
 10
441.55478056977182
 20
19.099999923959199
 30
0.0
 11
438.55523748430272
 21
19.152357143271161
 31
0.0
  0
LINE
  5
15C0
  8
LAYER2
  6
CONTINUOUS
 10
438.55478056977159
 20
36.099999923958769
 30
0.0
 11
418.55478056977182
 21
36.449101222519168
 31
0.0
  0
LINE
  5
15C1
  8
LAYER1
  6
CONTINUOUS
 10
418.55478056977182
 20
36.94910122252319
 30
0.0
 11
438.55478056977182
 21
36.599999923959281
 31
0.0
  0
LINE
  5
15C2
  8
LAYER2
  6
CONTINUOUS
 10
408.05478056977188
 20
35.774845923959198
 30
0.0
 11
418.55478056977182
 21
35.774845923959198
 31
0.0
  0
LINE
  5
15C3
  8
LAYER1
  6
CONTINUOUS
 10
418.55478056977182
 20
35.774845923959198
 30
0.0
 11
408.05478056977188
 21
35.774845923959198
 31
0.0
  0
LINE
  5
15C4
  8
LAYER1
  6
CONTINUOUS
 10
418.55478056977182
 20
40.274845923959191
 30
0.0
 11
408.05478056977188
 21
40.274845923959191
 31
0.0
  0
LINE
  5
15C5
  8
LAYER2
  6
CONTINUOUS
 10
408.05478056977188
 20
35.774845923959198
 30
0.0
 11
408.05478056977188
 21
36.632379404263183
 31
0.0
  0
LINE
  5
15C6
  8
LAYER1
  6
CONTINUOUS
 10
408.05478056977188
 20
40.274845923959191
 30
0.0
 11
408.05478056977188
 21
35.774845923959198
 31
0.0
  0
LINE
  5
15C7
  8
LAYER2
  6
CONTINUOUS
 10
418.55478056977182
 20
35.774845923959198
 30
0.0
 11
418.55478056977182
 21
36.449101222519168
 31
0.0
  0
LINE
  5
15C8
  8
LAYER1
  6
CONTINUOUS
 10
418.55478056977182
 20
35.774536923959218
 30
0.0
 11
418.55478056977182
 21
40.274845923959191
 31
0.0
  0
CIRCLE
  5
15C9
  8
LAYER1
  6
CONTINUOUS
 10
433.85478056977172
 20
40.399999923959193
 30
0.0
 40
1.04
  0
LINE
  5
15CA
  8
LAYER1
  6
DASHDOT
 10
431.95370987011171
 20
40.399999923959193
 30
0.0
 11
435.76182698287471
 21
40.399999923959193
 31
0.0
  0
LINE
  5
15CB
  8
LAYER1
  6
DASHDOT
 10
433.85478056977172
 20
42.256731207223183
 30
0.0
 11
433.85478056977172
 21
38.556188024199173
 31
0.0
  0
LINE
  5
15CD
  8
LAYER2
  6
CONTINUOUS
 10
438.55478056977182
 20
161.09999992395819
 30
0.0
 11
357.01987575689873
 21
159.676802866515
 31
0.0
  0
LINE
  5
15CE
  8
LAYER1
  6
CONTINUOUS
 10
357.02860063107482
 20
159.17695515977911
 30
0.0
 11
438.55478056977182
 21
160.5999999239591
 31
0.0
  0
LINE
  5
15CF
  8
LAYER2
  6
CONTINUOUS
 10
332.55478056977182
 20
167.09999992395899
 30
0.0
 11
438.55478056977182
 21
167.09999992395899
 31
0.0
  0
LINE
  5
15D0
  8
LAYER4
  6
CONTINUOUS
 10
327.4647805697719
 20
105.089999923959
 30
0.0
 11
321.40378056977193
 21
105.089999923959
 31
0.0
  0
LINE
  5
15D1
  8
LAYER4
  6
CONTINUOUS
 10
327.4647805697719
 20
100.2599999239591
 30
0.0
 11
317.46478056977179
 21
100.2599999239591
 31
0.0
  0
LINE
  5
15D2
  8
LAYER4
  6
CONTINUOUS
 10
327.4647805697719
 20
153.0699999239591
 30
0.0
 11
321.40378056977193
 21
153.0699999239591
 31
0.0
  0
LINE
  5
15D3
  8
LAYER4
  6
CONTINUOUS
 10
327.4647805697719
 20
157.899999923959
 30
0.0
 11
317.46478056977179
 21
157.899999923959
 31
0.0
  0
LINE
  5
15D4
  8
LAYER4
  6
CONTINUOUS
 10
251.00485095322639
 20
158.89999992395909
 30
0.0
 11
251.00485095322639
 21
148.89999992395909
 31
0.0
  0
LINE
  5
15D5
  8
0
  6
CONTINUOUS
 10
251.00485095322639
 20
159.9199999239591
 30
0.0
 11
251.00485095322639
 21
135.91999992395921
 31
0.0
  0
LINE
  5
15D6
  8
LAYER4
  6
CONTINUOUS
 10
317.46478056977179
 20
156.21999992395911
 30
0.0
 11
320.28478056977178
 21
150.57399992395901
 31
0.0
  0
LINE
  5
15D7
  8
LAYER4
  6
CONTINUOUS
 10
321.40378056977193
 20
153.0699999239591
 30
0.0
 11
321.40378056977193
 21
150.57399992395901
 31
0.0
  0
LINE
  5
15D8
  8
LAYER4
  6
CONTINUOUS
 10
250.50485095322639
 20
150.89999992395909
 30
0.0
 11
250.50485095322639
 21
156.89999992395909
 31
0.0
  0
LINE
  5
15D9
  8
LAYER4
  6
CONTINUOUS
 10
249.80485095322641
 20
158.49999992395911
 30
0.0
 11
249.80485095322641
 21
149.29999992395901
 31
0.0
  0
LINE
  5
15DA
  8
LAYER4
  6
CONTINUOUS
 10
246.00485095322639
 20
104.449999923959
 30
0.0
 11
246.00485095322639
 21
124.349999923959
 31
0.0
  0
LINE
  5
15DB
  8
LAYER4
  6
CONTINUOUS
 10
251.00485095322639
 20
124.349999923959
 30
0.0
 11
251.00485095322639
 21
104.449999923959
 31
0.0
  0
LINE
  5
15DC
  8
LAYER4
  6
CONTINUOUS
 10
246.50485095322639
 20
121.8499999239591
 30
0.0
 11
246.50485095322639
 21
123.8499999239591
 31
0.0
  0
LINE
  5
15DD
  8
LAYER4
  6
CONTINUOUS
 10
250.50485095322639
 20
123.8499999239591
 30
0.0
 11
250.50485095322639
 21
104.8499999239591
 31
0.0
  0
LINE
  5
15DE
  8
0
  6
CONTINUOUS
 10
251.00485095322639
 20
103.4199999239584
 30
0.0
 11
251.00485095322639
 21
125.41999992396001
 31
0.0
  0
LINE
  5
15DF
  8
LAYER4
  6
CONTINUOUS
 10
249.25485095322651
 20
108.1499999239591
 30
0.0
 11
249.25485095322651
 21
108.649999923959
 31
0.0
  0
LINE
  5
15E0
  8
LAYER4
  6
CONTINUOUS
 10
249.75485095322639
 20
108.649999923959
 30
0.0
 11
249.75485095322639
 21
108.1499999239591
 31
0.0
  0
LINE
  5
15E1
  8
LAYER4
  6
CONTINUOUS
 10
247.25485095322651
 20
108.1499999239591
 30
0.0
 11
247.25485095322651
 21
108.649999923959
 31
0.0
  0
LINE
  5
15E2
  8
LAYER4
  6
CONTINUOUS
 10
247.75485095322639
 20
108.649999923959
 30
0.0
 11
247.75485095322639
 21
108.1499999239591
 31
0.0
  0
LINE
  5
15E3
  8
LAYER4
  6
CONTINUOUS
 10
246.50485095322639
 20
107.8499999239591
 30
0.0
 11
246.50485095322639
 21
120.8499999239591
 31
0.0
  0
LINE
  5
15E4
  8
LAYER4
  6
CONTINUOUS
 10
246.00485095322639
 20
94.349999923959217
 30
0.0
 11
251.00485095322639
 21
94.349999923959217
 31
0.0
  0
LINE
  5
15E5
  8
LAYER4
  6
CONTINUOUS
 10
246.50485095322639
 20
93.849999923959174
 30
0.0
 11
250.50485095322639
 21
93.849999923959174
 31
0.0
  0
ARC
  5
15E6
  8
LAYER4
  6
CONTINUOUS
 10
247.50485095322639
 20
98.129999923959204
 30
0.0
 40
2.0
 50
131.84090107138309
 51
229.02536977055459
  0
ARC
  5
15E7
  8
LAYER3
 10
249.00485095322671
 20
98.119999923959213
 30
0.0
 40
1.5
 50
270.0
 51
90.0
  0
LINE
  5
15E8
  8
LAYER3
 10
249.00485095322671
 20
99.619999923959213
 30
0.0
 11
246.00485095322671
 21
99.619999923959213
 31
0.0
  0
LINE
  5
15E9
  8
LAYER3
 10
249.00485095322671
 20
96.619999923959185
 30
0.0
 11
246.00485095322671
 21
96.619999923959185
 31
0.0
  0
ARC
  5
15EA
  8
LAYER4
  6
CONTINUOUS
 10
247.50485095322639
 20
98.129999923959204
 30
0.0
 40
2.0
 50
310.97463022944481
 51
48.159098928616721
  0
CIRCLE
  5
15EB
  8
LAYER4
  6
CONTINUOUS
 10
248.50485095322639
 20
98.129999923959204
 30
0.0
 40
0.85
  0
LINE
  5
15EC
  8
LAYER4
  6
CONTINUOUS
 10
247.50485095322639
 20
98.979999923959184
 30
0.0
 11
248.50485095322639
 21
98.979999923959184
 31
0.0
  0
LINE
  5
15ED
  8
LAYER4
  6
CONTINUOUS
 10
247.50485095322639
 20
97.279999923959195
 30
0.0
 11
248.50485095322639
 21
97.279999923959195
 31
0.0
  0
ARC
  5
15EE
  8
LAYER4
  6
CONTINUOUS
 10
247.50485095322639
 20
98.129999923959204
 30
0.0
 40
0.85
 50
90.0
 51
270.0
  0
LINE
  5
15EF
  8
LAYER4
  6
CONTINUOUS
 10
251.00485095322639
 20
104.449999923959
 30
0.0
 11
246.00485095322639
 21
104.449999923959
 31
0.0
  0
LINE
  5
15F0
  8
LAYER4
  6
CONTINUOUS
 10
249.75485095322639
 20
106.1499999239591
 30
0.0
 11
249.25485095322651
 21
106.1499999239591
 31
0.0
  0
LINE
  5
15F1
  8
LAYER4
  6
CONTINUOUS
 10
249.25485095322651
 20
106.1499999239591
 30
0.0
 11
249.25485095322651
 21
106.6499999239592
 31
0.0
  0
LINE
  5
15F2
  8
LAYER4
  6
CONTINUOUS
 10
249.25485095322651
 20
106.6499999239592
 30
0.0
 11
249.75485095322639
 21
106.6499999239592
 31
0.0
  0
LINE
  5
15F3
  8
LAYER4
  6
CONTINUOUS
 10
249.75485095322639
 20
106.6499999239592
 30
0.0
 11
249.75485095322639
 21
106.1499999239591
 31
0.0
  0
LINE
  5
15F4
  8
LAYER4
  6
CONTINUOUS
 10
249.5948509532264
 20
106.309947923959
 30
0.0
 11
249.41485095322631
 21
106.309947923959
 31
0.0
  0
LINE
  5
15F5
  8
LAYER4
  6
CONTINUOUS
 10
249.41485095322631
 20
106.309947923959
 30
0.0
 11
249.41485095322631
 21
106.48994792395921
 31
0.0
  0
LINE
  5
15F6
  8
LAYER4
  6
CONTINUOUS
 10
249.41485095322631
 20
106.48994792395921
 30
0.0
 11
249.5948509532264
 21
106.48994792395921
 31
0.0
  0
LINE
  5
15F7
  8
LAYER4
  6
CONTINUOUS
 10
249.5948509532264
 20
106.48994792395921
 30
0.0
 11
249.5948509532264
 21
106.309947923959
 31
0.0
  0
LINE
  5
15F8
  8
LAYER4
  6
CONTINUOUS
 10
247.75485095322639
 20
106.1499999239591
 30
0.0
 11
247.25485095322651
 21
106.1499999239591
 31
0.0
  0
LINE
  5
15F9
  8
LAYER4
  6
CONTINUOUS
 10
247.25485095322651
 20
106.1499999239591
 30
0.0
 11
247.25485095322651
 21
106.6499999239592
 31
0.0
  0
LINE
  5
15FA
  8
LAYER4
  6
CONTINUOUS
 10
247.25485095322651
 20
106.6499999239592
 30
0.0
 11
247.75485095322639
 21
106.6499999239592
 31
0.0
  0
LINE
  5
15FB
  8
LAYER4
  6
CONTINUOUS
 10
247.75485095322639
 20
106.6499999239592
 30
0.0
 11
247.75485095322639
 21
106.1499999239591
 31
0.0
  0
LINE
  5
15FC
  8
LAYER4
  6
CONTINUOUS
 10
247.5948509532264
 20
106.309947923959
 30
0.0
 11
247.41485095322631
 21
106.309947923959
 31
0.0
  0
LINE
  5
15FD
  8
LAYER4
  6
CONTINUOUS
 10
247.41485095322631
 20
106.309947923959
 30
0.0
 11
247.41485095322631
 21
106.48994792395921
 31
0.0
  0
LINE
  5
15FE
  8
LAYER4
  6
CONTINUOUS
 10
247.41485095322631
 20
106.48994792395921
 30
0.0
 11
247.5948509532264
 21
106.48994792395921
 31
0.0
  0
LINE
  5
15FF
  8
LAYER4
  6
CONTINUOUS
 10
247.5948509532264
 20
106.48994792395921
 30
0.0
 11
247.5948509532264
 21
106.309947923959
 31
0.0
  0
LINE
  5
1600
  8
LAYER4
  6
CONTINUOUS
 10
249.75485095322639
 20
108.1499999239591
 30
0.0
 11
249.25485095322651
 21
108.1499999239591
 31
0.0
  0
LINE
  5
1601
  8
LAYER4
  6
CONTINUOUS
 10
247.75485095322639
 20
108.1499999239591
 30
0.0
 11
247.25485095322651
 21
108.1499999239591
 31
0.0
  0
LINE
  5
1602
  8
LAYER4
  6
CONTINUOUS
 10
250.50485095322639
 20
104.8499999239591
 30
0.0
 11
246.50485095322639
 21
104.8499999239591
 31
0.0
  0
LINE
  5
1603
  8
LAYER4
  6
CONTINUOUS
 10
246.50485095322639
 20
104.8499999239591
 30
0.0
 11
246.50485095322639
 21
106.8499999239591
 31
0.0
  0
LINE
  5
1604
  8
LAYER4
  6
CONTINUOUS
 10
246.50485095322639
 20
107.8499999239591
 30
0.0
 11
246.00485095322639
 21
107.8499999239591
 31
0.0
  0
LINE
  5
1605
  8
LAYER4
  6
CONTINUOUS
 10
246.50485095322639
 20
106.8499999239591
 30
0.0
 11
246.00485095322639
 21
106.8499999239591
 31
0.0
  0
LINE
  5
1606
  8
LAYER4
  6
CONTINUOUS
 10
249.75485095322639
 20
114.1499999239591
 30
0.0
 11
249.25485095322651
 21
114.1499999239591
 31
0.0
  0
LINE
  5
1607
  8
LAYER4
  6
CONTINUOUS
 10
249.25485095322651
 20
114.1499999239591
 30
0.0
 11
249.25485095322651
 21
114.6499999239591
 31
0.0
  0
LINE
  5
1608
  8
LAYER4
  6
CONTINUOUS
 10
249.25485095322651
 20
114.6499999239591
 30
0.0
 11
249.75485095322639
 21
114.6499999239591
 31
0.0
  0
LINE
  5
1609
  8
LAYER4
  6
CONTINUOUS
 10
249.75485095322639
 20
114.6499999239591
 30
0.0
 11
249.75485095322639
 21
114.1499999239591
 31
0.0
  0
LINE
  5
160A
  8
LAYER4
  6
CONTINUOUS
 10
249.5948509532264
 20
114.309947923959
 30
0.0
 11
249.41485095322631
 21
114.309947923959
 31
0.0
  0
LINE
  5
160B
  8
LAYER4
  6
CONTINUOUS
 10
249.41485095322631
 20
114.309947923959
 30
0.0
 11
249.41485095322631
 21
114.48994792395899
 31
0.0
  0
LINE
  5
160C
  8
LAYER4
  6
CONTINUOUS
 10
249.41485095322631
 20
114.48994792395899
 30
0.0
 11
249.5948509532264
 21
114.48994792395899
 31
0.0
  0
LINE
  5
160D
  8
LAYER4
  6
CONTINUOUS
 10
249.5948509532264
 20
114.48994792395899
 30
0.0
 11
249.5948509532264
 21
114.309947923959
 31
0.0
  0
LINE
  5
160E
  8
LAYER4
  6
CONTINUOUS
 10
249.75485095322639
 20
112.1499999239591
 30
0.0
 11
249.25485095322651
 21
112.1499999239591
 31
0.0
  0
LINE
  5
160F
  8
LAYER4
  6
CONTINUOUS
 10
249.25485095322651
 20
112.1499999239591
 30
0.0
 11
249.25485095322651
 21
112.649999923959
 31
0.0
  0
LINE
  5
1610
  8
LAYER4
  6
CONTINUOUS
 10
249.25485095322651
 20
112.649999923959
 30
0.0
 11
249.75485095322639
 21
112.649999923959
 31
0.0
  0
LINE
  5
1611
  8
LAYER4
  6
CONTINUOUS
 10
249.75485095322639
 20
112.649999923959
 30
0.0
 11
249.75485095322639
 21
112.1499999239591
 31
0.0
  0
LINE
  5
1612
  8
LAYER4
  6
CONTINUOUS
 10
249.5948509532264
 20
112.309947923959
 30
0.0
 11
249.41485095322631
 21
112.309947923959
 31
0.0
  0
LINE
  5
1613
  8
LAYER4
  6
CONTINUOUS
 10
249.41485095322631
 20
112.309947923959
 30
0.0
 11
249.41485095322631
 21
112.48994792395899
 31
0.0
  0
LINE
  5
1614
  8
LAYER4
  6
CONTINUOUS
 10
249.41485095322631
 20
112.48994792395899
 30
0.0
 11
249.5948509532264
 21
112.48994792395899
 31
0.0
  0
LINE
  5
1615
  8
LAYER4
  6
CONTINUOUS
 10
249.5948509532264
 20
112.48994792395899
 30
0.0
 11
249.5948509532264
 21
112.309947923959
 31
0.0
  0
LINE
  5
1616
  8
LAYER4
  6
CONTINUOUS
 10
247.5948509532264
 20
112.309947923959
 30
0.0
 11
247.41485095322631
 21
112.309947923959
 31
0.0
  0
LINE
  5
1617
  8
LAYER4
  6
CONTINUOUS
 10
247.41485095322631
 20
112.309947923959
 30
0.0
 11
247.41485095322631
 21
112.48994792395899
 31
0.0
  0
LINE
  5
1618
  8
LAYER4
  6
CONTINUOUS
 10
247.41485095322631
 20
112.48994792395899
 30
0.0
 11
247.5948509532264
 21
112.48994792395899
 31
0.0
  0
LINE
  5
1619
  8
LAYER4
  6
CONTINUOUS
 10
247.5948509532264
 20
112.48994792395899
 30
0.0
 11
247.5948509532264
 21
112.309947923959
 31
0.0
  0
LINE
  5
161A
  8
LAYER4
  6
CONTINUOUS
 10
247.75485095322639
 20
112.1499999239591
 30
0.0
 11
247.25485095322651
 21
112.1499999239591
 31
0.0
  0
LINE
  5
161B
  8
LAYER4
  6
CONTINUOUS
 10
247.25485095322651
 20
112.1499999239591
 30
0.0
 11
247.25485095322651
 21
112.649999923959
 31
0.0
  0
LINE
  5
161C
  8
LAYER4
  6
CONTINUOUS
 10
247.25485095322651
 20
112.649999923959
 30
0.0
 11
247.75485095322639
 21
112.649999923959
 31
0.0
  0
LINE
  5
161D
  8
LAYER4
  6
CONTINUOUS
 10
247.75485095322639
 20
112.649999923959
 30
0.0
 11
247.75485095322639
 21
112.1499999239591
 31
0.0
  0
LINE
  5
161E
  8
LAYER4
  6
CONTINUOUS
 10
247.5948509532264
 20
110.309947923959
 30
0.0
 11
247.41485095322631
 21
110.309947923959
 31
0.0
  0
LINE
  5
161F
  8
LAYER4
  6
CONTINUOUS
 10
247.41485095322631
 20
110.309947923959
 30
0.0
 11
247.41485095322631
 21
110.48994792395899
 31
0.0
  0
LINE
  5
1620
  8
LAYER4
  6
CONTINUOUS
 10
247.41485095322631
 20
110.48994792395899
 30
0.0
 11
247.5948509532264
 21
110.48994792395899
 31
0.0
  0
LINE
  5
1621
  8
LAYER4
  6
CONTINUOUS
 10
247.5948509532264
 20
110.48994792395899
 30
0.0
 11
247.5948509532264
 21
110.309947923959
 31
0.0
  0
LINE
  5
1622
  8
LAYER4
  6
CONTINUOUS
 10
247.75485095322639
 20
110.1499999239591
 30
0.0
 11
247.25485095322651
 21
110.1499999239591
 31
0.0
  0
LINE
  5
1623
  8
LAYER4
  6
CONTINUOUS
 10
247.25485095322651
 20
110.1499999239591
 30
0.0
 11
247.25485095322651
 21
110.649999923959
 31
0.0
  0
LINE
  5
1624
  8
LAYER4
  6
CONTINUOUS
 10
247.25485095322651
 20
110.649999923959
 30
0.0
 11
247.75485095322639
 21
110.649999923959
 31
0.0
  0
LINE
  5
1625
  8
LAYER4
  6
CONTINUOUS
 10
247.75485095322639
 20
110.649999923959
 30
0.0
 11
247.75485095322639
 21
110.1499999239591
 31
0.0
  0
LINE
  5
1626
  8
LAYER4
  6
CONTINUOUS
 10
247.75485095322639
 20
114.1499999239591
 30
0.0
 11
247.25485095322651
 21
114.1499999239591
 31
0.0
  0
LINE
  5
1627
  8
LAYER4
  6
CONTINUOUS
 10
247.25485095322651
 20
114.1499999239591
 30
0.0
 11
247.25485095322651
 21
114.6499999239591
 31
0.0
  0
LINE
  5
1628
  8
LAYER4
  6
CONTINUOUS
 10
247.25485095322651
 20
114.6499999239591
 30
0.0
 11
247.75485095322639
 21
114.6499999239591
 31
0.0
  0
LINE
  5
1629
  8
LAYER4
  6
CONTINUOUS
 10
247.75485095322639
 20
114.6499999239591
 30
0.0
 11
247.75485095322639
 21
114.1499999239591
 31
0.0
  0
LINE
  5
162A
  8
LAYER4
  6
CONTINUOUS
 10
247.5948509532264
 20
114.309947923959
 30
0.0
 11
247.41485095322631
 21
114.309947923959
 31
0.0
  0
LINE
  5
162B
  8
LAYER4
  6
CONTINUOUS
 10
247.41485095322631
 20
114.309947923959
 30
0.0
 11
247.41485095322631
 21
114.48994792395899
 31
0.0
  0
LINE
  5
162C
  8
LAYER4
  6
CONTINUOUS
 10
247.41485095322631
 20
114.48994792395899
 30
0.0
 11
247.5948509532264
 21
114.48994792395899
 31
0.0
  0
LINE
  5
162D
  8
LAYER4
  6
CONTINUOUS
 10
247.5948509532264
 20
114.48994792395899
 30
0.0
 11
247.5948509532264
 21
114.309947923959
 31
0.0
  0
LINE
  5
162E
  8
LAYER4
  6
CONTINUOUS
 10
249.5948509532264
 20
110.309947923959
 30
0.0
 11
249.41485095322631
 21
110.309947923959
 31
0.0
  0
LINE
  5
162F
  8
LAYER4
  6
CONTINUOUS
 10
249.41485095322631
 20
110.309947923959
 30
0.0
 11
249.41485095322631
 21
110.48994792395899
 31
0.0
  0
LINE
  5
1630
  8
LAYER4
  6
CONTINUOUS
 10
249.41485095322631
 20
110.48994792395899
 30
0.0
 11
249.5948509532264
 21
110.48994792395899
 31
0.0
  0
LINE
  5
1631
  8
LAYER4
  6
CONTINUOUS
 10
249.5948509532264
 20
110.48994792395899
 30
0.0
 11
249.5948509532264
 21
110.309947923959
 31
0.0
  0
LINE
  5
1632
  8
LAYER4
  6
CONTINUOUS
 10
249.75485095322639
 20
110.1499999239591
 30
0.0
 11
249.25485095322651
 21
110.1499999239591
 31
0.0
  0
LINE
  5
1633
  8
LAYER4
  6
CONTINUOUS
 10
249.25485095322651
 20
110.1499999239591
 30
0.0
 11
249.25485095322651
 21
110.649999923959
 31
0.0
  0
LINE
  5
1634
  8
LAYER4
  6
CONTINUOUS
 10
249.25485095322651
 20
110.649999923959
 30
0.0
 11
249.75485095322639
 21
110.649999923959
 31
0.0
  0
LINE
  5
1635
  8
LAYER4
  6
CONTINUOUS
 10
249.75485095322639
 20
110.649999923959
 30
0.0
 11
249.75485095322639
 21
110.1499999239591
 31
0.0
  0
LINE
  5
1636
  8
LAYER4
  6
CONTINUOUS
 10
249.25485095322651
 20
108.649999923959
 30
0.0
 11
249.75485095322639
 21
108.649999923959
 31
0.0
  0
LINE
  5
1637
  8
LAYER4
  6
CONTINUOUS
 10
249.5948509532264
 20
108.309947923959
 30
0.0
 11
249.41485095322631
 21
108.309947923959
 31
0.0
  0
LINE
  5
1638
  8
LAYER4
  6
CONTINUOUS
 10
249.41485095322631
 20
108.309947923959
 30
0.0
 11
249.41485095322631
 21
108.48994792395899
 31
0.0
  0
LINE
  5
1639
  8
LAYER4
  6
CONTINUOUS
 10
249.41485095322631
 20
108.48994792395899
 30
0.0
 11
249.5948509532264
 21
108.48994792395899
 31
0.0
  0
LINE
  5
163A
  8
LAYER4
  6
CONTINUOUS
 10
249.5948509532264
 20
108.48994792395899
 30
0.0
 11
249.5948509532264
 21
108.309947923959
 31
0.0
  0
LINE
  5
163B
  8
LAYER4
  6
CONTINUOUS
 10
247.25485095322651
 20
108.649999923959
 30
0.0
 11
247.75485095322639
 21
108.649999923959
 31
0.0
  0
LINE
  5
163C
  8
LAYER4
  6
CONTINUOUS
 10
247.5948509532264
 20
108.309947923959
 30
0.0
 11
247.41485095322631
 21
108.309947923959
 31
0.0
  0
LINE
  5
163D
  8
LAYER4
  6
CONTINUOUS
 10
247.41485095322631
 20
108.309947923959
 30
0.0
 11
247.41485095322631
 21
108.48994792395899
 31
0.0
  0
LINE
  5
163E
  8
LAYER4
  6
CONTINUOUS
 10
247.41485095322631
 20
108.48994792395899
 30
0.0
 11
247.5948509532264
 21
108.48994792395899
 31
0.0
  0
LINE
  5
163F
  8
LAYER4
  6
CONTINUOUS
 10
247.5948509532264
 20
108.48994792395899
 30
0.0
 11
247.5948509532264
 21
108.309947923959
 31
0.0
  0
LINE
  5
1640
  8
LAYER4
  6
CONTINUOUS
 10
249.5948509532264
 20
118.3099479239591
 30
0.0
 11
249.41485095322631
 21
118.3099479239591
 31
0.0
  0
LINE
  5
1641
  8
LAYER4
  6
CONTINUOUS
 10
249.41485095322631
 20
118.3099479239591
 30
0.0
 11
249.41485095322631
 21
118.48994792395899
 31
0.0
  0
LINE
  5
1642
  8
LAYER4
  6
CONTINUOUS
 10
249.41485095322631
 20
118.48994792395899
 30
0.0
 11
249.5948509532264
 21
118.48994792395899
 31
0.0
  0
LINE
  5
1643
  8
LAYER4
  6
CONTINUOUS
 10
249.5948509532264
 20
118.48994792395899
 30
0.0
 11
249.5948509532264
 21
118.3099479239591
 31
0.0
  0
LINE
  5
1644
  8
LAYER4
  6
CONTINUOUS
 10
247.75485095322639
 20
118.149999923959
 30
0.0
 11
247.25485095322651
 21
118.149999923959
 31
0.0
  0
LINE
  5
1645
  8
LAYER4
  6
CONTINUOUS
 10
247.25485095322651
 20
118.149999923959
 30
0.0
 11
247.25485095322651
 21
118.6499999239591
 31
0.0
  0
LINE
  5
1646
  8
LAYER4
  6
CONTINUOUS
 10
247.25485095322651
 20
118.6499999239591
 30
0.0
 11
247.75485095322639
 21
118.6499999239591
 31
0.0
  0
LINE
  5
1647
  8
LAYER4
  6
CONTINUOUS
 10
247.75485095322639
 20
118.6499999239591
 30
0.0
 11
247.75485095322639
 21
118.149999923959
 31
0.0
  0
LINE
  5
1648
  8
LAYER4
  6
CONTINUOUS
 10
247.5948509532264
 20
118.3099479239591
 30
0.0
 11
247.41485095322631
 21
118.3099479239591
 31
0.0
  0
LINE
  5
1649
  8
LAYER4
  6
CONTINUOUS
 10
247.41485095322631
 20
118.3099479239591
 30
0.0
 11
247.41485095322631
 21
118.48994792395899
 31
0.0
  0
LINE
  5
164A
  8
LAYER4
  6
CONTINUOUS
 10
247.41485095322631
 20
118.48994792395899
 30
0.0
 11
247.5948509532264
 21
118.48994792395899
 31
0.0
  0
LINE
  5
164B
  8
LAYER4
  6
CONTINUOUS
 10
247.5948509532264
 20
118.48994792395899
 30
0.0
 11
247.5948509532264
 21
118.3099479239591
 31
0.0
  0
LINE
  5
164C
  8
LAYER4
  6
CONTINUOUS
 10
247.5948509532264
 20
122.3099479239591
 30
0.0
 11
247.41485095322631
 21
122.3099479239591
 31
0.0
  0
LINE
  5
164D
  8
LAYER4
  6
CONTINUOUS
 10
247.41485095322631
 20
122.3099479239591
 30
0.0
 11
247.41485095322631
 21
122.48994792395899
 31
0.0
  0
LINE
  5
164E
  8
LAYER4
  6
CONTINUOUS
 10
247.41485095322631
 20
122.48994792395899
 30
0.0
 11
247.5948509532264
 21
122.48994792395899
 31
0.0
  0
LINE
  5
164F
  8
LAYER4
  6
CONTINUOUS
 10
247.5948509532264
 20
122.48994792395899
 30
0.0
 11
247.5948509532264
 21
122.3099479239591
 31
0.0
  0
LINE
  5
1650
  8
LAYER4
  6
CONTINUOUS
 10
249.75485095322639
 20
122.149999923959
 30
0.0
 11
249.25485095322651
 21
122.149999923959
 31
0.0
  0
LINE
  5
1651
  8
LAYER4
  6
CONTINUOUS
 10
249.25485095322651
 20
122.149999923959
 30
0.0
 11
249.25485095322651
 21
122.6499999239591
 31
0.0
  0
LINE
  5
1652
  8
LAYER4
  6
CONTINUOUS
 10
249.25485095322651
 20
122.6499999239591
 30
0.0
 11
249.75485095322639
 21
122.6499999239591
 31
0.0
  0
LINE
  5
1653
  8
LAYER4
  6
CONTINUOUS
 10
249.75485095322639
 20
122.6499999239591
 30
0.0
 11
249.75485095322639
 21
122.149999923959
 31
0.0
  0
LINE
  5
1654
  8
LAYER4
  6
CONTINUOUS
 10
249.5948509532264
 20
122.3099479239591
 30
0.0
 11
249.41485095322631
 21
122.3099479239591
 31
0.0
  0
LINE
  5
1655
  8
LAYER4
  6
CONTINUOUS
 10
249.41485095322631
 20
122.3099479239591
 30
0.0
 11
249.41485095322631
 21
122.48994792395899
 31
0.0
  0
LINE
  5
1656
  8
LAYER4
  6
CONTINUOUS
 10
249.41485095322631
 20
122.48994792395899
 30
0.0
 11
249.5948509532264
 21
122.48994792395899
 31
0.0
  0
LINE
  5
1657
  8
LAYER4
  6
CONTINUOUS
 10
249.5948509532264
 20
122.48994792395899
 30
0.0
 11
249.5948509532264
 21
122.3099479239591
 31
0.0
  0
LINE
  5
1658
  8
LAYER4
  6
CONTINUOUS
 10
247.75485095322639
 20
122.149999923959
 30
0.0
 11
247.25485095322651
 21
122.149999923959
 31
0.0
  0
LINE
  5
1659
  8
LAYER4
  6
CONTINUOUS
 10
247.25485095322651
 20
122.149999923959
 30
0.0
 11
247.25485095322651
 21
122.6499999239591
 31
0.0
  0
LINE
  5
165A
  8
LAYER4
  6
CONTINUOUS
 10
247.25485095322651
 20
122.6499999239591
 30
0.0
 11
247.75485095322639
 21
122.6499999239591
 31
0.0
  0
LINE
  5
165B
  8
LAYER4
  6
CONTINUOUS
 10
247.75485095322639
 20
122.6499999239591
 30
0.0
 11
247.75485095322639
 21
122.149999923959
 31
0.0
  0
LINE
  5
165C
  8
LAYER4
  6
CONTINUOUS
 10
249.75485095322639
 20
118.149999923959
 30
0.0
 11
249.25485095322651
 21
118.149999923959
 31
0.0
  0
LINE
  5
165D
  8
LAYER4
  6
CONTINUOUS
 10
249.25485095322651
 20
118.149999923959
 30
0.0
 11
249.25485095322651
 21
118.6499999239591
 31
0.0
  0
LINE
  5
165E
  8
LAYER4
  6
CONTINUOUS
 10
249.25485095322651
 20
118.6499999239591
 30
0.0
 11
249.75485095322639
 21
118.6499999239591
 31
0.0
  0
LINE
  5
165F
  8
LAYER4
  6
CONTINUOUS
 10
249.75485095322639
 20
118.6499999239591
 30
0.0
 11
249.75485095322639
 21
118.149999923959
 31
0.0
  0
LINE
  5
1660
  8
LAYER4
  6
CONTINUOUS
 10
247.75485095322639
 20
120.149999923959
 30
0.0
 11
247.25485095322651
 21
120.149999923959
 31
0.0
  0
LINE
  5
1661
  8
LAYER4
  6
CONTINUOUS
 10
247.25485095322651
 20
120.149999923959
 30
0.0
 11
247.25485095322651
 21
120.6499999239591
 31
0.0
  0
LINE
  5
1662
  8
LAYER4
  6
CONTINUOUS
 10
247.25485095322651
 20
120.6499999239591
 30
0.0
 11
247.75485095322639
 21
120.6499999239591
 31
0.0
  0
LINE
  5
1663
  8
LAYER4
  6
CONTINUOUS
 10
247.75485095322639
 20
120.6499999239591
 30
0.0
 11
247.75485095322639
 21
120.149999923959
 31
0.0
  0
LINE
  5
1664
  8
LAYER4
  6
CONTINUOUS
 10
247.5948509532264
 20
120.3099479239591
 30
0.0
 11
247.41485095322631
 21
120.3099479239591
 31
0.0
  0
LINE
  5
1665
  8
LAYER4
  6
CONTINUOUS
 10
247.41485095322631
 20
120.3099479239591
 30
0.0
 11
247.41485095322631
 21
120.48994792395899
 31
0.0
  0
LINE
  5
1666
  8
LAYER4
  6
CONTINUOUS
 10
247.41485095322631
 20
120.48994792395899
 30
0.0
 11
247.5948509532264
 21
120.48994792395899
 31
0.0
  0
LINE
  5
1667
  8
LAYER4
  6
CONTINUOUS
 10
247.5948509532264
 20
120.48994792395899
 30
0.0
 11
247.5948509532264
 21
120.3099479239591
 31
0.0
  0
LINE
  5
1668
  8
LAYER4
  6
CONTINUOUS
 10
249.5948509532264
 20
120.3099479239591
 30
0.0
 11
249.41485095322631
 21
120.3099479239591
 31
0.0
  0
LINE
  5
1669
  8
LAYER4
  6
CONTINUOUS
 10
249.41485095322631
 20
120.3099479239591
 30
0.0
 11
249.41485095322631
 21
120.48994792395899
 31
0.0
  0
LINE
  5
166A
  8
LAYER4
  6
CONTINUOUS
 10
249.41485095322631
 20
120.48994792395899
 30
0.0
 11
249.5948509532264
 21
120.48994792395899
 31
0.0
  0
LINE
  5
166B
  8
LAYER4
  6
CONTINUOUS
 10
249.5948509532264
 20
120.48994792395899
 30
0.0
 11
249.5948509532264
 21
120.3099479239591
 31
0.0
  0
LINE
  5
166C
  8
LAYER4
  6
CONTINUOUS
 10
249.75485095322639
 20
120.149999923959
 30
0.0
 11
249.25485095322651
 21
120.149999923959
 31
0.0
  0
LINE
  5
166D
  8
LAYER4
  6
CONTINUOUS
 10
249.25485095322651
 20
120.149999923959
 30
0.0
 11
249.25485095322651
 21
120.6499999239591
 31
0.0
  0
LINE
  5
166E
  8
LAYER4
  6
CONTINUOUS
 10
249.25485095322651
 20
120.6499999239591
 30
0.0
 11
249.75485095322639
 21
120.6499999239591
 31
0.0
  0
LINE
  5
166F
  8
LAYER4
  6
CONTINUOUS
 10
249.75485095322639
 20
120.6499999239591
 30
0.0
 11
249.75485095322639
 21
120.149999923959
 31
0.0
  0
LINE
  5
1670
  8
LAYER4
  6
CONTINUOUS
 10
249.75485095322639
 20
116.1499999239591
 30
0.0
 11
249.25485095322651
 21
116.1499999239591
 31
0.0
  0
LINE
  5
1671
  8
LAYER4
  6
CONTINUOUS
 10
249.25485095322651
 20
116.1499999239591
 30
0.0
 11
249.25485095322651
 21
116.6499999239591
 31
0.0
  0
LINE
  5
1672
  8
LAYER4
  6
CONTINUOUS
 10
249.25485095322651
 20
116.6499999239591
 30
0.0
 11
249.75485095322639
 21
116.6499999239591
 31
0.0
  0
LINE
  5
1673
  8
LAYER4
  6
CONTINUOUS
 10
249.75485095322639
 20
116.6499999239591
 30
0.0
 11
249.75485095322639
 21
116.1499999239591
 31
0.0
  0
LINE
  5
1674
  8
LAYER4
  6
CONTINUOUS
 10
249.5948509532264
 20
116.3099479239591
 30
0.0
 11
249.41485095322631
 21
116.3099479239591
 31
0.0
  0
LINE
  5
1675
  8
LAYER4
  6
CONTINUOUS
 10
249.41485095322631
 20
116.3099479239591
 30
0.0
 11
249.41485095322631
 21
116.48994792395899
 31
0.0
  0
LINE
  5
1676
  8
LAYER4
  6
CONTINUOUS
 10
249.41485095322631
 20
116.48994792395899
 30
0.0
 11
249.5948509532264
 21
116.48994792395899
 31
0.0
  0
LINE
  5
1677
  8
LAYER4
  6
CONTINUOUS
 10
249.5948509532264
 20
116.48994792395899
 30
0.0
 11
249.5948509532264
 21
116.3099479239591
 31
0.0
  0
LINE
  5
1678
  8
LAYER4
  6
CONTINUOUS
 10
247.75485095322639
 20
116.1499999239591
 30
0.0
 11
247.25485095322651
 21
116.1499999239591
 31
0.0
  0
LINE
  5
1679
  8
LAYER4
  6
CONTINUOUS
 10
247.25485095322651
 20
116.1499999239591
 30
0.0
 11
247.25485095322651
 21
116.6499999239591
 31
0.0
  0
LINE
  5
167A
  8
LAYER4
  6
CONTINUOUS
 10
247.25485095322651
 20
116.6499999239591
 30
0.0
 11
247.75485095322639
 21
116.6499999239591
 31
0.0
  0
LINE
  5
167B
  8
LAYER4
  6
CONTINUOUS
 10
247.75485095322639
 20
116.6499999239591
 30
0.0
 11
247.75485095322639
 21
116.1499999239591
 31
0.0
  0
LINE
  5
167C
  8
LAYER4
  6
CONTINUOUS
 10
247.5948509532264
 20
116.3099479239591
 30
0.0
 11
247.41485095322631
 21
116.3099479239591
 31
0.0
  0
LINE
  5
167D
  8
LAYER4
  6
CONTINUOUS
 10
247.41485095322631
 20
116.3099479239591
 30
0.0
 11
247.41485095322631
 21
116.48994792395899
 31
0.0
  0
LINE
  5
167E
  8
LAYER4
  6
CONTINUOUS
 10
247.41485095322631
 20
116.48994792395899
 30
0.0
 11
247.5948509532264
 21
116.48994792395899
 31
0.0
  0
LINE
  5
167F
  8
LAYER4
  6
CONTINUOUS
 10
247.5948509532264
 20
116.48994792395899
 30
0.0
 11
247.5948509532264
 21
116.3099479239591
 31
0.0
  0
LINE
  5
1680
  8
LAYER4
  6
CONTINUOUS
 10
246.50485095322639
 20
121.8499999239591
 30
0.0
 11
246.00485095322639
 21
121.8499999239591
 31
0.0
  0
LINE
  5
1681
  8
LAYER4
  6
CONTINUOUS
 10
246.50485095322639
 20
120.8499999239591
 30
0.0
 11
246.00485095322639
 21
120.8499999239591
 31
0.0
  0
LINE
  5
1682
  8
LAYER4
  6
CONTINUOUS
 10
251.00485095322639
 20
146.89999992395909
 30
0.0
 11
251.00485095322639
 21
136.899999923959
 31
0.0
  0
LINE
  5
1683
  8
LAYER4
  6
CONTINUOUS
 10
249.80485095322641
 20
146.49999992395911
 30
0.0
 11
249.80485095322641
 21
137.29999992395901
 31
0.0
  0
LINE
  5
1684
  8
LAYER4
  6
CONTINUOUS
 10
246.00485095322639
 20
124.349999923959
 30
0.0
 11
251.00485095322639
 21
124.349999923959
 31
0.0
  0
LINE
  5
1685
  8
LAYER4
  6
CONTINUOUS
 10
246.50485095322639
 20
123.8499999239591
 30
0.0
 11
250.50485095322639
 21
123.8499999239591
 31
0.0
  0
ARC
  5
1686
  8
LAYER4
  6
CONTINUOUS
 10
247.50485095322639
 20
128.1299999239591
 30
0.0
 40
2.0
 50
131.84090107138309
 51
229.02536977055459
  0
LINE
  5
1687
  8
LAYER3
 10
249.00485095322671
 20
129.61999992395911
 30
0.0
 11
246.00485095322671
 21
129.61999992395911
 31
0.0
  0
LINE
  5
1688
  8
LAYER3
 10
249.00485095322671
 20
126.619999923959
 30
0.0
 11
246.00485095322671
 21
126.619999923959
 31
0.0
  0
ARC
  5
1689
  8
LAYER3
 10
249.00485095322671
 20
128.11999992395911
 30
0.0
 40
1.5
 50
270.0
 51
90.0
  0
ARC
  5
168A
  8
LAYER4
  6
CONTINUOUS
 10
247.50485095322639
 20
128.1299999239591
 30
0.0
 40
0.85
 50
90.0
 51
270.0
  0
LINE
  5
168B
  8
LAYER4
  6
CONTINUOUS
 10
247.50485095322639
 20
128.97999992395901
 30
0.0
 11
248.50485095322639
 21
128.97999992395901
 31
0.0
  0
CIRCLE
  5
168C
  8
LAYER4
  6
CONTINUOUS
 10
248.50485095322639
 20
128.1299999239591
 30
0.0
 40
0.85
  0
ARC
  5
168D
  8
LAYER4
  6
CONTINUOUS
 10
247.50485095322639
 20
128.1299999239591
 30
0.0
 40
2.0
 50
310.97463022944481
 51
48.159098928616721
  0
LINE
  5
168E
  8
LAYER4
  6
CONTINUOUS
 10
247.50485095322639
 20
127.2799999239591
 30
0.0
 11
248.50485095322639
 21
127.2799999239591
 31
0.0
  0
CIRCLE
  5
168F
  8
LAYER4
  6
CONTINUOUS
 10
247.0298509532264
 20
144.39999992395909
 30
0.0
 40
0.32
  0
LINE
  5
1690
  8
LAYER4
  6
CONTINUOUS
 10
250.50485095322639
 20
138.899999923959
 30
0.0
 11
250.50485095322639
 21
144.89999992395909
 31
0.0
  0
LINE
  5
1691
  8
LAYER4
  6
CONTINUOUS
 10
250.50485095322639
 20
138.899999923959
 30
0.0
 11
251.00485095322639
 21
138.899999923959
 31
0.0
  0
CIRCLE
  5
1692
  8
LAYER4
  6
CONTINUOUS
 10
247.0298509532264
 20
139.399999923959
 30
0.0
 40
0.32
  0
CIRCLE
  5
1693
  8
LAYER4
  6
CONTINUOUS
 10
247.0298509532264
 20
141.89999992395909
 30
0.0
 40
0.32
  0
LINE
  5
1694
  8
LAYER4
  6
CONTINUOUS
 10
250.50485095322639
 20
144.89999992395909
 30
0.0
 11
251.00485095322639
 21
144.89999992395909
 31
0.0
  0
LINE
  5
1695
  8
LAYER4
  6
CONTINUOUS
 10
250.50485095322639
 20
150.89999992395909
 30
0.0
 11
251.00485095322639
 21
150.89999992395909
 31
0.0
  0
LINE
  5
1696
  8
LAYER4
  6
CONTINUOUS
 10
246.30485095322641
 20
146.49999992395911
 30
0.0
 11
246.30485095322641
 21
146.89999992395909
 31
0.0
  0
LINE
  5
1697
  8
LAYER4
  6
CONTINUOUS
 10
247.80485095322641
 20
146.49999992395911
 30
0.0
 11
247.80485095322641
 21
146.89999992395909
 31
0.0
  0
LINE
  5
1698
  8
LAYER4
  6
CONTINUOUS
 10
249.80485095322641
 20
146.49999992395911
 30
0.0
 11
247.80485095322641
 21
146.49999992395911
 31
0.0
  0
CIRCLE
  5
1699
  8
LAYER4
  6
CONTINUOUS
 10
247.0298509532264
 20
151.39999992395909
 30
0.0
 40
0.32
  0
LINE
  5
169A
  8
LAYER4
  6
CONTINUOUS
 10
317.46478056977179
 20
101.93999992395911
 30
0.0
 11
317.46478056977179
 21
100.2599999239591
 31
0.0
  0
LINE
  5
169B
  8
LAYER4
  6
CONTINUOUS
 10
320.28478056977178
 20
107.58599992395899
 30
0.0
 11
317.46478056977179
 21
101.93999992395911
 31
0.0
  0
LINE
  5
169C
  8
LAYER4
  6
CONTINUOUS
 10
321.40378056977193
 20
107.58599992395899
 30
0.0
 11
321.40378056977193
 21
105.089999923959
 31
0.0
  0
LINE
  5
169D
  8
LAYER4
  6
CONTINUOUS
 10
321.40378056977193
 20
107.58599992395899
 30
0.0
 11
320.28478056977178
 21
107.58599992395899
 31
0.0
  0
LINE
  5
169E
  8
LAYER4
  6
CONTINUOUS
 10
321.40378056977193
 20
150.57399992395901
 30
0.0
 11
320.28478056977178
 21
150.57399992395901
 31
0.0
  0
ARC
  5
169F
  8
LAYER2
  6
CONTINUOUS
 10
258.50485095322631
 20
166.09999992395899
 30
0.0
 40
1.0
 50
0.0
 51
90.0
  0
ARC
  5
16A0
  8
LAYER2
  6
CONTINUOUS
 10
253.5021539532263
 20
160.01999992395901
 30
0.0
 40
2.0
 50
0.0
 51
90.0
  0
LINE
  5
16A1
  8
LAYER4
  6
CONTINUOUS
 10
250.50485095322639
 20
156.89999992395909
 30
0.0
 11
251.00485095322639
 21
156.89999992395909
 31
0.0
  0
LINE
  5
16A2
  8
LAYER4
  6
CONTINUOUS
 10
246.30485095322641
 20
158.49999992395911
 30
0.0
 11
246.30485095322641
 21
158.89999992395909
 31
0.0
  0
CIRCLE
  5
16A3
  8
LAYER4
  6
CONTINUOUS
 10
247.0298509532264
 20
153.89999992395909
 30
0.0
 40
0.32
  0
CIRCLE
  5
16A4
  8
LAYER4
  6
CONTINUOUS
 10
247.0298509532264
 20
156.39999992395909
 30
0.0
 40
0.32
  0
LINE
  5
16A5
  8
LAYER4
  6
CONTINUOUS
 10
249.80485095322641
 20
158.49999992395911
 30
0.0
 11
247.80485095322641
 21
158.49999992395911
 31
0.0
  0
LINE
  5
16A6
  8
LAYER4
  6
CONTINUOUS
 10
247.80485095322641
 20
158.49999992395911
 30
0.0
 11
247.80485095322641
 21
158.89999992395909
 31
0.0
  0
ARC
  5
16A7
  8
LAYER2
  6
CONTINUOUS
 10
253.50485095322651
 20
160.01999992395901
 30
0.0
 40
1.0
 50
0.0
 51
90.0
  0
ARC
  5
16A8
  8
LAYER1
  6
CONTINUOUS
 10
258.00576526002629
 20
176.5476350078271
 30
0.0
 40
1.5
 50
2.0005989560853661
 51
93.636392518778905
  0
ARC
  5
16A9
  8
LAYER1
  6
CONTINUOUS
 10
258.00576526002629
 20
176.5476350078271
 30
0.0
 40
1.5
 50
357.999401044058
 51
2.000598955941975
  0
ARC
  5
16AA
  8
LAYER1
  6
CONTINUOUS
 10
258.00485095322631
 20
176.59999992395899
 30
0.0
 40
1.5
 50
0.0
 51
90.0
  0
LINE
  5
16AB
  8
LAYER4
  6
CONTINUOUS
 10
317.46478056977179
 20
157.899999923959
 30
0.0
 11
317.46478056977179
 21
156.21999992395911
 31
0.0
  0
LINE
  5
16AC
  8
LAYER4
  6
CONTINUOUS
 10
327.4647805697719
 20
153.0699999239591
 30
0.0
 11
330.9647805697719
 21
150.7779999239591
 31
0.0
  0
LINE
  5
16AD
  8
LAYER1
  6
CONTINUOUS
 10
355.55478056977182
 20
157.67710747620211
 30
0.0
 11
355.55478056977182
 21
107.599999923959
 31
0.0
  0
LINE
  5
16AE
  8
LAYER4
  6
CONTINUOUS
 10
330.9647805697719
 20
150.7779999239591
 30
0.0
 11
330.9647805697719
 21
107.381999923959
 31
0.0
  0
LINE
  5
16AF
  8
LAYER4
  6
CONTINUOUS
 10
327.4647805697719
 20
105.089999923959
 30
0.0
 11
327.4647805697719
 21
100.2599999239591
 31
0.0
  0
LINE
  5
16B0
  8
LAYER4
  6
CONTINUOUS
 10
327.4647805697719
 20
100.2599999239591
 30
0.0
 11
332.21661248289661
 21
99.062142295858905
 31
0.0
  0
LINE
  5
16B1
  8
LAYER4
  6
CONTINUOUS
 10
330.9647805697719
 20
107.381999923959
 30
0.0
 11
327.4647805697719
 21
105.089999923959
 31
0.0
  0
ARC
  5
16B2
  8
LAYER2
  6
CONTINUOUS
 10
351.05478056889848
 20
106.6999999239591
 30
0.0
 40
1.6000000000000001
 50
0.0
 51
180.0
  0
ARC
  5
16B3
  8
LAYER1
  6
CONTINUOUS
 10
351.05478056977182
 20
106.599999923959
 30
0.0
 40
1.5
 50
0.0000179999992061
 51
180.00000700000001
  0
LINE
  5
16B4
  8
LAYER1
  6
CONTINUOUS
 10
355.55478056977182
 20
107.599999923959
 30
0.0
 11
357.55478056977267
 21
107.599999923959
 31
0.0
  0
LINE
  5
16B5
  8
LAYER4
  6
CONTINUOUS
 10
332.21661248289661
 20
127.07999992395899
 30
0.0
 11
330.9647805697719
 21
127.07999992395899
 31
0.0
  0
LINE
  5
16B6
  8
LAYER4
  6
CONTINUOUS
 10
332.21661248289661
 20
131.07999992395901
 30
0.0
 11
330.9647805697719
 21
131.07999992395901
 31
0.0
  0
LINE
  5
16B7
  8
LAYER2
  6
CONTINUOUS
 10
355.55478056977182
 20
124.76582304077731
 30
0.0
 11
355.05478056889979
 21
124.75709550829789
 31
0.0
  0
LINE
  5
16B8
  8
LAYER1
  6
CONTINUOUS
 10
355.55478056977182
 20
123.5999999239591
 30
0.0
 11
355.05478056889979
 21
123.59127239147981
 31
0.0
  0
LINE
  5
16B9
  8
LAYER2
  6
CONTINUOUS
 10
355.55478056977182
 20
136.4341768071406
 30
0.0
 11
355.05478056889979
 21
136.4429043396199
 31
0.0
  0
LINE
  5
16BA
  8
LAYER1
  6
CONTINUOUS
 10
355.55478056977182
 20
137.5999999239591
 30
0.0
 11
355.05478056889979
 21
137.60872745643829
 31
0.0
  0
LINE
  5
16BB
  8
LAYER1
  6
CONTINUOUS
 10
386.03259779787072
 20
96.177701352019227
 30
0.0
 11
390.2645573091998
 21
102.566554227963
 31
0.0
  0
LINE
  5
16BC
  8
LAYER1
  6
CONTINUOUS
 10
391.4809447310318
 20
96.183257159925105
 30
0.0
 11
386.03259779787072
 21
96.177701352019227
 31
0.0
  0
POLYLINE
  5
16BD
  8
LAYER1
  6
CONTINUOUS
 66
     1
 10
0.0
 20
0.0
 30
0.0
  0
VERTEX
  5
1A43
  8
LAYER1
  6
CONTINUOUS
 10
367.26097148330678
 20
108.59999943101511
 30
0.0
  0
VERTEX
  5
1A44
  8
LAYER1
  6
CONTINUOUS
 10
367.28088818009502
 20
108.55823380240111
 30
0.0
  0
VERTEX
  5
1A45
  8
LAYER1
  6
CONTINUOUS
 10
367.32294263889258
 20
108.5135613589671
 30
0.0
  0
VERTEX
  5
1A46
  8
LAYER1
  6
CONTINUOUS
 10
367.35582578072382
 20
108.48854830546711
 30
0.0
  0
VERTEX
  5
1A47
  8
LAYER1
  6
CONTINUOUS
 10
367.50192415869691
 20
108.3955387755731
 30
0.0
  0
VERTEX
  5
1A48
  8
LAYER1
  6
CONTINUOUS
 10
367.5859829438067
 20
108.325470141178
 30
0.0
  0
VERTEX
  5
1A49
  8
LAYER1
  6
CONTINUOUS
 10
367.61193443091139
 20
108.2995268990321
 30
0.0
  0
VERTEX
  5
1A4A
  8
LAYER1
  6
CONTINUOUS
 10
367.70509616662309
 20
108.1940547223419
 30
0.0
  0
VERTEX
  5
1A4B
  8
LAYER1
  6
CONTINUOUS
 10
367.79005294778079
 20
108.0959004293521
 30
0.0
  0
VERTEX
  5
1A4C
  8
LAYER1
  6
CONTINUOUS
 10
367.87336421195079
 20
107.995088844102
 30
0.0
  0
VERTEX
  5
1A4D
  8
LAYER1
  6
CONTINUOUS
 10
367.94431203222177
 20
107.898492742023
 30
0.0
  0
VERTEX
  5
1A4E
  8
LAYER1
  6
CONTINUOUS
 10
368.00960499954471
 20
107.7981827136371
 30
0.0
  0
VERTEX
  5
1A4F
  8
LAYER1
  6
CONTINUOUS
 10
368.06565505956081
 20
107.7019127721541
 30
0.0
  0
VERTEX
  5
1A50
  8
LAYER1
  6
CONTINUOUS
 10
368.11669523427202
 20
107.6028779037299
 30
0.0
  0
VERTEX
  5
1A51
  8
LAYER1
  6
CONTINUOUS
 10
368.1597261678458
 20
107.506887144084
 30
0.0
  0
VERTEX
  5
1A52
  8
LAYER1
  6
CONTINUOUS
 10
368.19751162099652
 20
107.4087159871621
 30
0.0
  0
VERTEX
  5
1A53
  8
LAYER1
  6
CONTINUOUS
 10
368.2287189739007
 20
107.31271721438399
 30
0.0
  0
VERTEX
  5
1A54
  8
LAYER1
  6
CONTINUOUS
 10
368.25493086458692
 20
107.2152385367171
 30
0.0
  0
VERTEX
  5
1A55
  8
LAYER1
  6
CONTINUOUS
 10
368.27568095569671
 20
107.1190525197521
 30
0.0
  0
VERTEX
  5
1A56
  8
LAYER1
  6
CONTINUOUS
 10
368.29182966990692
 20
107.021987125176
 30
0.0
  0
VERTEX
  5
1A57
  8
LAYER1
  6
CONTINUOUS
 10
368.30346248793882
 20
106.925443594782
 30
0.0
  0
VERTEX
  5
1A58
  8
LAYER1
  6
CONTINUOUS
 10
368.31108474182162
 20
106.828503325323
 30
0.0
  0
VERTEX
  5
1A59
  8
LAYER1
  6
CONTINUOUS
 10
368.31501045618592
 20
106.73146060238599
 30
0.0
  0
VERTEX
  5
1A5A
  8
LAYER1
  6
CONTINUOUS
 10
368.31557278519853
 20
106.6343287099412
 30
0.0
  0
VERTEX
  5
1A5B
  8
LAYER1
  6
CONTINUOUS
 10
368.3131148275628
 20
106.5365955737611
 30
0.0
  0
VERTEX
  5
1A5C
  8
LAYER1
  6
CONTINUOUS
 10
368.30817050490242
 20
106.43900485181121
 30
0.0
  0
VERTEX
  5
1A5D
  8
LAYER1
  6
CONTINUOUS
 10
368.30109208066591
 20
106.340546076142
 30
0.0
  0
VERTEX
  5
1A5E
  8
LAYER1
  6
CONTINUOUS
 10
368.2917546058008
 20
106.242073323716
 30
0.0
  0
VERTEX
  5
1A5F
  8
LAYER1
  6
CONTINUOUS
 10
368.28023531703491
 20
106.1421934952569
 30
0.0
  0
VERTEX
  5
1A60
  8
LAYER1
  6
CONTINUOUS
 10
368.26920179275652
 20
106.043075698439
 30
0.0
  0
VERTEX
  5
1A61
  8
LAYER1
  6
CONTINUOUS
 10
368.2594927080217
 20
105.9435072496901
 30
0.0
  0
VERTEX
  5
1A62
  8
LAYER1
  6
CONTINUOUS
 10
368.24338877063758
 20
105.841553548763
 30
0.0
  0
VERTEX
  5
1A63
  8
LAYER1
  6
CONTINUOUS
 10
368.21860304486961
 20
105.734685428178
 30
0.0
  0
VERTEX
  5
1A64
  8
LAYER1
  6
CONTINUOUS
 10
368.21245868607662
 20
105.667810835626
 30
0.0
  0
VERTEX
  5
1A65
  8
LAYER1
  6
CONTINUOUS
 10
368.21719224430871
 20
105.63704844746999
 30
0.0
  0
SEQEND
  5
1A66
  8
LAYER1
  6
CONTINUOUS
  0
LINE
  5
16E2
  8
LAYER1
  6
CONTINUOUS
 10
367.26097148330678
 20
108.59999943101511
 30
0.0
 11
375.90076892696658
 21
108.59999943101511
 31
0.0
  0
POLYLINE
  5
16E3
  8
LAYER1
  6
CONTINUOUS
 66
     1
 10
0.0
 20
0.0
 30
0.0
  0
VERTEX
  5
1A67
  8
LAYER1
  6
CONTINUOUS
 10
388.67061780989451
 20
108.563966543772
 30
0.0
  0
VERTEX
  5
1A68
  8
LAYER1
  6
CONTINUOUS
 10
388.67679335895082
 20
108.542796419239
 30
0.0
  0
VERTEX
  5
1A69
  8
LAYER1
  6
CONTINUOUS
 10
388.69171151085561
 20
108.520250444978
 30
0.0
  0
VERTEX
  5
1A6A
  8
LAYER1
  6
CONTINUOUS
 10
388.71978971558559
 20
108.4930272370121
 30
0.0
  0
VERTEX
  5
1A6B
  8
LAYER1
  6
CONTINUOUS
 10
388.80495617392052
 20
108.425596987993
 30
0.0
  0
VERTEX
  5
1A6C
  8
LAYER1
  6
CONTINUOUS
 10
388.84796825707252
 20
108.3834221026851
 30
0.0
  0
VERTEX
  5
1A6D
  8
LAYER1
  6
CONTINUOUS
 10
388.86838611577252
 20
108.359751108002
 30
0.0
  0
VERTEX
  5
1A6E
  8
LAYER1
  6
CONTINUOUS
 10
388.92051764696151
 20
108.29064708196501
 30
0.0
  0
VERTEX
  5
1A6F
  8
LAYER1
  6
CONTINUOUS
 10
388.96938441960879
 20
108.22532632204199
 30
0.0
  0
VERTEX
  5
1A70
  8
LAYER1
  6
CONTINUOUS
 10
389.01770689791681
 20
108.15834163358799
 30
0.0
  0
VERTEX
  5
1A71
  8
LAYER1
  6
CONTINUOUS
 10
389.05911567576948
 20
108.0940947652709
 30
0.0
  0
VERTEX
  5
1A72
  8
LAYER1
  6
CONTINUOUS
 10
389.09692859568793
 20
108.02790545076211
 30
0.0
  0
VERTEX
  5
1A73
  8
LAYER1
  6
CONTINUOUS
 10
389.12942856759759
 20
107.96405039154
 30
0.0
  0
VERTEX
  5
1A74
  8
LAYER1
  6
CONTINUOUS
 10
389.1585874091765
 20
107.898563341388
 30
0.0
  0
VERTEX
  5
1A75
  8
LAYER1
  6
CONTINUOUS
 10
389.18274799522283
 20
107.8347062765949
 30
0.0
  0
VERTEX
  5
1A76
  8
LAYER1
  6
CONTINUOUS
 10
389.20308800728372
 20
107.7695401133651
 30
0.0
  0
VERTEX
  5
1A77
  8
LAYER1
  6
CONTINUOUS
 10
389.21895317885281
 20
107.7052268871721
 30
0.0
  0
VERTEX
  5
1A78
  8
LAYER1
  6
CONTINUOUS
 10
389.23083505890969
 20
107.640060574595
 30
0.0
  0
VERTEX
  5
1A79
  8
LAYER1
  6
CONTINUOUS
 10
389.23855283059652
 20
107.5748813072159
 30
0.0
  0
VERTEX
  5
1A7A
  8
LAYER1
  6
CONTINUOUS
 10
389.24223323295678
 20
107.509349532976
 30
0.0
  0
VERTEX
  5
1A7B
  8
LAYER1
  6
CONTINUOUS
 10
389.24190810797359
 20
107.442923969593
 30
0.0
  0
VERTEX
  5
1A7C
  8
LAYER1
  6
CONTINUOUS
 10
389.23768719832577
 20
107.3766317964089
 30
0.0
  0
VERTEX
  5
1A7D
  8
LAYER1
  6
CONTINUOUS
 10
389.2294769796988
 20
107.3086153739132
 30
0.0
  0
VERTEX
  5
1A7E
  8
LAYER1
  6
CONTINUOUS
 10
389.21760162391661
 20
107.241132172794
 30
0.0
  0
VERTEX
  5
1A7F
  8
LAYER1
  6
CONTINUOUS
 10
389.20156631222949
 20
107.171182900199
 30
0.0
  0
VERTEX
  5
1A80
  8
LAYER1
  6
CONTINUOUS
 10
389.18238117863052
 20
107.102075470031
 30
0.0
  0
VERTEX
  5
1A81
  8
LAYER1
  6
CONTINUOUS
 10
389.15909345641882
 20
107.0299105165021
 30
0.0
  0
VERTEX
  5
1A82
  8
LAYER1
  6
CONTINUOUS
 10
389.1324305313708
 20
106.958686496021
 30
0.0
  0
VERTEX
  5
1A83
  8
LAYER1
  6
CONTINUOUS
 10
389.1005019146728
 20
106.88378228253499
 30
0.0
  0
VERTEX
  5
1A84
  8
LAYER1
  6
CONTINUOUS
 10
389.06815435103567
 20
106.810190058662
 30
0.0
  0
VERTEX
  5
1A85
  8
LAYER1
  6
CONTINUOUS
 10
389.0343505547425
 20
106.732967556433
 30
0.0
  0
VERTEX
  5
1A86
  8
LAYER1
  6
CONTINUOUS
 10
389.00260997208682
 20
106.67500762140899
 30
0.0
  0
VERTEX
  5
1A87
  8
LAYER1
  6
CONTINUOUS
 10
388.98995730652757
 20
106.655810965857
 30
0.0
  0
VERTEX
  5
1A88
  8
LAYER1
  6
CONTINUOUS
 10
388.9274167427206
 20
106.57272898097411
 30
0.0
  0
VERTEX
  5
1A89
  8
LAYER1
  6
CONTINUOUS
 10
388.90681561137268
 20
106.53830451822699
 30
0.0
  0
VERTEX
  5
1A8A
  8
LAYER1
  6
CONTINUOUS
 10
388.89871927775471
 20
106.5128107860702
 30
0.0
  0
VERTEX
  5
1A8B
  8
LAYER1
  6
CONTINUOUS
 10
388.89824406674671
 20
106.494774025504
 30
0.0
  0
SEQEND
  5
1A8C
  8
LAYER1
  6
CONTINUOUS
  0
LINE
  5
170A
  8
LAYER1
  6
CONTINUOUS
 10
390.2645573091998
 20
102.566554227963
 30
0.0
 11
391.4809447310318
 21
96.183257159925105
 31
0.0
  0
LINE
  5
170B
  8
LAYER1
  6
CONTINUOUS
 10
388.67061780989451
 20
108.563966543772
 30
0.0
 11
396.56301062985392
 21
108.5678555558321
 31
0.0
  0
ARC
  5
170C
  8
LAYER2
  6
CONTINUOUS
 10
333.55478056977182
 20
166.09999992395899
 30
0.0
 40
1.0
 50
90.0
 51
180.0
  0
ARC
  5
170D
  8
LAYER2
  6
CONTINUOUS
 10
332.55478056977182
 20
166.09999992395899
 30
0.0
 40
1.0
 50
90.0
 51
180.0
  0
LINE
  5
170E
  8
LAYER4
  6
CONTINUOUS
 10
332.21661248289661
 20
159.09785755205939
 30
0.0
 11
327.4647805697719
 21
157.899999923959
 31
0.0
  0
LINE
  5
170F
  8
LAYER4
  6
CONTINUOUS
 10
327.4647805697719
 20
157.899999923959
 30
0.0
 11
327.4647805697719
 21
153.0699999239591
 31
0.0
  0
LINE
  5
1710
  8
LAYER2
  6
CONTINUOUS
 10
332.21661248289661
 20
161.35816801083419
 30
0.0
 11
331.55478056977182
 21
162.01999992395909
 31
0.0
  0
LINE
  5
1711
  8
LAYER2
  6
CONTINUOUS
 10
331.55478056977182
 20
166.09999992395899
 30
0.0
 11
331.55478056977199
 21
162.01999992395881
 31
0.0
  0
ARC
  5
1712
  8
LAYER2
  6
CONTINUOUS
 10
357.05478056977392
 20
157.67710747620211
 30
0.0
 40
2.0
 50
91.000000000014822
 51
180.00000000001299
  0
ARC
  5
1713
  8
LAYER1
  6
CONTINUOUS
 10
357.05478056977392
 20
157.67710747620211
 30
0.0
 40
1.5
 50
91.000000000014822
 51
180.00000000001299
  0
POLYLINE
  5
1714
  8
LAYER1
  6
CONTINUOUS
 66
     1
 10
0.0
 20
0.0
 30
0.0
  0
VERTEX
  5
1A8D
  8
LAYER1
  6
CONTINUOUS
 10
408.93911688368678
 20
108.59999943101511
 30
0.0
  0
VERTEX
  5
1A8E
  8
LAYER1
  6
CONTINUOUS
 10
408.9590335804748
 20
108.55823380240111
 30
0.0
  0
VERTEX
  5
1A8F
  8
LAYER1
  6
CONTINUOUS
 10
409.0010880392727
 20
108.5135613589671
 30
0.0
  0
VERTEX
  5
1A90
  8
LAYER1
  6
CONTINUOUS
 10
409.0339711811036
 20
108.48854830546711
 30
0.0
  0
VERTEX
  5
1A91
  8
LAYER1
  6
CONTINUOUS
 10
409.1800695590768
 20
108.3955387755731
 30
0.0
  0
VERTEX
  5
1A92
  8
LAYER1
  6
CONTINUOUS
 10
409.2641283441867
 20
108.325470141178
 30
0.0
  0
VERTEX
  5
1A93
  8
LAYER1
  6
CONTINUOUS
 10
409.29007983129151
 20
108.2995268990321
 30
0.0
  0
VERTEX
  5
1A94
  8
LAYER1
  6
CONTINUOUS
 10
409.38324156700281
 20
108.1940547223419
 30
0.0
  0
VERTEX
  5
1A95
  8
LAYER1
  6
CONTINUOUS
 10
409.46819834816068
 20
108.0959004293521
 30
0.0
  0
VERTEX
  5
1A96
  8
LAYER1
  6
CONTINUOUS
 10
409.55150961233051
 20
107.995088844102
 30
0.0
  0
VERTEX
  5
1A97
  8
LAYER1
  6
CONTINUOUS
 10
409.62245743260178
 20
107.898492742023
 30
0.0
  0
VERTEX
  5
1A98
  8
LAYER1
  6
CONTINUOUS
 10
409.68775039992448
 20
107.7981827136371
 30
0.0
  0
VERTEX
  5
1A99
  8
LAYER1
  6
CONTINUOUS
 10
409.74380045994081
 20
107.7019127721541
 30
0.0
  0
VERTEX
  5
1A9A
  8
LAYER1
  6
CONTINUOUS
 10
409.79484063465168
 20
107.6028779037299
 30
0.0
  0
VERTEX
  5
1A9B
  8
LAYER1
  6
CONTINUOUS
 10
409.83787156822558
 20
107.506887144084
 30
0.0
  0
VERTEX
  5
1A9C
  8
LAYER1
  6
CONTINUOUS
 10
409.87565702137653
 20
107.4087159871621
 30
0.0
  0
VERTEX
  5
1A9D
  8
LAYER1
  6
CONTINUOUS
 10
409.90686437428047
 20
107.31271721438399
 30
0.0
  0
VERTEX
  5
1A9E
  8
LAYER1
  6
CONTINUOUS
 10
409.93307626496681
 20
107.2152385367171
 30
0.0
  0
VERTEX
  5
1A9F
  8
LAYER1
  6
CONTINUOUS
 10
409.9538263560766
 20
107.1190525197521
 30
0.0
  0
VERTEX
  5
1AA0
  8
LAYER1
  6
CONTINUOUS
 10
409.96997507028681
 20
107.021987125176
 30
0.0
  0
VERTEX
  5
1AA1
  8
LAYER1
  6
CONTINUOUS
 10
409.98160788831842
 20
106.925443594782
 30
0.0
  0
VERTEX
  5
1AA2
  8
LAYER1
  6
CONTINUOUS
 10
409.98923014220162
 20
106.828503325323
 30
0.0
  0
VERTEX
  5
1AA3
  8
LAYER1
  6
CONTINUOUS
 10
409.99315585656598
 20
106.73146060238599
 30
0.0
  0
VERTEX
  5
1AA4
  8
LAYER1
  6
CONTINUOUS
 10
409.9937181855783
 20
106.6343287099412
 30
0.0
  0
VERTEX
  5
1AA5
  8
LAYER1
  6
CONTINUOUS
 10
409.9912602279428
 20
106.5365955737611
 30
0.0
  0
VERTEX
  5
1AA6
  8
LAYER1
  6
CONTINUOUS
 10
409.98631590528248
 20
106.43900485181121
 30
0.0
  0
VERTEX
  5
1AA7
  8
LAYER1
  6
CONTINUOUS
 10
409.9792374810458
 20
106.340546076142
 30
0.0
  0
VERTEX
  5
1AA8
  8
LAYER1
  6
CONTINUOUS
 10
409.96990000618081
 20
106.242073323716
 30
0.0
  0
VERTEX
  5
1AA9
  8
LAYER1
  6
CONTINUOUS
 10
409.95838071741463
 20
106.1421934952569
 30
0.0
  0
VERTEX
  5
1AAA
  8
LAYER1
  6
CONTINUOUS
 10
409.9473471931363
 20
106.043075698439
 30
0.0
  0
VERTEX
  5
1AAB
  8
LAYER1
  6
CONTINUOUS
 10
409.93763810840159
 20
105.9435072496901
 30
0.0
  0
VERTEX
  5
1AAC
  8
LAYER1
  6
CONTINUOUS
 10
409.92153417101753
 20
105.841553548763
 30
0.0
  0
VERTEX
  5
1AAD
  8
LAYER1
  6
CONTINUOUS
 10
409.8967484452495
 20
105.734685428178
 30
0.0
  0
VERTEX
  5
1AAE
  8
LAYER1
  6
CONTINUOUS
 10
409.89060408645651
 20
105.667810835626
 30
0.0
  0
VERTEX
  5
1AAF
  8
LAYER1
  6
CONTINUOUS
 10
409.8953376446886
 20
105.63704844746999
 30
0.0
  0
SEQEND
  5
1AB0
  8
LAYER1
  6
CONTINUOUS
  0
LINE
  5
1739
  8
LAYER1
  6
CONTINUOUS
 10
408.93911688368678
 20
108.59999943101511
 30
0.0
 11
417.57891432734652
 21
108.59999943101511
 31
0.0
  0
LINE
  5
173A
  8
LAYER2
  6
CONTINUOUS
 10
438.55478056977182
 20
167.09999992395899
 30
0.0
 11
438.55478056977182
 21
161.09999992395819
 31
0.0
  0
LINE
  5
173B
  8
LAYER1
  6
CONTINUOUS
 10
438.55478056977182
 20
178.04763472917401
 30
0.0
 11
438.55478056977182
 21
160.5999999239591
 31
0.0
  0
LINE
  5
173C
  8
LAYER1
  6
DASHDOT
 10
433.85478056977172
 20
159.71944765281401
 30
0.0
 11
433.85478056977172
 21
155.994731801005
 31
0.0
  0
CIRCLE
  5
173D
  8
LAYER1
  6
CONTINUOUS
 10
433.85478056977172
 20
157.89999992395909
 30
0.0
 40
1.04
  0
LINE
  5
173E
  8
LAYER1
  6
DASHDOT
 10
431.89569229583662
 20
157.89999992395909
 30
0.0
 11
435.8581559679734
 21
157.89999992395909
 31
0.0
  0
LINE
  5
173F
  8
LAYER1
  6
CONTINUOUS
 10
441.55478056977182
 20
178.09999992395899
 30
0.0
 11
438.55523748430272
 21
178.0476427046471
 31
0.0
  0
ARC
  5
1740
  8
LAYER5
 10
255.50485095322651
 20
8.3499999239592171
 30
0.0
 40
8.3499999999999979
 50
180.0
 51
0.0
  0
CIRCLE
  5
1741
  8
LAYER5
 10
255.50485095322651
 20
8.3499999239592171
 30
0.0
 40
7.25
  0
CIRCLE
  5
1742
  8
LAYER5
 10
255.50485095322651
 20
22.84999992395921
 30
0.0
 40
7.25
  0
LINE
  5
1743
  8
LAYER5
 10
247.1548509532264
 20
30.09999992395921
 30
0.0
 11
247.1548509532264
 21
8.3499999239592171
 31
0.0
  0
LINE
  5
1744
  8
LAYER5
 10
248.25485095322639
 20
30.09999992395921
 30
0.0
 11
248.25485095322639
 21
8.3499999239592171
 31
0.0
  0
LINE
  5
1745
  8
LAYER5
 10
263.85485095322639
 20
31.728152612735371
 30
0.0
 11
263.85485095322639
 21
8.3499999239592171
 31
0.0
  0
LINE
  5
1746
  8
LAYER5
 10
262.75485095322631
 20
31.728152612735322
 30
-0.0000000000000018
 11
262.75485095322631
 21
8.3499999239592171
 31
0.0
  0
ARC
  5
1747
  8
LAYER5
 10
255.50485095322651
 20
31.728152612735322
 30
-0.0000000000000018
 40
7.25
 50
0.0
 51
33.92896203184187
  0
ARC
  5
1748
  8
LAYER5
 10
255.1048509532267
 20
31.728152612735371
 30
0.0
 40
8.7499999999998295
 50
359.9999999999996
 51
27.547204112932729
  0
POLYLINE
  5
1749
  8
LAYER5
 66
     1
 10
0.0
 20
0.0
 30
0.0
  0
VERTEX
  5
1AB1
  8
LAYER5
 10
381.55478056977182
 20
15.599999923959199
 30
0.0
  0
VERTEX
  5
1AB2
  8
LAYER5
 10
412.05478056977188
 20
15.59999992395921
 30
0.0
  0
SEQEND
  5
1AB3
  8
LAYER5
  0
ARC
  5
174D
  8
LAYER5
 10
372.05478056977182
 20
29.09999992395921
 30
0.0
 40
1.5
 50
270.0
 51
0.0
  0
LINE
  5
174E
  8
LAYER5
 10
372.05478056977182
 20
27.59999992395921
 30
0.0
 11
370.55478056977182
 21
27.59999992395921
 31
0.0
  0
LINE
  5
174F
  8
LAYER5
 10
370.55478056977182
 20
16.09999992395921
 30
0.0
 11
370.55478056977182
 21
27.59999992395921
 31
0.0
  0
POLYLINE
  5
1750
  8
LAYER5
 66
     1
 10
0.0
 20
0.0
 30
0.0
 70
     1
  0
VERTEX
  5
1AB4
  8
LAYER5
 10
361.35478056977172
 20
30.09999992395921
 30
0.0
  0
VERTEX
  5
1AB5
  8
LAYER5
 10
366.85478056977172
 20
30.09999992395921
 30
0.0
  0
VERTEX
  5
1AB6
  8
LAYER5
 10
366.85478056977172
 20
26.979999923959209
 30
0.0
  0
VERTEX
  5
1AB7
  8
LAYER5
 10
361.35478056977172
 20
26.979999923959209
 30
0.0
  0
SEQEND
  5
1AB8
  8
LAYER5
  0
POLYLINE
  5
1756
  8
LAYER5
 66
     1
 10
0.0
 20
0.0
 30
0.0
 70
     1
  0
VERTEX
  5
1AB9
  8
LAYER5
 10
351.35478056977172
 20
30.09999992395921
 30
0.0
  0
VERTEX
  5
1ABA
  8
LAYER5
 10
356.85478056977172
 20
30.09999992395921
 30
0.0
  0
VERTEX
  5
1ABB
  8
LAYER5
 10
356.85478056977172
 20
26.979999923959209
 30
0.0
  0
VERTEX
  5
1ABC
  8
LAYER5
 10
351.35478056977172
 20
26.979999923959209
 30
0.0
  0
SEQEND
  5
1ABD
  8
LAYER5
  0
LINE
  5
175C
  8
LAYER5
 10
352.35478056977172
 20
25.979999923959191
 30
0.0
 11
352.35478056977172
 21
26.979999923959209
 31
0.0
  0
LINE
  5
175D
  8
LAYER5
 10
353.35478056977172
 20
26.479999923959209
 30
0.0
 11
353.35478056977172
 21
26.979999923959209
 31
0.0
  0
ARC
  5
175E
  8
LAYER5
 10
353.85478056977172
 20
26.479999923959209
 30
0.0
 40
0.5
 50
180.0
 51
260.40593177314162
  0
LINE
  5
175F
  8
LAYER5
 10
353.60478056977172
 20
24.500979978184262
 30
0.0
 11
353.60478056977172
 21
17.59999992395921
 31
0.0
  0
LINE
  5
1760
  8
LAYER5
 10
354.60478056977172
 20
25.000979978184318
 30
0.0
 11
354.60478056977172
 21
17.59999992395916
 31
0.0
  0
ARC
  5
1761
  8
LAYER5
 10
353.35478056977172
 20
25.979999923959191
 30
0.0
 40
1.0
 50
179.99999999999821
 51
260.40593177313832
  0
ARC
  5
1762
  8
LAYER5
 10
353.10478056977172
 20
24.500979978184262
 30
0.0
 40
0.5
 50
0.0
 51
80.405931773148339
  0
ARC
  5
1763
  8
LAYER5
 10
353.60478056977161
 20
25.000979978184318
 30
0.0
 40
1.0
 50
0.0
 51
80.405931773135293
  0
LINE
  5
1764
  8
LAYER5
 10
355.85478056977172
 20
25.979999923959191
 30
0.0
 11
355.85478056977172
 21
26.979999923959209
 31
0.0
  0
LINE
  5
1765
  8
LAYER5
 10
354.85478056977172
 20
26.479999923959209
 30
0.0
 11
354.85478056977172
 21
26.979999923959209
 31
0.0
  0
ARC
  5
1766
  8
LAYER5
 10
354.35478056977172
 20
26.479999923959209
 30
0.0
 40
0.5
 50
279.5940682268581
 51
0.0
  0
ARC
  5
1767
  8
LAYER5
 10
354.85478056977172
 20
25.979999923959191
 30
0.0
 40
1.0
 50
279.59406822686151
 51
0.0000000000016284
  0
ARC
  5
1768
  8
LAYER5
 10
355.10478056977161
 20
24.500979978184262
 30
0.0
 40
0.5
 50
99.594068226851689
 51
180.0
  0
ARC
  5
1769
  8
LAYER5
 10
354.60478056977172
 20
25.000979978184318
 30
0.0
 40
1.0
 50
99.594068226864664
 51
120.0000000000036
  0
LINE
  5
176A
  8
LAYER5
 10
355.10478056977172
 20
16.09999992395921
 30
0.0
 11
373.55478056977182
 21
16.09999992395921
 31
0.0
  0
LINE
  5
176B
  8
LAYER5
 10
355.10478056977172
 20
17.099999923959199
 30
0.0
 11
370.55478056977182
 21
17.099999923959199
 31
0.0
  0
ARC
  5
176C
  8
LAYER5
 10
355.10478056977161
 20
17.59999992395916
 30
0.0
 40
0.5
 50
179.99999999999659
 51
270.00000000000648
  0
ARC
  5
176D
  8
LAYER5
 10
355.10478056977172
 20
17.59999992395921
 30
0.0
 40
1.5
 50
180.0000000000004
 51
269.99999999999773
  0
POLYLINE
  5
176E
  8
LAYER5
 66
     1
 10
0.0
 20
0.0
 30
0.0
  0
VERTEX
  5
1ABE
  8
LAYER5
 10
381.55478056977182
 20
1.099999923959202
 30
0.0
  0
VERTEX
  5
1ABF
  8
LAYER5
 10
412.05478056977188
 20
1.0999999239592171
 30
0.0
  0
SEQEND
  5
1AC0
  8
LAYER5
  0
ARC
  5
1772
  8
LAYER5
 10
372.05478056977182
 20
14.599999923959199
 30
0.0
 40
1.5
 50
270.0
 51
0.0
  0
LINE
  5
1773
  8
LAYER5
 10
372.05478056977182
 20
13.09999992395921
 30
0.0
 11
370.55478056977182
 21
13.09999992395921
 31
0.0
  0
LINE
  5
1774
  8
LAYER5
 10
370.55478056977182
 20
1.5999999239592171
 30
0.0
 11
370.55478056977182
 21
13.09999992395921
 31
0.0
  0
LINE
  5
1775
  8
LAYER5
 10
365.10478056977172
 20
1.5999999239592171
 30
0.0
 11
373.55478056977182
 21
1.5999999239592171
 31
0.0
  0
LINE
  5
1776
  8
LAYER5
 10
365.10478056977172
 20
2.5999999239591589
 30
0.0
 11
370.55478056977182
 21
2.5999999239592162
 31
0.0
  0
LINE
  5
1777
  8
LAYER5
 10
362.35478056977172
 20
25.979999923959191
 30
0.0
 11
362.35478056977172
 21
26.979999923959209
 31
0.0
  0
LINE
  5
1778
  8
LAYER5
 10
363.35478056977172
 20
26.479999923959209
 30
0.0
 11
363.35478056977172
 21
26.979999923959209
 31
0.0
  0
ARC
  5
1779
  8
LAYER5
 10
363.85478056977172
 20
26.479999923959209
 30
0.0
 40
0.5
 50
180.0
 51
260.40593177314162
  0
LINE
  5
177A
  8
LAYER5
 10
363.60478056977172
 20
24.500979978184262
 30
0.0
 11
363.60478056977172
 21
17.099999923959199
 31
0.0
  0
LINE
  5
177B
  8
LAYER5
 10
364.60478056977172
 20
25.000979978184318
 30
0.0
 11
364.60478056977172
 21
17.099999923959199
 31
0.0
  0
ARC
  5
177C
  8
LAYER5
 10
363.35478056977172
 20
25.979999923959191
 30
0.0
 40
1.0
 50
179.99999999999821
 51
260.40593177313832
  0
ARC
  5
177D
  8
LAYER5
 10
363.10478056977172
 20
24.500979978184262
 30
0.0
 40
0.5
 50
0.0
 51
80.405931773148339
  0
ARC
  5
177E
  8
LAYER5
 10
363.60478056977172
 20
25.000979978184318
 30
0.0
 40
1.0
 50
0.0
 51
80.405931773135293
  0
LINE
  5
177F
  8
LAYER5
 10
365.85478056977172
 20
25.979999923959191
 30
0.0
 11
365.85478056977172
 21
26.979999923959209
 31
0.0
  0
LINE
  5
1780
  8
LAYER5
 10
364.85478056977172
 20
26.479999923959209
 30
0.0
 11
364.85478056977172
 21
26.979999923959209
 31
0.0
  0
ARC
  5
1781
  8
LAYER5
 10
364.35478056977172
 20
26.479999923959209
 30
0.0
 40
0.5
 50
279.5940682268581
 51
0.0
  0
ARC
  5
1782
  8
LAYER5
 10
364.85478056977172
 20
25.979999923959191
 30
0.0
 40
1.0
 50
279.59406822686151
 51
0.0000000000016284
  0
ARC
  5
1783
  8
LAYER5
 10
365.10478056977172
 20
24.500979978184262
 30
0.0
 40
0.5
 50
99.594068226851689
 51
180.0
  0
ARC
  5
1784
  8
LAYER5
 10
364.60478056977172
 20
25.000979978184318
 30
0.0
 40
1.0
 50
99.594068226864664
 51
120.0000000000036
  0
ARC
  5
1785
  8
LAYER5
 10
365.10478056977172
 20
3.0999999239591589
 30
0.0
 40
0.5
 50
179.99999999999659
 51
270.00000000000648
  0
ARC
  5
1786
  8
LAYER5
 10
365.10478056977172
 20
3.0999999239592162
 30
0.0
 40
1.5
 50
180.0000000000004
 51
269.99999999999773
  0
LINE
  5
1787
  8
LAYER5
 10
364.60478056977172
 20
16.09999992395921
 30
0.0
 11
364.60478056977172
 21
3.0999999239592162
 31
0.0
  0
LINE
  5
1788
  8
LAYER5
 10
363.60478056977172
 20
16.09999992395921
 30
0.0
 11
363.60478056977172
 21
3.0999999239592162
 31
0.0
  0
LINE
  5
1789
  8
LAYER5
 10
263.46709275487899
 20
39.274845923959191
 30
0.0
 11
260.34260915157381
 21
39.274845923959191
 31
0.0
  0
LINE
  5
178A
  8
LAYER5
 10
264.30485095322649
 20
35.774845923959198
 30
0.0
 11
264.30485095322649
 21
36.274845923959198
 31
0.0
  0
LINE
  5
178B
  8
LAYER5
 10
264.30485095322649
 20
36.274845923959198
 30
0.0
 11
263.9627067052204
 21
38.840927784004677
 31
0.0
  0
LINE
  5
178C
  8
LAYER5
 10
259.50485095322648
 20
36.274845923959198
 30
0.0
 11
259.8469952012324
 21
38.840927784004677
 31
0.0
  0
ARC
  5
178D
  8
LAYER5
 10
263.46709275487899
 20
38.774845923959091
 30
0.0
 40
0.5
 50
7.5946433685986472
 51
89.999999999993477
  0
ARC
  5
178E
  8
LAYER5
 10
260.34260915157381
 20
38.774845923959091
 30
0.0
 40
0.5
 50
89.999999999993477
 51
172.4053566313992
  0
LINE
  5
178F
  8
LAYER5
 10
259.50485095322648
 20
35.774845923959198
 30
0.0
 11
264.30485095322649
 21
35.774845923959198
 31
0.0
  0
LINE
  5
1790
  8
LAYER5
 10
377.9047805697719
 20
36.274845923959198
 30
0.0
 11
378.24692481777771
 21
38.840927784004677
 31
0.0
  0
ARC
  5
1791
  8
LAYER5
 10
378.74253876811912
 20
38.774845923959091
 30
0.0
 40
0.5
 50
89.999999999993477
 51
172.4053566313992
  0
LINE
  5
1792
  8
LAYER5
 10
382.7047805697718
 20
35.774845923959198
 30
0.0
 11
382.7047805697718
 21
36.274845923959198
 31
0.0
  0
LINE
  5
1793
  8
LAYER5
 10
382.7047805697718
 20
36.274845923959198
 30
0.0
 11
382.36263632176559
 21
38.840927784004677
 31
0.0
  0
ARC
  5
1794
  8
LAYER5
 10
381.86702237142441
 20
38.774845923959091
 30
0.0
 40
0.5
 50
7.5946433685986472
 51
89.999999999993477
  0
LINE
  5
1795
  8
LAYER5
 10
382.7047805697718
 20
35.774845923959198
 30
0.0
 11
377.9047805697719
 21
35.774845923959198
 31
0.0
  0
LINE
  5
1796
  8
LAYER5
 10
377.9047805697719
 20
35.774845923959198
 30
0.0
 11
377.9047805697719
 21
36.274845923959198
 31
0.0
  0
LINE
  5
1797
  8
LAYER5
 10
378.74253876811912
 20
39.274845923959091
 30
0.0
 11
381.86702237142441
 21
39.274845923959091
 31
0.0
  0
POLYLINE
  5
1798
  8
LAYER5
 66
     1
 10
0.0
 20
0.0
 30
0.0
 70
     1
  0
VERTEX
  5
1AC1
  8
LAYER5
 10
379.05478056977182
 20
35.774845923959198
 30
0.0
  0
VERTEX
  5
1AC2
  8
LAYER5
 10
381.55478056977182
 20
35.774845923959198
 30
0.0
  0
VERTEX
  5
1AC3
  8
LAYER5
 10
381.55478056977182
 20
-0.0000000760407914
 30
0.0
  0
VERTEX
  5
1AC4
  8
LAYER5
 10
379.05478056977182
 20
-0.0000000760407914
 30
0.0
  0
SEQEND
  5
1AC5
  8
LAYER5
  0
POLYLINE
  5
179E
  8
LAYER5
 66
     1
 10
0.0
 20
0.0
 30
0.0
  0
VERTEX
  5
1AC6
  8
LAYER5
 10
379.05478056977182
 20
15.599999923959199
 30
0.0
  0
VERTEX
  5
1AC7
  8
LAYER5
 10
374.05478056977182
 20
15.599999923959199
 30
0.0
 42
0.4142135623730951
  0
VERTEX
  5
1AC8
  8
LAYER5
 10
373.55478056977182
 20
15.099999923959199
 30
0.0
  0
VERTEX
  5
1AC9
  8
LAYER5
 10
373.55478056977182
 20
1.5999999239592011
 30
0.0
 42
0.4142135623730951
  0
VERTEX
  5
1ACA
  8
LAYER5
 10
374.05478056977182
 20
1.099999923959202
 30
0.0
  0
VERTEX
  5
1ACB
  8
LAYER5
 10
379.05478056977182
 20
1.099999923959202
 30
0.0
  0
SEQEND
  5
1ACC
  8
LAYER5
  0
LINE
  5
17A6
  8
LAYER5
 10
410.90478056977167
 20
36.274845923959198
 30
0.0
 11
411.24692481777771
 21
38.840927784004677
 31
0.0
  0
ARC
  5
17A7
  8
LAYER5
 10
411.74253876811912
 20
38.774845923959091
 30
0.0
 40
0.5
 50
89.999999999993477
 51
172.4053566313992
  0
LINE
  5
17A8
  8
LAYER5
 10
415.70478056977169
 20
35.774845923959198
 30
0.0
 11
415.70478056977169
 21
36.274845923959198
 31
0.0
  0
LINE
  5
17A9
  8
LAYER5
 10
415.70478056977169
 20
36.274845923959198
 30
0.0
 11
415.36263632176548
 21
38.840927784004677
 31
0.0
  0
ARC
  5
17AA
  8
LAYER5
 10
414.86702237142441
 20
38.774845923959091
 30
0.0
 40
0.5
 50
7.5946433685986472
 51
89.999999999993477
  0
LINE
  5
17AB
  8
LAYER5
 10
415.70478056977169
 20
35.774845923959198
 30
0.0
 11
410.90478056977167
 21
35.774845923959198
 31
0.0
  0
LINE
  5
17AC
  8
LAYER5
 10
410.90478056977167
 20
35.774845923959198
 30
0.0
 11
410.90478056977167
 21
36.274845923959198
 31
0.0
  0
LINE
  5
17AD
  8
LAYER5
 10
411.74253876811912
 20
39.274845923959091
 30
0.0
 11
414.86702237142441
 21
39.274845923959091
 31
0.0
  0
POLYLINE
  5
17AE
  8
LAYER5
 66
     1
 10
0.0
 20
0.0
 30
0.0
 70
     1
  0
VERTEX
  5
1ACD
  8
LAYER5
 10
412.05478056977188
 20
35.774845923959198
 30
0.0
  0
VERTEX
  5
1ACE
  8
LAYER5
 10
414.55478056977159
 20
35.774845923959198
 30
0.0
  0
VERTEX
  5
1ACF
  8
LAYER5
 10
414.55478056977159
 20
-0.0000000760407914
 30
0.0
  0
VERTEX
  5
1AD0
  8
LAYER5
 10
412.05478056977188
 20
-0.0000000760407914
 30
0.0
  0
SEQEND
  5
1AD1
  8
LAYER5
  0
POLYLINE
  5
17B4
  8
LAYER5
 66
     1
 10
0.0
 20
0.0
 30
0.0
  0
VERTEX
  5
1AD2
  8
LAYER5
 10
414.55478056977159
 20
1.0999999239592171
 30
0.0
  0
VERTEX
  5
1AD3
  8
LAYER5
 10
420.05478056977188
 20
1.0999999239592171
 30
0.0
 42
0.4142135623730951
  0
VERTEX
  5
1AD4
  8
LAYER5
 10
420.55478056977188
 20
1.5999999239592171
 30
0.0
  0
VERTEX
  5
1AD5
  8
LAYER5
 10
420.55478056977188
 20
15.09999992395921
 30
0.0
 42
0.4142135623730951
  0
VERTEX
  5
1AD6
  8
LAYER5
 10
420.05478056977188
 20
15.59999992395921
 30
0.0
  0
VERTEX
  5
1AD7
  8
LAYER5
 10
414.55478056977159
 20
15.59999992395921
 30
0.0
  0
SEQEND
  5
1AD8
  8
LAYER5
  0
POLYLINE
  5
17BC
  8
LAYER5
 66
     1
 10
0.0
 20
0.0
 30
0.0
  0
VERTEX
  5
1AD9
  8
LAYER5
 10
412.05478056977188
 20
15.59999992395921
 30
0.0
  0
VERTEX
  5
1ADA
  8
LAYER5
 10
381.55478056977182
 20
15.599999923959199
 30
0.0
  0
SEQEND
  5
1ADB
  8
LAYER5
  0
POLYLINE
  5
17C0
  8
LAYER5
 66
     1
 10
0.0
 20
0.0
 30
0.0
  0
VERTEX
  5
1ADC
  8
LAYER5
 10
414.55478056977159
 20
15.59999992395921
 30
0.0
  0
VERTEX
  5
1ADD
  8
LAYER5
 10
420.05478056977188
 20
15.59999992395921
 30
0.0
 42
0.4142135623730951
  0
VERTEX
  5
1ADE
  8
LAYER5
 10
420.55478056977188
 20
16.09999992395921
 30
0.0
  0
VERTEX
  5
1ADF
  8
LAYER5
 10
420.55478056977188
 20
29.59999992395921
 30
0.0
 42
0.4142135623730951
  0
VERTEX
  5
1AE0
  8
LAYER5
 10
420.05478056977188
 20
30.09999992395921
 30
0.0
  0
VERTEX
  5
1AE1
  8
LAYER5
 10
414.55478056977159
 20
30.09999992395921
 30
0.0
  0
SEQEND
  5
1AE2
  8
LAYER5
  0
LINE
  5
17DF
  8
LAYER1
  6
CONTINUOUS
 10
216.55721614801121
 20
176.59999992395899
 30
0.0
 11
216.55721614801121
 21
166.4193559571649
 31
0.0
  0
LINE
  5
17E0
  8
LAYER1
  6
CONTINUOUS
 10
216.50485095322651
 20
176.59999992395899
 30
0.0
 11
216.50485095322639
 21
20.599999609800172
 31
0.0
  0
POLYLINE
  5
17E1
  8
LAYER5
 66
     1
 10
0.0
 20
0.0
 30
0.0
  0
VERTEX
  5
1AE3
  8
LAYER5
 10
379.05478056977182
 20
30.099999923959182
 30
0.0
  0
VERTEX
  5
1AE4
  8
LAYER5
 10
374.05478056977182
 20
30.099999923959182
 30
0.0
 42
0.4142135623730951
  0
VERTEX
  5
1AE5
  8
LAYER5
 10
373.55478056977182
 20
29.59999992395921
 30
0.0
  0
VERTEX
  5
1AE6
  8
LAYER5
 10
373.55478056977182
 20
16.099999923959199
 30
0.0
 42
0.4142135623730951
  0
VERTEX
  5
1AE7
  8
LAYER5
 10
374.05478056977182
 20
15.599999923959199
 30
0.0
  0
VERTEX
  5
1AE8
  8
LAYER5
 10
379.05478056977182
 20
15.599999923959199
 30
0.0
  0
SEQEND
  5
1AE9
  8
LAYER5
  0
LINE
  5
17E9
  8
LAYER2
  6
CONTINUOUS
 10
381.55478056977182
 20
30.09999992395921
 30
0.0
 11
412.05478056977188
 21
30.09999992395921
 31
0.0
  0
LINE
  5
17EA
  8
LAYER2
  6
CONTINUOUS
 10
414.55478056977159
 20
30.09999992395921
 30
0.0
 11
438.55478056977182
 21
30.09999992395921
 31
0.0
  0
POLYLINE
  5
17EB
  8
LAYER5
 66
     1
 10
0.0
 20
0.0
 30
0.0
  0
VERTEX
  5
1AEA
  8
LAYER5
 10
412.05478056977188
 20
30.09999992395921
 30
0.0
  0
VERTEX
  5
1AEB
  8
LAYER5
 10
381.55478056977182
 20
30.099999923959182
 30
0.0
  0
SEQEND
  5
1AEC
  8
LAYER5
  0
LINE
  5
17F1
  8
LAYER4
 10
330.54478056977172
 20
46.264999923959202
 30
0.0
 11
330.54478056977172
 21
63.6649999239593
 31
0.0
  0
LINE
  5
17F2
  8
LAYER4
 10
332.21661248289661
 20
45.264999923959181
 30
0.0
 11
331.54478056977172
 21
45.264999923959181
 31
0.0
  0
LINE
  5
17F3
  8
LAYER4
 10
332.21661248289661
 20
43.344999923959293
 30
0.0
 11
331.05478056977182
 21
43.344999923959371
 31
0.0
  0
LINE
  5
17F4
  8
LAYER4
 10
332.21661248289661
 20
44.344999923959179
 30
0.0
 11
329.74478056977182
 21
44.344999923959087
 31
0.0
  0
LINE
  5
17F5
  8
LAYER4
 10
329.74478056977182
 20
44.344999923959087
 30
0.0
 11
329.74478056977182
 21
43.344999923959087
 31
0.0
  0
LINE
  5
17F6
  8
LAYER4
 10
331.05478056977182
 20
43.344999923959371
 30
0.0
 11
331.05478056977182
 21
42.344999923959378
 31
0.0
  0
LINE
  5
17F7
  8
LAYER4
 10
329.74478056977182
 20
43.344999923959087
 30
0.0
 11
331.05478056977182
 21
42.344999923959378
 31
0.0
  0
ARC
  5
17F8
  8
LAYER4
 10
331.54478056977172
 20
46.264999923959088
 30
0.0
 40
1.0
 50
180.0
 51
270.0
  0
ARC
  5
17F9
  8
LAYER4
 10
331.54478056977172
 20
63.664999923959193
 30
0.0
 40
1.0
 50
90.0
 51
180.0
  0
LINE
  5
17FA
  8
LAYER4
 10
332.21661248289661
 20
64.6649999239593
 30
0.0
 11
331.54478056977172
 21
64.6649999239593
 31
0.0
  0
LINE
  5
17FB
  8
LAYER4
 10
332.21661248289661
 20
66.584999923959089
 30
0.0
 11
331.05478056977199
 21
66.584999923959089
 31
0.0
  0
LINE
  5
17FC
  8
LAYER4
 10
332.21661248289661
 20
65.584999923959202
 30
0.0
 11
329.74478056977182
 21
65.584999923959373
 31
0.0
  0
LINE
  5
17FD
  8
LAYER4
 10
329.74478056977182
 20
65.584999923959373
 30
0.0
 11
329.74478056977182
 21
66.584999923959373
 31
0.0
  0
LINE
  5
17FE
  8
LAYER4
 10
331.05478056977199
 20
66.584999923959089
 30
0.0
 11
331.05478056977199
 21
67.584999923959089
 31
0.0
  0
LINE
  5
17FF
  8
LAYER4
 10
329.74478056977182
 20
66.584999923959373
 30
0.0
 11
331.05478056977199
 21
67.584999923959089
 31
0.0
  0
POLYLINE
  5
1800
  8
LAYER5
 66
     1
 10
0.0
 20
0.0
 30
0.0
  0
VERTEX
  5
1AED
  8
LAYER5
 10
59.999542835626137
 20
15.599999923959199
 30
0.0
  0
VERTEX
  5
1AEE
  8
LAYER5
 10
29.49954283562613
 20
15.59999992395921
 30
0.0
  0
SEQEND
  5
1AEF
  8
LAYER5
  0
ARC
  5
1804
  8
LAYER5
 10
69.49954283562613
 20
29.09999992395921
 30
0.0
 40
1.5
 50
180.0
 51
270.0
  0
LINE
  5
1805
  8
LAYER5
 10
69.49954283562613
 20
27.59999992395921
 30
0.0
 11
70.99954283562613
 21
27.59999992395921
 31
0.0
  0
LINE
  5
1806
  8
LAYER5
 10
70.99954283562613
 20
16.09999992395921
 30
0.0
 11
70.99954283562613
 21
27.59999992395921
 31
0.0
  0
POLYLINE
  5
1807
  8
LAYER5
 66
     1
 10
0.0
 20
0.0
 30
0.0
 70
     1
  0
VERTEX
  5
1AF0
  8
LAYER5
 10
80.199542835626175
 20
30.09999992395921
 30
0.0
  0
VERTEX
  5
1AF1
  8
LAYER5
 10
74.69954283562619
 20
30.09999992395921
 30
0.0
  0
VERTEX
  5
1AF2
  8
LAYER5
 10
74.69954283562619
 20
26.979999923959209
 30
0.0
  0
VERTEX
  5
1AF3
  8
LAYER5
 10
80.199542835626175
 20
26.979999923959209
 30
0.0
  0
SEQEND
  5
1AF4
  8
LAYER5
  0
POLYLINE
  5
180D
  8
LAYER5
 66
     1
 10
0.0
 20
0.0
 30
0.0
 70
     1
  0
VERTEX
  5
1AF5
  8
LAYER5
 10
90.199542835626175
 20
30.09999992395921
 30
0.0
  0
VERTEX
  5
1AF6
  8
LAYER5
 10
84.699542835626204
 20
30.09999992395921
 30
0.0
  0
VERTEX
  5
1AF7
  8
LAYER5
 10
84.699542835626204
 20
26.979999923959209
 30
0.0
  0
VERTEX
  5
1AF8
  8
LAYER5
 10
90.199542835626175
 20
26.979999923959209
 30
0.0
  0
SEQEND
  5
1AF9
  8
LAYER5
  0
LINE
  5
1813
  8
LAYER5
 10
89.199542835626175
 20
25.979999923959191
 30
0.0
 11
89.199542835626175
 21
26.979999923959209
 31
0.0
  0
LINE
  5
1814
  8
LAYER5
 10
88.199542835626175
 20
26.479999923959209
 30
0.0
 11
88.199542835626175
 21
26.979999923959209
 31
0.0
  0
ARC
  5
1815
  8
LAYER5
 10
87.699542835626175
 20
26.479999923959209
 30
0.0
 40
0.5
 50
279.5940682268581
 51
0.0
  0
LINE
  5
1816
  8
LAYER5
 10
87.949542835626175
 20
24.500979978184262
 30
0.0
 11
87.949542835626175
 21
17.59999992395921
 31
0.0
  0
LINE
  5
1817
  8
LAYER5
 10
86.949542835626175
 20
25.000979978184318
 30
0.0
 11
86.949542835626175
 21
17.59999992395916
 31
0.0
  0
ARC
  5
1818
  8
LAYER5
 10
88.199542835626175
 20
25.979999923959191
 30
0.0
 40
1.0
 50
279.59406822686151
 51
0.0000000000016284
  0
ARC
  5
1819
  8
LAYER5
 10
88.449542835626119
 20
24.500979978184262
 30
0.0
 40
0.5
 50
99.594068226851689
 51
180.0
  0
ARC
  5
181A
  8
LAYER5
 10
87.949542835626204
 20
25.000979978184318
 30
0.0
 40
1.0
 50
99.594068226864664
 51
180.0
  0
LINE
  5
181B
  8
LAYER5
 10
85.69954283562619
 20
25.979999923959191
 30
0.0
 11
85.69954283562619
 21
26.979999923959209
 31
0.0
  0
LINE
  5
181C
  8
LAYER5
 10
86.699542835626175
 20
26.479999923959209
 30
0.0
 11
86.699542835626175
 21
26.979999923959209
 31
0.0
  0
ARC
  5
181D
  8
LAYER5
 10
87.199542835626175
 20
26.479999923959209
 30
0.0
 40
0.5
 50
180.0
 51
260.40593177314162
  0
ARC
  5
181E
  8
LAYER5
 10
86.699542835626175
 20
25.979999923959191
 30
0.0
 40
1.0
 50
179.99999999999821
 51
260.40593177313832
  0
ARC
  5
181F
  8
LAYER5
 10
86.449542835626247
 20
24.500979978184262
 30
0.0
 40
0.5
 50
0.0
 51
80.405931773148339
  0
ARC
  5
1820
  8
LAYER5
 10
86.949542835626119
 20
25.000979978184318
 30
0.0
 40
1.0
 50
59.99999999999622
 51
80.405931773135293
  0
LINE
  5
1821
  8
LAYER5
 10
86.449542835626175
 20
16.09999992395921
 30
0.0
 11
77.94954283562619
 21
16.09999992395921
 31
0.0
  0
LINE
  5
1822
  8
LAYER5
 10
86.449542835626175
 20
17.099999923959199
 30
0.0
 11
77.94954283562619
 21
17.099999923959199
 31
0.0
  0
ARC
  5
1823
  8
LAYER5
 10
86.449542835626247
 20
17.59999992395916
 30
0.0
 40
0.5
 50
269.99999999999341
 51
0.0000000000032569
  0
ARC
  5
1824
  8
LAYER5
 10
86.449542835626104
 20
17.59999992395921
 30
0.0
 40
1.5
 50
270.0000000000021
 51
359.99999999999909
  0
POLYLINE
  5
1825
  8
LAYER5
 66
     1
 10
0.0
 20
0.0
 30
0.0
  0
VERTEX
  5
1AFA
  8
LAYER5
 10
59.999542835626137
 20
1.099999923959202
 30
0.0
  0
VERTEX
  5
1AFB
  8
LAYER5
 10
29.49954283562613
 20
1.0999999239592171
 30
0.0
  0
SEQEND
  5
1AFC
  8
LAYER5
  0
ARC
  5
1829
  8
LAYER5
 10
69.49954283562613
 20
14.599999923959199
 30
0.0
 40
1.5
 50
180.0
 51
270.0
  0
LINE
  5
182A
  8
LAYER5
 10
69.49954283562613
 20
13.09999992395921
 30
0.0
 11
70.99954283562613
 21
13.09999992395921
 31
0.0
  0
LINE
  5
182B
  8
LAYER5
 10
70.99954283562613
 20
1.5999999239592171
 30
0.0
 11
70.99954283562613
 21
13.09999992395921
 31
0.0
  0
LINE
  5
182C
  8
LAYER5
 10
76.449542835626175
 20
1.5999999239592171
 30
0.0
 11
67.999542835626116
 21
1.5999999239592171
 31
0.0
  0
LINE
  5
182D
  8
LAYER5
 10
76.449542835626175
 20
2.5999999239591589
 30
0.0
 11
70.99954283562613
 21
2.5999999239592162
 31
0.0
  0
LINE
  5
182E
  8
LAYER5
 10
79.19954283562619
 20
25.979999923959191
 30
0.0
 11
79.19954283562619
 21
26.979999923959209
 31
0.0
  0
LINE
  5
182F
  8
LAYER5
 10
78.19954283562619
 20
26.479999923959209
 30
0.0
 11
78.19954283562619
 21
26.979999923959209
 31
0.0
  0
ARC
  5
1830
  8
LAYER5
 10
77.699542835626175
 20
26.479999923959209
 30
0.0
 40
0.5
 50
279.5940682268581
 51
0.0
  0
ARC
  5
1831
  8
LAYER5
 10
78.19954283562619
 20
25.979999923959191
 30
0.0
 40
1.0
 50
279.59406822686151
 51
0.0000000000016284
  0
ARC
  5
1832
  8
LAYER5
 10
78.44954283562619
 20
24.500979978184262
 30
0.0
 40
0.5
 50
99.594068226851689
 51
180.0
  0
ARC
  5
1833
  8
LAYER5
 10
77.94954283562619
 20
25.000979978184318
 30
0.0
 40
1.0
 50
99.594068226864664
 51
180.0
  0
LINE
  5
1834
  8
LAYER5
 10
75.69954283562619
 20
25.979999923959191
 30
0.0
 11
75.69954283562619
 21
26.979999923959209
 31
0.0
  0
LINE
  5
1835
  8
LAYER5
 10
76.69954283562619
 20
26.479999923959209
 30
0.0
 11
76.69954283562619
 21
26.979999923959209
 31
0.0
  0
ARC
  5
1836
  8
LAYER5
 10
77.19954283562619
 20
26.479999923959209
 30
0.0
 40
0.5
 50
180.0
 51
260.40593177314162
  0
ARC
  5
1837
  8
LAYER5
 10
76.69954283562619
 20
25.979999923959191
 30
0.0
 40
1.0
 50
179.99999999999821
 51
260.40593177313832
  0
ARC
  5
1838
  8
LAYER5
 10
76.449542835626175
 20
24.500979978184262
 30
0.0
 40
0.5
 50
0.0
 51
80.405931773148339
  0
ARC
  5
1839
  8
LAYER5
 10
76.94954283562619
 20
25.000979978184318
 30
0.0
 40
1.0
 50
59.99999999999622
 51
80.405931773135293
  0
ARC
  5
183A
  8
LAYER5
 10
76.449542835626175
 20
3.0999999239591589
 30
0.0
 40
0.5
 50
269.99999999999341
 51
0.0000000000032569
  0
ARC
  5
183B
  8
LAYER5
 10
76.449542835626175
 20
3.0999999239592162
 30
0.0
 40
1.5
 50
270.0000000000021
 51
359.99999999999909
  0
LINE
  5
183C
  8
LAYER5
 10
76.94954283562619
 20
25.000979978184318
 30
0.0
 11
76.94954283562619
 21
3.0999999239592162
 31
0.0
  0
LINE
  5
183D
  8
LAYER5
 10
77.94954283562619
 20
24.500979978184262
 30
0.0
 11
77.94954283562619
 21
3.0999999239592162
 31
0.0
  0
POLYLINE
  5
183E
  8
LAYER5
 66
     1
 10
0.0
 20
0.0
 30
0.0
 70
     1
  0
VERTEX
  5
1AFD
  8
LAYER5
 10
62.499542835626137
 20
30.09999992395921
 30
0.0
  0
VERTEX
  5
1AFE
  8
LAYER5
 10
59.999542835626137
 20
30.09999992395921
 30
0.0
  0
VERTEX
  5
1AFF
  8
LAYER5
 10
59.999542835626137
 20
-0.0000000760407914
 30
0.0
  0
VERTEX
  5
1B00
  8
LAYER5
 10
62.499542835626137
 20
-0.0000000760407914
 30
0.0
  0
SEQEND
  5
1B01
  8
LAYER5
  0
POLYLINE
  5
1844
  8
LAYER5
 66
     1
 10
0.0
 20
0.0
 30
0.0
  0
VERTEX
  5
1B02
  8
LAYER5
 10
62.499542835626137
 20
15.599999923959199
 30
0.0
  0
VERTEX
  5
1B03
  8
LAYER5
 10
67.49954283562613
 20
15.599999923959199
 30
0.0
 42
-0.4142135623730951
  0
VERTEX
  5
1B04
  8
LAYER5
 10
67.999542835626116
 20
15.099999923959199
 30
0.0
  0
VERTEX
  5
1B05
  8
LAYER5
 10
67.999542835626116
 20
1.5999999239592011
 30
0.0
 42
-0.4142135623730951
  0
VERTEX
  5
1B06
  8
LAYER5
 10
67.49954283562613
 20
1.099999923959202
 30
0.0
  0
VERTEX
  5
1B07
  8
LAYER5
 10
62.499542835626137
 20
1.099999923959202
 30
0.0
  0
SEQEND
  5
1B08
  8
LAYER5
  0
POLYLINE
  5
184C
  8
LAYER5
 66
     1
 10
0.0
 20
0.0
 30
0.0
 70
     1
  0
VERTEX
  5
1B09
  8
LAYER5
 10
29.49954283562613
 20
30.09999992395921
 30
0.0
  0
VERTEX
  5
1B0A
  8
LAYER5
 10
26.99954283562613
 20
30.09999992395921
 30
0.0
  0
VERTEX
  5
1B0B
  8
LAYER5
 10
26.99954283562613
 20
-0.0000000760407914
 30
0.0
  0
VERTEX
  5
1B0C
  8
LAYER5
 10
29.49954283562613
 20
-0.0000000760407914
 30
0.0
  0
SEQEND
  5
1B0D
  8
LAYER5
  0
POLYLINE
  5
1852
  8
LAYER5
 66
     1
 10
0.0
 20
0.0
 30
0.0
  0
VERTEX
  5
1B0E
  8
LAYER5
 10
26.99954283562613
 20
1.0999999239592171
 30
0.0
  0
VERTEX
  5
1B0F
  8
LAYER5
 10
21.49954283562613
 20
1.0999999239592171
 30
0.0
 42
-0.4142135623730951
  0
VERTEX
  5
1B10
  8
LAYER5
 10
20.999542835626119
 20
1.5999999239592171
 30
0.0
  0
VERTEX
  5
1B11
  8
LAYER5
 10
20.999542835626119
 20
15.09999992395921
 30
0.0
 42
-0.4142135623730951
  0
VERTEX
  5
1B12
  8
LAYER5
 10
21.49954283562613
 20
15.59999992395921
 30
0.0
  0
VERTEX
  5
1B13
  8
LAYER5
 10
26.99954283562613
 20
15.59999992395921
 30
0.0
  0
SEQEND
  5
1B14
  8
LAYER5
  0
POLYLINE
  5
185A
  8
LAYER5
 66
     1
 10
0.0
 20
0.0
 30
0.0
  0
VERTEX
  5
1B15
  8
LAYER5
 10
29.49954283562613
 20
15.59999992395921
 30
0.0
  0
VERTEX
  5
1B16
  8
LAYER5
 10
59.999542835626137
 20
15.599999923959199
 30
0.0
  0
SEQEND
  5
1B17
  8
LAYER5
  0
POLYLINE
  5
185E
  8
LAYER5
 66
     1
 10
0.0
 20
0.0
 30
0.0
  0
VERTEX
  5
1B18
  8
LAYER5
 10
26.99954283562613
 20
15.59999992395921
 30
0.0
  0
VERTEX
  5
1B19
  8
LAYER5
 10
21.49954283562613
 20
15.59999992395921
 30
0.0
 42
-0.4142135623730951
  0
VERTEX
  5
1B1A
  8
LAYER5
 10
20.999542835626119
 20
16.09999992395921
 30
0.0
  0
VERTEX
  5
1B1B
  8
LAYER5
 10
20.999542835626119
 20
29.59999992395921
 30
0.0
 42
-0.4142135623730951
  0
VERTEX
  5
1B1C
  8
LAYER5
 10
21.49954283562613
 20
30.09999992395921
 30
0.0
  0
VERTEX
  5
1B1D
  8
LAYER5
 10
26.99954283562613
 20
30.09999992395921
 30
0.0
  0
SEQEND
  5
1B1E
  8
LAYER5
  0
POLYLINE
  5
1866
  8
LAYER5
 66
     1
 10
0.0
 20
0.0
 30
0.0
  0
VERTEX
  5
1B1F
  8
LAYER5
 10
62.499542835626137
 20
30.099999923959182
 30
0.0
  0
VERTEX
  5
1B20
  8
LAYER5
 10
67.49954283562613
 20
30.099999923959182
 30
0.0
 42
-0.4142135623730951
  0
VERTEX
  5
1B21
  8
LAYER5
 10
67.999542835626116
 20
29.59999992395921
 30
0.0
  0
VERTEX
  5
1B22
  8
LAYER5
 10
67.999542835626116
 20
16.099999923959199
 30
0.0
 42
-0.4142135623730951
  0
VERTEX
  5
1B23
  8
LAYER5
 10
67.49954283562613
 20
15.599999923959199
 30
0.0
  0
VERTEX
  5
1B24
  8
LAYER5
 10
62.499542835626137
 20
15.599999923959199
 30
0.0
  0
SEQEND
  5
1B25
  8
LAYER5
  0
LINE
  5
186E
  8
LAYER2
  6
CONTINUOUS
 10
59.999542835626137
 20
30.09999992395921
 30
0.0
 11
29.49954283562613
 21
30.09999992395921
 31
0.0
  0
POLYLINE
  5
186F
  8
LAYER5
 66
     1
 10
0.0
 20
0.0
 30
0.0
  0
VERTEX
  5
1B26
  8
LAYER5
 10
29.49954283562613
 20
30.09999992395921
 30
0.0
  0
VERTEX
  5
1B27
  8
LAYER5
 10
59.999542835626137
 20
30.099999923959182
 30
0.0
  0
SEQEND
  5
1B28
  8
LAYER5
  0
LINE
  5
188D
  8
LAYER5
  6
CONTINUOUS
 10
417.55478056977131
 20
167.09999992395899
 30
-0.0000000000000016
 11
419.05478056977171
 21
167.09999992395899
 31
-0.0000000000000016
  0
LINE
  5
18A8
  8
LAYER5
 10
76.94954283562619
 20
17.099999923959199
 30
0.0
 11
70.99954283562613
 21
17.099999923959199
 31
0.0
  0
LINE
  5
18A9
  8
LAYER5
 10
76.94954283562619
 20
16.099999923959199
 30
0.0
 11
67.999542835626116
 21
16.09999992395921
 31
0.0
  0
LINE
  5
18AB
  8
LAYER1
  6
CONTINUOUS
 10
247.1548509532264
 20
19.1523651187442
 30
0.0
 11
242.00485095322639
 21
19.152365118744221
 31
0.0
  0
LINE
  5
18AC
  8
LAYER1
  6
CONTINUOUS
 10
247.1548509532264
 20
19.099999923959231
 30
0.0
 11
242.00485095322639
 21
19.099999923959199
 31
0.0
  0
ENDSEC
  0
EOF
