  0
SECTION
  2
HEADER
  9
$ACADVER
  1
AC1014
  9
$ACADMAINTVER
 70
     9
  9
$DWGCODEPAGE
  3
ANSI_932
  9
$INSBASE
 10
0.0
 20
0.0
 30
0.0
  9
$EXTMIN
 10
52.00996341895546
 20
0.000002852651221
 30
0.0
  9
$EXTMAX
 10
386.8966251872963
 20
352.1653150903671
 30
6.483974233579615E+99
  9
$LIMMIN
 10
0.0
 20
0.0
  9
$LIMMAX
 10
420.0
 20
297.0
  9
$ORTHOMODE
 70
     0
  9
$REGENMODE
 70
     1
  9
$FILLMODE
 70
     1
  9
$QTEXTMODE
 70
     0
  9
$MIRRTEXT
 70
     1
  9
$DRAGMODE
 70
     2
  9
$LTSCALE
 40
1.0
  9
$OSMODE
 70
    55
  9
$ATTMODE
 70
     1
  9
$TEXTSIZE
 40
6.0
  9
$TRACEWID
 40
1.0
  9
$TEXTSTYLE
  7
STANDARD
  9
$CLAYER
  8
0
  9
$CELTYPE
  6
BYLAYER
  9
$CECOLOR
 62
   256
  9
$CELTSCALE
 40
1.0
  9
$DELOBJ
 70
     1
  9
$DISPSILH
 70
     0
  9
$DIMSCALE
 40
1.0
  9
$DIMASZ
 40
2.5
  9
$DIMEXO
 40
0.625
  9
$DIMDLI
 40
3.75
  9
$DIMRND
 40
0.0
  9
$DIMDLE
 40
0.0
  9
$DIMEXE
 40
1.25
  9
$DIMTP
 40
0.0
  9
$DIMTM
 40
0.0
  9
$DIMTXT
 40
2.5
  9
$DIMCEN
 40
2.5
  9
$DIMTSZ
 40
0.0
  9
$DIMTOL
 70
     0
  9
$DIMLIM
 70
     0
  9
$DIMTIH
 70
     0
  9
$DIMTOH
 70
     0
  9
$DIMSE1
 70
     0
  9
$DIMSE2
 70
     0
  9
$DIMTAD
 70
     1
  9
$DIMZIN
 70
     8
  9
$DIMBLK
  1

  9
$DIMASO
 70
     1
  9
$DIMSHO
 70
     1
  9
$DIMPOST
  1

  9
$DIMAPOST
  1

  9
$DIMALT
 70
     0
  9
$DIMALTD
 70
     3
  9
$DIMALTF
 40
0.03937007874016
  9
$DIMLFAC
 40
1.0
  9
$DIMTOFL
 70
     1
  9
$DIMTVP
 40
0.0
  9
$DIMTIX
 70
     0
  9
$DIMSOXD
 70
     0
  9
$DIMSAH
 70
     0
  9
$DIMBLK1
  1

  9
$DIMBLK2
  1

  9
$DIMSTYLE
  2
ISO-25
  9
$DIMCLRD
 70
     0
  9
$DIMCLRE
 70
     0
  9
$DIMCLRT
 70
     0
  9
$DIMTFAC
 40
1.0
  9
$DIMGAP
 40
0.625
  9
$DIMJUST
 70
     0
  9
$DIMSD1
 70
     0
  9
$DIMSD2
 70
     0
  9
$DIMTOLJ
 70
     0
  9
$DIMTZIN
 70
     8
  9
$DIMALTZ
 70
     0
  9
$DIMALTTZ
 70
     0
  9
$DIMFIT
 70
     3
  9
$DIMUPT
 70
     0
  9
$DIMUNIT
 70
     2
  9
$DIMDEC
 70
     2
  9
$DIMTDEC
 70
     2
  9
$DIMALTU
 70
     2
  9
$DIMALTTD
 70
     3
  9
$DIMTXSTY
  7
STANDARD
  9
$DIMAUNIT
 70
     0
  9
$LUNITS
 70
     2
  9
$LUPREC
 70
     4
  9
$SKETCHINC
 40
1.0
  9
$FILLETRAD
 40
10.0
  9
$AUNITS
 70
     0
  9
$AUPREC
 70
     0
  9
$MENU
  1
.
  9
$ELEVATION
 40
0.0
  9
$PELEVATION
 40
0.0
  9
$THICKNESS
 40
0.0
  9
$LIMCHECK
 70
     0
  9
$BLIPMODE
 70
     0
  9
$CHAMFERA
 40
10.0
  9
$CHAMFERB
 40
10.0
  9
$CHAMFERC
 40
20.0
  9
$CHAMFERD
 40
0.0
  9
$SKPOLY
 70
     0
  9
$TDCREATE
 40
2454944.848338009
  9
$TDUPDATE
 40
2455860.784834525
  9
$TDINDWG
 40
0.0061128935
  9
$TDUSRTIMER
 40
0.0061110880
  9
$USRTIMER
 70
     1
  9
$ANGBASE
 50
0.0
  9
$ANGDIR
 70
     0
  9
$PDMODE
 70
     0
  9
$PDSIZE
 40
0.0
  9
$PLINEWID
 40
0.0
  9
$COORDS
 70
     1
  9
$SPLFRAME
 70
     0
  9
$SPLINETYPE
 70
     6
  9
$SPLINESEGS
 70
     8
  9
$ATTDIA
 70
     0
  9
$ATTREQ
 70
     1
  9
$HANDLING
 70
 22529
  9
$HANDSEED
  5
3FF6
  9
$SURFTAB1
 70
     6
  9
$SURFTAB2
 70
     6
  9
$SURFTYPE
 70
     6
  9
$SURFU
 70
     6
  9
$SURFV
 70
     6
  9
$UCSNAME
  2

  9
$UCSORG
 10
0.0
 20
0.0
 30
0.0
  9
$UCSXDIR
 10
1.0
 20
0.0
 30
0.0
  9
$UCSYDIR
 10
0.0
 20
1.0
 30
0.0
  9
$PUCSNAME
  2

  9
$PUCSORG
 10
0.0
 20
0.0
 30
0.0
  9
$PUCSXDIR
 10
1.0
 20
0.0
 30
0.0
  9
$PUCSYDIR
 10
0.0
 20
1.0
 30
0.0
  9
$USERI1
 70
     0
  9
$USERI2
 70
     0
  9
$USERI3
 70
     0
  9
$USERI4
 70
     0
  9
$USERI5
 70
     0
  9
$USERR1
 40
0.0
  9
$USERR2
 40
0.0
  9
$USERR3
 40
0.0
  9
$USERR4
 40
0.0
  9
$USERR5
 40
0.0
  9
$WORLDVIEW
 70
     1
  9
$SHADEDGE
 70
     3
  9
$SHADEDIF
 70
    70
  9
$TILEMODE
 70
     1
  9
$MAXACTVP
 70
    64
  9
$PINSBASE
 10
0.0
 20
0.0
 30
0.0
  9
$PLIMCHECK
 70
     0
  9
$PEXTMIN
 10
1.000000000000000E+20
 20
1.000000000000000E+20
 30
1.000000000000000E+20
  9
$PEXTMAX
 10
-1.000000000000000E+20
 20
-1.000000000000000E+20
 30
-1.000000000000000E+20
  9
$PLIMMIN
 10
0.0
 20
0.0
  9
$PLIMMAX
 10
420.0
 20
297.0
  9
$UNITMODE
 70
     0
  9
$VISRETAIN
 70
     1
  9
$PLINEGEN
 70
     0
  9
$PSLTSCALE
 70
     1
  9
$TREEDEPTH
 70
  3020
  9
$PICKSTYLE
 70
     1
  9
$CMLSTYLE
  2
STANDARD
  9
$CMLJUST
 70
     0
  9
$CMLSCALE
 40
20.0
  9
$PROXYGRAPHICS
 70
     1
  9
$MEASUREMENT
 70
     1
  0
ENDSEC
  0
SECTION
  2
CLASSES
  0
CLASS
  1
ACDBDICTIONARYWDFLT
  2
AcDbDictionaryWithDefault
  3
AutoCAD 2000
 90
        0
280
     0
281
     0
  0
CLASS
  1
ACDBPLACEHOLDER
  2
AcDbPlaceHolder
  3
AutoCAD 2000
 90
        0
280
     0
281
     0
  0
CLASS
  1
LAYOUT
  2
AcDbLayout
  3
AutoCAD 2000
 90
        0
280
     0
281
     0
  0
CLASS
  1
DICTIONARYVAR
  2
AcDbDictionaryVar
  3
AutoCAD 2000
 90
        0
280
     0
281
     0
  0
CLASS
  1
LONG_TRANSACTION
  2
AcDbLongTransaction
  3
AutoCAD 2000
 90
        0
280
     0
281
     0
  0
CLASS
  1
LWPOLYLINE
  2
AcDbPolyline
  3
AutoCAD 2000
 90
        0
280
     0
281
     1
  0
CLASS
  1
HATCH
  2
AcDbHatch
  3
AutoCAD 2000
 90
        0
280
     0
281
     1
  0
CLASS
  1
XRECORD
  2
AcDbXrecord
  3
AutoCAD 2000
 90
        0
280
     0
281
     0
  0
CLASS
  1
LONG_TRANSACTION
  2
AcDbLongTransaction
  3
AutoCAD 2000
 90
        0
280
     0
281
     0
  0
CLASS
  1
LWPOLYLINE
  2
AcDbPolyline
  3
AutoCAD 2000
 90
        0
280
     0
281
     1
  0
CLASS
  1
HATCH
  2
AcDbHatch
  3
AutoCAD 2000
 90
        0
280
     0
281
     1
  0
CLASS
  1
XRECORD
  2
AcDbXrecord
  3
AutoCAD 2000
 90
        0
280
     0
281
     0
  0
CLASS
  1
LONG_TRANSACTION
  2
AcDbLongTransaction
  3
AutoCAD 2000
 90
        0
280
     0
281
     0
  0
CLASS
  1
LWPOLYLINE
  2
AcDbPolyline
  3
AutoCAD 2000
 90
        0
280
     0
281
     1
  0
CLASS
  1
HATCH
  2
AcDbHatch
  3
AutoCAD 2000
 90
        0
280
     0
281
     1
  0
CLASS
  1
XRECORD
  2
AcDbXrecord
  3
AutoCAD 2000
 90
        0
280
     0
281
     0
  0
ENDSEC
  0
SECTION
  2
TABLES
  0
TABLE
  2
VPORT
  5
8
330
0
100
AcDbSymbolTable
 70
     2
  0
VPORT
  5
3FD3
330
8
100
AcDbSymbolTableRecord
100
AcDbViewportTableRecord
  2
*ACTIVE
 70
     0
 10
0.0
 20
0.0
 11
1.0
 21
1.0
 12
219.4532943031259
 22
176.0826589715092
 13
0.0
 23
0.0
 14
10.0
 24
10.0
 15
10.0
 25
10.0
 16
0.0
 26
0.0
 36
1.0
 17
0.0
 27
0.0
 37
0.0
 40
354.7296227637187
 41
1.46415552855407
 42
50.0
 43
0.0
 44
0.0
 50
0.0
 51
0.0
 71
     0
 72
   100
 73
     1
 74
     3
 75
     0
 76
     0
 77
     0
 78
     0
  0
ENDTAB
  0
TABLE
  2
LTYPE
  5
5
330
0
100
AcDbSymbolTable
 70
     1
  0
LTYPE
  5
14
330
5
100
AcDbSymbolTableRecord
100
AcDbLinetypeTableRecord
  2
BYBLOCK
 70
     0
  3

 72
    65
 73
     0
 40
0.0
  0
LTYPE
  5
15
330
5
100
AcDbSymbolTableRecord
100
AcDbLinetypeTableRecord
  2
BYLAYER
 70
     0
  3

 72
    65
 73
     0
 40
0.0
  0
LTYPE
  5
16
330
5
100
AcDbSymbolTableRecord
100
AcDbLinetypeTableRecord
  2
CONTINUOUS
 70
     0
  3
Solid line
 72
    65
 73
     0
 40
0.0
  0
ENDTAB
  0
TABLE
  2
LAYER
  5
2
102
{ACAD_XDICTIONARY
360
BE
102
}
330
0
100
AcDbSymbolTable
 70
     3
  0
LAYER
  5
10
330
2
100
AcDbSymbolTableRecord
100
AcDbLayerTableRecord
  2
0
 70
     0
 62
     7
  6
CONTINUOUS
  0
LAYER
  5
BA
330
2
100
AcDbSymbolTableRecord
100
AcDbLayerTableRecord
  2
1
 70
     0
 62
     7
  6
CONTINUOUS
  0
LAYER
  5
BB
330
2
100
AcDbSymbolTableRecord
100
AcDbLayerTableRecord
  2
DEFPOINTS
 70
     0
 62
     7
  6
CONTINUOUS
  0
ENDTAB
  0
TABLE
  2
STYLE
  5
3
330
0
100
AcDbSymbolTable
 70
     1
  0
STYLE
  5
11
330
3
100
AcDbSymbolTableRecord
100
AcDbTextStyleTableRecord
  2
STANDARD
 70
     0
 40
0.0
 41
1.0
 50
0.0
 71
     0
 42
6.0
  3
txt
  4

  0
ENDTAB
  0
TABLE
  2
VIEW
  5
6
330
0
100
AcDbSymbolTable
 70
     0
  0
ENDTAB
  0
TABLE
  2
UCS
  5
7
330
0
100
AcDbSymbolTable
 70
     0
  0
ENDTAB
  0
TABLE
  2
APPID
  5
9
330
0
100
AcDbSymbolTable
 70
     1
  0
APPID
  5
12
330
9
100
AcDbSymbolTableRecord
100
AcDbRegAppTableRecord
  2
ACAD
 70
     0
  0
ENDTAB
  0
TABLE
  2
DIMSTYLE
  5
A
330
0
100
AcDbSymbolTable
 70
     1
  0
DIMSTYLE
105
27
330
A
100
AcDbSymbolTableRecord
100
AcDbDimStyleTableRecord
  2
ISO-25
 70
     0
  3

  4

  5

  6

  7

 40
1.0
 41
2.5
 42
0.625
 43
3.75
 44
1.25
 45
0.0
 46
0.0
 47
0.0
 48
0.0
140
2.5
141
2.5
142
0.0
143
0.03937007874016
144
1.0
145
0.0
146
1.0
147
0.625
 71
     0
 72
     0
 73
     0
 74
     0
 75
     0
 76
     0
 77
     1
 78
     8
170
     0
171
     3
172
     1
173
     0
174
     0
175
     0
176
     0
177
     0
178
     0
270
     2
271
     2
272
     2
273
     2
274
     3
340
11
275
     0
280
     0
281
     0
282
     0
283
     0
284
     8
285
     0
286
     0
287
     3
288
     0
  0
ENDTAB
  0
TABLE
  2
BLOCK_RECORD
  5
1
330
0
100
AcDbSymbolTable
 70
     1
  0
BLOCK_RECORD
  5
1F
102
{ACAD_XDICTIONARY
360
3F9F
102
}
330
1
100
AcDbSymbolTableRecord
100
AcDbBlockTableRecord
  2
*MODEL_SPACE
  0
BLOCK_RECORD
  5
1B
102
{ACAD_XDICTIONARY
360
3F9D
102
}
330
1
100
AcDbSymbolTableRecord
100
AcDbBlockTableRecord
  2
*PAPER_SPACE
  0
BLOCK_RECORD
  5
31
330
1
100
AcDbSymbolTableRecord
100
AcDbBlockTableRecord
  2
A$C09634F3C
  0
ENDTAB
  0
ENDSEC
  0
SECTION
  2
BLOCKS
  0
BLOCK
  5
20
330
1F
100
AcDbEntity
  8
0
100
AcDbBlockBegin
  2
*MODEL_SPACE
 70
     0
 10
0.0
 20
0.0
 30
0.0
  3
*MODEL_SPACE
  1

  0
ENDBLK
  5
21
330
1F
100
AcDbEntity
  8
0
100
AcDbBlockEnd
  0
BLOCK
  5
1C
330
1B
100
AcDbEntity
 67
     1
  8
0
100
AcDbBlockBegin
  2
*PAPER_SPACE
 70
     0
 10
0.0
 20
0.0
 30
0.0
  3
*PAPER_SPACE
  1

  0
ENDBLK
  5
1D
330
1B
100
AcDbEntity
 67
     1
  8
0
100
AcDbBlockEnd
  0
BLOCK
  5
39
330
31
100
AcDbEntity
  8
0
100
AcDbBlockBegin
  2
A$C09634F3C
 70
     0
 10
0.0
 20
0.0
 30
0.0
  3
A$C09634F3C
  1

  0
CIRCLE
  5
32
330
31
100
AcDbEntity
  8
1
100
AcDbCircle
 10
2.749999557347535
 20
2.749999489143874
 30
0.0
 40
2.75
  0
LINE
  5
33
330
31
100
AcDbEntity
  8
1
100
AcDbLine
 10
1.595299018968376
 20
2.749999489143903
 30
0.0
 11
2.172649288157912
 21
1.749999489143874
 31
0.0
  0
LINE
  5
34
330
31
100
AcDbEntity
  8
1
100
AcDbLine
 10
2.17264928815794
 20
3.749999489143872
 30
0.0
 11
3.327349826537215
 21
3.749999489143903
 31
0.0
  0
LINE
  5
35
330
31
100
AcDbEntity
  8
1
100
AcDbLine
 10
1.59529901896829
 20
2.749999489143845
 30
0.0
 11
2.17264928815794
 21
3.749999489143872
 31
0.0
  0
LINE
  5
36
330
31
100
AcDbEntity
  8
1
100
AcDbLine
 10
3.327349826537242
 20
3.749999489143846
 30
0.0
 11
3.904700095726866
 21
2.749999489143903
 31
0.0
  0
LINE
  5
37
330
31
100
AcDbEntity
  8
1
100
AcDbLine
 10
3.327349826537128
 20
1.749999489143874
 30
0.0
 11
3.904700095726808
 21
2.749999489143874
 31
0.0
  0
LINE
  5
38
330
31
100
AcDbEntity
  8
1
100
AcDbLine
 10
2.17264928815797
 20
1.749999489143844
 30
0.0
 11
3.327349826537128
 21
1.749999489143815
 31
0.0
  0
ENDBLK
  5
3A
330
31
100
AcDbEntity
  8
0
100
AcDbBlockEnd
  0
ENDSEC
  0
SECTION
  2
ENTITIES
  0
LWPOLYLINE
  5
34AF
330
1F
100
AcDbEntity
  8
1
100
AcDbPolyline
 90
        4
 70
     0
 43
0.0
 38
6.483974233579615E+99
 10
194.846814846074
 20
139.6676372382875
 42
0.0020904264665191
 10
194.7798344118434
 20
139.6908465227922
 10
194.7464874677985
 20
139.7021755469481
 10
194.712840249859
 20
139.7134620558638
  0
LWPOLYLINE
  5
34B0
330
1F
100
AcDbEntity
  8
1
100
AcDbPolyline
 90
        4
 70
     0
 43
0.0
 38
6.483974233579615E+99
 10
194.7128402498623
 20
137.913462055869
 42
0.0019115314009758
 10
194.7798344150736
 20
137.9360775900442
 10
194.8135130714781
 20
137.9476697557024
 10
194.8468148460739
 20
137.9592868734444
  0
LWPOLYLINE
  5
34B1
330
1F
100
AcDbEntity
  8
1
100
AcDbPolyline
 90
        4
 70
     0
 43
0.0
 38
6.483974233579615E+99
 10
194.846814846074
 20
136.1676372382875
 42
0.0020904264423225
 10
194.7798344118434
 20
136.1908465227922
 10
194.7466449152553
 20
136.2021223963544
 10
194.712840249859
 20
136.2134620558637
  0
LWPOLYLINE
  5
34B2
330
1F
100
AcDbEntity
  8
1
100
AcDbPolyline
 90
        4
 70
     0
 43
0.0
 38
6.483974233579615E+99
 10
194.7128402498623
 20
134.4134620558691
 42
0.0019115314009699
 10
194.7798344150736
 20
134.4360775900442
 10
194.8136210896839
 20
134.4477071851902
 10
194.8468148460739
 20
134.4592868734442
  0
LWPOLYLINE
  5
34B3
330
1F
100
AcDbEntity
  8
1
100
AcDbPolyline
 90
        4
 70
     0
 43
0.0
 38
6.483974233579615E+99
 10
194.846814846074
 20
132.6676372382876
 42
0.0020834568645147
 10
194.7798344118434
 20
132.6908465227922
 10
194.7466448908356
 20
132.7021224045981
 10
194.7128402498587
 20
132.7134620558624
  0
LWPOLYLINE
  5
34B4
330
1F
100
AcDbEntity
  8
1
100
AcDbPolyline
 90
        4
 70
     0
 43
0.0
 38
6.483974233579615E+99
 10
194.712840249859
 20
123.9134620558683
 42
0.001920583032935
 10
194.7798344118434
 20
123.9360775889398
 10
194.8136231126374
 20
123.9477078861811
 10
194.846814846074
 20
123.9592868734445
  0
LWPOLYLINE
  5
34B5
330
1F
100
AcDbEntity
  8
1
100
AcDbPolyline
 90
        4
 70
     0
 43
0.0
 38
6.483974233579615E+99
 10
194.846814846074
 20
125.6676372382875
 42
0.0020834593571151
 10
194.7798344118434
 20
125.6908465227922
 10
194.7464874689251
 20
125.7021755465677
 10
194.712840249859
 20
125.7134620558638
  0
LWPOLYLINE
  5
34B6
330
1F
100
AcDbEntity
  8
1
100
AcDbPolyline
 90
        4
 70
     0
 43
0.0
 38
6.483974233579615E+99
 10
194.7128402498623
 20
130.9134620558692
 42
0.0019115325852136
 10
194.7798344150736
 20
130.9360775900442
 10
194.8135129945161
 20
130.9476697290349
 10
194.846814846074
 20
130.9592868734444
  0
LWPOLYLINE
  5
34B7
330
1F
100
AcDbEntity
  8
1
100
AcDbPolyline
 90
        4
 70
     0
 43
0.0
 38
6.483974233579615E+99
 10
194.846814846074
 20
129.1676372382875
 42
0.0020904261994514
 10
194.7798344118434
 20
129.1908465227922
 10
194.7466448913949
 20
129.2021224044092
 10
194.7128402498587
 20
129.2134620558625
  0
LINE
  5
34BC
330
1F
100
AcDbEntity
  8
1
  6
CONTINUOUS
100
AcDbLine
 10
114.2099657912214
 20
205.3134633612672
 30
0.0
 11
68.00996604155983
 21
205.3134633612672
 31
0.0
  0
LINE
  5
34BD
330
1F
100
AcDbEntity
  8
1
  6
CONTINUOUS
100
AcDbLine
 10
68.00996604155983
 20
107.3134621989765
 30
0.0
 11
114.20996579122
 21
107.3134621989765
 31
0.0
  0
LINE
  5
34C2
330
1F
100
AcDbEntity
  8
1
  6
CONTINUOUS
100
AcDbLine
 10
52.00996579121937
 20
174.0134633884865
 30
0.0
 11
52.00996714424576
 21
203.10837090135
 31
0.0
  0
LINE
  5
34C3
330
1F
100
AcDbEntity
  8
1
  6
CONTINUOUS
100
AcDbLine
 10
58.0099644024321
 20
108.3083605778255
 30
0.0
 11
58.0099644024321
 21
204.318564982418
 31
0.0
  0
LINE
  5
34C4
330
1F
100
AcDbEntity
  8
1
  6
CONTINUOUS
100
AcDbLine
 10
68.00996579121981
 20
204.3185647693365
 30
0.0
 11
68.00996579121981
 21
108.30836081533
 31
0.0
  0
LINE
  5
34C7
330
1F
100
AcDbEntity
  8
1
  6
CONTINUOUS
100
AcDbLine
 10
52.00996714424576
 20
137.9134586465397
 30
0.0
 11
52.00996714424576
 21
114.8134587717094
 31
0.0
  0
LINE
  5
34C8
330
1F
100
AcDbEntity
  8
1
  6
CONTINUOUS
100
AcDbLine
 10
55.70996644687141
 20
96.31345749020972
 30
0.0
 11
52.3099647719809
 21
96.31345749020972
 31
0.0
  0
LINE
  5
34C9
330
1F
100
AcDbEntity
  8
1
  6
CONTINUOUS
100
AcDbLine
 10
52.3099647719809
 20
96.31345749020972
 30
0.0
 11
55.70996644687141
 21
96.31345749020972
 31
0.0
  0
LINE
  5
34CA
330
1F
100
AcDbEntity
  8
1
  6
CONTINUOUS
100
AcDbLine
 10
52.3099647719809
 20
98.81345883131423
 30
0.0
 11
55.70996644687141
 21
98.81345883131423
 31
0.0
  0
LINE
  5
34CB
330
1F
100
AcDbEntity
  8
1
  6
CONTINUOUS
100
AcDbLine
 10
52.3099647719809
 20
103.8134588313142
 30
0.0
 11
55.70996644687141
 21
103.8134588313142
 31
0.0
  0
LINE
  5
34CC
330
1F
100
AcDbEntity
  8
1
  6
CONTINUOUS
100
AcDbLine
 10
52.3099647719809
 20
106.3134564471284
 30
0.0
 11
54.50996476005997
 21
106.3134564471284
 31
0.0
  0
LINE
  5
34CD
330
1F
100
AcDbEntity
  8
1
  6
CONTINUOUS
100
AcDbLine
 10
52.3099647719809
 20
101.3134574902097
 30
0.0
 11
55.70996644687141
 21
101.3134574902097
 31
0.0
  0
LINE
  5
34CE
330
1F
100
AcDbEntity
  8
1
  6
CONTINUOUS
100
AcDbLine
 10
55.70996644687141
 20
101.3134574902097
 30
0.0
 11
52.3099647719809
 21
101.3134574902097
 31
0.0
  0
LINE
  5
34CF
330
1F
100
AcDbEntity
  8
1
  6
CONTINUOUS
100
AcDbLine
 10
52.00996714424576
 20
114.8134587717094
 30
0.0
 11
56.5099650878855
 21
114.8134587717094
 31
0.0
  0
LINE
  5
34D0
330
1F
100
AcDbEntity
  8
1
  6
CONTINUOUS
100
AcDbLine
 10
52.00996714424576
 20
98.9381455664923
 30
0.0
 11
52.00996714424576
 21
101.0138810460854
 31
0.0
  0
ARC
  5
34D1
330
1F
100
AcDbEntity
  8
1
  6
CONTINUOUS
100
AcDbCircle
 10
52.30996580314029
 20
96.61345732340423
 30
0.0
 40
0.3000000119208721
100
AcDbArc
 50
180.0
 51
270.0
  0
ARC
  5
34D2
330
1F
100
AcDbEntity
  8
1
  6
CONTINUOUS
100
AcDbCircle
 10
52.3099658031402
 20
96.61345694086556
 30
0.0
 40
0.3000000173527724
100
AcDbArc
 50
179.989096827449
 51
270.0
  0
ELLIPSE
  5
34D3
330
1F
100
AcDbEntity
  8
1
  6
CONTINUOUS
100
AcDbEllipse
 10
52.30996580314029
 20
98.93772148672958
 30
0.0
 11
0.3000000119209858
 21
0.0
 31
0.0
210
0.0
220
0.0
230
1.0
 40
0.414213518661714
 41
3.141592653588876
 42
4.712388980384695
  0
LINE
  5
34D4
330
1F
100
AcDbEntity
  8
1
  6
CONTINUOUS
100
AcDbLine
 10
52.00996714424576
 20
96.61345884323516
 30
0.0
 11
52.00996714424576
 21
98.93772333980002
 31
0.0
  0
LINE
  5
34D5
330
1F
100
AcDbEntity
  8
1
  6
CONTINUOUS
100
AcDbLine
 10
52.00996714424576
 20
96.61345511794486
 30
0.0
 11
52.00996714424576
 21
96.61345884323516
 31
0.0
  0
LINE
  5
34D6
330
1F
100
AcDbEntity
  8
1
  6
CONTINUOUS
100
AcDbLine
 10
52.3099647719809
 20
106.0134588193933
 30
0.0
 11
52.3099647719809
 21
106.3134564471284
 31
0.0
  0
LINE
  5
34D7
330
1F
100
AcDbEntity
  8
1
  6
CONTINUOUS
100
AcDbLine
 10
52.00996714424576
 20
103.9377233398
 30
0.0
 11
52.00996714424576
 21
106.0134588193933
 31
0.0
  0
LINE
  5
34D8
330
1F
100
AcDbEntity
  8
1
  6
CONTINUOUS
100
AcDbLine
 10
52.00996714424576
 20
101.6134551179447
 30
0.0
 11
52.00996714424576
 21
101.613458843235
 31
0.0
  0
LINE
  5
34D9
330
1F
100
AcDbEntity
  8
1
  6
CONTINUOUS
100
AcDbLine
 10
52.00996714424576
 20
101.613458843235
 30
0.0
 11
52.00996714424576
 21
103.9377233398
 31
0.0
  0
LINE
  5
34DA
330
1F
100
AcDbEntity
  8
1
  6
CONTINUOUS
100
AcDbLine
 10
52.00996714424576
 20
106.0134588193933
 30
0.0
 11
52.00996341895546
 21
114.8134587717094
 31
0.0
  0
ELLIPSE
  5
34DB
330
1F
100
AcDbEntity
  8
1
  6
CONTINUOUS
100
AcDbEllipse
 10
52.30996580314029
 20
103.9377214867295
 30
0.0
 11
0.3000000119209858
 21
0.0
 31
0.0
210
0.0
220
0.0
230
1.0
 40
0.414213518661714
 41
3.141592653588876
 42
4.712388980384695
  0
ARC
  5
34DC
330
1F
100
AcDbEntity
  8
1
  6
CONTINUOUS
100
AcDbCircle
 10
52.30996776301235
 20
106.0134558283617
 30
0.0
 40
0.3000006187816841
100
AcDbArc
 50
90.00057124376189
 51
180.0
  0
ARC
  5
34DD
330
1F
100
AcDbEntity
  8
1
  6
CONTINUOUS
100
AcDbCircle
 10
52.3099658031402
 20
101.6134569408654
 30
0.0
 40
0.3000000173527724
100
AcDbArc
 50
179.989096827449
 51
270.0
  0
ARC
  5
34DE
330
1F
100
AcDbEntity
  8
1
  6
CONTINUOUS
100
AcDbCircle
 10
52.30996580314029
 20
101.613457323404
 30
0.0
 40
0.3000000119208721
100
AcDbArc
 50
180.0
 51
270.0
  0
LINE
  5
34DF
330
1F
100
AcDbEntity
  8
1
  6
CONTINUOUS
100
AcDbLine
 10
56.00996407460654
 20
98.9381455664923
 30
0.0
 11
56.00996407460654
 21
104.0563517098714
 31
0.0
  0
LINE
  5
34E0
330
1F
100
AcDbEntity
  8
1
  6
CONTINUOUS
100
AcDbLine
 10
56.00996407460654
 20
96.61345884323516
 30
0.0
 11
56.00996407460654
 21
98.93772333980002
 31
0.0
  0
ARC
  5
34E1
330
1F
100
AcDbEntity
  8
1
  6
CONTINUOUS
100
AcDbCircle
 10
55.70996577929843
 20
96.61345732340423
 30
0.0
 40
0.3000000119209289
100
AcDbArc
 50
270.0
 51
0.0
  0
ARC
  5
34E2
330
1F
100
AcDbEntity
  8
1
  6
CONTINUOUS
100
AcDbCircle
 10
55.70996577929832
 20
96.61345694086556
 30
0.0
 40
0.3000000173527155
100
AcDbArc
 50
270.0
 51
0.0109030584263687
  0
LINE
  5
34E3
330
1F
100
AcDbEntity
  8
1
  6
CONTINUOUS
100
AcDbLine
 10
56.00996407460654
 20
96.61345511794486
 30
0.0
 11
56.00996407460654
 21
96.61345884323516
 31
0.0
  0
ELLIPSE
  5
34E4
330
1F
100
AcDbEntity
  8
1
  6
CONTINUOUS
100
AcDbEllipse
 10
55.70996577929843
 20
98.93772148672958
 30
0.0
 11
0.3000000119209289
 21
0.0
 31
0.0
210
0.0
220
0.0
230
1.0
 40
0.4142135186617927
 41
4.712388980384695
 42
6.283185307179584
  0
LINE
  5
34E5
330
1F
100
AcDbEntity
  8
1
  6
CONTINUOUS
100
AcDbLine
 10
68.00996579121981
 20
107.3184103684861
 30
0.0
 11
68.00996579121903
 21
106.3134628420941
 31
0.0
  0
LINE
  5
34E6
330
1F
100
AcDbEntity
  8
1
  6
CONTINUOUS
100
AcDbLine
 10
68.00996579121981
 20
107.3184103684861
 30
0.0
 11
68.00996579121981
 21
108.30836081533
 31
0.0
  0
LINE
  5
34E7
330
1F
100
AcDbEntity
  8
1
  6
CONTINUOUS
100
AcDbLine
 10
58.0099644024321
 20
107.318409384493
 30
0.0
 11
58.0099644024321
 21
106.3172674191037
 31
0.0
  0
LINE
  5
34E8
330
1F
100
AcDbEntity
  8
1
  6
CONTINUOUS
100
AcDbLine
 10
58.50996579121994
 20
107.3184103958069
 30
0.0
 11
58.50996579121982
 21
106.3134628420937
 31
0.0
  0
LINE
  5
34E9
330
1F
100
AcDbEntity
  8
1
  6
CONTINUOUS
100
AcDbLine
 10
58.0099644024321
 20
108.3083605778255
 30
0.0
 11
58.0099644024321
 21
107.318409384493
 31
0.0
  0
LINE
  5
34EA
330
1F
100
AcDbEntity
  8
1
  6
CONTINUOUS
100
AcDbLine
 10
57.94742422890152
 20
106.313463897709
 30
0.0
 11
58.50996579121982
 21
106.3134628420937
 31
0.0
  0
LINE
  5
34EB
330
1F
100
AcDbEntity
  8
1
  6
CONTINUOUS
100
AcDbLine
 10
56.50871339034523
 20
107.8761374962369
 30
0.0
 11
58.0099644024321
 21
107.8761374962369
 31
0.0
  0
LINE
  5
34EC
330
1F
100
AcDbEntity
  8
1
  6
CONTINUOUS
100
AcDbLine
 10
56.00996407460654
 20
103.9377233398
 30
0.0
 11
56.00996407460654
 21
109.0559294831792
 31
0.0
  0
ELLIPSE
  5
34ED
330
1F
100
AcDbEntity
  8
1
  6
CONTINUOUS
100
AcDbEllipse
 10
55.70996577929843
 20
103.9377214867295
 30
0.0
 11
0.3000000119209289
 21
0.0
 31
0.0
210
0.0
220
0.0
230
1.0
 40
0.4142135186617927
 41
4.712388980384695
 42
6.283185307179584
  0
LINE
  5
34EE
330
1F
100
AcDbEntity
  8
1
  6
CONTINUOUS
100
AcDbLine
 10
56.00996407460654
 20
109.1218075168172
 30
0.0
 11
56.00996407460654
 21
109.5185546588937
 31
0.0
  0
LWPOLYLINE
  5
34EF
330
1F
100
AcDbEntity
  8
1
  6
CONTINUOUS
100
AcDbPolyline
 90
       10
 70
   128
 43
0.0
 10
54.50996476005997
 20
106.3134564471284
 10
54.51452451538528
 20
106.3089004170934
 10
54.52805849503961
 20
106.2953664374391
 10
54.55015691709007
 20
106.2732642900983
 10
54.58015295457329
 20
106.2432719779054
 10
54.61713018607582
 20
106.2062947464027
 10
54.65996729921783
 20
106.1634576332608
 10
54.70736044239487
 20
106.1160644900837
 10
54.75787165355171
 20
106.0655532789269
 10
54.80996611308539
 20
106.0134588193933
  0
LINE
  5
34F0
330
1F
100
AcDbEntity
  8
1
  6
CONTINUOUS
100
AcDbLine
 10
56.00996407460654
 20
101.6134551179447
 30
0.0
 11
56.00996407460654
 21
101.613458843235
 31
0.0
  0
ARC
  5
34F1
330
1F
100
AcDbEntity
  8
1
  6
CONTINUOUS
100
AcDbCircle
 10
55.70996577929832
 20
101.6134569408654
 30
0.0
 40
0.3000000173527155
100
AcDbArc
 50
270.0
 51
0.0109030584263687
  0
ARC
  5
34F2
330
1F
100
AcDbEntity
  8
1
  6
CONTINUOUS
100
AcDbCircle
 10
55.70996577929843
 20
101.613457323404
 30
0.0
 40
0.3000000119209289
100
AcDbArc
 50
270.0
 51
0.0
  0
LINE
  5
34F3
330
1F
100
AcDbEntity
  8
1
  6
CONTINUOUS
100
AcDbLine
 10
56.00996407460654
 20
101.613458843235
 30
0.0
 11
56.00996407460654
 21
103.9377233398
 31
0.0
  0
ARC
  5
34F4
330
1F
100
AcDbEntity
  8
1
  6
CONTINUOUS
100
AcDbCircle
 10
56.50981872173776
 20
108.376297693066
 30
0.0
 40
0.4998547444539093
100
AcDbArc
 50
180.0357538401385
 51
270.0167771992559
  0
ARC
  5
34F5
330
1F
100
AcDbEntity
  8
1
  6
CONTINUOUS
100
AcDbCircle
 10
56.50981872173787
 20
108.376297693066
 30
0.0
 40
0.4998547444539664
100
AcDbArc
 50
180.0357538401385
 51
270.0167771992493
  0
LINE
  5
34F6
330
1F
100
AcDbEntity
  8
1
  6
CONTINUOUS
100
AcDbLine
 10
56.00996407460654
 20
109.5185546588937
 30
0.0
 11
56.00996407460654
 21
114.8134587717094
 31
0.0
  0
LINE
  5
34F7
330
1F
100
AcDbEntity
  8
1
  6
CONTINUOUS
100
AcDbLine
 10
54.50996476005997
 20
106.3134564471284
 30
0.0
 11
54.50996476005997
 21
114.8134587717094
 31
0.0
  0
LINE
  5
34F8
330
1F
100
AcDbEntity
  8
1
  6
CONTINUOUS
100
AcDbLine
 10
58.50996579121982
 20
106.3134628420937
 30
0.0
 11
68.00996579121903
 21
106.3134628420941
 31
0.0
  0
LINE
  5
34F9
330
1F
100
AcDbEntity
  8
1
  6
CONTINUOUS
100
AcDbLine
 10
52.50996579121925
 20
174.0134621985641
 30
0.0
 11
56.50996579121937
 21
174.0134633874356
 31
0.0
  0
LINE
  5
34FA
330
1F
100
AcDbEntity
  8
1
  6
CONTINUOUS
100
AcDbLine
 10
56.50996579121937
 20
174.0134633874356
 30
0.0
 11
52.50996579121935
 21
174.0134633874356
 31
0.0
  0
LINE
  5
34FB
330
1F
100
AcDbEntity
  8
1
  6
CONTINUOUS
100
AcDbLine
 10
52.00996579121937
 20
174.0134633884865
 30
0.0
 11
55.00996577333893
 21
174.0134634462038
 31
0.0
  0
LINE
  5
34FC
330
1F
100
AcDbEntity
  8
1
  6
CONTINUOUS
100
AcDbLine
 10
55.00996577333893
 20
174.0134625148811
 30
0.0
 11
52.00996579121925
 21
174.013462208279
 31
0.0
  0
LINE
  5
34FD
330
1F
100
AcDbEntity
  8
1
  6
CONTINUOUS
100
AcDbLine
 10
54.0099674720713
 20
171.5134630364219
 30
0.0
 11
55.00996577333893
 21
174.0134634462038
 31
0.0
  0
LWPOLYLINE
  5
34FE
330
1F
100
AcDbEntity
  8
1
  6
CONTINUOUS
100
AcDbPolyline
 90
       10
 70
   128
 43
0.0
 10
54.58996536921944
 20
140.5134579551259
 10
54.55871018361534
 20
140.5655524146594
 10
54.52840122174706
 20
140.6160636258164
 10
54.4999660808989
 20
140.6634567689934
 10
54.47426530312982
 20
140.7062938821354
 10
54.45207747411217
 20
140.743271113638
 10
54.4340805966803
 20
140.773265288476
 10
54.42082228850807
 20
140.7953655731716
 10
54.41270115565743
 20
140.808899552826
 10
54.40996679257835
 20
140.813457445506
  0
LINE
  5
34FF
330
1F
100
AcDbEntity
  8
1
  6
CONTINUOUS
100
AcDbLine
 10
54.40996679257835
 20
140.813457445506
 30
0.0
 11
54.90996576737749
 21
140.8134572841315
 31
0.0
  0
LINE
  5
3500
330
1F
100
AcDbEntity
  8
1
  6
CONTINUOUS
100
AcDbLine
 10
56.5099650878855
 20
138.6134574574271
 30
0.0
 11
54.0099674720713
 21
138.6134574574271
 31
0.0
  0
LINE
  5
3501
330
1F
100
AcDbEntity
  8
1
  6
CONTINUOUS
100
AcDbLine
 10
52.00996579121925
 20
174.013462208279
 30
0.0
 11
52.50996579121925
 21
174.0134621985641
 31
0.0
  0
LINE
  5
3502
330
1F
100
AcDbEntity
  8
1
  6
CONTINUOUS
100
AcDbLine
 10
52.50996579121935
 20
174.0134633874356
 30
0.0
 11
52.00996579121937
 21
174.0134633884865
 31
0.0
  0
LINE
  5
3503
330
1F
100
AcDbEntity
  8
1
  6
CONTINUOUS
100
AcDbLine
 10
52.00996714424576
 20
171.5134630364219
 30
0.0
 11
54.0099674720713
 21
171.5134630364219
 31
0.0
  0
LINE
  5
3504
330
1F
100
AcDbEntity
  8
1
  6
CONTINUOUS
100
AcDbLine
 10
52.00996714424576
 20
171.5134630364219
 30
0.0
 11
54.0099674720713
 21
171.5134630364219
 31
0.0
  0
LINE
  5
3505
330
1F
100
AcDbEntity
  8
1
  6
CONTINUOUS
100
AcDbLine
 10
52.00996714424576
 20
171.5134630364219
 30
0.0
 11
52.00996579121937
 21
174.0134633884865
 31
0.0
  0
LINE
  5
3506
330
1F
100
AcDbEntity
  8
1
  6
CONTINUOUS
100
AcDbLine
 10
53.05914672803368
 20
138.28067168713
 30
0.0
 11
54.40996679257835
 21
140.813457445506
 31
0.0
  0
LINE
  5
3507
330
1F
100
AcDbEntity
  8
1
  6
CONTINUOUS
100
AcDbLine
 10
54.0099674720713
 20
138.6134574574271
 30
0.0
 11
52.00996714424576
 21
137.9134586465397
 31
0.0
  0
LINE
  5
3508
330
1F
100
AcDbEntity
  8
1
  6
CONTINUOUS
100
AcDbLine
 10
56.50996579121937
 20
174.0134633874356
 30
0.0
 11
56.00996579121936
 21
174.0134634431258
 31
0.0
  0
LINE
  5
3509
330
1F
100
AcDbEntity
  8
1
  6
CONTINUOUS
100
AcDbLine
 10
56.00996407460654
 20
170.5134638038316
 30
0.0
 11
56.00996579121936
 21
174.0134634431258
 31
0.0
  0
LINE
  5
350A
330
1F
100
AcDbEntity
  8
1
  6
CONTINUOUS
100
AcDbLine
 10
54.90996576737749
 20
140.5134572853239
 30
0.0
 11
54.90996576737749
 21
140.8134572841315
 31
0.0
  0
LINE
  5
350B
330
1F
100
AcDbEntity
  8
1
  6
CONTINUOUS
100
AcDbLine
 10
54.90996408056703
 20
138.6134574574271
 30
0.0
 11
54.90996576737749
 21
140.5134572853239
 31
0.0
  0
LINE
  5
350C
330
1F
100
AcDbEntity
  8
1
  6
CONTINUOUS
100
AcDbLine
 10
56.00996407460654
 20
138.6134574574271
 30
0.0
 11
56.00996579121936
 21
174.0134634431258
 31
0.0
  0
LINE
  5
350E
330
1F
100
AcDbEntity
  8
1
  6
CONTINUOUS
100
AcDbLine
 10
58.0099644024321
 20
204.7507880640069
 30
0.0
 11
52.50871273469414
 21
204.7507880640069
 31
0.0
  0
LINE
  5
350F
330
1F
100
AcDbEntity
  8
1
  6
CONTINUOUS
100
AcDbLine
 10
52.00996714424576
 20
201.8134637188949
 30
0.0
 11
52.00996714424576
 21
204.2507870507279
 31
0.0
  0
LINE
  5
3510
330
1F
100
AcDbEntity
  8
1
  6
CONTINUOUS
100
AcDbLine
 10
52.00996714424576
 20
203.5051180434265
 30
0.0
 11
52.00996714424576
 21
204.2507833254375
 31
0.0
  0
LINE
  5
3511
330
1F
100
AcDbEntity
  8
1
  6
CONTINUOUS
100
AcDbLine
 10
52.00996714424576
 20
203.10837090135
 30
0.0
 11
52.00996714424576
 21
203.5051180434265
 31
0.0
  0
ARC
  5
3512
330
1F
100
AcDbEntity
  8
1
  6
CONTINUOUS
100
AcDbCircle
 10
52.5098117641117
 20
204.2506379725173
 30
0.0
 40
0.4998446409999782
100
AcDbArc
 50
89.98250008399084
 51
179.983338605026
  0
ARC
  5
3513
330
1F
100
AcDbEntity
  8
1
  6
CONTINUOUS
100
AcDbCircle
 10
52.5098117641117
 20
204.2506379725173
 30
0.0
 40
0.4998446409999782
100
AcDbArc
 50
89.98250008399084
 51
179.983338605026
  0
LINE
  5
3514
330
1F
100
AcDbEntity
  8
1
  6
CONTINUOUS
100
AcDbLine
 10
68.00996579121926
 20
206.3134629340809
 30
0.0
 11
68.00996579121981
 21
205.3085152975512
 31
0.0
  0
LINE
  5
3515
330
1F
100
AcDbEntity
  8
1
  6
CONTINUOUS
100
AcDbLine
 10
68.00996579121981
 20
204.3185647693365
 30
0.0
 11
68.00996579121981
 21
205.3085152975512
 31
0.0
  0
LINE
  5
3516
330
1F
100
AcDbEntity
  8
1
  6
CONTINUOUS
100
AcDbLine
 10
58.0099644024321
 20
205.3085161757508
 30
0.0
 11
58.0099644024321
 21
206.3134057831803
 31
0.0
  0
LINE
  5
3517
330
1F
100
AcDbEntity
  8
1
  6
CONTINUOUS
100
AcDbLine
 10
58.50996579121982
 20
206.3134629340813
 30
0.0
 11
58.50996579121994
 21
205.308515297278
 31
0.0
  0
LINE
  5
3518
330
1F
100
AcDbEntity
  8
1
  6
CONTINUOUS
100
AcDbLine
 10
58.50996579121982
 20
206.3134629340813
 30
0.0
 11
57.94742422890152
 21
206.3134616625348
 31
0.0
  0
LINE
  5
3519
330
1F
100
AcDbEntity
  8
1
  6
CONTINUOUS
100
AcDbLine
 10
58.0099644024321
 20
205.3085161757508
 30
0.0
 11
58.0099644024321
 21
204.318564982418
 31
0.0
  0
LINE
  5
351A
330
1F
100
AcDbEntity
  8
1
  6
CONTINUOUS
100
AcDbLine
 10
68.00996579121926
 20
206.3134629340809
 30
0.0
 11
58.50996579121982
 21
206.3134629340813
 31
0.0
  0
LINE
  5
352B
330
1F
100
AcDbEntity
  8
1
  6
CONTINUOUS
100
AcDbLine
 10
308.3724712586398
 20
205.3134633612672
 30
0.0
 11
262.1724715089782
 21
205.3134633612672
 31
0.0
  0
LINE
  5
3537
330
1F
100
AcDbEntity
  8
1
  6
CONTINUOUS
100
AcDbLine
 10
262.1724715089793
 20
107.3134621989765
 30
0.0
 11
308.3724712586398
 21
107.3134621989765
 31
0.0
  0
LINE
  5
35EA
330
1F
100
AcDbEntity
  8
1
  6
CONTINUOUS
100
AcDbLine
 10
203.5128403265276
 20
62.20000522491584
 30
0.0
 11
203.5128407242027
 21
72.2000052299158
 31
0.0
  0
LINE
  5
35EB
330
1F
100
AcDbEntity
  8
1
  6
CONTINUOUS
100
AcDbLine
 10
173.5128403265278
 20
62.20000522491584
 30
0.0
 11
173.5128407242024
 21
72.2000052299158
 31
0.0
  0
LINE
  5
35EC
330
1F
100
AcDbEntity
  8
1
  6
CONTINUOUS
100
AcDbLine
 10
202.6542550616768
 20
62.20000522491584
 30
0.0
 11
174.3714263963318
 21
62.20000522491584
 31
0.0
  0
LINE
  5
35ED
330
1F
100
AcDbEntity
  8
1
  6
CONTINUOUS
100
AcDbLine
 10
179.5828662677963
 20
4.000003508302311
 30
0.0
 11
177.2586036338766
 21
4.000003508302311
 31
0.0
  0
LINE
  5
35EE
330
1F
100
AcDbEntity
  8
1
  6
CONTINUOUS
100
AcDbLine
 10
179.5828662677963
 20
0.0000065779415195
 30
0.0
 11
177.2586036338766
 21
0.0000065779415195
 31
0.0
  0
LINE
  5
35EF
330
1F
100
AcDbEntity
  8
1
  6
CONTINUOUS
100
AcDbLine
 10
174.3714267732109
 20
16.00000522491558
 30
0.0
 11
202.6542554385569
 21
16.00000522491567
 31
0.0
  0
LINE
  5
35F0
330
1F
100
AcDbEntity
  8
1
  6
CONTINUOUS
100
AcDbLine
 10
174.3714265819523
 20
6.500005224915581
 30
0.0
 11
202.6542556298144
 21
6.500005224915581
 31
0.0
  0
LINE
  5
35F1
330
1F
100
AcDbEntity
  8
1
  6
CONTINUOUS
100
AcDbLine
 10
174.3714254214721
 20
6.000003836127857
 30
0.0
 11
202.6542549818118
 21
6.000003836127857
 31
0.0
  0
LINE
  5
35F2
330
1F
100
AcDbEntity
  8
1
  6
CONTINUOUS
100
AcDbLine
 10
173.5128410025795
 20
6.500004849406477
 30
0.0
 11
173.5128405045697
 21
16.00000522491558
 31
0.0
  0
LINE
  5
35F3
330
1F
100
AcDbEntity
  8
1
  6
CONTINUOUS
100
AcDbLine
 10
173.5128391399341
 20
6.500004849406477
 30
0.0
 11
173.5128391399341
 21
6.000003836127516
 31
0.0
  0
LINE
  5
35F4
330
1F
100
AcDbEntity
  8
1
  6
CONTINUOUS
100
AcDbLine
 10
173.5128410025795
 20
6.000003836127857
 30
0.0
 11
173.5128391399341
 21
6.000003836127516
 31
0.0
  0
LINE
  5
35F5
330
1F
100
AcDbEntity
  8
1
  6
CONTINUOUS
100
AcDbLine
 10
173.5128410025795
 20
6.000003836127857
 30
0.0
 11
174.3714254214721
 21
6.000003836127857
 31
0.0
  0
LINE
  5
35F6
330
1F
100
AcDbEntity
  8
1
  6
CONTINUOUS
100
AcDbLine
 10
176.958602280851
 20
2.400006226274115
 30
0.0
 11
176.7628457262476
 21
2.400006226274115
 31
0.0
  0
LINE
  5
35F7
330
1F
100
AcDbEntity
  8
1
  6
CONTINUOUS
100
AcDbLine
 10
176.958602280851
 20
1.900005212995153
 30
0.0
 11
176.7628457262476
 21
1.900005212995153
 31
0.0
  0
LINE
  5
35F8
330
1F
100
AcDbEntity
  8
1
  6
CONTINUOUS
100
AcDbLine
 10
176.7628457262476
 20
0.0000065779415195
 30
0.0
 11
176.2628447129684
 21
0.000002852651221
 31
0.0
  0
LINE
  5
35F9
330
1F
100
AcDbEntity
  8
1
  6
CONTINUOUS
100
AcDbLine
 10
176.7628457262476
 20
0.0000065779415195
 30
0.0
 11
176.7628457262476
 21
4.000003508302311
 31
0.0
  0
LINE
  5
35FA
330
1F
100
AcDbEntity
  8
1
  6
CONTINUOUS
100
AcDbLine
 10
176.7628457262476
 20
1.900005212995153
 30
0.0
 11
176.7628457262476
 21
0.0000065779415195
 31
0.0
  0
LINE
  5
35FB
330
1F
100
AcDbEntity
  8
1
  6
CONTINUOUS
100
AcDbLine
 10
176.7628457262476
 20
1.900005212995153
 30
0.0
 11
176.7628457262476
 21
2.400006226274115
 31
0.0
  0
LINE
  5
35FC
330
1F
100
AcDbEntity
  8
1
  6
CONTINUOUS
100
AcDbLine
 10
176.7628457262476
 20
4.000003508302311
 30
0.0
 11
176.7628457262476
 21
2.400006226274115
 31
0.0
  0
LINE
  5
35FD
330
1F
100
AcDbEntity
  8
1
  6
CONTINUOUS
100
AcDbLine
 10
175.012840317126
 20
0.000002852651221
 30
0.0
 11
176.2628447129684
 21
0.000002852651221
 31
0.0
  0
LINE
  5
35FE
330
1F
100
AcDbEntity
  8
1
  6
CONTINUOUS
100
AcDbLine
 10
176.2628447129684
 20
0.000002852651221
 30
0.0
 11
176.2628447129684
 21
4.000003508302311
 31
0.0
  0
LINE
  5
35FF
330
1F
100
AcDbEntity
  8
1
  6
CONTINUOUS
100
AcDbLine
 10
175.012840317126
 20
4.500004521581045
 30
0.0
 11
175.012840317126
 21
0.500003865929955
 31
0.0
  0
LINE
  5
3600
330
1F
100
AcDbEntity
  8
1
  6
CONTINUOUS
100
AcDbLine
 10
175.012840317126
 20
4.500004521581161
 30
0.0
 11
175.012840317126
 21
2.000006905766952
 31
0.0
  0
LINE
  5
3601
330
1F
100
AcDbEntity
  8
1
  6
CONTINUOUS
100
AcDbLine
 10
175.012840317126
 20
2.000006905766952
 30
0.0
 11
175.012840317126
 21
0.0000065779414058
 31
0.0
  0
LINE
  5
3602
330
1F
100
AcDbEntity
  8
1
  6
CONTINUOUS
100
AcDbLine
 10
175.012840317126
 20
0.0000065779415195
 30
0.0
 11
175.012840317126
 21
4.500004521581273
 31
0.0
  0
LINE
  5
3603
330
1F
100
AcDbEntity
  8
1
  6
CONTINUOUS
100
AcDbLine
 10
175.8619308336933
 20
4.000003508302311
 30
0.0
 11
175.5128394677599
 21
4.000003508302311
 31
0.0
  0
ARC
  5
3604
330
1F
100
AcDbEntity
  8
1
  6
CONTINUOUS
100
AcDbCircle
 10
175.51284232536
 20
4.500005516536191
 30
0.0
 40
0.5000020082348679
100
AcDbArc
 50
180.0
 51
269.999885987024
  0
LINE
  5
3605
330
1F
100
AcDbEntity
  8
1
  6
CONTINUOUS
100
AcDbLine
 10
176.958602280851
 20
2.500004193755728
 30
0.0
 11
176.7860095813233
 21
2.500004193755669
 31
0.0
  0
LINE
  5
3606
330
1F
100
AcDbEntity
  8
1
  6
CONTINUOUS
100
AcDbLine
 10
176.958602280851
 20
0.3000042056766574
 30
0.0
 11
176.958602280851
 21
3.700005880567173
 31
0.0
  0
LINE
  5
3607
330
1F
100
AcDbEntity
  8
1
  6
CONTINUOUS
100
AcDbLine
 10
177.2586036338766
 20
0.0000065779415195
 30
0.0
 11
176.7628457262476
 21
0.0000065779415195
 31
0.0
  0
LINE
  5
3608
330
1F
100
AcDbEntity
  8
1
  6
CONTINUOUS
100
AcDbLine
 10
177.1927256002386
 20
4.000003508302311
 30
0.0
 11
175.8619308336933
 21
4.000003508302311
 31
0.0
  0
ARC
  5
3609
330
1F
100
AcDbEntity
  8
1
  6
CONTINUOUS
100
AcDbCircle
 10
177.2586027907054
 20
3.700005212994142
 30
0.0
 40
0.3000000173527155
100
AcDbArc
 50
89.99999999999024
 51
180.0
  0
ARC
  5
360A
330
1F
100
AcDbEntity
  8
1
  6
CONTINUOUS
100
AcDbCircle
 10
177.2586027907054
 20
0.3000052368360571
 30
0.0
 40
0.3000000173527155
100
AcDbArc
 50
180.0
 51
270.0
  0
LINE
  5
360B
330
1F
100
AcDbEntity
  8
1
  6
CONTINUOUS
100
AcDbLine
 10
175.012840317126
 20
6.000003836127516
 30
0.0
 11
175.012840317126
 21
0.5000038659298413
 31
0.0
  0
LINE
  5
360C
330
1F
100
AcDbEntity
  8
1
  6
CONTINUOUS
100
AcDbLine
 10
175.012840317126
 20
4.500004521581273
 30
0.0
 11
175.012840317126
 21
6.000003836127857
 31
0.0
  0
LINE
  5
360D
330
1F
100
AcDbEntity
  8
1
  6
CONTINUOUS
100
AcDbLine
 10
173.5128403265278
 20
62.20000522491584
 30
0.0
 11
174.3714263963318
 21
62.20000522491584
 31
0.0
  0
LINE
  5
360E
330
1F
100
AcDbEntity
  8
1
  6
CONTINUOUS
100
AcDbLine
 10
174.3714267732109
 20
16.00000522491558
 30
0.0
 11
173.5128405045697
 21
16.00000522491558
 31
0.0
  0
LINE
  5
360F
330
1F
100
AcDbEntity
  8
1
  6
CONTINUOUS
100
AcDbLine
 10
175.012840317126
 20
62.20000522491584
 30
0.0
 11
175.012840317126
 21
16.00000547525559
 31
0.0
  0
LINE
  5
3610
330
1F
100
AcDbEntity
  8
1
  6
CONTINUOUS
100
AcDbLine
 10
203.5128412633496
 20
6.50000484940682
 30
0.0
 11
203.5128405045698
 21
16.00000522491558
 31
0.0
  0
LINE
  5
3611
330
1F
100
AcDbEntity
  8
1
  6
CONTINUOUS
100
AcDbLine
 10
202.6542549818118
 20
6.000003836127857
 30
0.0
 11
203.5128403320273
 21
6.000003836127857
 31
0.0
  0
LINE
  5
3612
330
1F
100
AcDbEntity
  8
1
  6
CONTINUOUS
100
AcDbLine
 10
202.0128401618761
 20
0.5000052249149009
 30
0.0
 11
202.0128400861579
 21
4.500004521581045
 31
0.0
  0
LINE
  5
3613
330
1F
100
AcDbEntity
  8
1
  6
CONTINUOUS
100
AcDbLine
 10
201.512840469863
 20
4.000003508302311
 30
0.0
 11
201.1637495695909
 21
4.000003508302311
 31
0.0
  0
ARC
  5
3614
330
1F
100
AcDbEntity
  8
1
  6
CONTINUOUS
100
AcDbCircle
 10
201.5128401618758
 20
0.5000052249149009
 30
0.0
 40
0.5000000000004551
100
AcDbArc
 50
269.9999919141893
 51
0.0
  0
ARC
  5
3615
330
1F
100
AcDbEntity
  8
1
  6
CONTINUOUS
100
AcDbCircle
 10
201.51283780178
 20
4.500006258337348
 30
0.0
 40
0.5000027500421841
100
AcDbArc
 50
270.0003057380806
 51
0.0
  0
LINE
  5
3616
330
1F
100
AcDbEntity
  8
1
  6
CONTINUOUS
100
AcDbLine
 10
199.0128419227261
 20
3.000005207034462
 30
0.0
 11
199.0128419227261
 21
0.0000065779412921
 31
0.0
  0
LINE
  5
3617
330
1F
100
AcDbEntity
  8
1
  6
CONTINUOUS
100
AcDbLine
 10
199.0128419227261
 20
3.000005207034462
 30
0.0
 11
199.0128419227261
 21
2.000006905766838
 31
0.0
  0
LINE
  5
3618
330
1F
100
AcDbEntity
  8
1
  6
CONTINUOUS
100
AcDbLine
 10
199.0128419227261
 20
0.0000065779412921
 30
0.0
 11
199.0128419227261
 21
2.000006905766838
 31
0.0
  0
LINE
  5
3619
330
1F
100
AcDbEntity
  8
1
  6
CONTINUOUS
100
AcDbLine
 10
201.5128400913138
 20
0.0000052249149007
 30
0.0
 11
199.0128419227261
 21
0.0000065779412921
 31
0.0
  0
LINE
  5
361A
330
1F
100
AcDbEntity
  8
1
  6
CONTINUOUS
100
AcDbLine
 10
202.0128405518194
 20
6.000003836127857
 30
0.0
 11
202.0128405518194
 21
4.500004521581273
 31
0.0
  0
LINE
  5
361B
330
1F
100
AcDbEntity
  8
1
  6
CONTINUOUS
100
AcDbLine
 10
191.6628450951834
 20
0.000002852651221
 30
0.0
 11
191.1628454788883
 21
0.000002852651221
 31
0.0
  0
LINE
  5
361C
330
1F
100
AcDbEntity
  8
1
  6
CONTINUOUS
100
AcDbLine
 10
191.1628454788883
 20
4.000003508302311
 30
0.0
 11
191.1628454788883
 21
0.000002852651221
 31
0.0
  0
LINE
  5
361D
330
1F
100
AcDbEntity
  8
1
  6
CONTINUOUS
100
AcDbLine
 10
192.9128418076146
 20
4.000003508302311
 30
0.0
 11
192.9128418076146
 21
0.000002852651221
 31
0.0
  0
LINE
  5
361E
330
1F
100
AcDbEntity
  8
1
  6
CONTINUOUS
100
AcDbLine
 10
192.9128418076146
 20
0.000002852651221
 30
0.0
 11
191.6628450951834
 21
0.000002852651221
 31
0.0
  0
LINE
  5
361F
330
1F
100
AcDbEntity
  8
1
  6
CONTINUOUS
100
AcDbLine
 10
191.6628450951834
 20
4.000003508302311
 30
0.0
 11
191.6628450951834
 21
0.000002852651221
 31
0.0
  0
ARC
  5
3620
330
1F
100
AcDbEntity
  8
1
  6
CONTINUOUS
100
AcDbCircle
 10
192.0128434434194
 20
4.500006258337348
 30
0.0
 40
0.5000027500422029
100
AcDbArc
 50
180.0
 51
269.9996942619129
  0
ARC
  5
3621
330
1F
100
AcDbEntity
  8
1
  6
CONTINUOUS
100
AcDbCircle
 10
188.4026814105336
 20
4.376615209733188
 30
0.0
 40
3.629755363300473
100
AcDbArc
 50
354.0444563627787
 51
1.948078701168595
  0
LINE
  5
3622
330
1F
100
AcDbEntity
  8
1
  6
CONTINUOUS
100
AcDbLine
 10
190.6586036882656
 20
4.000003508302311
 30
0.0
 11
190.6586027569433
 21
4.000003508302311
 31
0.0
  0
ARC
  5
3623
330
1F
100
AcDbEntity
  8
1
  6
CONTINUOUS
100
AcDbCircle
 10
190.6586036180053
 20
3.700005212994142
 30
0.0
 40
0.3000000119209289
100
AcDbArc
 50
359.9904099346143
 51
90.0
  0
ARC
  5
3624
330
1F
100
AcDbEntity
  8
1
  6
CONTINUOUS
100
AcDbCircle
 10
190.6586025529893
 20
0.3000067379475126
 30
0.0
 40
0.3000001600061076
100
AcDbArc
 50
270.0000389522957
 51
0.0
  0
LINE
  5
3625
330
1F
100
AcDbEntity
  8
1
  6
CONTINUOUS
100
AcDbLine
 10
190.9586027129846
 20
0.3000042056766574
 30
0.0
 11
190.9586027129846
 21
2.800005546781163
 31
0.0
  0
LINE
  5
3626
330
1F
100
AcDbEntity
  8
1
  6
CONTINUOUS
100
AcDbLine
 10
190.9586036443074
 20
2.800005546781163
 30
0.0
 11
190.9586036443074
 21
3.700005880567173
 31
0.0
  0
ARC
  5
3627
330
1F
100
AcDbEntity
  8
1
  6
CONTINUOUS
100
AcDbCircle
 10
190.6586027668635
 20
3.700005212993856
 30
0.0
 40
0.3000000119212132
100
AcDbArc
 50
0.0109032867374781
 51
90.0
  0
LINE
  5
3628
330
1F
100
AcDbEntity
  8
1
  6
CONTINUOUS
100
AcDbLine
 10
190.6586027569433
 20
4.000003508302311
 30
0.0
 11
188.3343387260397
 21
4.000003508302311
 31
0.0
  0
ELLIPSE
  5
3629
330
1F
100
AcDbEntity
  8
1
  6
CONTINUOUS
100
AcDbEllipse
 10
188.3343386035381
 20
3.700005212994142
 30
0.0
 11
0.0
 21
0.3000000119209574
 31
0.0
210
0.0
220
0.0
230
1.0
 40
0.4142135186617532
 41
4.712388980384695
 42
6.283185307179584
  0
LINE
  5
362A
330
1F
100
AcDbEntity
  8
1
  6
CONTINUOUS
100
AcDbLine
 10
188.4586023032029
 20
0.3000042056766574
 30
0.0
 11
188.4586023032029
 21
3.700005880567173
 31
0.0
  0
LINE
  5
362B
330
1F
100
AcDbEntity
  8
1
  6
CONTINUOUS
100
AcDbLine
 10
190.9586027129846
 20
3.700005880567173
 30
0.0
 11
190.9586027129846
 21
0.3000042056766574
 31
0.0
  0
LINE
  5
362C
330
1F
100
AcDbEntity
  8
1
  6
CONTINUOUS
100
AcDbLine
 10
190.6586027569433
 20
0.0000065779415195
 30
0.0
 11
188.3343387260397
 21
0.0000065779415195
 31
0.0
  0
ARC
  5
362D
330
1F
100
AcDbEntity
  8
1
  6
CONTINUOUS
100
AcDbCircle
 10
190.6586027668635
 20
0.3000052368360571
 30
0.0
 40
0.3000000119209005
100
AcDbArc
 50
270.0
 51
0.0109030300132773
  0
ELLIPSE
  5
362E
330
1F
100
AcDbEntity
  8
1
  6
CONTINUOUS
100
AcDbEllipse
 10
188.3343386035381
 20
0.3000052368360571
 30
0.0
 11
0.0
 21
0.3000000119209289
 31
0.0
210
0.0
220
0.0
230
1.0
 40
0.4142135186617927
 41
3.141592653589336
 42
4.712388980384695
  0
LINE
  5
362F
330
1F
100
AcDbEntity
  8
1
  6
CONTINUOUS
100
AcDbLine
 10
192.0128407753368
 20
4.000003508302311
 30
0.0
 11
190.7244910351295
 21
4.000003508302311
 31
0.0
  0
LINE
  5
3630
330
1F
100
AcDbEntity
  8
1
  6
CONTINUOUS
100
AcDbLine
 10
191.1628454788883
 20
2.400006226274115
 30
0.0
 11
190.9586027129846
 21
2.400006226274115
 31
0.0
  0
LINE
  5
3631
330
1F
100
AcDbEntity
  8
1
  6
CONTINUOUS
100
AcDbLine
 10
190.658853748377
 20
0.0000065779415195
 30
0.0
 11
191.1628454788883
 21
0.0000065779415195
 31
0.0
  0
LINE
  5
3632
330
1F
100
AcDbEntity
  8
1
  6
CONTINUOUS
100
AcDbLine
 10
191.1628454788883
 20
1.900005212995153
 30
0.0
 11
190.9586027129846
 21
1.900005212995153
 31
0.0
  0
LINE
  5
3633
330
1F
100
AcDbEntity
  8
1
  6
CONTINUOUS
100
AcDbLine
 10
191.1311972751575
 20
2.500004193755669
 30
0.0
 11
190.9586027129846
 21
2.500004193755728
 31
0.0
  0
LINE
  5
3634
330
1F
100
AcDbEntity
  8
1
  6
CONTINUOUS
100
AcDbLine
 10
191.5128406933803
 20
4.500004521581273
 30
0.0
 11
191.5128406933803
 21
6.000003836127857
 31
0.0
  0
ARC
  5
3635
330
1F
100
AcDbEntity
  8
1
  6
CONTINUOUS
100
AcDbCircle
 10
188.6232415488658
 20
4.37662366321649
 30
0.0
 40
3.629996561116498
100
AcDbArc
 50
178.0521842969908
 51
185.9552806390629
  0
ARC
  5
3636
330
1F
100
AcDbEntity
  8
1
  6
CONTINUOUS
100
AcDbCircle
 10
185.0128381630813
 20
4.500006452104059
 30
0.0
 40
0.5000029438099649
100
AcDbArc
 50
270.0003279419046
 51
0.0
  0
ELLIPSE
  5
3637
330
1F
100
AcDbEntity
  8
1
  6
CONTINUOUS
100
AcDbEllipse
 10
179.5828667508374
 20
3.700005212994142
 30
0.0
 11
0.0
 21
0.3000000119209574
 31
0.0
210
0.0
220
0.0
230
1.0
 40
0.4142136060842752
 41
0.0
 42
1.570796326794896
  0
ELLIPSE
  5
3638
330
1F
100
AcDbEntity
  8
1
  6
CONTINUOUS
100
AcDbEllipse
 10
179.5828667508374
 20
0.3000052368360571
 30
0.0
 11
0.0
 21
0.3000000119209289
 31
0.0
210
0.0
220
0.0
230
1.0
 40
0.4142136060846934
 41
1.570796326794896
 42
3.141592653590283
  0
LINE
  5
3639
330
1F
100
AcDbEntity
  8
1
  6
CONTINUOUS
100
AcDbLine
 10
179.4586017593104
 20
3.700005880567173
 30
0.0
 11
179.4586017593104
 21
0.3000042056766574
 31
0.0
  0
LINE
  5
363A
330
1F
100
AcDbEntity
  8
1
  6
CONTINUOUS
100
AcDbLine
 10
185.5128411068875
 20
6.000003836127857
 30
0.0
 11
185.5128411068875
 21
4.500004521581273
 31
0.0
  0
LINE
  5
363B
330
1F
100
AcDbEntity
  8
1
  6
CONTINUOUS
100
AcDbLine
 10
188.3343387260397
 20
4.000003508302311
 30
0.0
 11
179.5828662677963
 21
4.000003508302311
 31
0.0
  0
LINE
  5
363C
330
1F
100
AcDbEntity
  8
1
  6
CONTINUOUS
100
AcDbLine
 10
188.3343387260397
 20
0.0000065779415195
 30
0.0
 11
179.5828662677963
 21
0.0000065779415195
 31
0.0
  0
LINE
  5
363D
330
1F
100
AcDbEntity
  8
1
  6
CONTINUOUS
100
AcDbLine
 10
201.1637495695909
 20
4.000003508302311
 30
0.0
 11
192.012687572773
 21
4.000003508302311
 31
0.0
  0
LINE
  5
363E
330
1F
100
AcDbEntity
  8
1
  6
CONTINUOUS
100
AcDbLine
 10
192.9128418076146
 20
3.000005207034462
 30
0.0
 11
199.0128419227261
 21
3.000005207034462
 31
0.0
  0
LINE
  5
363F
330
1F
100
AcDbEntity
  8
1
  6
CONTINUOUS
100
AcDbLine
 10
199.0128419227261
 20
2.000006905766838
 30
0.0
 11
192.9128418076146
 21
2.000006905766838
 31
0.0
  0
LINE
  5
3640
330
1F
100
AcDbEntity
  8
1
  6
CONTINUOUS
100
AcDbLine
 10
199.0128419227261
 20
0.0000065779412921
 30
0.0
 11
192.9128418076146
 21
0.0000065779412921
 31
0.0
  0
LINE
  5
3641
330
1F
100
AcDbEntity
  8
1
  6
CONTINUOUS
100
AcDbLine
 10
203.5128403320273
 20
6.50000484940682
 30
0.0
 11
203.5128403320273
 21
6.000003836127857
 31
0.0
  0
LINE
  5
3642
330
1F
100
AcDbEntity
  8
1
  6
CONTINUOUS
100
AcDbLine
 10
202.6542550616768
 20
62.20000522491584
 30
0.0
 11
203.5128403265276
 21
62.20000522491584
 31
0.0
  0
LINE
  5
3643
330
1F
100
AcDbEntity
  8
1
  6
CONTINUOUS
100
AcDbLine
 10
203.5128405045698
 20
16.00000522491558
 30
0.0
 11
202.6542554385569
 21
16.00000522491567
 31
0.0
  0
LINE
  5
3644
330
1F
100
AcDbEntity
  8
1
  6
CONTINUOUS
100
AcDbLine
 10
202.5128406337758
 20
62.20000522491584
 30
0.0
 11
202.5128406337758
 21
16.00000547525559
 31
0.0
  0
LINE
  5
3645
330
1F
100
AcDbEntity
  8
1
  6
CONTINUOUS
100
AcDbLine
 10
202.0128405518194
 20
16.00000547525559
 30
0.0
 11
202.0128405518194
 21
62.20000522491584
 31
0.0
  0
LINE
  5
3647
330
1F
100
AcDbEntity
  8
1
  6
CONTINUOUS
100
AcDbLine
 10
179.4586017593104
 20
96.31345749020972
 30
0.0
 11
176.9586022808509
 21
98.81345883131423
 31
0.0
  0
ARC
  5
364C
330
1F
100
AcDbEntity
  8
1
100
AcDbCircle
 10
188.5128406475368
 20
207.613462842094
 30
0.0
 40
100.0
100
AcDbArc
 50
262.848468340347
 51
277.1515314299553
  0
LINE
  5
364D
330
1F
100
AcDbEntity
  8
1
  6
CONTINUOUS
100
AcDbLine
 10
179.4586017593104
 20
101.3134574902097
 30
0.0
 11
176.9586022808509
 21
103.8134588313142
 31
0.0
  0
ARC
  5
364E
330
1F
100
AcDbEntity
  8
1
  6
CONTINUOUS
100
AcDbCircle
 10
188.5128406673033
 20
207.5137081472427
 30
0.0
 40
100.0002448767302
100
AcDbArc
 50
262.687996094579
 51
277.3120039054209
  0
ARC
  5
364F
330
1F
100
AcDbEntity
  8
1
  6
CONTINUOUS
100
AcDbCircle
 10
188.5128402488292
 20
206.313462771381
 30
0.0
 40
100.0
100
AcDbArc
 50
261.8703153886099
 51
278.1296851672172
  0
LINE
  5
3650
330
1F
100
AcDbEntity
  8
1
  6
CONTINUOUS
100
AcDbLine
 10
202.6542550616768
 20
72.20000522491584
 30
0.0
 11
174.3714263963318
 21
72.20000522491584
 31
0.0
  0
ARC
  5
3652
330
1F
100
AcDbEntity
  8
1
100
AcDbCircle
 10
188.5128406475368
 20
105.0134628420942
 30
0.0
 40
100.0
100
AcDbArc
 50
82.84846834703682
 51
97.15153165965276
  0
ARC
  5
3653
330
1F
100
AcDbEntity
  8
1
  6
CONTINUOUS
100
AcDbCircle
 10
188.5128404344727
 20
105.1132218742812
 30
0.0
 40
100.0002404220969
100
AcDbArc
 50
82.68799590157284
 51
97.31200409842717
  0
ARC
  5
3654
330
1F
100
AcDbEntity
  8
1
  6
CONTINUOUS
100
AcDbCircle
 10
188.5128407338788
 20
106.313462771381
 30
0.0
 40
100.0
100
AcDbArc
 50
81.87031538861004
 51
98.12968516721717
  0
LINE
  5
3657
330
1F
100
AcDbEntity
  8
1
100
AcDbLine
 10
175.0128406475368
 20
203.0448353715045
 30
0.0
 11
175.0128406475368
 21
109.5820903126842
 31
0.0
  0
LINE
  5
3658
330
1F
100
AcDbEntity
  8
1
  6
CONTINUOUS
100
AcDbLine
 10
114.20996579122
 20
108.3083607396172
 30
0.0
 11
114.2099657912214
 21
204.3185646576302
 31
0.0
  0
LINE
  5
3659
330
1F
100
AcDbEntity
  8
1
  6
CONTINUOUS
100
AcDbLine
 10
124.2099657962214
 20
204.3185646576302
 30
0.0
 11
124.20996579622
 21
108.308360739617
 31
0.0
  0
LINE
  5
365A
330
1F
100
AcDbEntity
  8
1
  6
CONTINUOUS
100
AcDbLine
 10
174.9128402634053
 20
203.3083709237624
 30
0.0
 11
174.9128407193024
 21
109.318554487166
 31
0.0
  0
LINE
  5
365B
330
1F
100
AcDbEntity
  8
1
  6
CONTINUOUS
100
AcDbLine
 10
173.5128402585054
 20
204.3185646576302
 30
0.0
 11
173.5128407242024
 21
108.308360739617
 31
0.0
  0
LINE
  5
365C
330
1F
100
AcDbEntity
  8
1
  6
CONTINUOUS
100
AcDbLine
 10
124.2099657912199
 20
106.313462771381
 30
0.0
 11
124.20996579122
 21
107.318410297773
 31
0.0
  0
LINE
  5
365D
330
1F
100
AcDbEntity
  8
1
  6
CONTINUOUS
100
AcDbLine
 10
124.20996579622
 20
108.308360739617
 30
0.0
 11
124.20996579122
 21
107.318410297773
 31
0.0
  0
LINE
  5
365E
330
1F
100
AcDbEntity
  8
1
  6
CONTINUOUS
100
AcDbLine
 10
114.2099657912199
 20
106.3134627713812
 30
0.0
 11
114.20996579122
 21
107.3184102977732
 31
0.0
  0
LINE
  5
365F
330
1F
100
AcDbEntity
  8
1
  6
CONTINUOUS
100
AcDbLine
 10
114.20996579122
 20
108.3083607396172
 30
0.0
 11
114.20996579122
 21
107.3184102977732
 31
0.0
  0
LINE
  5
3660
330
1F
100
AcDbEntity
  8
1
  6
CONTINUOUS
100
AcDbLine
 10
114.2099657912199
 20
106.3134627713812
 30
0.0
 11
124.2099657912199
 21
106.313462771381
 31
0.0
  0
LWPOLYLINE
  5
3661
330
1F
100
AcDbEntity
  8
1
  6
CONTINUOUS
100
AcDbPolyline
 90
       10
 70
   128
 43
0.0
 10
177.2586036338766
 20
98.93772333980002
 10
177.2065091743429
 20
98.91614273310104
 10
177.1559961005409
 20
98.89522150278487
 10
177.1086029573639
 20
98.87558922291198
 10
177.0657658442218
 20
98.8578456652204
 10
177.0287886127191
 20
98.84253099680343
 10
176.9987944378812
 20
98.83010715365806
 10
176.9766941531854
 20
98.82095039010444
 10
176.9631601735311
 20
98.81534382820525
 10
176.9586022808509
 20
98.81345883131423
  0
LINE
  5
3662
330
1F
100
AcDbEntity
  8
1
  6
CONTINUOUS
100
AcDbLine
 10
176.9586022808509
 20
98.81345883131423
 30
0.0
 11
176.9586022808509
 21
101.9832077634374
 31
0.0
  0
ARC
  5
3676
330
1F
100
AcDbEntity
  8
1
100
AcDbCircle
 10
176.212840647537
 20
109.5820903126842
 30
0.0
 40
1.199999999999999
100
AcDbArc
 50
180.0
 51
262.848468340347
  0
LINE
  5
3677
330
1F
100
AcDbEntity
  8
1
  6
CONTINUOUS
100
AcDbLine
 10
176.9586022808509
 20
103.8134588313142
 30
0.0
 11
176.9586022808509
 21
106.9832077634374
 31
0.0
  0
ARC
  5
3678
330
1F
100
AcDbEntity
  8
1
  6
CONTINUOUS
100
AcDbCircle
 10
175.9128407193024
 20
109.3185544920167
 30
0.0
 40
1.0
100
AcDbArc
 50
180.0
 51
262.6879783514231
  0
LWPOLYLINE
  5
3679
330
1F
100
AcDbEntity
  8
1
  6
CONTINUOUS
100
AcDbPolyline
 90
       10
 70
   128
 43
0.0
 10
177.2586036338766
 20
103.9377233398
 10
177.2065091743429
 20
103.916142733101
 10
177.1559961005409
 20
103.8952215027848
 10
177.1086029573639
 20
103.8755892229119
 10
177.0657658442218
 20
103.8578456652204
 10
177.0287886127191
 20
103.8425309968034
 10
176.9987944378812
 20
103.830107153658
 10
176.9766941531854
 20
103.8209503901044
 10
176.9631601735311
 20
103.8153438282052
 10
176.9586022808509
 20
103.8134588313142
  0
ARC
  5
367A
330
1F
100
AcDbEntity
  8
1
  6
CONTINUOUS
100
AcDbCircle
 10
174.5128407242025
 20
108.3083607954611
 30
0.0
 40
1.000000000000001
100
AcDbArc
 50
180.0
 51
261.8703044297624
  0
LINE
  5
367B
330
1F
100
AcDbEntity
  8
1
  6
CONTINUOUS
100
AcDbLine
 10
173.5128407242024
 20
72.2000052299158
 30
0.0
 11
174.3714263963318
 21
72.20000522491584
 31
0.0
  0
LINE
  5
367C
330
1F
100
AcDbEntity
  8
1
  6
CONTINUOUS
100
AcDbLine
 10
124.2099657912214
 20
205.3085151078034
 30
0.0
 11
124.2099657912211
 21
206.313462771381
 31
0.0
  0
LINE
  5
367D
330
1F
100
AcDbEntity
  8
1
  6
CONTINUOUS
100
AcDbLine
 10
124.2099657912214
 20
205.3085151078034
 30
0.0
 11
124.2099657962214
 21
204.3185646576302
 31
0.0
  0
LINE
  5
367E
330
1F
100
AcDbEntity
  8
1
  6
CONTINUOUS
100
AcDbLine
 10
114.2099657912214
 20
205.3085151078034
 30
0.0
 11
114.2099657912212
 21
206.3134627713813
 31
0.0
  0
LINE
  5
367F
330
1F
100
AcDbEntity
  8
1
  6
CONTINUOUS
100
AcDbLine
 10
114.2099657912214
 20
205.3085151078034
 30
0.0
 11
114.2099657912214
 21
204.3185646576302
 31
0.0
  0
LINE
  5
3680
330
1F
100
AcDbEntity
  8
1
  6
CONTINUOUS
100
AcDbLine
 10
124.2099657912211
 20
206.313462771381
 30
0.0
 11
114.2099657912212
 21
206.3134627713813
 31
0.0
  0
ARC
  5
3682
330
1F
100
AcDbEntity
  8
1
100
AcDbCircle
 10
176.212840647537
 20
203.0448353715043
 30
0.0
 40
1.199999999999999
100
AcDbArc
 50
97.15153165965276
 51
180.0
  0
ARC
  5
3683
330
1F
100
AcDbEntity
  8
1
  6
CONTINUOUS
100
AcDbCircle
 10
175.9128402634053
 20
203.3083709286128
 30
0.0
 40
1.0
100
AcDbArc
 50
97.31202220394694
 51
180.0
  0
ARC
  5
3684
330
1F
100
AcDbEntity
  8
1
  6
CONTINUOUS
100
AcDbCircle
 10
174.5128402585055
 20
204.3185646114872
 30
0.0
 40
1.000000000000057
100
AcDbArc
 50
98.12969612606799
 51
180.0
  0
LINE
  5
3688
330
1F
100
AcDbEntity
  8
1
100
AcDbLine
 10
195.4128402498614
 20
181.5134645885765
 30
0.0
 11
195.4128402498614
 21
182.7134644127265
 31
0.0
  0
LINE
  5
3689
330
1F
100
AcDbEntity
  8
1
100
AcDbLine
 10
194.6128406775629
 20
179.313464134827
 30
0.0
 11
194.6128406775629
 21
182.1134645006759
 31
0.0
  0
LINE
  5
368A
330
1F
100
AcDbEntity
  8
1
100
AcDbLine
 10
193.2628404465618
 20
182.1134641266263
 30
0.0
 11
193.2628404465618
 21
181.9134641266256
 31
0.0
  0
LINE
  5
368B
330
1F
100
AcDbEntity
  8
1
100
AcDbLine
 10
194.2628404465618
 20
181.9134641266256
 30
0.0
 11
194.0628404465629
 21
182.1134641266263
 31
0.0
  0
LINE
  5
368C
330
1F
100
AcDbEntity
  8
1
100
AcDbLine
 10
194.6128406775629
 20
182.1134645006759
 30
0.0
 11
194.4128405516135
 21
181.9134639090763
 31
0.0
  0
LINE
  5
368D
330
1F
100
AcDbEntity
  8
1
100
AcDbLine
 10
187.4628404465624
 20
181.9134641266256
 30
0.0
 11
187.4628404465624
 21
182.1134641266263
 31
0.0
  0
LINE
  5
368E
330
1F
100
AcDbEntity
  8
1
100
AcDbLine
 10
186.4628404465624
 20
181.9134641266256
 30
0.0
 11
186.6628404465633
 21
182.1134641266263
 31
0.0
  0
LINE
  5
368F
330
1F
100
AcDbEntity
  8
1
100
AcDbLine
 10
183.9128402275133
 20
180.013464226301
 30
0.0
 11
183.9128402275133
 21
182.7134644127265
 31
0.0
  0
LINE
  5
3690
330
1F
100
AcDbEntity
  8
1
100
AcDbLine
 10
185.2128404465624
 20
182.1134641266263
 30
0.0
 11
185.2128404465624
 21
181.9134641266256
 31
0.0
  0
ARC
  5
3691
330
1F
100
AcDbEntity
  8
1
100
AcDbCircle
 10
185.2128404465624
 20
181.6134641266263
 30
0.0
 40
0.4999999999999716
100
AcDbArc
 50
90.0
 51
180.0
  0
LINE
  5
3692
330
1F
100
AcDbEntity
  8
1
100
AcDbLine
 10
183.212840509215
 20
142.313463190682
 30
0.0
 11
183.2128405529892
 21
183.2134641266247
 31
0.0
  0
LINE
  5
3693
330
1F
100
AcDbEntity
  8
1
100
AcDbLine
 10
195.9128402498611
 20
113.8134628587542
 30
0.0
 11
195.9128402498613
 21
183.2134641266247
 31
0.0
  0
LINE
  5
3694
330
1F
100
AcDbEntity
  8
1
100
AcDbLine
 10
202.0128406360929
 20
203.0448353680198
 30
0.0
 11
202.0128402545294
 21
109.5820902633728
 31
0.0
  0
LINE
  5
3695
330
1F
100
AcDbEntity
  8
1
  6
CONTINUOUS
100
AcDbLine
 10
262.1724715089782
 20
204.318564803145
 30
0.0
 11
262.1724715089793
 21
108.3083608851322
 31
0.0
  0
LINE
  5
3696
330
1F
100
AcDbEntity
  8
1
  6
CONTINUOUS
100
AcDbLine
 10
252.1724715039794
 20
108.3083608851321
 30
0.0
 11
252.172471503978
 21
204.318564803145
 31
0.0
  0
LINE
  5
3697
330
1F
100
AcDbEntity
  8
1
  6
CONTINUOUS
100
AcDbLine
 10
202.1128407193024
 20
109.3185546189999
 30
0.0
 11
202.1128402634054
 21
203.308371055596
 31
0.0
  0
LINE
  5
3698
330
1F
100
AcDbEntity
  8
1
  6
CONTINUOUS
100
AcDbLine
 10
203.5128407242025
 20
108.3083608851321
 30
0.0
 11
203.5128402585055
 21
204.318564803145
 31
0.0
  0
LINE
  5
3699
330
1F
100
AcDbEntity
  8
1
100
AcDbLine
 10
195.4128402498614
 20
113.8134628587541
 30
0.0
 11
195.4128402498614
 21
183.2134641266247
 31
0.0
  0
LINE
  5
369A
330
1F
100
AcDbEntity
  8
1
100
AcDbLine
 10
194.7128402498587
 20
126.3634620558661
 30
0.0
 11
194.712840249859
 21
125.7134620558638
 31
0.0
  0
LINE
  5
369B
330
1F
100
AcDbEntity
  8
1
100
AcDbLine
 10
194.846814846074
 20
126.3634620558661
 30
0.0
 11
194.846814846074
 21
125.6676372382875
 31
0.0
  0
LINE
  5
369C
330
1F
100
AcDbEntity
  8
1
100
AcDbLine
 10
189.0628402498585
 20
125.4134620558658
 30
0.0
 11
189.0628402498587
 21
126.3034620558662
 31
0.0
  0
LINE
  5
369D
330
1F
100
AcDbEntity
  8
1
100
AcDbLine
 10
190.4128402498615
 20
125.2134620558658
 30
0.0
 11
190.4128402498615
 21
126.3634620558661
 31
0.0
  0
LINE
  5
369E
330
1F
100
AcDbEntity
  8
1
100
AcDbLine
 10
189.7428402498585
 20
126.0684620558661
 30
0.0
 11
189.7428402498586
 21
125.4134620558658
 31
0.0
  0
LINE
  5
369F
330
1F
100
AcDbEntity
  8
1
100
AcDbLine
 10
190.278865653646
 20
125.2134620558658
 30
0.0
 11
190.278865653646
 21
126.3634620558661
 31
0.0
  0
LINE
  5
36A0
330
1F
100
AcDbEntity
  8
1
100
AcDbLine
 10
186.9128385977894
 20
142.3134630474964
 30
0.0
 11
186.9128402498613
 21
113.8134628587542
 31
0.0
  0
LINE
  5
36A1
330
1F
100
AcDbEntity
  8
1
100
AcDbLine
 10
188.1628402498614
 20
141.263462055866
 30
0.0
 11
188.1628402498614
 21
122.3634620558661
 31
0.0
  0
LINE
  5
36A2
330
1F
100
AcDbEntity
  8
1
100
AcDbLine
 10
188.4128402498614
 20
126.3625001615425
 30
0.0
 11
188.4128402498614
 21
122.3634620558661
 31
0.0
  0
ARC
  5
36A3
330
1F
100
AcDbEntity
  8
1
  6
CONTINUOUS
100
AcDbCircle
 10
202.5128407242025
 20
108.3083609312751
 30
0.0
 40
1.000000000000113
100
AcDbArc
 50
278.1296961260613
 51
0.0
  0
LINE
  5
36A4
330
1F
100
AcDbEntity
  8
1
  6
CONTINUOUS
100
AcDbLine
 10
202.6542550616768
 20
72.20000522491584
 30
0.0
 11
203.5128407242027
 21
72.2000052299158
 31
0.0
  0
LINE
  5
36A5
330
1F
100
AcDbEntity
  8
1
  6
CONTINUOUS
100
AcDbLine
 10
190.9586027129846
 20
98.81345510602393
 30
0.0
 11
188.4586023032029
 21
96.31345749020972
 31
0.0
  0
LINE
  5
36A6
330
1F
100
AcDbEntity
  8
1
  6
CONTINUOUS
100
AcDbLine
 10
187.8372825547415
 20
97.81345680475631
 30
0.0
 11
189.4586029327767
 21
99.4347776484529
 31
0.0
  0
LWPOLYLINE
  5
36A7
330
1F
100
AcDbEntity
  8
1
  6
CONTINUOUS
100
AcDbPolyline
 90
       10
 70
   128
 43
0.0
 10
188.4586023032029
 20
96.31345749020972
 10
188.456714512344
 20
96.31801352024474
 10
188.4511088817673
 20
96.33154749989905
 10
188.4419539808591
 20
96.35364964723983
 10
188.4295301377137
 20
96.38364195943278
 10
188.4142136066516
 20
96.42061919093528
 10
188.3964709802826
 20
96.46345630407729
 10
188.3768396317321
 20
96.51084944725432
 10
188.3559165387709
 20
96.56136065841117
 10
188.3343387260397
 20
96.61345511794486
  0
LINE
  5
36A8
330
1F
100
AcDbEntity
  8
1
  6
CONTINUOUS
100
AcDbLine
 10
189.4586029327767
 20
99.4347776484529
 30
0.0
 11
189.4586029327767
 21
99.81345713258185
 31
0.0
  0
LWPOLYLINE
  5
36A9
330
1F
100
AcDbEntity
  8
1
  6
CONTINUOUS
100
AcDbPolyline
 90
       10
 70
   128
 43
0.0
 10
190.658602756943
 20
98.93771961450973
 10
190.7106972164768
 20
98.91614273310104
 10
190.7612088932951
 20
98.89522150278487
 10
190.8086029677946
 20
98.87558922291198
 10
190.8514391496139
 20
98.8578456652204
 10
190.8884159154554
 20
98.84252727151313
 10
190.9184105559545
 20
98.83010342836776
 10
190.940510374989
 20
98.82095039010444
 10
190.9540452859659
 20
98.81534382820525
 10
190.9586027129846
 20
98.81345510602393
  0
LINE
  5
36AA
330
1F
100
AcDbEntity
  8
1
  6
CONTINUOUS
100
AcDbLine
 10
190.9586027129846
 20
101.3433742535153
 30
0.0
 11
190.9586027129846
 21
98.81345510602393
 31
0.0
  0
LINE
  5
36AB
330
1F
100
AcDbEntity
  8
1
  6
CONTINUOUS
100
AcDbLine
 10
178.4586034580429
 20
99.4347776484529
 30
0.0
 11
180.0799224390941
 21
97.81345680475631
 31
0.0
  0
LINE
  5
36AC
330
1F
100
AcDbEntity
  8
1
  6
CONTINUOUS
100
AcDbLine
 10
178.4586034580429
 20
99.81345713258185
 30
0.0
 11
178.4586034580429
 21
99.4347776484529
 31
0.0
  0
LWPOLYLINE
  5
36AD
330
1F
100
AcDbEntity
  8
1
  6
CONTINUOUS
100
AcDbPolyline
 90
       10
 70
   128
 43
0.0
 10
179.5828662677963
 20
96.61345884323516
 10
179.5612893863874
 20
96.56136438370147
 10
179.5403662934263
 20
96.51084944725432
 10
179.5207340135533
 20
96.46345630407729
 10
179.5029904558616
 20
96.42061919093528
 10
179.4876757874448
 20
96.38364568472304
 10
179.4752500816541
 20
96.35364964723983
 10
179.4660970433909
 20
96.33155122518935
 10
179.4604904814916
 20
96.31801352024474
 10
179.4586017593104
 20
96.31345749020972
  0
LINE
  5
36AE
330
1F
100
AcDbEntity
  8
1
  6
CONTINUOUS
100
AcDbLine
 10
189.4586029327767
 20
99.81345713258185
 30
0.0
 11
178.4586034580429
 21
99.81345713258185
 31
0.0
  0
LINE
  5
36AF
330
1F
100
AcDbEntity
  8
1
  6
CONTINUOUS
100
AcDbLine
 10
180.0799224390941
 20
97.81345680475631
 30
0.0
 11
187.8372825547415
 21
97.81345680475631
 31
0.0
  0
LINE
  5
36B0
330
1F
100
AcDbEntity
  8
1
  6
CONTINUOUS
100
AcDbLine
 10
179.4586017593104
 20
96.31345749020972
 30
0.0
 11
188.4586023032029
 21
96.31345749020972
 31
0.0
  0
LINE
  5
3714
330
1F
100
AcDbEntity
  8
1
100
AcDbLine
 10
195.4128402498614
 20
114.3134628394229
 30
0.0
 11
195.4128402498614
 21
119.3134628394229
 31
0.0
  0
LINE
  5
3715
330
1F
100
AcDbEntity
  8
1
100
AcDbLine
 10
195.4128402498614
 20
119.3134628394229
 30
0.0
 11
195.4128402498614
 21
120.9134628394233
 31
0.0
  0
ARC
  5
3719
330
1F
100
AcDbEntity
  8
1
100
AcDbCircle
 10
200.8128402545294
 20
109.5820902633738
 30
0.0
 40
1.199999999999999
100
AcDbArc
 50
277.1515314299487
 51
359.9999997650741
  0
ARC
  5
371A
330
1F
100
AcDbEntity
  8
1
  6
CONTINUOUS
100
AcDbCircle
 10
201.1128407193026
 20
109.3185546141492
 30
0.0
 40
1.0
100
AcDbArc
 50
277.3120222039535
 51
0.0
  0
LINE
  5
371B
330
1F
100
AcDbEntity
  8
1
100
AcDbLine
 10
195.4128402498618
 20
124.2134620558658
 30
0.0
 11
195.4128402498614
 21
122.3634620558661
 31
0.0
  0
ARC
  5
371C
330
1F
100
AcDbEntity
  8
1
100
AcDbCircle
 10
195.9128402498618
 20
124.813462055866
 30
0.0
 40
1.366025403784731
100
AcDbArc
 50
141.2958169670334
 51
218.7041830329667
  0
ARC
  5
371D
330
1F
100
AcDbEntity
  8
1
100
AcDbCircle
 10
192.4128402498616
 20
124.813462055866
 30
0.0
 40
0.8000000000000088
100
AcDbArc
 50
321.3178125465111
 51
218.6821874534889
  0
LINE
  5
371E
330
1F
100
AcDbEntity
  8
1
100
AcDbLine
 10
192.0128402498616
 20
125.2134620558658
 30
0.0
 11
192.8128402498618
 21
125.2134620558658
 31
0.0
  0
LINE
  5
371F
330
1F
100
AcDbEntity
  8
1
100
AcDbLine
 10
192.8128402498618
 20
124.4134620558658
 30
0.0
 11
192.0128402498616
 21
124.4134620558658
 31
0.0
  0
LINE
  5
3720
330
1F
100
AcDbEntity
  8
1
100
AcDbLine
 10
191.7883404500218
 20
124.3134620558659
 30
0.0
 11
193.0373400497014
 21
124.3134620558659
 31
0.0
  0
LINE
  5
3721
330
1F
100
AcDbEntity
  8
1
100
AcDbLine
 10
192.5448910574306
 20
124.945512863435
 30
0.0
 11
192.8128402498618
 21
125.2134620558658
 31
0.0
  0
LINE
  5
3722
330
1F
100
AcDbEntity
  8
1
100
AcDbLine
 10
192.8128402498618
 20
124.4134620558658
 30
0.0
 11
192.5448910574306
 21
124.6814112482971
 31
0.0
  0
LINE
  5
3723
330
1F
100
AcDbEntity
  8
1
100
AcDbLine
 10
192.2807894422929
 20
124.6814112482971
 30
0.0
 11
192.0128402498616
 21
124.4134620558658
 31
0.0
  0
LINE
  5
3724
330
1F
100
AcDbEntity
  8
1
100
AcDbLine
 10
192.0128402498616
 20
125.2134620558658
 30
0.0
 11
192.2807894422929
 21
124.945512863435
 31
0.0
  0
LINE
  5
3725
330
1F
100
AcDbEntity
  8
1
100
AcDbLine
 10
192.2807894422929
 20
124.945512863435
 30
0.0
 11
192.2807894422929
 21
124.6814112482971
 31
0.0
  0
LINE
  5
3726
330
1F
100
AcDbEntity
  8
1
100
AcDbLine
 10
192.5448910574306
 20
124.6814112482971
 30
0.0
 11
192.5448910574306
 21
124.945512863435
 31
0.0
  0
LINE
  5
3727
330
1F
100
AcDbEntity
  8
1
100
AcDbLine
 10
192.5448910574306
 20
124.945512863435
 30
0.0
 11
192.2807894422929
 21
124.945512863435
 31
0.0
  0
LINE
  5
3728
330
1F
100
AcDbEntity
  8
1
100
AcDbLine
 10
192.2807894422929
 20
124.6814112482971
 30
0.0
 11
192.5448910574306
 21
124.6814112482971
 31
0.0
  0
LINE
  5
3729
330
1F
100
AcDbEntity
  8
1
100
AcDbLine
 10
192.0128402498616
 20
124.4134620558658
 30
0.0
 11
192.0128402498616
 21
125.2134620558658
 31
0.0
  0
ARC
  5
372A
330
1F
100
AcDbEntity
  8
1
100
AcDbCircle
 10
195.9128402498618
 20
124.813462055866
 30
0.0
 40
1.500000000000759
100
AcDbArc
 50
143.1301023542837
 51
216.8698976457144
  0
LINE
  5
372B
330
1F
100
AcDbEntity
  8
1
100
AcDbLine
 10
192.8128402498618
 20
125.2134620558658
 30
0.0
 11
192.8128402498618
 21
124.4134620558658
 31
0.0
  0
LINE
  5
372C
330
1F
100
AcDbEntity
  8
1
100
AcDbLine
 10
189.9428402498585
 20
125.2134620558658
 30
0.0
 11
190.278865653646
 21
125.2134620558658
 31
0.0
  0
LINE
  5
372D
330
1F
100
AcDbEntity
  8
1
100
AcDbLine
 10
190.278865653646
 20
124.4134620558658
 30
0.0
 11
189.9428402498585
 21
124.4134620558658
 31
0.0
  0
LINE
  5
372E
330
1F
100
AcDbEntity
  8
1
100
AcDbLine
 10
190.4128402498615
 20
125.2134620558658
 30
0.0
 11
190.278865653646
 21
125.2134620558658
 31
0.0
  0
LINE
  5
372F
330
1F
100
AcDbEntity
  8
1
100
AcDbLine
 10
190.278865653646
 20
124.4134620558658
 30
0.0
 11
190.4128402498615
 21
124.4134620558658
 31
0.0
  0
LINE
  5
3730
330
1F
100
AcDbEntity
  8
1
100
AcDbLine
 10
189.7428402498586
 20
124.2134620558658
 30
0.0
 11
189.7428402498586
 21
123.5584620558659
 31
0.0
  0
LINE
  5
3731
330
1F
100
AcDbEntity
  8
1
100
AcDbLine
 10
189.0628402498585
 20
124.813462055866
 30
0.0
 11
189.0628402498585
 21
125.4134620558658
 31
0.0
  0
LINE
  5
3732
330
1F
100
AcDbEntity
  8
1
100
AcDbLine
 10
189.7428402498586
 20
125.4134620558658
 30
0.0
 11
189.7428402498584
 21
124.813462055866
 31
0.0
  0
ARC
  5
3733
330
1F
100
AcDbEntity
  8
1
100
AcDbCircle
 10
189.9428402498585
 20
125.4134620558658
 30
0.0
 40
0.2000000000000028
100
AcDbArc
 50
180.0
 51
270.0
  0
ARC
  5
3734
330
1F
100
AcDbEntity
  8
1
100
AcDbCircle
 10
189.9428402498585
 20
124.2134620558658
 30
0.0
 40
0.1999999999999993
100
AcDbArc
 50
90.0
 51
180.0
  0
LINE
  5
3735
330
1F
100
AcDbEntity
  8
1
100
AcDbLine
 10
189.7428402498584
 20
124.813462055866
 30
0.0
 11
189.7428402498586
 21
124.2134620558658
 31
0.0
  0
LINE
  5
3736
330
1F
100
AcDbEntity
  8
1
100
AcDbLine
 10
189.0628402498585
 20
124.2134620558658
 30
0.0
 11
189.0628402498585
 21
124.813462055866
 31
0.0
  0
LINE
  5
3737
330
1F
100
AcDbEntity
  8
1
100
AcDbLine
 10
194.5128404832671
 20
114.3134628394229
 30
0.0
 11
194.5128404832671
 21
119.3134628394229
 31
0.0
  0
LINE
  5
3738
330
1F
100
AcDbEntity
  8
1
100
AcDbLine
 10
194.0128402498618
 20
114.3134628394229
 30
0.0
 11
194.0128402498618
 21
119.3134628394229
 31
0.0
  0
LINE
  5
3739
330
1F
100
AcDbEntity
  8
1
100
AcDbLine
 10
194.846814846074
 20
123.263462055866
 30
0.0
 11
194.7128402498587
 21
123.263462055866
 31
0.0
  0
LINE
  5
373A
330
1F
100
AcDbEntity
  8
1
100
AcDbLine
 10
192.4128402498616
 20
122.3634620558661
 30
0.0
 11
192.6138021441849
 21
122.3634620558661
 31
0.0
  0
LINE
  5
373B
330
1F
100
AcDbEntity
  8
1
100
AcDbLine
 10
192.2118783555384
 20
122.3634620558661
 30
0.0
 11
192.4128402498616
 21
122.3634620558661
 31
0.0
  0
LINE
  5
373C
330
1F
100
AcDbEntity
  8
1
100
AcDbLine
 10
194.0128402498618
 20
119.3134628394229
 30
0.0
 11
194.0128402498618
 21
120.9134628394233
 31
0.0
  0
LINE
  5
373D
330
1F
100
AcDbEntity
  8
1
100
AcDbLine
 10
194.5128404832671
 20
119.3134628394229
 30
0.0
 11
194.5128404832671
 21
120.9134628394233
 31
0.0
  0
LINE
  5
373E
330
1F
100
AcDbEntity
  8
1
100
AcDbLine
 10
187.4128402498612
 20
114.3134628394229
 30
0.0
 11
187.4128402498612
 21
119.3134628394229
 31
0.0
  0
LINE
  5
373F
330
1F
100
AcDbEntity
  8
1
100
AcDbLine
 10
187.4128402498612
 20
115.5134628394236
 30
0.0
 11
187.4128402498612
 21
119.3134628394229
 31
0.0
  0
LINE
  5
3740
330
1F
100
AcDbEntity
  8
1
100
AcDbLine
 10
189.4128402498614
 20
114.3134628394229
 30
0.0
 11
189.4128402498614
 21
119.3134628394229
 31
0.0
  0
LINE
  5
3741
330
1F
100
AcDbEntity
  8
1
100
AcDbLine
 10
187.7128402498606
 20
116.828876684821
 30
0.0
 11
187.7128402498606
 21
117.9980489940255
 31
0.0
  0
LINE
  5
3742
330
1F
100
AcDbEntity
  8
1
100
AcDbLine
 10
189.0128402498618
 20
115.9134628394232
 30
0.0
 11
189.0128402498618
 21
118.9134628394232
 31
0.0
  0
LINE
  5
3743
330
1F
100
AcDbEntity
  8
1
100
AcDbLine
 10
187.7128402498606
 20
116.828876684821
 30
0.0
 11
188.0128402498618
 21
116.828876684821
 31
0.0
  0
LINE
  5
3744
330
1F
100
AcDbEntity
  8
1
100
AcDbLine
 10
189.0128402498618
 20
115.9134628394232
 30
0.0
 11
188.0128402498618
 21
115.9134628394232
 31
0.0
  0
LINE
  5
3745
330
1F
100
AcDbEntity
  8
1
100
AcDbLine
 10
189.4128402498614
 20
115.5134628394236
 30
0.0
 11
187.4128402498612
 21
115.5134628394236
 31
0.0
  0
LINE
  5
3746
330
1F
100
AcDbEntity
  8
1
100
AcDbLine
 10
188.0128402498618
 20
115.9134628394232
 30
0.0
 11
188.0128402498618
 21
116.828876684821
 31
0.0
  0
LINE
  5
3747
330
1F
100
AcDbEntity
  8
1
100
AcDbLine
 10
190.4128402498615
 20
123.263462055866
 30
0.0
 11
190.278865653646
 21
123.263462055866
 31
0.0
  0
LINE
  5
3748
330
1F
100
AcDbEntity
  8
1
100
AcDbLine
 10
188.0128402498618
 20
117.9980489940255
 30
0.0
 11
188.0128402498618
 21
118.9134628394232
 31
0.0
  0
LINE
  5
3749
330
1F
100
AcDbEntity
  8
1
100
AcDbLine
 10
188.0128402498618
 20
118.9134628394232
 30
0.0
 11
189.0128402498618
 21
118.9134628394232
 31
0.0
  0
LINE
  5
374A
330
1F
100
AcDbEntity
  8
1
100
AcDbLine
 10
187.7128402498606
 20
117.9980489940255
 30
0.0
 11
188.0128402498618
 21
117.9980489940255
 31
0.0
  0
LINE
  5
374B
330
1F
100
AcDbEntity
  8
1
100
AcDbLine
 10
188.4128402498614
 20
122.3634620558661
 30
0.0
 11
188.5128402498611
 21
122.3634620558661
 31
0.0
  0
LINE
  5
374C
330
1F
100
AcDbEntity
  8
1
100
AcDbLine
 10
188.5128402498611
 20
122.3634620558661
 30
0.0
 11
188.9128402498614
 21
122.3634620558661
 31
0.0
  0
LINE
  5
374D
330
1F
100
AcDbEntity
  8
1
100
AcDbLine
 10
188.4128402498614
 20
122.3634620558661
 30
0.0
 11
188.3628402498614
 21
122.3634620558661
 31
0.0
  0
LINE
  5
374E
330
1F
100
AcDbEntity
  8
1
100
AcDbLine
 10
188.1628402498614
 20
122.3634620558661
 30
0.0
 11
188.3628402498614
 21
122.3634620558661
 31
0.0
  0
LINE
  5
374F
330
1F
100
AcDbEntity
  8
1
100
AcDbLine
 10
187.4128402498612
 20
119.3134628394229
 30
0.0
 11
187.4128402498612
 21
120.9134628394233
 31
0.0
  0
LINE
  5
3750
330
1F
100
AcDbEntity
  8
1
100
AcDbLine
 10
189.4128402498614
 20
119.3134628394229
 30
0.0
 11
189.4128402498614
 21
120.9134628394233
 31
0.0
  0
CIRCLE
  5
3751
330
1F
100
AcDbEntity
  8
1
100
AcDbCircle
 10
191.7128402498606
 20
116.8134628394229
 30
0.0
 40
1.7
  0
CIRCLE
  5
3752
330
1F
100
AcDbEntity
  8
1
100
AcDbCircle
 10
191.7128402498606
 20
116.8134628394229
 30
0.0
 40
1.0
  0
LINE
  5
3753
330
1F
100
AcDbEntity
  8
1
100
AcDbLine
 10
194.7128402498587
 20
123.263462055866
 30
0.0
 11
190.4128402498615
 21
123.263462055866
 31
0.0
  0
LINE
  5
3754
330
1F
100
AcDbEntity
  8
1
100
AcDbLine
 10
188.9128402498614
 20
122.3634620558661
 30
0.0
 11
192.2118783555384
 21
122.3634620558661
 31
0.0
  0
LINE
  5
3755
330
1F
100
AcDbEntity
  8
1
  6
CONTINUOUS
100
AcDbLine
 10
190.9586027129846
 20
106.3433742535152
 30
0.0
 11
190.9586027129846
 21
103.8134551060239
 31
0.0
  0
LWPOLYLINE
  5
3756
330
1F
100
AcDbEntity
  8
1
  6
CONTINUOUS
100
AcDbPolyline
 90
       10
 70
   128
 43
0.0
 10
190.658602756943
 20
103.9377196145097
 10
190.7106972164768
 20
103.916142733101
 10
190.7612088932951
 20
103.8952215027848
 10
190.8086029677946
 20
103.8755892229119
 10
190.8514391496139
 20
103.8578456652204
 10
190.8884159154554
 20
103.8425272715131
 10
190.9184105559545
 20
103.8301034283677
 10
190.940510374989
 20
103.8209503901044
 10
190.9540452859659
 20
103.8153438282052
 10
190.9586027129846
 20
103.8134551060239
  0
LINE
  5
3757
330
1F
100
AcDbEntity
  8
1
  6
CONTINUOUS
100
AcDbLine
 10
189.4586029327767
 20
104.4347776484529
 30
0.0
 11
189.4586029327767
 21
104.8134571325818
 31
0.0
  0
LWPOLYLINE
  5
3758
330
1F
100
AcDbEntity
  8
1
  6
CONTINUOUS
100
AcDbPolyline
 90
       10
 70
   128
 43
0.0
 10
188.4586023032029
 20
101.3134574902097
 10
188.456714512344
 20
101.3180135202446
 10
188.4511088817673
 20
101.331547499899
 10
188.4419539808591
 20
101.3536496472398
 10
188.4295301377137
 20
101.3836419594327
 10
188.4142136066516
 20
101.4206191909352
 10
188.3964709802826
 20
101.4634563040772
 10
188.3768396317321
 20
101.5108494472543
 10
188.3559165387709
 20
101.5613606584111
 10
188.3343387260397
 20
101.6134551179447
  0
LINE
  5
3759
330
1F
100
AcDbEntity
  8
1
  6
CONTINUOUS
100
AcDbLine
 10
187.8372825547415
 20
102.8134568047563
 30
0.0
 11
189.4586029327767
 21
104.4347776484529
 31
0.0
  0
LINE
  5
375A
330
1F
100
AcDbEntity
  8
1
  6
CONTINUOUS
100
AcDbLine
 10
190.9586027129846
 20
103.8134551060239
 30
0.0
 11
188.4586023032029
 21
101.3134574902097
 31
0.0
  0
LINE
  5
375B
330
1F
100
AcDbEntity
  8
1
100
AcDbLine
 10
186.9128400164559
 20
114.3134628394229
 30
0.0
 11
186.9128400164559
 21
119.3134628394229
 31
0.0
  0
LINE
  5
375C
330
1F
100
AcDbEntity
  8
1
100
AcDbLine
 10
186.9128400164559
 20
119.3134628394229
 30
0.0
 11
186.9128400164559
 21
120.9134628394233
 31
0.0
  0
LWPOLYLINE
  5
375D
330
1F
100
AcDbEntity
  8
1
  6
CONTINUOUS
100
AcDbPolyline
 90
       10
 70
   128
 43
0.0
 10
179.5828662677963
 20
101.613458843235
 10
179.5612893863874
 20
101.5613643837014
 10
179.5403662934263
 20
101.5108494472543
 10
179.5207340135533
 20
101.4634563040772
 10
179.5029904558616
 20
101.4206191909352
 10
179.4876757874448
 20
101.383645684723
 10
179.4752500816541
 20
101.3536496472398
 10
179.4660970433909
 20
101.3315512251893
 10
179.4604904814916
 20
101.3180135202446
 10
179.4586017593104
 20
101.3134574902097
  0
LINE
  5
375E
330
1F
100
AcDbEntity
  8
1
  6
CONTINUOUS
100
AcDbLine
 10
179.4586017593104
 20
101.3134574902097
 30
0.0
 11
188.4586023032029
 21
101.3134574902097
 31
0.0
  0
LINE
  5
375F
330
1F
100
AcDbEntity
  8
1
  6
CONTINUOUS
100
AcDbLine
 10
180.0799224390941
 20
102.8134568047563
 30
0.0
 11
187.8372825547415
 21
102.8134568047563
 31
0.0
  0
INSERT
  5
3760
330
1F
100
AcDbEntity
  8
1
100
AcDbBlockReference
  2
A$C09634F3C
 10
191.2628397390058
 20
108.0634631476057
 30
0.0
 50
90.0
  0
LINE
  5
3761
330
1F
100
AcDbEntity
  8
1
100
AcDbLine
 10
190.4128402498615
 20
123.263462055866
 30
0.0
 11
190.4128402498615
 21
124.4134620558658
 31
0.0
  0
LINE
  5
3762
330
1F
100
AcDbEntity
  8
1
100
AcDbLine
 10
190.278865653646
 20
123.263462055866
 30
0.0
 11
190.278865653646
 21
124.4134620558658
 31
0.0
  0
LINE
  5
3763
330
1F
100
AcDbEntity
  8
1
100
AcDbLine
 10
189.0628402498587
 20
123.3234620558659
 30
0.0
 11
189.0628402498585
 21
124.2134620558658
 31
0.0
  0
LINE
  5
3764
330
1F
100
AcDbEntity
  8
1
100
AcDbLine
 10
189.7428402498586
 20
123.5584620558659
 30
0.0
 11
189.0628402498587
 21
123.3234620558659
 31
0.0
  0
LINE
  5
3765
330
1F
100
AcDbEntity
  8
1
100
AcDbLine
 10
194.712840249859
 20
123.9134620558683
 30
0.0
 11
194.7128402498587
 21
123.263462055866
 31
0.0
  0
LINE
  5
3766
330
1F
100
AcDbEntity
  8
1
100
AcDbLine
 10
194.846814846074
 20
123.9592868734445
 30
0.0
 11
194.846814846074
 21
123.263462055866
 31
0.0
  0
LINE
  5
3767
330
1F
100
AcDbEntity
  8
1
100
AcDbLine
 10
195.9128402498611
 20
113.8134628587542
 30
0.0
 11
186.9128402498613
 21
113.8134628587542
 31
0.0
  0
LINE
  5
3768
330
1F
100
AcDbEntity
  8
1
100
AcDbLine
 10
186.9128402208776
 20
114.3134628394228
 30
0.0
 11
195.4128402498614
 21
114.3134628394229
 31
0.0
  0
LINE
  5
3769
330
1F
100
AcDbEntity
  8
1
100
AcDbLine
 10
192.6138021441849
 20
122.3634620558661
 30
0.0
 11
195.4128402498614
 21
122.3634620558661
 31
0.0
  0
LINE
  5
376A
330
1F
100
AcDbEntity
  8
1
100
AcDbLine
 10
186.9128398382925
 20
120.9134628394233
 30
0.0
 11
195.4128402498614
 21
120.9134628394233
 31
0.0
  0
LINE
  5
376B
330
1F
100
AcDbEntity
  8
1
100
AcDbLine
 10
186.9128399310404
 20
119.3134628394227
 30
0.0
 11
195.4128402498614
 21
119.3134628394229
 31
0.0
  0
LINE
  5
376C
330
1F
100
AcDbEntity
  8
1
  6
CONTINUOUS
100
AcDbLine
 10
178.4586034580429
 20
104.8134571325818
 30
0.0
 11
178.4586034580429
 21
104.4347776484529
 31
0.0
  0
LINE
  5
376D
330
1F
100
AcDbEntity
  8
1
  6
CONTINUOUS
100
AcDbLine
 10
178.4586034580429
 20
104.4347776484529
 30
0.0
 11
180.0799224390941
 21
102.8134568047563
 31
0.0
  0
LINE
  5
376E
330
1F
100
AcDbEntity
  8
1
  6
CONTINUOUS
100
AcDbLine
 10
189.4586029327767
 20
104.8134571325818
 30
0.0
 11
178.4586034580429
 21
104.8134571325818
 31
0.0
  0
LINE
  5
3777
330
1F
100
AcDbEntity
  8
1
100
AcDbLine
 10
195.2128405896115
 20
179.313464134827
 30
0.0
 11
195.2128405896115
 21
181.5134645885765
 31
0.0
  0
LINE
  5
3778
330
1F
100
AcDbEntity
  8
1
100
AcDbLine
 10
195.4128402498614
 20
179.3134640766265
 30
0.0
 11
195.2128405896115
 21
179.3134640766265
 31
0.0
  0
LINE
  5
3779
330
1F
100
AcDbEntity
  8
1
100
AcDbLine
 10
195.2128405896115
 20
178.7134640481245
 30
0.0
 11
195.4128402498614
 21
178.7134640481245
 31
0.0
  0
LINE
  5
377A
330
1F
100
AcDbEntity
  8
1
100
AcDbLine
 10
195.2128405896115
 20
176.7134640113265
 30
0.0
 11
195.4128402498614
 21
176.7134640113265
 31
0.0
  0
LINE
  5
377B
330
1F
100
AcDbEntity
  8
1
100
AcDbLine
 10
195.4128402498614
 20
176.7134640113265
 30
0.0
 11
195.4128402498614
 21
177.3134640398249
 31
0.0
  0
LINE
  5
377C
330
1F
100
AcDbEntity
  8
1
100
AcDbLine
 10
195.4128402498614
 20
177.3134640398249
 30
0.0
 11
195.2128405896115
 21
177.3134640398249
 31
0.0
  0
LINE
  5
377D
330
1F
100
AcDbEntity
  8
1
100
AcDbLine
 10
195.4128402498614
 20
178.7134640481245
 30
0.0
 11
195.4128402498614
 21
179.3134640766265
 31
0.0
  0
LINE
  5
377E
330
1F
100
AcDbEntity
  8
1
100
AcDbLine
 10
195.4128402498614
 20
175.3134640612763
 30
0.0
 11
195.2128405896115
 21
175.3134640612763
 31
0.0
  0
LINE
  5
377F
330
1F
100
AcDbEntity
  8
1
100
AcDbLine
 10
195.2128405896115
 20
174.713463916375
 30
0.0
 11
195.4128402498614
 21
174.713463916375
 31
0.0
  0
LINE
  5
3780
330
1F
100
AcDbEntity
  8
1
100
AcDbLine
 10
195.2128405896115
 20
174.2634642151253
 30
0.0
 11
195.4128402498614
 21
174.2634642151253
 31
0.0
  0
LINE
  5
3781
330
1F
100
AcDbEntity
  8
1
100
AcDbLine
 10
195.4128402498614
 20
174.713463916375
 30
0.0
 11
195.4128402498614
 21
175.3134640612763
 31
0.0
  0
LINE
  5
3782
330
1F
100
AcDbEntity
  8
1
100
AcDbLine
 10
195.4128402498611
 20
175.7634639953258
 30
0.0
 11
195.2128405896115
 21
175.7634639953258
 31
0.0
  0
LINE
  5
3783
330
1F
100
AcDbEntity
  8
1
100
AcDbLine
 10
195.4128402498611
 20
176.263464077275
 30
0.0
 11
195.2128405896115
 21
176.263464077275
 31
0.0
  0
LINE
  5
3784
330
1F
100
AcDbEntity
  8
1
100
AcDbLine
 10
195.4128402498611
 20
177.7634640903263
 30
0.0
 11
195.2128405896115
 21
177.7634640903263
 31
0.0
  0
LINE
  5
3785
330
1F
100
AcDbEntity
  8
1
100
AcDbLine
 10
195.4128402498611
 20
178.2634640558764
 30
0.0
 11
195.2128405896115
 21
178.2634640558764
 31
0.0
  0
LINE
  5
3786
330
1F
100
AcDbEntity
  8
1
100
AcDbLine
 10
195.4128402498611
 20
179.7634640689258
 30
0.0
 11
195.2128405896115
 21
179.7634640689258
 31
0.0
  0
LINE
  5
3787
330
1F
100
AcDbEntity
  8
1
100
AcDbLine
 10
195.4128402498611
 20
180.2634640344269
 30
0.0
 11
195.2128405896115
 21
180.2634640344269
 31
0.0
  0
LINE
  5
3788
330
1F
100
AcDbEntity
  8
1
100
AcDbLine
 10
195.2128405896115
 20
181.5134645885765
 30
0.0
 11
195.4128402498614
 21
181.5134645885765
 31
0.0
  0
LINE
  5
378B
330
1F
100
AcDbEntity
  8
1
100
AcDbLine
 10
195.4128402498614
 20
167.6134639521253
 30
0.0
 11
195.4128402498614
 21
168.8134637762751
 31
0.0
  0
LINE
  5
378C
330
1F
100
AcDbEntity
  8
1
100
AcDbLine
 10
195.2128405896115
 20
166.1134634983764
 30
0.0
 11
195.2128405896115
 21
167.6134639521253
 31
0.0
  0
LINE
  5
378D
330
1F
100
AcDbEntity
  8
1
100
AcDbLine
 10
195.2128405896115
 20
167.6134639521253
 30
0.0
 11
195.4128402498614
 21
167.6134639521253
 31
0.0
  0
LINE
  5
378E
330
1F
100
AcDbEntity
  8
1
100
AcDbLine
 10
195.4128402498614
 20
166.1134634401759
 30
0.0
 11
195.2128405896115
 21
166.1134634401759
 31
0.0
  0
LINE
  5
378F
330
1F
100
AcDbEntity
  8
1
100
AcDbLine
 10
195.2128405896115
 20
165.5134634116739
 30
0.0
 11
195.4128402498614
 21
165.5134634116739
 31
0.0
  0
LINE
  5
3790
330
1F
100
AcDbEntity
  8
1
100
AcDbLine
 10
195.4128402498614
 20
165.5134634116739
 30
0.0
 11
195.4128402498614
 21
166.1134634401759
 31
0.0
  0
LINE
  5
3791
330
1F
100
AcDbEntity
  8
1
100
AcDbLine
 10
195.2128424134374
 20
163.513463363318
 30
0.0
 11
195.4128420736875
 21
163.513463363318
 31
0.0
  0
LINE
  5
3792
330
1F
100
AcDbEntity
  8
1
100
AcDbLine
 10
195.4128420736875
 20
163.513463363318
 30
0.0
 11
195.4128420736875
 21
164.1134633918165
 31
0.0
  0
LINE
  5
3793
330
1F
100
AcDbEntity
  8
1
100
AcDbLine
 10
195.4128420736875
 20
164.1134633918165
 30
0.0
 11
195.2128424134374
 21
164.1134633918165
 31
0.0
  0
LINE
  5
3794
330
1F
100
AcDbEntity
  8
1
100
AcDbLine
 10
195.412841031501
 20
162.113464804069
 30
0.0
 11
195.2128413712513
 21
162.113464804069
 31
0.0
  0
LINE
  5
3795
330
1F
100
AcDbEntity
  8
1
100
AcDbLine
 10
195.412841031501
 20
161.5134647755704
 30
0.0
 11
195.412841031501
 21
162.113464804069
 31
0.0
  0
LINE
  5
3796
330
1F
100
AcDbEntity
  8
1
100
AcDbLine
 10
195.2128413712513
 20
161.5134647755704
 30
0.0
 11
195.412841031501
 21
161.5134647755704
 31
0.0
  0
LINE
  5
3797
330
1F
100
AcDbEntity
  8
1
100
AcDbLine
 10
195.4128402498614
 20
169.3134637762752
 30
0.0
 11
195.4128402498614
 21
170.5134636004269
 31
0.0
  0
LINE
  5
3798
330
1F
100
AcDbEntity
  8
1
100
AcDbLine
 10
195.2128405896115
 20
170.5134636004269
 30
0.0
 11
195.2128405896115
 21
172.7134640541744
 31
0.0
  0
LINE
  5
3799
330
1F
100
AcDbEntity
  8
1
100
AcDbLine
 10
195.2128405896115
 20
173.763464133176
 30
0.0
 11
195.4128402498614
 21
173.763464133176
 31
0.0
  0
LINE
  5
379A
330
1F
100
AcDbEntity
  8
1
100
AcDbLine
 10
195.2128405896115
 20
172.7134640541744
 30
0.0
 11
195.4128402498614
 21
172.7134640541744
 31
0.0
  0
LINE
  5
379B
330
1F
100
AcDbEntity
  8
1
100
AcDbLine
 10
195.4128402498614
 20
173.3134639662758
 30
0.0
 11
195.2128405896115
 21
173.3134639662758
 31
0.0
  0
LINE
  5
379C
330
1F
100
AcDbEntity
  8
1
100
AcDbLine
 10
195.4128402498614
 20
173.3134639662758
 30
0.0
 11
195.4128402498614
 21
172.7134640541744
 31
0.0
  0
LINE
  5
379D
330
1F
100
AcDbEntity
  8
1
100
AcDbLine
 10
195.2128405896115
 20
172.263463887276
 30
0.0
 11
195.4128402498614
 21
172.263463887276
 31
0.0
  0
LINE
  5
379E
330
1F
100
AcDbEntity
  8
1
100
AcDbLine
 10
195.2128405896115
 20
171.7634642710264
 30
0.0
 11
195.4128402498614
 21
171.7634642710264
 31
0.0
  0
LINE
  5
379F
330
1F
100
AcDbEntity
  8
1
100
AcDbLine
 10
195.4128402498614
 20
170.5134636004269
 30
0.0
 11
195.2128405896115
 21
170.5134636004269
 31
0.0
  0
LINE
  5
37CA
330
1F
100
AcDbEntity
  8
1
100
AcDbLine
 10
195.2128405896115
 20
149.513463074475
 30
0.0
 11
195.4128402498614
 21
149.513463074475
 31
0.0
  0
LINE
  5
37CB
330
1F
100
AcDbEntity
  8
1
100
AcDbLine
 10
195.4128402498614
 20
149.513463074475
 30
0.0
 11
195.4128402498614
 21
150.1134631029737
 31
0.0
  0
LINE
  5
37CC
330
1F
100
AcDbEntity
  8
1
100
AcDbLine
 10
195.4128402498614
 20
150.1134631029737
 30
0.0
 11
195.2128405896115
 21
150.1134631029737
 31
0.0
  0
LINE
  5
37CD
330
1F
100
AcDbEntity
  8
1
100
AcDbLine
 10
195.4128405104079
 20
152.1134636914568
 30
0.0
 11
195.212840850158
 21
152.1134636914568
 31
0.0
  0
LINE
  5
37CE
330
1F
100
AcDbEntity
  8
1
100
AcDbLine
 10
195.212840850158
 20
151.5134635465557
 30
0.0
 11
195.4128405104079
 21
151.5134635465557
 31
0.0
  0
LINE
  5
37CF
330
1F
100
AcDbEntity
  8
1
100
AcDbLine
 10
195.4128405104079
 20
151.5134635465557
 30
0.0
 11
195.4128405104079
 21
152.1134636914568
 31
0.0
  0
LINE
  5
37D0
330
1F
100
AcDbEntity
  8
1
100
AcDbLine
 10
195.212840850158
 20
153.513463641507
 30
0.0
 11
195.4128405104079
 21
153.513463641507
 31
0.0
  0
LINE
  5
37D1
330
1F
100
AcDbEntity
  8
1
100
AcDbLine
 10
195.4128405104079
 20
153.513463641507
 30
0.0
 11
195.4128405104079
 21
154.1134636700055
 31
0.0
  0
LINE
  5
37D2
330
1F
100
AcDbEntity
  8
1
100
AcDbLine
 10
195.4128405104079
 20
154.1134636700055
 30
0.0
 11
195.212840850158
 21
154.1134636700055
 31
0.0
  0
LINE
  5
37D3
330
1F
100
AcDbEntity
  8
1
100
AcDbLine
 10
195.4128402498611
 20
149.0634631404238
 30
0.0
 11
195.2128405896115
 21
149.0634631404238
 31
0.0
  0
LINE
  5
37D4
330
1F
100
AcDbEntity
  8
1
100
AcDbLine
 10
195.4128407709545
 20
156.1134642584885
 30
0.0
 11
195.2128411107046
 21
156.1134642584885
 31
0.0
  0
LINE
  5
37D5
330
1F
100
AcDbEntity
  8
1
100
AcDbLine
 10
195.2128411107046
 20
155.5134641135875
 30
0.0
 11
195.4128407709545
 21
155.5134641135875
 31
0.0
  0
LINE
  5
37D6
330
1F
100
AcDbEntity
  8
1
100
AcDbLine
 10
195.4128407709545
 20
155.5134641135875
 30
0.0
 11
195.4128407709545
 21
156.1134642584885
 31
0.0
  0
LINE
  5
37D7
330
1F
100
AcDbEntity
  8
1
100
AcDbLine
 10
195.2128411107046
 20
157.5134642085385
 30
0.0
 11
195.4128407709545
 21
157.5134642085385
 31
0.0
  0
LINE
  5
37D8
330
1F
100
AcDbEntity
  8
1
100
AcDbLine
 10
195.4128407709545
 20
157.5134642085385
 30
0.0
 11
195.4128407709545
 21
158.1134642370372
 31
0.0
  0
LINE
  5
37D9
330
1F
100
AcDbEntity
  8
1
100
AcDbLine
 10
195.4128407709545
 20
158.1134642370372
 30
0.0
 11
195.2128411107046
 21
158.1134642370372
 31
0.0
  0
LINE
  5
37DA
330
1F
100
AcDbEntity
  8
1
100
AcDbLine
 10
195.412841031501
 20
159.513464680619
 30
0.0
 11
195.412841031501
 21
160.1134648255203
 31
0.0
  0
LINE
  5
37DB
330
1F
100
AcDbEntity
  8
1
100
AcDbLine
 10
195.2128413712513
 20
159.513464680619
 30
0.0
 11
195.412841031501
 21
159.513464680619
 31
0.0
  0
LINE
  5
37DC
330
1F
100
AcDbEntity
  8
1
100
AcDbLine
 10
195.412841031501
 20
160.1134648255203
 30
0.0
 11
195.2128413712513
 21
160.1134648255203
 31
0.0
  0
LINE
  5
37E2
330
1F
100
AcDbEntity
  8
1
100
AcDbLine
 10
195.2128405896115
 20
181.5134645885765
 30
0.0
 11
195.2128405896115
 21
172.7134640541744
 31
0.0
  0
LINE
  5
37E3
330
1F
100
AcDbEntity
  8
1
100
AcDbLine
 10
194.4128405516135
 20
181.9134639090763
 30
0.0
 11
194.4128405516135
 21
179.313464134827
 31
0.0
  0
LINE
  5
37E4
330
1F
100
AcDbEntity
  8
1
100
AcDbLine
 10
193.112840446562
 20
178.2634640623754
 30
0.0
 11
192.6128403497136
 21
178.2634640558764
 31
0.0
  0
LINE
  5
37E5
330
1F
100
AcDbEntity
  8
1
100
AcDbLine
 10
193.112840446562
 20
177.7634640623755
 30
0.0
 11
192.6128403497136
 21
177.7634640903263
 31
0.0
  0
LINE
  5
37E6
330
1F
100
AcDbEntity
  8
1
100
AcDbLine
 10
193.112840446562
 20
180.2634640623755
 30
0.0
 11
192.6128403497136
 21
180.2634640344269
 31
0.0
  0
LINE
  5
37E7
330
1F
100
AcDbEntity
  8
1
100
AcDbLine
 10
193.112840446562
 20
179.7634640623756
 30
0.0
 11
192.6128403497136
 21
179.7634640689258
 31
0.0
  0
LINE
  5
37E8
330
1F
100
AcDbEntity
  8
1
100
AcDbLine
 10
193.112840446562
 20
176.2634640623754
 30
0.0
 11
192.6128403497136
 21
176.263464077275
 31
0.0
  0
LINE
  5
37E9
330
1F
100
AcDbEntity
  8
1
100
AcDbLine
 10
193.4128403877116
 20
180.5634641069254
 30
0.0
 11
192.312840393661
 21
180.5634641069254
 31
0.0
  0
LINE
  5
37EA
330
1F
100
AcDbEntity
  8
1
100
AcDbLine
 10
193.4128403877116
 20
179.4634640546765
 30
0.0
 11
192.312840393661
 21
179.4634640546765
 31
0.0
  0
LINE
  5
37EB
330
1F
100
AcDbEntity
  8
1
100
AcDbLine
 10
193.4128403877116
 20
178.5634640701254
 30
0.0
 11
192.312840393661
 21
178.5634640701254
 31
0.0
  0
LINE
  5
37EC
330
1F
100
AcDbEntity
  8
1
100
AcDbLine
 10
193.4128403877116
 20
177.4634640178748
 30
0.0
 11
192.312840393661
 21
177.4634640178748
 31
0.0
  0
LINE
  5
37ED
330
1F
100
AcDbEntity
  8
1
100
AcDbLine
 10
193.4128403877116
 20
176.5634640333257
 30
0.0
 11
192.312840393661
 21
176.5634640333257
 31
0.0
  0
LINE
  5
37EE
330
1F
100
AcDbEntity
  8
1
100
AcDbLine
 10
192.562840434661
 20
177.7134640588255
 30
0.0
 11
193.1628403467625
 21
177.7134640588255
 31
0.0
  0
LINE
  5
37EF
330
1F
100
AcDbEntity
  8
1
100
AcDbLine
 10
192.562840434661
 20
179.7134640374251
 30
0.0
 11
193.1628403467625
 21
179.7134640374251
 31
0.0
  0
LINE
  5
37F0
330
1F
100
AcDbEntity
  8
1
100
AcDbLine
 10
192.562840434661
 20
180.3134640659254
 30
0.0
 11
193.1628403467625
 21
180.3134640659254
 31
0.0
  0
LINE
  5
37F1
330
1F
100
AcDbEntity
  8
1
100
AcDbLine
 10
192.562840434661
 20
178.313464087326
 30
0.0
 11
193.1628403467625
 21
178.313464087326
 31
0.0
  0
LINE
  5
37F2
330
1F
100
AcDbEntity
  8
1
100
AcDbLine
 10
192.562840434661
 20
176.3134639923257
 30
0.0
 11
193.1628403467625
 21
176.3134639923257
 31
0.0
  0
LINE
  5
37F3
330
1F
100
AcDbEntity
  8
1
100
AcDbLine
 10
192.6128403497136
 20
174.2634642151253
 30
0.0
 11
193.112840446562
 21
174.2634640623755
 31
0.0
  0
LINE
  5
37F4
330
1F
100
AcDbEntity
  8
1
100
AcDbLine
 10
193.112840446562
 20
175.7634640623756
 30
0.0
 11
192.6128403497136
 21
175.7634639953258
 31
0.0
  0
LINE
  5
37F5
330
1F
100
AcDbEntity
  8
1
100
AcDbLine
 10
193.4128403877116
 20
175.4634640392769
 30
0.0
 11
192.312840393661
 21
175.4634640392769
 31
0.0
  0
LINE
  5
37F6
330
1F
100
AcDbEntity
  8
1
100
AcDbLine
 10
192.312840393661
 20
174.563464171176
 30
0.0
 11
193.4128403877116
 21
174.563464171176
 31
0.0
  0
LINE
  5
37F7
330
1F
100
AcDbEntity
  8
1
100
AcDbLine
 10
192.562840434661
 20
175.7134640802771
 30
0.0
 11
193.1628403467625
 21
175.7134640802771
 31
0.0
  0
LINE
  5
37F8
330
1F
100
AcDbEntity
  8
1
100
AcDbLine
 10
192.562840434661
 20
174.3134641301758
 30
0.0
 11
193.1628403467625
 21
174.3134641301758
 31
0.0
  0
LINE
  5
37F9
330
1F
100
AcDbEntity
  8
1
100
AcDbLine
 10
192.312840393661
 20
180.5634641069254
 30
0.0
 11
192.562840434661
 21
180.3134640659254
 31
0.0
  0
LINE
  5
37FA
330
1F
100
AcDbEntity
  8
1
100
AcDbLine
 10
192.6128403497136
 20
179.7634640689258
 30
0.0
 11
192.562840434661
 21
179.7634640689258
 31
0.0
  0
LINE
  5
37FB
330
1F
100
AcDbEntity
  8
1
100
AcDbLine
 10
192.6128403497136
 20
180.2634640344269
 30
0.0
 11
192.562840434661
 21
180.2634640344269
 31
0.0
  0
LINE
  5
37FC
330
1F
100
AcDbEntity
  8
1
100
AcDbLine
 10
192.6128403497136
 20
179.7634640689258
 30
0.0
 11
192.6128403497136
 21
180.2634640344269
 31
0.0
  0
LINE
  5
37FD
330
1F
100
AcDbEntity
  8
1
100
AcDbLine
 10
192.312840393661
 20
179.4634640546765
 30
0.0
 11
192.562840434661
 21
179.7134640374251
 31
0.0
  0
LINE
  5
37FE
330
1F
100
AcDbEntity
  8
1
100
AcDbLine
 10
192.312840393661
 20
179.4634640546765
 30
0.0
 11
192.312840393661
 21
180.5634641069254
 31
0.0
  0
LINE
  5
37FF
330
1F
100
AcDbEntity
  8
1
100
AcDbLine
 10
192.562840434661
 20
179.7134640374251
 30
0.0
 11
192.562840434661
 21
180.3134640659254
 31
0.0
  0
LINE
  5
3800
330
1F
100
AcDbEntity
  8
1
100
AcDbLine
 10
192.6128403497136
 20
178.2634640558764
 30
0.0
 11
192.562840434661
 21
178.2634640558764
 31
0.0
  0
LINE
  5
3801
330
1F
100
AcDbEntity
  8
1
100
AcDbLine
 10
192.6128403497136
 20
177.7634640903263
 30
0.0
 11
192.562840434661
 21
177.7634640903263
 31
0.0
  0
LINE
  5
3802
330
1F
100
AcDbEntity
  8
1
100
AcDbLine
 10
192.6128403497136
 20
177.7634640903263
 30
0.0
 11
192.6128403497136
 21
178.2634640558764
 31
0.0
  0
LINE
  5
3803
330
1F
100
AcDbEntity
  8
1
100
AcDbLine
 10
192.312840393661
 20
178.5634640701254
 30
0.0
 11
192.562840434661
 21
178.313464087326
 31
0.0
  0
LINE
  5
3804
330
1F
100
AcDbEntity
  8
1
100
AcDbLine
 10
192.562840434661
 20
177.7134640588255
 30
0.0
 11
192.562840434661
 21
178.313464087326
 31
0.0
  0
LINE
  5
3805
330
1F
100
AcDbEntity
  8
1
100
AcDbLine
 10
192.6128403497136
 20
176.263464077275
 30
0.0
 11
192.562840434661
 21
176.263464077275
 31
0.0
  0
LINE
  5
3806
330
1F
100
AcDbEntity
  8
1
100
AcDbLine
 10
192.312840393661
 20
176.5634640333257
 30
0.0
 11
192.562840434661
 21
176.3134639923257
 31
0.0
  0
LINE
  5
3807
330
1F
100
AcDbEntity
  8
1
100
AcDbLine
 10
192.312840393661
 20
177.4634640178748
 30
0.0
 11
192.312840393661
 21
178.5634640701254
 31
0.0
  0
LINE
  5
3808
330
1F
100
AcDbEntity
  8
1
100
AcDbLine
 10
192.312840393661
 20
177.4634640178748
 30
0.0
 11
192.562840434661
 21
177.7134640588255
 31
0.0
  0
LINE
  5
3809
330
1F
100
AcDbEntity
  8
1
100
AcDbLine
 10
192.6128403497136
 20
175.7634639953258
 30
0.0
 11
192.6128403497136
 21
176.263464077275
 31
0.0
  0
LINE
  5
380A
330
1F
100
AcDbEntity
  8
1
100
AcDbLine
 10
192.312840393661
 20
175.4634640392769
 30
0.0
 11
192.312840393661
 21
176.5634640333257
 31
0.0
  0
LINE
  5
380B
330
1F
100
AcDbEntity
  8
1
100
AcDbLine
 10
192.562840434661
 20
175.7134640802771
 30
0.0
 11
192.562840434661
 21
176.3134639923257
 31
0.0
  0
LINE
  5
380C
330
1F
100
AcDbEntity
  8
1
100
AcDbLine
 10
192.6128403497136
 20
175.7634639953258
 30
0.0
 11
192.562840434661
 21
175.7634639953258
 31
0.0
  0
LINE
  5
380D
330
1F
100
AcDbEntity
  8
1
100
AcDbLine
 10
192.312840393661
 20
175.4634640392769
 30
0.0
 11
192.562840434661
 21
175.7134640802771
 31
0.0
  0
LINE
  5
380E
330
1F
100
AcDbEntity
  8
1
100
AcDbLine
 10
192.562840434661
 20
174.2634642151253
 30
0.0
 11
192.6128403497136
 21
174.2634642151253
 31
0.0
  0
LINE
  5
380F
330
1F
100
AcDbEntity
  8
1
100
AcDbLine
 10
192.312840393661
 20
174.563464171176
 30
0.0
 11
192.562840434661
 21
174.3134641301758
 31
0.0
  0
LINE
  5
3810
330
1F
100
AcDbEntity
  8
1
100
AcDbLine
 10
193.1628403467625
 20
180.3134640659254
 30
0.0
 11
193.4128403877116
 21
180.5634641069254
 31
0.0
  0
LINE
  5
3811
330
1F
100
AcDbEntity
  8
1
100
AcDbLine
 10
193.112840446562
 20
179.7634640623756
 30
0.0
 11
193.112840446562
 21
180.2634640623755
 31
0.0
  0
LINE
  5
3812
330
1F
100
AcDbEntity
  8
1
100
AcDbLine
 10
193.1628403467625
 20
179.7134640374251
 30
0.0
 11
193.4128403877116
 21
179.4634640546765
 31
0.0
  0
LINE
  5
3813
330
1F
100
AcDbEntity
  8
1
100
AcDbLine
 10
193.1628404465633
 20
180.2634640623755
 30
0.0
 11
193.112840446562
 21
180.2634640623755
 31
0.0
  0
LINE
  5
3814
330
1F
100
AcDbEntity
  8
1
100
AcDbLine
 10
193.1628404465633
 20
179.7634640623756
 30
0.0
 11
193.112840446562
 21
179.7634640623756
 31
0.0
  0
LINE
  5
3815
330
1F
100
AcDbEntity
  8
1
100
AcDbLine
 10
193.4128403877116
 20
180.5634641069254
 30
0.0
 11
193.4128403877116
 21
179.4634640546765
 31
0.0
  0
LINE
  5
3816
330
1F
100
AcDbEntity
  8
1
100
AcDbLine
 10
193.1628403467625
 20
180.3134640659254
 30
0.0
 11
193.1628403467625
 21
179.7134640374251
 31
0.0
  0
LINE
  5
3817
330
1F
100
AcDbEntity
  8
1
100
AcDbLine
 10
193.112840446562
 20
177.7634640623755
 30
0.0
 11
193.112840446562
 21
178.2634640623754
 31
0.0
  0
LINE
  5
3818
330
1F
100
AcDbEntity
  8
1
100
AcDbLine
 10
193.1628403467625
 20
178.313464087326
 30
0.0
 11
193.4128403877116
 21
178.5634640701254
 31
0.0
  0
LINE
  5
3819
330
1F
100
AcDbEntity
  8
1
100
AcDbLine
 10
193.1628403467625
 20
178.313464087326
 30
0.0
 11
193.1628403467625
 21
177.7134640588255
 31
0.0
  0
LINE
  5
381A
330
1F
100
AcDbEntity
  8
1
100
AcDbLine
 10
193.1628404465633
 20
178.2634640623754
 30
0.0
 11
193.112840446562
 21
178.2634640623754
 31
0.0
  0
LINE
  5
381B
330
1F
100
AcDbEntity
  8
1
100
AcDbLine
 10
193.1628404465633
 20
177.7634640623755
 30
0.0
 11
193.112840446562
 21
177.7634640623755
 31
0.0
  0
LINE
  5
381C
330
1F
100
AcDbEntity
  8
1
100
AcDbLine
 10
193.1628403467625
 20
176.3134639923257
 30
0.0
 11
193.4128403877116
 21
176.5634640333257
 31
0.0
  0
LINE
  5
381D
330
1F
100
AcDbEntity
  8
1
100
AcDbLine
 10
193.1628404465633
 20
176.2634640623754
 30
0.0
 11
193.112840446562
 21
176.2634640623754
 31
0.0
  0
LINE
  5
381E
330
1F
100
AcDbEntity
  8
1
100
AcDbLine
 10
193.4128403877116
 20
178.5634640701254
 30
0.0
 11
193.4128403877116
 21
177.4634640178748
 31
0.0
  0
LINE
  5
381F
330
1F
100
AcDbEntity
  8
1
100
AcDbLine
 10
193.1628403467625
 20
177.7134640588255
 30
0.0
 11
193.4128403877116
 21
177.4634640178748
 31
0.0
  0
LINE
  5
3820
330
1F
100
AcDbEntity
  8
1
100
AcDbLine
 10
193.112840446562
 20
175.7634640623756
 30
0.0
 11
193.112840446562
 21
176.2634640623754
 31
0.0
  0
LINE
  5
3821
330
1F
100
AcDbEntity
  8
1
100
AcDbLine
 10
193.4128403877116
 20
176.5634640333257
 30
0.0
 11
193.4128403877116
 21
175.4634640392769
 31
0.0
  0
LINE
  5
3822
330
1F
100
AcDbEntity
  8
1
100
AcDbLine
 10
193.1628403467625
 20
176.3134639923257
 30
0.0
 11
193.1628403467625
 21
175.7134640802771
 31
0.0
  0
LINE
  5
3823
330
1F
100
AcDbEntity
  8
1
100
AcDbLine
 10
193.1628403467625
 20
175.7134640802771
 30
0.0
 11
193.4128403877116
 21
175.4634640392769
 31
0.0
  0
LINE
  5
3824
330
1F
100
AcDbEntity
  8
1
100
AcDbLine
 10
193.1628404465633
 20
175.7634640623756
 30
0.0
 11
193.112840446562
 21
175.7634640623756
 31
0.0
  0
LINE
  5
3825
330
1F
100
AcDbEntity
  8
1
100
AcDbLine
 10
193.1628403467625
 20
174.3134641301758
 30
0.0
 11
193.4128403877116
 21
174.563464171176
 31
0.0
  0
LINE
  5
3826
330
1F
100
AcDbEntity
  8
1
100
AcDbLine
 10
193.112840446562
 20
174.2634640623755
 30
0.0
 11
193.1628404465633
 21
174.2634640623755
 31
0.0
  0
LINE
  5
3827
330
1F
100
AcDbEntity
  8
1
100
AcDbLine
 10
192.1128405006134
 20
181.3134639969768
 30
0.0
 11
194.4128405516135
 21
181.3134639969768
 31
0.0
  0
LINE
  5
3828
330
1F
100
AcDbEntity
  8
1
100
AcDbLine
 10
194.4128405516135
 20
180.7134640849264
 30
0.0
 11
192.1128405006134
 21
180.7134640849264
 31
0.0
  0
LINE
  5
3829
330
1F
100
AcDbEntity
  8
1
100
AcDbLine
 10
192.1128405006134
 20
181.3134639969768
 30
0.0
 11
192.1128405006134
 21
180.7134640849264
 31
0.0
  0
LINE
  5
382A
330
1F
100
AcDbEntity
  8
1
100
AcDbLine
 10
193.2628404465618
 20
181.9134641266256
 30
0.0
 11
194.2628404465618
 21
181.9134641266256
 31
0.0
  0
LINE
  5
382B
330
1F
100
AcDbEntity
  8
1
100
AcDbLine
 10
194.2628404465618
 20
181.9134641266256
 30
0.0
 11
194.4128405516135
 21
181.9134639090763
 31
0.0
  0
LINE
  5
382C
330
1F
100
AcDbEntity
  8
1
100
AcDbLine
 10
187.6128404614614
 20
175.7634639953258
 30
0.0
 11
187.6128404614614
 21
176.263464077275
 31
0.0
  0
LINE
  5
382D
330
1F
100
AcDbEntity
  8
1
100
AcDbLine
 10
188.1128404465622
 20
175.7634640623756
 30
0.0
 11
188.1128404465622
 21
176.2634640623754
 31
0.0
  0
LINE
  5
382E
330
1F
100
AcDbEntity
  8
1
100
AcDbLine
 10
188.412840499463
 20
176.5634640333257
 30
0.0
 11
188.412840499463
 21
175.4634640392769
 31
0.0
  0
LINE
  5
382F
330
1F
100
AcDbEntity
  8
1
100
AcDbLine
 10
187.3128405054124
 20
175.4634640392769
 30
0.0
 11
187.3128405054124
 21
176.5634640333257
 31
0.0
  0
LINE
  5
3830
330
1F
100
AcDbEntity
  8
1
100
AcDbLine
 10
187.5628405464127
 20
176.3134639923257
 30
0.0
 11
187.5628405464127
 21
175.7134640802771
 31
0.0
  0
LINE
  5
3831
330
1F
100
AcDbEntity
  8
1
100
AcDbLine
 10
188.162840458512
 20
176.3134639923257
 30
0.0
 11
188.162840458512
 21
175.7134640802771
 31
0.0
  0
LINE
  5
3832
330
1F
100
AcDbEntity
  8
1
100
AcDbLine
 10
188.1128404465622
 20
175.7634640623756
 30
0.0
 11
187.6128404614614
 21
175.7634639953258
 31
0.0
  0
LINE
  5
3833
330
1F
100
AcDbEntity
  8
1
100
AcDbLine
 10
188.1128404465622
 20
175.7634640623756
 30
0.0
 11
188.1628404465633
 21
175.7634640623756
 31
0.0
  0
LINE
  5
3834
330
1F
100
AcDbEntity
  8
1
100
AcDbLine
 10
188.412840499463
 20
175.4634640392769
 30
0.0
 11
187.3128405054124
 21
175.4634640392769
 31
0.0
  0
LINE
  5
3835
330
1F
100
AcDbEntity
  8
1
100
AcDbLine
 10
187.5628405464127
 20
175.7134640802771
 30
0.0
 11
187.3128405054124
 21
175.4634640392769
 31
0.0
  0
LINE
  5
3836
330
1F
100
AcDbEntity
  8
1
100
AcDbLine
 10
188.162840458512
 20
175.7134640802771
 30
0.0
 11
188.412840499463
 21
175.4634640392769
 31
0.0
  0
LINE
  5
3837
330
1F
100
AcDbEntity
  8
1
100
AcDbLine
 10
187.5628405464127
 20
175.7134640802771
 30
0.0
 11
188.162840458512
 21
175.7134640802771
 31
0.0
  0
LINE
  5
3838
330
1F
100
AcDbEntity
  8
1
100
AcDbLine
 10
187.6128404614614
 20
174.2634642151253
 30
0.0
 11
188.1128404465622
 21
174.2634640623755
 31
0.0
  0
LINE
  5
3839
330
1F
100
AcDbEntity
  8
1
100
AcDbLine
 10
188.1128404465622
 20
174.2634640623755
 30
0.0
 11
188.1628404465633
 21
174.2634640623755
 31
0.0
  0
LINE
  5
383A
330
1F
100
AcDbEntity
  8
1
100
AcDbLine
 10
187.3128405054124
 20
174.563464171176
 30
0.0
 11
188.412840499463
 21
174.563464171176
 31
0.0
  0
LINE
  5
383B
330
1F
100
AcDbEntity
  8
1
100
AcDbLine
 10
187.3128405054124
 20
174.563464171176
 30
0.0
 11
187.5628405464127
 21
174.3134641301758
 31
0.0
  0
LINE
  5
383C
330
1F
100
AcDbEntity
  8
1
100
AcDbLine
 10
188.412840499463
 20
174.563464171176
 30
0.0
 11
188.162840458512
 21
174.3134641301758
 31
0.0
  0
LINE
  5
383D
330
1F
100
AcDbEntity
  8
1
100
AcDbLine
 10
187.5628405464127
 20
174.3134641301758
 30
0.0
 11
188.162840458512
 21
174.3134641301758
 31
0.0
  0
LINE
  5
383E
330
1F
100
AcDbEntity
  8
1
100
AcDbLine
 10
187.3128405054124
 20
180.5634641069254
 30
0.0
 11
188.412840499463
 21
180.5634641069254
 31
0.0
  0
LINE
  5
383F
330
1F
100
AcDbEntity
  8
1
100
AcDbLine
 10
187.3128405054124
 20
180.5634641069254
 30
0.0
 11
187.5628405464127
 21
180.3134640659254
 31
0.0
  0
LINE
  5
3840
330
1F
100
AcDbEntity
  8
1
100
AcDbLine
 10
188.412840499463
 20
180.5634641069254
 30
0.0
 11
188.162840458512
 21
180.3134640659254
 31
0.0
  0
LINE
  5
3841
330
1F
100
AcDbEntity
  8
1
100
AcDbLine
 10
187.5628405464127
 20
180.3134640659254
 30
0.0
 11
188.162840458512
 21
180.3134640659254
 31
0.0
  0
LINE
  5
3842
330
1F
100
AcDbEntity
  8
1
100
AcDbLine
 10
188.1128404465622
 20
180.2634640623755
 30
0.0
 11
187.6128404614614
 21
180.2634640344269
 31
0.0
  0
LINE
  5
3843
330
1F
100
AcDbEntity
  8
1
100
AcDbLine
 10
188.1128404465622
 20
179.7634640623756
 30
0.0
 11
188.1128404465622
 21
180.2634640623755
 31
0.0
  0
LINE
  5
3844
330
1F
100
AcDbEntity
  8
1
100
AcDbLine
 10
188.1128404465622
 20
179.7634640623756
 30
0.0
 11
187.6128404614614
 21
179.7634640689258
 31
0.0
  0
LINE
  5
3845
330
1F
100
AcDbEntity
  8
1
100
AcDbLine
 10
187.6128404614614
 20
179.7634640689258
 30
0.0
 11
187.6128404614614
 21
180.2634640344269
 31
0.0
  0
LINE
  5
3846
330
1F
100
AcDbEntity
  8
1
100
AcDbLine
 10
188.1128404465622
 20
179.7634640623756
 30
0.0
 11
188.1628404465633
 21
179.7634640623756
 31
0.0
  0
LINE
  5
3847
330
1F
100
AcDbEntity
  8
1
100
AcDbLine
 10
188.1628404465633
 20
180.2634640623755
 30
0.0
 11
188.1128404465622
 21
180.2634640623755
 31
0.0
  0
LINE
  5
3848
330
1F
100
AcDbEntity
  8
1
100
AcDbLine
 10
188.412840499463
 20
179.4634640546765
 30
0.0
 11
187.3128405054124
 21
179.4634640546765
 31
0.0
  0
LINE
  5
3849
330
1F
100
AcDbEntity
  8
1
100
AcDbLine
 10
187.5628405464127
 20
179.7134640374251
 30
0.0
 11
187.3128405054124
 21
179.4634640546765
 31
0.0
  0
LINE
  5
384A
330
1F
100
AcDbEntity
  8
1
100
AcDbLine
 10
188.162840458512
 20
179.7134640374251
 30
0.0
 11
188.412840499463
 21
179.4634640546765
 31
0.0
  0
LINE
  5
384B
330
1F
100
AcDbEntity
  8
1
100
AcDbLine
 10
187.5628405464127
 20
179.7134640374251
 30
0.0
 11
188.162840458512
 21
179.7134640374251
 31
0.0
  0
LINE
  5
384C
330
1F
100
AcDbEntity
  8
1
100
AcDbLine
 10
188.412840499463
 20
180.5634641069254
 30
0.0
 11
188.412840499463
 21
179.4634640546765
 31
0.0
  0
LINE
  5
384D
330
1F
100
AcDbEntity
  8
1
100
AcDbLine
 10
187.3128405054124
 20
179.4634640546765
 30
0.0
 11
187.3128405054124
 21
180.5634641069254
 31
0.0
  0
LINE
  5
384E
330
1F
100
AcDbEntity
  8
1
100
AcDbLine
 10
187.5628405464127
 20
180.3134640659254
 30
0.0
 11
187.5628405464127
 21
179.7134640374251
 31
0.0
  0
LINE
  5
384F
330
1F
100
AcDbEntity
  8
1
100
AcDbLine
 10
188.162840458512
 20
180.3134640659254
 30
0.0
 11
188.162840458512
 21
179.7134640374251
 31
0.0
  0
LINE
  5
3850
330
1F
100
AcDbEntity
  8
1
100
AcDbLine
 10
187.6128404614614
 20
177.7634640903263
 30
0.0
 11
187.6128404614614
 21
178.2634640558764
 31
0.0
  0
LINE
  5
3851
330
1F
100
AcDbEntity
  8
1
100
AcDbLine
 10
188.1128404465622
 20
178.2634640623754
 30
0.0
 11
187.6128404614614
 21
178.2634640558764
 31
0.0
  0
LINE
  5
3852
330
1F
100
AcDbEntity
  8
1
100
AcDbLine
 10
188.1128404465622
 20
177.7634640623755
 30
0.0
 11
188.1128404465622
 21
178.2634640623754
 31
0.0
  0
LINE
  5
3853
330
1F
100
AcDbEntity
  8
1
100
AcDbLine
 10
188.1128404465622
 20
177.7634640623755
 30
0.0
 11
187.6128404614614
 21
177.7634640903263
 31
0.0
  0
LINE
  5
3854
330
1F
100
AcDbEntity
  8
1
100
AcDbLine
 10
188.1628404465633
 20
178.2634640623754
 30
0.0
 11
188.1128404465622
 21
178.2634640623754
 31
0.0
  0
LINE
  5
3855
330
1F
100
AcDbEntity
  8
1
100
AcDbLine
 10
188.1128404465622
 20
177.7634640623755
 30
0.0
 11
188.1628404465633
 21
177.7634640623755
 31
0.0
  0
LINE
  5
3856
330
1F
100
AcDbEntity
  8
1
100
AcDbLine
 10
187.3128405054124
 20
178.5634640701254
 30
0.0
 11
188.412840499463
 21
178.5634640701254
 31
0.0
  0
LINE
  5
3857
330
1F
100
AcDbEntity
  8
1
100
AcDbLine
 10
187.5628405464127
 20
177.7134640588255
 30
0.0
 11
188.162840458512
 21
177.7134640588255
 31
0.0
  0
LINE
  5
3858
330
1F
100
AcDbEntity
  8
1
100
AcDbLine
 10
187.3128405054124
 20
178.5634640701254
 30
0.0
 11
187.5628405464127
 21
178.313464087326
 31
0.0
  0
LINE
  5
3859
330
1F
100
AcDbEntity
  8
1
100
AcDbLine
 10
187.5628405464127
 20
178.313464087326
 30
0.0
 11
187.5628405464127
 21
177.7134640588255
 31
0.0
  0
LINE
  5
385A
330
1F
100
AcDbEntity
  8
1
100
AcDbLine
 10
188.412840499463
 20
178.5634640701254
 30
0.0
 11
188.162840458512
 21
178.313464087326
 31
0.0
  0
LINE
  5
385B
330
1F
100
AcDbEntity
  8
1
100
AcDbLine
 10
188.162840458512
 20
178.313464087326
 30
0.0
 11
188.162840458512
 21
177.7134640588255
 31
0.0
  0
LINE
  5
385C
330
1F
100
AcDbEntity
  8
1
100
AcDbLine
 10
187.5628405464127
 20
178.313464087326
 30
0.0
 11
188.162840458512
 21
178.313464087326
 31
0.0
  0
LINE
  5
385D
330
1F
100
AcDbEntity
  8
1
100
AcDbLine
 10
188.1128404465622
 20
176.2634640623754
 30
0.0
 11
187.6128404614614
 21
176.263464077275
 31
0.0
  0
LINE
  5
385E
330
1F
100
AcDbEntity
  8
1
100
AcDbLine
 10
188.1628404465633
 20
176.2634640623754
 30
0.0
 11
188.1128404465622
 21
176.2634640623754
 31
0.0
  0
LINE
  5
385F
330
1F
100
AcDbEntity
  8
1
100
AcDbLine
 10
188.412840499463
 20
177.4634640178748
 30
0.0
 11
187.3128405054124
 21
177.4634640178748
 31
0.0
  0
LINE
  5
3860
330
1F
100
AcDbEntity
  8
1
100
AcDbLine
 10
187.3128405054124
 20
176.5634640333257
 30
0.0
 11
188.412840499463
 21
176.5634640333257
 31
0.0
  0
LINE
  5
3861
330
1F
100
AcDbEntity
  8
1
100
AcDbLine
 10
187.3128405054124
 20
176.5634640333257
 30
0.0
 11
187.5628405464127
 21
176.3134639923257
 31
0.0
  0
LINE
  5
3862
330
1F
100
AcDbEntity
  8
1
100
AcDbLine
 10
188.412840499463
 20
176.5634640333257
 30
0.0
 11
188.162840458512
 21
176.3134639923257
 31
0.0
  0
LINE
  5
3863
330
1F
100
AcDbEntity
  8
1
100
AcDbLine
 10
187.5628405464127
 20
176.3134639923257
 30
0.0
 11
188.162840458512
 21
176.3134639923257
 31
0.0
  0
LINE
  5
3864
330
1F
100
AcDbEntity
  8
1
100
AcDbLine
 10
188.412840499463
 20
178.5634640701254
 30
0.0
 11
188.412840499463
 21
177.4634640178748
 31
0.0
  0
LINE
  5
3865
330
1F
100
AcDbEntity
  8
1
100
AcDbLine
 10
187.3128405054124
 20
177.4634640178748
 30
0.0
 11
187.3128405054124
 21
178.5634640701254
 31
0.0
  0
LINE
  5
3866
330
1F
100
AcDbEntity
  8
1
100
AcDbLine
 10
188.162840458512
 20
177.7134640588255
 30
0.0
 11
188.412840499463
 21
177.4634640178748
 31
0.0
  0
LINE
  5
3867
330
1F
100
AcDbEntity
  8
1
100
AcDbLine
 10
187.5628405464127
 20
177.7134640588255
 30
0.0
 11
187.3128405054124
 21
177.4634640178748
 31
0.0
  0
LINE
  5
3868
330
1F
100
AcDbEntity
  8
1
100
AcDbLine
 10
190.1128404347115
 20
181.3134639969768
 30
0.0
 11
190.1128404347115
 21
180.7134640849264
 31
0.0
  0
LINE
  5
3869
330
1F
100
AcDbEntity
  8
1
100
AcDbLine
 10
187.4628404465624
 20
181.9134641266256
 30
0.0
 11
193.2628404465618
 21
181.9134641266256
 31
0.0
  0
ARC
  5
386A
330
1F
100
AcDbEntity
  8
1
100
AcDbCircle
 10
185.2128404465624
 20
181.2134641266249
 30
0.0
 40
0.5
100
AcDbArc
 50
180.0
 51
270.0
  0
LINE
  5
386B
330
1F
100
AcDbEntity
  8
1
100
AcDbLine
 10
186.0628403005615
 20
178.8134639364518
 30
0.0
 11
186.0628403005615
 21
180.9134637451761
 31
0.0
  0
LINE
  5
386C
330
1F
100
AcDbEntity
  8
1
100
AcDbLine
 10
185.862849685273
 20
178.8134639364518
 30
0.0
 11
185.8628406403118
 21
180.7134640849264
 31
0.0
  0
LINE
  5
386D
330
1F
100
AcDbEntity
  8
1
100
AcDbLine
 10
186.3628402566124
 20
179.313464134827
 30
0.0
 11
186.3628402566124
 21
180.7134640849264
 31
0.0
  0
LINE
  5
386E
330
1F
100
AcDbEntity
  8
1
100
AcDbLine
 10
185.462840388462
 20
179.6134639744533
 30
0.0
 11
184.1128403534625
 21
179.6134639744533
 31
0.0
  0
LINE
  5
386F
330
1F
100
AcDbEntity
  8
1
100
AcDbLine
 10
184.862840446562
 20
179.213464036301
 30
0.0
 11
185.462840388462
 21
179.2134639554525
 31
0.0
  0
LINE
  5
3870
330
1F
100
AcDbEntity
  8
1
100
AcDbLine
 10
183.7128405672634
 20
180.013464226301
 30
0.0
 11
185.8628406403118
 21
180.013464226301
 31
0.0
  0
LINE
  5
3871
330
1F
100
AcDbEntity
  8
1
100
AcDbLine
 10
184.862840446562
 20
178.8134640363034
 30
0.0
 11
185.8628406403118
 21
178.8134639364518
 31
0.0
  0
LINE
  5
3872
330
1F
100
AcDbEntity
  8
1
100
AcDbLine
 10
184.9628403065113
 20
175.0134639888029
 30
0.0
 11
184.9628403065113
 21
177.0134640838015
 31
0.0
  0
LINE
  5
3873
330
1F
100
AcDbEntity
  8
1
100
AcDbLine
 10
184.6628403504624
 20
175.0134639888029
 30
0.0
 11
184.9628403065113
 21
175.0134639888029
 31
0.0
  0
LINE
  5
3874
330
1F
100
AcDbEntity
  8
1
100
AcDbLine
 10
184.9628403065113
 20
177.0134640838015
 30
0.0
 11
184.6628403504624
 21
177.0134640838015
 31
0.0
  0
LINE
  5
3875
330
1F
100
AcDbEntity
  8
1
100
AcDbLine
 10
184.6628403504624
 20
177.0134640838015
 30
0.0
 11
184.6628404465633
 21
178.6134640363026
 31
0.0
  0
ARC
  5
3876
330
1F
100
AcDbEntity
  8
1
100
AcDbCircle
 10
184.862840446562
 20
178.6134640363026
 30
0.0
 40
0.2000000000000597
100
AcDbArc
 50
90.0
 51
180.0
  0
ARC
  5
3877
330
1F
100
AcDbEntity
  8
1
100
AcDbCircle
 10
184.862840446562
 20
178.6134640363026
 30
0.0
 40
0.5999999999999945
100
AcDbArc
 50
90.0
 51
180.0
  0
LINE
  5
3878
330
1F
100
AcDbEntity
  8
1
100
AcDbLine
 10
184.2628404465618
 20
178.6134640363026
 30
0.0
 11
184.6628404465633
 21
178.6134640363026
 31
0.0
  0
LINE
  5
3879
330
1F
100
AcDbEntity
  8
1
100
AcDbLine
 10
184.862840446562
 20
179.213464036301
 30
0.0
 11
184.862840446562
 21
178.8134640363034
 31
0.0
  0
LINE
  5
387A
330
1F
100
AcDbEntity
  8
1
100
AcDbLine
 10
184.1128403534625
 20
179.6134639744533
 30
0.0
 11
183.7128405672634
 21
180.013464226301
 31
0.0
  0
LINE
  5
387B
330
1F
100
AcDbEntity
  8
1
100
AcDbLine
 10
186.3628402566124
 20
179.7134640374524
 30
0.0
 11
186.3628402566124
 21
179.3134640766265
 31
0.0
  0
LINE
  5
387C
330
1F
100
AcDbEntity
  8
1
100
AcDbLine
 10
186.0628403005615
 20
178.8134639364518
 30
0.0
 11
186.3562227440129
 21
178.8134639364518
 31
0.0
  0
LINE
  5
387D
330
1F
100
AcDbEntity
  8
1
100
AcDbLine
 10
186.3562227440112
 20
178.7134640481245
 30
0.0
 11
186.3562227440112
 21
179.3134640766265
 31
0.0
  0
LINE
  5
387E
330
1F
100
AcDbEntity
  8
1
100
AcDbLine
 10
186.3562227440112
 20
176.7134640113265
 30
0.0
 11
186.3562227440112
 21
177.3134640398249
 31
0.0
  0
LINE
  5
387F
330
1F
100
AcDbEntity
  8
1
100
AcDbLine
 10
186.3562223348986
 20
174.7134644492245
 30
0.0
 11
186.3562223348986
 21
175.313464477723
 31
0.0
  0
LINE
  5
3880
330
1F
100
AcDbEntity
  8
1
100
AcDbLine
 10
185.8628406403118
 20
178.8134639364518
 30
0.0
 11
186.0628403005615
 21
178.8134639364518
 31
0.0
  0
LINE
  5
3881
330
1F
100
AcDbEntity
  8
1
100
AcDbLine
 10
185.8628406403118
 20
178.8134639364518
 30
0.0
 11
185.8628406403118
 21
180.013464226301
 31
0.0
  0
LINE
  5
3882
330
1F
100
AcDbEntity
  8
1
100
AcDbLine
 10
185.462840388462
 20
179.6134639744533
 30
0.0
 11
185.462840388462
 21
179.2134639554525
 31
0.0
  0
LINE
  5
3883
330
1F
100
AcDbEntity
  8
1
100
AcDbLine
 10
185.8628406403118
 20
180.013464226301
 30
0.0
 11
185.462840388462
 21
179.6134639744533
 31
0.0
  0
LINE
  5
3884
330
1F
100
AcDbEntity
  8
1
100
AcDbLine
 10
185.462840388462
 20
179.2134639554525
 30
0.0
 11
185.8628406403118
 21
178.8134639364518
 31
0.0
  0
LINE
  5
3885
330
1F
100
AcDbEntity
  8
1
100
AcDbLine
 10
185.2128404465624
 20
181.9134641266256
 30
0.0
 11
186.4628404465624
 21
181.9134641266256
 31
0.0
  0
LINE
  5
3886
330
1F
100
AcDbEntity
  8
1
100
AcDbLine
 10
186.0628403005615
 20
180.9134637451761
 30
0.0
 11
185.2128404465624
 21
180.9134641266256
 31
0.0
  0
LINE
  5
3887
330
1F
100
AcDbEntity
  8
1
100
AcDbLine
 10
185.8628406403118
 20
180.7134640849264
 30
0.0
 11
185.2128404465624
 21
180.7134641266247
 31
0.0
  0
ARC
  5
3888
330
1F
100
AcDbEntity
  8
1
100
AcDbCircle
 10
185.2128404465624
 20
181.6134641266263
 30
0.0
 40
0.3000000000000114
100
AcDbArc
 50
90.0
 51
180.0
  0
LINE
  5
3889
330
1F
100
AcDbEntity
  8
1
100
AcDbLine
 10
184.7128404465625
 20
181.6134641266263
 30
0.0
 11
184.9128404465633
 21
181.6134641266263
 31
0.0
  0
LINE
  5
388A
330
1F
100
AcDbEntity
  8
1
100
AcDbLine
 10
184.9128404465633
 20
181.2134641266249
 30
0.0
 11
184.9128404465633
 21
181.6134641266263
 31
0.0
  0
LINE
  5
388B
330
1F
100
AcDbEntity
  8
1
100
AcDbLine
 10
184.7128404465625
 20
181.2134641266249
 30
0.0
 11
184.7128404465625
 21
181.6134641266263
 31
0.0
  0
ARC
  5
388C
330
1F
100
AcDbEntity
  8
1
100
AcDbCircle
 10
185.2128404465624
 20
181.2134641266249
 30
0.0
 40
0.3000000000000114
100
AcDbArc
 50
180.0
 51
270.0
  0
LINE
  5
388D
330
1F
100
AcDbEntity
  8
1
100
AcDbLine
 10
185.2128404465624
 20
180.7134641266247
 30
0.0
 11
185.2128404465624
 21
180.9134641266256
 31
0.0
  0
LINE
  5
388E
330
1F
100
AcDbEntity
  8
1
100
AcDbLine
 10
184.9128404465633
 20
181.2134641266249
 30
0.0
 11
184.7128404465625
 21
181.2134641266249
 31
0.0
  0
LINE
  5
388F
330
1F
100
AcDbEntity
  8
1
100
AcDbLine
 10
186.3562227440129
 20
180.9134637451761
 30
0.0
 11
186.0628403005615
 21
180.9134637451761
 31
0.0
  0
LINE
  5
3890
330
1F
100
AcDbEntity
  8
1
100
AcDbLine
 10
186.3562227440129
 20
180.7134640849264
 30
0.0
 11
186.3562227440129
 21
180.9134637451761
 31
0.0
  0
LINE
  5
3891
330
1F
100
AcDbEntity
  8
1
100
AcDbLine
 10
186.0628403005615
 20
180.9134637451761
 30
0.0
 11
185.8628406403118
 21
180.7134640849264
 31
0.0
  0
LINE
  5
3892
330
1F
100
AcDbEntity
  8
1
100
AcDbLine
 10
184.9128403914624
 20
181.3134639969768
 30
0.0
 11
190.1128404347115
 21
181.3134639969768
 31
0.0
  0
LINE
  5
3893
330
1F
100
AcDbEntity
  8
1
100
AcDbLine
 10
186.3562227440112
 20
179.3134640766265
 30
0.0
 11
194.6128406775629
 21
179.3134640766265
 31
0.0
  0
LINE
  5
3894
330
1F
100
AcDbEntity
  8
1
100
AcDbLine
 10
186.3562227440112
 20
178.7134640481245
 30
0.0
 11
194.4128405516135
 21
178.7134640481245
 31
0.0
  0
LINE
  5
3895
330
1F
100
AcDbEntity
  8
1
100
AcDbLine
 10
186.3562227440112
 20
176.7134640113265
 30
0.0
 11
194.4128405516135
 21
176.7134640113265
 31
0.0
  0
LINE
  5
3896
330
1F
100
AcDbEntity
  8
1
100
AcDbLine
 10
186.3562227440112
 20
177.3134640398267
 30
0.0
 11
194.4128405516135
 21
177.3134640398249
 31
0.0
  0
LINE
  5
3897
330
1F
100
AcDbEntity
  8
1
100
AcDbLine
 10
194.4128405516135
 20
175.3134640612763
 30
0.0
 11
186.3562227440129
 21
175.3134640612763
 31
0.0
  0
LINE
  5
3898
330
1F
100
AcDbEntity
  8
1
100
AcDbLine
 10
186.3562227440129
 20
174.713463916375
 30
0.0
 11
194.4128405516135
 21
174.713463916375
 31
0.0
  0
LINE
  5
3899
330
1F
100
AcDbEntity
  8
1
100
AcDbLine
 10
190.1128404347115
 20
180.7134640849264
 30
0.0
 11
186.3562227440129
 21
180.7134640849264
 31
0.0
  0
LINE
  5
389A
330
1F
100
AcDbEntity
  8
1
100
AcDbLine
 10
186.4628404465624
 20
181.9134641266256
 30
0.0
 11
187.4628404465624
 21
181.9134641266256
 31
0.0
  0
LINE
  5
389B
330
1F
100
AcDbEntity
  8
1
100
AcDbLine
 10
194.6128406775629
 20
166.1134634983764
 30
0.0
 11
194.6128411536286
 21
168.2134638642265
 31
0.0
  0
LINE
  5
389C
330
1F
100
AcDbEntity
  8
1
100
AcDbLine
 10
193.2628404465618
 20
168.2134634901751
 30
0.0
 11
193.2628404465618
 21
168.0134634901741
 31
0.0
  0
LINE
  5
389D
330
1F
100
AcDbEntity
  8
1
100
AcDbLine
 10
194.2628404465618
 20
168.0134634901741
 30
0.0
 11
194.0628404465629
 21
168.2134634901751
 31
0.0
  0
LINE
  5
389E
330
1F
100
AcDbEntity
  8
1
100
AcDbLine
 10
194.6128406775629
 20
168.2134638642248
 30
0.0
 11
194.4128405516135
 21
168.013463272625
 31
0.0
  0
LINE
  5
389F
330
1F
100
AcDbEntity
  8
1
100
AcDbLine
 10
191.7128402059375
 20
163.1134633926732
 30
0.0
 11
191.9628402468866
 21
163.3634634336733
 31
0.0
  0
LINE
  5
38A0
330
1F
100
AcDbEntity
  8
1
100
AcDbLine
 10
191.7128403057381
 20
163.0634633891233
 30
0.0
 11
191.662840305737
 21
163.0634633891233
 31
0.0
  0
LINE
  5
38A1
330
1F
100
AcDbEntity
  8
1
100
AcDbLine
 10
191.662840305737
 20
163.0634633891233
 30
0.0
 11
191.1628402088885
 21
163.0634633611745
 31
0.0
  0
LINE
  5
38A2
330
1F
100
AcDbEntity
  8
1
100
AcDbLine
 10
191.1628402088885
 20
163.0634633611745
 30
0.0
 11
191.112840293836
 21
163.0634633611745
 31
0.0
  0
LINE
  5
38A3
330
1F
100
AcDbEntity
  8
1
100
AcDbLine
 10
191.112840293836
 20
163.1134633926732
 30
0.0
 11
191.7128402059375
 21
163.1134633926732
 31
0.0
  0
LINE
  5
38A4
330
1F
100
AcDbEntity
  8
1
100
AcDbLine
 10
191.112840293836
 20
165.1134634508754
 30
0.0
 11
191.7128402059375
 21
165.1134634508754
 31
0.0
  0
LINE
  5
38A5
330
1F
100
AcDbEntity
  8
1
100
AcDbLine
 10
191.112840293836
 20
167.1134634294749
 30
0.0
 11
191.7128402059375
 21
167.1134634294749
 31
0.0
  0
LINE
  5
38A6
330
1F
100
AcDbEntity
  8
1
100
AcDbLine
 10
191.112840293836
 20
166.5134634009747
 30
0.0
 11
191.7128402059375
 21
166.5134634009747
 31
0.0
  0
LINE
  5
38A7
330
1F
100
AcDbEntity
  8
1
100
AcDbLine
 10
191.112840293836
 20
164.5134634223752
 30
0.0
 11
191.7128402059375
 21
164.5134634223752
 31
0.0
  0
LINE
  5
38A8
330
1F
100
AcDbEntity
  8
1
100
AcDbLine
 10
191.1628402088885
 20
164.5634634538755
 30
0.0
 11
191.112840293836
 21
164.5634634538755
 31
0.0
  0
LINE
  5
38A9
330
1F
100
AcDbEntity
  8
1
100
AcDbLine
 10
191.1628402088885
 20
165.0634634194258
 30
0.0
 11
191.112840293836
 21
165.0634634194258
 31
0.0
  0
LINE
  5
38AA
330
1F
100
AcDbEntity
  8
1
100
AcDbLine
 10
191.1628402088885
 20
167.0634633979763
 30
0.0
 11
191.112840293836
 21
167.0634633979763
 31
0.0
  0
LINE
  5
38AB
330
1F
100
AcDbEntity
  8
1
100
AcDbLine
 10
191.1628402088885
 20
166.5634634324753
 30
0.0
 11
191.112840293836
 21
166.5634634324753
 31
0.0
  0
LINE
  5
38AC
330
1F
100
AcDbEntity
  8
1
100
AcDbLine
 10
191.112840293836
 20
164.5134634223752
 30
0.0
 11
191.112840293836
 21
165.1134634508754
 31
0.0
  0
LINE
  5
38AD
330
1F
100
AcDbEntity
  8
1
100
AcDbLine
 10
191.112840293836
 20
166.5134634009747
 30
0.0
 11
191.112840293836
 21
167.1134634294749
 31
0.0
  0
LINE
  5
38AE
330
1F
100
AcDbEntity
  8
1
100
AcDbLine
 10
191.662840305737
 20
166.5634634259251
 30
0.0
 11
191.1628402088885
 21
166.5634634324753
 31
0.0
  0
LINE
  5
38AF
330
1F
100
AcDbEntity
  8
1
100
AcDbLine
 10
191.662840305737
 20
167.0634634259251
 30
0.0
 11
191.1628402088885
 21
167.0634633979763
 31
0.0
  0
LINE
  5
38B0
330
1F
100
AcDbEntity
  8
1
100
AcDbLine
 10
191.662840305737
 20
164.5634634259251
 30
0.0
 11
191.1628402088885
 21
164.5634634538755
 31
0.0
  0
LINE
  5
38B1
330
1F
100
AcDbEntity
  8
1
100
AcDbLine
 10
191.662840305737
 20
165.0634634259251
 30
0.0
 11
191.1628402088885
 21
165.0634634194258
 31
0.0
  0
LINE
  5
38B2
330
1F
100
AcDbEntity
  8
1
100
AcDbLine
 10
191.7128402059375
 20
164.5134634223752
 30
0.0
 11
191.9628402468866
 21
164.2634633814243
 31
0.0
  0
LINE
  5
38B3
330
1F
100
AcDbEntity
  8
1
100
AcDbLine
 10
191.9628402468866
 20
165.363463433675
 30
0.0
 11
191.9628402468866
 21
164.2634633814243
 31
0.0
  0
LINE
  5
38B4
330
1F
100
AcDbEntity
  8
1
100
AcDbLine
 10
191.7128403057381
 20
164.5634634259251
 30
0.0
 11
191.662840305737
 21
164.5634634259251
 31
0.0
  0
LINE
  5
38B5
330
1F
100
AcDbEntity
  8
1
100
AcDbLine
 10
191.7128403057381
 20
165.0634634259251
 30
0.0
 11
191.662840305737
 21
165.0634634259251
 31
0.0
  0
LINE
  5
38B6
330
1F
100
AcDbEntity
  8
1
100
AcDbLine
 10
191.7128402059375
 20
165.1134634508754
 30
0.0
 11
191.7128402059375
 21
164.5134634223752
 31
0.0
  0
LINE
  5
38B7
330
1F
100
AcDbEntity
  8
1
100
AcDbLine
 10
191.7128402059375
 20
165.1134634508754
 30
0.0
 11
191.9628402468866
 21
165.363463433675
 31
0.0
  0
LINE
  5
38B8
330
1F
100
AcDbEntity
  8
1
100
AcDbLine
 10
191.662840305737
 20
164.5634634259251
 30
0.0
 11
191.662840305737
 21
165.0634634259251
 31
0.0
  0
LINE
  5
38B9
330
1F
100
AcDbEntity
  8
1
100
AcDbLine
 10
191.7128402059375
 20
167.1134634294749
 30
0.0
 11
191.7128402059375
 21
166.5134634009747
 31
0.0
  0
LINE
  5
38BA
330
1F
100
AcDbEntity
  8
1
100
AcDbLine
 10
191.9628402468866
 20
167.3634634704751
 30
0.0
 11
191.9628402468866
 21
166.263463418226
 31
0.0
  0
LINE
  5
38BB
330
1F
100
AcDbEntity
  8
1
100
AcDbLine
 10
191.7128403057381
 20
166.5634634259251
 30
0.0
 11
191.662840305737
 21
166.5634634259251
 31
0.0
  0
LINE
  5
38BC
330
1F
100
AcDbEntity
  8
1
100
AcDbLine
 10
191.7128403057381
 20
167.0634634259251
 30
0.0
 11
191.662840305737
 21
167.0634634259251
 31
0.0
  0
LINE
  5
38BD
330
1F
100
AcDbEntity
  8
1
100
AcDbLine
 10
191.7128402059375
 20
166.5134634009747
 30
0.0
 11
191.9628402468866
 21
166.263463418226
 31
0.0
  0
LINE
  5
38BE
330
1F
100
AcDbEntity
  8
1
100
AcDbLine
 10
191.662840305737
 20
166.5634634259251
 30
0.0
 11
191.662840305737
 21
167.0634634259251
 31
0.0
  0
LINE
  5
38BF
330
1F
100
AcDbEntity
  8
1
100
AcDbLine
 10
191.7128402059375
 20
167.1134634294749
 30
0.0
 11
191.9628402468866
 21
167.3634634704751
 31
0.0
  0
LINE
  5
38C0
330
1F
100
AcDbEntity
  8
1
100
AcDbLine
 10
191.1628402088885
 20
164.5634634538755
 30
0.0
 11
191.1628402088885
 21
165.0634634194258
 31
0.0
  0
LINE
  5
38C1
330
1F
100
AcDbEntity
  8
1
100
AcDbLine
 10
191.1628402088885
 20
166.5634634324753
 30
0.0
 11
191.1628402088885
 21
167.0634633979763
 31
0.0
  0
LINE
  5
38C2
330
1F
100
AcDbEntity
  8
1
100
AcDbLine
 10
194.4128395363845
 20
168.0134632726268
 30
0.0
 11
194.4128405516135
 21
166.1134634983764
 31
0.0
  0
LINE
  5
38C3
330
1F
100
AcDbEntity
  8
1
100
AcDbLine
 10
193.2628404465618
 20
168.0134634901741
 30
0.0
 11
194.2628404465618
 21
168.0134634901741
 31
0.0
  0
LINE
  5
38C4
330
1F
100
AcDbEntity
  8
1
100
AcDbLine
 10
194.2628404465618
 20
168.0134634901741
 30
0.0
 11
194.4128405516135
 21
168.013463272625
 31
0.0
  0
LINE
  5
38C5
330
1F
100
AcDbEntity
  8
1
100
AcDbLine
 10
191.7128402059375
 20
162.513463364173
 30
0.0
 11
191.9628402468866
 21
162.2634633814241
 31
0.0
  0
LINE
  5
38C6
330
1F
100
AcDbEntity
  8
1
100
AcDbLine
 10
191.7128403057381
 20
162.5634633891233
 30
0.0
 11
191.662840305737
 21
162.5634633891233
 31
0.0
  0
LINE
  5
38C7
330
1F
100
AcDbEntity
  8
1
100
AcDbLine
 10
191.662840305737
 20
162.5634633891233
 30
0.0
 11
191.1628402088885
 21
162.5634633956734
 31
0.0
  0
LINE
  5
38C8
330
1F
100
AcDbEntity
  8
1
100
AcDbLine
 10
191.1628402088885
 20
162.5634633956734
 30
0.0
 11
191.112840293836
 21
162.5634633956734
 31
0.0
  0
LINE
  5
38C9
330
1F
100
AcDbEntity
  8
1
100
AcDbLine
 10
191.112840293836
 20
162.513463364173
 30
0.0
 11
191.7128402059375
 21
162.513463364173
 31
0.0
  0
LINE
  5
38CA
330
1F
100
AcDbEntity
  8
1
100
AcDbLine
 10
191.1628402088885
 20
162.5634633956734
 30
0.0
 11
191.1628402088885
 21
163.0634633611745
 31
0.0
  0
LINE
  5
38CB
330
1F
100
AcDbEntity
  8
1
100
AcDbLine
 10
191.662840305737
 20
162.5634633891233
 30
0.0
 11
191.662840305737
 21
163.0634633891233
 31
0.0
  0
LINE
  5
38CC
330
1F
100
AcDbEntity
  8
1
100
AcDbLine
 10
191.9628402468866
 20
163.3634634336733
 30
0.0
 11
191.9628402468866
 21
162.2634633814241
 31
0.0
  0
LINE
  5
38CD
330
1F
100
AcDbEntity
  8
1
100
AcDbLine
 10
191.7128402059375
 20
163.1134633926732
 30
0.0
 11
191.7128402059375
 21
162.513463364173
 31
0.0
  0
LINE
  5
38CE
330
1F
100
AcDbEntity
  8
1
100
AcDbLine
 10
191.112840293836
 20
162.513463364173
 30
0.0
 11
191.112840293836
 21
163.1134633926732
 31
0.0
  0
LINE
  5
38CF
330
1F
100
AcDbEntity
  8
1
100
AcDbLine
 10
194.6128406775629
 20
169.9134636883765
 30
0.0
 11
194.6128406775629
 21
172.7134640541744
 31
0.0
  0
LINE
  5
38D0
330
1F
100
AcDbEntity
  8
1
100
AcDbLine
 10
194.4128405516135
 20
170.1134642799272
 30
0.0
 11
194.6128406775629
 21
169.9134636883765
 31
0.0
  0
LINE
  5
38D1
330
1F
100
AcDbEntity
  8
1
100
AcDbLine
 10
194.0628404465629
 20
169.9134640623753
 30
0.0
 11
194.2628404465618
 21
170.113464062376
 31
0.0
  0
LINE
  5
38D2
330
1F
100
AcDbEntity
  8
1
100
AcDbLine
 10
193.2628404465618
 20
169.9134640623753
 30
0.0
 11
193.2628404465618
 21
170.113464062376
 31
0.0
  0
LINE
  5
38D3
330
1F
100
AcDbEntity
  8
1
100
AcDbLine
 10
193.2628404465618
 20
168.8134634901734
 30
0.0
 11
193.2628404465618
 21
168.2134634901751
 31
0.0
  0
LINE
  5
38D4
330
1F
100
AcDbEntity
  8
1
100
AcDbLine
 10
194.0628404465629
 20
168.8134634901734
 30
0.0
 11
194.0628404465629
 21
168.2134634901751
 31
0.0
  0
LINE
  5
38D5
330
1F
100
AcDbEntity
  8
1
100
AcDbLine
 10
194.0628404465629
 20
168.2134634901751
 30
0.0
 11
193.2628404465618
 21
168.2134634901751
 31
0.0
  0
LINE
  5
38D6
330
1F
100
AcDbEntity
  8
1
100
AcDbLine
 10
194.0628404465629
 20
168.2134634901751
 30
0.0
 11
194.6128406775629
 21
168.2134638642248
 31
0.0
  0
LINE
  5
38D7
330
1F
100
AcDbEntity
  8
1
100
AcDbLine
 10
193.2628404465618
 20
168.8134634901734
 30
0.0
 11
194.0628404465629
 21
168.8134634901734
 31
0.0
  0
LINE
  5
38D8
330
1F
100
AcDbEntity
  8
1
100
AcDbLine
 10
194.6128406775629
 20
169.9134636883765
 30
0.0
 11
194.0628404465629
 21
169.9134640623753
 31
0.0
  0
LINE
  5
38D9
330
1F
100
AcDbEntity
  8
1
100
AcDbLine
 10
193.2628404465618
 20
169.9134640623753
 30
0.0
 11
194.0628404465629
 21
169.9134640623753
 31
0.0
  0
LINE
  5
38DA
330
1F
100
AcDbEntity
  8
1
100
AcDbLine
 10
193.2628404465618
 20
169.3134640623765
 30
0.0
 11
194.0628404465629
 21
169.3134640623765
 31
0.0
  0
LINE
  5
38DB
330
1F
100
AcDbEntity
  8
1
100
AcDbLine
 10
194.0628404465629
 20
169.9134640623753
 30
0.0
 11
194.0628404465629
 21
169.3134640623765
 31
0.0
  0
LINE
  5
38DC
330
1F
100
AcDbEntity
  8
1
100
AcDbLine
 10
193.2628404465618
 20
169.9134640623753
 30
0.0
 11
193.2628404465618
 21
169.3134640623765
 31
0.0
  0
LINE
  5
38DD
330
1F
100
AcDbEntity
  8
1
100
AcDbLine
 10
192.6128403497136
 20
171.7634642710264
 30
0.0
 11
193.112840446562
 21
171.7634640623755
 31
0.0
  0
LINE
  5
38DE
330
1F
100
AcDbEntity
  8
1
100
AcDbLine
 10
192.6128403497136
 20
172.263463887276
 30
0.0
 11
193.112840446562
 21
172.2634640623756
 31
0.0
  0
LINE
  5
38DF
330
1F
100
AcDbEntity
  8
1
100
AcDbLine
 10
192.1128405006134
 20
171.3134641041261
 30
0.0
 11
194.4128405516135
 21
171.3134641041261
 31
0.0
  0
LINE
  5
38E0
330
1F
100
AcDbEntity
  8
1
100
AcDbLine
 10
193.4128403877116
 20
171.4634638492763
 30
0.0
 11
192.312840393661
 21
171.4634638492763
 31
0.0
  0
LINE
  5
38E1
330
1F
100
AcDbEntity
  8
1
100
AcDbLine
 10
192.562840434661
 20
171.7134638902764
 30
0.0
 11
193.1628403467625
 21
171.7134638902764
 31
0.0
  0
LINE
  5
38E2
330
1F
100
AcDbEntity
  8
1
100
AcDbLine
 10
192.562840434661
 20
172.3134642680262
 30
0.0
 11
193.1628403467625
 21
172.3134642680262
 31
0.0
  0
LINE
  5
38E3
330
1F
100
AcDbEntity
  8
1
100
AcDbLine
 10
194.4128405516135
 20
170.7134641920249
 30
0.0
 11
192.1128405006134
 21
170.7134641920249
 31
0.0
  0
LINE
  5
38E4
330
1F
100
AcDbEntity
  8
1
100
AcDbLine
 10
192.6128403497136
 20
173.763464133176
 30
0.0
 11
193.112840446562
 21
173.7634640623755
 31
0.0
  0
LINE
  5
38E5
330
1F
100
AcDbEntity
  8
1
100
AcDbLine
 10
192.312840393661
 20
172.5634638433266
 30
0.0
 11
193.4128403877116
 21
172.5634638433266
 31
0.0
  0
LINE
  5
38E6
330
1F
100
AcDbEntity
  8
1
100
AcDbLine
 10
193.4128403877116
 20
173.4634641771255
 30
0.0
 11
192.312840393661
 21
173.4634641771255
 31
0.0
  0
LINE
  5
38E7
330
1F
100
AcDbEntity
  8
1
100
AcDbLine
 10
192.562840434661
 20
173.7134642181255
 30
0.0
 11
193.1628403467625
 21
173.7134642181255
 31
0.0
  0
LINE
  5
38E8
330
1F
100
AcDbEntity
  8
1
100
AcDbLine
 10
192.562840434661
 20
172.263463887276
 30
0.0
 11
192.6128403497136
 21
172.263463887276
 31
0.0
  0
LINE
  5
38E9
330
1F
100
AcDbEntity
  8
1
100
AcDbLine
 10
192.562840434661
 20
171.7634642710264
 30
0.0
 11
192.6128403497136
 21
171.7634642710264
 31
0.0
  0
LINE
  5
38EA
330
1F
100
AcDbEntity
  8
1
100
AcDbLine
 10
192.562840434661
 20
171.7134638902764
 30
0.0
 11
192.312840393661
 21
171.4634638492763
 31
0.0
  0
LINE
  5
38EB
330
1F
100
AcDbEntity
  8
1
100
AcDbLine
 10
192.6128403497136
 20
172.263463887276
 30
0.0
 11
192.6128403497136
 21
171.7634642710264
 31
0.0
  0
LINE
  5
38EC
330
1F
100
AcDbEntity
  8
1
100
AcDbLine
 10
192.562840434661
 20
172.3134642680262
 30
0.0
 11
192.562840434661
 21
171.7134638902764
 31
0.0
  0
LINE
  5
38ED
330
1F
100
AcDbEntity
  8
1
100
AcDbLine
 10
192.1128405006134
 20
171.3134641041261
 30
0.0
 11
192.1128405006134
 21
170.7134641920249
 31
0.0
  0
LINE
  5
38EE
330
1F
100
AcDbEntity
  8
1
100
AcDbLine
 10
192.312840393661
 20
172.5634638433266
 30
0.0
 11
192.562840434661
 21
172.3134642680262
 31
0.0
  0
LINE
  5
38EF
330
1F
100
AcDbEntity
  8
1
100
AcDbLine
 10
192.312840393661
 20
171.4634638492763
 30
0.0
 11
192.312840393661
 21
172.5634638433266
 31
0.0
  0
LINE
  5
38F0
330
1F
100
AcDbEntity
  8
1
100
AcDbLine
 10
192.562840434661
 20
173.763464133176
 30
0.0
 11
192.6128403497136
 21
173.763464133176
 31
0.0
  0
LINE
  5
38F1
330
1F
100
AcDbEntity
  8
1
100
AcDbLine
 10
192.312840393661
 20
173.4634641771255
 30
0.0
 11
192.562840434661
 21
173.7134642181255
 31
0.0
  0
LINE
  5
38F2
330
1F
100
AcDbEntity
  8
1
100
AcDbLine
 10
193.4128403877116
 20
172.5634638433266
 30
0.0
 11
193.1628403467625
 21
172.3134642680262
 31
0.0
  0
LINE
  5
38F3
330
1F
100
AcDbEntity
  8
1
100
AcDbLine
 10
193.4128403877116
 20
172.5634638433266
 30
0.0
 11
193.4128403877116
 21
171.4634638492763
 31
0.0
  0
LINE
  5
38F4
330
1F
100
AcDbEntity
  8
1
100
AcDbLine
 10
194.4128405516135
 20
172.7134640541744
 30
0.0
 11
194.4128405516135
 21
170.1134642799272
 31
0.0
  0
LINE
  5
38F5
330
1F
100
AcDbEntity
  8
1
100
AcDbLine
 10
193.112840446562
 20
173.7634640623755
 30
0.0
 11
193.1628404465633
 21
173.7634640623755
 31
0.0
  0
LINE
  5
38F6
330
1F
100
AcDbEntity
  8
1
100
AcDbLine
 10
194.6128406775629
 20
172.7134640541744
 30
0.0
 11
194.4128405516135
 21
172.7134640541744
 31
0.0
  0
LINE
  5
38F7
330
1F
100
AcDbEntity
  8
1
100
AcDbLine
 10
193.1628403467625
 20
173.7134642181255
 30
0.0
 11
193.4128403877116
 21
173.4634641771255
 31
0.0
  0
LINE
  5
38F8
330
1F
100
AcDbEntity
  8
1
100
AcDbLine
 10
193.112840446562
 20
172.2634640623756
 30
0.0
 11
193.1628404465633
 21
172.2634640623756
 31
0.0
  0
LINE
  5
38F9
330
1F
100
AcDbEntity
  8
1
100
AcDbLine
 10
193.1628403467625
 20
171.7134638902764
 30
0.0
 11
193.4128403877116
 21
171.4634638492763
 31
0.0
  0
LINE
  5
38FA
330
1F
100
AcDbEntity
  8
1
100
AcDbLine
 10
193.112840446562
 20
171.7634640623755
 30
0.0
 11
193.1628404465633
 21
171.7634640623755
 31
0.0
  0
LINE
  5
38FB
330
1F
100
AcDbEntity
  8
1
100
AcDbLine
 10
193.112840446562
 20
172.2634640623756
 30
0.0
 11
193.112840446562
 21
171.7634640623755
 31
0.0
  0
LINE
  5
38FC
330
1F
100
AcDbEntity
  8
1
100
AcDbLine
 10
193.1628403467625
 20
172.3134642680262
 30
0.0
 11
193.1628403467625
 21
171.7134638902764
 31
0.0
  0
LINE
  5
38FD
330
1F
100
AcDbEntity
  8
1
100
AcDbLine
 10
194.4128405516135
 20
170.1134642799272
 30
0.0
 11
194.2628404465618
 21
170.113464062376
 31
0.0
  0
LINE
  5
38FE
330
1F
100
AcDbEntity
  8
1
100
AcDbLine
 10
194.2628404465618
 20
170.113464062376
 30
0.0
 11
193.2628404465618
 21
170.113464062376
 31
0.0
  0
LINE
  5
38FF
330
1F
100
AcDbEntity
  8
1
100
AcDbLine
 10
188.4628404689088
 20
168.0134634901725
 30
0.0
 11
188.4628404689088
 21
168.213463490173
 31
0.0
  0
LINE
  5
3900
330
1F
100
AcDbEntity
  8
1
100
AcDbLine
 10
187.4628404689088
 20
168.0134634901725
 30
0.0
 11
187.6628404689094
 21
168.213463490173
 31
0.0
  0
LINE
  5
3901
330
1F
100
AcDbEntity
  8
1
100
AcDbLine
 10
188.862840252836
 20
163.3634634336733
 30
0.0
 11
189.9628402468866
 21
163.3634634336733
 31
0.0
  0
LINE
  5
3902
330
1F
100
AcDbEntity
  8
1
100
AcDbLine
 10
189.112840293836
 20
163.1134633926732
 30
0.0
 11
189.7128402059356
 21
163.1134633926732
 31
0.0
  0
LINE
  5
3903
330
1F
100
AcDbEntity
  8
1
100
AcDbLine
 10
189.7128401939868
 20
163.0634633891233
 30
0.0
 11
189.6628401939856
 21
163.0634633891233
 31
0.0
  0
LINE
  5
3904
330
1F
100
AcDbEntity
  8
1
100
AcDbLine
 10
189.9628402468866
 20
164.2634633814243
 30
0.0
 11
188.862840252836
 21
164.2634633814243
 31
0.0
  0
LINE
  5
3905
330
1F
100
AcDbEntity
  8
1
100
AcDbLine
 10
189.112840293836
 20
165.1134634508754
 30
0.0
 11
189.7128402059356
 21
165.1134634508754
 31
0.0
  0
LINE
  5
3906
330
1F
100
AcDbEntity
  8
1
100
AcDbLine
 10
189.112840293836
 20
164.5134634223752
 30
0.0
 11
189.7128402059356
 21
164.5134634223752
 31
0.0
  0
LINE
  5
3907
330
1F
100
AcDbEntity
  8
1
100
AcDbLine
 10
188.862840252836
 20
165.363463433675
 30
0.0
 11
189.9628402468866
 21
165.363463433675
 31
0.0
  0
LINE
  5
3908
330
1F
100
AcDbEntity
  8
1
100
AcDbLine
 10
189.6628401939856
 20
164.5634634259251
 30
0.0
 11
189.7128401939868
 21
164.5634634259251
 31
0.0
  0
LINE
  5
3909
330
1F
100
AcDbEntity
  8
1
100
AcDbLine
 10
189.7128401939868
 20
165.0634634259251
 30
0.0
 11
189.6628401939856
 21
165.0634634259251
 31
0.0
  0
LINE
  5
390A
330
1F
100
AcDbEntity
  8
1
100
AcDbLine
 10
189.112840293836
 20
166.5134634009747
 30
0.0
 11
189.7128402059356
 21
166.5134634009747
 31
0.0
  0
LINE
  5
390B
330
1F
100
AcDbEntity
  8
1
100
AcDbLine
 10
189.9628402468866
 20
166.263463418226
 30
0.0
 11
188.862840252836
 21
166.263463418226
 31
0.0
  0
LINE
  5
390C
330
1F
100
AcDbEntity
  8
1
100
AcDbLine
 10
189.7128401939868
 20
167.0634634259251
 30
0.0
 11
189.6628401939856
 21
167.0634634259251
 31
0.0
  0
LINE
  5
390D
330
1F
100
AcDbEntity
  8
1
100
AcDbLine
 10
189.6628401939856
 20
166.5634634259251
 30
0.0
 11
189.7128401939868
 21
166.5634634259251
 31
0.0
  0
LINE
  5
390E
330
1F
100
AcDbEntity
  8
1
100
AcDbLine
 10
189.112840293836
 20
167.1134634294749
 30
0.0
 11
189.7128402059356
 21
167.1134634294749
 31
0.0
  0
LINE
  5
390F
330
1F
100
AcDbEntity
  8
1
100
AcDbLine
 10
188.862840252836
 20
167.3634634704751
 30
0.0
 11
189.9628402468866
 21
167.3634634704751
 31
0.0
  0
LINE
  5
3910
330
1F
100
AcDbEntity
  8
1
100
AcDbLine
 10
187.4628404689088
 20
168.0134634901725
 30
0.0
 11
188.4628404689088
 21
168.0134634901725
 31
0.0
  0
LINE
  5
3911
330
1F
100
AcDbEntity
  8
1
100
AcDbLine
 10
188.862840252836
 20
163.3634634336733
 30
0.0
 11
189.112840293836
 21
163.1134633926732
 31
0.0
  0
LINE
  5
3912
330
1F
100
AcDbEntity
  8
1
100
AcDbLine
 10
189.6628401939856
 20
163.0634633891233
 30
0.0
 11
189.162840208885
 21
163.0634633611745
 31
0.0
  0
LINE
  5
3913
330
1F
100
AcDbEntity
  8
1
100
AcDbLine
 10
189.112840293836
 20
164.5134634223752
 30
0.0
 11
188.862840252836
 21
164.2634633814243
 31
0.0
  0
LINE
  5
3914
330
1F
100
AcDbEntity
  8
1
100
AcDbLine
 10
188.862840252836
 20
164.2634633814243
 30
0.0
 11
188.862840252836
 21
165.363463433675
 31
0.0
  0
LINE
  5
3915
330
1F
100
AcDbEntity
  8
1
100
AcDbLine
 10
189.112840293836
 20
165.1134634508754
 30
0.0
 11
189.112840293836
 21
164.5134634223752
 31
0.0
  0
LINE
  5
3916
330
1F
100
AcDbEntity
  8
1
100
AcDbLine
 10
188.862840252836
 20
165.363463433675
 30
0.0
 11
189.112840293836
 21
165.1134634508754
 31
0.0
  0
LINE
  5
3917
330
1F
100
AcDbEntity
  8
1
100
AcDbLine
 10
189.6628401939856
 20
164.5634634259251
 30
0.0
 11
189.162840208885
 21
164.5634634538755
 31
0.0
  0
LINE
  5
3918
330
1F
100
AcDbEntity
  8
1
100
AcDbLine
 10
189.6628401939856
 20
164.5634634259251
 30
0.0
 11
189.6628401939856
 21
165.0634634259251
 31
0.0
  0
LINE
  5
3919
330
1F
100
AcDbEntity
  8
1
100
AcDbLine
 10
189.6628401939856
 20
165.0634634259251
 30
0.0
 11
189.162840208885
 21
165.0634634194258
 31
0.0
  0
LINE
  5
391A
330
1F
100
AcDbEntity
  8
1
100
AcDbLine
 10
189.162840208885
 20
164.5634634538755
 30
0.0
 11
189.162840208885
 21
165.0634634194258
 31
0.0
  0
LINE
  5
391B
330
1F
100
AcDbEntity
  8
1
100
AcDbLine
 10
189.112840293836
 20
167.1134634294749
 30
0.0
 11
189.112840293836
 21
166.5134634009747
 31
0.0
  0
LINE
  5
391C
330
1F
100
AcDbEntity
  8
1
100
AcDbLine
 10
188.862840252836
 20
166.263463418226
 30
0.0
 11
188.862840252836
 21
167.3634634704751
 31
0.0
  0
LINE
  5
391D
330
1F
100
AcDbEntity
  8
1
100
AcDbLine
 10
189.112840293836
 20
166.5134634009747
 30
0.0
 11
188.862840252836
 21
166.263463418226
 31
0.0
  0
LINE
  5
391E
330
1F
100
AcDbEntity
  8
1
100
AcDbLine
 10
189.162840208885
 20
166.5634634324753
 30
0.0
 11
189.162840208885
 21
167.0634633979763
 31
0.0
  0
LINE
  5
391F
330
1F
100
AcDbEntity
  8
1
100
AcDbLine
 10
189.6628401939856
 20
166.5634634259251
 30
0.0
 11
189.162840208885
 21
166.5634634324753
 31
0.0
  0
LINE
  5
3920
330
1F
100
AcDbEntity
  8
1
100
AcDbLine
 10
189.6628401939856
 20
166.5634634259251
 30
0.0
 11
189.6628401939856
 21
167.0634634259251
 31
0.0
  0
LINE
  5
3921
330
1F
100
AcDbEntity
  8
1
100
AcDbLine
 10
189.6628401939856
 20
167.0634634259251
 30
0.0
 11
189.162840208885
 21
167.0634633979763
 31
0.0
  0
LINE
  5
3922
330
1F
100
AcDbEntity
  8
1
100
AcDbLine
 10
188.862840252836
 20
167.3634634704751
 30
0.0
 11
189.112840293836
 21
167.1134634294749
 31
0.0
  0
LINE
  5
3923
330
1F
100
AcDbEntity
  8
1
100
AcDbLine
 10
189.9628402468866
 20
163.3634634336733
 30
0.0
 11
189.7128402059356
 21
163.1134633926732
 31
0.0
  0
LINE
  5
3924
330
1F
100
AcDbEntity
  8
1
100
AcDbLine
 10
189.7128402059356
 20
164.5134634223752
 30
0.0
 11
189.9628402468866
 21
164.2634633814243
 31
0.0
  0
LINE
  5
3925
330
1F
100
AcDbEntity
  8
1
100
AcDbLine
 10
189.9628402468866
 20
165.363463433675
 30
0.0
 11
189.9628402468866
 21
164.2634633814243
 31
0.0
  0
LINE
  5
3926
330
1F
100
AcDbEntity
  8
1
100
AcDbLine
 10
189.7128402059356
 20
165.1134634508754
 30
0.0
 11
189.7128402059356
 21
164.5134634223752
 31
0.0
  0
LINE
  5
3927
330
1F
100
AcDbEntity
  8
1
100
AcDbLine
 10
189.9628402468866
 20
165.363463433675
 30
0.0
 11
189.7128402059356
 21
165.1134634508754
 31
0.0
  0
LINE
  5
3928
330
1F
100
AcDbEntity
  8
1
100
AcDbLine
 10
189.7128402059356
 20
167.1134634294749
 30
0.0
 11
189.7128402059356
 21
166.5134634009747
 31
0.0
  0
LINE
  5
3929
330
1F
100
AcDbEntity
  8
1
100
AcDbLine
 10
189.9628402468866
 20
167.3634634704751
 30
0.0
 11
189.9628402468866
 21
166.263463418226
 31
0.0
  0
LINE
  5
392A
330
1F
100
AcDbEntity
  8
1
100
AcDbLine
 10
189.7128402059356
 20
166.5134634009747
 30
0.0
 11
189.9628402468866
 21
166.263463418226
 31
0.0
  0
LINE
  5
392B
330
1F
100
AcDbEntity
  8
1
100
AcDbLine
 10
189.9628402468866
 20
167.3634634704751
 30
0.0
 11
189.7128402059356
 21
167.1134634294749
 31
0.0
  0
LINE
  5
392C
330
1F
100
AcDbEntity
  8
1
100
AcDbLine
 10
189.6628401939856
 20
162.5634633891233
 30
0.0
 11
189.7128401939868
 21
162.5634633891233
 31
0.0
  0
LINE
  5
392D
330
1F
100
AcDbEntity
  8
1
100
AcDbLine
 10
189.9628402468866
 20
162.2634633814241
 30
0.0
 11
188.862840252836
 21
162.2634633814241
 31
0.0
  0
LINE
  5
392E
330
1F
100
AcDbEntity
  8
1
100
AcDbLine
 10
189.112840293836
 20
162.513463364173
 30
0.0
 11
189.7128402059356
 21
162.513463364173
 31
0.0
  0
LINE
  5
392F
330
1F
100
AcDbEntity
  8
1
100
AcDbLine
 10
188.862840252836
 20
161.3634633968733
 30
0.0
 11
189.9628402468866
 21
161.3634633968733
 31
0.0
  0
LINE
  5
3930
330
1F
100
AcDbEntity
  8
1
100
AcDbLine
 10
189.6628401939856
 20
162.5634633891233
 30
0.0
 11
189.162840208885
 21
162.5634633956734
 31
0.0
  0
LINE
  5
3931
330
1F
100
AcDbEntity
  8
1
100
AcDbLine
 10
189.112840293836
 20
162.513463364173
 30
0.0
 11
188.862840252836
 21
162.2634633814241
 31
0.0
  0
LINE
  5
3932
330
1F
100
AcDbEntity
  8
1
100
AcDbLine
 10
189.7128402059356
 20
162.513463364173
 30
0.0
 11
189.9628402468866
 21
162.2634633814241
 31
0.0
  0
LINE
  5
3933
330
1F
100
AcDbEntity
  8
1
100
AcDbLine
 10
189.6628401939856
 20
162.5634633891233
 30
0.0
 11
189.6628401939856
 21
163.0634633891233
 31
0.0
  0
LINE
  5
3934
330
1F
100
AcDbEntity
  8
1
100
AcDbLine
 10
189.162840208885
 20
162.5634633956734
 30
0.0
 11
189.162840208885
 21
163.0634633611745
 31
0.0
  0
LINE
  5
3935
330
1F
100
AcDbEntity
  8
1
100
AcDbLine
 10
188.862840252836
 20
162.2634633814241
 30
0.0
 11
188.862840252836
 21
163.3634634336733
 31
0.0
  0
LINE
  5
3936
330
1F
100
AcDbEntity
  8
1
100
AcDbLine
 10
189.112840293836
 20
163.1134633926732
 30
0.0
 11
189.112840293836
 21
162.513463364173
 31
0.0
  0
LINE
  5
3937
330
1F
100
AcDbEntity
  8
1
100
AcDbLine
 10
189.9628402468866
 20
163.3634634336733
 30
0.0
 11
189.9628402468866
 21
162.2634633814241
 31
0.0
  0
LINE
  5
3938
330
1F
100
AcDbEntity
  8
1
100
AcDbLine
 10
189.7128402059356
 20
163.1134633926732
 30
0.0
 11
189.7128402059356
 21
162.513463364173
 31
0.0
  0
LINE
  5
3939
330
1F
100
AcDbEntity
  8
1
100
AcDbLine
 10
190.862840252836
 20
164.2634633814243
 30
0.0
 11
190.862840252836
 21
165.363463433675
 31
0.0
  0
LINE
  5
393A
330
1F
100
AcDbEntity
  8
1
100
AcDbLine
 10
190.862840252836
 20
166.263463418226
 30
0.0
 11
190.862840252836
 21
167.3634634704751
 31
0.0
  0
LINE
  5
393B
330
1F
100
AcDbEntity
  8
1
100
AcDbLine
 10
190.862840252836
 20
162.2634633814241
 30
0.0
 11
190.862840252836
 21
163.3634634336733
 31
0.0
  0
LINE
  5
393C
330
1F
100
AcDbEntity
  8
1
100
AcDbLine
 10
187.4628404465624
 20
169.9134640623753
 30
0.0
 11
187.4628404465624
 21
170.113464062376
 31
0.0
  0
LINE
  5
393D
330
1F
100
AcDbEntity
  8
1
100
AcDbLine
 10
187.4628404465624
 20
169.9134640623753
 30
0.0
 11
187.4628404465624
 21
169.3134640623765
 31
0.0
  0
LINE
  5
393E
330
1F
100
AcDbEntity
  8
1
100
AcDbLine
 10
188.4628404689088
 20
168.8134634901718
 30
0.0
 11
188.4628404689088
 21
168.213463490173
 31
0.0
  0
LINE
  5
393F
330
1F
100
AcDbEntity
  8
1
100
AcDbLine
 10
187.6628404689094
 20
168.213463490173
 30
0.0
 11
187.6628404689094
 21
168.8134634901718
 31
0.0
  0
LINE
  5
3940
330
1F
100
AcDbEntity
  8
1
100
AcDbLine
 10
188.4628404689088
 20
168.213463490173
 30
0.0
 11
187.6628404689094
 21
168.213463490173
 31
0.0
  0
LINE
  5
3941
330
1F
100
AcDbEntity
  8
1
100
AcDbLine
 10
187.6628404689094
 20
168.8134634901718
 30
0.0
 11
188.4628404689088
 21
168.8134634901718
 31
0.0
  0
LINE
  5
3942
330
1F
100
AcDbEntity
  8
1
100
AcDbLine
 10
190.1128404347115
 20
171.3134641041261
 30
0.0
 11
190.1128404347115
 21
170.7134641920249
 31
0.0
  0
LINE
  5
3943
330
1F
100
AcDbEntity
  8
1
100
AcDbLine
 10
187.3128405054124
 20
172.5634638433266
 30
0.0
 11
187.5628405464127
 21
172.3134642680262
 31
0.0
  0
LINE
  5
3944
330
1F
100
AcDbEntity
  8
1
100
AcDbLine
 10
188.412840499463
 20
172.5634638433266
 30
0.0
 11
188.162840458512
 21
172.3134642680262
 31
0.0
  0
LINE
  5
3945
330
1F
100
AcDbEntity
  8
1
100
AcDbLine
 10
188.412840499463
 20
171.4634638492763
 30
0.0
 11
188.412840499463
 21
172.5634638433266
 31
0.0
  0
LINE
  5
3946
330
1F
100
AcDbEntity
  8
1
100
AcDbLine
 10
187.3128405054124
 20
171.4634638492763
 30
0.0
 11
187.3128405054124
 21
172.5634638433266
 31
0.0
  0
LINE
  5
3947
330
1F
100
AcDbEntity
  8
1
100
AcDbLine
 10
187.6128404614614
 20
173.763464133176
 30
0.0
 11
188.1128404465622
 21
173.7634640623755
 31
0.0
  0
LINE
  5
3948
330
1F
100
AcDbEntity
  8
1
100
AcDbLine
 10
188.1128404465622
 20
173.7634640623755
 30
0.0
 11
188.1628404465633
 21
173.7634640623755
 31
0.0
  0
LINE
  5
3949
330
1F
100
AcDbEntity
  8
1
100
AcDbLine
 10
187.5628405464127
 20
173.7134642181255
 30
0.0
 11
188.162840458512
 21
173.7134642181255
 31
0.0
  0
LINE
  5
394A
330
1F
100
AcDbEntity
  8
1
100
AcDbLine
 10
187.3128405054124
 20
172.5634638433266
 30
0.0
 11
188.412840499463
 21
172.5634638433266
 31
0.0
  0
LINE
  5
394B
330
1F
100
AcDbEntity
  8
1
100
AcDbLine
 10
188.412840499463
 20
173.4634641771255
 30
0.0
 11
187.3128405054124
 21
173.4634641771255
 31
0.0
  0
LINE
  5
394C
330
1F
100
AcDbEntity
  8
1
100
AcDbLine
 10
187.3128405054124
 20
173.4634641771255
 30
0.0
 11
187.5628405464127
 21
173.7134642181255
 31
0.0
  0
LINE
  5
394D
330
1F
100
AcDbEntity
  8
1
100
AcDbLine
 10
188.162840458512
 20
173.7134642181255
 30
0.0
 11
188.412840499463
 21
173.4634641771255
 31
0.0
  0
LINE
  5
394E
330
1F
100
AcDbEntity
  8
1
100
AcDbLine
 10
187.6128404614614
 20
172.263463887276
 30
0.0
 11
188.1128404465622
 21
172.2634640623756
 31
0.0
  0
LINE
  5
394F
330
1F
100
AcDbEntity
  8
1
100
AcDbLine
 10
188.1128404465622
 20
172.2634640623756
 30
0.0
 11
188.1628404465633
 21
172.2634640623756
 31
0.0
  0
LINE
  5
3950
330
1F
100
AcDbEntity
  8
1
100
AcDbLine
 10
187.5628405464127
 20
172.3134642680262
 30
0.0
 11
188.162840458512
 21
172.3134642680262
 31
0.0
  0
LINE
  5
3951
330
1F
100
AcDbEntity
  8
1
100
AcDbLine
 10
187.6128404614614
 20
171.7634642710264
 30
0.0
 11
188.1128404465622
 21
171.7634640623755
 31
0.0
  0
LINE
  5
3952
330
1F
100
AcDbEntity
  8
1
100
AcDbLine
 10
188.1128404465622
 20
171.7634640623755
 30
0.0
 11
188.1628404465633
 21
171.7634640623755
 31
0.0
  0
LINE
  5
3953
330
1F
100
AcDbEntity
  8
1
100
AcDbLine
 10
188.412840499463
 20
171.4634638492763
 30
0.0
 11
187.3128405054124
 21
171.4634638492763
 31
0.0
  0
LINE
  5
3954
330
1F
100
AcDbEntity
  8
1
100
AcDbLine
 10
187.3128405054124
 20
171.4634638492763
 30
0.0
 11
187.5628405464127
 21
171.7134638902764
 31
0.0
  0
LINE
  5
3955
330
1F
100
AcDbEntity
  8
1
100
AcDbLine
 10
188.162840458512
 20
171.7134638902764
 30
0.0
 11
188.412840499463
 21
171.4634638492763
 31
0.0
  0
LINE
  5
3956
330
1F
100
AcDbEntity
  8
1
100
AcDbLine
 10
187.5628405464127
 20
171.7134638902764
 30
0.0
 11
188.162840458512
 21
171.7134638902764
 31
0.0
  0
LINE
  5
3957
330
1F
100
AcDbEntity
  8
1
100
AcDbLine
 10
188.1128404465622
 20
172.2634640623756
 30
0.0
 11
188.1128404465622
 21
171.7634640623755
 31
0.0
  0
LINE
  5
3958
330
1F
100
AcDbEntity
  8
1
100
AcDbLine
 10
187.6128404614614
 20
172.263463887276
 30
0.0
 11
187.6128404614614
 21
171.7634642710264
 31
0.0
  0
LINE
  5
3959
330
1F
100
AcDbEntity
  8
1
100
AcDbLine
 10
187.5628405464127
 20
171.7134638902764
 30
0.0
 11
187.5628405464127
 21
172.3134642680262
 31
0.0
  0
LINE
  5
395A
330
1F
100
AcDbEntity
  8
1
100
AcDbLine
 10
188.162840458512
 20
172.3134642680262
 30
0.0
 11
188.162840458512
 21
171.7134638902764
 31
0.0
  0
LINE
  5
395B
330
1F
100
AcDbEntity
  8
1
100
AcDbLine
 10
187.4628404465624
 20
168.0134634901741
 30
0.0
 11
193.2628404465618
 21
168.0134634901741
 31
0.0
  0
LINE
  5
395C
330
1F
100
AcDbEntity
  8
1
100
AcDbLine
 10
190.862840252836
 20
163.3634634336733
 30
0.0
 11
191.112840293836
 21
163.1134633926732
 31
0.0
  0
LINE
  5
395D
330
1F
100
AcDbEntity
  8
1
100
AcDbLine
 10
190.862840252836
 20
162.2634633814241
 30
0.0
 11
191.112840293836
 21
162.513463364173
 31
0.0
  0
LINE
  5
395E
330
1F
100
AcDbEntity
  8
1
100
AcDbLine
 10
191.9628402468866
 20
163.3634634336733
 30
0.0
 11
190.862840252836
 21
163.3634634336733
 31
0.0
  0
LINE
  5
395F
330
1F
100
AcDbEntity
  8
1
100
AcDbLine
 10
191.9628402468866
 20
162.2634633814241
 30
0.0
 11
190.862840252836
 21
162.2634633814241
 31
0.0
  0
LINE
  5
3960
330
1F
100
AcDbEntity
  8
1
100
AcDbLine
 10
191.9628402468866
 20
161.3634633968733
 30
0.0
 11
190.862840252836
 21
161.3634633968733
 31
0.0
  0
LINE
  5
3961
330
1F
100
AcDbEntity
  8
1
100
AcDbLine
 10
191.9628402468866
 20
164.2634633814243
 30
0.0
 11
190.862840252836
 21
164.2634633814243
 31
0.0
  0
LINE
  5
3962
330
1F
100
AcDbEntity
  8
1
100
AcDbLine
 10
191.9628402468866
 20
165.363463433675
 30
0.0
 11
190.862840252836
 21
165.363463433675
 31
0.0
  0
LINE
  5
3963
330
1F
100
AcDbEntity
  8
1
100
AcDbLine
 10
191.9628402468866
 20
166.263463418226
 30
0.0
 11
190.862840252836
 21
166.263463418226
 31
0.0
  0
LINE
  5
3964
330
1F
100
AcDbEntity
  8
1
100
AcDbLine
 10
191.9628402468866
 20
167.3634634704751
 30
0.0
 11
190.862840252836
 21
167.3634634704751
 31
0.0
  0
LINE
  5
3965
330
1F
100
AcDbEntity
  8
1
100
AcDbLine
 10
190.862840252836
 20
164.2634633814243
 30
0.0
 11
191.112840293836
 21
164.5134634223752
 31
0.0
  0
LINE
  5
3966
330
1F
100
AcDbEntity
  8
1
100
AcDbLine
 10
190.862840252836
 20
165.363463433675
 30
0.0
 11
191.112840293836
 21
165.1134634508754
 31
0.0
  0
LINE
  5
3967
330
1F
100
AcDbEntity
  8
1
100
AcDbLine
 10
190.862840252836
 20
166.263463418226
 30
0.0
 11
191.112840293836
 21
166.5134634009747
 31
0.0
  0
LINE
  5
3968
330
1F
100
AcDbEntity
  8
1
100
AcDbLine
 10
190.862840252836
 20
167.3634634704751
 30
0.0
 11
191.112840293836
 21
167.1134634294749
 31
0.0
  0
LINE
  5
3969
330
1F
100
AcDbEntity
  8
1
100
AcDbLine
 10
187.4628404465624
 20
169.9134640623753
 30
0.0
 11
193.2628404465618
 21
169.9134640623753
 31
0.0
  0
LINE
  5
396A
330
1F
100
AcDbEntity
  8
1
100
AcDbLine
 10
187.4628404465624
 20
169.3134640623765
 30
0.0
 11
193.2628404465618
 21
169.3134640623765
 31
0.0
  0
LINE
  5
396B
330
1F
100
AcDbEntity
  8
1
100
AcDbLine
 10
187.4628404465624
 20
168.2134634901751
 30
0.0
 11
193.2628404465618
 21
168.2134634901751
 31
0.0
  0
LINE
  5
396C
330
1F
100
AcDbEntity
  8
1
100
AcDbLine
 10
187.4628404465624
 20
168.8134634901734
 30
0.0
 11
193.2628404465618
 21
168.8134634901734
 31
0.0
  0
LINE
  5
396D
330
1F
100
AcDbEntity
  8
1
100
AcDbLine
 10
193.2628404465618
 20
170.113464062376
 30
0.0
 11
187.4628404465624
 21
170.113464062376
 31
0.0
  0
LINE
  5
396E
330
1F
100
AcDbEntity
  8
1
100
AcDbLine
 10
191.9628402468866
 20
155.3634631700743
 30
0.0
 11
191.7128402059375
 21
155.1134635947738
 31
0.0
  0
LINE
  5
396F
330
1F
100
AcDbEntity
  8
1
100
AcDbLine
 10
191.662840305737
 20
155.0634633891233
 30
0.0
 11
191.7128403057381
 21
155.0634633891233
 31
0.0
  0
LINE
  5
3970
330
1F
100
AcDbEntity
  8
1
100
AcDbLine
 10
191.7128402059375
 20
154.5134632170239
 30
0.0
 11
191.9628402468866
 21
154.263463176024
 31
0.0
  0
LINE
  5
3971
330
1F
100
AcDbEntity
  8
1
100
AcDbLine
 10
191.662840305737
 20
154.5634633891233
 30
0.0
 11
191.7128403057381
 21
154.5634633891233
 31
0.0
  0
LINE
  5
3972
330
1F
100
AcDbEntity
  8
1
100
AcDbLine
 10
191.662840305737
 20
155.0634633891233
 30
0.0
 11
191.662840305737
 21
154.5634633891233
 31
0.0
  0
LINE
  5
3973
330
1F
100
AcDbEntity
  8
1
100
AcDbLine
 10
191.9628402468866
 20
155.3634631700743
 30
0.0
 11
191.9628402468866
 21
154.263463176024
 31
0.0
  0
LINE
  5
3974
330
1F
100
AcDbEntity
  8
1
100
AcDbLine
 10
191.7128402059375
 20
155.1134635947738
 30
0.0
 11
191.7128402059375
 21
154.5134632170239
 31
0.0
  0
LINE
  5
3975
330
1F
100
AcDbEntity
  8
1
100
AcDbLine
 10
191.1628402088885
 20
154.5634635977739
 30
0.0
 11
191.662840305737
 21
154.5634633891233
 31
0.0
  0
LINE
  5
3976
330
1F
100
AcDbEntity
  8
1
100
AcDbLine
 10
191.1628402088885
 20
155.0634632140237
 30
0.0
 11
191.662840305737
 21
155.0634633891233
 31
0.0
  0
LINE
  5
3977
330
1F
100
AcDbEntity
  8
1
100
AcDbLine
 10
191.112840293836
 20
155.1134635947738
 30
0.0
 11
191.112840293836
 21
154.5134632170239
 31
0.0
  0
LINE
  5
3978
330
1F
100
AcDbEntity
  8
1
100
AcDbLine
 10
191.112840293836
 20
155.0634632140237
 30
0.0
 11
191.1628402088885
 21
155.0634632140237
 31
0.0
  0
LINE
  5
3979
330
1F
100
AcDbEntity
  8
1
100
AcDbLine
 10
191.112840293836
 20
154.5634635977739
 30
0.0
 11
191.1628402088885
 21
154.5634635977739
 31
0.0
  0
LINE
  5
397A
330
1F
100
AcDbEntity
  8
1
100
AcDbLine
 10
191.112840293836
 20
154.5134632170239
 30
0.0
 11
191.7128402059375
 21
154.5134632170239
 31
0.0
  0
LINE
  5
397B
330
1F
100
AcDbEntity
  8
1
100
AcDbLine
 10
191.112840293836
 20
155.1134635947738
 30
0.0
 11
191.7128402059375
 21
155.1134635947738
 31
0.0
  0
LINE
  5
397C
330
1F
100
AcDbEntity
  8
1
100
AcDbLine
 10
191.1628402088885
 20
152.5634631320745
 30
0.0
 11
191.1628402088885
 21
153.0634630975757
 31
0.0
  0
LINE
  5
397D
330
1F
100
AcDbEntity
  8
1
100
AcDbLine
 10
191.1628402088885
 20
150.5634631534749
 30
0.0
 11
191.1628402088885
 21
151.063463119025
 31
0.0
  0
LINE
  5
397E
330
1F
100
AcDbEntity
  8
1
100
AcDbLine
 10
191.7128402059375
 20
153.1134631290744
 30
0.0
 11
191.9628402468866
 21
153.3634631700744
 31
0.0
  0
LINE
  5
397F
330
1F
100
AcDbEntity
  8
1
100
AcDbLine
 10
191.662840305737
 20
152.5634631255243
 30
0.0
 11
191.662840305737
 21
153.0634631255245
 31
0.0
  0
LINE
  5
3980
330
1F
100
AcDbEntity
  8
1
100
AcDbLine
 10
191.7128402059375
 20
152.513463100574
 30
0.0
 11
191.9628402468866
 21
152.2634631178254
 31
0.0
  0
LINE
  5
3981
330
1F
100
AcDbEntity
  8
1
100
AcDbLine
 10
191.7128403057381
 20
153.0634631255245
 30
0.0
 11
191.662840305737
 21
153.0634631255245
 31
0.0
  0
LINE
  5
3982
330
1F
100
AcDbEntity
  8
1
100
AcDbLine
 10
191.7128403057381
 20
152.5634631255243
 30
0.0
 11
191.662840305737
 21
152.5634631255243
 31
0.0
  0
LINE
  5
3983
330
1F
100
AcDbEntity
  8
1
100
AcDbLine
 10
191.9628402468866
 20
153.3634631700744
 30
0.0
 11
191.9628402468866
 21
152.2634631178254
 31
0.0
  0
LINE
  5
3984
330
1F
100
AcDbEntity
  8
1
100
AcDbLine
 10
191.7128402059375
 20
153.1134631290744
 30
0.0
 11
191.7128402059375
 21
152.513463100574
 31
0.0
  0
LINE
  5
3985
330
1F
100
AcDbEntity
  8
1
100
AcDbLine
 10
191.662840305737
 20
150.5634631255244
 30
0.0
 11
191.662840305737
 21
151.0634631255244
 31
0.0
  0
LINE
  5
3986
330
1F
100
AcDbEntity
  8
1
100
AcDbLine
 10
191.7128402059375
 20
151.1134631504748
 30
0.0
 11
191.9628402468866
 21
151.3634631332744
 31
0.0
  0
LINE
  5
3987
330
1F
100
AcDbEntity
  8
1
100
AcDbLine
 10
191.7128402059375
 20
151.1134631504748
 30
0.0
 11
191.7128402059375
 21
150.5134631219744
 31
0.0
  0
LINE
  5
3988
330
1F
100
AcDbEntity
  8
1
100
AcDbLine
 10
191.7128403057381
 20
151.0634631255244
 30
0.0
 11
191.662840305737
 21
151.0634631255244
 31
0.0
  0
LINE
  5
3989
330
1F
100
AcDbEntity
  8
1
100
AcDbLine
 10
191.7128403057381
 20
150.5634631255244
 30
0.0
 11
191.662840305737
 21
150.5634631255244
 31
0.0
  0
LINE
  5
398A
330
1F
100
AcDbEntity
  8
1
100
AcDbLine
 10
191.7128402059375
 20
149.1134630554744
 30
0.0
 11
191.9628402468866
 21
149.3634630964745
 31
0.0
  0
LINE
  5
398B
330
1F
100
AcDbEntity
  8
1
100
AcDbLine
 10
191.7128403057381
 20
149.0634631255244
 30
0.0
 11
191.662840305737
 21
149.0634631255244
 31
0.0
  0
LINE
  5
398C
330
1F
100
AcDbEntity
  8
1
100
AcDbLine
 10
191.9628402468866
 20
151.3634631332744
 30
0.0
 11
191.9628402468866
 21
150.2634630810234
 31
0.0
  0
LINE
  5
398D
330
1F
100
AcDbEntity
  8
1
100
AcDbLine
 10
191.7128402059375
 20
150.5134631219744
 30
0.0
 11
191.9628402468866
 21
150.2634630810234
 31
0.0
  0
LINE
  5
398E
330
1F
100
AcDbEntity
  8
1
100
AcDbLine
 10
191.662840305737
 20
151.0634631255244
 30
0.0
 11
191.1628402088885
 21
151.063463119025
 31
0.0
  0
LINE
  5
398F
330
1F
100
AcDbEntity
  8
1
100
AcDbLine
 10
191.662840305737
 20
150.5634631255244
 30
0.0
 11
191.1628402088885
 21
150.5634631534749
 31
0.0
  0
LINE
  5
3990
330
1F
100
AcDbEntity
  8
1
100
AcDbLine
 10
191.662840305737
 20
153.0634631255245
 30
0.0
 11
191.1628402088885
 21
153.0634630975757
 31
0.0
  0
LINE
  5
3991
330
1F
100
AcDbEntity
  8
1
100
AcDbLine
 10
191.662840305737
 20
152.5634631255243
 30
0.0
 11
191.1628402088885
 21
152.5634631320745
 31
0.0
  0
LINE
  5
3992
330
1F
100
AcDbEntity
  8
1
100
AcDbLine
 10
191.662840305737
 20
149.0634631255244
 30
0.0
 11
191.1628402088885
 21
149.0634631404238
 31
0.0
  0
LINE
  5
3993
330
1F
100
AcDbEntity
  8
1
100
AcDbLine
 10
191.112840293836
 20
152.513463100574
 30
0.0
 11
191.112840293836
 21
153.1134631290744
 31
0.0
  0
LINE
  5
3994
330
1F
100
AcDbEntity
  8
1
100
AcDbLine
 10
191.112840293836
 20
150.5134631219744
 30
0.0
 11
191.112840293836
 21
151.1134631504748
 31
0.0
  0
LINE
  5
3995
330
1F
100
AcDbEntity
  8
1
100
AcDbLine
 10
191.1628402088885
 20
152.5634631320745
 30
0.0
 11
191.112840293836
 21
152.5634631320745
 31
0.0
  0
LINE
  5
3996
330
1F
100
AcDbEntity
  8
1
100
AcDbLine
 10
191.1628402088885
 20
153.0634630975757
 30
0.0
 11
191.112840293836
 21
153.0634630975757
 31
0.0
  0
LINE
  5
3997
330
1F
100
AcDbEntity
  8
1
100
AcDbLine
 10
191.1628402088885
 20
151.063463119025
 30
0.0
 11
191.112840293836
 21
151.063463119025
 31
0.0
  0
LINE
  5
3998
330
1F
100
AcDbEntity
  8
1
100
AcDbLine
 10
191.1628402088885
 20
150.5634631534749
 30
0.0
 11
191.112840293836
 21
150.5634631534749
 31
0.0
  0
LINE
  5
3999
330
1F
100
AcDbEntity
  8
1
100
AcDbLine
 10
191.1628402088885
 20
149.0634631404238
 30
0.0
 11
191.112840293836
 21
149.0634631404238
 31
0.0
  0
LINE
  5
399A
330
1F
100
AcDbEntity
  8
1
100
AcDbLine
 10
191.112840293836
 20
150.5134631219744
 30
0.0
 11
191.7128402059375
 21
150.5134631219744
 31
0.0
  0
LINE
  5
399B
330
1F
100
AcDbEntity
  8
1
100
AcDbLine
 10
191.112840293836
 20
152.513463100574
 30
0.0
 11
191.7128402059375
 21
152.513463100574
 31
0.0
  0
LINE
  5
399C
330
1F
100
AcDbEntity
  8
1
100
AcDbLine
 10
191.112840293836
 20
153.1134631290744
 30
0.0
 11
191.7128402059375
 21
153.1134631290744
 31
0.0
  0
LINE
  5
399D
330
1F
100
AcDbEntity
  8
1
100
AcDbLine
 10
191.112840293836
 20
151.1134631504748
 30
0.0
 11
191.7128402059375
 21
151.1134631504748
 31
0.0
  0
LINE
  5
399E
330
1F
100
AcDbEntity
  8
1
100
AcDbLine
 10
191.112840293836
 20
149.1134630554744
 30
0.0
 11
191.7128402059375
 21
149.1134630554744
 31
0.0
  0
LINE
  5
399F
330
1F
100
AcDbEntity
  8
1
100
AcDbLine
 10
191.1628402088885
 20
155.0634632140237
 30
0.0
 11
191.1628402088885
 21
154.5634635977739
 31
0.0
  0
LINE
  5
39A0
330
1F
100
AcDbEntity
  8
1
100
AcDbLine
 10
191.662840305737
 20
156.5634633891233
 30
0.0
 11
191.7128403057381
 21
156.5634633891233
 31
0.0
  0
LINE
  5
39A1
330
1F
100
AcDbEntity
  8
1
100
AcDbLine
 10
191.662840305737
 20
157.0634633891233
 30
0.0
 11
191.7128403057381
 21
157.0634633891233
 31
0.0
  0
LINE
  5
39A2
330
1F
100
AcDbEntity
  8
1
100
AcDbLine
 10
191.9628402468866
 20
157.3634634979235
 30
0.0
 11
191.9628402468866
 21
156.2634635038731
 31
0.0
  0
LINE
  5
39A3
330
1F
100
AcDbEntity
  8
1
100
AcDbLine
 10
191.7128402059375
 20
156.513463544873
 30
0.0
 11
191.9628402468866
 21
156.2634635038731
 31
0.0
  0
LINE
  5
39A4
330
1F
100
AcDbEntity
  8
1
100
AcDbLine
 10
191.1628402088885
 20
156.5634634599238
 30
0.0
 11
191.662840305737
 21
156.5634633891233
 31
0.0
  0
LINE
  5
39A5
330
1F
100
AcDbEntity
  8
1
100
AcDbLine
 10
191.1628402088885
 20
157.0634635418729
 30
0.0
 11
191.662840305737
 21
157.0634633891233
 31
0.0
  0
LINE
  5
39A6
330
1F
100
AcDbEntity
  8
1
100
AcDbLine
 10
191.662840305737
 20
158.5634633891233
 30
0.0
 11
191.1628402088885
 21
158.5634633220734
 31
0.0
  0
LINE
  5
39A7
330
1F
100
AcDbEntity
  8
1
100
AcDbLine
 10
191.7128403057381
 20
160.5634633891233
 30
0.0
 11
191.662840305737
 21
160.5634633891233
 31
0.0
  0
LINE
  5
39A8
330
1F
100
AcDbEntity
  8
1
100
AcDbLine
 10
191.7128402059375
 20
159.1134633190733
 30
0.0
 11
191.9628402468866
 21
159.3634633600733
 31
0.0
  0
LINE
  5
39A9
330
1F
100
AcDbEntity
  8
1
100
AcDbLine
 10
191.7128403057381
 20
159.0634633891233
 30
0.0
 11
191.662840305737
 21
159.0634633891233
 31
0.0
  0
LINE
  5
39AA
330
1F
100
AcDbEntity
  8
1
100
AcDbLine
 10
191.7128402059375
 20
160.5134633855733
 30
0.0
 11
191.9628402468866
 21
160.2634633446224
 31
0.0
  0
LINE
  5
39AB
330
1F
100
AcDbEntity
  8
1
100
AcDbLine
 10
191.662840305737
 20
160.5634633891233
 30
0.0
 11
191.1628402088885
 21
160.5634634170739
 31
0.0
  0
LINE
  5
39AC
330
1F
100
AcDbEntity
  8
1
100
AcDbLine
 10
191.662840305737
 20
159.0634633891233
 30
0.0
 11
191.1628402088885
 21
159.0634634040226
 31
0.0
  0
LINE
  5
39AD
330
1F
100
AcDbEntity
  8
1
100
AcDbLine
 10
191.112840293836
 20
158.5134634070247
 30
0.0
 11
191.112840293836
 21
159.1134633190733
 31
0.0
  0
LINE
  5
39AE
330
1F
100
AcDbEntity
  8
1
100
AcDbLine
 10
191.112840293836
 20
156.513463544873
 30
0.0
 11
191.112840293836
 21
157.1134634569236
 31
0.0
  0
LINE
  5
39AF
330
1F
100
AcDbEntity
  8
1
100
AcDbLine
 10
191.1628402088885
 20
158.5634633220734
 30
0.0
 11
191.112840293836
 21
158.5634633220734
 31
0.0
  0
LINE
  5
39B0
330
1F
100
AcDbEntity
  8
1
100
AcDbLine
 10
191.112840293836
 20
156.5634634599238
 30
0.0
 11
191.1628402088885
 21
156.5634634599238
 31
0.0
  0
LINE
  5
39B1
330
1F
100
AcDbEntity
  8
1
100
AcDbLine
 10
191.112840293836
 20
157.0634635418729
 30
0.0
 11
191.1628402088885
 21
157.0634635418729
 31
0.0
  0
LINE
  5
39B2
330
1F
100
AcDbEntity
  8
1
100
AcDbLine
 10
191.112840293836
 20
156.513463544873
 30
0.0
 11
191.7128402059375
 21
156.513463544873
 31
0.0
  0
LINE
  5
39B3
330
1F
100
AcDbEntity
  8
1
100
AcDbLine
 10
191.112840293836
 20
158.5134634070247
 30
0.0
 11
191.7128402059375
 21
158.5134634070247
 31
0.0
  0
LINE
  5
39B4
330
1F
100
AcDbEntity
  8
1
100
AcDbLine
 10
191.112840293836
 20
157.1134634569236
 30
0.0
 11
191.7128402059375
 21
157.1134634569236
 31
0.0
  0
LINE
  5
39B5
330
1F
100
AcDbEntity
  8
1
100
AcDbLine
 10
191.1628402088885
 20
160.5634634170739
 30
0.0
 11
191.112840293836
 21
160.5634634170739
 31
0.0
  0
LINE
  5
39B6
330
1F
100
AcDbEntity
  8
1
100
AcDbLine
 10
191.1628402088885
 20
159.0634634040226
 30
0.0
 11
191.112840293836
 21
159.0634634040226
 31
0.0
  0
LINE
  5
39B7
330
1F
100
AcDbEntity
  8
1
100
AcDbLine
 10
191.112840293836
 20
160.5134633855733
 30
0.0
 11
191.7128402059375
 21
160.5134633855733
 31
0.0
  0
LINE
  5
39B8
330
1F
100
AcDbEntity
  8
1
100
AcDbLine
 10
191.112840293836
 20
159.1134633190733
 30
0.0
 11
191.7128402059375
 21
159.1134633190733
 31
0.0
  0
LINE
  5
39B9
330
1F
100
AcDbEntity
  8
1
100
AcDbLine
 10
191.1628402088885
 20
158.5634633220734
 30
0.0
 11
191.1628402088885
 21
159.0634634040226
 31
0.0
  0
LINE
  5
39BA
330
1F
100
AcDbEntity
  8
1
100
AcDbLine
 10
191.662840305737
 20
158.5634633891233
 30
0.0
 11
191.662840305737
 21
159.0634633891233
 31
0.0
  0
LINE
  5
39BB
330
1F
100
AcDbEntity
  8
1
100
AcDbLine
 10
191.9628402468866
 20
159.3634633600733
 30
0.0
 11
191.9628402468866
 21
158.2634633660247
 31
0.0
  0
LINE
  5
39BC
330
1F
100
AcDbEntity
  8
1
100
AcDbLine
 10
191.7128402059375
 20
159.1134633190733
 30
0.0
 11
191.7128402059375
 21
158.5134634070247
 31
0.0
  0
LINE
  5
39BD
330
1F
100
AcDbEntity
  8
1
100
AcDbLine
 10
191.1628402088885
 20
157.0634635418729
 30
0.0
 11
191.1628402088885
 21
156.5634634599238
 31
0.0
  0
LINE
  5
39BE
330
1F
100
AcDbEntity
  8
1
100
AcDbLine
 10
191.7128402059375
 20
158.5134634070247
 30
0.0
 11
191.9628402468866
 21
158.2634633660247
 31
0.0
  0
LINE
  5
39BF
330
1F
100
AcDbEntity
  8
1
100
AcDbLine
 10
191.7128403057381
 20
158.5634633891233
 30
0.0
 11
191.662840305737
 21
158.5634633891233
 31
0.0
  0
LINE
  5
39C0
330
1F
100
AcDbEntity
  8
1
100
AcDbLine
 10
191.662840305737
 20
157.0634633891233
 30
0.0
 11
191.662840305737
 21
156.5634633891233
 31
0.0
  0
LINE
  5
39C1
330
1F
100
AcDbEntity
  8
1
100
AcDbLine
 10
191.7128402059375
 20
157.1134634569236
 30
0.0
 11
191.9628402468866
 21
157.3634634979235
 31
0.0
  0
LINE
  5
39C2
330
1F
100
AcDbEntity
  8
1
100
AcDbLine
 10
191.7128402059375
 20
157.1134634569236
 30
0.0
 11
191.7128402059375
 21
156.513463544873
 31
0.0
  0
LINE
  5
39C3
330
1F
100
AcDbEntity
  8
1
100
AcDbLine
 10
191.7128403057381
 20
161.0634633891233
 30
0.0
 11
191.662840305737
 21
161.0634633891233
 31
0.0
  0
LINE
  5
39C4
330
1F
100
AcDbEntity
  8
1
100
AcDbLine
 10
191.662840305737
 20
161.0634633891233
 30
0.0
 11
191.1628402088885
 21
161.063463382624
 31
0.0
  0
LINE
  5
39C5
330
1F
100
AcDbEntity
  8
1
100
AcDbLine
 10
191.1628402088885
 20
161.063463382624
 30
0.0
 11
191.112840293836
 21
161.063463382624
 31
0.0
  0
LINE
  5
39C6
330
1F
100
AcDbEntity
  8
1
100
AcDbLine
 10
191.112840293836
 20
161.1134634140736
 30
0.0
 11
191.7128402059375
 21
161.1134634140736
 31
0.0
  0
LINE
  5
39C7
330
1F
100
AcDbEntity
  8
1
100
AcDbLine
 10
191.1628402088885
 20
160.5634634170739
 30
0.0
 11
191.1628402088885
 21
161.063463382624
 31
0.0
  0
LINE
  5
39C8
330
1F
100
AcDbEntity
  8
1
100
AcDbLine
 10
191.662840305737
 20
160.5634633891233
 30
0.0
 11
191.662840305737
 21
161.0634633891233
 31
0.0
  0
LINE
  5
39C9
330
1F
100
AcDbEntity
  8
1
100
AcDbLine
 10
191.7128402059375
 20
161.1134634140736
 30
0.0
 11
191.7128402059375
 21
160.5134633855733
 31
0.0
  0
LINE
  5
39CA
330
1F
100
AcDbEntity
  8
1
100
AcDbLine
 10
191.112840293836
 20
160.5134633855733
 30
0.0
 11
191.112840293836
 21
161.1134634140736
 31
0.0
  0
LINE
  5
39CB
330
1F
100
AcDbEntity
  8
1
100
AcDbLine
 10
189.162840208885
 20
155.0634632140237
 30
0.0
 11
189.6628401939856
 21
155.0634633891233
 31
0.0
  0
LINE
  5
39CC
330
1F
100
AcDbEntity
  8
1
100
AcDbLine
 10
188.862840252836
 20
155.3634631700743
 30
0.0
 11
189.112840293836
 21
155.1134635947738
 31
0.0
  0
LINE
  5
39CD
330
1F
100
AcDbEntity
  8
1
100
AcDbLine
 10
189.162840208885
 20
154.5634635977739
 30
0.0
 11
189.6628401939856
 21
154.5634633891233
 31
0.0
  0
LINE
  5
39CE
330
1F
100
AcDbEntity
  8
1
100
AcDbLine
 10
188.862840252836
 20
154.263463176024
 30
0.0
 11
189.112840293836
 21
154.5134632170239
 31
0.0
  0
LINE
  5
39CF
330
1F
100
AcDbEntity
  8
1
100
AcDbLine
 10
189.6628401939856
 20
155.0634633891233
 30
0.0
 11
189.6628401939856
 21
154.5634633891233
 31
0.0
  0
LINE
  5
39D0
330
1F
100
AcDbEntity
  8
1
100
AcDbLine
 10
189.162840208885
 20
155.0634632140237
 30
0.0
 11
189.162840208885
 21
154.5634635977739
 31
0.0
  0
LINE
  5
39D1
330
1F
100
AcDbEntity
  8
1
100
AcDbLine
 10
188.862840252836
 20
154.263463176024
 30
0.0
 11
188.862840252836
 21
155.3634631700743
 31
0.0
  0
LINE
  5
39D2
330
1F
100
AcDbEntity
  8
1
100
AcDbLine
 10
189.112840293836
 20
154.5134632170239
 30
0.0
 11
189.112840293836
 21
155.1134635947738
 31
0.0
  0
LINE
  5
39D3
330
1F
100
AcDbEntity
  8
1
100
AcDbLine
 10
188.862840252836
 20
153.3634631700744
 30
0.0
 11
189.112840293836
 21
153.1134631290744
 31
0.0
  0
LINE
  5
39D4
330
1F
100
AcDbEntity
  8
1
100
AcDbLine
 10
189.6628401939856
 20
153.0634631255245
 30
0.0
 11
189.162840208885
 21
153.0634630975757
 31
0.0
  0
LINE
  5
39D5
330
1F
100
AcDbEntity
  8
1
100
AcDbLine
 10
189.6628401939856
 20
152.5634631255243
 30
0.0
 11
189.6628401939856
 21
153.0634631255245
 31
0.0
  0
LINE
  5
39D6
330
1F
100
AcDbEntity
  8
1
100
AcDbLine
 10
189.6628401939856
 20
152.5634631255243
 30
0.0
 11
189.162840208885
 21
152.5634631320745
 31
0.0
  0
LINE
  5
39D7
330
1F
100
AcDbEntity
  8
1
100
AcDbLine
 10
189.162840208885
 20
152.5634631320745
 30
0.0
 11
189.162840208885
 21
153.0634630975757
 31
0.0
  0
LINE
  5
39D8
330
1F
100
AcDbEntity
  8
1
100
AcDbLine
 10
189.112840293836
 20
152.513463100574
 30
0.0
 11
188.862840252836
 21
152.2634631178254
 31
0.0
  0
LINE
  5
39D9
330
1F
100
AcDbEntity
  8
1
100
AcDbLine
 10
188.862840252836
 20
152.2634631178254
 30
0.0
 11
188.862840252836
 21
153.3634631700744
 31
0.0
  0
LINE
  5
39DA
330
1F
100
AcDbEntity
  8
1
100
AcDbLine
 10
189.112840293836
 20
153.1134631290744
 30
0.0
 11
189.112840293836
 21
152.513463100574
 31
0.0
  0
LINE
  5
39DB
330
1F
100
AcDbEntity
  8
1
100
AcDbLine
 10
189.162840208885
 20
150.5634631534749
 30
0.0
 11
189.162840208885
 21
151.063463119025
 31
0.0
  0
LINE
  5
39DC
330
1F
100
AcDbEntity
  8
1
100
AcDbLine
 10
189.6628401939856
 20
151.0634631255244
 30
0.0
 11
189.162840208885
 21
151.063463119025
 31
0.0
  0
LINE
  5
39DD
330
1F
100
AcDbEntity
  8
1
100
AcDbLine
 10
189.6628401939856
 20
150.5634631255244
 30
0.0
 11
189.6628401939856
 21
151.0634631255244
 31
0.0
  0
LINE
  5
39DE
330
1F
100
AcDbEntity
  8
1
100
AcDbLine
 10
189.6628401939856
 20
150.5634631255244
 30
0.0
 11
189.162840208885
 21
150.5634631534749
 31
0.0
  0
LINE
  5
39DF
330
1F
100
AcDbEntity
  8
1
100
AcDbLine
 10
188.862840252836
 20
151.3634631332744
 30
0.0
 11
189.112840293836
 21
151.1134631504748
 31
0.0
  0
LINE
  5
39E0
330
1F
100
AcDbEntity
  8
1
100
AcDbLine
 10
189.112840293836
 20
151.1134631504748
 30
0.0
 11
189.112840293836
 21
150.5134631219744
 31
0.0
  0
LINE
  5
39E1
330
1F
100
AcDbEntity
  8
1
100
AcDbLine
 10
189.6628401939856
 20
149.0634631255244
 30
0.0
 11
189.162840208885
 21
149.0634631404238
 31
0.0
  0
LINE
  5
39E2
330
1F
100
AcDbEntity
  8
1
100
AcDbLine
 10
188.862840252836
 20
149.3634630964745
 30
0.0
 11
189.112840293836
 21
149.1134630554744
 31
0.0
  0
LINE
  5
39E3
330
1F
100
AcDbEntity
  8
1
100
AcDbLine
 10
188.862840252836
 20
150.2634630810234
 30
0.0
 11
188.862840252836
 21
151.3634631332744
 31
0.0
  0
LINE
  5
39E4
330
1F
100
AcDbEntity
  8
1
100
AcDbLine
 10
189.112840293836
 20
150.5134631219744
 30
0.0
 11
188.862840252836
 21
150.2634630810234
 31
0.0
  0
LINE
  5
39E5
330
1F
100
AcDbEntity
  8
1
100
AcDbLine
 10
189.9628402468866
 20
155.3634631700743
 30
0.0
 11
189.7128402059356
 21
155.1134635947738
 31
0.0
  0
LINE
  5
39E6
330
1F
100
AcDbEntity
  8
1
100
AcDbLine
 10
189.7128402059356
 20
154.5134632170239
 30
0.0
 11
189.9628402468866
 21
154.263463176024
 31
0.0
  0
LINE
  5
39E7
330
1F
100
AcDbEntity
  8
1
100
AcDbLine
 10
189.9628402468866
 20
154.263463176024
 30
0.0
 11
189.9628402468866
 21
155.3634631700743
 31
0.0
  0
LINE
  5
39E8
330
1F
100
AcDbEntity
  8
1
100
AcDbLine
 10
189.7128402059356
 20
155.1134635947738
 30
0.0
 11
189.7128402059356
 21
154.5134632170239
 31
0.0
  0
LINE
  5
39E9
330
1F
100
AcDbEntity
  8
1
100
AcDbLine
 10
189.9628402468866
 20
153.3634631700744
 30
0.0
 11
189.7128402059356
 21
153.1134631290744
 31
0.0
  0
LINE
  5
39EA
330
1F
100
AcDbEntity
  8
1
100
AcDbLine
 10
189.7128402059356
 20
152.513463100574
 30
0.0
 11
189.9628402468866
 21
152.2634631178254
 31
0.0
  0
LINE
  5
39EB
330
1F
100
AcDbEntity
  8
1
100
AcDbLine
 10
189.9628402468866
 20
153.3634631700744
 30
0.0
 11
189.9628402468866
 21
152.2634631178254
 31
0.0
  0
LINE
  5
39EC
330
1F
100
AcDbEntity
  8
1
100
AcDbLine
 10
189.7128402059356
 20
153.1134631290744
 30
0.0
 11
189.7128402059356
 21
152.513463100574
 31
0.0
  0
LINE
  5
39ED
330
1F
100
AcDbEntity
  8
1
100
AcDbLine
 10
189.9628402468866
 20
151.3634631332744
 30
0.0
 11
189.7128402059356
 21
151.1134631504748
 31
0.0
  0
LINE
  5
39EE
330
1F
100
AcDbEntity
  8
1
100
AcDbLine
 10
189.7128402059356
 20
151.1134631504748
 30
0.0
 11
189.7128402059356
 21
150.5134631219744
 31
0.0
  0
LINE
  5
39EF
330
1F
100
AcDbEntity
  8
1
100
AcDbLine
 10
189.9628402468866
 20
149.3634630964745
 30
0.0
 11
189.7128402059356
 21
149.1134630554744
 31
0.0
  0
LINE
  5
39F0
330
1F
100
AcDbEntity
  8
1
100
AcDbLine
 10
189.9628402468866
 20
151.3634631332744
 30
0.0
 11
189.9628402468866
 21
150.2634630810234
 31
0.0
  0
LINE
  5
39F1
330
1F
100
AcDbEntity
  8
1
100
AcDbLine
 10
189.7128402059356
 20
150.5134631219744
 30
0.0
 11
189.9628402468866
 21
150.2634630810234
 31
0.0
  0
LINE
  5
39F2
330
1F
100
AcDbEntity
  8
1
100
AcDbLine
 10
189.6628401939856
 20
155.0634633891233
 30
0.0
 11
189.7128401939868
 21
155.0634633891233
 31
0.0
  0
LINE
  5
39F3
330
1F
100
AcDbEntity
  8
1
100
AcDbLine
 10
188.862840252836
 20
155.3634631700743
 30
0.0
 11
189.9628402468866
 21
155.3634631700743
 31
0.0
  0
LINE
  5
39F4
330
1F
100
AcDbEntity
  8
1
100
AcDbLine
 10
189.112840293836
 20
155.1134635947738
 30
0.0
 11
189.7128402059356
 21
155.1134635947738
 31
0.0
  0
LINE
  5
39F5
330
1F
100
AcDbEntity
  8
1
100
AcDbLine
 10
189.6628401939856
 20
154.5634633891233
 30
0.0
 11
189.7128401939868
 21
154.5634633891233
 31
0.0
  0
LINE
  5
39F6
330
1F
100
AcDbEntity
  8
1
100
AcDbLine
 10
189.9628402468866
 20
154.263463176024
 30
0.0
 11
188.862840252836
 21
154.263463176024
 31
0.0
  0
LINE
  5
39F7
330
1F
100
AcDbEntity
  8
1
100
AcDbLine
 10
189.112840293836
 20
154.5134632170239
 30
0.0
 11
189.7128402059356
 21
154.5134632170239
 31
0.0
  0
LINE
  5
39F8
330
1F
100
AcDbEntity
  8
1
100
AcDbLine
 10
188.862840252836
 20
153.3634631700744
 30
0.0
 11
189.9628402468866
 21
153.3634631700744
 31
0.0
  0
LINE
  5
39F9
330
1F
100
AcDbEntity
  8
1
100
AcDbLine
 10
189.112840293836
 20
153.1134631290744
 30
0.0
 11
189.7128402059356
 21
153.1134631290744
 31
0.0
  0
LINE
  5
39FA
330
1F
100
AcDbEntity
  8
1
100
AcDbLine
 10
189.6628401939856
 20
152.5634631255243
 30
0.0
 11
189.7128401939868
 21
152.5634631255243
 31
0.0
  0
LINE
  5
39FB
330
1F
100
AcDbEntity
  8
1
100
AcDbLine
 10
189.7128401939868
 20
153.0634631255245
 30
0.0
 11
189.6628401939856
 21
153.0634631255245
 31
0.0
  0
LINE
  5
39FC
330
1F
100
AcDbEntity
  8
1
100
AcDbLine
 10
189.9628402468866
 20
152.2634631178254
 30
0.0
 11
188.862840252836
 21
152.2634631178254
 31
0.0
  0
LINE
  5
39FD
330
1F
100
AcDbEntity
  8
1
100
AcDbLine
 10
189.112840293836
 20
152.513463100574
 30
0.0
 11
189.7128402059356
 21
152.513463100574
 31
0.0
  0
LINE
  5
39FE
330
1F
100
AcDbEntity
  8
1
100
AcDbLine
 10
189.7128401939868
 20
151.0634631255244
 30
0.0
 11
189.6628401939856
 21
151.0634631255244
 31
0.0
  0
LINE
  5
39FF
330
1F
100
AcDbEntity
  8
1
100
AcDbLine
 10
189.6628401939856
 20
150.5634631255244
 30
0.0
 11
189.7128401939868
 21
150.5634631255244
 31
0.0
  0
LINE
  5
3A00
330
1F
100
AcDbEntity
  8
1
100
AcDbLine
 10
188.862840252836
 20
151.3634631332744
 30
0.0
 11
189.9628402468866
 21
151.3634631332744
 31
0.0
  0
LINE
  5
3A01
330
1F
100
AcDbEntity
  8
1
100
AcDbLine
 10
189.112840293836
 20
150.5134631219744
 30
0.0
 11
189.7128402059356
 21
150.5134631219744
 31
0.0
  0
LINE
  5
3A02
330
1F
100
AcDbEntity
  8
1
100
AcDbLine
 10
189.112840293836
 20
151.1134631504748
 30
0.0
 11
189.7128402059356
 21
151.1134631504748
 31
0.0
  0
LINE
  5
3A03
330
1F
100
AcDbEntity
  8
1
100
AcDbLine
 10
189.7128401939868
 20
149.0634631255244
 30
0.0
 11
189.6628401939856
 21
149.0634631255244
 31
0.0
  0
LINE
  5
3A04
330
1F
100
AcDbEntity
  8
1
100
AcDbLine
 10
189.9628402468866
 20
150.2634630810234
 30
0.0
 11
188.862840252836
 21
150.2634630810234
 31
0.0
  0
LINE
  5
3A05
330
1F
100
AcDbEntity
  8
1
100
AcDbLine
 10
188.862840252836
 20
149.3634630964745
 30
0.0
 11
189.9628402468866
 21
149.3634630964745
 31
0.0
  0
LINE
  5
3A06
330
1F
100
AcDbEntity
  8
1
100
AcDbLine
 10
189.112840293836
 20
149.1134630554744
 30
0.0
 11
189.7128402059356
 21
149.1134630554744
 31
0.0
  0
LINE
  5
3A07
330
1F
100
AcDbEntity
  8
1
100
AcDbLine
 10
190.862840252836
 20
154.263463176024
 30
0.0
 11
190.862840252836
 21
155.3634631700743
 31
0.0
  0
LINE
  5
3A08
330
1F
100
AcDbEntity
  8
1
100
AcDbLine
 10
190.862840252836
 20
152.2634631178254
 30
0.0
 11
190.862840252836
 21
153.3634631700744
 31
0.0
  0
LINE
  5
3A09
330
1F
100
AcDbEntity
  8
1
100
AcDbLine
 10
190.862840252836
 20
150.2634630810234
 30
0.0
 11
190.862840252836
 21
151.3634631332744
 31
0.0
  0
LINE
  5
3A0A
330
1F
100
AcDbEntity
  8
1
100
AcDbLine
 10
189.112840293836
 20
156.513463544873
 30
0.0
 11
189.112840293836
 21
157.1134634569236
 31
0.0
  0
LINE
  5
3A0B
330
1F
100
AcDbEntity
  8
1
100
AcDbLine
 10
188.862840252836
 20
156.2634635038731
 30
0.0
 11
188.862840252836
 21
157.3634634979235
 31
0.0
  0
LINE
  5
3A0C
330
1F
100
AcDbEntity
  8
1
100
AcDbLine
 10
188.862840252836
 20
156.2634635038731
 30
0.0
 11
189.112840293836
 21
156.513463544873
 31
0.0
  0
LINE
  5
3A0D
330
1F
100
AcDbEntity
  8
1
100
AcDbLine
 10
189.6628401939856
 20
160.5634633891233
 30
0.0
 11
189.162840208885
 21
160.5634634170739
 31
0.0
  0
LINE
  5
3A0E
330
1F
100
AcDbEntity
  8
1
100
AcDbLine
 10
189.6628401939856
 20
159.0634633891233
 30
0.0
 11
189.162840208885
 21
159.0634634040226
 31
0.0
  0
LINE
  5
3A0F
330
1F
100
AcDbEntity
  8
1
100
AcDbLine
 10
188.862840252836
 20
159.3634633600733
 30
0.0
 11
189.112840293836
 21
159.1134633190733
 31
0.0
  0
LINE
  5
3A10
330
1F
100
AcDbEntity
  8
1
100
AcDbLine
 10
189.112840293836
 20
160.5134633855733
 30
0.0
 11
188.862840252836
 21
160.2634633446224
 31
0.0
  0
LINE
  5
3A11
330
1F
100
AcDbEntity
  8
1
100
AcDbLine
 10
189.9628402468866
 20
159.3634633600733
 30
0.0
 11
189.9628402468866
 21
158.2634633660247
 31
0.0
  0
LINE
  5
3A12
330
1F
100
AcDbEntity
  8
1
100
AcDbLine
 10
189.7128402059356
 20
159.1134633190733
 30
0.0
 11
189.7128402059356
 21
158.5134634070247
 31
0.0
  0
LINE
  5
3A13
330
1F
100
AcDbEntity
  8
1
100
AcDbLine
 10
189.7128402059356
 20
158.5134634070247
 30
0.0
 11
189.9628402468866
 21
158.2634633660247
 31
0.0
  0
LINE
  5
3A14
330
1F
100
AcDbEntity
  8
1
100
AcDbLine
 10
189.9628402468866
 20
157.3634634979235
 30
0.0
 11
189.7128402059356
 21
157.1134634569236
 31
0.0
  0
LINE
  5
3A15
330
1F
100
AcDbEntity
  8
1
100
AcDbLine
 10
189.7128402059356
 20
157.1134634569236
 30
0.0
 11
189.7128402059356
 21
156.513463544873
 31
0.0
  0
LINE
  5
3A16
330
1F
100
AcDbEntity
  8
1
100
AcDbLine
 10
189.9628402468866
 20
157.3634634979235
 30
0.0
 11
189.9628402468866
 21
156.2634635038731
 31
0.0
  0
LINE
  5
3A17
330
1F
100
AcDbEntity
  8
1
100
AcDbLine
 10
189.7128402059356
 20
156.513463544873
 30
0.0
 11
189.9628402468866
 21
156.2634635038731
 31
0.0
  0
LINE
  5
3A18
330
1F
100
AcDbEntity
  8
1
100
AcDbLine
 10
189.9628402468866
 20
159.3634633600733
 30
0.0
 11
189.7128402059356
 21
159.1134633190733
 31
0.0
  0
LINE
  5
3A19
330
1F
100
AcDbEntity
  8
1
100
AcDbLine
 10
189.7128402059356
 20
160.5134633855733
 30
0.0
 11
189.9628402468866
 21
160.2634633446224
 31
0.0
  0
LINE
  5
3A1A
330
1F
100
AcDbEntity
  8
1
100
AcDbLine
 10
189.7128401939868
 20
161.0634633891233
 30
0.0
 11
189.6628401939856
 21
161.0634633891233
 31
0.0
  0
LINE
  5
3A1B
330
1F
100
AcDbEntity
  8
1
100
AcDbLine
 10
189.112840293836
 20
161.1134634140736
 30
0.0
 11
189.7128402059356
 21
161.1134634140736
 31
0.0
  0
LINE
  5
3A1C
330
1F
100
AcDbEntity
  8
1
100
AcDbLine
 10
189.6628401939856
 20
161.0634633891233
 30
0.0
 11
189.162840208885
 21
161.063463382624
 31
0.0
  0
LINE
  5
3A1D
330
1F
100
AcDbEntity
  8
1
100
AcDbLine
 10
189.162840208885
 20
160.5634634170739
 30
0.0
 11
189.162840208885
 21
161.063463382624
 31
0.0
  0
LINE
  5
3A1E
330
1F
100
AcDbEntity
  8
1
100
AcDbLine
 10
189.6628401939856
 20
160.5634633891233
 30
0.0
 11
189.6628401939856
 21
161.0634633891233
 31
0.0
  0
LINE
  5
3A1F
330
1F
100
AcDbEntity
  8
1
100
AcDbLine
 10
189.112840293836
 20
161.1134634140736
 30
0.0
 11
189.112840293836
 21
160.5134633855733
 31
0.0
  0
LINE
  5
3A20
330
1F
100
AcDbEntity
  8
1
100
AcDbLine
 10
189.7128402059356
 20
161.1134634140736
 30
0.0
 11
189.7128402059356
 21
160.5134633855733
 31
0.0
  0
LINE
  5
3A21
330
1F
100
AcDbEntity
  8
1
100
AcDbLine
 10
189.6628401939856
 20
158.5634633891233
 30
0.0
 11
189.7128401939868
 21
158.5634633891233
 31
0.0
  0
LINE
  5
3A22
330
1F
100
AcDbEntity
  8
1
100
AcDbLine
 10
189.9628402468866
 20
158.2634633660247
 30
0.0
 11
188.862840252836
 21
158.2634633660247
 31
0.0
  0
LINE
  5
3A23
330
1F
100
AcDbEntity
  8
1
100
AcDbLine
 10
189.112840293836
 20
158.5134634070247
 30
0.0
 11
189.7128402059356
 21
158.5134634070247
 31
0.0
  0
LINE
  5
3A24
330
1F
100
AcDbEntity
  8
1
100
AcDbLine
 10
189.6628401939856
 20
156.5634633891233
 30
0.0
 11
189.7128401939868
 21
156.5634633891233
 31
0.0
  0
LINE
  5
3A25
330
1F
100
AcDbEntity
  8
1
100
AcDbLine
 10
189.6628401939856
 20
157.0634633891233
 30
0.0
 11
189.7128401939868
 21
157.0634633891233
 31
0.0
  0
LINE
  5
3A26
330
1F
100
AcDbEntity
  8
1
100
AcDbLine
 10
188.862840252836
 20
157.3634634979235
 30
0.0
 11
189.9628402468866
 21
157.3634634979235
 31
0.0
  0
LINE
  5
3A27
330
1F
100
AcDbEntity
  8
1
100
AcDbLine
 10
189.112840293836
 20
156.513463544873
 30
0.0
 11
189.7128402059356
 21
156.513463544873
 31
0.0
  0
LINE
  5
3A28
330
1F
100
AcDbEntity
  8
1
100
AcDbLine
 10
189.112840293836
 20
157.1134634569236
 30
0.0
 11
189.7128402059356
 21
157.1134634569236
 31
0.0
  0
LINE
  5
3A29
330
1F
100
AcDbEntity
  8
1
100
AcDbLine
 10
189.9628402468866
 20
156.2634635038731
 30
0.0
 11
188.862840252836
 21
156.2634635038731
 31
0.0
  0
LINE
  5
3A2A
330
1F
100
AcDbEntity
  8
1
100
AcDbLine
 10
189.6628401939856
 20
160.5634633891233
 30
0.0
 11
189.7128401939868
 21
160.5634633891233
 31
0.0
  0
LINE
  5
3A2B
330
1F
100
AcDbEntity
  8
1
100
AcDbLine
 10
189.112840293836
 20
160.5134633855733
 30
0.0
 11
189.7128402059356
 21
160.5134633855733
 31
0.0
  0
LINE
  5
3A2C
330
1F
100
AcDbEntity
  8
1
100
AcDbLine
 10
189.7128401939868
 20
159.0634633891233
 30
0.0
 11
189.6628401939856
 21
159.0634633891233
 31
0.0
  0
LINE
  5
3A2D
330
1F
100
AcDbEntity
  8
1
100
AcDbLine
 10
189.9628402468866
 20
160.2634633446224
 30
0.0
 11
188.862840252836
 21
160.2634633446224
 31
0.0
  0
LINE
  5
3A2E
330
1F
100
AcDbEntity
  8
1
100
AcDbLine
 10
188.862840252836
 20
159.3634633600733
 30
0.0
 11
189.9628402468866
 21
159.3634633600733
 31
0.0
  0
LINE
  5
3A2F
330
1F
100
AcDbEntity
  8
1
100
AcDbLine
 10
189.112840293836
 20
159.1134633190733
 30
0.0
 11
189.7128402059356
 21
159.1134633190733
 31
0.0
  0
LINE
  5
3A30
330
1F
100
AcDbEntity
  8
1
100
AcDbLine
 10
189.162840208885
 20
158.5634633220734
 30
0.0
 11
189.162840208885
 21
159.0634634040226
 31
0.0
  0
LINE
  5
3A31
330
1F
100
AcDbEntity
  8
1
100
AcDbLine
 10
189.6628401939856
 20
158.5634633891233
 30
0.0
 11
189.6628401939856
 21
159.0634633891233
 31
0.0
  0
LINE
  5
3A32
330
1F
100
AcDbEntity
  8
1
100
AcDbLine
 10
188.862840252836
 20
158.2634633660247
 30
0.0
 11
188.862840252836
 21
159.3634633600733
 31
0.0
  0
LINE
  5
3A33
330
1F
100
AcDbEntity
  8
1
100
AcDbLine
 10
189.112840293836
 20
159.1134633190733
 30
0.0
 11
189.112840293836
 21
158.5134634070247
 31
0.0
  0
LINE
  5
3A34
330
1F
100
AcDbEntity
  8
1
100
AcDbLine
 10
189.6628401939856
 20
158.5634633891233
 30
0.0
 11
189.162840208885
 21
158.5634633220734
 31
0.0
  0
LINE
  5
3A35
330
1F
100
AcDbEntity
  8
1
100
AcDbLine
 10
189.112840293836
 20
158.5134634070247
 30
0.0
 11
188.862840252836
 21
158.2634633660247
 31
0.0
  0
LINE
  5
3A36
330
1F
100
AcDbEntity
  8
1
100
AcDbLine
 10
189.6628401939856
 20
157.0634633891233
 30
0.0
 11
189.6628401939856
 21
156.5634633891233
 31
0.0
  0
LINE
  5
3A37
330
1F
100
AcDbEntity
  8
1
100
AcDbLine
 10
189.162840208885
 20
156.5634634599238
 30
0.0
 11
189.6628401939856
 21
156.5634633891233
 31
0.0
  0
LINE
  5
3A38
330
1F
100
AcDbEntity
  8
1
100
AcDbLine
 10
189.162840208885
 20
157.0634635418729
 30
0.0
 11
189.6628401939856
 21
157.0634633891233
 31
0.0
  0
LINE
  5
3A39
330
1F
100
AcDbEntity
  8
1
100
AcDbLine
 10
189.162840208885
 20
157.0634635418729
 30
0.0
 11
189.162840208885
 21
156.5634634599238
 31
0.0
  0
LINE
  5
3A3A
330
1F
100
AcDbEntity
  8
1
100
AcDbLine
 10
188.862840252836
 20
157.3634634979235
 30
0.0
 11
189.112840293836
 21
157.1134634569236
 31
0.0
  0
LINE
  5
3A3B
330
1F
100
AcDbEntity
  8
1
100
AcDbLine
 10
190.862840252836
 20
158.2634633660247
 30
0.0
 11
190.862840252836
 21
159.3634633600733
 31
0.0
  0
LINE
  5
3A3C
330
1F
100
AcDbEntity
  8
1
100
AcDbLine
 10
190.862840252836
 20
156.2634635038731
 30
0.0
 11
190.862840252836
 21
157.3634634979235
 31
0.0
  0
LINE
  5
3A3D
330
1F
100
AcDbEntity
  8
1
100
AcDbLine
 10
190.862840252836
 20
155.3634631700743
 30
0.0
 11
191.112840293836
 21
155.1134635947738
 31
0.0
  0
LINE
  5
3A3E
330
1F
100
AcDbEntity
  8
1
100
AcDbLine
 10
191.112840293836
 20
154.5134632170239
 30
0.0
 11
190.862840252836
 21
154.263463176024
 31
0.0
  0
LINE
  5
3A3F
330
1F
100
AcDbEntity
  8
1
100
AcDbLine
 10
190.862840252836
 20
155.3634631700743
 30
0.0
 11
191.9628402468866
 21
155.3634631700743
 31
0.0
  0
LINE
  5
3A40
330
1F
100
AcDbEntity
  8
1
100
AcDbLine
 10
191.9628402468866
 20
154.263463176024
 30
0.0
 11
190.862840252836
 21
154.263463176024
 31
0.0
  0
LINE
  5
3A41
330
1F
100
AcDbEntity
  8
1
100
AcDbLine
 10
190.862840252836
 20
153.3634631700744
 30
0.0
 11
191.112840293836
 21
153.1134631290744
 31
0.0
  0
LINE
  5
3A42
330
1F
100
AcDbEntity
  8
1
100
AcDbLine
 10
190.862840252836
 20
152.2634631178254
 30
0.0
 11
191.112840293836
 21
152.513463100574
 31
0.0
  0
LINE
  5
3A43
330
1F
100
AcDbEntity
  8
1
100
AcDbLine
 10
190.862840252836
 20
151.3634631332744
 30
0.0
 11
191.112840293836
 21
151.1134631504748
 31
0.0
  0
LINE
  5
3A44
330
1F
100
AcDbEntity
  8
1
100
AcDbLine
 10
190.862840252836
 20
149.3634630964745
 30
0.0
 11
191.112840293836
 21
149.1134630554744
 31
0.0
  0
LINE
  5
3A45
330
1F
100
AcDbEntity
  8
1
100
AcDbLine
 10
190.862840252836
 20
150.2634630810234
 30
0.0
 11
191.112840293836
 21
150.5134631219744
 31
0.0
  0
LINE
  5
3A46
330
1F
100
AcDbEntity
  8
1
100
AcDbLine
 10
191.9628402468866
 20
153.3634631700744
 30
0.0
 11
190.862840252836
 21
153.3634631700744
 31
0.0
  0
LINE
  5
3A47
330
1F
100
AcDbEntity
  8
1
100
AcDbLine
 10
191.9628402468866
 20
152.2634631178254
 30
0.0
 11
190.862840252836
 21
152.2634631178254
 31
0.0
  0
LINE
  5
3A48
330
1F
100
AcDbEntity
  8
1
100
AcDbLine
 10
191.9628402468866
 20
151.3634631332744
 30
0.0
 11
190.862840252836
 21
151.3634631332744
 31
0.0
  0
LINE
  5
3A49
330
1F
100
AcDbEntity
  8
1
100
AcDbLine
 10
191.9628402468866
 20
150.2634630810234
 30
0.0
 11
190.862840252836
 21
150.2634630810234
 31
0.0
  0
LINE
  5
3A4A
330
1F
100
AcDbEntity
  8
1
100
AcDbLine
 10
191.9628402468866
 20
149.3634630964745
 30
0.0
 11
190.862840252836
 21
149.3634630964745
 31
0.0
  0
LINE
  5
3A4B
330
1F
100
AcDbEntity
  8
1
100
AcDbLine
 10
190.862840252836
 20
158.2634633660247
 30
0.0
 11
191.112840293836
 21
158.5134634070247
 31
0.0
  0
LINE
  5
3A4C
330
1F
100
AcDbEntity
  8
1
100
AcDbLine
 10
190.862840252836
 20
157.3634634979235
 30
0.0
 11
191.112840293836
 21
157.1134634569236
 31
0.0
  0
LINE
  5
3A4D
330
1F
100
AcDbEntity
  8
1
100
AcDbLine
 10
190.862840252836
 20
156.2634635038731
 30
0.0
 11
191.112840293836
 21
156.513463544873
 31
0.0
  0
LINE
  5
3A4E
330
1F
100
AcDbEntity
  8
1
100
AcDbLine
 10
190.862840252836
 20
159.3634633600733
 30
0.0
 11
191.112840293836
 21
159.1134633190733
 31
0.0
  0
LINE
  5
3A4F
330
1F
100
AcDbEntity
  8
1
100
AcDbLine
 10
190.862840252836
 20
160.2634633446224
 30
0.0
 11
191.112840293836
 21
160.5134633855733
 31
0.0
  0
LINE
  5
3A50
330
1F
100
AcDbEntity
  8
1
100
AcDbLine
 10
191.9628402468866
 20
158.2634633660247
 30
0.0
 11
190.862840252836
 21
158.2634633660247
 31
0.0
  0
LINE
  5
3A51
330
1F
100
AcDbEntity
  8
1
100
AcDbLine
 10
190.862840252836
 20
157.3634634979235
 30
0.0
 11
191.9628402468866
 21
157.3634634979235
 31
0.0
  0
LINE
  5
3A52
330
1F
100
AcDbEntity
  8
1
100
AcDbLine
 10
191.9628402468866
 20
156.2634635038731
 30
0.0
 11
190.862840252836
 21
156.2634635038731
 31
0.0
  0
LINE
  5
3A53
330
1F
100
AcDbEntity
  8
1
100
AcDbLine
 10
191.9628402468866
 20
160.2634633446224
 30
0.0
 11
190.862840252836
 21
160.2634633446224
 31
0.0
  0
LINE
  5
3A54
330
1F
100
AcDbEntity
  8
1
100
AcDbLine
 10
191.9628402468866
 20
159.3634633600733
 30
0.0
 11
190.862840252836
 21
159.3634633600733
 31
0.0
  0
LINE
  5
3A55
330
1F
100
AcDbEntity
  8
1
100
AcDbLine
 10
188.862840252836
 20
161.3634633968733
 30
0.0
 11
189.112840293836
 21
161.1134634140736
 31
0.0
  0
LINE
  5
3A56
330
1F
100
AcDbEntity
  8
1
100
AcDbLine
 10
189.9628402468866
 20
161.3634633968733
 30
0.0
 11
189.7128402059356
 21
161.1134634140736
 31
0.0
  0
LINE
  5
3A57
330
1F
100
AcDbEntity
  8
1
100
AcDbLine
 10
188.862840252836
 20
160.2634633446224
 30
0.0
 11
188.862840252836
 21
161.3634633968733
 31
0.0
  0
LINE
  5
3A58
330
1F
100
AcDbEntity
  8
1
100
AcDbLine
 10
189.9628402468866
 20
161.3634633968733
 30
0.0
 11
189.9628402468866
 21
160.2634633446224
 31
0.0
  0
LINE
  5
3A59
330
1F
100
AcDbEntity
  8
1
100
AcDbLine
 10
191.7128402059375
 20
161.1134634140736
 30
0.0
 11
191.9628402468866
 21
161.3634633968733
 31
0.0
  0
LINE
  5
3A5A
330
1F
100
AcDbEntity
  8
1
100
AcDbLine
 10
191.9628402468866
 20
161.3634633968733
 30
0.0
 11
191.9628402468866
 21
160.2634633446224
 31
0.0
  0
LINE
  5
3A5B
330
1F
100
AcDbEntity
  8
1
100
AcDbLine
 10
190.862840252836
 20
161.3634633968733
 30
0.0
 11
191.112840293836
 21
161.1134634140736
 31
0.0
  0
LINE
  5
3A5C
330
1F
100
AcDbEntity
  8
1
100
AcDbLine
 10
190.862840252836
 20
160.2634633446224
 30
0.0
 11
190.862840252836
 21
161.3634633968733
 31
0.0
  0
LINE
  5
3A5D
330
1F
100
AcDbEntity
  8
1
100
AcDbLine
 10
186.6628404465633
 20
169.9134640623753
 30
0.0
 11
185.2128404465624
 21
169.9134640623753
 31
0.0
  0
LINE
  5
3A5E
330
1F
100
AcDbEntity
  8
1
100
AcDbLine
 10
183.9128402275133
 20
169.3134637762752
 30
0.0
 11
186.6628404465633
 21
169.3134640623765
 31
0.0
  0
LINE
  5
3A5F
330
1F
100
AcDbEntity
  8
1
100
AcDbLine
 10
186.4628404465624
 20
170.113464062376
 30
0.0
 11
186.6628404465633
 21
169.9134640623753
 31
0.0
  0
LINE
  5
3A60
330
1F
100
AcDbEntity
  8
1
100
AcDbLine
 10
184.9128402498594
 20
166.1134635898481
 30
0.0
 11
184.9128402498594
 21
168.8134637762734
 31
0.0
  0
ARC
  5
3A61
330
1F
100
AcDbEntity
  8
1
100
AcDbCircle
 10
186.2128404689086
 20
167.7134634901733
 30
0.0
 40
0.3000000000000114
100
AcDbArc
 50
90.0
 51
180.0
  0
LINE
  5
3A62
330
1F
100
AcDbEntity
  8
1
100
AcDbLine
 10
186.2128404689086
 20
168.213463490173
 30
0.0
 11
186.2128404689086
 21
168.0134634901725
 31
0.0
  0
ARC
  5
3A63
330
1F
100
AcDbEntity
  8
1
100
AcDbCircle
 10
186.2128404689086
 20
167.7134634901733
 30
0.0
 40
0.4999999999999716
100
AcDbArc
 50
90.0
 51
180.0
  0
LINE
  5
3A64
330
1F
100
AcDbEntity
  8
1
100
AcDbLine
 10
184.9128402498594
 20
166.1134635898481
 30
0.0
 11
185.7128402498588
 21
166.1134635898481
 31
0.0
  0
LINE
  5
3A65
330
1F
100
AcDbEntity
  8
1
100
AcDbLine
 10
185.9128404689094
 20
167.3134634901718
 30
0.0
 11
185.9128404689094
 21
167.7134634901733
 31
0.0
  0
LINE
  5
3A66
330
1F
100
AcDbEntity
  8
1
100
AcDbLine
 10
186.4128400971808
 20
167.01346340042
 30
0.0
 11
186.2128404689086
 21
167.0134634901725
 31
0.0
  0
LINE
  5
3A67
330
1F
100
AcDbEntity
  8
1
100
AcDbLine
 10
186.2128404689086
 20
166.8134634901718
 30
0.0
 11
186.2128404689086
 21
167.0134634901725
 31
0.0
  0
LINE
  5
3A68
330
1F
100
AcDbEntity
  8
1
100
AcDbLine
 10
186.412840102383
 20
166.8134634367681
 30
0.0
 11
186.2128404689086
 21
166.8134634901718
 31
0.0
  0
ARC
  5
3A69
330
1F
100
AcDbEntity
  8
1
100
AcDbCircle
 10
186.2128404689086
 20
167.3134634901718
 30
0.0
 40
0.3000000000000114
100
AcDbArc
 50
180.0
 51
270.0
  0
LINE
  5
3A6A
330
1F
100
AcDbEntity
  8
1
100
AcDbLine
 10
185.7128404689088
 20
167.3134634901718
 30
0.0
 11
185.7128404689088
 21
167.7134634901733
 31
0.0
  0
LINE
  5
3A6B
330
1F
100
AcDbEntity
  8
1
100
AcDbLine
 10
185.7128404689088
 20
167.7134634901733
 30
0.0
 11
185.9128404689094
 21
167.7134634901733
 31
0.0
  0
LINE
  5
3A6C
330
1F
100
AcDbEntity
  8
1
100
AcDbLine
 10
185.9128404689094
 20
167.3134634901718
 30
0.0
 11
185.7128404689088
 21
167.3134634901718
 31
0.0
  0
ARC
  5
3A6D
330
1F
100
AcDbEntity
  8
1
100
AcDbCircle
 10
186.2128404689086
 20
167.3134634901718
 30
0.0
 40
0.5
100
AcDbArc
 50
180.0
 51
270.0
  0
LINE
  5
3A6E
330
1F
100
AcDbEntity
  8
1
100
AcDbLine
 10
185.462840388462
 20
172.8134641171538
 30
0.0
 11
184.862840446562
 21
172.8134640363033
 31
0.0
  0
LINE
  5
3A6F
330
1F
100
AcDbEntity
  8
1
100
AcDbLine
 10
184.1128403534625
 20
172.413464098151
 30
0.0
 11
185.462840388462
 21
172.413464098151
 31
0.0
  0
LINE
  5
3A70
330
1F
100
AcDbEntity
  8
1
100
AcDbLine
 10
186.4628404465624
 20
170.113464062376
 30
0.0
 11
185.2128404465624
 21
170.113464062376
 31
0.0
  0
LINE
  5
3A71
330
1F
100
AcDbEntity
  8
1
100
AcDbLine
 10
185.8628406403118
 20
173.2134641361526
 30
0.0
 11
184.862840446562
 21
173.213464036301
 31
0.0
  0
LINE
  5
3A72
330
1F
100
AcDbEntity
  8
1
100
AcDbLine
 10
183.7128405672634
 20
172.0134638463034
 30
0.0
 11
185.8628406403118
 21
172.0134638463034
 31
0.0
  0
LINE
  5
3A73
330
1F
100
AcDbEntity
  8
1
100
AcDbLine
 10
185.2128404465624
 20
171.3134640623765
 30
0.0
 11
185.8628406403118
 21
171.3134641041261
 31
0.0
  0
LINE
  5
3A74
330
1F
100
AcDbEntity
  8
1
100
AcDbLine
 10
185.2128404465624
 20
171.113464062376
 30
0.0
 11
186.0628403005615
 21
171.1134644438761
 31
0.0
  0
LINE
  5
3A75
330
1F
100
AcDbEntity
  8
1
100
AcDbLine
 10
183.9128402275133
 20
172.0134638463034
 30
0.0
 11
183.9128402275133
 21
169.3134637762752
 31
0.0
  0
ARC
  5
3A76
330
1F
100
AcDbEntity
  8
1
100
AcDbCircle
 10
185.2128404465624
 20
170.4134640623753
 30
0.0
 40
0.4999999999999716
100
AcDbArc
 50
180.0
 51
270.0
  0
LINE
  5
3A77
330
1F
100
AcDbEntity
  8
1
100
AcDbLine
 10
185.2128404465624
 20
169.9134640623753
 30
0.0
 11
185.2128404465624
 21
170.113464062376
 31
0.0
  0
ARC
  5
3A78
330
1F
100
AcDbEntity
  8
1
100
AcDbCircle
 10
185.2128404465624
 20
170.4134640623753
 30
0.0
 40
0.3000000000000114
100
AcDbArc
 50
180.0
 51
270.0
  0
LINE
  5
3A79
330
1F
100
AcDbEntity
  8
1
100
AcDbLine
 10
184.7128404465625
 20
170.4134640623753
 30
0.0
 11
184.7128404465625
 21
170.8134640623768
 31
0.0
  0
LINE
  5
3A7A
330
1F
100
AcDbEntity
  8
1
100
AcDbLine
 10
184.9128404465633
 20
170.4134640623753
 30
0.0
 11
184.9128404465633
 21
170.8134640623768
 31
0.0
  0
LINE
  5
3A7B
330
1F
100
AcDbEntity
  8
1
100
AcDbLine
 10
183.7128405672634
 20
172.0134638463034
 30
0.0
 11
184.1128403534625
 21
172.413464098151
 31
0.0
  0
ARC
  5
3A7C
330
1F
100
AcDbEntity
  8
1
100
AcDbCircle
 10
184.862840446562
 20
173.4134640363019
 30
0.0
 40
0.2000000000000028
100
AcDbArc
 50
180.0
 51
270.0
  0
LINE
  5
3A7D
330
1F
100
AcDbEntity
  8
1
100
AcDbLine
 10
184.862840446562
 20
172.8134640363033
 30
0.0
 11
184.862840446562
 21
173.213464036301
 31
0.0
  0
LINE
  5
3A7E
330
1F
100
AcDbEntity
  8
1
100
AcDbLine
 10
184.6628404465633
 20
173.4134640363019
 30
0.0
 11
184.2628404465618
 21
173.4134640363019
 31
0.0
  0
ARC
  5
3A7F
330
1F
100
AcDbEntity
  8
1
100
AcDbCircle
 10
184.862840446562
 20
173.4134640363019
 30
0.0
 40
0.5999999999999516
100
AcDbArc
 50
180.0
 51
270.0
  0
ARC
  5
3A80
330
1F
100
AcDbEntity
  8
1
100
AcDbCircle
 10
185.2128404465624
 20
170.8134640623768
 30
0.0
 40
0.4999999999999716
100
AcDbArc
 50
90.0
 51
180.0
  0
LINE
  5
3A81
330
1F
100
AcDbEntity
  8
1
100
AcDbLine
 10
184.7128404465625
 20
170.8134640623768
 30
0.0
 11
184.9128404465633
 21
170.8134640623768
 31
0.0
  0
LINE
  5
3A82
330
1F
100
AcDbEntity
  8
1
100
AcDbLine
 10
185.2128404465624
 20
171.3134640623765
 30
0.0
 11
185.2128404465624
 21
171.113464062376
 31
0.0
  0
ARC
  5
3A83
330
1F
100
AcDbEntity
  8
1
100
AcDbCircle
 10
185.2128404465624
 20
170.8134640623768
 30
0.0
 40
0.3000000000000682
100
AcDbArc
 50
90.0
 51
180.0
  0
LINE
  5
3A84
330
1F
100
AcDbEntity
  8
1
100
AcDbLine
 10
184.9128404465633
 20
170.4134640623753
 30
0.0
 11
184.7128404465625
 21
170.4134640623753
 31
0.0
  0
LINE
  5
3A85
330
1F
100
AcDbEntity
  8
1
100
AcDbLine
 10
186.0628403005615
 20
171.1134644438761
 30
0.0
 11
186.0628403005615
 21
173.2134641361526
 31
0.0
  0
LINE
  5
3A86
330
1F
100
AcDbEntity
  8
1
100
AcDbLine
 10
185.8628406403118
 20
171.3134641041261
 30
0.0
 11
185.862849685273
 21
173.2134641361526
 31
0.0
  0
LINE
  5
3A87
330
1F
100
AcDbEntity
  8
1
100
AcDbLine
 10
185.8628406403118
 20
172.0134638463034
 30
0.0
 11
185.8628406403118
 21
173.2134641361526
 31
0.0
  0
LINE
  5
3A88
330
1F
100
AcDbEntity
  8
1
100
AcDbLine
 10
186.3628402566124
 20
171.3134641041261
 30
0.0
 11
186.3628402566124
 21
172.7134640541744
 31
0.0
  0
LINE
  5
3A89
330
1F
100
AcDbEntity
  8
1
100
AcDbLine
 10
186.3562227440129
 20
173.2134641361526
 30
0.0
 11
186.0628403005615
 21
173.2134641361526
 31
0.0
  0
LINE
  5
3A8A
330
1F
100
AcDbEntity
  8
1
100
AcDbLine
 10
186.0628403005615
 20
173.2134641361526
 30
0.0
 11
185.8628406403118
 21
173.2134641361526
 31
0.0
  0
LINE
  5
3A8B
330
1F
100
AcDbEntity
  8
1
100
AcDbLine
 10
186.3562227440129
 20
172.7134640541744
 30
0.0
 11
186.3562227440129
 21
173.3134639662758
 31
0.0
  0
LINE
  5
3A8C
330
1F
100
AcDbEntity
  8
1
100
AcDbLine
 10
185.8628406403118
 20
171.3134641041261
 30
0.0
 11
186.0628403005615
 21
171.1134644438761
 31
0.0
  0
LINE
  5
3A8D
330
1F
100
AcDbEntity
  8
1
100
AcDbLine
 10
186.3562227440129
 20
171.1134644438761
 30
0.0
 11
186.3562227440129
 21
171.3134641041261
 31
0.0
  0
LINE
  5
3A8E
330
1F
100
AcDbEntity
  8
1
100
AcDbLine
 10
186.0628403005615
 20
171.1134644438761
 30
0.0
 11
186.3562227440129
 21
171.1134644438761
 31
0.0
  0
LINE
  5
3A8F
330
1F
100
AcDbEntity
  8
1
100
AcDbLine
 10
185.462840388462
 20
172.413464098151
 30
0.0
 11
185.462840388462
 21
172.8134641171538
 31
0.0
  0
LINE
  5
3A90
330
1F
100
AcDbEntity
  8
1
100
AcDbLine
 10
185.8628406403118
 20
172.0134638463034
 30
0.0
 11
185.462840388462
 21
172.413464098151
 31
0.0
  0
LINE
  5
3A91
330
1F
100
AcDbEntity
  8
1
100
AcDbLine
 10
185.8628406403118
 20
173.2134641361526
 30
0.0
 11
185.462840388462
 21
172.8134641171538
 31
0.0
  0
LINE
  5
3A92
330
1F
100
AcDbEntity
  8
1
100
AcDbLine
 10
186.6628404465633
 20
169.9134640623753
 30
0.0
 11
186.6628404465633
 21
169.3134640623765
 31
0.0
  0
LINE
  5
3A93
330
1F
100
AcDbEntity
  8
1
100
AcDbLine
 10
184.9128402498594
 20
168.8134637762734
 30
0.0
 11
187.6628404689094
 21
168.8134634901718
 31
0.0
  0
LINE
  5
3A94
330
1F
100
AcDbEntity
  8
1
100
AcDbLine
 10
190.1128404347115
 20
170.7134641920249
 30
0.0
 11
184.9128403914624
 21
170.7134641920249
 31
0.0
  0
LINE
  5
3A95
330
1F
100
AcDbEntity
  8
1
100
AcDbLine
 10
194.4128405516135
 20
173.3134639662758
 30
0.0
 11
186.3562227440129
 21
173.3134639662758
 31
0.0
  0
LINE
  5
3A96
330
1F
100
AcDbEntity
  8
1
100
AcDbLine
 10
186.3562227440129
 20
172.7134640541744
 30
0.0
 11
194.4128405516135
 21
172.7134640541744
 31
0.0
  0
LINE
  5
3A97
330
1F
100
AcDbEntity
  8
1
100
AcDbLine
 10
186.2128404689086
 20
168.0134634901725
 30
0.0
 11
187.4628404689088
 21
168.0134634901725
 31
0.0
  0
LINE
  5
3A98
330
1F
100
AcDbEntity
  8
1
100
AcDbLine
 10
186.2128404689086
 20
168.213463490173
 30
0.0
 11
187.6628404689094
 21
168.213463490173
 31
0.0
  0
LINE
  5
3A99
330
1F
100
AcDbEntity
  8
1
100
AcDbLine
 10
187.4628404465624
 20
170.113464062376
 30
0.0
 11
186.4628404465624
 21
170.113464062376
 31
0.0
  0
LINE
  5
3A9A
330
1F
100
AcDbEntity
  8
1
100
AcDbLine
 10
186.3562227440129
 20
171.3134641041261
 30
0.0
 11
190.1128404347115
 21
171.3134641041261
 31
0.0
  0
LINE
  5
3A9B
330
1F
100
AcDbEntity
  8
1
100
AcDbLine
 10
186.6628404465633
 20
169.3134640623765
 30
0.0
 11
187.4628404465624
 21
169.3134640623765
 31
0.0
  0
LINE
  5
3A9C
330
1F
100
AcDbEntity
  8
1
100
AcDbLine
 10
186.6628404465633
 20
169.9134640623753
 30
0.0
 11
187.4628404465624
 21
169.9134640623753
 31
0.0
  0
LINE
  5
3A9D
330
1F
100
AcDbEntity
  8
1
100
AcDbLine
 10
183.7128405672634
 20
172.0134638463034
 30
0.0
 11
183.7128405672634
 21
180.013464226301
 31
0.0
  0
LINE
  5
3A9E
330
1F
100
AcDbEntity
  8
1
100
AcDbLine
 10
184.6628404465633
 20
173.4134640363019
 30
0.0
 11
184.6628403504624
 21
175.0134639888029
 31
0.0
  0
LINE
  5
3A9F
330
1F
100
AcDbEntity
  8
1
100
AcDbLine
 10
184.2628404465618
 20
173.4134640363019
 30
0.0
 11
184.2628404465618
 21
178.6134640363026
 31
0.0
  0
LINE
  5
3AA0
330
1F
100
AcDbEntity
  8
1
100
AcDbLine
 10
184.1128403534625
 20
172.413464098151
 30
0.0
 11
184.1128403534625
 21
179.6134639744533
 31
0.0
  0
LINE
  5
3AA1
330
1F
100
AcDbEntity
  8
1
100
AcDbLine
 10
194.4128405516135
 20
181.9134639090763
 30
0.0
 11
194.4128405516135
 21
172.7134640541744
 31
0.0
  0
LINE
  5
3AA2
330
1F
100
AcDbEntity
  8
1
100
AcDbLine
 10
188.1128404465622
 20
174.2634640623755
 30
0.0
 11
188.1128404465622
 21
173.7634640623755
 31
0.0
  0
LINE
  5
3AA3
330
1F
100
AcDbEntity
  8
1
100
AcDbLine
 10
187.6128404614614
 20
174.2634642151253
 30
0.0
 11
187.6128404614614
 21
173.763464133176
 31
0.0
  0
LINE
  5
3AA4
330
1F
100
AcDbEntity
  8
1
100
AcDbLine
 10
187.5628405464127
 20
173.7134642181255
 30
0.0
 11
187.5628405464127
 21
174.3134641301758
 31
0.0
  0
LINE
  5
3AA5
330
1F
100
AcDbEntity
  8
1
100
AcDbLine
 10
188.162840458512
 20
174.3134641301758
 30
0.0
 11
188.162840458512
 21
173.7134642181255
 31
0.0
  0
LINE
  5
3AA6
330
1F
100
AcDbEntity
  8
1
100
AcDbLine
 10
188.412840499463
 20
174.563464171176
 30
0.0
 11
188.412840499463
 21
173.4634641771255
 31
0.0
  0
LINE
  5
3AA7
330
1F
100
AcDbEntity
  8
1
100
AcDbLine
 10
187.3128405054124
 20
173.4634641771255
 30
0.0
 11
187.3128405054124
 21
174.563464171176
 31
0.0
  0
LINE
  5
3AA8
330
1F
100
AcDbEntity
  8
1
100
AcDbLine
 10
192.6128403497136
 20
174.2634642151253
 30
0.0
 11
192.6128403497136
 21
173.763464133176
 31
0.0
  0
LINE
  5
3AA9
330
1F
100
AcDbEntity
  8
1
100
AcDbLine
 10
192.562840434661
 20
173.7134642181255
 30
0.0
 11
192.562840434661
 21
174.3134641301758
 31
0.0
  0
LINE
  5
3AAA
330
1F
100
AcDbEntity
  8
1
100
AcDbLine
 10
192.312840393661
 20
173.4634641771255
 30
0.0
 11
192.312840393661
 21
174.563464171176
 31
0.0
  0
LINE
  5
3AAB
330
1F
100
AcDbEntity
  8
1
100
AcDbLine
 10
193.112840446562
 20
174.2634640623755
 30
0.0
 11
193.112840446562
 21
173.7634640623755
 31
0.0
  0
LINE
  5
3AAC
330
1F
100
AcDbEntity
  8
1
100
AcDbLine
 10
193.1628403467625
 20
174.3134641301758
 30
0.0
 11
193.1628403467625
 21
173.7134642181255
 31
0.0
  0
LINE
  5
3AAD
330
1F
100
AcDbEntity
  8
1
100
AcDbLine
 10
193.4128403877116
 20
174.563464171176
 30
0.0
 11
193.4128403877116
 21
173.4634641771255
 31
0.0
  0
LINE
  5
3AAE
330
1F
100
AcDbEntity
  8
1
100
AcDbLine
 10
195.21284007248
 20
166.1134622105809
 30
0.0
 11
194.4128405516135
 21
166.1134622105809
 31
0.0
  0
LINE
  5
3AAF
330
1F
100
AcDbEntity
  8
1
100
AcDbLine
 10
194.0628404465629
 20
168.8134634901734
 30
0.0
 11
195.4128402498614
 21
168.8134637762751
 31
0.0
  0
LINE
  5
3AB0
330
1F
100
AcDbEntity
  8
1
100
AcDbLine
 10
194.0628404465629
 20
169.3134640623765
 30
0.0
 11
195.4128402498614
 21
169.3134637762752
 31
0.0
  0
LINE
  5
3AB1
330
1F
100
AcDbEntity
  8
1
100
AcDbLine
 10
195.21284007248
 20
179.3134628470316
 30
0.0
 11
194.6128401604315
 21
179.3134628470316
 31
0.0
  0
LINE
  5
3AB2
330
1F
100
AcDbEntity
  8
1
100
AcDbLine
 10
195.2128405896115
 20
172.7134640541744
 30
0.0
 11
194.6128406775629
 21
172.7134640541744
 31
0.0
  0
LINE
  5
3AC8
330
1F
100
AcDbEntity
  8
1
100
AcDbLine
 10
195.4128402498614
 20
142.8134628394245
 30
0.0
 11
195.4128402498614
 21
144.0134626635764
 31
0.0
  0
LINE
  5
3AC9
330
1F
100
AcDbEntity
  8
1
100
AcDbLine
 10
195.4128402498618
 20
141.263462055866
 30
0.0
 11
195.4128402498618
 21
139.4134620558658
 31
0.0
  0
LINE
  5
3ACA
330
1F
100
AcDbEntity
  8
1
100
AcDbLine
 10
195.4128402498611
 20
148.5634630584746
 30
0.0
 11
195.2128405896115
 21
148.5634630584747
 31
0.0
  0
LINE
  5
3ACB
330
1F
100
AcDbEntity
  8
1
100
AcDbLine
 10
195.2128405896115
 20
144.0134626635764
 30
0.0
 11
195.2128405896115
 21
145.5134631173234
 31
0.0
  0
LINE
  5
3ACC
330
1F
100
AcDbEntity
  8
1
100
AcDbLine
 10
195.4128402498614
 20
144.0134626635764
 30
0.0
 11
195.2128405896115
 21
144.0134626635764
 31
0.0
  0
LINE
  5
3ACD
330
1F
100
AcDbEntity
  8
1
100
AcDbLine
 10
195.2128405896115
 20
144.5634633341753
 30
0.0
 11
195.4128402498614
 21
144.5634633341753
 31
0.0
  0
LINE
  5
3ACE
330
1F
100
AcDbEntity
  8
1
100
AcDbLine
 10
195.4128402498614
 20
148.1134631244251
 30
0.0
 11
195.2128405896115
 21
148.1134631244251
 31
0.0
  0
LINE
  5
3ACF
330
1F
100
AcDbEntity
  8
1
100
AcDbLine
 10
195.2128405896115
 20
147.513462979524
 30
0.0
 11
195.4128402498614
 21
147.513462979524
 31
0.0
  0
LINE
  5
3AD0
330
1F
100
AcDbEntity
  8
1
100
AcDbLine
 10
195.2128405896115
 20
147.0634632782741
 30
0.0
 11
195.4128402498614
 21
147.0634632782741
 31
0.0
  0
LINE
  5
3AD1
330
1F
100
AcDbEntity
  8
1
100
AcDbLine
 10
195.4128402498614
 20
147.513462979524
 30
0.0
 11
195.4128402498614
 21
148.1134631244251
 31
0.0
  0
LINE
  5
3AD2
330
1F
100
AcDbEntity
  8
1
100
AcDbLine
 10
195.2128405896115
 20
146.5634631963249
 30
0.0
 11
195.4128402498614
 21
146.5634631963249
 31
0.0
  0
LINE
  5
3AD3
330
1F
100
AcDbEntity
  8
1
100
AcDbLine
 10
195.2128405896115
 20
145.5134631173234
 30
0.0
 11
195.4128402498614
 21
145.5134631173234
 31
0.0
  0
LINE
  5
3AD4
330
1F
100
AcDbEntity
  8
1
100
AcDbLine
 10
195.4128402498614
 20
146.1134630294246
 30
0.0
 11
195.2128405896115
 21
146.1134630294246
 31
0.0
  0
LINE
  5
3AD5
330
1F
100
AcDbEntity
  8
1
100
AcDbLine
 10
195.4128402498614
 20
146.1134630294246
 30
0.0
 11
195.4128402498614
 21
145.5134631173234
 31
0.0
  0
LINE
  5
3AD6
330
1F
100
AcDbEntity
  8
1
100
AcDbLine
 10
195.2128405896115
 20
145.0634629504249
 30
0.0
 11
195.4128402498614
 21
145.0634629504249
 31
0.0
  0
LINE
  5
3B2A
330
1F
100
AcDbEntity
  8
1
100
AcDbLine
 10
193.2628404465618
 20
143.4134631255248
 30
0.0
 11
193.2628404465618
 21
142.8134631255263
 31
0.0
  0
LINE
  5
3B2B
330
1F
100
AcDbEntity
  8
1
100
AcDbLine
 10
194.0628404465629
 20
143.4134631255248
 30
0.0
 11
194.0628404465629
 21
142.8134631255263
 31
0.0
  0
ARC
  5
3B2C
330
1F
100
AcDbEntity
  8
1
100
AcDbCircle
 10
195.9128402498618
 20
138.8134620558659
 30
0.0
 40
1.366025403784725
100
AcDbArc
 50
141.2958169670334
 51
218.7041830329667
  0
LINE
  5
3B2D
330
1F
100
AcDbEntity
  8
1
100
AcDbLine
 10
194.846814846074
 20
140.363462055866
 30
0.0
 11
194.7128402498587
 21
140.363462055866
 31
0.0
  0
LINE
  5
3B2E
330
1F
100
AcDbEntity
  8
1
100
AcDbLine
 10
194.846814846074
 20
136.8634620558659
 30
0.0
 11
194.7128402498587
 21
136.8634620558659
 31
0.0
  0
LINE
  5
3B2F
330
1F
100
AcDbEntity
  8
1
100
AcDbLine
 10
194.846814846074
 20
137.2634620558659
 30
0.0
 11
194.7128402498587
 21
137.2634620558659
 31
0.0
  0
ARC
  5
3B30
330
1F
100
AcDbEntity
  8
1
100
AcDbCircle
 10
192.4128402498616
 20
138.8134620558659
 30
0.0
 40
0.8000000000000111
100
AcDbArc
 50
0.0
 51
180.0
  0
ARC
  5
3B31
330
1F
100
AcDbEntity
  8
1
100
AcDbCircle
 10
192.4128402498616
 20
138.8134620558659
 30
0.0
 40
0.8000000000000007
100
AcDbArc
 50
180.0
 51
0.0
  0
LINE
  5
3B32
330
1F
100
AcDbEntity
  8
1
100
AcDbLine
 10
192.0128402498616
 20
139.2134620558659
 30
0.0
 11
192.8128402498616
 21
139.2134620558659
 31
0.0
  0
LINE
  5
3B33
330
1F
100
AcDbEntity
  8
1
100
AcDbLine
 10
192.8128402498616
 20
138.4134620558658
 30
0.0
 11
192.0128402498616
 21
138.4134620558658
 31
0.0
  0
LINE
  5
3B34
330
1F
100
AcDbEntity
  8
1
100
AcDbLine
 10
192.8128402498616
 20
138.4134620558658
 30
0.0
 11
192.5448910574306
 21
138.6814112482972
 31
0.0
  0
LINE
  5
3B35
330
1F
100
AcDbEntity
  8
1
100
AcDbLine
 10
192.5448910574306
 20
138.9455128634349
 30
0.0
 11
192.8128402498616
 21
139.2134620558659
 31
0.0
  0
LINE
  5
3B36
330
1F
100
AcDbEntity
  8
1
100
AcDbLine
 10
193.1128402498615
 20
136.8758976211642
 30
0.0
 11
192.4128402498616
 21
137.0634620558659
 31
0.0
  0
LINE
  5
3B37
330
1F
100
AcDbEntity
  8
1
100
AcDbLine
 10
192.4128402498616
 20
137.0634620558659
 30
0.0
 11
193.1128402498615
 21
137.2510264905677
 31
0.0
  0
LINE
  5
3B38
330
1F
100
AcDbEntity
  8
1
100
AcDbLine
 10
192.0128402498616
 20
139.2134620558659
 30
0.0
 11
192.2807894422929
 21
138.9455128634349
 31
0.0
  0
LINE
  5
3B39
330
1F
100
AcDbEntity
  8
1
100
AcDbLine
 10
192.2807894422929
 20
138.6814112482972
 30
0.0
 11
192.0128402498616
 21
138.4134620558658
 31
0.0
  0
LINE
  5
3B3A
330
1F
100
AcDbEntity
  8
1
100
AcDbLine
 10
192.5448910574306
 20
138.9455128634349
 30
0.0
 11
192.2807894422929
 21
138.9455128634349
 31
0.0
  0
LINE
  5
3B3B
330
1F
100
AcDbEntity
  8
1
100
AcDbLine
 10
192.5448910574306
 20
138.6814112482972
 30
0.0
 11
192.5448910574306
 21
138.9455128634349
 31
0.0
  0
LINE
  5
3B3C
330
1F
100
AcDbEntity
  8
1
100
AcDbLine
 10
192.2807894422929
 20
138.6814112482972
 30
0.0
 11
192.5448910574306
 21
138.6814112482972
 31
0.0
  0
LINE
  5
3B3D
330
1F
100
AcDbEntity
  8
1
100
AcDbLine
 10
192.2807894422929
 20
138.9455128634349
 30
0.0
 11
192.2807894422929
 21
138.6814112482972
 31
0.0
  0
LINE
  5
3B3E
330
1F
100
AcDbEntity
  8
1
100
AcDbLine
 10
192.0128402498616
 20
138.4134620558658
 30
0.0
 11
192.0128402498616
 21
139.2134620558659
 31
0.0
  0
LINE
  5
3B3F
330
1F
100
AcDbEntity
  8
1
100
AcDbLine
 10
193.2628404465618
 20
142.8134631255263
 30
0.0
 11
194.0628404465629
 21
142.8134631255263
 31
0.0
  0
LINE
  5
3B40
330
1F
100
AcDbEntity
  8
1
100
AcDbLine
 10
194.7128402498623
 20
137.913462055869
 30
0.0
 11
194.7128402498587
 21
137.2634620558659
 31
0.0
  0
ARC
  5
3B41
330
1F
100
AcDbEntity
  8
1
100
AcDbCircle
 10
195.9128402498618
 20
138.8134620558659
 30
0.0
 40
1.500000000000764
100
AcDbArc
 50
143.1301023542837
 51
216.8698976457561
  0
LINE
  5
3B42
330
1F
100
AcDbEntity
  8
1
100
AcDbLine
 10
194.7128402498587
 20
140.363462055866
 30
0.0
 11
194.712840249859
 21
139.7134620558638
 31
0.0
  0
LINE
  5
3B43
330
1F
100
AcDbEntity
  8
1
100
AcDbLine
 10
194.7128402498587
 20
136.8634620558659
 30
0.0
 11
194.712840249859
 21
136.2134620558637
 31
0.0
  0
LINE
  5
3B44
330
1F
100
AcDbEntity
  8
1
100
AcDbLine
 10
192.8128402498616
 20
139.2134620558659
 30
0.0
 11
192.8128402498616
 21
138.4134620558658
 31
0.0
  0
LINE
  5
3B45
330
1F
100
AcDbEntity
  8
1
100
AcDbLine
 10
193.1128402498615
 20
137.2510264905677
 30
0.0
 11
193.1128402498615
 21
136.8758976211642
 31
0.0
  0
LINE
  5
3B46
330
1F
100
AcDbEntity
  8
1
100
AcDbLine
 10
194.846814846074
 20
137.2634620558659
 30
0.0
 11
194.8468148460739
 21
137.9592868734444
 31
0.0
  0
LINE
  5
3B47
330
1F
100
AcDbEntity
  8
1
100
AcDbLine
 10
194.846814846074
 20
140.363462055866
 30
0.0
 11
194.846814846074
 21
139.6676372382875
 31
0.0
  0
LINE
  5
3B48
330
1F
100
AcDbEntity
  8
1
100
AcDbLine
 10
194.846814846074
 20
136.8634620558659
 30
0.0
 11
194.846814846074
 21
136.1676372382875
 31
0.0
  0
LINE
  5
3B49
330
1F
100
AcDbEntity
  8
1
100
AcDbLine
 10
191.7128403057381
 20
148.5634631255244
 30
0.0
 11
191.662840305737
 21
148.5634631255244
 31
0.0
  0
LINE
  5
3B4A
330
1F
100
AcDbEntity
  8
1
100
AcDbLine
 10
191.662840305737
 20
148.5634631255244
 30
0.0
 11
191.1628402088885
 21
148.5634630584747
 31
0.0
  0
LINE
  5
3B4B
330
1F
100
AcDbEntity
  8
1
100
AcDbLine
 10
191.1628402088885
 20
148.5634630584747
 30
0.0
 11
191.112840293836
 21
148.5634630584747
 31
0.0
  0
LINE
  5
3B4C
330
1F
100
AcDbEntity
  8
1
100
AcDbLine
 10
191.112840293836
 20
148.5134631434259
 30
0.0
 11
191.7128402059375
 21
148.5134631434259
 31
0.0
  0
LINE
  5
3B4D
330
1F
100
AcDbEntity
  8
1
100
AcDbLine
 10
194.6128406775629
 20
143.4134627515258
 30
0.0
 11
194.6128406775629
 21
145.5134631173234
 31
0.0
  0
LINE
  5
3B4E
330
1F
100
AcDbEntity
  8
1
100
AcDbLine
 10
194.4128405516135
 20
145.5134631173234
 30
0.0
 11
194.4128395363755
 21
143.6134633430748
 31
0.0
  0
LINE
  5
3B4F
330
1F
100
AcDbEntity
  8
1
100
AcDbLine
 10
191.1628402088885
 20
145.0634629504249
 30
0.0
 11
191.1628402088885
 21
144.5634633341753
 31
0.0
  0
LINE
  5
3B50
330
1F
100
AcDbEntity
  8
1
100
AcDbLine
 10
191.662840305737
 20
145.0634631255244
 30
0.0
 11
191.662840305737
 21
144.5634631255245
 31
0.0
  0
LINE
  5
3B51
330
1F
100
AcDbEntity
  8
1
100
AcDbLine
 10
191.9628402468866
 20
145.3634629064756
 30
0.0
 11
191.9628402468866
 21
144.2634629124251
 31
0.0
  0
LINE
  5
3B52
330
1F
100
AcDbEntity
  8
1
100
AcDbLine
 10
191.7128402059375
 20
145.113463331175
 30
0.0
 11
191.7128402059375
 21
144.5134629534249
 31
0.0
  0
LINE
  5
3B53
330
1F
100
AcDbEntity
  8
1
100
AcDbLine
 10
191.112840293836
 20
145.113463331175
 30
0.0
 11
191.112840293836
 21
144.5134629534249
 31
0.0
  0
LINE
  5
3B54
330
1F
100
AcDbEntity
  8
1
100
AcDbLine
 10
191.7128402059375
 20
144.5134629534249
 30
0.0
 11
191.9628402468866
 21
144.2634629124251
 31
0.0
  0
LINE
  5
3B55
330
1F
100
AcDbEntity
  8
1
100
AcDbLine
 10
191.662840305737
 20
144.5634631255245
 30
0.0
 11
191.7128403057381
 21
144.5634631255245
 31
0.0
  0
LINE
  5
3B56
330
1F
100
AcDbEntity
  8
1
100
AcDbLine
 10
191.1628402088885
 20
144.5634633341753
 30
0.0
 11
191.662840305737
 21
144.5634631255245
 31
0.0
  0
LINE
  5
3B57
330
1F
100
AcDbEntity
  8
1
100
AcDbLine
 10
191.112840293836
 20
144.5634633341753
 30
0.0
 11
191.1628402088885
 21
144.5634633341753
 31
0.0
  0
LINE
  5
3B58
330
1F
100
AcDbEntity
  8
1
100
AcDbLine
 10
191.112840293836
 20
144.5134629534249
 30
0.0
 11
191.7128402059375
 21
144.5134629534249
 31
0.0
  0
LINE
  5
3B59
330
1F
100
AcDbEntity
  8
1
100
AcDbLine
 10
194.2628404465618
 20
143.6134631255255
 30
0.0
 11
193.2628404465618
 21
143.6134631255255
 31
0.0
  0
LINE
  5
3B5A
330
1F
100
AcDbEntity
  8
1
100
AcDbLine
 10
193.2628404465618
 20
143.4134631255248
 30
0.0
 11
193.2628404465618
 21
143.6134631255255
 31
0.0
  0
LINE
  5
3B5B
330
1F
100
AcDbEntity
  8
1
100
AcDbLine
 10
193.2628404465618
 20
143.4134631255248
 30
0.0
 11
194.0628404465629
 21
143.4134631255248
 31
0.0
  0
LINE
  5
3B5C
330
1F
100
AcDbEntity
  8
1
100
AcDbLine
 10
194.0628404465629
 20
143.4134631255248
 30
0.0
 11
194.2628404465618
 21
143.6134631255255
 31
0.0
  0
LINE
  5
3B5D
330
1F
100
AcDbEntity
  8
1
100
AcDbLine
 10
194.4128405516135
 20
143.6134633430766
 30
0.0
 11
194.2628404465618
 21
143.6134631255255
 31
0.0
  0
LINE
  5
3B5E
330
1F
100
AcDbEntity
  8
1
100
AcDbLine
 10
194.4128405516135
 20
143.6134633430766
 30
0.0
 11
194.6128406775629
 21
143.4134627515258
 31
0.0
  0
LINE
  5
3B5F
330
1F
100
AcDbEntity
  8
1
100
AcDbLine
 10
194.6128406775629
 20
143.4134627515258
 30
0.0
 11
194.0628404465629
 21
143.4134631255248
 31
0.0
  0
LINE
  5
3B60
330
1F
100
AcDbEntity
  8
1
100
AcDbLine
 10
191.7128402059375
 20
147.1134631933247
 30
0.0
 11
191.9628402468866
 21
147.3634632343248
 31
0.0
  0
LINE
  5
3B61
330
1F
100
AcDbEntity
  8
1
100
AcDbLine
 10
191.662840305737
 20
147.0634631255244
 30
0.0
 11
191.7128403057381
 21
147.0634631255244
 31
0.0
  0
LINE
  5
3B62
330
1F
100
AcDbEntity
  8
1
100
AcDbLine
 10
191.1628402088885
 20
147.0634632782741
 30
0.0
 11
191.662840305737
 21
147.0634631255244
 31
0.0
  0
LINE
  5
3B63
330
1F
100
AcDbEntity
  8
1
100
AcDbLine
 10
191.112840293836
 20
147.0634632782741
 30
0.0
 11
191.1628402088885
 21
147.0634632782741
 31
0.0
  0
LINE
  5
3B64
330
1F
100
AcDbEntity
  8
1
100
AcDbLine
 10
191.112840293836
 20
147.1134631933247
 30
0.0
 11
191.7128402059375
 21
147.1134631933247
 31
0.0
  0
LINE
  5
3B65
330
1F
100
AcDbEntity
  8
1
100
AcDbLine
 10
191.662840305737
 20
146.5634631255244
 30
0.0
 11
191.7128403057381
 21
146.5634631255244
 31
0.0
  0
LINE
  5
3B66
330
1F
100
AcDbEntity
  8
1
100
AcDbLine
 10
191.9628402468866
 20
145.3634629064756
 30
0.0
 11
191.7128402059375
 21
145.113463331175
 31
0.0
  0
LINE
  5
3B67
330
1F
100
AcDbEntity
  8
1
100
AcDbLine
 10
191.662840305737
 20
145.0634631255244
 30
0.0
 11
191.7128403057381
 21
145.0634631255244
 31
0.0
  0
LINE
  5
3B68
330
1F
100
AcDbEntity
  8
1
100
AcDbLine
 10
191.7128402059375
 20
146.5134632812743
 30
0.0
 11
191.9628402468866
 21
146.2634632402743
 31
0.0
  0
LINE
  5
3B69
330
1F
100
AcDbEntity
  8
1
100
AcDbLine
 10
191.1628402088885
 20
146.5634631963249
 30
0.0
 11
191.662840305737
 21
146.5634631255244
 31
0.0
  0
LINE
  5
3B6A
330
1F
100
AcDbEntity
  8
1
100
AcDbLine
 10
191.1628402088885
 20
145.0634629504249
 30
0.0
 11
191.662840305737
 21
145.0634631255244
 31
0.0
  0
LINE
  5
3B6B
330
1F
100
AcDbEntity
  8
1
100
AcDbLine
 10
191.112840293836
 20
146.5634631963249
 30
0.0
 11
191.1628402088885
 21
146.5634631963249
 31
0.0
  0
LINE
  5
3B6C
330
1F
100
AcDbEntity
  8
1
100
AcDbLine
 10
191.112840293836
 20
145.0634629504249
 30
0.0
 11
191.1628402088885
 21
145.0634629504249
 31
0.0
  0
LINE
  5
3B6D
330
1F
100
AcDbEntity
  8
1
100
AcDbLine
 10
191.112840293836
 20
146.5134632812743
 30
0.0
 11
191.7128402059375
 21
146.5134632812743
 31
0.0
  0
LINE
  5
3B6E
330
1F
100
AcDbEntity
  8
1
100
AcDbLine
 10
191.112840293836
 20
145.113463331175
 30
0.0
 11
191.7128402059375
 21
145.113463331175
 31
0.0
  0
LINE
  5
3B6F
330
1F
100
AcDbEntity
  8
1
100
AcDbLine
 10
191.1628402088885
 20
147.0634632782741
 30
0.0
 11
191.1628402088885
 21
146.5634631963249
 31
0.0
  0
LINE
  5
3B70
330
1F
100
AcDbEntity
  8
1
100
AcDbLine
 10
191.662840305737
 20
147.0634631255244
 30
0.0
 11
191.662840305737
 21
146.5634631255244
 31
0.0
  0
LINE
  5
3B71
330
1F
100
AcDbEntity
  8
1
100
AcDbLine
 10
191.7128402059375
 20
147.1134631933247
 30
0.0
 11
191.7128402059375
 21
146.5134632812743
 31
0.0
  0
LINE
  5
3B72
330
1F
100
AcDbEntity
  8
1
100
AcDbLine
 10
191.9628402468866
 20
147.3634632343248
 30
0.0
 11
191.9628402468866
 21
146.2634632402743
 31
0.0
  0
LINE
  5
3B73
330
1F
100
AcDbEntity
  8
1
100
AcDbLine
 10
191.112840293836
 20
146.5134632812743
 30
0.0
 11
191.112840293836
 21
147.1134631933247
 31
0.0
  0
LINE
  5
3B74
330
1F
100
AcDbEntity
  8
1
100
AcDbLine
 10
194.6128406775629
 20
145.5134631173234
 30
0.0
 11
194.4128405516135
 21
145.5134631173234
 31
0.0
  0
LINE
  5
3B75
330
1F
100
AcDbEntity
  8
1
100
AcDbLine
 10
191.7128402059375
 20
148.5134631434259
 30
0.0
 11
191.9628402468866
 21
148.2634631024258
 31
0.0
  0
LINE
  5
3B76
330
1F
100
AcDbEntity
  8
1
100
AcDbLine
 10
188.4628404689088
 20
143.413463125523
 30
0.0
 11
188.4628404689088
 21
142.8134631255244
 31
0.0
  0
LINE
  5
3B77
330
1F
100
AcDbEntity
  8
1
100
AcDbLine
 10
187.6628404689094
 20
143.413463125523
 30
0.0
 11
187.6628404689094
 21
142.8134631255244
 31
0.0
  0
LINE
  5
3B78
330
1F
100
AcDbEntity
  8
1
100
AcDbLine
 10
187.6628404689094
 20
142.8134631255244
 30
0.0
 11
188.4628404689088
 21
142.8134631255244
 31
0.0
  0
LINE
  5
3B79
330
1F
100
AcDbEntity
  8
1
100
AcDbLine
 10
189.9428402498585
 20
139.2134620558659
 30
0.0
 11
190.278865653646
 21
139.2134620558659
 31
0.0
  0
LINE
  5
3B7A
330
1F
100
AcDbEntity
  8
1
100
AcDbLine
 10
190.278865653646
 20
138.4134620558658
 30
0.0
 11
189.9428402498585
 21
138.4134620558658
 31
0.0
  0
LINE
  5
3B7B
330
1F
100
AcDbEntity
  8
1
100
AcDbLine
 10
190.4128402498615
 20
137.2634620558659
 30
0.0
 11
190.4128402498615
 21
138.4134620558658
 31
0.0
  0
LINE
  5
3B7C
330
1F
100
AcDbEntity
  8
1
100
AcDbLine
 10
190.278865653646
 20
138.4134620558658
 30
0.0
 11
190.278865653646
 21
137.2634620558659
 31
0.0
  0
LINE
  5
3B7D
330
1F
100
AcDbEntity
  8
1
100
AcDbLine
 10
190.4128402498615
 20
139.2134620558659
 30
0.0
 11
190.4128402498615
 21
140.363462055866
 31
0.0
  0
LINE
  5
3B7E
330
1F
100
AcDbEntity
  8
1
100
AcDbLine
 10
190.278865653646
 20
139.2134620558659
 30
0.0
 11
190.278865653646
 21
140.363462055866
 31
0.0
  0
LINE
  5
3B7F
330
1F
100
AcDbEntity
  8
1
100
AcDbLine
 10
190.278865653646
 20
140.363462055866
 30
0.0
 11
190.4128402498615
 21
140.363462055866
 31
0.0
  0
LINE
  5
3B80
330
1F
100
AcDbEntity
  8
1
100
AcDbLine
 10
190.4128402498615
 20
139.2134620558659
 30
0.0
 11
190.278865653646
 21
139.2134620558659
 31
0.0
  0
LINE
  5
3B81
330
1F
100
AcDbEntity
  8
1
100
AcDbLine
 10
190.278865653646
 20
138.4134620558658
 30
0.0
 11
190.4128402498615
 21
138.4134620558658
 31
0.0
  0
LINE
  5
3B82
330
1F
100
AcDbEntity
  8
1
100
AcDbLine
 10
190.278865653646
 20
137.2634620558659
 30
0.0
 11
190.4128402498615
 21
137.2634620558659
 31
0.0
  0
LINE
  5
3B83
330
1F
100
AcDbEntity
  8
1
100
AcDbLine
 10
190.278865653646
 20
136.8634620558659
 30
0.0
 11
190.4128402498615
 21
136.8634620558659
 31
0.0
  0
LINE
  5
3B84
330
1F
100
AcDbEntity
  8
1
100
AcDbLine
 10
189.0628402498585
 20
137.3234620558658
 30
0.0
 11
189.7428402498584
 21
137.5584620558659
 31
0.0
  0
LINE
  5
3B85
330
1F
100
AcDbEntity
  8
1
100
AcDbLine
 10
189.0628402498585
 20
137.3234620558658
 30
0.0
 11
189.0628402498585
 21
138.2134620558659
 31
0.0
  0
LINE
  5
3B86
330
1F
100
AcDbEntity
  8
1
100
AcDbLine
 10
188.4128402498614
 20
140.3625001615425
 30
0.0
 11
188.4128402498614
 21
137.2644239501892
 31
0.0
  0
ARC
  5
3B87
330
1F
100
AcDbEntity
  8
1
100
AcDbCircle
 10
189.9428402498585
 20
139.4134620558658
 30
0.0
 40
0.2000000000000206
100
AcDbArc
 50
180.0
 51
270.0
  0
LINE
  5
3B88
330
1F
100
AcDbEntity
  8
1
100
AcDbLine
 10
189.7428402498584
 20
139.4134620558658
 30
0.0
 11
189.7428402498584
 21
138.8134620558659
 31
0.0
  0
LINE
  5
3B89
330
1F
100
AcDbEntity
  8
1
100
AcDbLine
 10
189.0628402498585
 20
138.8134620558659
 30
0.0
 11
189.0628402498585
 21
139.4134620558658
 31
0.0
  0
LINE
  5
3B8A
330
1F
100
AcDbEntity
  8
1
100
AcDbLine
 10
189.7428402498584
 20
140.068462055866
 30
0.0
 11
189.0628402498585
 21
140.3034620558659
 31
0.0
  0
LINE
  5
3B8B
330
1F
100
AcDbEntity
  8
1
100
AcDbLine
 10
189.7428402498584
 20
140.068462055866
 30
0.0
 11
189.7428402498584
 21
139.4134620558658
 31
0.0
  0
LINE
  5
3B8C
330
1F
100
AcDbEntity
  8
1
100
AcDbLine
 10
189.0628402498585
 20
139.4134620558658
 30
0.0
 11
189.0628402498585
 21
140.3034620558659
 31
0.0
  0
LINE
  5
3B8D
330
1F
100
AcDbEntity
  8
1
100
AcDbLine
 10
188.4128402498614
 20
140.5634620558658
 30
0.0
 11
188.4128402498614
 21
140.363462055866
 31
0.0
  0
LINE
  5
3B8E
330
1F
100
AcDbEntity
  8
1
100
AcDbLine
 10
188.4128402498614
 20
140.763462055866
 30
0.0
 11
188.4128402498614
 21
140.5634620558658
 31
0.0
  0
LINE
  5
3B8F
330
1F
100
AcDbEntity
  8
1
100
AcDbLine
 10
188.4128402498614
 20
140.7644239501893
 30
0.0
 11
188.4128402498614
 21
140.763462055866
 31
0.0
  0
LINE
  5
3B90
330
1F
100
AcDbEntity
  8
1
100
AcDbLine
 10
188.4128402498614
 20
140.363462055866
 30
0.0
 11
188.4128402498614
 21
140.3625001615425
 31
0.0
  0
ARC
  5
3B91
330
1F
100
AcDbEntity
  8
1
100
AcDbCircle
 10
189.9428402498585
 20
138.2134620558659
 30
0.0
 40
0.2000000000000011
100
AcDbArc
 50
90.0
 51
180.0
  0
LINE
  5
3B92
330
1F
100
AcDbEntity
  8
1
100
AcDbLine
 10
189.0628402498585
 20
138.2134620558659
 30
0.0
 11
189.0628402498585
 21
138.8134620558659
 31
0.0
  0
LINE
  5
3B93
330
1F
100
AcDbEntity
  8
1
100
AcDbLine
 10
189.7428402498584
 20
138.8134620558659
 30
0.0
 11
189.7428402498584
 21
138.2134620558659
 31
0.0
  0
LINE
  5
3B94
330
1F
100
AcDbEntity
  8
1
100
AcDbLine
 10
189.7428402498584
 20
138.2134620558659
 30
0.0
 11
189.7428402498584
 21
137.5584620558659
 31
0.0
  0
LINE
  5
3B95
330
1F
100
AcDbEntity
  8
1
100
AcDbLine
 10
189.7428402498584
 20
136.5684620558661
 30
0.0
 11
189.0628402498585
 21
136.8034620558659
 31
0.0
  0
LINE
  5
3B96
330
1F
100
AcDbEntity
  8
1
100
AcDbLine
 10
188.5128402498611
 20
137.2634620558659
 30
0.0
 11
188.4128402498614
 21
137.2634620558659
 31
0.0
  0
LINE
  5
3B97
330
1F
100
AcDbEntity
  8
1
100
AcDbLine
 10
188.5128402498611
 20
136.8634620558659
 30
0.0
 11
188.4128402498614
 21
136.8634620558659
 31
0.0
  0
LINE
  5
3B98
330
1F
100
AcDbEntity
  8
1
100
AcDbLine
 10
188.4128402498614
 20
136.8634620558659
 30
0.0
 11
188.4128402498614
 21
136.8625001615427
 31
0.0
  0
LINE
  5
3B99
330
1F
100
AcDbEntity
  8
1
100
AcDbLine
 10
188.4128402498614
 20
137.2644239501892
 30
0.0
 11
188.4128402498614
 21
137.2634620558659
 31
0.0
  0
LINE
  5
3B9A
330
1F
100
AcDbEntity
  8
1
100
AcDbLine
 10
188.4128402498614
 20
137.2634620558659
 30
0.0
 11
188.4128402498614
 21
137.0634620558659
 31
0.0
  0
LINE
  5
3B9B
330
1F
100
AcDbEntity
  8
1
100
AcDbLine
 10
188.4128402498614
 20
137.0634620558659
 30
0.0
 11
188.4128402498614
 21
136.8634620558659
 31
0.0
  0
LINE
  5
3B9C
330
1F
100
AcDbEntity
  8
1
100
AcDbLine
 10
188.4128402498614
 20
141.263462055866
 30
0.0
 11
188.4128402498614
 21
140.7644239501893
 31
0.0
  0
LINE
  5
3B9D
330
1F
100
AcDbEntity
  8
1
100
AcDbLine
 10
189.6628401939856
 20
148.5634631255244
 30
0.0
 11
189.162840208885
 21
148.5634630584747
 31
0.0
  0
LINE
  5
3B9E
330
1F
100
AcDbEntity
  8
1
100
AcDbLine
 10
189.6628401939856
 20
145.0634631255244
 30
0.0
 11
189.6628401939856
 21
144.5634631255245
 31
0.0
  0
LINE
  5
3B9F
330
1F
100
AcDbEntity
  8
1
100
AcDbLine
 10
189.162840208885
 20
145.0634629504249
 30
0.0
 11
189.162840208885
 21
144.5634633341753
 31
0.0
  0
LINE
  5
3BA0
330
1F
100
AcDbEntity
  8
1
100
AcDbLine
 10
188.862840252836
 20
144.2634629124251
 30
0.0
 11
188.862840252836
 21
145.3634629064756
 31
0.0
  0
LINE
  5
3BA1
330
1F
100
AcDbEntity
  8
1
100
AcDbLine
 10
189.112840293836
 20
144.5134629534249
 30
0.0
 11
189.112840293836
 21
145.113463331175
 31
0.0
  0
LINE
  5
3BA2
330
1F
100
AcDbEntity
  8
1
100
AcDbLine
 10
189.9628402468866
 20
144.2634629124251
 30
0.0
 11
189.9628402468866
 21
145.3634629064756
 31
0.0
  0
LINE
  5
3BA3
330
1F
100
AcDbEntity
  8
1
100
AcDbLine
 10
189.7128402059356
 20
145.113463331175
 30
0.0
 11
189.7128402059356
 21
144.5134629534249
 31
0.0
  0
LINE
  5
3BA4
330
1F
100
AcDbEntity
  8
1
100
AcDbLine
 10
189.6628401939856
 20
144.5634631255245
 30
0.0
 11
189.7128401939868
 21
144.5634631255245
 31
0.0
  0
LINE
  5
3BA5
330
1F
100
AcDbEntity
  8
1
100
AcDbLine
 10
189.9628402468866
 20
144.2634629124251
 30
0.0
 11
188.862840252836
 21
144.2634629124251
 31
0.0
  0
LINE
  5
3BA6
330
1F
100
AcDbEntity
  8
1
100
AcDbLine
 10
189.112840293836
 20
144.5134629534249
 30
0.0
 11
189.7128402059356
 21
144.5134629534249
 31
0.0
  0
LINE
  5
3BA7
330
1F
100
AcDbEntity
  8
1
100
AcDbLine
 10
188.4628404689088
 20
143.6134631255235
 30
0.0
 11
187.4628404689088
 21
143.6134631255235
 31
0.0
  0
LINE
  5
3BA8
330
1F
100
AcDbEntity
  8
1
100
AcDbLine
 10
187.6628404689094
 20
143.413463125523
 30
0.0
 11
188.4628404689088
 21
143.413463125523
 31
0.0
  0
LINE
  5
3BA9
330
1F
100
AcDbEntity
  8
1
100
AcDbLine
 10
188.4628404689088
 20
143.413463125523
 30
0.0
 11
188.4628404689088
 21
143.6134631255235
 31
0.0
  0
LINE
  5
3BAA
330
1F
100
AcDbEntity
  8
1
100
AcDbLine
 10
187.4628404689088
 20
143.6134631255235
 30
0.0
 11
187.6628404689094
 21
143.413463125523
 31
0.0
  0
LINE
  5
3BAB
330
1F
100
AcDbEntity
  8
1
100
AcDbLine
 10
189.162840208885
 20
144.5634633341753
 30
0.0
 11
189.6628401939856
 21
144.5634631255245
 31
0.0
  0
LINE
  5
3BAC
330
1F
100
AcDbEntity
  8
1
100
AcDbLine
 10
188.862840252836
 20
144.2634629124251
 30
0.0
 11
189.112840293836
 21
144.5134629534249
 31
0.0
  0
LINE
  5
3BAD
330
1F
100
AcDbEntity
  8
1
100
AcDbLine
 10
189.7128402059356
 20
144.5134629534249
 30
0.0
 11
189.9628402468866
 21
144.2634629124251
 31
0.0
  0
LINE
  5
3BAE
330
1F
100
AcDbEntity
  8
1
100
AcDbLine
 10
189.9628402468866
 20
148.2634631024258
 30
0.0
 11
188.862840252836
 21
148.2634631024258
 31
0.0
  0
LINE
  5
3BAF
330
1F
100
AcDbEntity
  8
1
100
AcDbLine
 10
189.6628401939856
 20
147.0634631255244
 30
0.0
 11
189.7128401939868
 21
147.0634631255244
 31
0.0
  0
LINE
  5
3BB0
330
1F
100
AcDbEntity
  8
1
100
AcDbLine
 10
188.862840252836
 20
147.3634632343248
 30
0.0
 11
189.9628402468866
 21
147.3634632343248
 31
0.0
  0
LINE
  5
3BB1
330
1F
100
AcDbEntity
  8
1
100
AcDbLine
 10
189.112840293836
 20
147.1134631933247
 30
0.0
 11
189.7128402059356
 21
147.1134631933247
 31
0.0
  0
LINE
  5
3BB2
330
1F
100
AcDbEntity
  8
1
100
AcDbLine
 10
189.162840208885
 20
147.0634632782741
 30
0.0
 11
189.6628401939856
 21
147.0634631255244
 31
0.0
  0
LINE
  5
3BB3
330
1F
100
AcDbEntity
  8
1
100
AcDbLine
 10
188.862840252836
 20
147.3634632343248
 30
0.0
 11
189.112840293836
 21
147.1134631933247
 31
0.0
  0
LINE
  5
3BB4
330
1F
100
AcDbEntity
  8
1
100
AcDbLine
 10
189.9628402468866
 20
147.3634632343248
 30
0.0
 11
189.7128402059356
 21
147.1134631933247
 31
0.0
  0
LINE
  5
3BB5
330
1F
100
AcDbEntity
  8
1
100
AcDbLine
 10
189.6628401939856
 20
146.5634631255244
 30
0.0
 11
189.7128401939868
 21
146.5634631255244
 31
0.0
  0
LINE
  5
3BB6
330
1F
100
AcDbEntity
  8
1
100
AcDbLine
 10
189.112840293836
 20
146.5134632812743
 30
0.0
 11
189.7128402059356
 21
146.5134632812743
 31
0.0
  0
LINE
  5
3BB7
330
1F
100
AcDbEntity
  8
1
100
AcDbLine
 10
189.6628401939856
 20
145.0634631255244
 30
0.0
 11
189.7128401939868
 21
145.0634631255244
 31
0.0
  0
LINE
  5
3BB8
330
1F
100
AcDbEntity
  8
1
100
AcDbLine
 10
188.862840252836
 20
145.3634629064756
 30
0.0
 11
189.9628402468866
 21
145.3634629064756
 31
0.0
  0
LINE
  5
3BB9
330
1F
100
AcDbEntity
  8
1
100
AcDbLine
 10
189.9628402468866
 20
146.2634632402743
 30
0.0
 11
188.862840252836
 21
146.2634632402743
 31
0.0
  0
LINE
  5
3BBA
330
1F
100
AcDbEntity
  8
1
100
AcDbLine
 10
189.112840293836
 20
145.113463331175
 30
0.0
 11
189.7128402059356
 21
145.113463331175
 31
0.0
  0
LINE
  5
3BBB
330
1F
100
AcDbEntity
  8
1
100
AcDbLine
 10
189.162840208885
 20
146.5634631963249
 30
0.0
 11
189.6628401939856
 21
146.5634631255244
 31
0.0
  0
LINE
  5
3BBC
330
1F
100
AcDbEntity
  8
1
100
AcDbLine
 10
189.162840208885
 20
145.0634629504249
 30
0.0
 11
189.6628401939856
 21
145.0634631255244
 31
0.0
  0
LINE
  5
3BBD
330
1F
100
AcDbEntity
  8
1
100
AcDbLine
 10
188.862840252836
 20
145.3634629064756
 30
0.0
 11
189.112840293836
 21
145.113463331175
 31
0.0
  0
LINE
  5
3BBE
330
1F
100
AcDbEntity
  8
1
100
AcDbLine
 10
188.862840252836
 20
146.2634632402743
 30
0.0
 11
189.112840293836
 21
146.5134632812743
 31
0.0
  0
LINE
  5
3BBF
330
1F
100
AcDbEntity
  8
1
100
AcDbLine
 10
189.9628402468866
 20
145.3634629064756
 30
0.0
 11
189.7128402059356
 21
145.113463331175
 31
0.0
  0
LINE
  5
3BC0
330
1F
100
AcDbEntity
  8
1
100
AcDbLine
 10
189.7128402059356
 20
146.5134632812743
 30
0.0
 11
189.9628402468866
 21
146.2634632402743
 31
0.0
  0
LINE
  5
3BC1
330
1F
100
AcDbEntity
  8
1
100
AcDbLine
 10
189.6628401939856
 20
147.0634631255244
 30
0.0
 11
189.6628401939856
 21
146.5634631255244
 31
0.0
  0
LINE
  5
3BC2
330
1F
100
AcDbEntity
  8
1
100
AcDbLine
 10
189.162840208885
 20
147.0634632782741
 30
0.0
 11
189.162840208885
 21
146.5634631963249
 31
0.0
  0
LINE
  5
3BC3
330
1F
100
AcDbEntity
  8
1
100
AcDbLine
 10
189.112840293836
 20
146.5134632812743
 30
0.0
 11
189.112840293836
 21
147.1134631933247
 31
0.0
  0
LINE
  5
3BC4
330
1F
100
AcDbEntity
  8
1
100
AcDbLine
 10
188.862840252836
 20
146.2634632402743
 30
0.0
 11
188.862840252836
 21
147.3634632343248
 31
0.0
  0
LINE
  5
3BC5
330
1F
100
AcDbEntity
  8
1
100
AcDbLine
 10
189.7128402059356
 20
147.1134631933247
 30
0.0
 11
189.7128402059356
 21
146.5134632812743
 31
0.0
  0
LINE
  5
3BC6
330
1F
100
AcDbEntity
  8
1
100
AcDbLine
 10
189.9628402468866
 20
147.3634632343248
 30
0.0
 11
189.9628402468866
 21
146.2634632402743
 31
0.0
  0
LINE
  5
3BC7
330
1F
100
AcDbEntity
  8
1
100
AcDbLine
 10
189.112840293836
 20
148.5134631434259
 30
0.0
 11
188.862840252836
 21
148.2634631024258
 31
0.0
  0
LINE
  5
3BC8
330
1F
100
AcDbEntity
  8
1
100
AcDbLine
 10
189.7128402059356
 20
148.5134631434259
 30
0.0
 11
189.9628402468866
 21
148.2634631024258
 31
0.0
  0
LINE
  5
3BC9
330
1F
100
AcDbEntity
  8
1
100
AcDbLine
 10
189.6628401939856
 20
148.5634631255244
 30
0.0
 11
189.7128401939868
 21
148.5634631255244
 31
0.0
  0
LINE
  5
3BCA
330
1F
100
AcDbEntity
  8
1
100
AcDbLine
 10
189.112840293836
 20
148.5134631434259
 30
0.0
 11
189.7128402059356
 21
148.5134631434259
 31
0.0
  0
LINE
  5
3BCB
330
1F
100
AcDbEntity
  8
1
100
AcDbLine
 10
190.862840252836
 20
144.2634629124251
 30
0.0
 11
190.862840252836
 21
145.3634629064756
 31
0.0
  0
LINE
  5
3BCC
330
1F
100
AcDbEntity
  8
1
100
AcDbLine
 10
190.862840252836
 20
146.2634632402743
 30
0.0
 11
190.862840252836
 21
147.3634632343248
 31
0.0
  0
LINE
  5
3BCD
330
1F
100
AcDbEntity
  8
1
100
AcDbLine
 10
187.4628404465624
 20
142.8134631255263
 30
0.0
 11
193.2628404465618
 21
142.8134631255263
 31
0.0
  0
LINE
  5
3BCE
330
1F
100
AcDbEntity
  8
1
100
AcDbLine
 10
194.7128402498587
 20
140.363462055866
 30
0.0
 11
190.4128402498615
 21
140.363462055866
 31
0.0
  0
LINE
  5
3BCF
330
1F
100
AcDbEntity
  8
1
100
AcDbLine
 10
194.7128402498587
 20
137.2634620558659
 30
0.0
 11
190.4128402498615
 21
137.2634620558659
 31
0.0
  0
LINE
  5
3BD0
330
1F
100
AcDbEntity
  8
1
100
AcDbLine
 10
194.7128402498587
 20
136.8634620558659
 30
0.0
 11
190.4128402498615
 21
136.8634620558659
 31
0.0
  0
LINE
  5
3BD1
330
1F
100
AcDbEntity
  8
1
100
AcDbLine
 10
193.2628404465618
 20
143.6134631255255
 30
0.0
 11
187.4628404465624
 21
143.6134631255255
 31
0.0
  0
LINE
  5
3BD2
330
1F
100
AcDbEntity
  8
1
100
AcDbLine
 10
187.4628404465624
 20
143.4134631255248
 30
0.0
 11
193.2628404465618
 21
143.4134631255248
 31
0.0
  0
LINE
  5
3BD3
330
1F
100
AcDbEntity
  8
1
100
AcDbLine
 10
191.112840293836
 20
144.5134629534249
 30
0.0
 11
190.862840252836
 21
144.2634629124251
 31
0.0
  0
LINE
  5
3BD4
330
1F
100
AcDbEntity
  8
1
100
AcDbLine
 10
191.9628402468866
 20
144.2634629124251
 30
0.0
 11
190.862840252836
 21
144.2634629124251
 31
0.0
  0
LINE
  5
3BD5
330
1F
100
AcDbEntity
  8
1
100
AcDbLine
 10
190.862840252836
 20
147.3634632343248
 30
0.0
 11
191.112840293836
 21
147.1134631933247
 31
0.0
  0
LINE
  5
3BD6
330
1F
100
AcDbEntity
  8
1
100
AcDbLine
 10
191.9628402468866
 20
148.2634631024258
 30
0.0
 11
190.862840252836
 21
148.2634631024258
 31
0.0
  0
LINE
  5
3BD7
330
1F
100
AcDbEntity
  8
1
100
AcDbLine
 10
190.862840252836
 20
147.3634632343248
 30
0.0
 11
191.9628402468866
 21
147.3634632343248
 31
0.0
  0
LINE
  5
3BD8
330
1F
100
AcDbEntity
  8
1
100
AcDbLine
 10
190.862840252836
 20
145.3634629064756
 30
0.0
 11
191.112840293836
 21
145.113463331175
 31
0.0
  0
LINE
  5
3BD9
330
1F
100
AcDbEntity
  8
1
100
AcDbLine
 10
190.862840252836
 20
146.2634632402743
 30
0.0
 11
191.112840293836
 21
146.5134632812743
 31
0.0
  0
LINE
  5
3BDA
330
1F
100
AcDbEntity
  8
1
100
AcDbLine
 10
190.862840252836
 20
145.3634629064756
 30
0.0
 11
191.9628402468866
 21
145.3634629064756
 31
0.0
  0
LINE
  5
3BDB
330
1F
100
AcDbEntity
  8
1
100
AcDbLine
 10
191.9628402468866
 20
146.2634632402743
 30
0.0
 11
190.862840252836
 21
146.2634632402743
 31
0.0
  0
LINE
  5
3BDC
330
1F
100
AcDbEntity
  8
1
100
AcDbLine
 10
190.862840252836
 20
148.2634631024258
 30
0.0
 11
191.112840293836
 21
148.5134631434259
 31
0.0
  0
LINE
  5
3BDD
330
1F
100
AcDbEntity
  8
1
100
AcDbLine
 10
194.846814846074
 20
133.763462055866
 30
0.0
 11
194.7128402498587
 21
133.763462055866
 31
0.0
  0
LINE
  5
3BDE
330
1F
100
AcDbEntity
  8
1
100
AcDbLine
 10
194.846814846074
 20
133.363462055866
 30
0.0
 11
194.7128402498587
 21
133.363462055866
 31
0.0
  0
ARC
  5
3BDF
330
1F
100
AcDbEntity
  8
1
100
AcDbCircle
 10
195.9128402498612
 20
131.8134620558659
 30
0.0
 40
1.366025403784435
100
AcDbArc
 50
141.2958169670259
 51
218.7041830329826
  0
LINE
  5
3BE0
330
1F
100
AcDbEntity
  8
1
100
AcDbLine
 10
194.846814846074
 20
129.863462055866
 30
0.0
 11
194.7128402498587
 21
129.863462055866
 31
0.0
  0
LINE
  5
3BE1
330
1F
100
AcDbEntity
  8
1
100
AcDbLine
 10
194.846814846074
 20
130.263462055866
 30
0.0
 11
194.7128402498587
 21
130.263462055866
 31
0.0
  0
ARC
  5
3BE2
330
1F
100
AcDbEntity
  8
1
100
AcDbCircle
 10
195.9128402498618
 20
128.3134620558658
 30
0.0
 40
1.366025403784717
100
AcDbArc
 50
141.2958169670334
 51
218.7041830329735
  0
LWPOLYLINE
  5
3BE3
330
1F
100
AcDbEntity
  8
1
100
AcDbPolyline
 90
        4
 70
     0
 43
0.0
 10
194.7128402498623
 20
127.4134620558692
 42
0.0019115339152481
 10
194.7798344150736
 20
127.4360775900442
 10
194.8135129952903
 20
127.447669729303
 10
194.846814846074
 20
127.4592868734444
  0
LINE
  5
3BE4
330
1F
100
AcDbEntity
  8
1
100
AcDbLine
 10
194.846814846074
 20
126.7634620558659
 30
0.0
 11
194.7128402498587
 21
126.7634620558659
 31
0.0
  0
LINE
  5
3BE5
330
1F
100
AcDbEntity
  8
1
100
AcDbLine
 10
194.846814846074
 20
126.3634620558661
 30
0.0
 11
194.7128402498587
 21
126.3634620558661
 31
0.0
  0
LINE
  5
3BE6
330
1F
100
AcDbEntity
  8
1
100
AcDbLine
 10
194.7128402498623
 20
130.9134620558692
 30
0.0
 11
194.7128402498587
 21
130.263462055866
 31
0.0
  0
LINE
  5
3BE7
330
1F
100
AcDbEntity
  8
1
100
AcDbLine
 10
193.1128402498615
 20
129.8758976211642
 30
0.0
 11
192.4128402498616
 21
130.0634620558658
 31
0.0
  0
LINE
  5
3BE8
330
1F
100
AcDbEntity
  8
1
100
AcDbLine
 10
192.4128402498616
 20
130.0634620558658
 30
0.0
 11
193.1128402498615
 21
130.2510264905677
 31
0.0
  0
CIRCLE
  5
3BE9
330
1F
100
AcDbEntity
  8
1
100
AcDbCircle
 10
192.4128402498616
 20
128.3134620558658
 30
0.0
 40
0.8000000000000007
  0
LINE
  5
3BEA
330
1F
100
AcDbEntity
  8
1
100
AcDbLine
 10
192.0128402498616
 20
128.713462055866
 30
0.0
 11
192.8128402498618
 21
128.713462055866
 31
0.0
  0
LINE
  5
3BEB
330
1F
100
AcDbEntity
  8
1
100
AcDbLine
 10
192.8128402498618
 20
127.913462055866
 30
0.0
 11
192.0128402498616
 21
127.913462055866
 31
0.0
  0
LINE
  5
3BEC
330
1F
100
AcDbEntity
  8
1
100
AcDbLine
 10
192.5448910574306
 20
128.4455128634349
 30
0.0
 11
192.8128402498618
 21
128.713462055866
 31
0.0
  0
LINE
  5
3BED
330
1F
100
AcDbEntity
  8
1
100
AcDbLine
 10
192.8128402498618
 20
127.913462055866
 30
0.0
 11
192.5448910574306
 21
128.1814112482972
 31
0.0
  0
LINE
  5
3BEE
330
1F
100
AcDbEntity
  8
1
100
AcDbLine
 10
192.4128402498616
 20
126.5634620558659
 30
0.0
 11
193.1128402498615
 21
126.7510264905677
 31
0.0
  0
LINE
  5
3BEF
330
1F
100
AcDbEntity
  8
1
100
AcDbLine
 10
193.1128402498615
 20
126.3758976211642
 30
0.0
 11
192.4128402498616
 21
126.5634620558659
 31
0.0
  0
LINE
  5
3BF0
330
1F
100
AcDbEntity
  8
1
100
AcDbLine
 10
192.0128402498616
 20
128.713462055866
 30
0.0
 11
192.2807894422929
 21
128.4455128634349
 31
0.0
  0
LINE
  5
3BF1
330
1F
100
AcDbEntity
  8
1
100
AcDbLine
 10
192.2807894422929
 20
128.1814112482972
 30
0.0
 11
192.0128402498616
 21
127.913462055866
 31
0.0
  0
LINE
  5
3BF2
330
1F
100
AcDbEntity
  8
1
100
AcDbLine
 10
192.5448910574306
 20
128.1814112482972
 30
0.0
 11
192.5448910574306
 21
128.4455128634349
 31
0.0
  0
LINE
  5
3BF3
330
1F
100
AcDbEntity
  8
1
100
AcDbLine
 10
192.2807894422929
 20
128.4455128634349
 30
0.0
 11
192.2807894422929
 21
128.1814112482972
 31
0.0
  0
LINE
  5
3BF4
330
1F
100
AcDbEntity
  8
1
100
AcDbLine
 10
192.5448910574306
 20
128.4455128634349
 30
0.0
 11
192.2807894422929
 21
128.4455128634349
 31
0.0
  0
LINE
  5
3BF5
330
1F
100
AcDbEntity
  8
1
100
AcDbLine
 10
192.2807894422929
 20
128.1814112482972
 30
0.0
 11
192.5448910574306
 21
128.1814112482972
 31
0.0
  0
LINE
  5
3BF6
330
1F
100
AcDbEntity
  8
1
100
AcDbLine
 10
192.0128402498616
 20
127.913462055866
 30
0.0
 11
192.0128402498616
 21
128.713462055866
 31
0.0
  0
LINE
  5
3BF7
330
1F
100
AcDbEntity
  8
1
100
AcDbLine
 10
194.7128402498587
 20
129.863462055866
 30
0.0
 11
194.7128402498587
 21
129.2134620558625
 31
0.0
  0
ARC
  5
3BF8
330
1F
100
AcDbEntity
  8
1
100
AcDbCircle
 10
195.9128402498618
 20
128.3134620558658
 30
0.0
 40
1.500000000000289
100
AcDbArc
 50
143.1301023543343
 51
216.8698976457561
  0
LINE
  5
3BF9
330
1F
100
AcDbEntity
  8
1
100
AcDbLine
 10
194.7128402498623
 20
127.4134620558692
 30
0.0
 11
194.7128402498587
 21
126.7634620558659
 31
0.0
  0
LINE
  5
3BFA
330
1F
100
AcDbEntity
  8
1
100
AcDbLine
 10
193.1128402498615
 20
130.2510264905677
 30
0.0
 11
193.1128402498615
 21
129.8758976211642
 31
0.0
  0
LINE
  5
3BFB
330
1F
100
AcDbEntity
  8
1
100
AcDbLine
 10
192.8128402498618
 20
128.713462055866
 30
0.0
 11
192.8128402498618
 21
127.913462055866
 31
0.0
  0
LINE
  5
3BFC
330
1F
100
AcDbEntity
  8
1
100
AcDbLine
 10
193.1128402498615
 20
126.7510264905677
 30
0.0
 11
193.1128402498615
 21
126.3758976211642
 31
0.0
  0
LINE
  5
3BFD
330
1F
100
AcDbEntity
  8
1
100
AcDbLine
 10
192.8128402498616
 20
134.913462055866
 30
0.0
 11
192.0128402498616
 21
134.913462055866
 31
0.0
  0
LINE
  5
3BFE
330
1F
100
AcDbEntity
  8
1
100
AcDbLine
 10
192.0128402498616
 20
135.7134620558658
 30
0.0
 11
192.8128402498618
 21
135.7134620558658
 31
0.0
  0
LINE
  5
3BFF
330
1F
100
AcDbEntity
  8
1
100
AcDbLine
 10
192.5448910574306
 20
135.445512863435
 30
0.0
 11
192.8128402498618
 21
135.7134620558658
 31
0.0
  0
LINE
  5
3C00
330
1F
100
AcDbEntity
  8
1
100
AcDbLine
 10
192.8128402498616
 20
134.913462055866
 30
0.0
 11
192.5448910574306
 21
135.1814112482971
 31
0.0
  0
LINE
  5
3C01
330
1F
100
AcDbEntity
  8
1
100
AcDbLine
 10
192.0128402498616
 20
135.7134620558658
 30
0.0
 11
192.2807894422929
 21
135.445512863435
 31
0.0
  0
LINE
  5
3C02
330
1F
100
AcDbEntity
  8
1
100
AcDbLine
 10
192.2807894422929
 20
135.1814112482971
 30
0.0
 11
192.0128402498616
 21
134.913462055866
 31
0.0
  0
LINE
  5
3C03
330
1F
100
AcDbEntity
  8
1
100
AcDbLine
 10
192.2807894422929
 20
135.1814112482971
 30
0.0
 11
192.5448910574306
 21
135.1814112482971
 31
0.0
  0
LINE
  5
3C04
330
1F
100
AcDbEntity
  8
1
100
AcDbLine
 10
192.2807894422929
 20
135.445512863435
 30
0.0
 11
192.2807894422929
 21
135.1814112482971
 31
0.0
  0
LINE
  5
3C05
330
1F
100
AcDbEntity
  8
1
100
AcDbLine
 10
192.5448910574306
 20
135.1814112482971
 30
0.0
 11
192.5448910574306
 21
135.445512863435
 31
0.0
  0
LINE
  5
3C06
330
1F
100
AcDbEntity
  8
1
100
AcDbLine
 10
192.5448910574306
 20
135.445512863435
 30
0.0
 11
192.2807894422929
 21
135.445512863435
 31
0.0
  0
LINE
  5
3C07
330
1F
100
AcDbEntity
  8
1
100
AcDbLine
 10
192.0128402498616
 20
134.913462055866
 30
0.0
 11
192.0128402498616
 21
135.7134620558658
 31
0.0
  0
LINE
  5
3C08
330
1F
100
AcDbEntity
  8
1
100
AcDbLine
 10
192.8128402498618
 20
135.7134620558658
 30
0.0
 11
192.8128402498616
 21
134.913462055866
 31
0.0
  0
LINE
  5
3C09
330
1F
100
AcDbEntity
  8
1
100
AcDbLine
 10
193.1128402498615
 20
133.375897621164
 30
0.0
 11
192.4128402498616
 21
133.5634620558659
 31
0.0
  0
LINE
  5
3C0A
330
1F
100
AcDbEntity
  8
1
100
AcDbLine
 10
192.4128402498616
 20
133.5634620558659
 30
0.0
 11
193.1128402498615
 21
133.7510264905678
 31
0.0
  0
LINE
  5
3C0B
330
1F
100
AcDbEntity
  8
1
100
AcDbLine
 10
192.0128402498616
 20
132.2134620558659
 30
0.0
 11
192.8128402498616
 21
132.2134620558659
 31
0.0
  0
LINE
  5
3C0C
330
1F
100
AcDbEntity
  8
1
100
AcDbLine
 10
192.5448910574306
 20
131.945512863435
 30
0.0
 11
192.8128402498616
 21
132.2134620558659
 31
0.0
  0
LINE
  5
3C0D
330
1F
100
AcDbEntity
  8
1
100
AcDbLine
 10
192.0128402498616
 20
132.2134620558659
 30
0.0
 11
192.2807894422929
 21
131.945512863435
 31
0.0
  0
LINE
  5
3C0E
330
1F
100
AcDbEntity
  8
1
100
AcDbLine
 10
192.5448910574306
 20
131.945512863435
 30
0.0
 11
192.2807894422929
 21
131.945512863435
 31
0.0
  0
LINE
  5
3C0F
330
1F
100
AcDbEntity
  8
1
100
AcDbLine
 10
194.7128402498587
 20
133.363462055866
 30
0.0
 11
194.7128402498587
 21
132.7134620558624
 31
0.0
  0
LINE
  5
3C10
330
1F
100
AcDbEntity
  8
1
100
AcDbLine
 10
193.1128402498615
 20
133.7510264905678
 30
0.0
 11
193.1128402498615
 21
133.375897621164
 31
0.0
  0
CIRCLE
  5
3C11
330
1F
100
AcDbEntity
  8
1
100
AcDbCircle
 10
192.4128402498616
 20
131.8134620558659
 30
0.0
 40
0.8000000000000111
  0
LINE
  5
3C12
330
1F
100
AcDbEntity
  8
1
100
AcDbLine
 10
192.2807894422929
 20
131.945512863435
 30
0.0
 11
192.2807894422929
 21
131.6814112482971
 31
0.0
  0
LINE
  5
3C13
330
1F
100
AcDbEntity
  8
1
100
AcDbLine
 10
192.5448910574306
 20
131.6814112482971
 30
0.0
 11
192.5448910574306
 21
131.945512863435
 31
0.0
  0
LINE
  5
3C14
330
1F
100
AcDbEntity
  8
1
100
AcDbLine
 10
192.0128402498616
 20
131.4134620558661
 30
0.0
 11
192.0128402498616
 21
132.2134620558659
 31
0.0
  0
ARC
  5
3C15
330
1F
100
AcDbEntity
  8
1
100
AcDbCircle
 10
195.9128402498612
 20
131.8134620558659
 30
0.0
 40
1.499999999999995
100
AcDbArc
 50
143.1301023543253
 51
216.8698976457651
  0
LINE
  5
3C16
330
1F
100
AcDbEntity
  8
1
100
AcDbLine
 10
192.8128402498616
 20
132.2134620558659
 30
0.0
 11
192.8128402498616
 21
131.4134620558661
 31
0.0
  0
LINE
  5
3C17
330
1F
100
AcDbEntity
  8
1
100
AcDbLine
 10
192.8128402498616
 20
131.4134620558661
 30
0.0
 11
192.0128402498616
 21
131.4134620558661
 31
0.0
  0
LINE
  5
3C18
330
1F
100
AcDbEntity
  8
1
100
AcDbLine
 10
192.8128402498616
 20
131.4134620558661
 30
0.0
 11
192.5448910574306
 21
131.6814112482971
 31
0.0
  0
LINE
  5
3C19
330
1F
100
AcDbEntity
  8
1
100
AcDbLine
 10
192.2807894422929
 20
131.6814112482971
 30
0.0
 11
192.0128402498616
 21
131.4134620558661
 31
0.0
  0
LINE
  5
3C1A
330
1F
100
AcDbEntity
  8
1
100
AcDbLine
 10
192.2807894422929
 20
131.6814112482971
 30
0.0
 11
192.5448910574306
 21
131.6814112482971
 31
0.0
  0
LINE
  5
3C1B
330
1F
100
AcDbEntity
  8
1
100
AcDbLine
 10
194.7128402498623
 20
134.4134620558691
 30
0.0
 11
194.7128402498587
 21
133.763462055866
 31
0.0
  0
LINE
  5
3C1C
330
1F
100
AcDbEntity
  8
1
100
AcDbLine
 10
194.846814846074
 20
130.263462055866
 30
0.0
 11
194.846814846074
 21
130.9592868734444
 31
0.0
  0
LINE
  5
3C1D
330
1F
100
AcDbEntity
  8
1
100
AcDbLine
 10
194.846814846074
 20
129.863462055866
 30
0.0
 11
194.846814846074
 21
129.1676372382875
 31
0.0
  0
LINE
  5
3C1E
330
1F
100
AcDbEntity
  8
1
100
AcDbLine
 10
194.846814846074
 20
126.7634620558659
 30
0.0
 11
194.846814846074
 21
127.4592868734444
 31
0.0
  0
LINE
  5
3C1F
330
1F
100
AcDbEntity
  8
1
100
AcDbLine
 10
194.846814846074
 20
133.363462055866
 30
0.0
 11
194.846814846074
 21
132.6676372382876
 31
0.0
  0
LINE
  5
3C20
330
1F
100
AcDbEntity
  8
1
100
AcDbLine
 10
194.846814846074
 20
133.763462055866
 30
0.0
 11
194.8468148460739
 21
134.4592868734442
 31
0.0
  0
LINE
  5
3C21
330
1F
100
AcDbEntity
  8
1
100
AcDbLine
 10
190.4128402498615
 20
130.263462055866
 30
0.0
 11
190.4128402498615
 21
131.4134620558661
 31
0.0
  0
LINE
  5
3C22
330
1F
100
AcDbEntity
  8
1
100
AcDbLine
 10
190.278865653646
 20
131.4134620558661
 30
0.0
 11
190.278865653646
 21
130.263462055866
 31
0.0
  0
LINE
  5
3C23
330
1F
100
AcDbEntity
  8
1
100
AcDbLine
 10
188.4128402498614
 20
130.2644239501892
 30
0.0
 11
188.4128402498614
 21
130.263462055866
 31
0.0
  0
LINE
  5
3C24
330
1F
100
AcDbEntity
  8
1
100
AcDbLine
 10
189.9428402498585
 20
128.713462055866
 30
0.0
 11
190.278865653646
 21
128.713462055866
 31
0.0
  0
LINE
  5
3C25
330
1F
100
AcDbEntity
  8
1
100
AcDbLine
 10
190.278865653646
 20
127.913462055866
 30
0.0
 11
189.9428402498585
 21
127.913462055866
 31
0.0
  0
LINE
  5
3C26
330
1F
100
AcDbEntity
  8
1
100
AcDbLine
 10
190.4128402498615
 20
128.713462055866
 30
0.0
 11
190.4128402498615
 21
129.863462055866
 31
0.0
  0
LINE
  5
3C27
330
1F
100
AcDbEntity
  8
1
100
AcDbLine
 10
190.278865653646
 20
128.713462055866
 30
0.0
 11
190.278865653646
 21
129.863462055866
 31
0.0
  0
LINE
  5
3C28
330
1F
100
AcDbEntity
  8
1
100
AcDbLine
 10
190.278865653646
 20
130.263462055866
 30
0.0
 11
190.4128402498615
 21
130.263462055866
 31
0.0
  0
LINE
  5
3C29
330
1F
100
AcDbEntity
  8
1
100
AcDbLine
 10
190.278865653646
 20
129.863462055866
 30
0.0
 11
190.4128402498615
 21
129.863462055866
 31
0.0
  0
LINE
  5
3C2A
330
1F
100
AcDbEntity
  8
1
100
AcDbLine
 10
190.4128402498615
 20
126.7634620558659
 30
0.0
 11
190.4128402498615
 21
127.913462055866
 31
0.0
  0
LINE
  5
3C2B
330
1F
100
AcDbEntity
  8
1
100
AcDbLine
 10
190.278865653646
 20
127.913462055866
 30
0.0
 11
190.278865653646
 21
126.7634620558659
 31
0.0
  0
LINE
  5
3C2C
330
1F
100
AcDbEntity
  8
1
100
AcDbLine
 10
190.4128402498615
 20
128.713462055866
 30
0.0
 11
190.278865653646
 21
128.713462055866
 31
0.0
  0
LINE
  5
3C2D
330
1F
100
AcDbEntity
  8
1
100
AcDbLine
 10
190.278865653646
 20
127.913462055866
 30
0.0
 11
190.4128402498615
 21
127.913462055866
 31
0.0
  0
LINE
  5
3C2E
330
1F
100
AcDbEntity
  8
1
100
AcDbLine
 10
190.278865653646
 20
126.7634620558659
 30
0.0
 11
190.4128402498615
 21
126.7634620558659
 31
0.0
  0
LINE
  5
3C2F
330
1F
100
AcDbEntity
  8
1
100
AcDbLine
 10
190.4128402498615
 20
126.3634620558661
 30
0.0
 11
190.278865653646
 21
126.3634620558661
 31
0.0
  0
LINE
  5
3C30
330
1F
100
AcDbEntity
  8
1
100
AcDbLine
 10
189.0628402498585
 20
128.913462055866
 30
0.0
 11
189.0628402498585
 21
129.8034620558659
 31
0.0
  0
LINE
  5
3C31
330
1F
100
AcDbEntity
  8
1
100
AcDbLine
 10
189.7428402498584
 20
129.568462055866
 30
0.0
 11
189.0628402498585
 21
129.8034620558659
 31
0.0
  0
LINE
  5
3C32
330
1F
100
AcDbEntity
  8
1
100
AcDbLine
 10
188.4128402498614
 20
129.8625001615427
 30
0.0
 11
188.4128402498614
 21
126.7644239501893
 31
0.0
  0
LINE
  5
3C33
330
1F
100
AcDbEntity
  8
1
100
AcDbLine
 10
188.5128402498611
 20
130.263462055866
 30
0.0
 11
188.4128402498614
 21
130.263462055866
 31
0.0
  0
LINE
  5
3C34
330
1F
100
AcDbEntity
  8
1
100
AcDbLine
 10
188.5128402498611
 20
129.863462055866
 30
0.0
 11
188.4128402498614
 21
129.863462055866
 31
0.0
  0
LINE
  5
3C35
330
1F
100
AcDbEntity
  8
1
100
AcDbLine
 10
188.4128402498614
 20
129.863462055866
 30
0.0
 11
188.4128402498614
 21
129.8625001615427
 31
0.0
  0
LINE
  5
3C36
330
1F
100
AcDbEntity
  8
1
100
AcDbLine
 10
188.4128402498614
 20
130.263462055866
 30
0.0
 11
188.4128402498614
 21
130.0634620558658
 31
0.0
  0
LINE
  5
3C37
330
1F
100
AcDbEntity
  8
1
100
AcDbLine
 10
188.4128402498614
 20
130.0634620558658
 30
0.0
 11
188.4128402498614
 21
129.863462055866
 31
0.0
  0
ARC
  5
3C38
330
1F
100
AcDbEntity
  8
1
100
AcDbCircle
 10
189.9428402498585
 20
127.713462055866
 30
0.0
 40
0.2000000000000011
100
AcDbArc
 50
90.0
 51
180.0
  0
LINE
  5
3C39
330
1F
100
AcDbEntity
  8
1
100
AcDbLine
 10
189.0628402498585
 20
127.713462055866
 30
0.0
 11
189.0628402498585
 21
128.3134620558658
 31
0.0
  0
LINE
  5
3C3A
330
1F
100
AcDbEntity
  8
1
100
AcDbLine
 10
189.7428402498584
 20
128.3134620558658
 30
0.0
 11
189.7428402498585
 21
127.713462055866
 31
0.0
  0
ARC
  5
3C3B
330
1F
100
AcDbEntity
  8
1
100
AcDbCircle
 10
189.9428402498585
 20
128.913462055866
 30
0.0
 40
0.2000000000000206
100
AcDbArc
 50
180.0
 51
270.0
  0
LINE
  5
3C3C
330
1F
100
AcDbEntity
  8
1
100
AcDbLine
 10
189.0628402498585
 20
128.3134620558658
 30
0.0
 11
189.0628402498585
 21
128.913462055866
 31
0.0
  0
LINE
  5
3C3D
330
1F
100
AcDbEntity
  8
1
100
AcDbLine
 10
189.7428402498584
 20
128.913462055866
 30
0.0
 11
189.7428402498584
 21
128.3134620558658
 31
0.0
  0
LINE
  5
3C3E
330
1F
100
AcDbEntity
  8
1
100
AcDbLine
 10
189.7428402498584
 20
129.568462055866
 30
0.0
 11
189.7428402498584
 21
128.913462055866
 31
0.0
  0
LINE
  5
3C3F
330
1F
100
AcDbEntity
  8
1
100
AcDbLine
 10
189.0628402498585
 20
126.8234620558658
 30
0.0
 11
189.7428402498584
 21
127.0584620558659
 31
0.0
  0
LINE
  5
3C40
330
1F
100
AcDbEntity
  8
1
100
AcDbLine
 10
189.7428402498585
 20
127.713462055866
 30
0.0
 11
189.7428402498584
 21
127.0584620558659
 31
0.0
  0
LINE
  5
3C41
330
1F
100
AcDbEntity
  8
1
100
AcDbLine
 10
189.0628402498585
 20
126.8234620558658
 30
0.0
 11
189.0628402498585
 21
127.713462055866
 31
0.0
  0
LINE
  5
3C42
330
1F
100
AcDbEntity
  8
1
100
AcDbLine
 10
189.0628402498587
 20
126.3034620558662
 30
0.0
 11
189.7428402498585
 21
126.0684620558661
 31
0.0
  0
LINE
  5
3C43
330
1F
100
AcDbEntity
  8
1
100
AcDbLine
 10
188.4128402498614
 20
126.7634620558659
 30
0.0
 11
188.4128402498614
 21
126.5634620558659
 31
0.0
  0
LINE
  5
3C44
330
1F
100
AcDbEntity
  8
1
100
AcDbLine
 10
188.5128402498611
 20
126.7634620558659
 30
0.0
 11
188.4128402498614
 21
126.7634620558659
 31
0.0
  0
LINE
  5
3C45
330
1F
100
AcDbEntity
  8
1
100
AcDbLine
 10
188.4128402498614
 20
126.7644239501893
 30
0.0
 11
188.4128402498614
 21
126.7634620558659
 31
0.0
  0
LINE
  5
3C46
330
1F
100
AcDbEntity
  8
1
100
AcDbLine
 10
188.5128402498611
 20
126.3634620558661
 30
0.0
 11
188.4128402498614
 21
126.3634620558661
 31
0.0
  0
LINE
  5
3C47
330
1F
100
AcDbEntity
  8
1
100
AcDbLine
 10
188.4128402498614
 20
126.3634620558661
 30
0.0
 11
188.4128402498614
 21
126.3625001615425
 31
0.0
  0
LINE
  5
3C48
330
1F
100
AcDbEntity
  8
1
100
AcDbLine
 10
188.4128402498614
 20
126.5634620558659
 30
0.0
 11
188.4128402498614
 21
126.3634620558661
 31
0.0
  0
LINE
  5
3C49
330
1F
100
AcDbEntity
  8
1
100
AcDbLine
 10
188.5128402498611
 20
133.763462055866
 30
0.0
 11
188.4128402498614
 21
133.763462055866
 31
0.0
  0
LINE
  5
3C4A
330
1F
100
AcDbEntity
  8
1
100
AcDbLine
 10
188.4128402498614
 20
133.7644239501893
 30
0.0
 11
188.4128402498614
 21
133.763462055866
 31
0.0
  0
LINE
  5
3C4B
330
1F
100
AcDbEntity
  8
1
100
AcDbLine
 10
188.4128402498614
 20
133.763462055866
 30
0.0
 11
188.4128402498614
 21
133.5634620558659
 31
0.0
  0
LINE
  5
3C4C
330
1F
100
AcDbEntity
  8
1
100
AcDbLine
 10
189.9428402498585
 20
132.2134620558659
 30
0.0
 11
190.278865653646
 21
132.2134620558659
 31
0.0
  0
LINE
  5
3C4D
330
1F
100
AcDbEntity
  8
1
100
AcDbLine
 10
190.278865653646
 20
132.2134620558659
 30
0.0
 11
190.278865653646
 21
133.363462055866
 31
0.0
  0
LINE
  5
3C4E
330
1F
100
AcDbEntity
  8
1
100
AcDbLine
 10
190.4128402498615
 20
132.2134620558659
 30
0.0
 11
190.4128402498615
 21
133.363462055866
 31
0.0
  0
LINE
  5
3C4F
330
1F
100
AcDbEntity
  8
1
100
AcDbLine
 10
190.278865653646
 20
133.363462055866
 30
0.0
 11
190.4128402498615
 21
133.363462055866
 31
0.0
  0
LINE
  5
3C50
330
1F
100
AcDbEntity
  8
1
100
AcDbLine
 10
190.278865653646
 20
132.2134620558659
 30
0.0
 11
190.4128402498615
 21
132.2134620558659
 31
0.0
  0
LINE
  5
3C51
330
1F
100
AcDbEntity
  8
1
100
AcDbLine
 10
189.7428402498584
 20
133.0684620558659
 30
0.0
 11
189.7428402498584
 21
132.4134620558661
 31
0.0
  0
LINE
  5
3C52
330
1F
100
AcDbEntity
  8
1
100
AcDbLine
 10
189.0628402498585
 20
132.4134620558661
 30
0.0
 11
189.0628402498585
 21
133.3034620558659
 31
0.0
  0
LINE
  5
3C53
330
1F
100
AcDbEntity
  8
1
100
AcDbLine
 10
189.7428402498584
 20
133.0684620558659
 30
0.0
 11
189.0628402498585
 21
133.3034620558659
 31
0.0
  0
ARC
  5
3C54
330
1F
100
AcDbEntity
  8
1
100
AcDbCircle
 10
189.9428402498585
 20
132.4134620558661
 30
0.0
 40
0.2000000000000206
100
AcDbArc
 50
180.0
 51
270.0
  0
LINE
  5
3C55
330
1F
100
AcDbEntity
  8
1
100
AcDbLine
 10
188.5128402498611
 20
133.363462055866
 30
0.0
 11
188.4128402498614
 21
133.363462055866
 31
0.0
  0
LINE
  5
3C56
330
1F
100
AcDbEntity
  8
1
100
AcDbLine
 10
188.4128402498614
 20
133.363462055866
 30
0.0
 11
188.4128402498614
 21
133.3625001615425
 31
0.0
  0
LINE
  5
3C57
330
1F
100
AcDbEntity
  8
1
100
AcDbLine
 10
188.4128402498614
 20
133.3625001615425
 30
0.0
 11
188.4128402498614
 21
130.2644239501892
 31
0.0
  0
LINE
  5
3C58
330
1F
100
AcDbEntity
  8
1
100
AcDbLine
 10
189.7428402498584
 20
132.4134620558661
 30
0.0
 11
189.7428402498584
 21
131.8134620558659
 31
0.0
  0
LINE
  5
3C59
330
1F
100
AcDbEntity
  8
1
100
AcDbLine
 10
189.0628402498585
 20
131.8134620558659
 30
0.0
 11
189.0628402498585
 21
132.4134620558661
 31
0.0
  0
LINE
  5
3C5A
330
1F
100
AcDbEntity
  8
1
100
AcDbLine
 10
190.278865653646
 20
131.4134620558661
 30
0.0
 11
189.9428402498585
 21
131.4134620558661
 31
0.0
  0
LINE
  5
3C5B
330
1F
100
AcDbEntity
  8
1
100
AcDbLine
 10
190.278865653646
 20
131.4134620558661
 30
0.0
 11
190.4128402498615
 21
131.4134620558661
 31
0.0
  0
LINE
  5
3C5C
330
1F
100
AcDbEntity
  8
1
100
AcDbLine
 10
189.7428402498584
 20
131.8134620558659
 30
0.0
 11
189.7428402498584
 21
131.2134620558659
 31
0.0
  0
LINE
  5
3C5D
330
1F
100
AcDbEntity
  8
1
100
AcDbLine
 10
189.0628402498585
 20
131.2134620558659
 30
0.0
 11
189.0628402498585
 21
131.8134620558659
 31
0.0
  0
LINE
  5
3C5E
330
1F
100
AcDbEntity
  8
1
100
AcDbLine
 10
189.7428402498584
 20
131.2134620558659
 30
0.0
 11
189.7428402498584
 21
130.5584620558657
 31
0.0
  0
LINE
  5
3C5F
330
1F
100
AcDbEntity
  8
1
100
AcDbLine
 10
189.0628402498585
 20
130.3234620558658
 30
0.0
 11
189.0628402498585
 21
131.2134620558659
 31
0.0
  0
ARC
  5
3C60
330
1F
100
AcDbEntity
  8
1
100
AcDbCircle
 10
189.9428402498585
 20
131.2134620558659
 30
0.0
 40
0.2000000000000011
100
AcDbArc
 50
90.0
 51
180.0
  0
LINE
  5
3C61
330
1F
100
AcDbEntity
  8
1
100
AcDbLine
 10
189.0628402498585
 20
130.3234620558658
 30
0.0
 11
189.7428402498584
 21
130.5584620558657
 31
0.0
  0
LINE
  5
3C62
330
1F
100
AcDbEntity
  8
1
100
AcDbLine
 10
190.278865653646
 20
134.913462055866
 30
0.0
 11
190.278865653646
 21
133.763462055866
 31
0.0
  0
LINE
  5
3C63
330
1F
100
AcDbEntity
  8
1
100
AcDbLine
 10
190.4128402498615
 20
133.763462055866
 30
0.0
 11
190.4128402498615
 21
134.913462055866
 31
0.0
  0
LINE
  5
3C64
330
1F
100
AcDbEntity
  8
1
100
AcDbLine
 10
189.7428402498585
 20
134.7134620558658
 30
0.0
 11
189.7428402498584
 21
134.0584620558659
 31
0.0
  0
LINE
  5
3C65
330
1F
100
AcDbEntity
  8
1
100
AcDbLine
 10
189.0628402498585
 20
133.8234620558658
 30
0.0
 11
189.0628402498585
 21
134.7134620558658
 31
0.0
  0
LINE
  5
3C66
330
1F
100
AcDbEntity
  8
1
100
AcDbLine
 10
190.278865653646
 20
134.913462055866
 30
0.0
 11
189.9428402498585
 21
134.913462055866
 31
0.0
  0
LINE
  5
3C67
330
1F
100
AcDbEntity
  8
1
100
AcDbLine
 10
189.9428402498585
 20
135.7134620558658
 30
0.0
 11
190.278865653646
 21
135.7134620558658
 31
0.0
  0
LINE
  5
3C68
330
1F
100
AcDbEntity
  8
1
100
AcDbLine
 10
190.278865653646
 20
135.7134620558658
 30
0.0
 11
190.4128402498615
 21
135.7134620558658
 31
0.0
  0
LINE
  5
3C69
330
1F
100
AcDbEntity
  8
1
100
AcDbLine
 10
190.4128402498615
 20
134.913462055866
 30
0.0
 11
190.278865653646
 21
134.913462055866
 31
0.0
  0
LINE
  5
3C6A
330
1F
100
AcDbEntity
  8
1
100
AcDbLine
 10
189.7428402498584
 20
135.913462055866
 30
0.0
 11
189.7428402498584
 21
135.3134620558658
 31
0.0
  0
LINE
  5
3C6B
330
1F
100
AcDbEntity
  8
1
100
AcDbLine
 10
189.0628402498585
 20
135.3134620558658
 30
0.0
 11
189.0628402498585
 21
135.913462055866
 31
0.0
  0
ARC
  5
3C6C
330
1F
100
AcDbEntity
  8
1
100
AcDbCircle
 10
189.9428402498585
 20
135.913462055866
 30
0.0
 40
0.2000000000000206
100
AcDbArc
 50
180.0
 51
270.0
  0
ARC
  5
3C6D
330
1F
100
AcDbEntity
  8
1
100
AcDbCircle
 10
189.9428402498585
 20
134.7134620558658
 30
0.0
 40
0.2000000000000002
100
AcDbArc
 50
90.0
 51
180.0
  0
LINE
  5
3C6E
330
1F
100
AcDbEntity
  8
1
100
AcDbLine
 10
189.7428402498584
 20
135.3134620558658
 30
0.0
 11
189.7428402498585
 21
134.7134620558658
 31
0.0
  0
LINE
  5
3C6F
330
1F
100
AcDbEntity
  8
1
100
AcDbLine
 10
189.0628402498585
 20
134.7134620558658
 30
0.0
 11
189.0628402498585
 21
135.3134620558658
 31
0.0
  0
LINE
  5
3C70
330
1F
100
AcDbEntity
  8
1
100
AcDbLine
 10
188.4128402498614
 20
133.5634620558659
 30
0.0
 11
188.4128402498614
 21
133.363462055866
 31
0.0
  0
LINE
  5
3C71
330
1F
100
AcDbEntity
  8
1
100
AcDbLine
 10
190.278865653646
 20
133.763462055866
 30
0.0
 11
190.4128402498615
 21
133.763462055866
 31
0.0
  0
LINE
  5
3C72
330
1F
100
AcDbEntity
  8
1
100
AcDbLine
 10
189.0628402498585
 20
133.8234620558658
 30
0.0
 11
189.7428402498584
 21
134.0584620558659
 31
0.0
  0
LINE
  5
3C73
330
1F
100
AcDbEntity
  8
1
100
AcDbLine
 10
194.7128402498587
 20
130.263462055866
 30
0.0
 11
190.4128402498615
 21
130.263462055866
 31
0.0
  0
LINE
  5
3C74
330
1F
100
AcDbEntity
  8
1
100
AcDbLine
 10
194.7128402498587
 20
129.863462055866
 30
0.0
 11
190.4128402498615
 21
129.863462055866
 31
0.0
  0
LINE
  5
3C75
330
1F
100
AcDbEntity
  8
1
100
AcDbLine
 10
194.7128402498587
 20
126.7634620558659
 30
0.0
 11
190.4128402498615
 21
126.7634620558659
 31
0.0
  0
LINE
  5
3C76
330
1F
100
AcDbEntity
  8
1
100
AcDbLine
 10
194.7128402498587
 20
126.3634620558661
 30
0.0
 11
190.4128402498615
 21
126.3634620558661
 31
0.0
  0
LINE
  5
3C77
330
1F
100
AcDbEntity
  8
1
100
AcDbLine
 10
194.7128402498587
 20
133.763462055866
 30
0.0
 11
190.4128402498615
 21
133.763462055866
 31
0.0
  0
LINE
  5
3C78
330
1F
100
AcDbEntity
  8
1
100
AcDbLine
 10
194.7128402498587
 20
133.363462055866
 30
0.0
 11
190.4128402498615
 21
133.363462055866
 31
0.0
  0
ARC
  5
3C79
330
1F
100
AcDbEntity
  8
1
100
AcDbCircle
 10
195.9128402498618
 20
135.3134620558658
 30
0.0
 40
1.366025403784725
100
AcDbArc
 50
141.2958169670334
 51
218.7041830329667
  0
LINE
  5
3C7A
330
1F
100
AcDbEntity
  8
1
100
AcDbLine
 10
188.4128402498614
 20
136.8625001615427
 30
0.0
 11
188.4128402498614
 21
133.7644239501893
 31
0.0
  0
LINE
  5
3C7B
330
1F
100
AcDbEntity
  8
1
100
AcDbLine
 10
190.278865653646
 20
135.7134620558658
 30
0.0
 11
190.278865653646
 21
136.8634620558659
 31
0.0
  0
LINE
  5
3C7C
330
1F
100
AcDbEntity
  8
1
100
AcDbLine
 10
190.4128402498615
 20
135.7134620558658
 30
0.0
 11
190.4128402498615
 21
136.8634620558659
 31
0.0
  0
LINE
  5
3C7D
330
1F
100
AcDbEntity
  8
1
100
AcDbLine
 10
189.0628402498585
 20
135.913462055866
 30
0.0
 11
189.0628402498585
 21
136.8034620558659
 31
0.0
  0
LINE
  5
3C7E
330
1F
100
AcDbEntity
  8
1
100
AcDbLine
 10
189.7428402498584
 20
136.5684620558661
 30
0.0
 11
189.7428402498584
 21
135.913462055866
 31
0.0
  0
CIRCLE
  5
3C7F
330
1F
100
AcDbEntity
  8
1
100
AcDbCircle
 10
192.4128402498616
 20
135.3134620558658
 30
0.0
 40
0.8000000000000007
  0
ARC
  5
3C80
330
1F
100
AcDbEntity
  8
1
100
AcDbCircle
 10
195.9128402498618
 20
135.3134620558658
 30
0.0
 40
1.500000000000764
100
AcDbArc
 50
143.1301023542837
 51
216.8698976457561
  0
LINE
  5
3C81
330
1F
100
AcDbEntity
  8
1
100
AcDbLine
 10
183.2128406713
 20
142.313463190682
 30
0.0
 11
186.9128385977894
 21
142.3134630474964
 31
0.0
  0
LINE
  5
3C82
330
1F
100
AcDbEntity
  8
1
100
AcDbLine
 10
184.9128402498594
 20
145.5134629094511
 30
0.0
 11
184.9128402498594
 21
142.8134628394229
 31
0.0
  0
ARC
  5
3C83
330
1F
100
AcDbEntity
  8
1
100
AcDbCircle
 10
186.2128404689086
 20
144.3134631255244
 30
0.0
 40
0.3000000000000682
100
AcDbArc
 50
90.0
 51
180.0
  0
LINE
  5
3C84
330
1F
100
AcDbEntity
  8
1
100
AcDbLine
 10
186.2128404689086
 20
144.8134631255244
 30
0.0
 11
186.2128404689086
 21
144.6134631255235
 31
0.0
  0
LINE
  5
3C85
330
1F
100
AcDbEntity
  8
1
100
AcDbLine
 10
185.9128404689094
 20
143.913463125523
 30
0.0
 11
185.9128404689094
 21
144.3134631255244
 31
0.0
  0
ARC
  5
3C86
330
1F
100
AcDbEntity
  8
1
100
AcDbCircle
 10
186.2128404689086
 20
143.913463125523
 30
0.0
 40
0.3000000000000114
100
AcDbArc
 50
180.0
 51
270.0
  0
LINE
  5
3C87
330
1F
100
AcDbEntity
  8
1
100
AcDbLine
 10
186.2128404689086
 20
143.413463125523
 30
0.0
 11
186.2128404689086
 21
143.6134631255235
 31
0.0
  0
LINE
  5
3C88
330
1F
100
AcDbEntity
  8
1
100
AcDbLine
 10
186.2128404689086
 20
144.6134631255235
 30
0.0
 11
186.4128403520504
 21
144.6134632152872
 31
0.0
  0
LINE
  5
3C89
330
1F
100
AcDbEntity
  8
1
100
AcDbLine
 10
186.2128404689086
 20
144.8134631255244
 30
0.0
 11
186.4128403468481
 21
144.8134631555705
 31
0.0
  0
LINE
  5
3C8A
330
1F
100
AcDbEntity
  8
1
100
AcDbLine
 10
185.7128404689088
 20
143.913463125523
 30
0.0
 11
185.7128404689088
 21
144.3134631255244
 31
0.0
  0
ARC
  5
3C8B
330
1F
100
AcDbEntity
  8
1
100
AcDbCircle
 10
186.2128404689086
 20
144.3134631255244
 30
0.0
 40
0.4999999999999716
100
AcDbArc
 50
90.0
 51
180.0
  0
LINE
  5
3C8C
330
1F
100
AcDbEntity
  8
1
100
AcDbLine
 10
185.9128404689094
 20
143.913463125523
 30
0.0
 11
185.7128404689088
 21
143.913463125523
 31
0.0
  0
ARC
  5
3C8D
330
1F
100
AcDbEntity
  8
1
100
AcDbCircle
 10
186.2128404689086
 20
143.913463125523
 30
0.0
 40
0.4999999999999716
100
AcDbArc
 50
180.0
 51
270.0
  0
LINE
  5
3C8E
330
1F
100
AcDbEntity
  8
1
100
AcDbLine
 10
185.7128404689088
 20
144.3134631255244
 30
0.0
 11
185.9128404689094
 21
144.3134631255244
 31
0.0
  0
LINE
  5
3C8F
330
1F
100
AcDbEntity
  8
1
100
AcDbLine
 10
184.9128402498594
 20
145.5134629094511
 30
0.0
 11
185.7128402498588
 21
145.5134629094511
 31
0.0
  0
LINE
  5
3C90
330
1F
100
AcDbEntity
  8
1
100
AcDbLine
 10
187.4628404689088
 20
143.6134631255235
 30
0.0
 11
186.2128404689086
 21
143.6134631255235
 31
0.0
  0
LINE
  5
3C91
330
1F
100
AcDbEntity
  8
1
100
AcDbLine
 10
187.6628404689094
 20
143.413463125523
 30
0.0
 11
186.2128404689086
 21
143.413463125523
 31
0.0
  0
LINE
  5
3C92
330
1F
100
AcDbEntity
  8
1
100
AcDbLine
 10
184.9128402498594
 20
142.8134628394229
 30
0.0
 11
187.6628404689094
 21
142.8134631255244
 31
0.0
  0
LINE
  5
3C93
330
1F
100
AcDbEntity
  8
1
100
AcDbLine
 10
194.0628404465629
 20
142.8134631255263
 30
0.0
 11
195.4128402498614
 21
142.8134628394245
 31
0.0
  0
LINE
  5
3C94
330
1F
100
AcDbEntity
  8
1
100
AcDbLine
 10
195.4128402498616
 20
141.263462055866
 30
0.0
 11
188.1628402498614
 21
141.263462055866
 31
0.0
  0
LINE
  5
3C95
330
1F
100
AcDbEntity
  8
1
100
AcDbLine
 10
195.2128405896115
 20
145.5134631173234
 30
0.0
 11
194.6128406775629
 21
145.5134631173234
 31
0.0
  0
LINE
  5
3C96
330
1F
100
AcDbEntity
  8
1
100
AcDbLine
 10
186.4128462025823
 20
167.0134634004163
 30
0.0
 11
186.41284003788
 21
144.6134632152872
 31
0.0
  0
LINE
  5
3C97
330
1F
100
AcDbEntity
  8
1
100
AcDbLine
 10
185.7128402498588
 20
145.5134629094511
 30
0.0
 11
185.7128402498588
 21
166.1134635898481
 31
0.0
  0
LINE
  5
3C98
330
1F
100
AcDbEntity
  8
1
100
AcDbLine
 10
194.4128405516135
 20
166.1134634983764
 30
0.0
 11
194.4128405516135
 21
145.5134631173234
 31
0.0
  0
LINE
  5
3C99
330
1F
100
AcDbEntity
  8
1
100
AcDbLine
 10
189.162840208885
 20
148.5634630584747
 30
0.0
 11
189.162840208885
 21
149.0634631404238
 31
0.0
  0
LINE
  5
3C9A
330
1F
100
AcDbEntity
  8
1
100
AcDbLine
 10
189.6628401939856
 20
148.5634631255244
 30
0.0
 11
189.6628401939856
 21
149.0634631255244
 31
0.0
  0
LINE
  5
3C9B
330
1F
100
AcDbEntity
  8
1
100
AcDbLine
 10
189.112840293836
 20
149.1134630554744
 30
0.0
 11
189.112840293836
 21
148.5134631434259
 31
0.0
  0
LINE
  5
3C9C
330
1F
100
AcDbEntity
  8
1
100
AcDbLine
 10
189.7128402059356
 20
149.1134630554744
 30
0.0
 11
189.7128402059356
 21
148.5134631434259
 31
0.0
  0
LINE
  5
3C9D
330
1F
100
AcDbEntity
  8
1
100
AcDbLine
 10
188.862840252836
 20
148.2634631024258
 30
0.0
 11
188.862840252836
 21
149.3634630964745
 31
0.0
  0
LINE
  5
3C9E
330
1F
100
AcDbEntity
  8
1
100
AcDbLine
 10
189.9628402468866
 20
149.3634630964745
 30
0.0
 11
189.9628402468866
 21
148.2634631024258
 31
0.0
  0
LINE
  5
3C9F
330
1F
100
AcDbEntity
  8
1
100
AcDbLine
 10
191.1628402088885
 20
148.5634630584747
 30
0.0
 11
191.1628402088885
 21
149.0634631404238
 31
0.0
  0
LINE
  5
3CA0
330
1F
100
AcDbEntity
  8
1
100
AcDbLine
 10
191.662840305737
 20
148.5634631255244
 30
0.0
 11
191.662840305737
 21
149.0634631255244
 31
0.0
  0
LINE
  5
3CA1
330
1F
100
AcDbEntity
  8
1
100
AcDbLine
 10
191.7128402059375
 20
149.1134630554744
 30
0.0
 11
191.7128402059375
 21
148.5134631434259
 31
0.0
  0
LINE
  5
3CA2
330
1F
100
AcDbEntity
  8
1
100
AcDbLine
 10
191.112840293836
 20
148.5134631434259
 30
0.0
 11
191.112840293836
 21
149.1134630554744
 31
0.0
  0
LINE
  5
3CA3
330
1F
100
AcDbEntity
  8
1
100
AcDbLine
 10
191.9628402468866
 20
149.3634630964745
 30
0.0
 11
191.9628402468866
 21
148.2634631024258
 31
0.0
  0
LINE
  5
3CA4
330
1F
100
AcDbEntity
  8
1
100
AcDbLine
 10
190.862840252836
 20
148.2634631024258
 30
0.0
 11
190.862840252836
 21
149.3634630964745
 31
0.0
  0
LINE
  5
3CA5
330
1F
100
AcDbEntity
  8
1
100
AcDbLine
 10
195.21284007248
 20
166.1134622105809
 30
0.0
 11
195.2128405896115
 21
145.5134631173234
 31
0.0
  0
LINE
  5
3CA6
330
1F
100
AcDbEntity
  8
1
  6
CONTINUOUS
100
AcDbLine
 10
252.1724715089796
 20
106.313462771381
 30
0.0
 11
262.1724715089797
 21
106.3134627713812
 31
0.0
  0
LINE
  5
3CA7
330
1F
100
AcDbEntity
  8
1
  6
CONTINUOUS
100
AcDbLine
 10
252.1724715089796
 20
107.3184104349589
 30
0.0
 11
252.1724715089796
 21
106.313462771381
 31
0.0
  0
LINE
  5
3CA8
330
1F
100
AcDbEntity
  8
1
  6
CONTINUOUS
100
AcDbLine
 10
252.1724715089796
 20
107.3184104349589
 30
0.0
 11
252.1724715039794
 21
108.3083608851321
 31
0.0
  0
LINE
  5
3CA9
330
1F
100
AcDbEntity
  8
1
  6
CONTINUOUS
100
AcDbLine
 10
262.1724715089793
 20
107.3184104349589
 30
0.0
 11
262.1724715089797
 21
106.3134627713812
 31
0.0
  0
LINE
  5
3CAA
330
1F
100
AcDbEntity
  8
1
  6
CONTINUOUS
100
AcDbLine
 10
262.1724715089793
 20
107.3184104349589
 30
0.0
 11
262.1724715089793
 21
108.3083608851322
 31
0.0
  0
ARC
  5
3CAB
330
1F
100
AcDbEntity
  8
1
  6
CONTINUOUS
100
AcDbCircle
 10
202.5128402585055
 20
204.3185647473009
 30
0.0
 40
1.000000000000073
100
AcDbArc
 50
0.0
 51
81.87030442976254
  0
ARC
  5
3CB2
330
1F
100
AcDbEntity
  8
1
100
AcDbCircle
 10
200.8128406360929
 20
203.0448353729402
 30
0.0
 40
1.199999999999999
100
AcDbArc
 50
359.9999997650741
 51
82.84846834703682
  0
ARC
  5
3CB3
330
1F
100
AcDbEntity
  8
1
  6
CONTINUOUS
100
AcDbCircle
 10
201.1128402634053
 20
203.3083710507455
 30
0.0
 40
1.000000000000055
100
AcDbArc
 50
0.0
 51
82.6879783514166
  0
LINE
  5
3CC6
330
1F
100
AcDbEntity
  8
1
100
AcDbLine
 10
194.2128402498614
 20
199.3134628227628
 30
0.0
 11
194.2128402498614
 21
200.9134628227628
 31
0.0
  0
LINE
  5
3CD9
330
1F
100
AcDbEntity
  8
1
100
AcDbLine
 10
195.212840647537
 20
201.2134648338942
 30
0.0
 11
193.5128410016963
 21
201.2134648338942
 31
0.0
  0
LINE
  5
3CDA
330
1F
100
AcDbEntity
  8
1
100
AcDbLine
 10
194.2128402498614
 20
200.9134628227628
 30
0.0
 11
195.2128402487666
 21
200.9134628227628
 31
0.0
  0
LINE
  5
3CDB
330
1F
100
AcDbEntity
  8
1
100
AcDbLine
 10
195.2128402487666
 20
199.3134628227628
 30
0.0
 11
194.2128402498614
 21
199.3134628227628
 31
0.0
  0
ARC
  5
3CE8
330
1F
100
AcDbEntity
  8
1
100
AcDbCircle
 10
188.912839272724
 20
191.7134630692541
 30
0.0
 40
4.099999999999997
100
AcDbArc
 50
322.4281306803018
 51
37.57186931969799
  0
LINE
  5
3CE9
330
1F
100
AcDbEntity
  8
1
100
AcDbLine
 10
191.212839272724
 20
189.2134630692541
 30
0.0
 11
192.1624546345785
 21
189.2134630692541
 31
0.0
  0
LINE
  5
3CEA
330
1F
100
AcDbEntity
  8
1
100
AcDbLine
 10
191.212839272724
 20
188.3193505195586
 30
0.0
 11
191.212839272724
 21
189.2134630692541
 31
0.0
  0
LINE
  5
3CEB
330
1F
100
AcDbEntity
  8
1
100
AcDbLine
 10
191.212839272724
 20
194.2134630692541
 30
0.0
 11
192.1624546345785
 21
194.2134630692541
 31
0.0
  0
LINE
  5
3CEC
330
1F
100
AcDbEntity
  8
1
100
AcDbLine
 10
191.212839272724
 20
194.2134630692541
 30
0.0
 11
191.212839272724
 21
195.1075756189495
 31
0.0
  0
LINE
  5
3CED
330
1F
100
AcDbEntity
  8
1
100
AcDbLine
 10
193.2628404465618
 20
182.7134641266249
 30
0.0
 11
193.2628404465618
 21
182.1134641266263
 31
0.0
  0
LINE
  5
3CEE
330
1F
100
AcDbEntity
  8
1
100
AcDbLine
 10
194.0628404465629
 20
182.7134641266249
 30
0.0
 11
194.0628404465629
 21
182.1134641266263
 31
0.0
  0
LINE
  5
3CEF
330
1F
100
AcDbEntity
  8
1
100
AcDbLine
 10
194.0628404465629
 20
182.1134641266263
 30
0.0
 11
193.2628404465618
 21
182.1134641266263
 31
0.0
  0
LINE
  5
3CF0
330
1F
100
AcDbEntity
  8
1
100
AcDbLine
 10
194.0628404465629
 20
182.1134641266263
 30
0.0
 11
194.6128406775629
 21
182.1134645006759
 31
0.0
  0
LINE
  5
3CF1
330
1F
100
AcDbEntity
  8
1
100
AcDbLine
 10
193.2628404465618
 20
182.7134641266249
 30
0.0
 11
194.0628404465629
 21
182.7134641266249
 31
0.0
  0
LINE
  5
3CF2
330
1F
100
AcDbEntity
  8
1
100
AcDbLine
 10
187.4628404465624
 20
182.7134641266249
 30
0.0
 11
187.4628404465624
 21
182.1134641266263
 31
0.0
  0
LINE
  5
3CF3
330
1F
100
AcDbEntity
  8
1
100
AcDbLine
 10
187.4628404465624
 20
182.7134641266249
 30
0.0
 11
193.2628404465618
 21
182.7134641266249
 31
0.0
  0
LINE
  5
3CF4
330
1F
100
AcDbEntity
  8
1
100
AcDbLine
 10
187.4628404465624
 20
182.1134641266263
 30
0.0
 11
193.2628404465618
 21
182.1134641266263
 31
0.0
  0
LINE
  5
3CF6
330
1F
100
AcDbEntity
  8
1
100
AcDbLine
 10
186.212839272724
 20
192.6134630692541
 30
0.0
 11
184.9128392727239
 21
192.6134630692541
 31
0.0
  0
LINE
  5
3CF7
330
1F
100
AcDbEntity
  8
1
100
AcDbLine
 10
186.212839272724
 20
190.8134630692541
 30
0.0
 11
184.9128392727239
 21
190.8134630692541
 31
0.0
  0
LINE
  5
3CF8
330
1F
100
AcDbEntity
  8
1
100
AcDbLine
 10
186.212839272724
 20
192.6134630692541
 30
0.0
 11
186.212839272724
 21
190.813463069254
 31
0.0
  0
LINE
  5
3CFF
330
1F
100
AcDbEntity
  8
1
100
AcDbLine
 10
182.6128392727239
 20
193.3134630692542
 30
0.0
 11
182.6128392727239
 21
190.1134630692541
 31
0.0
  0
LINE
  5
3D00
330
1F
100
AcDbEntity
  8
1
100
AcDbLine
 10
183.9128402275133
 20
182.7134644127265
 30
0.0
 11
186.6628404465633
 21
182.7134641266249
 31
0.0
  0
LINE
  5
3D01
330
1F
100
AcDbEntity
  8
1
100
AcDbLine
 10
185.2128404465624
 20
182.1134641266263
 30
0.0
 11
186.6628404465633
 21
182.1134641266263
 31
0.0
  0
LINE
  5
3D02
330
1F
100
AcDbEntity
  8
1
100
AcDbLine
 10
186.6628404465633
 20
182.1134641266263
 30
0.0
 11
186.6628404465633
 21
182.7134641266249
 31
0.0
  0
ARC
  5
3D03
330
1F
100
AcDbEntity
  8
1
100
AcDbCircle
 10
188.912839272724
 20
191.7134630692541
 30
0.0
 40
4.099999999999997
100
AcDbArc
 50
192.6803834918209
 51
304.1232945407951
  0
ARC
  5
3D04
330
1F
100
AcDbEntity
  8
1
100
AcDbCircle
 10
188.912839272724
 20
191.7134630692541
 30
0.0
 40
5.5
100
AcDbArc
 50
10.47568169638666
 51
349.5243183036131
  0
ARC
  5
3D05
330
1F
100
AcDbEntity
  8
1
100
AcDbCircle
 10
188.912839272724
 20
191.7134630692541
 30
0.0
 40
4.099999999999997
100
AcDbArc
 50
55.87670545920463
 51
167.3196165081789
  0
LINE
  5
3D06
330
1F
100
AcDbEntity
  8
1
100
AcDbLine
 10
187.4628404465624
 20
182.1134641266263
 30
0.0
 11
186.6628404465633
 21
182.1134641266263
 31
0.0
  0
LINE
  5
3D07
330
1F
100
AcDbEntity
  8
1
100
AcDbLine
 10
186.6628404465633
 20
182.7134641266249
 30
0.0
 11
187.4628404465624
 21
182.7134641266249
 31
0.0
  0
LINE
  5
3D08
330
1F
100
AcDbEntity
  8
1
100
AcDbLine
 10
195.212840647537
 20
199.0134648338943
 30
0.0
 11
193.5128410016963
 21
199.0134648338943
 31
0.0
  0
LINE
  5
3D09
330
1F
100
AcDbEntity
  8
1
100
AcDbLine
 10
195.912840235587
 20
183.2134641266247
 30
0.0
 11
183.2128405529892
 21
183.2134641266247
 31
0.0
  0
CIRCLE
  5
3D0A
330
1F
100
AcDbEntity
  8
1
100
AcDbCircle
 10
188.912839272724
 20
191.7134630692541
 30
0.0
 40
6.5
  0
LINE
  5
3D0B
330
1F
100
AcDbEntity
  8
1
100
AcDbLine
 10
194.3211661859201
 20
192.7134630692541
 30
0.0
 11
195.3354555620567
 21
192.7134630692541
 31
0.0
  0
LINE
  5
3D0C
330
1F
100
AcDbEntity
  8
1
100
AcDbLine
 10
194.0628404465629
 20
182.7134641266249
 30
0.0
 11
195.4128402498614
 21
182.7134644127265
 31
0.0
  0
LINE
  5
3D0D
330
1F
100
AcDbEntity
  8
1
100
AcDbLine
 10
194.3211661859199
 20
190.7134630692541
 30
0.0
 11
195.3354555620567
 21
190.7134630692541
 31
0.0
  0
LINE
  5
3D0E
330
1F
100
AcDbEntity
  8
1
100
AcDbLine
 10
193.5128410016963
 20
201.2134648338942
 30
0.0
 11
193.5128410016963
 21
199.0134648338943
 31
0.0
  0
LINE
  5
3D14
330
1F
100
AcDbEntity
  8
1
100
AcDbLine
 10
195.2128406475368
 20
199.0134648338943
 30
0.0
 11
195.2128406475368
 21
201.2134648338942
 31
0.0
  0
INSERT
  5
3D15
330
1F
100
AcDbEntity
  8
1
100
AcDbBlockReference
  2
A$C09634F3C
 10
187.5062709150497
 20
198.0568936454275
 30
0.0
 50
30.00000000000047
  0
LINE
  5
3D18
330
1F
100
AcDbEntity
  8
1
  6
CONTINUOUS
100
AcDbLine
 10
262.1724715089783
 20
206.3134627713813
 30
0.0
 11
252.1724715089783
 21
206.313462771381
 31
0.0
  0
LINE
  5
3D19
330
1F
100
AcDbEntity
  8
1
  6
CONTINUOUS
100
AcDbLine
 10
252.1724715089783
 20
206.313462771381
 30
0.0
 11
252.1724715089781
 21
205.308515244989
 31
0.0
  0
LINE
  5
3D1A
330
1F
100
AcDbEntity
  8
1
  6
CONTINUOUS
100
AcDbLine
 10
252.172471503978
 20
204.318564803145
 30
0.0
 11
252.1724715089781
 21
205.308515244989
 31
0.0
  0
LINE
  5
3D1B
330
1F
100
AcDbEntity
  8
1
  6
CONTINUOUS
100
AcDbLine
 10
262.1724715089783
 20
206.3134627713813
 30
0.0
 11
262.1724715089782
 21
205.3085152449892
 31
0.0
  0
LINE
  5
3D1C
330
1F
100
AcDbEntity
  8
1
  6
CONTINUOUS
100
AcDbLine
 10
262.1724715089782
 20
204.318564803145
 30
0.0
 11
262.1724715089782
 21
205.3085152449892
 31
0.0
  0
LINE
  5
3D1D
330
1F
100
AcDbEntity
  8
1
  6
CONTINUOUS
100
AcDbLine
 10
380.3295418881321
 20
97.81345680475631
 30
0.0
 11
372.5721817724848
 21
97.81345680475631
 31
0.0
  0
LINE
  5
3D1E
330
1F
100
AcDbEntity
  8
1
  6
CONTINUOUS
100
AcDbLine
 10
380.9508625679157
 20
96.31345749020972
 30
0.0
 11
371.9508620240235
 21
96.31345749020972
 31
0.0
  0
LINE
  5
3D1F
330
1F
100
AcDbEntity
  8
1
  6
CONTINUOUS
100
AcDbLine
 10
370.9508613944493
 20
99.81345713258185
 30
0.0
 11
381.9508608691835
 21
99.81345713258185
 31
0.0
  0
LWPOLYLINE
  5
3D20
330
1F
100
AcDbEntity
  8
1
  6
CONTINUOUS
100
AcDbPolyline
 90
        3
 70
   128
 43
0.0
 10
384.6111707650566
 20
204.0010510396995
 10
380.0268415622852
 20
204.4818817091026
 10
375.4141219221496
 20
204.7504825902024
  0
LINE
  5
3D21
330
1F
100
AcDbEntity
  8
1
  6
CONTINUOUS
100
AcDbLine
 10
383.3966236822746
 20
170.5134638038316
 30
0.0
 11
373.8966230564261
 21
170.5134638038316
 31
0.0
  0
LINE
  5
3D22
330
1F
100
AcDbEntity
  8
1
  6
CONTINUOUS
100
AcDbLine
 10
374.8966222890163
 20
171.5134630364219
 30
0.0
 11
382.3966216557167
 21
171.5134630364219
 31
0.0
  0
ARC
  5
3D23
330
1F
100
AcDbEntity
  8
1
  6
CONTINUOUS
100
AcDbCircle
 10
371.8966241255844
 20
104.913226615329
 30
0.0
 40
100.0002360269552
100
AcDbArc
 50
82.6879957129404
 51
97.3120042870596
  0
ARC
  5
3D24
330
1F
100
AcDbEntity
  8
1
  6
CONTINUOUS
100
AcDbCircle
 10
371.896624358415
 20
106.3134459211417
 30
0.0
 40
100.0000177005718
100
AcDbArc
 50
81.87031643518933
 51
98.1296835648107
  0
LINE
  5
3D25
330
1F
100
AcDbEntity
  8
1
  6
CONTINUOUS
100
AcDbLine
 10
373.700860913887
 20
125.3134576988259
 30
0.0
 11
379.2008608840847
 21
125.3134576988259
 31
0.0
  0
LINE
  5
3D26
330
1F
100
AcDbEntity
  8
1
  6
CONTINUOUS
100
AcDbLine
 10
379.2008599527621
 20
134.8134564620296
 30
0.0
 11
373.7008599825644
 21
134.8134564620296
 31
0.0
  0
LINE
  5
3D27
330
1F
100
AcDbEntity
  8
1
  6
CONTINUOUS
100
AcDbLine
 10
376.9966224469686
 20
112.4134591233769
 30
0.0
 11
375.896622452929
 21
112.4134591233769
 31
0.0
  0
LINE
  5
3D28
330
1F
100
AcDbEntity
  8
1
  6
CONTINUOUS
100
AcDbLine
 10
375.8008610718392
 20
118.6134597671069
 30
0.0
 11
377.1008607261322
 21
118.6134597671069
 31
0.0
  0
LINE
  5
3D29
330
1F
100
AcDbEntity
  8
1
  6
CONTINUOUS
100
AcDbLine
 10
375.896622452929
 20
113.6134608101884
 30
0.0
 11
376.9966224469686
 21
113.6134608101884
 31
0.0
  0
LINE
  5
3D2A
330
1F
100
AcDbEntity
  8
1
  6
CONTINUOUS
100
AcDbLine
 10
375.896622452929
 20
113.6134608101884
 30
0.0
 11
376.9966224469686
 21
113.6134608101884
 31
0.0
  0
LINE
  5
3D2B
330
1F
100
AcDbEntity
  8
1
  6
CONTINUOUS
100
AcDbLine
 10
377.9008608294576
 20
120.1134571835952
 30
0.0
 11
375.0008608532994
 21
120.1134570568324
 31
0.0
  0
LINE
  5
3D2C
330
1F
100
AcDbEntity
  8
1
  6
CONTINUOUS
100
AcDbLine
 10
375.896622452929
 20
110.4134587955514
 30
0.0
 11
376.9966224469686
 21
110.4134587955514
 31
0.0
  0
LINE
  5
3D2D
330
1F
100
AcDbEntity
  8
1
  6
CONTINUOUS
100
AcDbLine
 10
377.1008616574549
 20
110.1134611678163
 30
0.0
 11
375.8008610718392
 21
110.1134611678163
 31
0.0
  0
LINE
  5
3D2E
330
1F
100
AcDbEntity
  8
1
  6
CONTINUOUS
100
AcDbLine
 10
379.2008618154073
 20
106.3134564471284
 30
0.0
 11
373.7008618452096
 21
106.3134564471284
 31
0.0
  0
LINE
  5
3D2F
330
1F
100
AcDbEntity
  8
1
  6
CONTINUOUS
100
AcDbLine
 10
370.9508613944493
 20
104.8134571325818
 30
0.0
 11
381.9508608691835
 21
104.8134571325818
 31
0.0
  0
LINE
  5
3D30
330
1F
100
AcDbEntity
  8
1
  6
CONTINUOUS
100
AcDbLine
 10
380.9508625679157
 20
101.3134574902097
 30
0.0
 11
371.9508620240235
 21
101.3134574902097
 31
0.0
  0
LINE
  5
3D31
330
1F
100
AcDbEntity
  8
1
  6
CONTINUOUS
100
AcDbLine
 10
380.3295418881321
 20
102.8134568047563
 30
0.0
 11
372.5721817724848
 21
102.8134568047563
 31
0.0
  0
LINE
  5
3D32
330
1F
100
AcDbEntity
  8
1
  6
CONTINUOUS
100
AcDbLine
 10
380.2008591853523
 20
140.813457445506
 30
0.0
 11
372.7008598186516
 21
140.813457445506
 31
0.0
  0
LINE
  5
3D33
330
1F
100
AcDbEntity
  8
1
  6
CONTINUOUS
100
AcDbLine
 10
380.2008610479975
 20
136.3134576392212
 30
0.0
 11
372.7008598186516
 21
136.3134576392212
 31
0.0
  0
LINE
  5
3D34
330
1F
100
AcDbEntity
  8
1
  6
CONTINUOUS
100
AcDbLine
 10
358.39662416535
 20
174.0134621985641
 30
0.0
 11
358.3966242410683
 21
203.10837090135
 31
0.0
  0
LINE
  5
3D35
330
1F
100
AcDbEntity
  8
1
  6
CONTINUOUS
100
AcDbLine
 10
356.8966244608605
 20
204.318564982418
 30
0.0
 11
356.8966239951992
 21
108.3083605778255
 31
0.0
  0
LINE
  5
3D36
330
1F
100
AcDbEntity
  8
1
  6
CONTINUOUS
100
AcDbLine
 10
358.2966244813208
 20
203.108371123996
 30
0.0
 11
358.2966242543426
 21
109.5185546873995
 31
0.0
  0
LINE
  5
3D37
330
1F
100
AcDbEntity
  8
1
  6
CONTINUOUS
100
AcDbLine
 10
324.3724701559538
 20
203.10837090135
 30
0.0
 11
324.3724715089801
 21
174.013462208279
 31
0.0
  0
LINE
  5
3D38
330
1F
100
AcDbEntity
  8
1
  6
CONTINUOUS
100
AcDbLine
 10
318.3724728977673
 20
204.318564982418
 30
0.0
 11
318.3724728977673
 21
108.3083605778255
 31
0.0
  0
LINE
  5
3D39
330
1F
100
AcDbEntity
  8
1
  6
CONTINUOUS
100
AcDbLine
 10
308.3724715089798
 20
108.3083609608449
 30
0.0
 11
308.3724715089796
 21
204.3185649148514
 31
0.0
  0
LINE
  5
3D3A
330
1F
100
AcDbEntity
  8
1
  6
CONTINUOUS
100
AcDbLine
 10
324.3724738812442
 20
114.8134587717094
 30
0.0
 11
324.3724738812442
 21
137.9134567838945
 31
0.0
  0
LINE
  5
3D3B
330
1F
100
AcDbEntity
  8
1
  6
CONTINUOUS
100
AcDbLine
 10
320.372473225593
 20
174.0134625148811
 30
0.0
 11
320.372473225593
 21
109.5185546588937
 31
0.0
  0
LINE
  5
3D3C
330
1F
100
AcDbEntity
  8
1
  6
CONTINUOUS
100
AcDbLine
 10
324.3724715089803
 20
101.0138283035507
 30
0.0
 11
324.3724715089803
 21
98.93809282395752
 31
0.0
  0
LINE
  5
3D3D
330
1F
100
AcDbEntity
  8
1
  6
CONTINUOUS
100
AcDbLine
 10
320.3724745786195
 20
103.3106374106159
 30
0.0
 11
320.3724745786195
 21
98.93809282395752
 31
0.0
  0
LINE
  5
3D3E
330
1F
100
AcDbEntity
  8
1
  6
CONTINUOUS
100
AcDbLine
 10
324.0724725282186
 20
96.31345749020972
 30
0.0
 11
320.6724708533283
 21
96.31345749020972
 31
0.0
  0
LINE
  5
3D3F
330
1F
100
AcDbEntity
  8
1
  6
CONTINUOUS
100
AcDbLine
 10
320.6724708533283
 20
98.81345510602393
 30
0.0
 11
324.0724725282186
 21
98.81345510602393
 31
0.0
  0
LINE
  5
3D40
330
1F
100
AcDbEntity
  8
1
  6
CONTINUOUS
100
AcDbLine
 10
320.3724732255931
 20
98.93771961450973
 30
0.0
 11
320.3724732255931
 21
96.61345511794486
 31
0.0
  0
ARC
  5
3D41
330
1F
100
AcDbEntity
  8
1
  6
CONTINUOUS
100
AcDbCircle
 10
320.6724715209013
 20
96.61345694086556
 30
0.0
 40
0.3000000173527155
100
AcDbArc
 50
179.9890969415734
 51
270.0
  0
ELLIPSE
  5
3D42
330
1F
100
AcDbEntity
  8
1
  6
CONTINUOUS
100
AcDbEllipse
 10
320.6724715209013
 20
98.93772090099751
 30
0.0
 11
0.3000000119209289
 21
0.0
 31
0.0
210
0.0
220
0.0
230
1.0
 40
0.4142136060846934
 41
3.141592653589792
 42
4.712388980384695
  0
LINE
  5
3D43
330
1F
100
AcDbEntity
  8
1
  6
CONTINUOUS
100
AcDbLine
 10
324.3724701559538
 20
98.93771961450973
 30
0.0
 11
324.3724701559538
 21
96.61345511794486
 31
0.0
  0
ARC
  5
3D44
330
1F
100
AcDbEntity
  8
1
  6
CONTINUOUS
100
AcDbCircle
 10
324.0724714970594
 20
96.61345694086556
 30
0.0
 40
0.3000000173527724
100
AcDbArc
 50
270.0
 51
0.010903172550983
  0
ELLIPSE
  5
3D45
330
1F
100
AcDbEntity
  8
1
  6
CONTINUOUS
100
AcDbEllipse
 10
324.0724714970594
 20
98.93772090099751
 30
0.0
 11
0.3000000119208721
 21
0.0
 31
0.0
210
0.0
220
0.0
230
1.0
 40
0.4142136060843929
 41
4.712388980384695
 42
6.283185307179584
  0
LINE
  5
3D46
330
1F
100
AcDbEntity
  8
1
  6
CONTINUOUS
100
AcDbLine
 10
324.3724701559538
 20
106.013455094103
 30
0.0
 11
324.3724701559538
 21
103.9377196145097
 31
0.0
  0
ELLIPSE
  5
3D47
330
1F
100
AcDbEntity
  8
1
  6
CONTINUOUS
100
AcDbEllipse
 10
324.0724714970594
 20
103.9377209009972
 30
0.0
 11
0.3000000119208721
 21
0.0
 31
0.0
210
0.0
220
0.0
230
1.0
 40
0.4142136060843929
 41
4.712388980384695
 42
6.283185307179584
  0
LINE
  5
3D48
330
1F
100
AcDbEntity
  8
1
  6
CONTINUOUS
100
AcDbLine
 10
321.8724725401397
 20
106.3134564471284
 30
0.0
 11
324.0724725282186
 21
106.3134564471284
 31
0.0
  0
ARC
  5
3D49
330
1F
100
AcDbEntity
  8
1
  6
CONTINUOUS
100
AcDbCircle
 10
324.0724714970594
 20
106.0134569443754
 30
0.0
 40
0.3000000119208721
100
AcDbArc
 50
0.0
 51
90.0
  0
ARC
  5
3D4A
330
1F
100
AcDbEntity
  8
1
  6
CONTINUOUS
100
AcDbCircle
 10
324.0724695371993
 20
106.0134558283879
 30
0.0
 40
0.3000006187554509
100
AcDbArc
 50
0.0
 51
89.99942875855046
  0
LINE
  5
3D4B
330
1F
100
AcDbEntity
  8
1
  6
CONTINUOUS
100
AcDbLine
 10
324.0724725282186
 20
106.013455094103
 30
0.0
 11
324.0724725282186
 21
106.3134564471284
 31
0.0
  0
LINE
  5
3D4C
330
1F
100
AcDbEntity
  8
1
  6
CONTINUOUS
100
AcDbLine
 10
321.8724725401397
 20
106.3134564471284
 30
0.0
 11
324.0724725282186
 21
106.3134564471284
 31
0.0
  0
ARC
  5
3D4D
330
1F
100
AcDbEntity
  8
1
  6
CONTINUOUS
100
AcDbCircle
 10
324.0724714970594
 20
101.6134569408654
 30
0.0
 40
0.3000000173527724
100
AcDbArc
 50
270.0
 51
0.010903172550983
  0
LINE
  5
3D4E
330
1F
100
AcDbEntity
  8
1
  6
CONTINUOUS
100
AcDbLine
 10
324.3724701559538
 20
103.9377196145097
 30
0.0
 11
324.3724701559538
 21
101.6134551179447
 31
0.0
  0
LINE
  5
3D4F
330
1F
100
AcDbEntity
  8
1
  6
CONTINUOUS
100
AcDbLine
 10
324.3724701559538
 20
114.8134587717094
 30
0.0
 11
324.3724701559538
 21
106.013455094103
 31
0.0
  0
LINE
  5
3D50
330
1F
100
AcDbEntity
  8
1
  6
CONTINUOUS
100
AcDbLine
 10
321.8724725401397
 20
114.8134587717094
 30
0.0
 11
321.8724725401397
 21
106.3134564471284
 31
0.0
  0
LINE
  5
3D51
330
1F
100
AcDbEntity
  8
1
  6
CONTINUOUS
100
AcDbLine
 10
320.3724732255931
 20
108.3102642011682
 30
0.0
 11
320.3724732255931
 21
103.9377196145097
 31
0.0
  0
ELLIPSE
  5
3D52
330
1F
100
AcDbEntity
  8
1
  6
CONTINUOUS
100
AcDbEllipse
 10
320.6724715209013
 20
103.9377209009972
 30
0.0
 11
0.3000000119209289
 21
0.0
 31
0.0
210
0.0
220
0.0
230
1.0
 40
0.4142136060846934
 41
3.141592653589792
 42
4.712388980384695
  0
LINE
  5
3D53
330
1F
100
AcDbEntity
  8
1
  6
CONTINUOUS
100
AcDbLine
 10
320.372473225593
 20
109.1218075168172
 30
0.0
 11
320.3724732255931
 21
108.3761422348062
 31
0.0
  0
LINE
  5
3D54
330
1F
100
AcDbEntity
  8
1
  6
CONTINUOUS
100
AcDbLine
 10
320.372473225593
 20
109.5185546588937
 30
0.0
 11
320.372473225593
 21
109.1218075168172
 31
0.0
  0
ARC
  5
3D55
330
1F
100
AcDbEntity
  8
1
  6
CONTINUOUS
100
AcDbCircle
 10
320.6724715209013
 20
101.6134569408654
 30
0.0
 40
0.3000000173527155
100
AcDbArc
 50
179.9890969415734
 51
270.0
  0
LINE
  5
3D56
330
1F
100
AcDbEntity
  8
1
  6
CONTINUOUS
100
AcDbLine
 10
320.3724732255931
 20
103.9377196145097
 30
0.0
 11
320.3724732255931
 21
101.6134551179447
 31
0.0
  0
LINE
  5
3D57
330
1F
100
AcDbEntity
  8
1
  6
CONTINUOUS
100
AcDbLine
 10
317.8724715089797
 20
106.3134628420937
 30
0.0
 11
318.4350130712981
 21
106.313463897709
 31
0.0
  0
LINE
  5
3D58
330
1F
100
AcDbEntity
  8
1
  6
CONTINUOUS
100
AcDbLine
 10
317.8724715089797
 20
106.3134628420937
 30
0.0
 11
317.8724715089797
 21
107.318410532993
 31
0.0
  0
LINE
  5
3D59
330
1F
100
AcDbEntity
  8
1
  6
CONTINUOUS
100
AcDbLine
 10
318.3724728977673
 20
107.318409384493
 30
0.0
 11
318.3724728977676
 21
106.3135197770635
 31
0.0
  0
LINE
  5
3D5A
330
1F
100
AcDbEntity
  8
1
  6
CONTINUOUS
100
AcDbLine
 10
318.3724728977673
 20
107.318409384493
 30
0.0
 11
318.3724728977673
 21
108.3083605778255
 31
0.0
  0
LINE
  5
3D5B
330
1F
100
AcDbEntity
  8
1
  6
CONTINUOUS
100
AcDbLine
 10
318.3724728977676
 20
107.8761374962369
 30
0.0
 11
319.8737239098544
 21
107.8761374962369
 31
0.0
  0
ARC
  5
3D5C
330
1F
100
AcDbEntity
  8
1
  6
CONTINUOUS
100
AcDbCircle
 10
319.8726185784618
 20
108.376297693066
 30
0.0
 40
0.4998547444539093
100
AcDbArc
 50
269.9832228007441
 51
359.9642461598613
  0
ARC
  5
3D5D
330
1F
100
AcDbEntity
  8
1
  6
CONTINUOUS
100
AcDbCircle
 10
319.8726185784618
 20
108.376297693066
 30
0.0
 40
0.4998547444539093
100
AcDbArc
 50
269.9832228007441
 51
359.9642461598613
  0
LINE
  5
3D5E
330
1F
100
AcDbEntity
  8
1
  6
CONTINUOUS
100
AcDbLine
 10
320.3724732255931
 20
114.8134587717094
 30
0.0
 11
324.3724738812442
 21
114.8134587717094
 31
0.0
  0
LINE
  5
3D5F
330
1F
100
AcDbEntity
  8
1
  6
CONTINUOUS
100
AcDbLine
 10
320.6724708533283
 20
103.8134551060239
 30
0.0
 11
324.0724725282186
 21
103.8134551060239
 31
0.0
  0
LWPOLYLINE
  5
3D60
330
1F
100
AcDbEntity
  8
1
  6
CONTINUOUS
100
AcDbPolyline
 90
        9
 70
   128
 43
0.0
 10
321.8724725401397
 20
106.3134564471284
 10
321.8667057907576
 20
106.3076934230367
 10
321.8496365106101
 20
106.2906204175988
 10
321.8219129002088
 20
106.2628968071977
 10
321.7846041178697
 20
106.2255880248585
 10
321.7391444003578
 20
106.1801283073463
 10
321.6872771835321
 20
106.128261090521
 10
321.6309992229934
 20
106.071983129982
 10
321.5724711871141
 20
106.013455094103
  0
LINE
  5
3D61
330
1F
100
AcDbEntity
  8
1
  6
CONTINUOUS
100
AcDbLine
 10
324.0724725282186
 20
101.3134574902097
 30
0.0
 11
320.6724708533283
 21
101.3134574902097
 31
0.0
  0
LINE
  5
3D62
330
1F
100
AcDbEntity
  8
1
  6
CONTINUOUS
100
AcDbLine
 10
308.3724715089806
 20
106.3134628420941
 30
0.0
 11
308.3724715089796
 21
107.3184105056719
 31
0.0
  0
LINE
  5
3D63
330
1F
100
AcDbEntity
  8
1
  6
CONTINUOUS
100
AcDbLine
 10
308.3724715089798
 20
108.3083609608449
 30
0.0
 11
308.3724715089796
 21
107.3184105056719
 31
0.0
  0
LINE
  5
3D64
330
1F
100
AcDbEntity
  8
1
  6
CONTINUOUS
100
AcDbLine
 10
308.3724715089806
 20
106.3134628420941
 30
0.0
 11
317.8724715089797
 21
106.3134628420937
 31
0.0
  0
LINE
  5
3D65
330
1F
100
AcDbEntity
  8
1
  6
CONTINUOUS
100
AcDbLine
 10
324.3724715089801
 20
174.013462208279
 30
0.0
 11
323.8724715089801
 21
174.0134621985641
 31
0.0
  0
LINE
  5
3D66
330
1F
100
AcDbEntity
  8
1
  6
CONTINUOUS
100
AcDbLine
 10
323.8724715089801
 20
174.0134621985641
 30
0.0
 11
319.8724722123141
 21
174.0134625148811
 31
0.0
  0
LINE
  5
3D67
330
1F
100
AcDbEntity
  8
1
  6
CONTINUOUS
100
AcDbLine
 10
324.3724701559538
 20
171.5134621050991
 30
0.0
 11
322.3724698281283
 21
171.5134621050991
 31
0.0
  0
LINE
  5
3D68
330
1F
100
AcDbEntity
  8
1
  6
CONTINUOUS
100
AcDbLine
 10
321.3724715268607
 20
174.0134625148811
 30
0.0
 11
322.3724698281283
 21
171.5134611737765
 31
0.0
  0
LINE
  5
3D69
330
1F
100
AcDbEntity
  8
1
  6
CONTINUOUS
100
AcDbLine
 10
320.3724732255931
 20
174.0134625148811
 30
0.0
 11
320.3724732255931
 21
170.5134619411865
 31
0.0
  0
LINE
  5
3D6A
330
1F
100
AcDbEntity
  8
1
  6
CONTINUOUS
100
AcDbLine
 10
324.3724715089801
 20
174.013462208279
 30
0.0
 11
324.3724701559538
 21
171.5134621050991
 31
0.0
  0
LINE
  5
3D6B
330
1F
100
AcDbEntity
  8
1
  6
CONTINUOUS
100
AcDbLine
 10
324.3724738812442
 20
137.9134567838945
 30
0.0
 11
322.3724698281283
 21
138.6134574574271
 31
0.0
  0
LWPOLYLINE
  5
3D6C
330
1F
100
AcDbEntity
  8
1
  6
CONTINUOUS
100
AcDbPolyline
 90
        9
 70
   128
 43
0.0
 10
321.9724705076213
 20
140.813457445506
 10
321.9690134382243
 20
140.8076925587693
 10
321.9587688899036
 20
140.7906214159766
 10
321.9421354687209
 20
140.7628978055755
 10
321.9197501993174
 20
140.7255890232364
 10
321.8924736237521
 20
140.6801274430789
 10
321.8613525485988
 20
140.6282620888988
 10
321.8275865173333
 20
140.5719841283597
 10
321.7924719309801
 20
140.5134560924808
  0
LINE
  5
3D6D
330
1F
100
AcDbEntity
  8
1
  6
CONTINUOUS
100
AcDbLine
 10
323.3232905721659
 20
138.28067168713
 30
0.0
 11
321.9724705076213
 21
140.813457445506
 31
0.0
  0
LINE
  5
3D6E
330
1F
100
AcDbEntity
  8
1
  6
CONTINUOUS
100
AcDbLine
 10
321.9724705076213
 20
140.813457445506
 30
0.0
 11
323.3232905721659
 21
138.28067168713
 31
0.0
  0
LINE
  5
3D6F
330
1F
100
AcDbEntity
  8
1
  6
CONTINUOUS
100
AcDbLine
 10
321.4724715328221
 20
140.8134569562963
 30
0.0
 11
321.4724715328221
 21
140.513456931262
 31
0.0
  0
LINE
  5
3D70
330
1F
100
AcDbEntity
  8
1
  6
CONTINUOUS
100
AcDbLine
 10
321.4724715328221
 20
140.513456931262
 30
0.0
 11
321.4724732196326
 21
138.6134574574271
 31
0.0
  0
LINE
  5
3D71
330
1F
100
AcDbEntity
  8
1
  6
CONTINUOUS
100
AcDbLine
 10
321.9724705076213
 20
140.813457445506
 30
0.0
 11
321.4724715328221
 21
140.8134569562963
 31
0.0
  0
LINE
  5
3D72
330
1F
100
AcDbEntity
  8
1
  6
CONTINUOUS
100
AcDbLine
 10
321.4724715328221
 20
140.8134569562963
 30
0.0
 11
321.9724705076213
 21
140.813457445506
 31
0.0
  0
LINE
  5
3D73
330
1F
100
AcDbEntity
  8
1
  6
CONTINUOUS
100
AcDbLine
 10
322.3724698281283
 20
138.6134574574271
 30
0.0
 11
320.3724732255931
 21
138.6134574574271
 31
0.0
  0
LINE
  5
3D74
330
1F
100
AcDbEntity
  8
1
  6
CONTINUOUS
100
AcDbLine
 10
372.1966212876581
 20
137.9134586465397
 30
0.0
 11
372.1966212876581
 21
115.8134570729772
 31
0.0
  0
LINE
  5
3D75
330
1F
100
AcDbEntity
  8
1
  6
CONTINUOUS
100
AcDbLine
 10
367.4966225196115
 20
114.8134587717094
 30
0.0
 11
367.4966225196115
 21
137.9134567838945
 31
0.0
  0
LINE
  5
3D76
330
1F
100
AcDbEntity
  8
1
  6
CONTINUOUS
100
AcDbLine
 10
372.4008612595939
 20
106.3134564471284
 30
0.0
 11
372.4008603282713
 21
136.2384563696424
 31
0.0
  0
LINE
  5
3D77
330
1F
100
AcDbEntity
  8
1
  6
CONTINUOUS
100
AcDbLine
 10
373.7008618452096
 20
106.3134564471284
 30
0.0
 11
373.7008599825644
 21
134.8134564620296
 31
0.0
  0
LINE
  5
3D78
330
1F
100
AcDbEntity
  8
1
  6
CONTINUOUS
100
AcDbLine
 10
358.396623775407
 20
109.5185546588937
 30
0.0
 11
358.39662416535
 21
174.0134621985641
 31
0.0
  0
LINE
  5
3D79
330
1F
100
AcDbEntity
  8
1
  6
CONTINUOUS
100
AcDbLine
 10
369.4508616142416
 20
98.81345510602393
 30
0.0
 11
371.9508620240235
 21
96.31345749020972
 31
0.0
  0
LINE
  5
3D7A
330
1F
100
AcDbEntity
  8
1
  6
CONTINUOUS
100
AcDbLine
 10
370.9508613944493
 20
99.81345713258185
 30
0.0
 11
370.9508613944493
 21
99.4347776484529
 31
0.0
  0
LWPOLYLINE
  5
3D7B
330
1F
100
AcDbEntity
  8
1
  6
CONTINUOUS
100
AcDbPolyline
 90
       10
 70
   128
 43
0.0
 10
369.7508615702831
 20
98.93771961450973
 10
369.6987671107493
 20
98.91614273310104
 10
369.6482554339313
 20
98.89522150278487
 10
369.6008613594317
 20
98.87558922291198
 10
369.5580251776123
 20
98.8578456652204
 10
369.521048411771
 20
98.84252727151313
 10
369.4910537712715
 20
98.83010342836776
 10
369.4689539522373
 20
98.82095039010444
 10
369.4554190412605
 20
98.81534382820525
 10
369.4508616142416
 20
98.81345510602393
  0
LINE
  5
3D7C
330
1F
100
AcDbEntity
  8
1
  6
CONTINUOUS
100
AcDbLine
 10
369.4508616142416
 20
98.81345510602393
 30
0.0
 11
369.4508616142416
 21
101.0134550941027
 31
0.0
  0
LWPOLYLINE
  5
3D7D
330
1F
100
AcDbEntity
  8
1
  6
CONTINUOUS
100
AcDbPolyline
 90
       10
 70
   128
 43
0.0
 10
371.9508620240235
 20
96.31345749020972
 10
371.9527498148822
 20
96.31801352024474
 10
371.9583554454588
 20
96.33154749989905
 10
371.9675103463673
 20
96.35364964723983
 10
371.9799341895127
 20
96.38364195943278
 10
371.9952507205748
 20
96.42061919093528
 10
372.0129933469439
 20
96.46345630407729
 10
372.0326246954941
 20
96.51084944725432
 10
372.0535477884553
 20
96.56136065841117
 10
372.0751256011868
 20
96.61345511794486
  0
LINE
  5
3D7E
330
1F
100
AcDbEntity
  8
1
  6
CONTINUOUS
100
AcDbLine
 10
372.5721817724848
 20
97.81345680475631
 30
0.0
 11
370.9508613944493
 21
99.4347776484529
 31
0.0
  0
LINE
  5
3D7F
330
1F
100
AcDbEntity
  8
1
  6
CONTINUOUS
100
AcDbLine
 10
375.896622452929
 20
112.4134591233769
 30
0.0
 11
375.896622452929
 21
113.6134608101884
 31
0.0
  0
LWPOLYLINE
  5
3D80
330
1F
100
AcDbEntity
  8
1
  6
CONTINUOUS
100
AcDbPolyline
 90
        4
 70
   128
 43
0.0
 10
373.700860913887
 20
113.1466521334687
 10
374.0179436542533
 20
112.9347836983243
 10
374.6682619937204
 20
111.961514354948
 10
374.7008610777998
 20
111.7976276588479
  0
ARC
  5
3D81
330
1F
100
AcDbEntity
  8
1
  6
CONTINUOUS
100
AcDbCircle
 10
371.6508609091317
 20
118.5634569103994
 30
0.0
 40
0.750000000000342
100
AcDbArc
 50
316.6923176760578
 51
0.0
  0
ARC
  5
3D82
330
1F
100
AcDbEntity
  8
1
  6
CONTINUOUS
100
AcDbCircle
 10
375.0008608664129
 20
119.8134570449115
 30
0.0
 40
0.3000000119209292
100
AcDbArc
 50
90.0000025044817
 51
180.0
  0
ARC
  5
3D83
330
1F
100
AcDbEntity
  8
1
  6
CONTINUOUS
100
AcDbCircle
 10
374.2008612566363
 20
110.6134594589773
 30
0.0
 40
0.5000000000001144
100
AcDbArc
 50
180.0
 51
0.0
  0
LWPOLYLINE
  5
3D84
330
1F
100
AcDbEntity
  8
1
  6
CONTINUOUS
100
AcDbPolyline
 90
        9
 70
   128
 43
0.0
 10
372.4008612595939
 20
106.3134564471284
 10
372.4066261463307
 20
106.3076934230367
 10
372.4236972891235
 20
106.2906204175988
 10
372.4514208995246
 20
106.2628968071977
 10
372.4887296818637
 20
106.2255880248585
 10
372.5341903306985
 20
106.1801283073463
 10
372.5860566162014
 20
106.128261090521
 10
372.6423345767403
 20
106.071983129982
 10
372.7008616812968
 20
106.013455094103
  0
LWPOLYLINE
  5
3D85
330
1F
100
AcDbEntity
  8
1
  6
CONTINUOUS
100
AcDbPolyline
 90
       10
 70
   128
 43
0.0
 10
371.9508620240235
 20
101.3134574902097
 10
371.9527498148822
 20
101.3180135202446
 10
371.9583554454588
 20
101.331547499899
 10
371.9675103463673
 20
101.3536496472398
 10
371.9799341895127
 20
101.3836419594327
 10
371.9952507205748
 20
101.4206191909352
 10
372.0129933469439
 20
101.4634563040772
 10
372.0326246954941
 20
101.5108494472543
 10
372.0535477884553
 20
101.5613606584111
 10
372.0751256011868
 20
101.6134551179447
  0
LINE
  5
3D86
330
1F
100
AcDbEntity
  8
1
  6
CONTINUOUS
100
AcDbLine
 10
375.8008610718392
 20
110.1134611678163
 30
0.0
 11
375.8008610718392
 21
118.6134597671069
 31
0.0
  0
LINE
  5
3D87
330
1F
100
AcDbEntity
  8
1
  6
CONTINUOUS
100
AcDbLine
 10
374.7008608544919
 20
119.8134570317982
 30
0.0
 11
374.7008612566361
 21
110.613459480833
 31
0.0
  0
LINE
  5
3D88
330
1F
100
AcDbEntity
  8
1
  6
CONTINUOUS
100
AcDbLine
 10
375.896622452929
 20
110.4134587955514
 30
0.0
 11
375.896622452929
 21
112.4134591233769
 31
0.0
  0
LINE
  5
3D89
330
1F
100
AcDbEntity
  8
1
  6
CONTINUOUS
100
AcDbLine
 10
369.246618848338
 20
115.3134560596982
 30
0.0
 11
369.246618848338
 21
115.8134570729772
 31
0.0
  0
LINE
  5
3D8A
330
1F
100
AcDbEntity
  8
1
  6
CONTINUOUS
100
AcDbLine
 10
369.246618848338
 20
114.8134587717094
 30
0.0
 11
369.246618848338
 21
115.3134560596982
 31
0.0
  0
LINE
  5
3D8B
330
1F
100
AcDbEntity
  8
1
  6
CONTINUOUS
100
AcDbLine
 10
367.4966225196115
 20
114.8134587717094
 30
0.0
 11
368.7466192320428
 21
114.8134587717094
 31
0.0
  0
LINE
  5
3D8C
330
1F
100
AcDbEntity
  8
1
  6
CONTINUOUS
100
AcDbLine
 10
368.7466192320428
 20
114.8134587717094
 30
0.0
 11
369.246618848338
 21
115.3134560596982
 31
0.0
  0
LINE
  5
3D8D
330
1F
100
AcDbEntity
  8
1
  6
CONTINUOUS
100
AcDbLine
 10
369.4508611485803
 20
114.8134587717094
 30
0.0
 11
369.246618848338
 21
114.8134587717094
 31
0.0
  0
LINE
  5
3D8E
330
1F
100
AcDbEntity
  8
1
  6
CONTINUOUS
100
AcDbLine
 10
369.4508616142416
 20
103.8134551060239
 30
0.0
 11
369.4508616142416
 21
106.013455094103
 31
0.0
  0
LWPOLYLINE
  5
3D8F
330
1F
100
AcDbEntity
  8
1
  6
CONTINUOUS
100
AcDbPolyline
 90
       10
 70
   128
 43
0.0
 10
369.7508615702831
 20
103.9377196145097
 10
369.6987671107493
 20
103.916142733101
 10
369.6482554339313
 20
103.8952215027848
 10
369.6008613594317
 20
103.8755892229119
 10
369.5580251776123
 20
103.8578456652204
 10
369.521048411771
 20
103.8425272715131
 10
369.4910537712715
 20
103.8301034283677
 10
369.4689539522373
 20
103.8209503901044
 10
369.4554190412605
 20
103.8153438282052
 10
369.4508616142416
 20
103.8134551060239
  0
LINE
  5
3D90
330
1F
100
AcDbEntity
  8
1
  6
CONTINUOUS
100
AcDbLine
 10
370.9508613944493
 20
104.8134571325818
 30
0.0
 11
370.9508613944493
 21
104.4347776484529
 31
0.0
  0
LINE
  5
3D91
330
1F
100
AcDbEntity
  8
1
  6
CONTINUOUS
100
AcDbLine
 10
369.7508615702831
 20
106.013455094103
 30
0.0
 11
369.7508615702831
 21
106.3134564471284
 31
0.0
  0
ARC
  5
3D92
330
1F
100
AcDbEntity
  8
1
  6
CONTINUOUS
100
AcDbCircle
 10
368.3966224930518
 20
108.376137869405
 30
0.0
 40
0.5000011407946208
100
AcDbArc
 50
267.9945756942984
 51
0.0
  0
ARC
  5
3D93
330
1F
100
AcDbEntity
  8
1
  6
CONTINUOUS
100
AcDbCircle
 10
68.5421144567801
 20
118.6262383511784
 30
0.0
 40
300.0296505859371
100
AcDbArc
 50
357.9467037368991
 51
358.0421584396643
  0
LINE
  5
3D94
330
1F
100
AcDbEntity
  8
1
  6
CONTINUOUS
100
AcDbLine
 10
368.3966235518897
 20
108.3761385095159
 30
0.0
 11
368.896623633846
 21
108.3761385095159
 31
0.0
  0
LINE
  5
3D95
330
1F
100
AcDbEntity
  8
1
  6
CONTINUOUS
100
AcDbLine
 10
368.896623633846
 20
108.3761385095159
 30
0.0
 11
368.896623633846
 21
110.8134618413487
 31
0.0
  0
ARC
  5
3D96
330
1F
100
AcDbEntity
  8
1
  6
CONTINUOUS
100
AcDbCircle
 10
369.7508617742276
 20
106.01345628714
 30
0.0
 40
0.300000159988441
100
AcDbArc
 50
90.00003895049141
 51
180.0
  0
LINE
  5
3D97
330
1F
100
AcDbEntity
  8
1
  6
CONTINUOUS
100
AcDbLine
 10
369.4508616142416
 20
106.013455094103
 30
0.0
 11
369.4508611485803
 21
115.8134570729772
 31
0.0
  0
LWPOLYLINE
  5
3D98
330
1F
100
AcDbEntity
  8
1
  6
CONTINUOUS
100
AcDbPolyline
 90
        3
 70
   128
 43
0.0
 10
368.896623633846
 20
110.8134618413487
 10
369.1249848604643
 20
111.961514354948
 10
369.4508611485803
 20
112.4492219102422
  0
LINE
  5
3D99
330
1F
100
AcDbEntity
  8
1
  6
CONTINUOUS
100
AcDbLine
 10
372.1966212876581
 20
115.8134570729772
 30
0.0
 11
369.246618848338
 21
115.8134570729772
 31
0.0
  0
LINE
  5
3D9A
330
1F
100
AcDbEntity
  8
1
  6
CONTINUOUS
100
AcDbLine
 10
369.7508615702831
 20
106.3134564471284
 30
0.0
 11
372.4008612595939
 21
106.3134564471284
 31
0.0
  0
LINE
  5
3D9B
330
1F
100
AcDbEntity
  8
1
  6
CONTINUOUS
100
AcDbLine
 10
372.5721817724848
 20
102.8134568047563
 30
0.0
 11
370.9508613944493
 21
104.4347776484529
 31
0.0
  0
LINE
  5
3D9C
330
1F
100
AcDbEntity
  8
1
  6
CONTINUOUS
100
AcDbLine
 10
369.4508616142416
 20
103.8134551060239
 30
0.0
 11
371.9508620240235
 21
101.3134574902097
 31
0.0
  0
ARC
  5
3D9D
330
1F
100
AcDbEntity
  8
1
  6
CONTINUOUS
100
AcDbCircle
 10
357.8966254274417
 20
108.3083610783807
 30
0.0
 40
1.000001432242594
100
AcDbArc
 50
180.0
 51
261.8702146263166
  0
ARC
  5
3D9E
330
1F
100
AcDbEntity
  8
1
  6
CONTINUOUS
100
AcDbCircle
 10
359.2966240273643
 20
109.5185546849745
 30
0.0
 40
1.000000000000053
100
AcDbArc
 50
179.9613962199105
 51
262.6879777955276
  0
ARC
  5
3D9F
330
1F
100
AcDbEntity
  8
1
  6
CONTINUOUS
100
AcDbCircle
 10
359.2966212649026
 20
109.518552838309
 30
0.0
 40
0.8999970238360443
100
AcDbArc
 50
180.0
 51
262.6881210948054
  0
LWPOLYLINE
  5
3DA0
330
1F
100
AcDbEntity
  8
1
  6
CONTINUOUS
100
AcDbPolyline
 90
        3
 70
   128
 43
0.0
 10
368.3791253976965
 20
107.8764429700414
 10
363.7664070163013
 20
108.145043851141
 10
359.1820784174347
 20
108.6258745205439
  0
LWPOLYLINE
  5
3DA1
330
1F
100
AcDbEntity
  8
1
  6
CONTINUOUS
100
AcDbPolyline
 90
        3
 70
   128
 43
0.0
 10
369.4508616142416
 20
106.3981695485154
 10
364.771564226176
 20
106.5676181030313
 10
357.7552093454146
 20
107.318409384493
  0
LWPOLYLINE
  5
3DA2
330
1F
100
AcDbEntity
  8
1
  6
CONTINUOUS
100
AcDbPolyline
 90
        3
 70
   128
 43
0.0
 10
359.1693514287911
 20
108.5266886663476
 10
365.5592090478608
 20
107.9144781839887
 10
369.4508611485803
 20
107.7925717842618
  0
LINE
  5
3DA3
330
1F
100
AcDbEntity
  8
1
  6
CONTINUOUS
100
AcDbLine
 10
368.8966222368621
 20
174.0134625148811
 30
0.0
 11
374.8966222890163
 21
174.0134625148811
 31
0.0
  0
LINE
  5
3DA4
330
1F
100
AcDbEntity
  8
1
  6
CONTINUOUS
100
AcDbLine
 10
369.8966233320974
 20
174.0134625148811
 30
0.0
 11
369.8966233320974
 21
170.5134619411865
 31
0.0
  0
LINE
  5
3DA5
330
1F
100
AcDbEntity
  8
1
  6
CONTINUOUS
100
AcDbLine
 10
368.8966222368621
 20
174.0134625148811
 30
0.0
 11
368.8966222368621
 21
171.5134630364219
 31
0.0
  0
LINE
  5
3DA6
330
1F
100
AcDbEntity
  8
1
  6
CONTINUOUS
100
AcDbLine
 10
373.8966230564261
 20
170.5134638038316
 30
0.0
 11
373.8966230564261
 21
174.0134625148811
 31
0.0
  0
LINE
  5
3DA7
330
1F
100
AcDbEntity
  8
1
  6
CONTINUOUS
100
AcDbLine
 10
374.8966222890163
 20
174.0134625148811
 30
0.0
 11
374.8966222890163
 21
171.5134630364219
 31
0.0
  0
LINE
  5
3DA8
330
1F
100
AcDbEntity
  8
1
  6
CONTINUOUS
100
AcDbLine
 10
358.8966242359127
 20
174.013462208279
 30
0.0
 11
361.3966224045002
 21
174.0134625148811
 31
0.0
  0
LINE
  5
3DA9
330
1F
100
AcDbEntity
  8
1
  6
CONTINUOUS
100
AcDbLine
 10
358.8966242359127
 20
174.013462208279
 30
0.0
 11
358.39662416535
 21
174.0134621985641
 31
0.0
  0
LINE
  5
3DAA
330
1F
100
AcDbEntity
  8
1
  6
CONTINUOUS
100
AcDbLine
 10
361.3966224045002
 20
174.0134625148811
 30
0.0
 11
361.3966224045002
 21
171.5134621050991
 31
0.0
  0
LINE
  5
3DAB
330
1F
100
AcDbEntity
  8
1
  6
CONTINUOUS
100
AcDbLine
 10
360.3966234047407
 20
170.5134619411865
 30
0.0
 11
360.3966234047407
 21
174.0134625148811
 31
0.0
  0
LINE
  5
3DAC
330
1F
100
AcDbEntity
  8
1
  6
CONTINUOUS
100
AcDbLine
 10
361.3966224045002
 20
171.5134621050991
 30
0.0
 11
368.8966222368621
 21
171.5134621050991
 31
0.0
  0
LINE
  5
3DAD
330
1F
100
AcDbEntity
  8
1
  6
CONTINUOUS
100
AcDbLine
 10
369.8966233320974
 20
170.5134619411865
 30
0.0
 11
360.3966234047407
 21
170.5134619411865
 31
0.0
  0
LINE
  5
3DAE
330
1F
100
AcDbEntity
  8
1
  6
CONTINUOUS
100
AcDbLine
 10
372.1966212876581
 20
138.6134574574271
 30
0.0
 11
372.1966212876581
 21
137.9134586465397
 31
0.0
  0
LINE
  5
3DAF
330
1F
100
AcDbEntity
  8
1
  6
CONTINUOUS
100
AcDbLine
 10
372.4008603282713
 20
136.2384563696424
 30
0.0
 11
372.4008603282713
 21
140.5134560924808
 31
0.0
  0
LINE
  5
3DB0
330
1F
100
AcDbEntity
  8
1
  6
CONTINUOUS
100
AcDbLine
 10
372.1966212876581
 20
136.3134576392212
 30
0.0
 11
372.4008603282713
 21
136.3134576392212
 31
0.0
  0
LINE
  5
3DB1
330
1F
100
AcDbEntity
  8
1
  6
CONTINUOUS
100
AcDbLine
 10
372.1966240816259
 20
136.3134576392212
 30
0.0
 11
372.4008603282713
 21
136.3134576392212
 31
0.0
  0
ELLIPSE
  5
3DB2
330
1F
100
AcDbEntity
  8
1
  6
CONTINUOUS
100
AcDbEllipse
 10
372.7008601484551
 20
136.2384569498645
 30
0.0
 11
0.3000000119209289
 21
0.0000000131134357
 31
0.0
210
0.0
220
0.0
230
1.0
 40
0.2500000115045391
 41
1.570796326794989
 42
3.141592653588276
  0
ARC
  5
3DB3
330
1F
100
AcDbEntity
  8
1
  6
CONTINUOUS
100
AcDbCircle
 10
372.7008599615889
 20
140.5134569443752
 30
0.0
 40
0.3000000119209861
100
AcDbArc
 50
90.0000025044817
 51
180.0
  0
ARC
  5
3DB4
330
1F
100
AcDbEntity
  8
1
  6
CONTINUOUS
100
AcDbCircle
 10
371.6508604064517
 20
130.0634569103993
 30
0.0
 40
0.7500000000000289
100
AcDbArc
 50
0.0
 51
43.30762633752248
  0
LINE
  5
3DB5
330
1F
100
AcDbEntity
  8
1
  6
CONTINUOUS
100
AcDbLine
 10
367.4966225196115
 20
137.9134567838945
 30
0.0
 11
367.4966225196115
 21
138.6134574574271
 31
0.0
  0
LINE
  5
3DB6
330
1F
100
AcDbEntity
  8
1
  6
CONTINUOUS
100
AcDbLine
 10
367.4966225196115
 20
138.6134574574271
 30
0.0
 11
372.1966212876581
 21
138.6134574574271
 31
0.0
  0
LINE
  5
3DB7
330
1F
100
AcDbEntity
  8
1
  6
CONTINUOUS
100
AcDbLine
 10
372.1966212876581
 20
137.9134586465397
 30
0.0
 11
367.4966225196115
 21
137.9134567838945
 31
0.0
  0
LINE
  5
3DB8
330
1F
100
AcDbEntity
  8
1
  6
CONTINUOUS
100
AcDbLine
 10
324.3724701559538
 20
204.2507870507279
 30
0.0
 11
324.3724701559538
 21
201.8134637188949
 31
0.0
  0
LINE
  5
3DB9
330
1F
100
AcDbEntity
  8
1
  6
CONTINUOUS
100
AcDbLine
 10
324.3724701559538
 20
204.2507833254375
 30
0.0
 11
324.3724701559538
 21
203.5051180434265
 31
0.0
  0
LINE
  5
3DBA
330
1F
100
AcDbEntity
  8
1
  6
CONTINUOUS
100
AcDbLine
 10
324.3724701559538
 20
203.5051180434265
 30
0.0
 11
324.3724701559538
 21
203.10837090135
 31
0.0
  0
ARC
  5
3DBB
330
1F
100
AcDbEntity
  8
1
  6
CONTINUOUS
100
AcDbCircle
 10
323.8726255360881
 20
204.2506379725173
 30
0.0
 40
0.4998446409999425
100
AcDbArc
 50
0.0166614032885547
 51
90.0174999160124
  0
ARC
  5
3DBC
330
1F
100
AcDbEntity
  8
1
  6
CONTINUOUS
100
AcDbCircle
 10
323.8726255360878
 20
204.2506379725173
 30
0.0
 40
0.4998446409999782
100
AcDbArc
 50
0.0166613949737193
 51
90.01749991600588
  0
LINE
  5
3DBD
330
1F
100
AcDbEntity
  8
1
  6
CONTINUOUS
100
AcDbLine
 10
318.4350130712981
 20
206.3134616625348
 30
0.0
 11
317.8724715089797
 21
206.3134629340813
 31
0.0
  0
LINE
  5
3DBE
330
1F
100
AcDbEntity
  8
1
  6
CONTINUOUS
100
AcDbLine
 10
317.8724715089797
 20
205.308515434464
 30
0.0
 11
317.8724715089797
 21
206.3134629340813
 31
0.0
  0
LINE
  5
3DBF
330
1F
100
AcDbEntity
  8
1
  6
CONTINUOUS
100
AcDbLine
 10
318.3724728977673
 20
205.3085161757508
 30
0.0
 11
318.3724728977676
 21
206.3096581411401
 31
0.0
  0
LINE
  5
3DC0
330
1F
100
AcDbEntity
  8
1
  6
CONTINUOUS
100
AcDbLine
 10
318.3724728977673
 20
204.318564982418
 30
0.0
 11
318.3724728977673
 21
205.3085161757508
 31
0.0
  0
LINE
  5
3DC1
330
1F
100
AcDbEntity
  8
1
  6
CONTINUOUS
100
AcDbLine
 10
323.8737245655053
 20
204.7507880640069
 30
0.0
 11
318.3724728977676
 21
204.7507880640069
 31
0.0
  0
LINE
  5
3DC2
330
1F
100
AcDbEntity
  8
1
  6
CONTINUOUS
100
AcDbLine
 10
308.3724715089796
 20
205.3085154347371
 30
0.0
 11
308.3724715089803
 21
206.3134629340809
 31
0.0
  0
LINE
  5
3DC3
330
1F
100
AcDbEntity
  8
1
  6
CONTINUOUS
100
AcDbLine
 10
308.3724715089796
 20
205.3085154347371
 30
0.0
 11
308.3724715089796
 21
204.3185649148514
 31
0.0
  0
LINE
  5
3DC4
330
1F
100
AcDbEntity
  8
1
  6
CONTINUOUS
100
AcDbLine
 10
317.8724715089797
 20
206.3134629340813
 30
0.0
 11
308.3724715089803
 21
206.3134629340809
 31
0.0
  0
ARC
  5
3DC5
330
1F
100
AcDbEntity
  8
1
  6
CONTINUOUS
100
AcDbCircle
 10
786.1855035070932
 20
189.9902494166238
 30
0.0
 40
411.0364855004259
100
AcDbArc
 50
177.9420782399954
 51
178.0117764748661
  0
LINE
  5
3DC6
330
1F
100
AcDbEntity
  8
1
  6
CONTINUOUS
100
AcDbLine
 10
374.8966232203388
 20
204.2507870507279
 30
0.0
 11
374.8966232203388
 21
201.8134637188949
 31
0.0
  0
LINE
  5
3DC7
330
1F
100
AcDbEntity
  8
1
  6
CONTINUOUS
100
AcDbLine
 10
375.3966233022951
 20
204.2507870507279
 30
0.0
 11
374.8966232203388
 21
204.2507870507279
 31
0.0
  0
ARC
  5
3DC8
330
1F
100
AcDbEntity
  8
1
  6
CONTINUOUS
100
AcDbCircle
 10
375.3966251736347
 20
204.2507868656946
 30
0.0
 40
0.5000019532961831
100
AcDbArc
 50
87.9946187236278
 51
180.0
  0
LINE
  5
3DC9
330
1F
100
AcDbEntity
  8
1
  6
CONTINUOUS
100
AcDbLine
 10
368.896623633846
 20
204.2507870507279
 30
0.0
 11
368.896623633846
 21
201.8134637188949
 31
0.0
  0
LINE
  5
3DCA
330
1F
100
AcDbEntity
  8
1
  6
CONTINUOUS
100
AcDbLine
 10
368.3966235518897
 20
204.2507870507279
 30
0.0
 11
368.896623633846
 21
204.2507870507279
 31
0.0
  0
ARC
  5
3DCB
330
1F
100
AcDbEntity
  8
1
  6
CONTINUOUS
100
AcDbCircle
 10
368.3966224930518
 20
204.2507876908387
 30
0.0
 40
0.5000011407947308
100
AcDbArc
 50
0.0
 51
92.00542430570154
  0
ARC
  5
3DCC
330
1F
100
AcDbEntity
  8
1
  6
CONTINUOUS
100
AcDbCircle
 10
-40.29911769250154
 20
190.0641873567353
 30
0.0
 40
408.9420419117795
100
AcDbArc
 50
1.988045041360061
 51
2.05810024377968
  0
LINE
  5
3DCD
330
1F
100
AcDbEntity
  8
1
  6
CONTINUOUS
100
AcDbLine
 10
375.4141219221496
 20
204.7504825902024
 30
0.0
 11
368.3791253976965
 21
204.7504825902024
 31
0.0
  0
ARC
  5
3DCE
330
1F
100
AcDbEntity
  8
1
  6
CONTINUOUS
100
AcDbCircle
 10
371.8966234270922
 20
201.8134617389093
 30
0.0
 40
2.999999793247041
100
AcDbArc
 50
180.0
 51
0.0
  0
INSERT
  5
3DCF
330
1F
100
AcDbEntity
  8
1
100
AcDbBlockReference
  2
A$C09634F3C
 10
370.8900539472028
 20
198.0568936454275
 30
0.0
 50
30.00000000000047
  0
ARC
  5
3DD0
330
1F
100
AcDbEntity
  8
1
  6
CONTINUOUS
100
AcDbCircle
 10
357.8966270780719
 20
204.3185634541385
 30
0.0
 40
1.000002617212776
100
AcDbArc
 50
98.12984425776852
 51
180.0
  0
ARC
  5
3DD1
330
1F
100
AcDbEntity
  8
1
  6
CONTINUOUS
100
AcDbCircle
 10
359.2966244813206
 20
203.108371121571
 30
0.0
 40
0.9999999999997886
100
AcDbArc
 50
97.31202164805472
 51
180.0
  0
ARC
  5
3DD2
330
1F
100
AcDbEntity
  8
1
  6
CONTINUOUS
100
AcDbCircle
 10
359.2966209136374
 20
203.1083729627408
 30
0.0
 40
0.8999962069102327
100
AcDbArc
 50
97.31159404006122
 51
180.0
  0
LWPOLYLINE
  5
3DD3
330
1F
100
AcDbEntity
  8
1
  6
CONTINUOUS
100
AcDbPolyline
 90
        3
 70
   128
 43
0.0
 10
368.3791253976965
 20
204.7504825902024
 10
363.766406918076
 20
204.4818817091026
 10
359.1820784174347
 20
204.0010510396995
  0
LINE
  5
3DD4
330
1F
100
AcDbEntity
  8
1
  6
CONTINUOUS
100
AcDbLine
 10
385.3966240101004
 20
203.10837090135
 30
0.0
 11
385.3966241653498
 21
174.0134633874356
 31
0.0
  0
LINE
  5
3DD5
330
1F
100
AcDbEntity
  8
1
  6
CONTINUOUS
100
AcDbLine
 10
386.8966233246469
 20
108.3083605778255
 30
0.0
 11
386.8966251872921
 21
204.318564982418
 31
0.0
  0
LINE
  5
3DD6
330
1F
100
AcDbEntity
  8
1
  6
CONTINUOUS
100
AcDbLine
 10
385.4966240273639
 20
109.518554560192
 30
0.0
 11
385.4966242543425
 21
203.1083709967884
 31
0.0
  0
LINE
  5
3DD7
330
1F
100
AcDbEntity
  8
1
  6
CONTINUOUS
100
AcDbLine
 10
385.3966240101004
 20
137.9134586465397
 30
0.0
 11
385.3966240101004
 21
114.8134587717094
 31
0.0
  0
LINE
  5
3DD8
330
1F
100
AcDbEntity
  8
1
  6
CONTINUOUS
100
AcDbLine
 10
380.6966226809168
 20
137.9134586465397
 30
0.0
 11
380.6966226809168
 21
115.8134570729772
 31
0.0
  0
LINE
  5
3DD9
330
1F
100
AcDbEntity
  8
1
  6
CONTINUOUS
100
AcDbLine
 10
380.5008605383778
 20
106.3134564471284
 30
0.0
 11
380.5008605383778
 21
136.2384563696424
 31
0.0
  0
LINE
  5
3DDA
330
1F
100
AcDbEntity
  8
1
  6
CONTINUOUS
100
AcDbLine
 10
379.2008599527621
 20
134.8134564620296
 30
0.0
 11
379.2008618154073
 21
106.3134564471284
 31
0.0
  0
LINE
  5
3DDB
330
1F
100
AcDbEntity
  8
1
  6
CONTINUOUS
100
AcDbLine
 10
380.9508625679157
 20
96.31345749020972
 30
0.0
 11
383.4508620463752
 21
98.81345883131423
 31
0.0
  0
LWPOLYLINE
  5
3DDC
330
1F
100
AcDbEntity
  8
1
  6
CONTINUOUS
100
AcDbPolyline
 90
       10
 70
   128
 43
0.0
 10
383.4508620463752
 20
98.81345883131423
 10
383.4463041536951
 20
98.81534382820525
 10
383.4327701740408
 20
98.82095039010444
 10
383.4106698893451
 20
98.83010715365806
 10
383.3806757145071
 20
98.84253099680343
 10
383.3436984830046
 20
98.8578456652204
 10
383.3008613698626
 20
98.87558922291198
 10
383.2534682266853
 20
98.89522150278487
 10
383.2029551528835
 20
98.91614273310104
 10
383.1508606933498
 20
98.93772333980002
  0
LINE
  5
3DDD
330
1F
100
AcDbEntity
  8
1
  6
CONTINUOUS
100
AcDbLine
 10
381.9508608691835
 20
99.4347776484529
 30
0.0
 11
380.3295418881321
 21
97.81345680475631
 31
0.0
  0
LWPOLYLINE
  5
3DDE
330
1F
100
AcDbEntity
  8
1
  6
CONTINUOUS
100
AcDbPolyline
 90
       10
 70
   128
 43
0.0
 10
380.8265980594301
 20
96.61345884323516
 10
380.8481749408386
 20
96.56136438370147
 10
380.8690980338001
 20
96.51084944725432
 10
380.888730313673
 20
96.46345630407729
 10
380.9064738713646
 20
96.42061919093528
 10
380.9217885397816
 20
96.38364568472304
 10
380.9342142455721
 20
96.35364964723983
 10
380.9433672838352
 20
96.33155122518935
 10
380.9489738457346
 20
96.31801352024474
 10
380.9508625679157
 20
96.31345749020972
  0
LINE
  5
3DDF
330
1F
100
AcDbEntity
  8
1
  6
CONTINUOUS
100
AcDbLine
 10
381.9508608691835
 20
99.4347776484529
 30
0.0
 11
381.9508608691835
 21
99.81345713258185
 31
0.0
  0
LINE
  5
3DE0
330
1F
100
AcDbEntity
  8
1
  6
CONTINUOUS
100
AcDbLine
 10
383.4508620463752
 20
101.013458819393
 30
0.0
 11
383.4508620463752
 21
98.81345883131423
 31
0.0
  0
LINE
  5
3DE1
330
1F
100
AcDbEntity
  8
1
  6
CONTINUOUS
100
AcDbLine
 10
383.6466186009788
 20
115.8134570729772
 30
0.0
 11
383.6466186009788
 21
115.3134597849885
 31
0.0
  0
LINE
  5
3DE2
330
1F
100
AcDbEntity
  8
1
  6
CONTINUOUS
100
AcDbLine
 10
383.6466186009788
 20
114.8134587717094
 30
0.0
 11
383.4508601837301
 21
114.8134587717094
 31
0.0
  0
LINE
  5
3DE3
330
1F
100
AcDbEntity
  8
1
  6
CONTINUOUS
100
AcDbLine
 10
383.6466186009788
 20
115.3134597849885
 30
0.0
 11
383.6466186009788
 21
114.8134587717094
 31
0.0
  0
LINE
  5
3DE4
330
1F
100
AcDbEntity
  8
1
  6
CONTINUOUS
100
AcDbLine
 10
385.3966240101004
 20
114.8134587717094
 30
0.0
 11
384.1466196142578
 21
114.8134587717094
 31
0.0
  0
LINE
  5
3DE5
330
1F
100
AcDbEntity
  8
1
  6
CONTINUOUS
100
AcDbLine
 10
383.6466186009788
 20
115.3134597849885
 30
0.0
 11
384.1466196142578
 21
114.8134587717094
 31
0.0
  0
ARC
  5
3DE6
330
1F
100
AcDbEntity
  8
1
  6
CONTINUOUS
100
AcDbCircle
 10
381.2508609091307
 20
118.5634573300285
 30
0.0
 40
0.7500000000000008
100
AcDbArc
 50
180.0
 51
222.3550111565449
  0
LINE
  5
3DE7
330
1F
100
AcDbEntity
  8
1
  6
CONTINUOUS
100
AcDbLine
 10
380.6966226809168
 20
115.8134570729772
 30
0.0
 11
383.6466186009788
 21
115.8134570729772
 31
0.0
  0
ARC
  5
3DE8
330
1F
100
AcDbEntity
  8
1
  6
CONTINUOUS
100
AcDbCircle
 10
385.8966203621843
 20
108.308362272499
 30
0.0
 40
1.00000296246408
100
AcDbArc
 50
278.1299153165539
 51
0.0
  0
LINE
  5
3DE9
330
1F
100
AcDbEntity
  8
1
  6
CONTINUOUS
100
AcDbLine
 10
383.4508620463752
 20
106.0134588193933
 30
0.0
 11
383.4508620463752
 21
103.8134588313142
 31
0.0
  0
LINE
  5
3DEA
330
1F
100
AcDbEntity
  8
1
  6
CONTINUOUS
100
AcDbLine
 10
383.4508620463752
 20
108.413909227852
 30
0.0
 11
384.6238967498208
 21
108.5266868022187
 31
0.0
  0
LINE
  5
3DEB
330
1F
100
AcDbEntity
  8
1
  6
CONTINUOUS
100
AcDbLine
 10
384.6111689024115
 20
108.6258745205439
 30
0.0
 11
383.4508620463752
 21
108.5041730117836
 31
0.0
  0
ARC
  5
3DEC
330
1F
100
AcDbEntity
  8
1
  6
CONTINUOUS
100
AcDbCircle
 10
384.4966240273641
 20
109.5185545626174
 30
0.0
 40
0.9999999999999864
100
AcDbArc
 50
277.3120216480677
 51
0.0
  0
ARC
  5
3DED
330
1F
100
AcDbEntity
  8
1
  6
CONTINUOUS
100
AcDbCircle
 10
384.4966263799046
 20
109.5185534913375
 30
0.0
 40
0.8999976301964418
100
AcDbArc
 50
277.3118530946746
 51
0.0
  0
LINE
  5
3DEE
330
1F
100
AcDbEntity
  8
1
  6
CONTINUOUS
100
AcDbLine
 10
386.038038905754
 20
107.318409384493
 30
0.0
 11
383.4508620463752
 21
107.042752803568
 31
0.0
  0
LINE
  5
3DEF
330
1F
100
AcDbEntity
  8
1
  6
CONTINUOUS
100
AcDbLine
 10
381.9508608691835
 20
104.4347776484529
 30
0.0
 11
381.9508608691835
 21
104.8134571325818
 31
0.0
  0
LINE
  5
3DF0
330
1F
100
AcDbEntity
  8
1
  6
CONTINUOUS
100
AcDbLine
 10
380.5008605383778
 20
106.3134564471284
 30
0.0
 11
383.1508606933498
 21
106.3134564471284
 31
0.0
  0
LWPOLYLINE
  5
3DF1
330
1F
100
AcDbEntity
  8
1
  6
CONTINUOUS
100
AcDbPolyline
 90
       10
 70
   128
 43
0.0
 10
380.2008610479975
 20
106.0134588193933
 10
380.2529555075312
 20
106.0655532789269
 10
380.3034667186878
 20
106.1160644900837
 10
380.3508617245102
 20
106.1634576332608
 10
380.3936969750071
 20
106.2062947464027
 10
380.4306742065096
 20
106.2432719779054
 10
380.4606683813476
 20
106.2732642900983
 10
380.4827686660433
 20
106.2953664374391
 10
380.4963045083427
 20
106.3089004170934
 10
380.5008605383778
 20
106.3134564471284
  0
LINE
  5
3DF2
330
1F
100
AcDbEntity
  8
1
  6
CONTINUOUS
100
AcDbLine
 10
383.1508606933498
 20
106.3134564471284
 30
0.0
 11
383.1508606933498
 21
106.0134588193933
 31
0.0
  0
LWPOLYLINE
  5
3DF3
330
1F
100
AcDbEntity
  8
1
  6
CONTINUOUS
100
AcDbPolyline
 90
       10
 70
   128
 43
0.0
 10
380.8265980594301
 20
101.613458843235
 10
380.8481749408386
 20
101.5613643837014
 10
380.8690980338001
 20
101.5108494472543
 10
380.888730313673
 20
101.4634563040772
 10
380.9064738713646
 20
101.4206191909352
 10
380.9217885397816
 20
101.383645684723
 10
380.9342142455721
 20
101.3536496472398
 10
380.9433672838352
 20
101.3315512251893
 10
380.9489738457346
 20
101.3180135202446
 10
380.9508625679157
 20
101.3134574902097
  0
LINE
  5
3DF4
330
1F
100
AcDbEntity
  8
1
  6
CONTINUOUS
100
AcDbLine
 10
381.9508608691835
 20
104.4347776484529
 30
0.0
 11
380.3295418881321
 21
102.8134568047563
 31
0.0
  0
LWPOLYLINE
  5
3DF5
330
1F
100
AcDbEntity
  8
1
  6
CONTINUOUS
100
AcDbPolyline
 90
       10
 70
   128
 43
0.0
 10
383.4508620463752
 20
103.8134588313142
 10
383.4463041536951
 20
103.8153438282052
 10
383.4327701740408
 20
103.8209503901044
 10
383.4106698893451
 20
103.830107153658
 10
383.3806757145071
 20
103.8425309968034
 10
383.3436984830046
 20
103.8578456652204
 10
383.3008613698626
 20
103.8755892229119
 10
383.2534682266853
 20
103.8952215027848
 10
383.2029551528835
 20
103.916142733101
 10
383.1508606933498
 20
103.9377233398
  0
ARC
  5
3DF6
330
1F
100
AcDbEntity
  8
1
  6
CONTINUOUS
100
AcDbCircle
 10
383.1508614276348
 20
106.0134558283738
 30
0.0
 40
0.3000006187554509
100
AcDbArc
 50
0.0
 51
90.00014023781249
  0
LINE
  5
3DF7
330
1F
100
AcDbEntity
  8
1
  6
CONTINUOUS
100
AcDbLine
 10
380.9508625679157
 20
101.3134574902097
 30
0.0
 11
383.4508620463752
 21
103.8134588313142
 31
0.0
  0
LINE
  5
3DF8
330
1F
100
AcDbEntity
  8
1
  6
CONTINUOUS
100
AcDbLine
 10
383.4508601837301
 20
115.8134570729772
 30
0.0
 11
383.4508620463752
 21
106.0134588193933
 31
0.0
  0
LINE
  5
3DF9
330
1F
100
AcDbEntity
  8
1
  6
CONTINUOUS
100
AcDbLine
 10
385.3966240101004
 20
114.8134587717094
 30
0.0
 11
385.3966240101004
 21
109.5185546588937
 31
0.0
  0
LINE
  5
3DFA
330
1F
100
AcDbEntity
  8
1
  6
CONTINUOUS
100
AcDbLine
 10
376.9966224469686
 20
112.4134591233769
 30
0.0
 11
376.9966224469686
 21
113.6134608101884
 31
0.0
  0
ARC
  5
3DFB
330
1F
100
AcDbEntity
  8
1
  6
CONTINUOUS
100
AcDbCircle
 10
377.900860842571
 20
119.8134571716742
 30
0.0
 40
0.3000000119209861
100
AcDbArc
 50
0.0
 51
90.0000025044817
  0
ARC
  5
3DFC
330
1F
100
AcDbEntity
  8
1
  6
CONTINUOUS
100
AcDbCircle
 10
378.7008612566361
 20
110.6134596556784
 30
0.0
 40
0.5000000000001144
100
AcDbArc
 50
180.0
 51
0.0
  0
LINE
  5
3DFD
330
1F
100
AcDbEntity
  8
1
  6
CONTINUOUS
100
AcDbLine
 10
378.2008612566363
 20
110.6134596338227
 30
0.0
 11
378.2008608544919
 21
119.8134571847877
 31
0.0
  0
LINE
  5
3DFE
330
1F
100
AcDbEntity
  8
1
  6
CONTINUOUS
100
AcDbLine
 10
377.1008607261322
 20
118.6134597671069
 30
0.0
 11
377.1008616574549
 21
110.1134611678163
 31
0.0
  0
LINE
  5
3DFF
330
1F
100
AcDbEntity
  8
1
  6
CONTINUOUS
100
AcDbLine
 10
376.9966224469686
 20
110.4134587955514
 30
0.0
 11
376.9966224469686
 21
112.4134591233769
 31
0.0
  0
LINE
  5
3E00
330
1F
100
AcDbEntity
  8
1
  6
CONTINUOUS
100
AcDbLine
 10
385.3966241653498
 20
174.0134633874356
 30
0.0
 11
384.8966241653497
 21
174.0134633884865
 31
0.0
  0
LINE
  5
3E01
330
1F
100
AcDbEntity
  8
1
  6
CONTINUOUS
100
AcDbLine
 10
382.3966216557167
 20
174.0134634462038
 30
0.0
 11
384.8966241653497
 21
174.0134633884865
 31
0.0
  0
LINE
  5
3E02
330
1F
100
AcDbEntity
  8
1
  6
CONTINUOUS
100
AcDbLine
 10
382.3966216557167
 20
171.5134630364219
 30
0.0
 11
382.3966216557167
 21
174.0134634462038
 31
0.0
  0
LINE
  5
3E03
330
1F
100
AcDbEntity
  8
1
  6
CONTINUOUS
100
AcDbLine
 10
383.3966236822746
 20
174.0134634462038
 30
0.0
 11
383.3966236822746
 21
170.5134638038316
 31
0.0
  0
LINE
  5
3E04
330
1F
100
AcDbEntity
  8
1
  6
CONTINUOUS
100
AcDbLine
 10
385.3966240101004
 20
138.6134574574271
 30
0.0
 11
385.3966240101004
 21
137.9134586465397
 31
0.0
  0
LINE
  5
3E05
330
1F
100
AcDbEntity
  8
1
  6
CONTINUOUS
100
AcDbLine
 10
380.6966226809168
 20
137.9134586465397
 30
0.0
 11
380.6966226809168
 21
138.6134574574271
 31
0.0
  0
LINE
  5
3E06
330
1F
100
AcDbEntity
  8
1
  6
CONTINUOUS
100
AcDbLine
 10
380.5008605383778
 20
140.5134579551259
 30
0.0
 11
380.5008605383778
 21
136.2384563696424
 31
0.0
  0
LINE
  5
3E07
330
1F
100
AcDbEntity
  8
1
  6
CONTINUOUS
100
AcDbLine
 10
380.5008605383778
 20
136.3134576392212
 30
0.0
 11
380.6966226809168
 21
136.3134576392212
 31
0.0
  0
LINE
  5
3E08
330
1F
100
AcDbEntity
  8
1
  6
CONTINUOUS
100
AcDbLine
 10
380.5008605383778
 20
136.3134576392212
 30
0.0
 11
380.6966226809168
 21
136.3134576392212
 31
0.0
  0
ELLIPSE
  5
3E09
330
1F
100
AcDbEntity
  8
1
  6
CONTINUOUS
100
AcDbEllipse
 10
380.2008601246116
 20
136.2384572776998
 30
0.0
 11
0.3000000119210426
 21
0.0000000131134357
 31
0.0
210
0.0
220
0.0
230
1.0
 40
0.2500000115044443
 41
0.0
 42
1.570796326794611
  0
ARC
  5
3E0A
330
1F
100
AcDbEntity
  8
1
  6
CONTINUOUS
100
AcDbCircle
 10
380.2008599377455
 20
140.5134572722104
 30
0.0
 40
0.3000000119209292
100
AcDbArc
 50
0.0
 51
90.0000025044817
  0
LINE
  5
3E0B
330
1F
100
AcDbEntity
  8
1
  6
CONTINUOUS
100
AcDbLine
 10
385.3966240101004
 20
137.9134586465397
 30
0.0
 11
380.6966226809168
 21
137.9134586465397
 31
0.0
  0
LINE
  5
3E0C
330
1F
100
AcDbEntity
  8
1
  6
CONTINUOUS
100
AcDbLine
 10
380.6966226809168
 20
138.6134574574271
 30
0.0
 11
385.3966240101004
 21
138.6134574574271
 31
0.0
  0
ARC
  5
3E0D
330
1F
100
AcDbEntity
  8
1
  6
CONTINUOUS
100
AcDbCircle
 10
381.2508604064498
 20
130.063457330028
 30
0.0
 40
0.7500000000000222
100
AcDbArc
 50
137.6449318437652
 51
180.0
  0
LINE
  5
3E0E
330
1F
100
AcDbEntity
  8
1
  6
CONTINUOUS
100
AcDbLine
 10
385.3966241653498
 20
174.0134633874356
 30
0.0
 11
385.3966240101004
 21
138.6134574574271
 31
0.0
  0
ARC
  5
3E0F
330
1F
100
AcDbEntity
  8
1
  6
CONTINUOUS
100
AcDbCircle
 10
384.496624481321
 20
203.1083709992135
 30
0.0
 40
1.000000000000022
100
AcDbArc
 50
359.9613962030496
 51
82.68797779554081
  0
ARC
  5
3E10
330
1F
100
AcDbEntity
  8
1
  6
CONTINUOUS
100
AcDbCircle
 10
384.4966270045955
 20
203.108372857564
 30
0.0
 40
0.8999970055071045
100
AcDbArc
 50
0.0
 51
82.68806234539578
  0
ARC
  5
3E11
330
1F
100
AcDbEntity
  8
1
  6
CONTINUOUS
100
AcDbCircle
 10
385.8966211557703
 20
204.3185620944634
 30
0.0
 40
1.000004031526025
100
AcDbArc
 50
0.0
 51
81.87013936414155
  0
LINE
  5
3F24
330
1F
100
AcDbEntity
  8
1
  6
CONTINUOUS
100
AcDbLine
 10
202.0128493049089
 20
246.0642627379761
 30
0.0
 11
202.0128493049089
 21
292.2642624876376
 31
0.0
  0
LINE
  5
3F25
330
1F
100
AcDbEntity
  8
1
  6
CONTINUOUS
100
AcDbLine
 10
175.0128490702155
 20
292.2642624876376
 30
0.0
 11
175.0128490702155
 21
246.0642627379761
 31
0.0
  0
LINE
  5
3F26
330
1F
100
AcDbEntity
  8
1
  6
CONTINUOUS
100
AcDbLine
 10
202.5128493868654
 20
292.2642624876378
 30
0.0
 11
202.5128493868654
 21
246.0642627379761
 31
0.0
  0
LINE
  5
3F27
330
1F
100
AcDbEntity
  8
1
  6
CONTINUOUS
100
AcDbLine
 10
174.3714346741206
 20
236.0642627379761
 30
0.0
 11
202.654263339466
 21
236.0642627379761
 31
0.0
  0
LINE
  5
3F28
330
1F
100
AcDbEntity
  8
1
  6
CONTINUOUS
100
AcDbLine
 10
174.3714346741206
 20
246.0642627379761
 30
0.0
 11
202.6542633394659
 21
246.0642627379761
 31
0.0
  0
LINE
  5
3F29
330
1F
100
AcDbEntity
  8
1
  6
CONTINUOUS
100
AcDbLine
 10
173.5128486139203
 20
246.0642627379761
 30
0.0
 11
173.512849011595
 21
236.0642627329761
 31
0.0
  0
LINE
  5
3F2A
330
1F
100
AcDbEntity
  8
1
  6
CONTINUOUS
100
AcDbLine
 10
174.3714346741206
 20
236.0642627379761
 30
0.0
 11
173.512849011595
 21
236.0642627329761
 31
0.0
  0
LINE
  5
3F2B
330
1F
100
AcDbEntity
  8
1
  6
CONTINUOUS
100
AcDbLine
 10
174.3714346741206
 20
246.0642627379761
 30
0.0
 11
173.5128486139203
 21
246.0642627379761
 31
0.0
  0
LINE
  5
3F2C
330
1F
100
AcDbEntity
  8
1
  6
CONTINUOUS
100
AcDbLine
 10
203.51284861392
 20
246.0642627379761
 30
0.0
 11
203.5128490115952
 21
236.0642627329761
 31
0.0
  0
LINE
  5
3F2D
330
1F
100
AcDbEntity
  8
1
  6
CONTINUOUS
100
AcDbLine
 10
203.5128490115952
 20
236.0642627329761
 30
0.0
 11
202.654263339466
 21
236.0642627379761
 31
0.0
  0
LINE
  5
3F2E
330
1F
100
AcDbEntity
  8
1
  6
CONTINUOUS
100
AcDbLine
 10
203.51284861392
 20
246.0642627379761
 30
0.0
 11
202.6542633394659
 21
246.0642627379761
 31
0.0
  0
LINE
  5
3F2F
330
1F
100
AcDbEntity
  8
1
  6
CONTINUOUS
100
AcDbLine
 10
203.5128487919624
 20
292.2642627379776
 30
0.0
 11
203.512849550778
 21
301.7642631134865
 31
0.0
  0
LINE
  5
3F30
330
1F
100
AcDbEntity
  8
1
  6
CONTINUOUS
100
AcDbLine
 10
203.5128500164395
 20
301.7642631134868
 30
0.0
 11
203.5128487919624
 21
292.2642627379776
 31
0.0
  0
LINE
  5
3F31
330
1F
100
AcDbEntity
  8
1
  6
CONTINUOUS
100
AcDbLine
 10
173.5128497556689
 20
301.7642631134865
 30
0.0
 11
173.5128487919625
 21
292.2642627379776
 31
0.0
  0
LINE
  5
3F32
330
1F
100
AcDbEntity
  8
1
  6
CONTINUOUS
100
AcDbLine
 10
202.6542635269994
 20
292.2642627379776
 30
0.0
 11
174.3714352403459
 21
292.2642627379776
 31
0.0
  0
LINE
  5
3F33
330
1F
100
AcDbEntity
  8
1
  6
CONTINUOUS
100
AcDbLine
 10
173.5128487919625
 20
292.2642627379776
 30
0.0
 11
174.3714352403459
 21
292.2642627379776
 31
0.0
  0
LINE
  5
3F34
330
1F
100
AcDbEntity
  8
1
  6
CONTINUOUS
100
AcDbLine
 10
202.6542635269994
 20
292.2642627379776
 30
0.0
 11
203.5128487919624
 21
292.2642627379776
 31
0.0
  0
LINE
  5
3F35
330
1F
100
AcDbEntity
  8
1
  6
CONTINUOUS
100
AcDbLine
 10
202.6542632692401
 20
302.2642641267655
 30
0.0
 11
174.3714341745619
 21
302.2642641267655
 31
0.0
  0
LINE
  5
3F36
330
1F
100
AcDbEntity
  8
1
  6
CONTINUOUS
100
AcDbLine
 10
202.6542635289124
 20
301.7642627379776
 30
0.0
 11
174.3714352384338
 21
301.7642627379776
 31
0.0
  0
LINE
  5
3F37
330
1F
100
AcDbEntity
  8
1
  6
CONTINUOUS
100
AcDbLine
 10
175.861939586783
 20
308.2642613849518
 30
0.0
 11
185.0130025149231
 21
308.2642613849518
 31
0.0
  0
LINE
  5
3F38
330
1F
100
AcDbEntity
  8
1
  6
CONTINUOUS
100
AcDbLine
 10
175.0128490702155
 20
302.2642641267655
 30
0.0
 11
175.0128490702155
 21
307.7642640969631
 31
0.0
  0
LINE
  5
3F39
330
1F
100
AcDbEntity
  8
1
  6
CONTINUOUS
100
AcDbLine
 10
175.0128490702155
 20
303.7642634413121
 30
0.0
 11
175.0128490702155
 21
306.2642610571263
 31
0.0
  0
LINE
  5
3F3A
330
1F
100
AcDbEntity
  8
1
  6
CONTINUOUS
100
AcDbLine
 10
173.5128478930239
 20
301.7642631134865
 30
0.0
 11
173.5128478930239
 21
302.2642641267655
 31
0.0
  0
LINE
  5
3F3B
330
1F
100
AcDbEntity
  8
1
  6
CONTINUOUS
100
AcDbLine
 10
174.3714341745619
 20
302.2642641267655
 30
0.0
 11
173.5128478930239
 21
302.2642641267655
 31
0.0
  0
ARC
  5
3F3C
330
1F
100
AcDbEntity
  8
1
  6
CONTINUOUS
100
AcDbCircle
 10
175.5128436662812
 20
307.7642667888998
 30
0.0
 40
0.4999945960727211
100
AcDbArc
 50
89.99947807926963
 51
180.0
  0
LINE
  5
3F3D
330
1F
100
AcDbEntity
  8
1
  6
CONTINUOUS
100
AcDbLine
 10
175.5128482208494
 20
308.2642613849518
 30
0.0
 11
175.861939586783
 21
308.2642613849518
 31
0.0
  0
LINE
  5
3F3E
330
1F
100
AcDbEntity
  8
1
  6
CONTINUOUS
100
AcDbLine
 10
175.0128490702155
 20
308.2642613849521
 30
0.0
 11
175.4469701872114
 21
308.2642613849521
 31
0.0
  0
LINE
  5
3F3F
330
1F
100
AcDbEntity
  8
1
  6
CONTINUOUS
100
AcDbLine
 10
175.0128490702155
 20
306.2642610571263
 30
0.0
 11
175.0128490702155
 21
308.2642613849521
 31
0.0
  0
LINE
  5
3F40
330
1F
100
AcDbEntity
  8
1
  6
CONTINUOUS
100
AcDbLine
 10
192.0126963258629
 20
308.2642613849518
 30
0.0
 11
201.1637583226804
 21
308.2642613849518
 31
0.0
  0
ARC
  5
3F41
330
1F
100
AcDbEntity
  8
1
  6
CONTINUOUS
100
AcDbCircle
 10
185.0128543283456
 20
307.7642658533381
 30
0.0
 40
0.499995531634583
100
AcDbArc
 50
0.0
 51
90.00052143348202
  0
LINE
  5
3F42
330
1F
100
AcDbEntity
  8
1
  6
CONTINUOUS
100
AcDbLine
 10
185.0128497780209
 20
308.2642613849518
 30
0.0
 11
192.0128495284263
 21
308.2642613849518
 31
0.0
  0
ARC
  5
3F43
330
1F
100
AcDbEntity
  8
1
  6
CONTINUOUS
100
AcDbCircle
 10
188.58018023443
 20
307.8880194327325
 30
0.0
 40
3.586964578742901
100
AcDbArc
 50
173.9790868460278
 51
181.9771775702067
  0
LINE
  5
3F44
330
1F
100
AcDbEntity
  8
1
  6
CONTINUOUS
100
AcDbLine
 10
191.5128494464699
 20
307.7642640969631
 30
0.0
 11
191.5128494464699
 21
302.2642641267655
 31
0.0
  0
LINE
  5
3F45
330
1F
100
AcDbEntity
  8
1
  6
CONTINUOUS
100
AcDbLine
 10
185.5128498599773
 20
302.2642641267655
 30
0.0
 11
185.5128498599773
 21
307.7642640969631
 31
0.0
  0
LINE
  5
3F46
330
1F
100
AcDbEntity
  8
1
  6
CONTINUOUS
100
AcDbLine
 10
188.2128517926578
 20
308.2642613849521
 30
0.0
 11
192.9128505607044
 21
308.2642651102423
 31
0.0
  0
ARC
  5
3F47
330
1F
100
AcDbEntity
  8
1
  6
CONTINUOUS
100
AcDbCircle
 10
192.01284478435
 20
307.7642660470903
 30
0.0
 40
0.4999953378839967
100
AcDbArc
 50
89.99945636384353
 51
180.0
  0
ARC
  5
3F48
330
1F
100
AcDbEntity
  8
1
  6
CONTINUOUS
100
AcDbCircle
 10
188.4454710585551
 20
307.8880177541571
 30
0.0
 40
3.587012040324466
100
AcDbArc
 50
358.0228754292877
 51
6.02086015447888
  0
ARC
  5
3F49
330
1F
100
AcDbEntity
  8
1
  6
CONTINUOUS
100
AcDbCircle
 10
201.5128535013674
 20
307.7642660470903
 30
0.0
 40
0.4999953378839983
100
AcDbArc
 50
0.0
 51
90.00054363616298
  0
LINE
  5
3F4A
330
1F
100
AcDbEntity
  8
1
  6
CONTINUOUS
100
AcDbLine
 10
201.163755994374
 20
308.2642613849518
 30
0.0
 11
201.5128487572911
 21
308.2642613849518
 31
0.0
  0
LINE
  5
3F4B
330
1F
100
AcDbEntity
  8
1
  6
CONTINUOUS
100
AcDbLine
 10
202.0128488392477
 20
307.7642640969631
 30
0.0
 11
202.0128488392477
 21
302.2642641267655
 31
0.0
  0
LINE
  5
3F4C
330
1F
100
AcDbEntity
  8
1
  6
CONTINUOUS
100
AcDbLine
 10
202.0128488392477
 20
307.7642640969632
 30
0.0
 11
202.0128488392477
 21
303.7642634413121
 31
0.0
  0
LINE
  5
3F4D
330
1F
100
AcDbEntity
  8
1
  6
CONTINUOUS
100
AcDbLine
 10
203.5128490851169
 20
301.7642631134868
 30
0.0
 11
203.5128490851169
 21
302.2642641267657
 31
0.0
  0
LINE
  5
3F4E
330
1F
100
AcDbEntity
  8
1
  6
CONTINUOUS
100
AcDbLine
 10
203.5128486194555
 20
302.2642641267655
 30
0.0
 11
203.5128490851169
 21
302.2642641267657
 31
0.0
  0
LINE
  5
3F4F
330
1F
100
AcDbEntity
  8
1
  6
CONTINUOUS
100
AcDbLine
 10
202.0128493049089
 20
302.2642641267657
 30
0.0
 11
202.0128493049089
 21
303.7642634413122
 31
0.0
  0
LINE
  5
3F50
330
1F
100
AcDbEntity
  8
1
  6
CONTINUOUS
100
AcDbLine
 10
202.0128493049089
 20
303.7642634413122
 30
0.0
 11
202.0128488392477
 21
303.7642634413121
 31
0.0
  0
LINE
  5
3F51
330
1F
100
AcDbEntity
  8
1
  6
CONTINUOUS
100
AcDbLine
 10
203.5128486194555
 20
302.2642641267655
 30
0.0
 11
202.6542632692401
 21
302.2642641267655
 31
0.0
  0
TEXT
  5
3FA9
330
1F
100
AcDbEntity
  8
0
100
AcDbText
 10
54.71539830217352
 20
342.165315090367
 30
0.0
 40
10.0
  1
DSEP-C-3-I-NP/PN-*-0
100
AcDbText
  0
ENDSEC
  0
SECTION
  2
OBJECTS
  0
DICTIONARY
  5
C
330
0
100
AcDbDictionary
  3
ACAD_GROUP
350
D
  3
ACAD_LAYOUT
350
1A
  3
ACAD_MLINESTYLE
350
17
  3
ACAD_PLOTSETTINGS
350
19
  3
ACAD_PLOTSTYLENAME
350
E
  3
ACDBHEADERROUNDTRIPXREC
350
3FD4
  3
ACDBVARIABLEDICTIONARY
350
3F52
  0
DICTIONARY
  5
BE
330
2
100
AcDbDictionary
280
     1
  3
ACAD_LAYERSTATES
360
BF
  0
DICTIONARY
  5
3F9F
330
1F
100
AcDbDictionary
280
     1
  3
ACAD_LAYOUTSELFREF
360
3FF5
  0
DICTIONARY
  5
3F9D
330
1B
100
AcDbDictionary
280
     1
  3
ACAD_LAYOUTSELFREF
360
3FF4
  0
DICTIONARY
  5
D
102
{ACAD_REACTORS
330
C
102
}
330
C
100
AcDbDictionary
  0
DICTIONARY
  5
1A
102
{ACAD_REACTORS
330
C
102
}
330
C
100
AcDbDictionary
  0
DICTIONARY
  5
17
102
{ACAD_REACTORS
330
C
102
}
330
C
100
AcDbDictionary
  3
STANDARD
350
18
  0
DICTIONARY
  5
19
102
{ACAD_REACTORS
330
C
102
}
330
C
100
AcDbDictionary
  0
ACDBDICTIONARYWDFLT
  5
E
102
{ACAD_REACTORS
330
C
102
}
330
C
100
AcDbDictionary
281
     1
  3
Normal
350
F
100
AcDbDictionaryWithDefault
340
F
  0
DICTIONARY
  5
3FD4
102
{ACAD_REACTORS
330
C
102
}
330
C
100
AcDbDictionary
  3
CEPSNTYPE
350
3FDE
  3
FINGERPRINTGUID
350
3FDF
  3
HYPERLINKBASE
350
3FD7
  3
INSUNITS
350
3FDD
  3
LAYOUTDICT
350
3FD9
  3
LWETCUNION
350
3FDC
  3
PLOTSETDICT
350
3FDA
  3
PLOTSTYLNAMDICT
350
3FDB
  3
PSVPSCALE
350
3FE1
  3
PUCSBASE
350
3FE4
  3
PUCSORGBACK
350
3FEA
  3
PUCSORGBOTTOM
350
3FE6
  3
PUCSORGFRONT
350
3FE9
  3
PUCSORGLEFT
350
3FE7
  3
PUCSORGRIGHT
350
3FE8
  3
PUCSORGTOP
350
3FE5
  3
PUCSORTHOREF
350
3FE2
  3
PUCSORTHOVIEW
350
3FE3
  3
STYLESHEET
350
3FD8
  3
TSTACKALIGN
350
3FD5
  3
TSTACKSIZE
350
3FD6
  3
UCSBASE
350
3FED
  3
UCSORGBACK
350
3FF3
  3
UCSORGBOTTOM
350
3FEF
  3
UCSORGFRONT
350
3FF2
  3
UCSORGLEFT
350
3FF0
  3
UCSORGRIGHT
350
3FF1
  3
UCSORGTOP
350
3FEE
  3
UCSORTHOREF
350
3FEB
  3
UCSORTHOVIEW
350
3FEC
  3
VERSIONGUID
350
3FE0
  0
DICTIONARY
  5
3F52
102
{ACAD_REACTORS
330
C
102
}
330
C
100
AcDbDictionary
  3
DIMASSOC
350
3F54
  3
HIDETEXT
350
3F53
  0
DICTIONARY
  5
BF
102
{ACAD_REACTORS
330
BE
102
}
330
BE
100
AcDbDictionary
  0
XRECORD
  5
3FF5
102
{ACAD_REACTORS
330
3F9F
102
}
330
3F9F
100
AcDbXrecord
340
1F
  0
XRECORD
  5
3FF4
102
{ACAD_REACTORS
330
3F9D
102
}
330
3F9D
100
AcDbXrecord
340
1B
  0
MLINESTYLE
  5
18
102
{ACAD_REACTORS
330
17
102
}
330
17
100
AcDbMlineStyle
  2
STANDARD
 70
     0
  3

 62
   256
 51
90.0
 52
90.0
 71
     2
 49
0.5
 62
   256
  6
BYLAYER
 49
-0.5
 62
   256
  6
BYLAYER
  0
ACDBPLACEHOLDER
  5
F
102
{ACAD_REACTORS
330
E
102
}
330
E
100
AcDbPlaceHolder
280
     0
  0
XRECORD
  5
3FDE
102
{ACAD_REACTORS
330
3FD4
102
}
330
3FD4
100
AcDbXrecord
 90
        0
  0
XRECORD
  5
3FDF
102
{ACAD_REACTORS
330
3FD4
102
}
330
3FD4
100
AcDbXrecord
  1
{633C65A2-B3BA-47CE-81D1-75E89FC5D66E}
  0
XRECORD
  5
3FD7
102
{ACAD_REACTORS
330
3FD4
102
}
330
3FD4
100
AcDbXrecord
  1

  0
XRECORD
  5
3FDD
102
{ACAD_REACTORS
330
3FD4
102
}
330
3FD4
100
AcDbXrecord
 90
        4
  0
XRECORD
  5
3FD9
102
{ACAD_REACTORS
330
3FD4
102
}
330
3FD4
100
AcDbXrecord
340
1A
  0
XRECORD
  5
3FDC
102
{ACAD_REACTORS
330
3FD4
102
}
330
3FD4
100
AcDbXrecord
 90
    10781
  0
XRECORD
  5
3FDA
102
{ACAD_REACTORS
330
3FD4
102
}
330
3FD4
100
AcDbXrecord
340
19
  0
XRECORD
  5
3FDB
102
{ACAD_REACTORS
330
3FD4
102
}
330
3FD4
100
AcDbXrecord
340
E
  0
XRECORD
  5
3FE1
102
{ACAD_REACTORS
330
3FD4
102
}
330
3FD4
100
AcDbXrecord
 40
0.0
  0
XRECORD
  5
3FE4
102
{ACAD_REACTORS
330
3FD4
102
}
330
3FD4
100
AcDbXrecord
340
0
  0
XRECORD
  5
3FEA
102
{ACAD_REACTORS
330
3FD4
102
}
330
3FD4
100
AcDbXrecord
 10
0.0
 20
0.0
 30
0.0
  0
XRECORD
  5
3FE6
102
{ACAD_REACTORS
330
3FD4
102
}
330
3FD4
100
AcDbXrecord
 10
0.0
 20
0.0
 30
0.0
  0
XRECORD
  5
3FE9
102
{ACAD_REACTORS
330
3FD4
102
}
330
3FD4
100
AcDbXrecord
 10
0.0
 20
0.0
 30
0.0
  0
XRECORD
  5
3FE7
102
{ACAD_REACTORS
330
3FD4
102
}
330
3FD4
100
AcDbXrecord
 10
0.0
 20
0.0
 30
0.0
  0
XRECORD
  5
3FE8
102
{ACAD_REACTORS
330
3FD4
102
}
330
3FD4
100
AcDbXrecord
 10
0.0
 20
0.0
 30
0.0
  0
XRECORD
  5
3FE5
102
{ACAD_REACTORS
330
3FD4
102
}
330
3FD4
100
AcDbXrecord
 10
0.0
 20
0.0
 30
0.0
  0
XRECORD
  5
3FE2
102
{ACAD_REACTORS
330
3FD4
102
}
330
3FD4
100
AcDbXrecord
340
0
  0
XRECORD
  5
3FE3
102
{ACAD_REACTORS
330
3FD4
102
}
330
3FD4
100
AcDbXrecord
 70
     0
  0
XRECORD
  5
3FD8
102
{ACAD_REACTORS
330
3FD4
102
}
330
3FD4
100
AcDbXrecord
  1

  0
XRECORD
  5
3FD5
102
{ACAD_REACTORS
330
3FD4
102
}
330
3FD4
100
AcDbXrecord
 90
        1
  0
XRECORD
  5
3FD6
102
{ACAD_REACTORS
330
3FD4
102
}
330
3FD4
100
AcDbXrecord
 90
       70
  0
XRECORD
  5
3FED
102
{ACAD_REACTORS
330
3FD4
102
}
330
3FD4
100
AcDbXrecord
340
0
  0
XRECORD
  5
3FF3
102
{ACAD_REACTORS
330
3FD4
102
}
330
3FD4
100
AcDbXrecord
 10
0.0
 20
0.0
 30
0.0
  0
XRECORD
  5
3FEF
102
{ACAD_REACTORS
330
3FD4
102
}
330
3FD4
100
AcDbXrecord
 10
0.0
 20
0.0
 30
0.0
  0
XRECORD
  5
3FF2
102
{ACAD_REACTORS
330
3FD4
102
}
330
3FD4
100
AcDbXrecord
 10
0.0
 20
0.0
 30
0.0
  0
XRECORD
  5
3FF0
102
{ACAD_REACTORS
330
3FD4
102
}
330
3FD4
100
AcDbXrecord
 10
0.0
 20
0.0
 30
0.0
  0
XRECORD
  5
3FF1
102
{ACAD_REACTORS
330
3FD4
102
}
330
3FD4
100
AcDbXrecord
 10
0.0
 20
0.0
 30
0.0
  0
XRECORD
  5
3FEE
102
{ACAD_REACTORS
330
3FD4
102
}
330
3FD4
100
AcDbXrecord
 10
0.0
 20
0.0
 30
0.0
  0
XRECORD
  5
3FEB
102
{ACAD_REACTORS
330
3FD4
102
}
330
3FD4
100
AcDbXrecord
340
0
  0
XRECORD
  5
3FEC
102
{ACAD_REACTORS
330
3FD4
102
}
330
3FD4
100
AcDbXrecord
 70
     0
  0
XRECORD
  5
3FE0
102
{ACAD_REACTORS
330
3FD4
102
}
330
3FD4
100
AcDbXrecord
  1
{9203058A-3399-420F-9CF0-BA4740131A2A}
  0
DICTIONARYVAR
  5
3F54
102
{ACAD_REACTORS
330
3F52
102
}
330
3F52
100
DictionaryVariables
280
     0
  1
2
  0
DICTIONARYVAR
  5
3F53
102
{ACAD_REACTORS
330
3F52
102
}
330
3F52
100
DictionaryVariables
280
     0
  1
1
  0
ENDSEC
  0
EOF
