  0
SECTION
  2
HEADER
  9
$ACADVER
  1
AC1014
  9
$ACADMAINTVER
 70
     9
  9
$DWGCODEPAGE
  3
ANSI_932
  9
$INSBASE
 10
0.0
 20
0.0
 30
0.0
  9
$EXTMIN
 10
51.89758404611803
 20
-0.108236517867681
 30
-0.0000000349181948
  9
$EXTMAX
 10
386.8798837518318
 20
344.2170221390741
 30
0.0000000814935747
  9
$LIMMIN
 10
0.0
 20
0.0
  9
$LIMMAX
 10
420.0
 20
297.0
  9
$ORTHOMODE
 70
     0
  9
$REGENMODE
 70
     1
  9
$FILLMODE
 70
     1
  9
$QTEXTMODE
 70
     0
  9
$MIRRTEXT
 70
     1
  9
$DRAGMODE
 70
     2
  9
$LTSCALE
 40
1.0
  9
$OSMODE
 70
    55
  9
$ATTMODE
 70
     1
  9
$TEXTSIZE
 40
6.0
  9
$TRACEWID
 40
1.0
  9
$TEXTSTYLE
  7
STANDARD
  9
$CLAYER
  8
0
  9
$CELTYPE
  6
BYLAYER
  9
$CECOLOR
 62
   256
  9
$CELTSCALE
 40
1.0
  9
$DELOBJ
 70
     1
  9
$DISPSILH
 70
     0
  9
$DIMSCALE
 40
1.0
  9
$DIMASZ
 40
2.5
  9
$DIMEXO
 40
0.625
  9
$DIMDLI
 40
3.75
  9
$DIMRND
 40
0.0
  9
$DIMDLE
 40
0.0
  9
$DIMEXE
 40
1.25
  9
$DIMTP
 40
0.0
  9
$DIMTM
 40
0.0
  9
$DIMTXT
 40
2.5
  9
$DIMCEN
 40
2.5
  9
$DIMTSZ
 40
0.0
  9
$DIMTOL
 70
     0
  9
$DIMLIM
 70
     0
  9
$DIMTIH
 70
     0
  9
$DIMTOH
 70
     0
  9
$DIMSE1
 70
     0
  9
$DIMSE2
 70
     0
  9
$DIMTAD
 70
     1
  9
$DIMZIN
 70
     8
  9
$DIMBLK
  1

  9
$DIMASO
 70
     1
  9
$DIMSHO
 70
     1
  9
$DIMPOST
  1

  9
$DIMAPOST
  1

  9
$DIMALT
 70
     0
  9
$DIMALTD
 70
     3
  9
$DIMALTF
 40
0.03937007874016
  9
$DIMLFAC
 40
1.0
  9
$DIMTOFL
 70
     1
  9
$DIMTVP
 40
0.0
  9
$DIMTIX
 70
     0
  9
$DIMSOXD
 70
     0
  9
$DIMSAH
 70
     0
  9
$DIMBLK1
  1

  9
$DIMBLK2
  1

  9
$DIMSTYLE
  2
ISO-25
  9
$DIMCLRD
 70
     0
  9
$DIMCLRE
 70
     0
  9
$DIMCLRT
 70
     0
  9
$DIMTFAC
 40
1.0
  9
$DIMGAP
 40
0.625
  9
$DIMJUST
 70
     0
  9
$DIMSD1
 70
     0
  9
$DIMSD2
 70
     0
  9
$DIMTOLJ
 70
     0
  9
$DIMTZIN
 70
     8
  9
$DIMALTZ
 70
     0
  9
$DIMALTTZ
 70
     0
  9
$DIMFIT
 70
     3
  9
$DIMUPT
 70
     0
  9
$DIMUNIT
 70
     2
  9
$DIMDEC
 70
     2
  9
$DIMTDEC
 70
     2
  9
$DIMALTU
 70
     2
  9
$DIMALTTD
 70
     3
  9
$DIMTXSTY
  7
STANDARD
  9
$DIMAUNIT
 70
     0
  9
$LUNITS
 70
     2
  9
$LUPREC
 70
     4
  9
$SKETCHINC
 40
1.0
  9
$FILLETRAD
 40
10.0
  9
$AUNITS
 70
     0
  9
$AUPREC
 70
     0
  9
$MENU
  1
.
  9
$ELEVATION
 40
0.0
  9
$PELEVATION
 40
0.0
  9
$THICKNESS
 40
0.0
  9
$LIMCHECK
 70
     0
  9
$BLIPMODE
 70
     0
  9
$CHAMFERA
 40
10.0
  9
$CHAMFERB
 40
10.0
  9
$CHAMFERC
 40
20.0
  9
$CHAMFERD
 40
0.0
  9
$SKPOLY
 70
     0
  9
$TDCREATE
 40
2454944.853217476
  9
$TDUPDATE
 40
2455244.568212291
  9
$TDINDWG
 40
0.0024731481
  9
$TDUSRTIMER
 40
0.0024727894
  9
$USRTIMER
 70
     1
  9
$ANGBASE
 50
0.0
  9
$ANGDIR
 70
     0
  9
$PDMODE
 70
     0
  9
$PDSIZE
 40
0.0
  9
$PLINEWID
 40
0.0
  9
$COORDS
 70
     0
  9
$SPLFRAME
 70
     0
  9
$SPLINETYPE
 70
     6
  9
$SPLINESEGS
 70
     8
  9
$ATTDIA
 70
     0
  9
$ATTREQ
 70
     1
  9
$HANDLING
 70
 22529
  9
$HANDSEED
  5
880
  9
$SURFTAB1
 70
     6
  9
$SURFTAB2
 70
     6
  9
$SURFTYPE
 70
     6
  9
$SURFU
 70
     6
  9
$SURFV
 70
     6
  9
$UCSNAME
  2

  9
$UCSORG
 10
0.0
 20
0.0
 30
0.0
  9
$UCSXDIR
 10
1.0
 20
0.0
 30
0.0
  9
$UCSYDIR
 10
0.0
 20
1.0
 30
0.0
  9
$PUCSNAME
  2

  9
$PUCSORG
 10
0.0
 20
0.0
 30
0.0
  9
$PUCSXDIR
 10
1.0
 20
0.0
 30
0.0
  9
$PUCSYDIR
 10
0.0
 20
1.0
 30
0.0
  9
$USERI1
 70
     0
  9
$USERI2
 70
     0
  9
$USERI3
 70
     0
  9
$USERI4
 70
     0
  9
$USERI5
 70
     0
  9
$USERR1
 40
0.0
  9
$USERR2
 40
0.0
  9
$USERR3
 40
0.0
  9
$USERR4
 40
0.0
  9
$USERR5
 40
0.0
  9
$WORLDVIEW
 70
     1
  9
$SHADEDGE
 70
     3
  9
$SHADEDIF
 70
    70
  9
$TILEMODE
 70
     1
  9
$MAXACTVP
 70
    64
  9
$PINSBASE
 10
0.0
 20
0.0
 30
0.0
  9
$PLIMCHECK
 70
     0
  9
$PEXTMIN
 10
1.000000000000000E+20
 20
1.000000000000000E+20
 30
1.000000000000000E+20
  9
$PEXTMAX
 10
-1.000000000000000E+20
 20
-1.000000000000000E+20
 30
-1.000000000000000E+20
  9
$PLIMMIN
 10
0.0
 20
0.0
  9
$PLIMMAX
 10
420.0
 20
297.0
  9
$UNITMODE
 70
     0
  9
$VISRETAIN
 70
     1
  9
$PLINEGEN
 70
     0
  9
$PSLTSCALE
 70
     1
  9
$TREEDEPTH
 70
  3020
  9
$PICKSTYLE
 70
     1
  9
$CMLSTYLE
  2
STANDARD
  9
$CMLJUST
 70
     0
  9
$CMLSCALE
 40
20.0
  9
$PROXYGRAPHICS
 70
     1
  9
$MEASUREMENT
 70
     1
  0
ENDSEC
  0
SECTION
  2
CLASSES
  0
CLASS
  1
ACDBDICTIONARYWDFLT
  2
AcDbDictionaryWithDefault
  3
AutoCAD 2000
 90
        0
280
     0
281
     0
  0
CLASS
  1
ACDBPLACEHOLDER
  2
AcDbPlaceHolder
  3
AutoCAD 2000
 90
        0
280
     0
281
     0
  0
CLASS
  1
LAYOUT
  2
AcDbLayout
  3
AutoCAD 2000
 90
        0
280
     0
281
     0
  0
CLASS
  1
DICTIONARYVAR
  2
AcDbDictionaryVar
  3
AutoCAD 2000
 90
        0
280
     0
281
     0
  0
CLASS
  1
LONG_TRANSACTION
  2
AcDbLongTransaction
  3
AutoCAD 2000
 90
        0
280
     0
281
     0
  0
CLASS
  1
LWPOLYLINE
  2
AcDbPolyline
  3
AutoCAD 2000
 90
        0
280
     0
281
     1
  0
CLASS
  1
HATCH
  2
AcDbHatch
  3
AutoCAD 2000
 90
        0
280
     0
281
     1
  0
CLASS
  1
XRECORD
  2
AcDbXrecord
  3
AutoCAD 2000
 90
        0
280
     0
281
     0
  0
CLASS
  1
LONG_TRANSACTION
  2
AcDbLongTransaction
  3
AutoCAD 2000
 90
        0
280
     0
281
     0
  0
CLASS
  1
LWPOLYLINE
  2
AcDbPolyline
  3
AutoCAD 2000
 90
        0
280
     0
281
     1
  0
CLASS
  1
HATCH
  2
AcDbHatch
  3
AutoCAD 2000
 90
        0
280
     0
281
     1
  0
CLASS
  1
XRECORD
  2
AcDbXrecord
  3
AutoCAD 2000
 90
        0
280
     0
281
     0
  0
ENDSEC
  0
SECTION
  2
TABLES
  0
TABLE
  2
VPORT
  5
8
330
0
100
AcDbSymbolTable
 70
     2
  0
VPORT
  5
85D
330
8
100
AcDbSymbolTableRecord
100
AcDbViewportTableRecord
  2
*ACTIVE
 70
     0
 10
0.0
 20
0.0
 11
1.0
 21
1.0
 12
219.3887338989749
 22
172.0543928106032
 13
0.0
 23
0.0
 14
10.0
 24
10.0
 15
10.0
 25
10.0
 16
0.0
 26
0.0
 36
1.0
 17
0.0
 27
0.0
 37
0.0
 40
347.0223233461607
 41
1.220915032679738
 42
50.0
 43
0.0
 44
0.0
 50
0.0
 51
0.0
 71
     0
 72
   100
 73
     1
 74
     3
 75
     0
 76
     0
 77
     0
 78
     0
  0
ENDTAB
  0
TABLE
  2
LTYPE
  5
5
330
0
100
AcDbSymbolTable
 70
     1
  0
LTYPE
  5
14
330
5
100
AcDbSymbolTableRecord
100
AcDbLinetypeTableRecord
  2
BYBLOCK
 70
     0
  3

 72
    65
 73
     0
 40
0.0
  0
LTYPE
  5
15
330
5
100
AcDbSymbolTableRecord
100
AcDbLinetypeTableRecord
  2
BYLAYER
 70
     0
  3

 72
    65
 73
     0
 40
0.0
  0
LTYPE
  5
16
330
5
100
AcDbSymbolTableRecord
100
AcDbLinetypeTableRecord
  2
CONTINUOUS
 70
     0
  3
Solid line
 72
    65
 73
     0
 40
0.0
  0
ENDTAB
  0
TABLE
  2
LAYER
  5
2
102
{ACAD_XDICTIONARY
360
BE
102
}
330
0
100
AcDbSymbolTable
 70
     3
  0
LAYER
  5
10
330
2
100
AcDbSymbolTableRecord
100
AcDbLayerTableRecord
  2
0
 70
     0
 62
     7
  6
CONTINUOUS
  0
LAYER
  5
BA
330
2
100
AcDbSymbolTableRecord
100
AcDbLayerTableRecord
  2
1
 70
     0
 62
     7
  6
CONTINUOUS
  0
LAYER
  5
BB
330
2
100
AcDbSymbolTableRecord
100
AcDbLayerTableRecord
  2
DEFPOINTS
 70
     0
 62
     7
  6
CONTINUOUS
  0
ENDTAB
  0
TABLE
  2
STYLE
  5
3
330
0
100
AcDbSymbolTable
 70
     1
  0
STYLE
  5
11
330
3
100
AcDbSymbolTableRecord
100
AcDbTextStyleTableRecord
  2
STANDARD
 70
     0
 40
0.0
 41
1.0
 50
0.0
 71
     0
 42
6.0
  3
txt
  4

  0
ENDTAB
  0
TABLE
  2
VIEW
  5
6
330
0
100
AcDbSymbolTable
 70
     0
  0
ENDTAB
  0
TABLE
  2
UCS
  5
7
330
0
100
AcDbSymbolTable
 70
     0
  0
ENDTAB
  0
TABLE
  2
APPID
  5
9
330
0
100
AcDbSymbolTable
 70
     1
  0
APPID
  5
12
330
9
100
AcDbSymbolTableRecord
100
AcDbRegAppTableRecord
  2
ACAD
 70
     0
  0
ENDTAB
  0
TABLE
  2
DIMSTYLE
  5
A
330
0
100
AcDbSymbolTable
 70
     1
  0
DIMSTYLE
105
27
330
A
100
AcDbSymbolTableRecord
100
AcDbDimStyleTableRecord
  2
ISO-25
 70
     0
  3

  4

  5

  6

  7

 40
1.0
 41
2.5
 42
0.625
 43
3.75
 44
1.25
 45
0.0
 46
0.0
 47
0.0
 48
0.0
140
2.5
141
2.5
142
0.0
143
0.03937007874016
144
1.0
145
0.0
146
1.0
147
0.625
 71
     0
 72
     0
 73
     0
 74
     0
 75
     0
 76
     0
 77
     1
 78
     8
170
     0
171
     3
172
     1
173
     0
174
     0
175
     0
176
     0
177
     0
178
     0
270
     2
271
     2
272
     2
273
     2
274
     3
340
11
275
     0
280
     0
281
     0
282
     0
283
     0
284
     8
285
     0
286
     0
287
     3
288
     0
  0
ENDTAB
  0
TABLE
  2
BLOCK_RECORD
  5
1
330
0
100
AcDbSymbolTable
 70
     1
  0
BLOCK_RECORD
  5
1F
102
{ACAD_XDICTIONARY
360
852
102
}
330
1
100
AcDbSymbolTableRecord
100
AcDbBlockTableRecord
  2
*MODEL_SPACE
  0
BLOCK_RECORD
  5
1B
102
{ACAD_XDICTIONARY
360
850
102
}
330
1
100
AcDbSymbolTableRecord
100
AcDbBlockTableRecord
  2
*PAPER_SPACE
  0
BLOCK_RECORD
  5
31
330
1
100
AcDbSymbolTableRecord
100
AcDbBlockTableRecord
  2
A$C09634F3C
  0
ENDTAB
  0
ENDSEC
  0
SECTION
  2
BLOCKS
  0
BLOCK
  5
20
330
1F
100
AcDbEntity
  8
0
100
AcDbBlockBegin
  2
*MODEL_SPACE
 70
     0
 10
0.0
 20
0.0
 30
0.0
  3
*MODEL_SPACE
  1

  0
ENDBLK
  5
21
330
1F
100
AcDbEntity
  8
0
100
AcDbBlockEnd
  0
BLOCK
  5
1C
330
1B
100
AcDbEntity
 67
     1
  8
0
100
AcDbBlockBegin
  2
*PAPER_SPACE
 70
     0
 10
0.0
 20
0.0
 30
0.0
  3
*PAPER_SPACE
  1

  0
ENDBLK
  5
1D
330
1B
100
AcDbEntity
 67
     1
  8
0
100
AcDbBlockEnd
  0
BLOCK
  5
39
330
31
100
AcDbEntity
  8
0
100
AcDbBlockBegin
  2
A$C09634F3C
 70
     0
 10
0.0
 20
0.0
 30
0.0
  3
A$C09634F3C
  1

  0
CIRCLE
  5
32
330
31
100
AcDbEntity
  8
1
100
AcDbCircle
 10
2.749999557347535
 20
2.749999489143874
 30
0.0
 40
2.75
  0
LINE
  5
33
330
31
100
AcDbEntity
  8
1
100
AcDbLine
 10
1.595299018968376
 20
2.749999489143903
 30
0.0
 11
2.172649288157912
 21
1.749999489143874
 31
0.0
  0
LINE
  5
34
330
31
100
AcDbEntity
  8
1
100
AcDbLine
 10
2.17264928815794
 20
3.749999489143873
 30
0.0
 11
3.327349826537215
 21
3.749999489143903
 31
0.0
  0
LINE
  5
35
330
31
100
AcDbEntity
  8
1
100
AcDbLine
 10
1.59529901896829
 20
2.749999489143845
 30
0.0
 11
2.17264928815794
 21
3.749999489143873
 31
0.0
  0
LINE
  5
36
330
31
100
AcDbEntity
  8
1
100
AcDbLine
 10
3.327349826537242
 20
3.749999489143846
 30
0.0
 11
3.904700095726866
 21
2.749999489143903
 31
0.0
  0
LINE
  5
37
330
31
100
AcDbEntity
  8
1
100
AcDbLine
 10
3.327349826537129
 20
1.749999489143874
 30
0.0
 11
3.904700095726808
 21
2.749999489143874
 31
0.0
  0
LINE
  5
38
330
31
100
AcDbEntity
  8
1
100
AcDbLine
 10
2.17264928815797
 20
1.749999489143845
 30
0.0
 11
3.327349826537129
 21
1.749999489143816
 31
0.0
  0
ENDBLK
  5
3A
330
31
100
AcDbEntity
  8
0
100
AcDbBlockEnd
  0
ENDSEC
  0
SECTION
  2
ENTITIES
  0
LINE
  5
3D9
330
1F
100
AcDbEntity
  8
1
  6
CONTINUOUS
100
AcDbLine
 10
385.2912148942185
 20
109.5185548416317
 30
0.0
 11
385.2912151211971
 21
203.108371278228
 31
0.0
  0
LINE
  5
3DA
330
1F
100
AcDbEntity
  8
1
  6
CONTINUOUS
100
AcDbLine
 10
386.6912141915013
 20
108.308360859265
 30
0.0
 11
386.6912160541463
 21
204.3185652638576
 31
0.0
  0
LINE
  5
3DB
330
1F
100
AcDbEntity
  8
1
  6
CONTINUOUS
100
AcDbLine
 10
385.1912150322041
 20
174.0134636688753
 30
0.0
 11
385.1912148769546
 21
138.6134577388665
 31
0.0
  0
LINE
  5
3DC
330
1F
100
AcDbEntity
  8
1
  6
CONTINUOUS
100
AcDbLine
 10
266.9670623086886
 20
204.3185650845848
 30
0.0
 11
266.9670623086899
 21
108.3083611665717
 31
0.0
  0
LINE
  5
3DD
330
1F
100
AcDbEntity
  8
1
  6
CONTINUOUS
100
AcDbLine
 10
313.1670623086897
 20
108.3083612422844
 30
0.0
 11
313.1670623086897
 21
204.318565196291
 31
0.0
  0
LINE
  5
3DE
330
1F
100
AcDbEntity
  8
1
  6
CONTINUOUS
100
AcDbLine
 10
323.1670636974776
 20
204.3185652638576
 30
0.0
 11
323.1670636974776
 21
108.308360859265
 31
0.0
  0
LINE
  5
3DF
330
1F
100
AcDbEntity
  8
1
  6
CONTINUOUS
100
AcDbLine
 10
325.1670640253032
 20
174.0134627963206
 30
0.0
 11
325.1670640253032
 21
109.5185549403331
 31
0.0
  0
LINE
  5
3E0
330
1F
100
AcDbEntity
  8
1
  6
CONTINUOUS
100
AcDbLine
 10
358.0912153481753
 20
203.1083714054354
 30
0.0
 11
358.0912151211969
 21
109.5185549688392
 31
0.0
  0
LINE
  5
3E1
330
1F
100
AcDbEntity
  8
1
  6
CONTINUOUS
100
AcDbLine
 10
356.6912153277148
 20
204.3185652638576
 30
0.0
 11
356.6912148620535
 21
108.308360859265
 31
0.0
  0
LINE
  5
3E2
330
1F
100
AcDbEntity
  8
1
  6
CONTINUOUS
100
AcDbLine
 10
358.1912146422613
 20
109.5185549403331
 30
0.0
 11
358.1912150322045
 21
174.0134624800036
 31
0.0
  0
LINE
  5
3E3
330
1F
100
AcDbEntity
  8
1
  6
CONTINUOUS
100
AcDbLine
 10
218.3074312971565
 20
108.3083611665714
 30
0.0
 11
218.3074308314599
 21
204.3185650845845
 31
0.0
  0
LINE
  5
3E4
330
1F
100
AcDbEntity
  8
1
  6
CONTINUOUS
100
AcDbLine
 10
188.3074308314593
 20
204.3185649390696
 30
0.0
 11
188.3074312971565
 21
108.3083610210567
 31
0.0
  0
LINE
  5
3E5
330
1F
100
AcDbEntity
  8
1
  6
CONTINUOUS
100
AcDbLine
 10
189.7074308363594
 20
203.3083712052019
 30
0.0
 11
189.7074312922568
 21
109.3185547686057
 31
0.0
  0
LINE
  5
3E6
330
1F
100
AcDbEntity
  8
1
  6
CONTINUOUS
100
AcDbLine
 10
216.9074312922565
 20
109.3185549004394
 30
0.0
 11
216.9074308363597
 21
203.3083713370356
 31
0.0
  0
LINE
  5
3E7
330
1F
100
AcDbEntity
  8
1
  6
CONTINUOUS
100
AcDbLine
 10
256.9670623036894
 20
108.3083611665714
 30
0.0
 11
256.967062303688
 21
204.3185650845845
 31
0.0
  0
LINE
  5
3E8
330
1F
100
AcDbEntity
  8
1
100
AcDbLine
 10
189.8074308228938
 20
203.0448355783437
 30
0.0
 11
189.8074308228938
 21
109.5820905195236
 31
0.0
  0
LINE
  5
3E9
330
1F
100
AcDbEntity
  8
1
100
AcDbLine
 10
216.80743081145
 20
203.0448355748592
 30
0.0
 11
216.8074304298861
 21
109.5820904702122
 31
0.0
  0
LINE
  5
3EA
330
1F
100
AcDbEntity
  8
1
  6
CONTINUOUS
100
AcDbLine
 10
68.00996206348009
 20
204.3185650507761
 30
0.0
 11
68.00996206348009
 21
108.3083610967696
 31
0.0
  0
LINE
  5
3EB
330
1F
100
AcDbEntity
  8
1
  6
CONTINUOUS
100
AcDbLine
 10
58.00996067469213
 20
108.308360859265
 30
0.0
 11
58.00996067469213
 21
204.3185652638576
 31
0.0
  0
LINE
  5
3EC
330
1F
100
AcDbEntity
  8
1
  6
CONTINUOUS
100
AcDbLine
 10
114.2099620634799
 20
108.3083610210568
 30
0.0
 11
114.2099620634817
 21
204.3185649390696
 31
0.0
  0
LINE
  5
3ED
330
1F
100
AcDbEntity
  8
1
  6
CONTINUOUS
100
AcDbLine
 10
56.0099603468666
 20
138.6134577388665
 30
0.0
 11
56.00996206347918
 21
174.0134637245654
 31
0.0
  0
LINE
  5
3EE
330
1F
100
AcDbEntity
  8
1
  6
CONTINUOUS
100
AcDbLine
 10
124.2099620684812
 20
204.3185649390696
 30
0.0
 11
124.2099620684802
 21
108.3083610210567
 31
0.0
  0
LINE
  5
3F2
330
1F
100
AcDbEntity
  8
1
  6
CONTINUOUS
 62
     1
100
AcDbLine
 10
266.967062308689
 20
144.3134629572532
 30
0.0
 11
313.1670620583498
 21
144.3134629572532
 31
0.0
  0
LINE
  5
3F3
330
1F
100
AcDbEntity
  8
1
  6
CONTINUOUS
 62
     1
100
AcDbLine
 10
266.967062308689
 20
144.5634634638927
 30
0.0
 11
313.1670620583498
 21
144.5634634638927
 31
0.0
  0
LINE
  5
3F4
330
1F
100
AcDbEntity
  8
1
  6
CONTINUOUS
 62
     1
100
AcDbLine
 10
266.967062308689
 20
147.3134634489915
 30
0.0
 11
313.1670620583498
 21
147.3134634489915
 31
0.0
  0
LINE
  5
3F5
330
1F
100
AcDbEntity
  8
1
  6
CONTINUOUS
 62
     1
100
AcDbLine
 10
266.967062308689
 20
147.5634630243084
 30
0.0
 11
313.1670620583498
 21
147.5634630243084
 31
0.0
  0
LINE
  5
3F6
330
1F
100
AcDbEntity
  8
1
  6
CONTINUOUS
 62
     1
100
AcDbLine
 10
266.967062308689
 20
148.0634631062648
 30
0.0
 11
313.1670620583498
 21
148.0634631062648
 31
0.0
  0
LINE
  5
3F7
330
1F
100
AcDbEntity
  8
1
  6
CONTINUOUS
 62
     1
100
AcDbLine
 10
266.967062308689
 20
145.063463545849
 30
0.0
 11
313.1670620583498
 21
145.063463545849
 31
0.0
  0
LINE
  5
3F8
330
1F
100
AcDbEntity
  8
1
  6
CONTINUOUS
 62
     1
100
AcDbLine
 10
266.9670623086894
 20
140.5634628082416
 30
0.0
 11
313.1670620583498
 21
140.5634628082416
 31
0.0
  0
LINE
  5
3F9
330
1F
100
AcDbEntity
  8
1
  6
CONTINUOUS
 62
     1
100
AcDbLine
 10
266.9670623086894
 20
141.0634638215205
 30
0.0
 11
313.1670620583498
 21
141.0634638215205
 31
0.0
  0
LINE
  5
3FA
330
1F
100
AcDbEntity
  8
1
  6
CONTINUOUS
 62
     1
100
AcDbLine
 10
266.9670623086894
 20
138.5634624804159
 30
0.0
 11
313.1670620583498
 21
138.5634624804159
 31
0.0
  0
LINE
  5
3FB
330
1F
100
AcDbEntity
  8
1
  6
CONTINUOUS
 62
     1
100
AcDbLine
 10
266.9670623086894
 20
139.063463493695
 30
0.0
 11
313.1670620583498
 21
139.063463493695
 31
0.0
  0
LINE
  5
3FC
330
1F
100
AcDbEntity
  8
1
  6
CONTINUOUS
 62
     1
100
AcDbLine
 10
266.9670623086894
 20
138.3134638364217
 30
0.0
 11
313.1670620583498
 21
138.3134638364217
 31
0.0
  0
LINE
  5
3FD
330
1F
100
AcDbEntity
  8
1
  6
CONTINUOUS
 62
     1
100
AcDbLine
 10
266.967062308689
 20
149.3134628454945
 30
0.0
 11
313.1670620583498
 21
149.3134628454945
 31
0.0
  0
LINE
  5
3FE
330
1F
100
AcDbEntity
  8
1
  6
CONTINUOUS
 62
     1
100
AcDbLine
 10
266.967062308689
 20
149.563463352134
 30
0.0
 11
313.1670620583498
 21
149.563463352134
 31
0.0
  0
LINE
  5
3FF
330
1F
100
AcDbEntity
  8
1
  6
CONTINUOUS
 62
     1
100
AcDbLine
 10
266.9670623086894
 20
139.3134640003345
 30
0.0
 11
313.1670620583498
 21
139.3134640003345
 31
0.0
  0
LINE
  5
400
330
1F
100
AcDbEntity
  8
1
  6
CONTINUOUS
 62
     1
100
AcDbLine
 10
266.9670623086894
 20
139.5634626443288
 30
0.0
 11
313.1670620583498
 21
139.5634626443288
 31
0.0
  0
LINE
  5
401
330
1F
100
AcDbEntity
  8
1
  6
CONTINUOUS
 62
     1
100
AcDbLine
 10
266.967062308689
 20
150.5634635160467
 30
0.0
 11
313.1670620583498
 21
150.5634635160467
 31
0.0
  0
LINE
  5
402
330
1F
100
AcDbEntity
  8
1
  6
CONTINUOUS
 62
     1
100
AcDbLine
 10
266.967062308689
 20
151.0634631323418
 30
0.0
 11
313.1670620583498
 21
151.0634631323418
 31
0.0
  0
LINE
  5
403
330
1F
100
AcDbEntity
  8
1
  6
CONTINUOUS
 62
     1
100
AcDbLine
 10
266.967062308689
 20
151.3134631733199
 30
0.0
 11
313.1670620583498
 21
151.3134631733199
 31
0.0
  0
LINE
  5
404
330
1F
100
AcDbEntity
  8
1
  6
CONTINUOUS
 62
     1
100
AcDbLine
 10
266.967062308689
 20
151.5634632142981
 30
0.0
 11
313.1670620583498
 21
151.5634632142981
 31
0.0
  0
LINE
  5
405
330
1F
100
AcDbEntity
  8
1
  6
CONTINUOUS
 62
     1
100
AcDbLine
 10
266.967062308689
 20
150.3134630094073
 30
0.0
 11
313.1670620583498
 21
150.3134630094073
 31
0.0
  0
LINE
  5
406
330
1F
100
AcDbEntity
  8
1
  6
CONTINUOUS
 62
     1
100
AcDbLine
 10
266.9670623086894
 20
140.3134623016021
 30
0.0
 11
313.1670620583498
 21
140.3134623016021
 31
0.0
  0
LINE
  5
407
330
1F
100
AcDbEntity
  8
1
  6
CONTINUOUS
 62
     1
100
AcDbLine
 10
266.967062308689
 20
148.3134636129043
 30
0.0
 11
313.1670620583498
 21
148.3134636129043
 31
0.0
  0
LINE
  5
408
330
1F
100
AcDbEntity
  8
1
  6
CONTINUOUS
 62
     1
100
AcDbLine
 10
266.967062308689
 20
148.5634631882212
 30
0.0
 11
313.1670620583498
 21
148.5634631882212
 31
0.0
  0
LINE
  5
409
330
1F
100
AcDbEntity
  8
1
  6
CONTINUOUS
 62
     1
100
AcDbLine
 10
266.967062308689
 20
149.0634632701776
 30
0.0
 11
313.1670620583498
 21
149.0634632701776
 31
0.0
  0
LINE
  5
40A
330
1F
100
AcDbEntity
  8
1
  6
CONTINUOUS
 62
     1
100
AcDbLine
 10
266.967062308689
 20
152.0634632962546
 30
0.0
 11
313.1670620583498
 21
152.0634632962546
 31
0.0
  0
LINE
  5
40B
330
1F
100
AcDbEntity
  8
1
  6
CONTINUOUS
 62
     1
100
AcDbLine
 10
266.967062308689
 20
150.0634634340904
 30
0.0
 11
313.1670620583498
 21
150.0634634340904
 31
0.0
  0
LINE
  5
40C
330
1F
100
AcDbEntity
  8
1
  6
CONTINUOUS
 62
     1
100
AcDbLine
 10
266.9670623086894
 20
140.0634636576078
 30
0.0
 11
313.1670620583498
 21
140.0634636576078
 31
0.0
  0
LINE
  5
40D
330
1F
100
AcDbEntity
  8
1
  6
CONTINUOUS
 62
     1
100
AcDbLine
 10
266.967062308689
 20
143.3134627933403
 30
0.0
 11
313.1670620583498
 21
143.3134627933403
 31
0.0
  0
LINE
  5
40E
330
1F
100
AcDbEntity
  8
1
  6
CONTINUOUS
 62
     1
100
AcDbLine
 10
266.967062308689
 20
143.5634632999799
 30
0.0
 11
313.1670620583498
 21
143.5634632999799
 31
0.0
  0
LINE
  5
40F
330
1F
100
AcDbEntity
  8
1
  6
CONTINUOUS
 62
     1
100
AcDbLine
 10
266.967062308689
 20
152.3134633372328
 30
0.0
 11
313.1670620583498
 21
152.3134633372328
 31
0.0
  0
LINE
  5
410
330
1F
100
AcDbEntity
  8
1
  6
CONTINUOUS
 62
     1
100
AcDbLine
 10
266.967062308689
 20
152.563463378211
 30
0.0
 11
313.1670620583498
 21
152.563463378211
 31
0.0
  0
LINE
  5
411
330
1F
100
AcDbEntity
  8
1
  6
CONTINUOUS
 62
     1
100
AcDbLine
 10
266.967062308689
 20
153.0634629945061
 30
0.0
 11
313.1670620583498
 21
153.0634629945061
 31
0.0
  0
LINE
  5
412
330
1F
100
AcDbEntity
  8
1
  6
CONTINUOUS
 62
     1
100
AcDbLine
 10
266.967062308689
 20
146.3134632850786
 30
0.0
 11
313.1670620583498
 21
146.3134632850786
 31
0.0
  0
LINE
  5
413
330
1F
100
AcDbEntity
  8
1
  6
CONTINUOUS
 62
     1
100
AcDbLine
 10
266.967062308689
 20
146.5634628603956
 30
0.0
 11
313.1670620583498
 21
146.5634628603956
 31
0.0
  0
LINE
  5
414
330
1F
100
AcDbEntity
  8
1
  6
CONTINUOUS
 62
     1
100
AcDbLine
 10
266.9670623086894
 20
141.5634629721544
 30
0.0
 11
313.1670620583498
 21
141.5634629721544
 31
0.0
  0
LINE
  5
415
330
1F
100
AcDbEntity
  8
1
  6
CONTINUOUS
 62
     1
100
AcDbLine
 10
266.9670623086894
 20
142.0634639854333
 30
0.0
 11
313.1670620583498
 21
142.0634639854333
 31
0.0
  0
LINE
  5
416
330
1F
100
AcDbEntity
  8
1
  6
CONTINUOUS
 62
     1
100
AcDbLine
 10
266.9670623086894
 20
141.3134624655149
 30
0.0
 11
313.1670620583498
 21
141.3134624655149
 31
0.0
  0
LINE
  5
417
330
1F
100
AcDbEntity
  8
1
  6
CONTINUOUS
 62
     1
100
AcDbLine
 10
266.967062308689
 20
154.313463199397
 30
0.0
 11
313.1670620583498
 21
154.313463199397
 31
0.0
  0
LINE
  5
418
330
1F
100
AcDbEntity
  8
1
  6
CONTINUOUS
 62
     1
100
AcDbLine
 10
266.967062308689
 20
154.5634632403753
 30
0.0
 11
313.1670620583498
 21
154.5634632403753
 31
0.0
  0
LINE
  5
419
330
1F
100
AcDbEntity
  8
1
  6
CONTINUOUS
 62
     1
100
AcDbLine
 10
266.9670623086894
 20
142.3134626294276
 30
0.0
 11
313.1670620583498
 21
142.3134626294276
 31
0.0
  0
LINE
  5
41A
330
1F
100
AcDbEntity
  8
1
  6
CONTINUOUS
 62
     1
100
AcDbLine
 10
266.967062308689
 20
142.563463136067
 30
0.0
 11
313.1670620583498
 21
142.563463136067
 31
0.0
  0
LINE
  5
41B
330
1F
100
AcDbEntity
  8
1
  6
CONTINUOUS
 62
     1
100
AcDbLine
 10
266.967062308689
 20
144.0634633819363
 30
0.0
 11
313.1670620583498
 21
144.0634633819363
 31
0.0
  0
LINE
  5
41C
330
1F
100
AcDbEntity
  8
1
  6
CONTINUOUS
 62
     1
100
AcDbLine
 10
266.967062308689
 20
147.0634629423519
 30
0.0
 11
313.1670620583498
 21
147.0634629423519
 31
0.0
  0
LINE
  5
41D
330
1F
100
AcDbEntity
  8
1
  6
CONTINUOUS
 62
     1
100
AcDbLine
 10
266.967062308689
 20
155.0634633223316
 30
0.0
 11
313.1670620583498
 21
155.0634633223316
 31
0.0
  0
LINE
  5
41E
330
1F
100
AcDbEntity
  8
1
  6
CONTINUOUS
 62
     1
100
AcDbLine
 10
266.967062308689
 20
143.063464149346
 30
0.0
 11
313.1670620583498
 21
143.063464149346
 31
0.0
  0
LINE
  5
41F
330
1F
100
AcDbEntity
  8
1
  6
CONTINUOUS
 62
     1
100
AcDbLine
 10
266.967062308689
 20
145.313463121166
 30
0.0
 11
313.1670620583498
 21
145.313463121166
 31
0.0
  0
LINE
  5
420
330
1F
100
AcDbEntity
  8
1
  6
CONTINUOUS
 62
     1
100
AcDbLine
 10
266.967062308689
 20
145.5634636278055
 30
0.0
 11
313.1670620583498
 21
145.5634636278055
 31
0.0
  0
LINE
  5
421
330
1F
100
AcDbEntity
  8
1
  6
CONTINUOUS
 62
     1
100
AcDbLine
 10
266.967062308689
 20
153.5634630764625
 30
0.0
 11
313.1670620583498
 21
153.5634630764625
 31
0.0
  0
LINE
  5
422
330
1F
100
AcDbEntity
  8
1
  6
CONTINUOUS
 62
     1
100
AcDbLine
 10
266.967062308689
 20
154.0634631584189
 30
0.0
 11
313.1670620583498
 21
154.0634631584189
 31
0.0
  0
LINE
  5
423
330
1F
100
AcDbEntity
  8
1
  6
CONTINUOUS
 62
     1
100
AcDbLine
 10
266.967062308689
 20
146.0634627784393
 30
0.0
 11
313.1670620583498
 21
146.0634627784393
 31
0.0
  0
LINE
  5
424
330
1F
100
AcDbEntity
  8
1
  6
CONTINUOUS
 62
     1
100
AcDbLine
 10
266.967062308689
 20
155.3134631304792
 30
0.0
 11
313.1670620583498
 21
155.3134631304792
 31
0.0
  0
LINE
  5
425
330
1F
100
AcDbEntity
  8
1
  6
CONTINUOUS
 62
     1
100
AcDbLine
 10
266.967062308689
 20
155.5634631714574
 30
0.0
 11
313.1670620583498
 21
155.5634631714574
 31
0.0
  0
LINE
  5
426
330
1F
100
AcDbEntity
  8
1
  6
CONTINUOUS
 62
     1
100
AcDbLine
 10
266.967062308689
 20
153.3134630354843
 30
0.0
 11
313.1670620583498
 21
153.3134630354843
 31
0.0
  0
LINE
  5
427
330
1F
100
AcDbEntity
  8
1
  6
CONTINUOUS
 62
     1
100
AcDbLine
 10
266.9670623086894
 20
134.3134631807705
 30
0.0
 11
313.1670620583498
 21
134.3134631807705
 31
0.0
  0
LINE
  5
428
330
1F
100
AcDbEntity
  8
1
  6
CONTINUOUS
 62
     1
100
AcDbLine
 10
266.9670623086894
 20
134.5634636874101
 30
0.0
 11
313.1670620583498
 21
134.5634636874101
 31
0.0
  0
LINE
  5
429
330
1F
100
AcDbEntity
  8
1
  6
CONTINUOUS
 62
     1
100
AcDbLine
 10
266.9670623086894
 20
131.3134626890323
 30
0.0
 11
313.1670620583498
 21
131.3134626890323
 31
0.0
  0
LINE
  5
42A
330
1F
100
AcDbEntity
  8
1
  6
CONTINUOUS
 62
     1
100
AcDbLine
 10
266.9670623086894
 20
131.5634631956718
 30
0.0
 11
313.1670620583498
 21
131.5634631956718
 31
0.0
  0
LINE
  5
42B
330
1F
100
AcDbEntity
  8
1
  6
CONTINUOUS
 62
     1
100
AcDbLine
 10
266.9670623086894
 20
133.5634635234972
 30
0.0
 11
313.1670620583498
 21
133.5634635234972
 31
0.0
  0
LINE
  5
42C
330
1F
100
AcDbEntity
  8
1
  6
CONTINUOUS
 62
     1
100
AcDbLine
 10
266.9670623086894
 20
134.063462674131
 30
0.0
 11
313.1670620583498
 21
134.063462674131
 31
0.0
  0
LINE
  5
42D
330
1F
100
AcDbEntity
  8
1
  6
CONTINUOUS
 62
     1
100
AcDbLine
 10
266.9670623086894
 20
133.3134630168578
 30
0.0
 11
313.1670620583498
 21
133.3134630168578
 31
0.0
  0
LINE
  5
42E
330
1F
100
AcDbEntity
  8
1
  6
CONTINUOUS
 62
     1
100
AcDbLine
 10
266.9670623086894
 20
132.0634623463056
 30
0.0
 11
313.1670620583498
 21
132.0634623463056
 31
0.0
  0
LINE
  5
42F
330
1F
100
AcDbEntity
  8
1
  6
CONTINUOUS
 62
     1
100
AcDbLine
 10
266.9670623086894
 20
129.0634637172124
 30
0.0
 11
313.1670620583498
 21
129.0634637172124
 31
0.0
  0
LINE
  5
430
330
1F
100
AcDbEntity
  8
1
  6
CONTINUOUS
 62
     1
100
AcDbLine
 10
266.9670623086894
 20
129.5634628678461
 30
0.0
 11
313.1670620583498
 21
129.5634628678461
 31
0.0
  0
LINE
  5
431
330
1F
100
AcDbEntity
  8
1
  6
CONTINUOUS
 62
     1
100
AcDbLine
 10
266.9670623086894
 20
130.0634638811252
 30
0.0
 11
313.1670620583498
 21
130.0634638811252
 31
0.0
  0
LINE
  5
432
330
1F
100
AcDbEntity
  8
1
  6
CONTINUOUS
 62
     1
100
AcDbLine
 10
266.9670623086894
 20
135.0634628380439
 30
0.0
 11
313.1670620583498
 21
135.0634628380439
 31
0.0
  0
LINE
  5
433
330
1F
100
AcDbEntity
  8
1
  6
CONTINUOUS
 62
     1
100
AcDbLine
 10
266.9670623086894
 20
135.5634638513228
 30
0.0
 11
313.1670620583498
 21
135.5634638513228
 31
0.0
  0
LINE
  5
434
330
1F
100
AcDbEntity
  8
1
  6
CONTINUOUS
 62
     1
100
AcDbLine
 10
266.9670623086894
 20
136.0634630019567
 30
0.0
 11
313.1670620583498
 21
136.0634630019567
 31
0.0
  0
LINE
  5
435
330
1F
100
AcDbEntity
  8
1
  6
CONTINUOUS
 62
     1
100
AcDbLine
 10
266.9670623086894
 20
132.5634633595845
 30
0.0
 11
313.1670620583498
 21
132.5634633595845
 31
0.0
  0
LINE
  5
436
330
1F
100
AcDbEntity
  8
1
  6
CONTINUOUS
 62
     1
100
AcDbLine
 10
266.9670623086894
 20
133.0634625102184
 30
0.0
 11
313.1670620583498
 21
133.0634625102184
 31
0.0
  0
LINE
  5
437
330
1F
100
AcDbEntity
  8
1
  6
CONTINUOUS
 62
     1
100
AcDbLine
 10
266.9670623086894
 20
130.3134625251194
 30
0.0
 11
313.1670620583498
 21
130.3134625251194
 31
0.0
  0
LINE
  5
438
330
1F
100
AcDbEntity
  8
1
  6
CONTINUOUS
 62
     1
100
AcDbLine
 10
266.9670623086894
 20
130.563463031759
 30
0.0
 11
313.1670620583498
 21
130.563463031759
 31
0.0
  0
LINE
  5
439
330
1F
100
AcDbEntity
  8
1
  6
CONTINUOUS
 62
     1
100
AcDbLine
 10
266.9670623086894
 20
129.3134623612067
 30
0.0
 11
313.1670620583498
 21
129.3134623612067
 31
0.0
  0
LINE
  5
43A
330
1F
100
AcDbEntity
  8
1
  6
CONTINUOUS
 62
     1
100
AcDbLine
 10
266.9670623086894
 20
132.313462852945
 30
0.0
 11
313.1670620583498
 21
132.313462852945
 31
0.0
  0
LINE
  5
43B
330
1F
100
AcDbEntity
  8
1
  6
CONTINUOUS
 62
     1
100
AcDbLine
 10
266.9670623086894
 20
135.3134633446834
 30
0.0
 11
313.1670620583498
 21
135.3134633446834
 31
0.0
  0
LINE
  5
43C
330
1F
100
AcDbEntity
  8
1
  6
CONTINUOUS
 62
     1
100
AcDbLine
 10
266.9670623086894
 20
131.0634640450379
 30
0.0
 11
313.1670620583498
 21
131.0634640450379
 31
0.0
  0
LINE
  5
43D
330
1F
100
AcDbEntity
  8
1
  6
CONTINUOUS
 62
     1
100
AcDbLine
 10
266.9670623086894
 20
136.3134635085962
 30
0.0
 11
313.1670620583498
 21
136.3134635085962
 31
0.0
  0
LINE
  5
43E
330
1F
100
AcDbEntity
  8
1
  6
CONTINUOUS
 62
     1
100
AcDbLine
 10
266.9670623086894
 20
136.5634640152356
 30
0.0
 11
313.1670620583498
 21
136.5634640152356
 31
0.0
  0
LINE
  5
43F
330
1F
100
AcDbEntity
  8
1
  6
CONTINUOUS
 62
     1
100
AcDbLine
 10
266.9670623086894
 20
137.0634631658695
 30
0.0
 11
313.1670620583498
 21
137.0634631658695
 31
0.0
  0
LINE
  5
440
330
1F
100
AcDbEntity
  8
1
  6
CONTINUOUS
 62
     1
100
AcDbLine
 10
266.9670623086894
 20
137.5634623165032
 30
0.0
 11
313.1670620583498
 21
137.5634623165032
 31
0.0
  0
LINE
  5
441
330
1F
100
AcDbEntity
  8
1
  6
CONTINUOUS
 62
     1
100
AcDbLine
 10
266.9670623086894
 20
138.0634633297821
 30
0.0
 11
313.1670620583498
 21
138.0634633297821
 31
0.0
  0
LINE
  5
442
330
1F
100
AcDbEntity
  8
1
  6
CONTINUOUS
 62
     1
100
AcDbLine
 10
266.9670623086894
 20
137.3134636725088
 30
0.0
 11
313.1670620583498
 21
137.3134636725088
 31
0.0
  0
LINE
  5
443
330
1F
100
AcDbEntity
  8
1
  6
CONTINUOUS
100
AcDbLine
 10
266.9670623086899
 20
107.3134624804159
 30
0.0
 11
313.1670620583498
 21
107.3134624804159
 31
0.0
  0
LINE
  5
444
330
1F
100
AcDbEntity
  8
1
  6
CONTINUOUS
 62
     1
100
AcDbLine
 10
266.9670623086894
 20
125.563462212195
 30
0.0
 11
313.1670620583498
 21
125.563462212195
 31
0.0
  0
LINE
  5
445
330
1F
100
AcDbEntity
  8
1
  6
CONTINUOUS
 62
     1
100
AcDbLine
 10
266.9670623086894
 20
126.0634632254741
 30
0.0
 11
313.1670620583498
 21
126.0634632254741
 31
0.0
  0
LINE
  5
446
330
1F
100
AcDbEntity
  8
1
  6
CONTINUOUS
 62
     1
100
AcDbLine
 10
266.9670623086894
 20
125.3134617055557
 30
0.0
 11
313.1670620583498
 21
125.3134617055557
 31
0.0
  0
LINE
  5
447
330
1F
100
AcDbEntity
  8
1
  6
CONTINUOUS
 62
     1
100
AcDbLine
 10
266.9670623086894
 20
128.5634627039335
 30
0.0
 11
313.1670620583498
 21
128.5634627039335
 31
0.0
  0
LINE
  5
448
330
1F
100
AcDbEntity
  8
1
  6
CONTINUOUS
 62
     1
100
AcDbLine
 10
266.9670623086894
 20
128.313464059939
 30
0.0
 11
313.1670620583498
 21
128.313464059939
 31
0.0
  0
LINE
  5
449
330
1F
100
AcDbEntity
  8
1
  6
CONTINUOUS
 62
     1
100
AcDbLine
 10
266.9670623086894
 20
124.3134634042879
 30
0.0
 11
313.1670620583498
 21
124.3134634042879
 31
0.0
  0
LINE
  5
44A
330
1F
100
AcDbEntity
  8
1
  6
CONTINUOUS
 62
     1
100
AcDbLine
 10
266.9670623086894
 20
124.5634639109275
 30
0.0
 11
313.1670620583498
 21
124.5634639109275
 31
0.0
  0
LINE
  5
44B
330
1F
100
AcDbEntity
  8
1
  6
CONTINUOUS
 62
     1
100
AcDbLine
 10
266.9670623086894
 20
123.5634618843695
 30
0.0
 11
313.1670620583498
 21
123.5634618843695
 31
0.0
  0
LINE
  5
44C
330
1F
100
AcDbEntity
  8
1
  6
CONTINUOUS
 62
     1
100
AcDbLine
 10
266.9670623086894
 20
124.0634628976486
 30
0.0
 11
313.1670620583498
 21
124.0634628976486
 31
0.0
  0
LINE
  5
44D
330
1F
100
AcDbEntity
  8
1
  6
CONTINUOUS
 62
     1
100
AcDbLine
 10
266.9670623086894
 20
127.3134620333812
 30
0.0
 11
313.1670620583498
 21
127.3134620333812
 31
0.0
  0
LINE
  5
44E
330
1F
100
AcDbEntity
  8
1
  6
CONTINUOUS
 62
     1
100
AcDbLine
 10
266.9670623086894
 20
127.5634625400206
 30
0.0
 11
313.1670620583498
 21
127.5634625400206
 31
0.0
  0
LINE
  5
44F
330
1F
100
AcDbEntity
  8
1
  6
CONTINUOUS
 62
     1
100
AcDbLine
 10
266.9670623086894
 20
126.563464238753
 30
0.0
 11
313.1670620583498
 21
126.563464238753
 31
0.0
  0
LINE
  5
450
330
1F
100
AcDbEntity
  8
1
  6
CONTINUOUS
 62
     1
100
AcDbLine
 10
266.9670623086894
 20
127.0634615267416
 30
0.0
 11
313.1670620583498
 21
127.0634615267416
 31
0.0
  0
LINE
  5
451
330
1F
100
AcDbEntity
  8
1
  6
CONTINUOUS
 62
     1
100
AcDbLine
 10
266.9670623086894
 20
126.3134637321135
 30
0.0
 11
313.1670620583498
 21
126.3134637321135
 31
0.0
  0
LINE
  5
452
330
1F
100
AcDbEntity
  8
1
  6
CONTINUOUS
 62
     1
100
AcDbLine
 10
266.9670623086894
 20
128.0634635532996
 30
0.0
 11
313.1670620583498
 21
128.0634635532996
 31
0.0
  0
LINE
  5
453
330
1F
100
AcDbEntity
  8
1
  6
CONTINUOUS
 62
     1
100
AcDbLine
 10
266.9670623086894
 20
123.3134613777301
 30
0.0
 11
313.1670620583498
 21
123.3134613777301
 31
0.0
  0
LINE
  5
454
330
1F
100
AcDbEntity
  8
1
  6
CONTINUOUS
 62
     1
100
AcDbLine
 10
266.9670623086894
 20
125.0634649242065
 30
0.0
 11
313.1670620583498
 21
125.0634649242065
 31
0.0
  0
LINE
  5
455
330
1F
100
AcDbEntity
  8
1
  6
CONTINUOUS
 62
     1
100
AcDbLine
 10
266.9670623086894
 20
121.8134620631834
 30
0.0
 11
313.1670620583498
 21
121.8134620631834
 31
0.0
  0
LINE
  5
456
330
1F
100
AcDbEntity
  8
1
  6
CONTINUOUS
 62
     1
100
AcDbLine
 10
266.9670623086894
 20
122.3134630764624
 30
0.0
 11
313.1670620583498
 21
122.3134630764624
 31
0.0
  0
LINE
  5
457
330
1F
100
AcDbEntity
  8
1
  6
CONTINUOUS
 62
     1
100
AcDbLine
 10
266.9670623086894
 20
123.0634645963808
 30
0.0
 11
313.1670620583498
 21
123.0634645963808
 31
0.0
  0
LINE
  5
458
330
1F
100
AcDbEntity
  8
1
  6
CONTINUOUS
100
AcDbLine
 10
68.00996231381986
 20
107.3134624804159
 30
0.0
 11
114.2099620634799
 21
107.3134624804159
 31
0.0
  0
LINE
  5
45A
330
1F
100
AcDbEntity
  8
1
  6
CONTINUOUS
100
AcDbLine
 10
58.50996206348009
 20
106.3134631235334
 30
0.0
 11
68.00996206347917
 21
106.3134631235336
 31
0.0
  0
LINE
  5
45D
330
1F
100
AcDbEntity
  8
1
  6
CONTINUOUS
100
AcDbLine
 10
52.00996341650578
 20
98.93772362123948
 30
0.0
 11
52.00996341650578
 21
101.0134591008327
 31
0.0
  0
LINE
  5
45E
330
1F
100
AcDbEntity
  8
1
  6
CONTINUOUS
100
AcDbLine
 10
56.0099603468666
 20
98.93772362123948
 30
0.0
 11
56.0099603468666
 21
104.0559297646185
 31
0.0
  0
ELLIPSE
  5
460
330
1F
100
AcDbEntity
  8
1
  6
CONTINUOUS
100
AcDbEllipse
 10
52.30996207540012
 20
98.93772176816924
 30
0.0
 11
0.3000000119209289
 21
0.0
 31
0.0
210
0.0
220
0.0
230
1.0
 40
0.4142135186619819
 41
3.141592653589336
 42
4.712388980384695
  0
LINE
  5
461
330
1F
100
AcDbEntity
  8
1
  6
CONTINUOUS
100
AcDbLine
 10
52.30996104424093
 20
98.81345911275369
 30
0.0
 11
55.70996271913145
 21
98.81345911275369
 31
0.0
  0
ELLIPSE
  5
462
330
1F
100
AcDbEntity
  8
1
  6
CONTINUOUS
100
AcDbEllipse
 10
55.70996205155825
 20
98.93772176816924
 30
0.0
 11
0.3000000119209289
 21
0.0
 31
0.0
210
0.0
220
0.0
230
1.0
 40
0.4142135186617926
 41
4.712388980384695
 42
6.283185307179585
  0
LINE
  5
463
330
1F
100
AcDbEntity
  8
1
  6
CONTINUOUS
100
AcDbLine
 10
52.00996341650578
 20
96.6134553993843
 30
0.0
 11
52.00996341650578
 21
96.6134591246746
 31
0.0
  0
ARC
  5
464
330
1F
100
AcDbEntity
  8
1
  6
CONTINUOUS
100
AcDbCircle
 10
52.30996207540012
 20
96.61345722230521
 30
0.0
 40
0.3000000173527724
100
AcDbArc
 50
179.989096827449
 51
270.0
  0
ARC
  5
465
330
1F
100
AcDbEntity
  8
1
  6
CONTINUOUS
100
AcDbCircle
 10
52.30996207540012
 20
96.61345760484369
 30
0.0
 40
0.3000000119208721
100
AcDbArc
 50
180.0
 51
270.0
  0
LINE
  5
466
330
1F
100
AcDbEntity
  8
1
  6
CONTINUOUS
100
AcDbLine
 10
52.30996104424093
 20
96.31345777164916
 30
0.0
 11
55.70996271913145
 21
96.31345777164916
 31
0.0
  0
LINE
  5
467
330
1F
100
AcDbEntity
  8
1
  6
CONTINUOUS
100
AcDbLine
 10
55.70996271913145
 20
96.31345777164916
 30
0.0
 11
52.30996104424093
 21
96.31345777164916
 31
0.0
  0
ARC
  5
468
330
1F
100
AcDbEntity
  8
1
  6
CONTINUOUS
100
AcDbCircle
 10
55.70996205155825
 20
96.61345722230521
 30
0.0
 40
0.3000000173527155
100
AcDbArc
 50
270.0
 51
0.0109030584296235
  0
LINE
  5
469
330
1F
100
AcDbEntity
  8
1
  6
CONTINUOUS
100
AcDbLine
 10
52.00996341650578
 20
96.6134591246746
 30
0.0
 11
52.00996341650578
 21
98.93772362123948
 31
0.0
  0
LINE
  5
46A
330
1F
100
AcDbEntity
  8
1
  6
CONTINUOUS
100
AcDbLine
 10
56.0099603468666
 20
96.6134591246746
 30
0.0
 11
56.0099603468666
 21
98.93772362123948
 31
0.0
  0
LINE
  5
46B
330
1F
100
AcDbEntity
  8
1
  6
CONTINUOUS
100
AcDbLine
 10
54.00996374433134
 20
138.6134577388665
 30
0.0
 11
52.00996341650578
 21
137.9134589279792
 31
0.0
  0
LINE
  5
46C
330
1F
100
AcDbEntity
  8
1
  6
CONTINUOUS
100
AcDbLine
 10
53.05914300029371
 20
138.2806719685695
 30
0.0
 11
54.40996306483839
 21
140.8134577269455
 31
0.0
  0
LINE
  5
46D
330
1F
100
AcDbEntity
  8
1
  6
CONTINUOUS
100
AcDbLine
 10
54.90996035282704
 20
138.6134577388665
 30
0.0
 11
54.90996203963732
 21
140.5134575667634
 31
0.0
  0
LWPOLYLINE
  5
46E
330
1F
100
AcDbEntity
  8
1
  6
CONTINUOUS
100
AcDbPolyline
 90
       10
 70
   128
 43
0.0
 10
54.58996164147947
 20
140.5134582365652
 10
54.55870645587538
 20
140.5655526960989
 10
54.52839749400709
 20
140.6160639072558
 10
54.49996235315893
 20
140.6634570504329
 10
54.47426157538984
 20
140.7062941635749
 10
54.4520737463722
 20
140.7432713950774
 10
54.43407686894032
 20
140.7732655699155
 10
54.42081856076811
 20
140.795365854611
 10
54.41269742791746
 20
140.8088998342654
 10
54.40996306483839
 20
140.8134577269455
  0
LINE
  5
46F
330
1F
100
AcDbEntity
  8
1
  6
CONTINUOUS
100
AcDbLine
 10
54.40996306483839
 20
140.8134577269455
 30
0.0
 11
54.90996203963732
 21
140.813457565571
 31
0.0
  0
LINE
  5
470
330
1F
100
AcDbEntity
  8
1
  6
CONTINUOUS
100
AcDbLine
 10
54.90996203963732
 20
140.5134575667634
 30
0.0
 11
54.90996203963732
 21
140.813457565571
 31
0.0
  0
LINE
  5
471
330
1F
100
AcDbEntity
  8
1
  6
CONTINUOUS
100
AcDbLine
 10
56.50996136014555
 20
138.6134577388665
 30
0.0
 11
54.00996374433134
 21
138.6134577388665
 31
0.0
  0
LINE
  5
472
330
1F
100
AcDbEntity
  8
1
  6
CONTINUOUS
100
AcDbLine
 10
52.30996104424093
 20
103.8134591127536
 30
0.0
 11
55.70996271913145
 21
103.8134591127536
 31
0.0
  0
LINE
  5
473
330
1F
100
AcDbEntity
  8
1
  6
CONTINUOUS
100
AcDbLine
 10
52.30996104424093
 20
106.3134567285677
 30
0.0
 11
54.50996103232
 21
106.3134567285677
 31
0.0
  0
LINE
  5
474
330
1F
100
AcDbEntity
  8
1
  6
CONTINUOUS
100
AcDbLine
 10
52.00996341650578
 20
114.8134590531489
 30
0.0
 11
56.50996136014555
 21
114.8134590531489
 31
0.0
  0
LINE
  5
475
330
1F
100
AcDbEntity
  8
1
  6
CONTINUOUS
100
AcDbLine
 10
55.70996271913145
 20
101.3134577716491
 30
0.0
 11
52.30996104424093
 21
101.3134577716491
 31
0.0
  0
LINE
  5
476
330
1F
100
AcDbEntity
  8
1
  6
CONTINUOUS
100
AcDbLine
 10
52.30996104424093
 20
101.3134577716491
 30
0.0
 11
55.70996271913145
 21
101.3134577716491
 31
0.0
  0
LINE
  5
477
330
1F
100
AcDbEntity
  8
1
  6
CONTINUOUS
100
AcDbLine
 10
52.00996341650578
 20
103.9377236212394
 30
0.0
 11
52.00996341650578
 21
106.0134591008327
 31
0.0
  0
ELLIPSE
  5
478
330
1F
100
AcDbEntity
  8
1
  6
CONTINUOUS
100
AcDbEllipse
 10
52.30996207540012
 20
103.9377217681692
 30
0.0
 11
0.3000000119209289
 21
0.0
 31
0.0
210
0.0
220
0.0
230
1.0
 40
0.4142135186619819
 41
3.141592653589336
 42
4.712388980384695
  0
ARC
  5
479
330
1F
100
AcDbEntity
  8
1
  6
CONTINUOUS
100
AcDbCircle
 10
52.30996207540012
 20
101.6134576048436
 30
0.0
 40
0.3000000119208721
100
AcDbArc
 50
180.0
 51
270.0
  0
ARC
  5
47A
330
1F
100
AcDbEntity
  8
1
  6
CONTINUOUS
100
AcDbCircle
 10
52.30996207540012
 20
101.6134572223051
 30
0.0
 40
0.3000000173527724
100
AcDbArc
 50
179.989096827449
 51
270.0
  0
LINE
  5
47B
330
1F
100
AcDbEntity
  8
1
  6
CONTINUOUS
100
AcDbLine
 10
52.00996341650578
 20
101.6134553993842
 30
0.0
 11
52.00996341650578
 21
101.6134591246744
 31
0.0
  0
LINE
  5
47C
330
1F
100
AcDbEntity
  8
1
  6
CONTINUOUS
100
AcDbLine
 10
52.00996341650578
 20
101.6134591246744
 30
0.0
 11
52.00996341650578
 21
103.9377236212394
 31
0.0
  0
LINE
  5
47D
330
1F
100
AcDbEntity
  8
1
  6
CONTINUOUS
100
AcDbLine
 10
52.30996104424093
 20
106.0134591008327
 30
0.0
 11
52.30996104424093
 21
106.3134567285677
 31
0.0
  0
ARC
  5
47E
330
1F
100
AcDbEntity
  8
1
  6
CONTINUOUS
100
AcDbCircle
 10
52.30996403527251
 20
106.0134561098011
 30
0.0
 40
0.3000006187816272
100
AcDbArc
 50
90.00057124377169
 51
180.0
  0
LINE
  5
47F
330
1F
100
AcDbEntity
  8
1
  6
CONTINUOUS
100
AcDbLine
 10
52.00996341650578
 20
106.0134591008327
 30
0.0
 11
52.00995969121549
 21
114.8134590531489
 31
0.0
  0
LINE
  5
480
330
1F
100
AcDbEntity
  8
1
  6
CONTINUOUS
100
AcDbLine
 10
56.0099603468666
 20
103.9377236212394
 30
0.0
 11
56.0099603468666
 21
109.0559297646185
 31
0.0
  0
ELLIPSE
  5
481
330
1F
100
AcDbEntity
  8
1
  6
CONTINUOUS
100
AcDbEllipse
 10
55.70996205155825
 20
103.9377217681692
 30
0.0
 11
0.3000000119209289
 21
0.0
 31
0.0
210
0.0
220
0.0
230
1.0
 40
0.4142135186617926
 41
4.712388980384695
 42
6.283185307179585
  0
ARC
  5
482
330
1F
100
AcDbEntity
  8
1
  6
CONTINUOUS
100
AcDbCircle
 10
55.70996205155825
 20
101.6134576048436
 30
0.0
 40
0.3000000119209858
100
AcDbArc
 50
270.0
 51
0.0
  0
ARC
  5
483
330
1F
100
AcDbEntity
  8
1
  6
CONTINUOUS
100
AcDbCircle
 10
55.70996205155825
 20
101.6134572223051
 30
0.0
 40
0.3000000173527155
100
AcDbArc
 50
270.0
 51
0.0109030584296235
  0
LINE
  5
484
330
1F
100
AcDbEntity
  8
1
  6
CONTINUOUS
100
AcDbLine
 10
56.0099603468666
 20
101.6134553993842
 30
0.0
 11
56.0099603468666
 21
101.6134591246744
 31
0.0
  0
LINE
  5
485
330
1F
100
AcDbEntity
  8
1
  6
CONTINUOUS
100
AcDbLine
 10
56.0099603468666
 20
101.6134591246744
 30
0.0
 11
56.0099603468666
 21
103.9377236212394
 31
0.0
  0
LINE
  5
486
330
1F
100
AcDbEntity
  8
1
  6
CONTINUOUS
100
AcDbLine
 10
56.50870966260526
 20
107.8761377776762
 30
0.0
 11
58.00996067469213
 21
107.8761377776762
 31
0.0
  0
LINE
  5
487
330
1F
100
AcDbEntity
  8
1
  6
CONTINUOUS
100
AcDbLine
 10
57.94742050116155
 20
106.3134641791484
 30
0.0
 11
58.50996206348009
 21
106.3134631235334
 31
0.0
  0
LWPOLYLINE
  5
488
330
1F
100
AcDbEntity
  8
1
  6
CONTINUOUS
100
AcDbPolyline
 90
       10
 70
   128
 43
0.0
 10
54.50996103232
 20
106.3134567285677
 10
54.51452078764532
 20
106.3089006985328
 10
54.52805476729963
 20
106.2953667188784
 10
54.55015318935011
 20
106.2732645715377
 10
54.58014922683332
 20
106.2432722593448
 10
54.61712645833586
 20
106.2062950278422
 10
54.65996357147787
 20
106.1634579147002
 10
54.70735671465489
 20
106.1160647715232
 10
54.75786792581175
 20
106.0655535603663
 10
54.80996238534544
 20
106.0134591008327
  0
LINE
  5
489
330
1F
100
AcDbEntity
  8
1
  6
CONTINUOUS
100
AcDbLine
 10
54.50996103232
 20
106.3134567285677
 30
0.0
 11
54.50996103232
 21
114.8134590531489
 31
0.0
  0
LINE
  5
48A
330
1F
100
AcDbEntity
  8
1
  6
CONTINUOUS
100
AcDbLine
 10
56.0099603468666
 20
109.5185549403331
 30
0.0
 11
56.0099603468666
 21
114.8134590531489
 31
0.0
  0
LINE
  5
48B
330
1F
100
AcDbEntity
  8
1
  6
CONTINUOUS
100
AcDbLine
 10
56.0099603468666
 20
109.1218077982565
 30
0.0
 11
56.0099603468666
 21
109.5185549403331
 31
0.0
  0
ARC
  5
48C
330
1F
100
AcDbEntity
  8
1
  6
CONTINUOUS
100
AcDbCircle
 10
56.50981499399768
 20
108.3762979745055
 30
0.0
 40
0.4998547444539664
100
AcDbArc
 50
180.0357538401484
 51
270.016777199259
  0
ARC
  5
48D
330
1F
100
AcDbEntity
  8
1
  6
CONTINUOUS
100
AcDbCircle
 10
56.50981499399768
 20
108.3762979745055
 30
0.0
 40
0.4998547444539437
100
AcDbArc
 50
180.0357538464536
 51
270.016777199259
  0
LINE
  5
48E
330
1F
100
AcDbEntity
  8
1
  6
CONTINUOUS
100
AcDbLine
 10
58.00996067469213
 20
108.308360859265
 30
0.0
 11
58.00996067469213
 21
107.3184096659324
 31
0.0
  0
LINE
  5
48F
330
1F
100
AcDbEntity
  8
1
  6
CONTINUOUS
100
AcDbLine
 10
58.50996206348009
 20
107.3184106772465
 30
0.0
 11
58.50996206348009
 21
106.3134631235334
 31
0.0
  0
LINE
  5
490
330
1F
100
AcDbEntity
  8
1
  6
CONTINUOUS
100
AcDbLine
 10
58.00996067469213
 20
107.3184096659324
 30
0.0
 11
58.00996067469213
 21
106.3172677005431
 31
0.0
  0
LINE
  5
491
330
1F
100
AcDbEntity
  8
1
  6
CONTINUOUS
100
AcDbLine
 10
52.00996341650578
 20
137.9134589279792
 30
0.0
 11
52.00996341650578
 21
114.8134590531489
 31
0.0
  0
LINE
  5
492
330
1F
100
AcDbEntity
  8
1
  6
CONTINUOUS
100
AcDbLine
 10
68.00996206348009
 20
107.3184106499255
 30
0.0
 11
68.00996206348009
 21
108.3083610967696
 31
0.0
  0
LINE
  5
493
330
1F
100
AcDbEntity
  8
1
  6
CONTINUOUS
100
AcDbLine
 10
68.00996206348009
 20
107.3184106499255
 30
0.0
 11
68.00996206347917
 21
106.3134631235336
 31
0.0
  0
ARC
  5
494
330
1F
100
AcDbEntity
  8
1
  6
CONTINUOUS
100
AcDbCircle
 10
203.3074308217833
 20
206.3134630528205
 30
0.0
 40
100.0000000000001
100
AcDbArc
 50
261.8703153886162
 51
278.1296851672269
  0
ARC
  5
495
330
1F
100
AcDbEntity
  8
1
  6
CONTINUOUS
100
AcDbCircle
 10
203.3074312402576
 20
207.5137084286823
 30
0.0
 40
100.0002448767302
100
AcDbArc
 50
262.6879960945855
 51
277.3120039054143
  0
ARC
  5
496
330
1F
100
AcDbEntity
  8
1
100
AcDbCircle
 10
203.3074308228938
 20
207.6134630489335
 30
0.0
 40
100.0
100
AcDbArc
 50
262.8484683403469
 51
277.151531429962
  0
LINE
  5
497
330
1F
100
AcDbEntity
  8
1
  6
CONTINUOUS
100
AcDbLine
 10
217.4488456346312
 20
62.20000543175523
 30
0.0
 11
189.1660169692858
 21
62.20000543175523
 31
0.0
  0
LINE
  5
498
330
1F
100
AcDbEntity
  8
1
  6
CONTINUOUS
100
AcDbLine
 10
217.4488456346312
 20
72.20000543175524
 30
0.0
 11
189.1660169692858
 21
72.20000543175524
 31
0.0
  0
LINE
  5
499
330
1F
100
AcDbEntity
  8
1
  6
CONTINUOUS
100
AcDbLine
 10
215.9583401425452
 20
4.000003715141814
 30
0.0
 11
206.8072781457275
 21
4.000003715141814
 31
0.0
  0
LINE
  5
49A
330
1F
100
AcDbEntity
  8
1
  6
CONTINUOUS
100
AcDbLine
 10
213.8074324956805
 20
0.0000067847807941
 30
0.0
 11
207.707432380569
 21
0.0000067847807941
 31
0.0
  0
LINE
  5
49B
330
1F
100
AcDbEntity
  8
1
  6
CONTINUOUS
100
AcDbLine
 10
213.8074324956805
 20
2.000007112606339
 30
0.0
 11
207.707432380569
 21
2.000007112606339
 31
0.0
  0
LINE
  5
49C
330
1F
100
AcDbEntity
  8
1
  6
CONTINUOUS
100
AcDbLine
 10
207.707432380569
 20
3.000005413873963
 30
0.0
 11
213.8074324956805
 21
3.000005413873963
 31
0.0
  0
LINE
  5
49D
330
1F
100
AcDbEntity
  8
1
  6
CONTINUOUS
100
AcDbLine
 10
189.1660159944266
 20
6.00000404296736
 30
0.0
 11
217.4488455547662
 21
6.00000404296736
 31
0.0
  0
LINE
  5
49E
330
1F
100
AcDbEntity
  8
1
  6
CONTINUOUS
100
AcDbLine
 10
189.1660171549063
 20
6.500005431755083
 30
0.0
 11
217.4488462027684
 21
6.500005431755083
 31
0.0
  0
LINE
  5
49F
330
1F
100
AcDbEntity
  8
1
  6
CONTINUOUS
100
AcDbLine
 10
189.1660173461655
 20
16.00000543175508
 30
0.0
 11
217.4488460115107
 21
16.00000543175508
 31
0.0
  0
LINE
  5
4A1
330
1F
100
AcDbEntity
  8
1
  6
CONTINUOUS
100
AcDbLine
 10
189.8074308900804
 20
62.20000543175523
 30
0.0
 11
189.8074308900804
 21
16.00000568209509
 31
0.0
  0
LINE
  5
4A2
330
1F
100
AcDbEntity
  8
1
  6
CONTINUOUS
100
AcDbLine
 10
205.4531933298975
 20
0.0000067847810215
 30
0.0
 11
203.1289292989939
 21
0.0000067847810215
 31
0.0
  0
LINE
  5
4A3
330
1F
100
AcDbEntity
  8
1
  6
CONTINUOUS
100
AcDbLine
 10
205.4531933298975
 20
4.000003715141814
 30
0.0
 11
203.1289292989939
 21
4.000003715141814
 31
0.0
  0
LINE
  5
4A4
330
1F
100
AcDbEntity
  8
1
  6
CONTINUOUS
100
AcDbLine
 10
203.2531928761573
 20
0.3000044125161594
 30
0.0
 11
203.2531928761573
 21
3.700006087406677
 31
0.0
  0
ELLIPSE
  5
4A5
330
1F
100
AcDbEntity
  8
1
  6
CONTINUOUS
100
AcDbEllipse
 10
203.1289291764924
 20
0.300005443675559
 30
0.0
 11
0.0
 21
0.3000000119209289
 31
0.0
210
0.0
220
0.0
230
1.0
 40
0.4142135186616029
 41
3.141592653589336
 42
4.712388980384695
  0
ELLIPSE
  5
4A6
330
1F
100
AcDbEntity
  8
1
  6
CONTINUOUS
100
AcDbEllipse
 10
203.1289291764924
 20
3.700005419833586
 30
0.0
 11
0.0
 21
0.3000000119209574
 31
0.0
210
0.0
220
0.0
230
1.0
 40
0.4142135186617532
 41
4.712388980384695
 42
6.283185307179585
  0
LINE
  5
4A7
330
1F
100
AcDbEntity
  8
1
  6
CONTINUOUS
100
AcDbLine
 10
205.7531932859391
 20
3.700006087406677
 30
0.0
 11
205.7531932859391
 21
0.3000044125161594
 31
0.0
  0
ARC
  5
4A8
330
1F
100
AcDbEntity
  8
1
  6
CONTINUOUS
100
AcDbCircle
 10
205.4531933398175
 20
0.3000054436754453
 30
0.0
 40
0.3000000119209005
100
AcDbArc
 50
270.0
 51
0.0109029729493428
  0
ARC
  5
4A9
330
1F
100
AcDbEntity
  8
1
  6
CONTINUOUS
100
AcDbCircle
 10
205.4531933398175
 20
3.700005419833359
 30
0.0
 40
0.3000000119212132
100
AcDbArc
 50
0.0109032296768011
 51
90.0
  0
LINE
  5
4AA
330
1F
100
AcDbEntity
  8
1
  6
CONTINUOUS
100
AcDbLine
 10
205.7531942172618
 20
2.800005753620553
 30
0.0
 11
205.7531942172618
 21
3.700006087406563
 31
0.0
  0
LINE
  5
4AB
330
1F
100
AcDbEntity
  8
1
  6
CONTINUOUS
100
AcDbLine
 10
205.7531932859391
 20
0.3000044125161594
 30
0.0
 11
205.7531932859391
 21
2.800005753620666
 31
0.0
  0
ARC
  5
4AC
330
1F
100
AcDbEntity
  8
1
  6
CONTINUOUS
100
AcDbCircle
 10
205.4531931259439
 20
0.3000069447869009
 30
0.0
 40
0.3000001600060056
100
AcDbArc
 50
270.0000389522501
 51
0.0
  0
ARC
  5
4AD
330
1F
100
AcDbEntity
  8
1
  6
CONTINUOUS
100
AcDbCircle
 10
205.4531941909599
 20
3.700005419833586
 30
0.0
 40
0.3000000119209289
100
AcDbArc
 50
359.9904099346143
 51
90.0
  0
LINE
  5
4AE
330
1F
100
AcDbEntity
  8
1
  6
CONTINUOUS
100
AcDbLine
 10
205.4531942612201
 20
4.0000037151417
 30
0.0
 11
205.4531933298975
 21
4.000003715141814
 31
0.0
  0
LINE
  5
4AF
330
1F
100
AcDbEntity
  8
1
  6
CONTINUOUS
100
AcDbLine
 10
205.925787848112
 20
2.500004400595115
 30
0.0
 11
205.7531932859391
 21
2.500004400595115
 31
0.0
  0
LINE
  5
4B0
330
1F
100
AcDbEntity
  8
1
  6
CONTINUOUS
100
AcDbLine
 10
206.3074312663346
 20
4.500004728420775
 30
0.0
 11
206.3074312663346
 21
6.00000404296736
 31
0.0
  0
ARC
  5
4B1
330
1F
100
AcDbEntity
  8
1
  6
CONTINUOUS
100
AcDbCircle
 10
203.1972719834883
 20
4.376615416572576
 30
0.0
 40
3.629755363300131
100
AcDbArc
 50
354.0444563627783
 51
1.948078701165051
  0
ARC
  5
4B2
330
1F
100
AcDbEntity
  8
1
  6
CONTINUOUS
100
AcDbCircle
 10
206.8074340163739
 20
4.500006465176851
 30
0.0
 40
0.5000027500421556
100
AcDbArc
 50
180.0
 51
269.9996942619063
  0
LINE
  5
4B3
330
1F
100
AcDbEntity
  8
1
  6
CONTINUOUS
100
AcDbLine
 10
206.807431348291
 20
4.000003715141814
 30
0.0
 11
205.5190816080839
 21
4.000003715141814
 31
0.0
  0
LINE
  5
4B4
330
1F
100
AcDbEntity
  8
1
  6
CONTINUOUS
100
AcDbLine
 10
207.707432380569
 20
4.0000037151417
 30
0.0
 11
207.707432380569
 21
0.0000030594906093
 31
0.0
  0
LINE
  5
4B5
330
1F
100
AcDbEntity
  8
1
  6
CONTINUOUS
100
AcDbLine
 10
207.707432380569
 20
0.0000030594906093
 30
0.0
 11
206.4574356681378
 21
0.0000030594906093
 31
0.0
  0
LINE
  5
4B6
330
1F
100
AcDbEntity
  8
1
  6
CONTINUOUS
100
AcDbLine
 10
206.4574356681378
 20
4.0000037151417
 30
0.0
 11
206.4574356681378
 21
0.0000030594906093
 31
0.0
  0
LINE
  5
4B7
330
1F
100
AcDbEntity
  8
1
  6
CONTINUOUS
100
AcDbLine
 10
206.4574356681378
 20
0.0000030594906093
 30
0.0
 11
205.9574360518426
 21
0.0000030594906093
 31
0.0
  0
LINE
  5
4B8
330
1F
100
AcDbEntity
  8
1
  6
CONTINUOUS
100
AcDbLine
 10
205.9574360518426
 20
4.0000037151417
 30
0.0
 11
205.9574360518426
 21
0.0000030594906093
 31
0.0
  0
LINE
  5
4B9
330
1F
100
AcDbEntity
  8
1
  6
CONTINUOUS
100
AcDbLine
 10
205.9574360518426
 20
1.900005419834542
 30
0.0
 11
205.7531932859391
 21
1.900005419834542
 31
0.0
  0
LINE
  5
4BA
330
1F
100
AcDbEntity
  8
1
  6
CONTINUOUS
100
AcDbLine
 10
205.4534443213314
 20
0.0000067847809078
 30
0.0
 11
205.9574360518426
 21
0.0000067847809078
 31
0.0
  0
LINE
  5
4BB
330
1F
100
AcDbEntity
  8
1
  6
CONTINUOUS
100
AcDbLine
 10
205.9574360518426
 20
2.400006433113502
 30
0.0
 11
205.7531932859391
 21
2.400006433113502
 31
0.0
  0
LINE
  5
4BC
330
1F
100
AcDbEntity
  8
1
  6
CONTINUOUS
100
AcDbLine
 10
189.1660173461655
 20
16.00000543175508
 30
0.0
 11
188.3074310775241
 21
16.00000543175508
 31
0.0
  0
LINE
  5
4BD
330
1F
100
AcDbEntity
  8
1
  6
CONTINUOUS
100
AcDbLine
 10
188.3074315755338
 20
6.00000404296736
 30
0.0
 11
189.1660159944266
 21
6.00000404296736
 31
0.0
  0
LINE
  5
4BE
330
1F
100
AcDbEntity
  8
1
  6
CONTINUOUS
100
AcDbLine
 10
188.3074315755338
 20
6.00000404296736
 30
0.0
 11
188.3074297128886
 21
6.000004042966907
 31
0.0
  0
LINE
  5
4BF
330
1F
100
AcDbEntity
  8
1
  6
CONTINUOUS
100
AcDbLine
 10
188.3074297128886
 20
6.500005056245867
 30
0.0
 11
188.3074297128886
 21
6.000004042966907
 31
0.0
  0
ELLIPSE
  5
4C0
330
1F
100
AcDbEntity
  8
1
  6
CONTINUOUS
100
AcDbEllipse
 10
194.3774573237915
 20
0.300005443675559
 30
0.0
 11
0.0
 21
0.3000000119209289
 31
0.0
210
0.0
220
0.0
230
1.0
 40
0.4142136060845039
 41
1.570796326794896
 42
3.141592653590283
  0
LINE
  5
4C1
330
1F
100
AcDbEntity
  8
1
  6
CONTINUOUS
100
AcDbLine
 10
194.2531923322649
 20
3.700006087406677
 30
0.0
 11
194.2531923322649
 21
0.3000044125161594
 31
0.0
  0
ELLIPSE
  5
4C2
330
1F
100
AcDbEntity
  8
1
  6
CONTINUOUS
100
AcDbEllipse
 10
194.3774573237915
 20
3.700005419833586
 30
0.0
 11
0.0
 21
0.3000000119209574
 31
0.0
210
0.0
220
0.0
230
1.0
 40
0.4142136060844648
 41
0.0
 42
1.570796326794896
  0
ARC
  5
4C3
330
1F
100
AcDbEntity
  8
1
  6
CONTINUOUS
100
AcDbCircle
 10
192.0531933636598
 20
0.3000054436754453
 30
0.0
 40
0.3000000173526587
100
AcDbArc
 50
180.0
 51
270.0
  0
LINE
  5
4C4
330
1F
100
AcDbEntity
  8
1
  6
CONTINUOUS
100
AcDbLine
 10
194.3774568407506
 20
0.0000067847810215
 30
0.0
 11
192.053194206831
 21
0.0000067847810215
 31
0.0
  0
ARC
  5
4C5
330
1F
100
AcDbEntity
  8
1
  6
CONTINUOUS
100
AcDbCircle
 10
192.0531933636598
 20
3.700005419833586
 30
0.0
 40
0.3000000173526587
100
AcDbArc
 50
89.99999999997395
 51
180.0
  0
LINE
  5
4C6
330
1F
100
AcDbEntity
  8
1
  6
CONTINUOUS
100
AcDbLine
 10
194.3774568407506
 20
4.000003715141814
 30
0.0
 11
192.053194206831
 21
4.000003715141814
 31
0.0
  0
LINE
  5
4C7
330
1F
100
AcDbEntity
  8
1
  6
CONTINUOUS
100
AcDbLine
 10
191.7531928538054
 20
0.3000044125161594
 30
0.0
 11
191.7531928538054
 21
3.700006087406677
 31
0.0
  0
LINE
  5
4C8
330
1F
100
AcDbEntity
  8
1
  6
CONTINUOUS
100
AcDbLine
 10
191.7531928538054
 20
2.500004400595115
 30
0.0
 11
191.5806001542778
 21
2.500004400595115
 31
0.0
  0
LINE
  5
4C9
330
1F
100
AcDbEntity
  8
1
  6
CONTINUOUS
100
AcDbLine
 10
191.987316173193
 20
4.000003715141814
 30
0.0
 11
190.6565214066476
 21
4.000003715141814
 31
0.0
  0
LINE
  5
4CA
330
1F
100
AcDbEntity
  8
1
  6
CONTINUOUS
100
AcDbLine
 10
189.8074308900804
 20
4.500004728420775
 30
0.0
 11
189.8074308900804
 21
6.00000404296736
 31
0.0
  0
ARC
  5
4CB
330
1F
100
AcDbEntity
  8
1
  6
CONTINUOUS
100
AcDbCircle
 10
190.3074328983143
 20
4.500005723375693
 30
0.0
 40
0.5000020082348962
100
AcDbArc
 50
180.0
 51
269.9998859870078
  0
LINE
  5
4CC
330
1F
100
AcDbEntity
  8
1
  6
CONTINUOUS
100
AcDbLine
 10
190.6565214066476
 20
4.000003715141814
 30
0.0
 11
190.3074300407141
 21
4.000003715141814
 31
0.0
  0
LINE
  5
4CD
330
1F
100
AcDbEntity
  8
1
  6
CONTINUOUS
100
AcDbLine
 10
189.8074308900804
 20
6.000004042967018
 30
0.0
 11
189.8074308900804
 21
0.5000040727693431
 31
0.0
  0
LINE
  5
4CE
330
1F
100
AcDbEntity
  8
1
  6
CONTINUOUS
100
AcDbLine
 10
189.8074308900804
 20
0.0000067847809078
 30
0.0
 11
189.8074308900804
 21
4.500004728420663
 31
0.0
  0
LINE
  5
4CF
330
1F
100
AcDbEntity
  8
1
  6
CONTINUOUS
100
AcDbLine
 10
189.8074308900804
 20
2.000007112606454
 30
0.0
 11
189.8074308900804
 21
0.0000067847809078
 31
0.0
  0
LINE
  5
4D0
330
1F
100
AcDbEntity
  8
1
  6
CONTINUOUS
100
AcDbLine
 10
189.8074308900804
 20
4.500004728420663
 30
0.0
 11
189.8074308900804
 21
2.000007112606454
 31
0.0
  0
LINE
  5
4D1
330
1F
100
AcDbEntity
  8
1
  6
CONTINUOUS
100
AcDbLine
 10
189.8074308900804
 20
4.500004728420549
 30
0.0
 11
189.8074308900804
 21
0.5000040727694568
 31
0.0
  0
LINE
  5
4D2
330
1F
100
AcDbEntity
  8
1
  6
CONTINUOUS
100
AcDbLine
 10
191.057435285923
 20
0.0000030594906093
 30
0.0
 11
191.057435285923
 21
4.0000037151417
 31
0.0
  0
LINE
  5
4D3
330
1F
100
AcDbEntity
  8
1
  6
CONTINUOUS
100
AcDbLine
 10
189.8074308900804
 20
0.0000030594906093
 30
0.0
 11
191.057435285923
 21
0.0000030594906093
 31
0.0
  0
LINE
  5
4D4
330
1F
100
AcDbEntity
  8
1
  6
CONTINUOUS
100
AcDbLine
 10
191.5574362992018
 20
4.0000037151417
 30
0.0
 11
191.5574362992018
 21
2.400006433113502
 31
0.0
  0
LINE
  5
4D5
330
1F
100
AcDbEntity
  8
1
  6
CONTINUOUS
100
AcDbLine
 10
191.5574362992018
 20
1.900005419834542
 30
0.0
 11
191.5574362992018
 21
2.400006433113502
 31
0.0
  0
LINE
  5
4D6
330
1F
100
AcDbEntity
  8
1
  6
CONTINUOUS
100
AcDbLine
 10
191.5574362992018
 20
1.900005419834542
 30
0.0
 11
191.5574362992018
 21
0.0000067847809078
 31
0.0
  0
LINE
  5
4D7
330
1F
100
AcDbEntity
  8
1
  6
CONTINUOUS
100
AcDbLine
 10
191.5574362992018
 20
0.0000067847809078
 30
0.0
 11
191.5574362992018
 21
4.0000037151417
 31
0.0
  0
LINE
  5
4D8
330
1F
100
AcDbEntity
  8
1
  6
CONTINUOUS
100
AcDbLine
 10
191.5574362992018
 20
0.0000067847809078
 30
0.0
 11
191.057435285923
 21
0.0000030594906093
 31
0.0
  0
LINE
  5
4D9
330
1F
100
AcDbEntity
  8
1
  6
CONTINUOUS
100
AcDbLine
 10
191.7531928538054
 20
1.900005419834542
 30
0.0
 11
191.5574362992018
 21
1.900005419834542
 31
0.0
  0
LINE
  5
4DA
330
1F
100
AcDbEntity
  8
1
  6
CONTINUOUS
100
AcDbLine
 10
192.053194206831
 20
0.0000067847809078
 30
0.0
 11
191.5574362992018
 21
0.0000067847809078
 31
0.0
  0
LINE
  5
4DB
330
1F
100
AcDbEntity
  8
1
  6
CONTINUOUS
100
AcDbLine
 10
191.7531928538054
 20
2.400006433113502
 30
0.0
 11
191.5574362992018
 21
2.400006433113502
 31
0.0
  0
LINE
  5
4DC
330
1F
100
AcDbEntity
  8
1
  6
CONTINUOUS
100
AcDbLine
 10
200.3074316798419
 20
6.00000404296736
 30
0.0
 11
200.3074316798419
 21
4.500004728420775
 31
0.0
  0
ARC
  5
4DD
330
1F
100
AcDbEntity
  8
1
  6
CONTINUOUS
100
AcDbCircle
 10
199.8074287360354
 20
4.50000665894356
 30
0.0
 40
0.5000029438099649
100
AcDbArc
 50
270.0003279419144
 51
0.0
  0
ARC
  5
4DE
330
1F
100
AcDbEntity
  8
1
  6
CONTINUOUS
100
AcDbCircle
 10
203.4178321218199
 20
4.376623870055937
 30
0.0
 40
3.629996561116216
100
AcDbArc
 50
178.0521842969911
 51
185.9552806390594
  0
LINE
  5
4DF
330
1F
100
AcDbEntity
  8
1
  6
CONTINUOUS
100
AcDbLine
 10
188.3074315755338
 20
6.500005056245867
 30
0.0
 11
188.3074310775241
 21
16.00000543175508
 31
0.0
  0
LINE
  5
4E0
330
1F
100
AcDbEntity
  8
1
  6
CONTINUOUS
100
AcDbLine
 10
203.1289292989939
 20
0.0000067847810215
 30
0.0
 11
194.3774568407506
 21
0.0000067847810215
 31
0.0
  0
LINE
  5
4E1
330
1F
100
AcDbEntity
  8
1
  6
CONTINUOUS
100
AcDbLine
 10
203.1289292989939
 20
4.000003715141814
 30
0.0
 11
194.3774568407506
 21
4.000003715141814
 31
0.0
  0
LINE
  5
4E2
330
1F
100
AcDbEntity
  8
1
  6
CONTINUOUS
100
AcDbLine
 10
114.2099620634799
 20
106.3134630528209
 30
0.0
 11
124.2099620634799
 21
106.3134630528205
 31
0.0
  0
LINE
  5
4E3
330
1F
100
AcDbEntity
  8
1
  6
CONTINUOUS
100
AcDbLine
 10
114.2099620634799
 20
108.3083610210568
 30
0.0
 11
114.2099620634799
 21
107.3184105792129
 31
0.0
  0
LINE
  5
4E4
330
1F
100
AcDbEntity
  8
1
  6
CONTINUOUS
100
AcDbLine
 10
114.2099620634799
 20
106.3134630528209
 30
0.0
 11
114.2099620634799
 21
107.3184105792129
 31
0.0
  0
LINE
  5
4E5
330
1F
100
AcDbEntity
  8
1
  6
CONTINUOUS
100
AcDbLine
 10
124.2099620684802
 20
108.3083610210567
 30
0.0
 11
124.2099620634799
 21
107.3184105792126
 31
0.0
  0
LINE
  5
4E6
330
1F
100
AcDbEntity
  8
1
  6
CONTINUOUS
100
AcDbLine
 10
124.2099620634799
 20
106.3134630528205
 30
0.0
 11
124.2099620634799
 21
107.3184105792126
 31
0.0
  0
LINE
  5
4E7
330
1F
100
AcDbEntity
  8
1
  6
CONTINUOUS
100
AcDbLine
 10
204.2531935057313
 20
99.43477792989234
 30
0.0
 11
204.2531935057313
 21
99.8134574140213
 31
0.0
  0
LINE
  5
4E8
330
1F
100
AcDbEntity
  8
1
  6
CONTINUOUS
100
AcDbLine
 10
205.7531932859391
 20
101.3433745349547
 30
0.0
 11
205.7531932859391
 21
98.81345538746337
 31
0.0
  0
LINE
  5
4E9
330
1F
100
AcDbEntity
  8
1
  6
CONTINUOUS
100
AcDbLine
 10
193.2531940309972
 20
99.8134574140213
 30
0.0
 11
193.2531940309972
 21
99.43477792989234
 31
0.0
  0
LINE
  5
4EA
330
1F
100
AcDbEntity
  8
1
  6
CONTINUOUS
100
AcDbLine
 10
191.7531928538054
 20
98.81345911275369
 30
0.0
 11
191.7531928538054
 21
101.9832080448768
 31
0.0
  0
LWPOLYLINE
  5
4EB
330
1F
100
AcDbEntity
  8
1
  6
CONTINUOUS
100
AcDbPolyline
 90
       10
 70
   128
 43
0.0
 10
205.4531933298975
 20
98.93771989594917
 10
205.5052877894313
 20
98.91614301454048
 10
205.5557994662494
 20
98.89522178422431
 10
205.603193540749
 20
98.87558950435142
 10
205.6460297225684
 20
98.85784594665985
 10
205.6830064884096
 20
98.84252755295257
 10
205.713001128909
 20
98.8301037098072
 10
205.7351009479434
 20
98.82095067154388
 10
205.7486358589203
 20
98.81534410964469
 10
205.7531932859391
 20
98.81345538746337
  0
LWPOLYLINE
  5
4EC
330
1F
100
AcDbEntity
  8
1
  6
CONTINUOUS
100
AcDbPolyline
 90
       10
 70
   128
 43
0.0
 10
192.053194206831
 20
98.93772362123948
 10
192.0010997472973
 20
98.91614301454048
 10
191.9505866734953
 20
98.89522178422431
 10
191.9031935303181
 20
98.87558950435142
 10
191.8603564171761
 20
98.85784594665985
 10
191.8233791856736
 20
98.84253127824287
 10
191.7933850108355
 20
98.8301074350975
 10
191.7712847261399
 20
98.82095067154388
 10
191.7577507464856
 20
98.81534410964469
 10
191.7531928538054
 20
98.81345911275369
  0
LWPOLYLINE
  5
4ED
330
1F
100
AcDbEntity
  8
1
  6
CONTINUOUS
100
AcDbPolyline
 90
       10
 70
   128
 43
0.0
 10
203.2531928761573
 20
96.31345777164916
 10
203.2513050852985
 20
96.31801380168418
 10
203.2456994547219
 20
96.3315477813385
 10
203.2365445538133
 20
96.35364992867927
 10
203.2241207106681
 20
96.3836422408722
 10
203.2088041796058
 20
96.42061947237472
 10
203.1910615532369
 20
96.46345658551673
 10
203.1714302046865
 20
96.51084972869377
 10
203.1505071117253
 20
96.56136093985061
 10
203.1289292989939
 20
96.6134553993843
  0
LINE
  5
4EE
330
1F
100
AcDbEntity
  8
1
  6
CONTINUOUS
100
AcDbLine
 10
188.3074312971565
 20
72.20000543675531
 30
0.0
 11
189.1660169692858
 21
72.20000543175524
 31
0.0
  0
LWPOLYLINE
  5
4EF
330
1F
100
AcDbEntity
  8
1
  6
CONTINUOUS
100
AcDbPolyline
 90
       10
 70
   128
 43
0.0
 10
194.3774568407506
 20
96.6134591246746
 10
194.355879959342
 20
96.56136466514091
 10
194.3349568663806
 20
96.51084972869377
 10
194.3153245865078
 20
96.46345658551673
 10
194.2975810288161
 20
96.42061947237472
 10
194.2822663603991
 20
96.38364596616249
 10
194.2698406546086
 20
96.35364992867927
 10
194.2606876163454
 20
96.33155150662879
 10
194.2550810544461
 20
96.31801380168418
 10
194.2531923322649
 20
96.31345777164916
  0
LINE
  5
4F0
330
1F
100
AcDbEntity
  8
1
  6
CONTINUOUS
100
AcDbLine
 10
188.3074308994818
 20
62.20000543175537
 30
0.0
 11
189.1660169692858
 21
62.20000543175523
 31
0.0
  0
LINE
  5
4F1
330
1F
100
AcDbEntity
  8
1
  6
CONTINUOUS
100
AcDbLine
 10
188.3074308994818
 20
62.20000543175537
 30
0.0
 11
188.3074312971565
 21
72.20000543675531
 31
0.0
  0
LINE
  5
4F2
330
1F
100
AcDbEntity
  8
1
  6
CONTINUOUS
100
AcDbLine
 10
194.2531923322649
 20
96.31345777164916
 30
0.0
 11
203.2531928761573
 21
96.31345777164916
 31
0.0
  0
LINE
  5
4F3
330
1F
100
AcDbEntity
  8
1
  6
CONTINUOUS
100
AcDbLine
 10
194.8745130120486
 20
97.81345708619577
 30
0.0
 11
202.631873127696
 21
97.81345708619577
 31
0.0
  0
LINE
  5
4F4
330
1F
100
AcDbEntity
  8
1
  6
CONTINUOUS
100
AcDbLine
 10
194.2531923322649
 20
96.31345777164916
 30
0.0
 11
191.7531928538054
 21
98.81345911275369
 31
0.0
  0
LINE
  5
4F5
330
1F
100
AcDbEntity
  8
1
  6
CONTINUOUS
100
AcDbLine
 10
193.2531940309972
 20
99.43477792989234
 30
0.0
 11
194.8745130120486
 21
97.81345708619577
 31
0.0
  0
LINE
  5
4F6
330
1F
100
AcDbEntity
  8
1
  6
CONTINUOUS
100
AcDbLine
 10
205.7531932859391
 20
98.81345538746337
 30
0.0
 11
203.2531928761573
 21
96.31345777164916
 31
0.0
  0
LINE
  5
4F7
330
1F
100
AcDbEntity
  8
1
  6
CONTINUOUS
100
AcDbLine
 10
202.631873127696
 20
97.81345708619577
 30
0.0
 11
204.2531935057313
 21
99.43477792989234
 31
0.0
  0
INSERT
  5
4F8
330
1F
100
AcDbEntity
  8
1
100
AcDbBlockReference
  2
A$C09634F3C
 10
202.3008606927314
 20
107.0568937151264
 30
0.0
 50
29.99999999999164
  0
LINE
  5
4F9
330
1F
100
AcDbEntity
  8
1
  6
CONTINUOUS
100
AcDbLine
 10
205.7531932859391
 20
106.3433745349547
 30
0.0
 11
205.7531932859391
 21
103.8134553874633
 31
0.0
  0
LINE
  5
4FA
330
1F
100
AcDbEntity
  8
1
  6
CONTINUOUS
100
AcDbLine
 10
205.7531932859391
 20
103.8134553874633
 30
0.0
 11
203.2531928761573
 21
101.3134577716491
 31
0.0
  0
LINE
  5
4FB
330
1F
100
AcDbEntity
  8
1
  6
CONTINUOUS
100
AcDbLine
 10
204.2531935057313
 20
104.4347779298922
 30
0.0
 11
204.2531935057313
 21
104.8134574140211
 31
0.0
  0
LWPOLYLINE
  5
4FC
330
1F
100
AcDbEntity
  8
1
  6
CONTINUOUS
100
AcDbPolyline
 90
       10
 70
   128
 43
0.0
 10
203.2531928761573
 20
101.3134577716491
 10
203.2513050852985
 20
101.318013801684
 10
203.2456994547219
 20
101.3315477813383
 10
203.2365445538133
 20
101.3536499286792
 10
203.2241207106681
 20
101.383642240872
 10
203.2088041796058
 20
101.4206194723747
 10
203.1910615532369
 20
101.4634565855166
 10
203.1714302046865
 20
101.5108497286937
 10
203.1505071117253
 20
101.5613609398505
 10
203.1289292989939
 20
101.6134553993842
  0
LINE
  5
4FD
330
1F
100
AcDbEntity
  8
1
  6
CONTINUOUS
100
AcDbLine
 10
202.631873127696
 20
102.8134570861956
 30
0.0
 11
204.2531935057313
 21
104.4347779298922
 31
0.0
  0
LWPOLYLINE
  5
4FE
330
1F
100
AcDbEntity
  8
1
  6
CONTINUOUS
100
AcDbPolyline
 90
       10
 70
   128
 43
0.0
 10
205.4531933298975
 20
103.9377198959491
 10
205.5052877894313
 20
103.9161430145404
 10
205.5557994662494
 20
103.8952217842243
 10
205.603193540749
 20
103.8755895043514
 10
205.6460297225684
 20
103.8578459466597
 10
205.6830064884096
 20
103.8425275529525
 10
205.713001128909
 20
103.830103709807
 10
205.7351009479434
 20
103.8209506715437
 10
205.7486358589203
 20
103.8153441096445
 10
205.7531932859391
 20
103.8134553874633
  0
ARC
  5
4FF
330
1F
100
AcDbEntity
  8
1
  6
CONTINUOUS
100
AcDbCircle
 10
189.3074312971565
 20
108.3083610769007
 30
0.0
 40
1.000000000000001
100
AcDbArc
 50
180.0
 51
261.8703044297653
  0
LINE
  5
500
330
1F
100
AcDbEntity
  8
1
  6
CONTINUOUS
100
AcDbLine
 10
191.7531928538054
 20
103.8134591127536
 30
0.0
 11
191.7531928538054
 21
106.9832080448767
 31
0.0
  0
LINE
  5
501
330
1F
100
AcDbEntity
  8
1
  6
CONTINUOUS
100
AcDbLine
 10
193.2531940309972
 20
104.8134574140211
 30
0.0
 11
193.2531940309972
 21
104.4347779298922
 31
0.0
  0
LWPOLYLINE
  5
502
330
1F
100
AcDbEntity
  8
1
  6
CONTINUOUS
100
AcDbPolyline
 90
       10
 70
   128
 43
0.0
 10
192.053194206831
 20
103.9377236212394
 10
192.0010997472973
 20
103.9161430145404
 10
191.9505866734953
 20
103.8952217842243
 10
191.9031935303181
 20
103.8755895043514
 10
191.8603564171761
 20
103.8578459466597
 10
191.8233791856736
 20
103.8425312782428
 10
191.7933850108355
 20
103.8301074350973
 10
191.7712847261399
 20
103.8209506715437
 10
191.7577507464856
 20
103.8153441096445
 10
191.7531928538054
 20
103.8134591127536
  0
LWPOLYLINE
  5
503
330
1F
100
AcDbEntity
  8
1
  6
CONTINUOUS
100
AcDbPolyline
 90
       10
 70
   128
 43
0.0
 10
194.3774568407506
 20
101.6134591246744
 10
194.355879959342
 20
101.5613646651408
 10
194.3349568663806
 20
101.5108497286937
 10
194.3153245865078
 20
101.4634565855166
 10
194.2975810288161
 20
101.4206194723747
 10
194.2822663603991
 20
101.3836459661624
 10
194.2698406546086
 20
101.3536499286792
 10
194.2606876163454
 20
101.3315515066286
 10
194.2550810544461
 20
101.318013801684
 10
194.2531923322649
 20
101.3134577716491
  0
LINE
  5
504
330
1F
100
AcDbEntity
  8
1
  6
CONTINUOUS
100
AcDbLine
 10
193.2531940309972
 20
104.4347779298922
 30
0.0
 11
194.8745130120486
 21
102.8134570861956
 31
0.0
  0
LINE
  5
505
330
1F
100
AcDbEntity
  8
1
  6
CONTINUOUS
100
AcDbLine
 10
194.2531923322649
 20
101.3134577716491
 30
0.0
 11
191.7531928538054
 21
103.8134591127536
 31
0.0
  0
ARC
  5
506
330
1F
100
AcDbEntity
  8
1
  6
CONTINUOUS
100
AcDbCircle
 10
190.7074312922568
 20
109.3185547734562
 30
0.0
 40
0.9999999999999875
100
AcDbArc
 50
180.0
 51
262.6879783514265
  0
ARC
  5
507
330
1F
100
AcDbEntity
  8
1
100
AcDbCircle
 10
191.0074308228939
 20
109.5820905195236
 30
0.0
 40
1.199999999999999
100
AcDbArc
 50
180.0
 51
262.8484683403469
  0
LINE
  5
508
330
1F
100
AcDbEntity
  8
1
  6
CONTINUOUS
100
AcDbLine
 10
204.2531935057313
 20
104.8134574140211
 30
0.0
 11
193.2531940309972
 21
104.8134574140211
 31
0.0
  0
LINE
  5
509
330
1F
100
AcDbEntity
  8
1
  6
CONTINUOUS
100
AcDbLine
 10
194.8745130120486
 20
102.8134570861956
 30
0.0
 11
202.631873127696
 21
102.8134570861956
 31
0.0
  0
LINE
  5
50A
330
1F
100
AcDbEntity
  8
1
  6
CONTINUOUS
100
AcDbLine
 10
194.2531923322649
 20
101.3134577716491
 30
0.0
 11
203.2531928761573
 21
101.3134577716491
 31
0.0
  0
LINE
  5
50B
330
1F
100
AcDbEntity
  8
1
  6
CONTINUOUS
100
AcDbLine
 10
204.2531935057313
 20
99.8134574140213
 30
0.0
 11
193.2531940309972
 21
99.8134574140213
 31
0.0
  0
LINE
  5
50C
330
1F
100
AcDbEntity
  8
1
  6
CONTINUOUS
100
AcDbLine
 10
216.8074311247736
 20
16.00000568209509
 30
0.0
 11
216.8074311247736
 21
62.20000543175537
 31
0.0
  0
LINE
  5
50D
330
1F
100
AcDbEntity
  8
1
  6
CONTINUOUS
100
AcDbLine
 10
217.3074312067301
 20
62.20000543175537
 30
0.0
 11
217.3074312067301
 21
16.00000568209496
 31
0.0
  0
LINE
  5
50E
330
1F
100
AcDbEntity
  8
1
  6
CONTINUOUS
100
AcDbLine
 10
218.3074310775241
 20
16.00000543175508
 30
0.0
 11
217.4488460115107
 21
16.00000543175508
 31
0.0
  0
LINE
  5
50F
330
1F
100
AcDbEntity
  8
1
  6
CONTINUOUS
100
AcDbLine
 10
213.8074324956805
 20
3.000005413873963
 30
0.0
 11
213.8074324956805
 21
0.0000067847807941
 31
0.0
  0
LINE
  5
510
330
1F
100
AcDbEntity
  8
1
  6
CONTINUOUS
100
AcDbLine
 10
213.8074324956805
 20
0.0000067847807941
 30
0.0
 11
213.8074324956805
 21
2.000007112606339
 31
0.0
  0
ARC
  5
511
330
1F
100
AcDbEntity
  8
1
  6
CONTINUOUS
100
AcDbCircle
 10
216.30743073483
 20
0.5000054317544027
 30
0.0
 40
0.5000000000004551
100
AcDbArc
 50
269.9999919141893
 51
0.0
  0
LINE
  5
512
330
1F
100
AcDbEntity
  8
1
  6
CONTINUOUS
100
AcDbLine
 10
216.3074306642679
 20
0.0000054317544027
 30
0.0
 11
213.8074324956805
 21
0.0000067847807941
 31
0.0
  0
LINE
  5
513
330
1F
100
AcDbEntity
  8
1
  6
CONTINUOUS
100
AcDbLine
 10
216.8074307348305
 20
0.5000054317544027
 30
0.0
 11
216.8074306591123
 21
4.500004728420549
 31
0.0
  0
LINE
  5
514
330
1F
100
AcDbEntity
  8
1
  6
CONTINUOUS
100
AcDbLine
 10
217.4488455547662
 20
6.00000404296736
 30
0.0
 11
218.3074309049815
 21
6.00000404296736
 31
0.0
  0
LINE
  5
515
330
1F
100
AcDbEntity
  8
1
  6
CONTINUOUS
100
AcDbLine
 10
218.3074309049815
 20
6.500005056246322
 30
0.0
 11
218.3074309049815
 21
6.00000404296736
 31
0.0
  0
LINE
  5
516
330
1F
100
AcDbEntity
  8
1
  6
CONTINUOUS
100
AcDbLine
 10
216.8074311247736
 20
6.00000404296736
 30
0.0
 11
216.8074311247736
 21
4.500004728420775
 31
0.0
  0
ARC
  5
517
330
1F
100
AcDbEntity
  8
1
  6
CONTINUOUS
100
AcDbCircle
 10
216.3074283747346
 20
4.500006465176738
 30
0.0
 40
0.5000027500421273
100
AcDbArc
 50
270.0003057380675
 51
0.0
  0
LINE
  5
518
330
1F
100
AcDbEntity
  8
1
  6
CONTINUOUS
100
AcDbLine
 10
216.3074310428173
 20
4.000003715141814
 30
0.0
 11
215.9583401425452
 21
4.000003715141814
 31
0.0
  0
LINE
  5
519
330
1F
100
AcDbEntity
  8
1
  6
CONTINUOUS
100
AcDbLine
 10
213.8074324956805
 20
3.000005413873963
 30
0.0
 11
213.8074324956805
 21
2.000007112606339
 31
0.0
  0
LINE
  5
51A
330
1F
100
AcDbEntity
  8
1
  6
CONTINUOUS
100
AcDbLine
 10
218.3074318363041
 20
6.500005056246322
 30
0.0
 11
218.3074310775241
 21
16.00000543175508
 31
0.0
  0
LINE
  5
51B
330
1F
100
AcDbEntity
  8
1
  6
CONTINUOUS
100
AcDbLine
 10
256.9670623086899
 20
106.3134630528205
 30
0.0
 11
266.9670623086899
 21
106.3134630528209
 31
0.0
  0
LINE
  5
51C
330
1F
100
AcDbEntity
  8
1
  6
CONTINUOUS
100
AcDbLine
 10
217.4488456346312
 20
72.20000543175524
 30
0.0
 11
218.3074312971565
 21
72.20000543675531
 31
0.0
  0
LINE
  5
51D
330
1F
100
AcDbEntity
  8
1
  6
CONTINUOUS
100
AcDbLine
 10
217.4488456346312
 20
62.20000543175523
 30
0.0
 11
218.3074308994819
 21
62.20000543175523
 31
0.0
  0
LINE
  5
51E
330
1F
100
AcDbEntity
  8
1
  6
CONTINUOUS
100
AcDbLine
 10
218.3074308994819
 20
62.20000543175523
 30
0.0
 11
218.3074312971565
 21
72.20000543675531
 31
0.0
  0
ARC
  5
51F
330
1F
100
AcDbEntity
  8
1
  6
CONTINUOUS
100
AcDbCircle
 10
217.3074312971566
 20
108.3083612127147
 30
0.0
 40
1.000000000000113
100
AcDbArc
 50
278.1296961260778
 51
0.0
  0
ARC
  5
520
330
1F
100
AcDbEntity
  8
1
  6
CONTINUOUS
100
AcDbCircle
 10
215.9074312922566
 20
109.3185548955889
 30
0.0
 40
1.0
100
AcDbArc
 50
277.3120222039472
 51
0.0
  0
ARC
  5
521
330
1F
100
AcDbEntity
  8
1
100
AcDbCircle
 10
215.6074304298863
 20
109.582090470213
 30
0.0
 40
1.199999999999999
100
AcDbArc
 50
277.1515314299354
 51
359.9999997650741
  0
LINE
  5
522
330
1F
100
AcDbEntity
  8
1
  6
CONTINUOUS
100
AcDbLine
 10
256.9670623086899
 20
107.3184107163986
 30
0.0
 11
256.9670623036894
 21
108.3083611665714
 31
0.0
  0
LINE
  5
523
330
1F
100
AcDbEntity
  8
1
  6
CONTINUOUS
100
AcDbLine
 10
256.9670623086899
 20
107.3184107163986
 30
0.0
 11
256.9670623086899
 21
106.3134630528205
 31
0.0
  0
LINE
  5
524
330
1F
100
AcDbEntity
  8
1
  6
CONTINUOUS
100
AcDbLine
 10
266.9670623086899
 20
107.3184107163986
 30
0.0
 11
266.9670623086899
 21
108.3083611665717
 31
0.0
  0
LINE
  5
525
330
1F
100
AcDbEntity
  8
1
  6
CONTINUOUS
100
AcDbLine
 10
266.9670623086899
 20
107.3184107163986
 30
0.0
 11
266.9670623086899
 21
106.3134630528209
 31
0.0
  0
ARC
  5
526
330
1F
100
AcDbEntity
  8
1
  6
CONTINUOUS
100
AcDbCircle
 10
357.6912162942961
 20
108.3083613598202
 30
0.0
 40
1.000001432242594
100
AcDbArc
 50
180.0
 51
261.8702146263236
  0
LINE
  5
527
330
1F
100
AcDbEntity
  8
1
  6
CONTINUOUS
100
AcDbLine
 10
325.1670640253032
 20
103.3102644826076
 30
0.0
 11
325.1670640253032
 21
98.93771989594917
 31
0.0
  0
LINE
  5
528
330
1F
100
AcDbEntity
  8
1
  6
CONTINUOUS
100
AcDbLine
 10
329.167060955664
 20
101.0134553755424
 30
0.0
 11
329.167060955664
 21
98.93771989594917
 31
0.0
  0
ELLIPSE
  5
529
330
1F
100
AcDbEntity
  8
1
  6
CONTINUOUS
100
AcDbEllipse
 10
328.8670622967696
 20
98.93772118243717
 30
0.0
 11
0.3000000119209289
 21
0.0
 31
0.0
210
0.0
220
0.0
230
1.0
 40
0.4142136060843144
 41
4.712388980384695
 42
6.283185307179585
  0
ELLIPSE
  5
52A
330
1F
100
AcDbEntity
  8
1
  6
CONTINUOUS
100
AcDbEllipse
 10
325.4670623206115
 20
98.93772118243717
 30
0.0
 11
0.3000000119209289
 21
0.0
 31
0.0
210
0.0
220
0.0
230
1.0
 40
0.4142136060846934
 41
3.141592653589792
 42
4.712388980384695
  0
LINE
  5
52B
330
1F
100
AcDbEntity
  8
1
  6
CONTINUOUS
100
AcDbLine
 10
325.4670616530383
 20
98.81345538746337
 30
0.0
 11
328.8670633279288
 21
98.81345538746337
 31
0.0
  0
ARC
  5
52C
330
1F
100
AcDbEntity
  8
1
  6
CONTINUOUS
100
AcDbCircle
 10
328.8670622967696
 20
96.61345722230521
 30
0.0
 40
0.3000000173527724
100
AcDbArc
 50
270.0
 51
0.0109031154837913
  0
ARC
  5
52D
330
1F
100
AcDbEntity
  8
1
  6
CONTINUOUS
100
AcDbCircle
 10
325.4670623206115
 20
96.61345722230521
 30
0.0
 40
0.3000000173527155
100
AcDbArc
 50
179.9890970556591
 51
270.0
  0
LINE
  5
52E
330
1F
100
AcDbEntity
  8
1
  6
CONTINUOUS
100
AcDbLine
 10
328.8670633279288
 20
96.31345777164916
 30
0.0
 11
325.4670616530383
 21
96.31345777164916
 31
0.0
  0
LINE
  5
52F
330
1F
100
AcDbEntity
  8
1
  6
CONTINUOUS
100
AcDbLine
 10
329.167060955664
 20
98.93771989594917
 30
0.0
 11
329.167060955664
 21
96.6134553993843
 31
0.0
  0
LINE
  5
530
330
1F
100
AcDbEntity
  8
1
  6
CONTINUOUS
100
AcDbLine
 10
325.1670640253032
 20
98.93771989594917
 30
0.0
 11
325.1670640253032
 21
96.6134553993843
 31
0.0
  0
LINE
  5
531
330
1F
100
AcDbEntity
  8
1
  6
CONTINUOUS
100
AcDbLine
 10
329.1670646809543
 20
137.913457065334
 30
0.0
 11
327.1670606278385
 21
138.6134577388665
 31
0.0
  0
LINE
  5
532
330
1F
100
AcDbEntity
  8
1
  6
CONTINUOUS
100
AcDbLine
 10
326.2670623325324
 20
140.5134572127014
 30
0.0
 11
326.2670640193428
 21
138.6134577388665
 31
0.0
  0
LINE
  5
533
330
1F
100
AcDbEntity
  8
1
  6
CONTINUOUS
100
AcDbLine
 10
326.2670623325324
 20
140.8134572377358
 30
0.0
 11
326.7670613073314
 21
140.8134577269455
 31
0.0
  0
LWPOLYLINE
  5
534
330
1F
100
AcDbEntity
  8
1
  6
CONTINUOUS
100
AcDbPolyline
 90
        9
 70
   128
 43
0.0
 10
326.7670613073314
 20
140.8134577269455
 10
326.7636042379344
 20
140.8076928402086
 10
326.7533596896136
 20
140.790621697416
 10
326.736726268431
 20
140.7628980870149
 10
326.7143409990276
 20
140.7255893046758
 10
326.6870644234622
 20
140.6801277245185
 10
326.6559433483088
 20
140.6282623703382
 10
326.6221773170436
 20
140.5719844097992
 10
326.5870627306903
 20
140.5134563739202
  0
LINE
  5
535
330
1F
100
AcDbEntity
  8
1
  6
CONTINUOUS
100
AcDbLine
 10
326.2670623325324
 20
140.8134572377358
 30
0.0
 11
326.2670623325324
 21
140.5134572127014
 31
0.0
  0
LINE
  5
536
330
1F
100
AcDbEntity
  8
1
  6
CONTINUOUS
100
AcDbLine
 10
326.7670613073314
 20
140.8134577269455
 30
0.0
 11
326.2670623325324
 21
140.8134572377358
 31
0.0
  0
LINE
  5
537
330
1F
100
AcDbEntity
  8
1
  6
CONTINUOUS
100
AcDbLine
 10
327.1670606278385
 20
138.6134577388665
 30
0.0
 11
325.1670640253032
 21
138.6134577388665
 31
0.0
  0
LINE
  5
538
330
1F
100
AcDbEntity
  8
1
  6
CONTINUOUS
100
AcDbLine
 10
326.7670613073314
 20
140.8134577269455
 30
0.0
 11
328.117881371876
 21
138.2806719685695
 31
0.0
  0
LINE
  5
539
330
1F
100
AcDbEntity
  8
1
  6
CONTINUOUS
100
AcDbLine
 10
328.117881371876
 20
138.2806719685695
 30
0.0
 11
326.7670613073314
 21
140.8134577269455
 31
0.0
  0
LINE
  5
53A
330
1F
100
AcDbEntity
  8
1
  6
CONTINUOUS
100
AcDbLine
 10
329.167060955664
 20
106.0134553755424
 30
0.0
 11
329.167060955664
 21
103.9377198959491
 31
0.0
  0
LINE
  5
53B
330
1F
100
AcDbEntity
  8
1
  6
CONTINUOUS
100
AcDbLine
 10
325.1670640253032
 20
108.3102644826075
 30
0.0
 11
325.1670640253032
 21
103.9377198959491
 31
0.0
  0
LINE
  5
53C
330
1F
100
AcDbEntity
  8
1
  6
CONTINUOUS
100
AcDbLine
 10
325.4670616530383
 20
103.8134553874633
 30
0.0
 11
328.8670633279288
 21
103.8134553874633
 31
0.0
  0
LINE
  5
53D
330
1F
100
AcDbEntity
  8
1
  6
CONTINUOUS
100
AcDbLine
 10
328.8670633279288
 20
101.3134577716491
 30
0.0
 11
325.4670616530383
 21
101.3134577716491
 31
0.0
  0
ELLIPSE
  5
53E
330
1F
100
AcDbEntity
  8
1
  6
CONTINUOUS
100
AcDbEllipse
 10
325.4670623206115
 20
103.937721182437
 30
0.0
 11
0.3000000119209289
 21
0.0
 31
0.0
210
0.0
220
0.0
230
1.0
 40
0.4142136060846934
 41
3.141592653589792
 42
4.712388980384695
  0
ARC
  5
53F
330
1F
100
AcDbEntity
  8
1
  6
CONTINUOUS
100
AcDbCircle
 10
325.4670623206115
 20
101.6134572223051
 30
0.0
 40
0.3000000173527155
100
AcDbArc
 50
179.9890970556591
 51
270.0
  0
LINE
  5
540
330
1F
100
AcDbEntity
  8
1
  6
CONTINUOUS
100
AcDbLine
 10
325.1670640253032
 20
103.9377198959491
 30
0.0
 11
325.1670640253032
 21
101.6134553993842
 31
0.0
  0
ELLIPSE
  5
541
330
1F
100
AcDbEntity
  8
1
  6
CONTINUOUS
100
AcDbEllipse
 10
328.8670622967696
 20
103.937721182437
 30
0.0
 11
0.3000000119209289
 21
0.0
 31
0.0
210
0.0
220
0.0
230
1.0
 40
0.4142136060843144
 41
4.712388980384695
 42
6.283185307179585
  0
ARC
  5
542
330
1F
100
AcDbEntity
  8
1
  6
CONTINUOUS
100
AcDbCircle
 10
328.8670622967696
 20
101.6134572223051
 30
0.0
 40
0.3000000173527724
100
AcDbArc
 50
270.0
 51
0.0109031154837913
  0
LINE
  5
543
330
1F
100
AcDbEntity
  8
1
  6
CONTINUOUS
100
AcDbLine
 10
329.167060955664
 20
103.9377198959491
 30
0.0
 11
329.167060955664
 21
101.6134553993842
 31
0.0
  0
LINE
  5
544
330
1F
100
AcDbEntity
  8
1
  6
CONTINUOUS
100
AcDbLine
 10
326.6670633398498
 20
106.3134567285677
 30
0.0
 11
328.8670633279288
 21
106.3134567285677
 31
0.0
  0
LINE
  5
545
330
1F
100
AcDbEntity
  8
1
  6
CONTINUOUS
100
AcDbLine
 10
326.6670633398498
 20
106.3134567285677
 30
0.0
 11
328.8670633279288
 21
106.3134567285677
 31
0.0
  0
LINE
  5
546
330
1F
100
AcDbEntity
  8
1
  6
CONTINUOUS
100
AcDbLine
 10
325.1670640253032
 20
114.8134590531489
 30
0.0
 11
329.1670646809543
 21
114.8134590531489
 31
0.0
  0
LINE
  5
547
330
1F
100
AcDbEntity
  8
1
  6
CONTINUOUS
100
AcDbLine
 10
323.1670636974776
 20
107.8761377776762
 30
0.0
 11
324.6683147095645
 21
107.8761377776762
 31
0.0
  0
LINE
  5
548
330
1F
100
AcDbEntity
  8
1
  6
CONTINUOUS
100
AcDbLine
 10
322.6670623086897
 20
106.3134631235334
 30
0.0
 11
323.2296038710082
 21
106.3134641791484
 31
0.0
  0
LWPOLYLINE
  5
549
330
1F
100
AcDbEntity
  8
1
  6
CONTINUOUS
100
AcDbPolyline
 90
        9
 70
   128
 43
0.0
 10
326.6670633398498
 20
106.3134567285677
 10
326.6612965904677
 20
106.3076937044761
 10
326.6442273103202
 20
106.2906206990382
 10
326.6165036999191
 20
106.262897088637
 10
326.5791949175799
 20
106.225588306298
 10
326.5337352000678
 20
106.1801285887859
 10
326.4818679832423
 20
106.1282613719604
 10
326.4255900227035
 20
106.0719834114215
 10
326.3670619868243
 20
106.0134553755424
  0
LINE
  5
54A
330
1F
100
AcDbEntity
  8
1
  6
CONTINUOUS
100
AcDbLine
 10
326.6670633398498
 20
114.8134590531489
 30
0.0
 11
326.6670633398498
 21
106.3134567285677
 31
0.0
  0
LINE
  5
54B
330
1F
100
AcDbEntity
  8
1
  6
CONTINUOUS
100
AcDbLine
 10
325.1670640253032
 20
109.5185549403331
 30
0.0
 11
325.1670640253032
 21
109.1218077982565
 31
0.0
  0
ARC
  5
54C
330
1F
100
AcDbEntity
  8
1
  6
CONTINUOUS
100
AcDbCircle
 10
324.6672093781717
 20
108.3762979745055
 30
0.0
 40
0.4998547444539664
100
AcDbArc
 50
269.9832228007668
 51
359.9642461598516
  0
LINE
  5
54D
330
1F
100
AcDbEntity
  8
1
  6
CONTINUOUS
100
AcDbLine
 10
325.1670640253032
 20
109.1218077982565
 30
0.0
 11
325.1670640253032
 21
108.3761425162455
 31
0.0
  0
ARC
  5
54E
330
1F
100
AcDbEntity
  8
1
  6
CONTINUOUS
100
AcDbCircle
 10
324.6672093781721
 20
108.3762979745055
 30
0.0
 40
0.4998547444539664
100
AcDbArc
 50
269.9832228007668
 51
359.9642461598516
  0
LINE
  5
54F
330
1F
100
AcDbEntity
  8
1
  6
CONTINUOUS
100
AcDbLine
 10
323.1670636974776
 20
107.3184096659324
 30
0.0
 11
323.1670636974776
 21
108.308360859265
 31
0.0
  0
LINE
  5
550
330
1F
100
AcDbEntity
  8
1
  6
CONTINUOUS
100
AcDbLine
 10
322.6670623086897
 20
106.3134631235334
 30
0.0
 11
322.6670623086897
 21
107.3184108144325
 31
0.0
  0
LINE
  5
551
330
1F
100
AcDbEntity
  8
1
  6
CONTINUOUS
100
AcDbLine
 10
323.1670636974776
 20
107.3184096659324
 30
0.0
 11
323.1670636974776
 21
106.3135200585028
 31
0.0
  0
LINE
  5
552
330
1F
100
AcDbEntity
  8
1
  6
CONTINUOUS
100
AcDbLine
 10
328.8670633279288
 20
106.0134553755424
 30
0.0
 11
328.8670633279288
 21
106.3134567285677
 31
0.0
  0
ARC
  5
553
330
1F
100
AcDbEntity
  8
1
  6
CONTINUOUS
100
AcDbCircle
 10
328.8670603369096
 20
106.0134561098275
 30
0.0
 40
0.3000006187554509
100
AcDbArc
 50
0.0
 51
89.99942875854722
  0
ARC
  5
554
330
1F
100
AcDbEntity
  8
1
  6
CONTINUOUS
100
AcDbCircle
 10
328.8670622967696
 20
106.0134572258149
 30
0.0
 40
0.3000000119209289
100
AcDbArc
 50
0.0
 51
90.0
  0
LINE
  5
555
330
1F
100
AcDbEntity
  8
1
  6
CONTINUOUS
100
AcDbLine
 10
329.167060955664
 20
114.8134590531489
 30
0.0
 11
329.167060955664
 21
106.0134553755424
 31
0.0
  0
LINE
  5
556
330
1F
100
AcDbEntity
  8
1
  6
CONTINUOUS
100
AcDbLine
 10
329.1670646809543
 20
114.8134590531489
 30
0.0
 11
329.1670646809543
 21
137.913457065334
 31
0.0
  0
LINE
  5
557
330
1F
100
AcDbEntity
  8
1
  6
CONTINUOUS
100
AcDbLine
 10
313.1670623086897
 20
108.3083612422844
 30
0.0
 11
313.1670623086897
 21
107.3184107871114
 31
0.0
  0
LINE
  5
558
330
1F
100
AcDbEntity
  8
1
  6
CONTINUOUS
100
AcDbLine
 10
313.1670623086906
 20
106.3134631235336
 30
0.0
 11
313.1670623086897
 21
107.3184107871114
 31
0.0
  0
LINE
  5
559
330
1F
100
AcDbEntity
  8
1
  6
CONTINUOUS
100
AcDbLine
 10
313.1670623086906
 20
106.3134631235336
 30
0.0
 11
322.6670623086897
 21
106.3134631235334
 31
0.0
  0
LINE
  5
55A
330
1F
100
AcDbEntity
  8
1
  6
CONTINUOUS
100
AcDbLine
 10
381.7454517360379
 20
99.43477792989234
 30
0.0
 11
381.7454517360379
 21
99.8134574140213
 31
0.0
  0
LINE
  5
55B
330
1F
100
AcDbEntity
  8
1
  6
CONTINUOUS
100
AcDbLine
 10
383.2454529132295
 20
101.0134591008327
 30
0.0
 11
383.2454529132295
 21
98.81345911275369
 31
0.0
  0
LINE
  5
55C
330
1F
100
AcDbEntity
  8
1
  6
CONTINUOUS
100
AcDbLine
 10
370.7454522613037
 20
99.8134574140213
 30
0.0
 11
370.7454522613037
 21
99.43477792989234
 31
0.0
  0
LINE
  5
55D
330
1F
100
AcDbEntity
  8
1
  6
CONTINUOUS
100
AcDbLine
 10
369.2454524810958
 20
98.81345538746337
 30
0.0
 11
369.2454524810958
 21
101.0134553755424
 31
0.0
  0
LINE
  5
55E
330
1F
100
AcDbEntity
  8
1
  6
CONTINUOUS
100
AcDbLine
 10
380.7454534347701
 20
96.31345777164916
 30
0.0
 11
383.2454529132295
 21
98.81345911275369
 31
0.0
  0
LWPOLYLINE
  5
55F
330
1F
100
AcDbEntity
  8
1
  6
CONTINUOUS
100
AcDbPolyline
 90
       10
 70
   128
 43
0.0
 10
380.6211889262844
 20
96.6134591246746
 10
380.642765807693
 20
96.56136466514091
 10
380.6636889006544
 20
96.51084972869377
 10
380.6833211805273
 20
96.46345658551673
 10
380.7010647382188
 20
96.42061947237472
 10
380.7163794066358
 20
96.38364596616249
 10
380.7288051124263
 20
96.35364992867927
 10
380.7379581506896
 20
96.33155150662879
 10
380.7435647125888
 20
96.31801380168418
 10
380.7454534347701
 20
96.31345777164916
  0
LINE
  5
560
330
1F
100
AcDbEntity
  8
1
  6
CONTINUOUS
100
AcDbLine
 10
381.7454517360379
 20
99.43477792989234
 30
0.0
 11
380.1241327549863
 21
97.81345708619577
 31
0.0
  0
LWPOLYLINE
  5
561
330
1F
100
AcDbEntity
  8
1
  6
CONTINUOUS
100
AcDbPolyline
 90
       10
 70
   128
 43
0.0
 10
369.5454524371375
 20
98.93771989594917
 10
369.4933579776038
 20
98.91614301454048
 10
369.4428463007856
 20
98.89522178422431
 10
369.395452226286
 20
98.87558950435142
 10
369.3526160444666
 20
98.85784594665985
 10
369.3156392786254
 20
98.84252755295257
 10
369.2856446381259
 20
98.8301037098072
 10
369.2635448190917
 20
98.82095067154388
 10
369.2500099081147
 20
98.81534410964469
 10
369.2454524810958
 20
98.81345538746337
  0
LWPOLYLINE
  5
562
330
1F
100
AcDbEntity
  8
1
  6
CONTINUOUS
100
AcDbPolyline
 90
       10
 70
   128
 43
0.0
 10
371.7454528908778
 20
96.31345777164916
 10
371.7473406817366
 20
96.31801380168418
 10
371.7529463123131
 20
96.3315477813385
 10
371.7621012132216
 20
96.35364992867927
 10
371.7745250563671
 20
96.3836422408722
 10
371.7898415874291
 20
96.42061947237472
 10
371.8075842137982
 20
96.46345658551673
 10
371.8272155623485
 20
96.51084972869377
 10
371.8481386553098
 20
96.56136093985061
 10
371.8697164680411
 20
96.6134553993843
  0
LINE
  5
563
330
1F
100
AcDbEntity
  8
1
  6
CONTINUOUS
100
AcDbLine
 10
369.2454524810958
 20
98.81345538746337
 30
0.0
 11
371.7454528908778
 21
96.31345777164916
 31
0.0
  0
LINE
  5
564
330
1F
100
AcDbEntity
  8
1
  6
CONTINUOUS
100
AcDbLine
 10
372.3667726393391
 20
97.81345708619577
 30
0.0
 11
370.7454522613037
 21
99.43477792989234
 31
0.0
  0
LINE
  5
565
330
1F
100
AcDbEntity
  8
1
  6
CONTINUOUS
100
AcDbLine
 10
380.7454534347701
 20
96.31345777164916
 30
0.0
 11
371.7454528908778
 21
96.31345777164916
 31
0.0
  0
LINE
  5
566
330
1F
100
AcDbEntity
  8
1
  6
CONTINUOUS
100
AcDbLine
 10
380.1241327549863
 20
97.81345708619577
 30
0.0
 11
372.3667726393391
 21
97.81345708619577
 31
0.0
  0
LWPOLYLINE
  5
567
330
1F
100
AcDbEntity
  8
1
  6
CONTINUOUS
100
AcDbPolyline
 90
       10
 70
   128
 43
0.0
 10
383.2454529132295
 20
98.81345911275369
 10
383.2408950205493
 20
98.81534410964469
 10
383.2273610408951
 20
98.82095067154388
 10
383.2052607561994
 20
98.8301074350975
 10
383.1752665813613
 20
98.84253127824287
 10
383.1382893498588
 20
98.85784594665985
 10
383.0954522367168
 20
98.87558950435142
 10
383.0480590935398
 20
98.89522178422431
 10
382.9975460197378
 20
98.91614301454048
 10
382.9454515602041
 20
98.93772362123948
  0
LINE
  5
568
330
1F
100
AcDbEntity
  8
1
  6
CONTINUOUS
100
AcDbLine
 10
380.4912135477711
 20
138.6134577388665
 30
0.0
 11
385.1912148769546
 21
138.6134577388665
 31
0.0
  0
LINE
  5
569
330
1F
100
AcDbEntity
  8
1
  6
CONTINUOUS
100
AcDbLine
 10
385.1912148769546
 20
137.9134589279792
 30
0.0
 11
380.4912135477711
 21
137.9134589279792
 31
0.0
  0
LINE
  5
56A
330
1F
100
AcDbEntity
  8
1
  6
CONTINUOUS
100
AcDbLine
 10
380.7454534347701
 20
101.3134577716491
 30
0.0
 11
383.2454529132295
 21
103.8134591127536
 31
0.0
  0
LINE
  5
56B
330
1F
100
AcDbEntity
  8
1
  6
CONTINUOUS
100
AcDbLine
 10
380.2954514052321
 20
106.3134567285677
 30
0.0
 11
382.9454515602041
 21
106.3134567285677
 31
0.0
  0
LINE
  5
56C
330
1F
100
AcDbEntity
  8
1
  6
CONTINUOUS
100
AcDbLine
 10
380.4912135477711
 20
115.8134573544165
 30
0.0
 11
383.4412094678331
 21
115.8134573544165
 31
0.0
  0
LINE
  5
56D
330
1F
100
AcDbEntity
  8
1
  6
CONTINUOUS
100
AcDbLine
 10
380.2954514052321
 20
140.5134582365652
 30
0.0
 11
380.2954514052321
 21
136.2384566510818
 31
0.0
  0
LINE
  5
56E
330
1F
100
AcDbEntity
  8
1
  6
CONTINUOUS
100
AcDbLine
 10
380.4912135477711
 20
137.9134589279792
 30
0.0
 11
380.4912135477711
 21
138.6134577388665
 31
0.0
  0
ARC
  5
56F
330
1F
100
AcDbEntity
  8
1
  6
CONTINUOUS
100
AcDbCircle
 10
379.9954508046003
 20
140.51345755365
 30
0.0
 40
0.3000000119210429
100
AcDbArc
 50
0.0
 51
90.00000250446868
  0
ELLIPSE
  5
570
330
1F
100
AcDbEntity
  8
1
  6
CONTINUOUS
100
AcDbEllipse
 10
379.9954509914659
 20
136.2384575591395
 30
0.0
 11
0.3000000119209289
 21
0.0000000131134357
 31
0.0
210
0.0
220
0.0
230
0.9999999999999998
 40
0.2500000115045391
 41
0.0
 42
1.570796326794611
  0
ARC
  5
571
330
1F
100
AcDbEntity
  8
1
  6
CONTINUOUS
100
AcDbCircle
 10
381.0454512733045
 20
130.0634576114678
 30
0.0
 40
0.7499999999999382
100
AcDbArc
 50
137.6449318437762
 51
180.0
  0
LINE
  5
572
330
1F
100
AcDbEntity
  8
1
  6
CONTINUOUS
100
AcDbLine
 10
380.2954514052321
 20
136.3134579206607
 30
0.0
 11
380.4912135477711
 21
136.3134579206607
 31
0.0
  0
LINE
  5
573
330
1F
100
AcDbEntity
  8
1
  6
CONTINUOUS
100
AcDbLine
 10
380.2954514052321
 20
136.3134579206607
 30
0.0
 11
380.4912135477711
 21
136.3134579206607
 31
0.0
  0
LINE
  5
574
330
1F
100
AcDbEntity
  8
1
  6
CONTINUOUS
100
AcDbLine
 10
381.7454517360379
 20
104.4347779298922
 30
0.0
 11
380.1241327549863
 21
102.8134570861956
 31
0.0
  0
LWPOLYLINE
  5
575
330
1F
100
AcDbEntity
  8
1
  6
CONTINUOUS
100
AcDbPolyline
 90
       10
 70
   128
 43
0.0
 10
380.6211889262844
 20
101.6134591246744
 10
380.642765807693
 20
101.5613646651408
 10
380.6636889006544
 20
101.5108497286937
 10
380.6833211805273
 20
101.4634565855166
 10
380.7010647382188
 20
101.4206194723747
 10
380.7163794066358
 20
101.3836459661624
 10
380.7288051124263
 20
101.3536499286792
 10
380.7379581506896
 20
101.3315515066286
 10
380.7435647125888
 20
101.318013801684
 10
380.7454534347701
 20
101.3134577716491
  0
LINE
  5
576
330
1F
100
AcDbEntity
  8
1
  6
CONTINUOUS
100
AcDbLine
 10
381.7454517360379
 20
104.4347779298922
 30
0.0
 11
381.7454517360379
 21
104.8134574140211
 31
0.0
  0
ARC
  5
577
330
1F
100
AcDbEntity
  8
1
  6
CONTINUOUS
100
AcDbCircle
 10
381.0454517759854
 20
118.563457611468
 30
0.0
 40
0.7500000000000008
100
AcDbArc
 50
180.0
 51
222.3550111565561
  0
LWPOLYLINE
  5
578
330
1F
100
AcDbEntity
  8
1
  6
CONTINUOUS
100
AcDbPolyline
 90
       10
 70
   128
 43
0.0
 10
379.9954519148518
 20
106.0134591008327
 10
380.0475463743855
 20
106.0655535603663
 10
380.0980575855422
 20
106.1160647715232
 10
380.1454525913645
 20
106.1634579147002
 10
380.1882878418613
 20
106.2062950278422
 10
380.2252650733638
 20
106.2432722593448
 10
380.2552592482019
 20
106.2732645715377
 10
380.2773595328976
 20
106.2953667188784
 10
380.2908953751971
 20
106.3089006985328
 10
380.2954514052321
 20
106.3134567285677
  0
LINE
  5
579
330
1F
100
AcDbEntity
  8
1
  6
CONTINUOUS
100
AcDbLine
 10
380.4912135477711
 20
137.9134589279792
 30
0.0
 11
380.4912135477711
 21
115.8134573544165
 31
0.0
  0
LINE
  5
57A
330
1F
100
AcDbEntity
  8
1
  6
CONTINUOUS
100
AcDbLine
 10
378.9954508196164
 20
134.813456743469
 30
0.0
 11
378.9954526822616
 21
106.3134567285677
 31
0.0
  0
LINE
  5
57B
330
1F
100
AcDbEntity
  8
1
  6
CONTINUOUS
100
AcDbLine
 10
380.2954514052321
 20
106.3134567285677
 30
0.0
 11
380.2954514052321
 21
136.2384566510818
 31
0.0
  0
LINE
  5
57C
330
1F
100
AcDbEntity
  8
1
  6
CONTINUOUS
100
AcDbLine
 10
372.1954511951256
 20
136.2384566510818
 30
0.0
 11
372.1954511951256
 21
140.5134563739202
 31
0.0
  0
LINE
  5
57D
330
1F
100
AcDbEntity
  8
1
  6
CONTINUOUS
100
AcDbLine
 10
371.9912121545124
 20
138.6134577388665
 30
0.0
 11
371.9912121545124
 21
137.9134589279792
 31
0.0
  0
LINE
  5
57E
330
1F
100
AcDbEntity
  8
1
  6
CONTINUOUS
100
AcDbLine
 10
367.2912133864659
 20
137.913457065334
 30
0.0
 11
367.2912133864659
 21
138.6134577388665
 31
0.0
  0
ARC
  5
57F
330
1F
100
AcDbEntity
  8
1
  6
CONTINUOUS
100
AcDbCircle
 10
372.4954508284436
 20
140.5134572258149
 30
0.0
 40
0.3000000119209861
100
AcDbArc
 50
90.00000250446868
 51
180.0
  0
LINE
  5
580
330
1F
100
AcDbEntity
  8
1
  6
CONTINUOUS
100
AcDbLine
 10
367.2912133864659
 20
138.6134577388665
 30
0.0
 11
371.9912121545124
 21
138.6134577388665
 31
0.0
  0
ELLIPSE
  5
581
330
1F
100
AcDbEntity
  8
1
  6
CONTINUOUS
100
AcDbEllipse
 10
372.4954510153096
 20
136.2384572313038
 30
0.0
 11
0.3000000119208152
 21
0.0000000131134925
 31
0.0
210
0.0
220
0.0
230
1.0
 40
0.2500000115044443
 41
1.570796326794943
 42
3.141592653586761
  0
ARC
  5
582
330
1F
100
AcDbEntity
  8
1
  6
CONTINUOUS
100
AcDbCircle
 10
371.4454512733063
 20
130.0634571918386
 30
0.0
 40
0.7500000000001145
100
AcDbArc
 50
0.0
 51
43.30762633752271
  0
LINE
  5
583
330
1F
100
AcDbEntity
  8
1
  6
CONTINUOUS
100
AcDbLine
 10
371.9912149484803
 20
136.3134579206607
 30
0.0
 11
372.1954511951256
 21
136.3134579206607
 31
0.0
  0
LINE
  5
584
330
1F
100
AcDbEntity
  8
1
  6
CONTINUOUS
100
AcDbLine
 10
371.9912121545124
 20
137.9134589279792
 30
0.0
 11
367.2912133864659
 21
137.913457065334
 31
0.0
  0
LINE
  5
585
330
1F
100
AcDbEntity
  8
1
  6
CONTINUOUS
100
AcDbLine
 10
371.9912121545124
 20
136.3134579206607
 30
0.0
 11
372.1954511951256
 21
136.3134579206607
 31
0.0
  0
ARC
  5
586
330
1F
100
AcDbEntity
  8
1
  6
CONTINUOUS
100
AcDbCircle
 10
373.9954521234908
 20
110.6134597404168
 30
0.0
 40
0.5000000000000006
100
AcDbArc
 50
180.0
 51
0.0
  0
LWPOLYLINE
  5
587
330
1F
100
AcDbEntity
  8
1
  6
CONTINUOUS
100
AcDbPolyline
 90
        4
 70
   128
 43
0.0
 10
373.4954517807413
 20
113.146652414908
 10
373.8125345211078
 20
112.9347839797636
 10
374.4628528605748
 20
111.9615146363875
 10
374.4954519446541
 20
111.7976279402872
  0
LINE
  5
588
330
1F
100
AcDbEntity
  8
1
  6
CONTINUOUS
100
AcDbLine
 10
369.2454524810958
 20
103.8134553874633
 30
0.0
 11
369.2454524810958
 21
106.0134553755424
 31
0.0
  0
LINE
  5
589
330
1F
100
AcDbEntity
  8
1
  6
CONTINUOUS
100
AcDbLine
 10
370.7454522613037
 20
104.8134574140211
 30
0.0
 11
370.7454522613037
 21
104.4347779298922
 31
0.0
  0
LWPOLYLINE
  5
58A
330
1F
100
AcDbEntity
  8
1
  6
CONTINUOUS
100
AcDbPolyline
 90
       10
 70
   128
 43
0.0
 10
369.5454524371375
 20
103.9377198959491
 10
369.4933579776038
 20
103.9161430145404
 10
369.4428463007856
 20
103.8952217842243
 10
369.395452226286
 20
103.8755895043514
 10
369.3526160444666
 20
103.8578459466597
 10
369.3156392786254
 20
103.8425275529525
 10
369.2856446381259
 20
103.830103709807
 10
369.2635448190917
 20
103.8209506715437
 10
369.2500099081147
 20
103.8153441096445
 10
369.2454524810958
 20
103.8134553874633
  0
LWPOLYLINE
  5
58B
330
1F
100
AcDbEntity
  8
1
  6
CONTINUOUS
100
AcDbPolyline
 90
       10
 70
   128
 43
0.0
 10
371.7454528908778
 20
101.3134577716491
 10
371.7473406817366
 20
101.318013801684
 10
371.7529463123131
 20
101.3315477813383
 10
371.7621012132216
 20
101.3536499286792
 10
371.7745250563671
 20
101.383642240872
 10
371.7898415874291
 20
101.4206194723747
 10
371.8075842137982
 20
101.4634565855166
 10
371.8272155623485
 20
101.5108497286937
 10
371.8481386553098
 20
101.5613609398505
 10
371.8697164680411
 20
101.6134553993842
  0
LINE
  5
58C
330
1F
100
AcDbEntity
  8
1
  6
CONTINUOUS
100
AcDbLine
 10
372.3667726393391
 20
102.8134570861956
 30
0.0
 11
370.7454522613037
 21
104.4347779298922
 31
0.0
  0
LINE
  5
58D
330
1F
100
AcDbEntity
  8
1
  6
CONTINUOUS
100
AcDbLine
 10
369.2454524810958
 20
103.8134553874633
 30
0.0
 11
371.7454528908778
 21
101.3134577716491
 31
0.0
  0
LWPOLYLINE
  5
58E
330
1F
100
AcDbEntity
  8
1
  6
CONTINUOUS
100
AcDbPolyline
 90
        3
 70
   128
 43
0.0
 10
368.1737162645507
 20
107.8764432514808
 10
363.5609978831556
 20
108.1450441325805
 10
358.976669284289
 20
108.6258748019835
  0
LWPOLYLINE
  5
58F
330
1F
100
AcDbEntity
  8
1
  6
CONTINUOUS
100
AcDbPolyline
 90
        3
 70
   128
 43
0.0
 10
358.9639422956456
 20
108.5266889477869
 10
365.3537999147151
 20
107.914478465428
 10
369.2454520154346
 20
107.7925720657011
  0
LWPOLYLINE
  5
590
330
1F
100
AcDbEntity
  8
1
  6
CONTINUOUS
100
AcDbPolyline
 90
        3
 70
   128
 43
0.0
 10
369.2454524810958
 20
106.3981698299548
 10
364.5661550930303
 20
106.5676183844707
 10
357.5498002122689
 20
107.3184096659324
  0
ARC
  5
591
330
1F
100
AcDbEntity
  8
1
  6
CONTINUOUS
100
AcDbCircle
 10
359.0912121317568
 20
109.5185531197486
 30
0.0
 40
0.8999970238361578
100
AcDbArc
 50
180.0
 51
262.6881210948025
  0
ARC
  5
592
330
1F
100
AcDbEntity
  8
1
  6
CONTINUOUS
100
AcDbCircle
 10
359.0912148942188
 20
109.5185549664139
 30
0.0
 40
1.000000000000123
100
AcDbArc
 50
179.9613962235549
 51
262.6879777955276
  0
ARC
  5
593
330
1F
100
AcDbEntity
  8
1
  6
CONTINUOUS
100
AcDbCircle
 10
371.4454517759863
 20
118.5634571918392
 30
0.0
 40
0.750000000000342
100
AcDbArc
 50
316.6923176760457
 51
0.0
  0
LINE
  5
594
330
1F
100
AcDbEntity
  8
1
  6
CONTINUOUS
100
AcDbLine
 10
371.9912121545124
 20
115.8134573544165
 30
0.0
 11
369.0412097151923
 21
115.8134573544165
 31
0.0
  0
LINE
  5
595
330
1F
100
AcDbEntity
  8
1
  6
CONTINUOUS
100
AcDbLine
 10
369.0412097151923
 20
115.3134563411375
 30
0.0
 11
369.0412097151923
 21
115.8134573544165
 31
0.0
  0
LINE
  5
596
330
1F
100
AcDbEntity
  8
1
  6
CONTINUOUS
100
AcDbLine
 10
369.5454524371375
 20
106.3134567285677
 30
0.0
 11
372.1954521264482
 21
106.3134567285677
 31
0.0
  0
LWPOLYLINE
  5
597
330
1F
100
AcDbEntity
  8
1
  6
CONTINUOUS
100
AcDbPolyline
 90
        9
 70
   128
 43
0.0
 10
372.1954521264482
 20
106.3134567285677
 10
372.2012170131852
 20
106.3076937044761
 10
372.2182881559778
 20
106.2906206990382
 10
372.246011766379
 20
106.262897088637
 10
372.2833205487181
 20
106.225588306298
 10
372.3287811975528
 20
106.1801285887859
 10
372.3806474830557
 20
106.1282613719604
 10
372.4369254435945
 20
106.0719834114215
 10
372.4954525481511
 20
106.0134553755424
  0
LINE
  5
598
330
1F
100
AcDbEntity
  8
1
  6
CONTINUOUS
100
AcDbLine
 10
369.5454524371375
 20
106.0134553755424
 30
0.0
 11
369.5454524371375
 21
106.3134567285677
 31
0.0
  0
ARC
  5
599
330
1F
100
AcDbEntity
  8
1
  6
CONTINUOUS
100
AcDbCircle
 10
369.5454526410821
 20
106.0134565685796
 30
0.0
 40
0.3000001599884702
100
AcDbArc
 50
90.00003895050443
 51
180.0
  0
LINE
  5
59A
330
1F
100
AcDbEntity
  8
1
  6
CONTINUOUS
100
AcDbLine
 10
367.2912133864659
 20
114.8134590531489
 30
0.0
 11
368.5412100988973
 21
114.8134590531489
 31
0.0
  0
LINE
  5
59B
330
1F
100
AcDbEntity
  8
1
  6
CONTINUOUS
100
AcDbLine
 10
369.2454520154346
 20
114.8134590531489
 30
0.0
 11
369.0412097151923
 21
114.8134590531489
 31
0.0
  0
LINE
  5
59C
330
1F
100
AcDbEntity
  8
1
  6
CONTINUOUS
100
AcDbLine
 10
368.6912145007003
 20
108.3761387909552
 30
0.0
 11
368.6912145007003
 21
110.8134621227881
 31
0.0
  0
LINE
  5
59D
330
1F
100
AcDbEntity
  8
1
  6
CONTINUOUS
100
AcDbLine
 10
368.1912144187439
 20
108.3761387909552
 30
0.0
 11
368.6912145007003
 21
108.3761387909552
 31
0.0
  0
ARC
  5
59E
330
1F
100
AcDbEntity
  8
1
  6
CONTINUOUS
100
AcDbCircle
 10
68.33670532363431
 20
118.6262386326179
 30
0.0
 40
300.0296505859371
100
AcDbArc
 50
357.9467037368962
 51
358.0421584396611
  0
ARC
  5
59F
330
1F
100
AcDbEntity
  8
1
  6
CONTINUOUS
100
AcDbCircle
 10
368.1912133599061
 20
108.3761381508445
 30
0.0
 40
0.5000011407947344
100
AcDbArc
 50
267.9945756943278
 51
0.0
  0
LWPOLYLINE
  5
5A0
330
1F
100
AcDbEntity
  8
1
  6
CONTINUOUS
100
AcDbPolyline
 90
        3
 70
   128
 43
0.0
 10
368.6912145007003
 20
110.8134621227881
 10
368.9195757273187
 20
111.9615146363875
 10
369.2454520154346
 20
112.4492221916816
  0
LINE
  5
5A1
330
1F
100
AcDbEntity
  8
1
  6
CONTINUOUS
100
AcDbLine
 10
369.2454524810958
 20
106.0134553755424
 30
0.0
 11
369.2454520154346
 21
115.8134573544165
 31
0.0
  0
LINE
  5
5A2
330
1F
100
AcDbEntity
  8
1
  6
CONTINUOUS
100
AcDbLine
 10
368.5412100988973
 20
114.8134590531489
 30
0.0
 11
369.0412097151923
 21
115.3134563411375
 31
0.0
  0
LINE
  5
5A3
330
1F
100
AcDbEntity
  8
1
  6
CONTINUOUS
100
AcDbLine
 10
369.0412097151923
 20
114.8134590531489
 30
0.0
 11
369.0412097151923
 21
115.3134563411375
 31
0.0
  0
ARC
  5
5A4
330
1F
100
AcDbEntity
  8
1
  6
CONTINUOUS
100
AcDbCircle
 10
374.7954517332672
 20
119.8134573263512
 30
0.0
 40
0.3000000119209292
100
AcDbArc
 50
90.00000250446868
 51
180.0
  0
LINE
  5
5A5
330
1F
100
AcDbEntity
  8
1
  6
CONTINUOUS
100
AcDbLine
 10
377.6954516963118
 20
120.1134574650349
 30
0.0
 11
374.7954517201542
 21
120.1134573382721
 31
0.0
  0
ARC
  5
5A6
330
1F
100
AcDbEntity
  8
1
  6
CONTINUOUS
100
AcDbCircle
 10
377.6954517094253
 20
119.8134574531138
 30
0.0
 40
0.3000000119210429
100
AcDbArc
 50
0.0
 51
90.00000250446868
  0
LINE
  5
5A7
330
1F
100
AcDbEntity
  8
1
  6
CONTINUOUS
100
AcDbLine
 10
375.5954519386937
 20
118.6134600485464
 30
0.0
 11
376.8954515929866
 21
118.6134600485464
 31
0.0
  0
LINE
  5
5A8
330
1F
100
AcDbEntity
  8
1
  6
CONTINUOUS
100
AcDbLine
 10
376.8954525243092
 20
110.1134614492556
 30
0.0
 11
375.5954519386937
 21
110.1134614492556
 31
0.0
  0
LINE
  5
5A9
330
1F
100
AcDbEntity
  8
1
  6
CONTINUOUS
100
AcDbLine
 10
375.6912133197833
 20
113.6134610916277
 30
0.0
 11
376.7912133138228
 21
113.6134610916277
 31
0.0
  0
LINE
  5
5AA
330
1F
100
AcDbEntity
  8
1
  6
CONTINUOUS
100
AcDbLine
 10
376.7912133138228
 20
112.4134594048163
 30
0.0
 11
376.7912133138228
 21
113.6134610916277
 31
0.0
  0
LINE
  5
5AB
330
1F
100
AcDbEntity
  8
1
  6
CONTINUOUS
100
AcDbLine
 10
376.7912133138228
 20
112.4134594048163
 30
0.0
 11
375.6912133197833
 21
112.4134594048163
 31
0.0
  0
LINE
  5
5AC
330
1F
100
AcDbEntity
  8
1
  6
CONTINUOUS
100
AcDbLine
 10
375.6912133197833
 20
112.4134594048163
 30
0.0
 11
375.6912133197833
 21
113.6134610916277
 31
0.0
  0
LINE
  5
5AD
330
1F
100
AcDbEntity
  8
1
  6
CONTINUOUS
100
AcDbLine
 10
375.6912133197833
 20
113.6134610916277
 30
0.0
 11
376.7912133138228
 21
113.6134610916277
 31
0.0
  0
LINE
  5
5AE
330
1F
100
AcDbEntity
  8
1
  6
CONTINUOUS
100
AcDbLine
 10
375.6912133197833
 20
110.4134590769907
 30
0.0
 11
376.7912133138228
 21
110.4134590769907
 31
0.0
  0
LINE
  5
5AF
330
1F
100
AcDbEntity
  8
1
  6
CONTINUOUS
100
AcDbLine
 10
375.6912133197833
 20
110.4134590769907
 30
0.0
 11
375.6912133197833
 21
112.4134594048163
 31
0.0
  0
LINE
  5
5B0
330
1F
100
AcDbEntity
  8
1
  6
CONTINUOUS
100
AcDbLine
 10
376.7912133138228
 20
110.4134590769907
 30
0.0
 11
376.7912133138228
 21
112.4134594048163
 31
0.0
  0
LINE
  5
5B1
330
1F
100
AcDbEntity
  8
1
  6
CONTINUOUS
100
AcDbLine
 10
374.4954517213463
 20
119.8134573132376
 30
0.0
 11
374.4954521234908
 21
110.6134597622725
 31
0.0
  0
LINE
  5
5B2
330
1F
100
AcDbEntity
  8
1
  6
CONTINUOUS
100
AcDbLine
 10
377.9954521234908
 20
110.6134599152624
 30
0.0
 11
377.9954517213463
 21
119.8134574662274
 31
0.0
  0
LINE
  5
5B3
330
1F
100
AcDbEntity
  8
1
  6
CONTINUOUS
100
AcDbLine
 10
376.8954515929866
 20
118.6134600485464
 30
0.0
 11
376.8954525243092
 21
110.1134614492556
 31
0.0
  0
LINE
  5
5B4
330
1F
100
AcDbEntity
  8
1
  6
CONTINUOUS
100
AcDbLine
 10
375.5954519386937
 20
110.1134614492556
 30
0.0
 11
375.5954519386937
 21
118.6134600485464
 31
0.0
  0
LINE
  5
5B5
330
1F
100
AcDbEntity
  8
1
  6
CONTINUOUS
100
AcDbLine
 10
371.9912121545124
 20
137.9134589279792
 30
0.0
 11
371.9912121545124
 21
115.8134573544165
 31
0.0
  0
LINE
  5
5B6
330
1F
100
AcDbEntity
  8
1
  6
CONTINUOUS
100
AcDbLine
 10
373.4954527120639
 20
106.3134567285677
 30
0.0
 11
373.4954508494187
 21
134.813456743469
 31
0.0
  0
LINE
  5
5B7
330
1F
100
AcDbEntity
  8
1
  6
CONTINUOUS
100
AcDbLine
 10
372.1954521264482
 20
106.3134567285677
 30
0.0
 11
372.1954511951256
 21
136.2384566510818
 31
0.0
  0
LINE
  5
5B8
330
1F
100
AcDbEntity
  8
1
  6
CONTINUOUS
100
AcDbLine
 10
367.2912133864659
 20
114.8134590531489
 30
0.0
 11
367.2912133864659
 21
137.913457065334
 31
0.0
  0
LINE
  5
5B9
330
1F
100
AcDbEntity
  8
1
  6
CONTINUOUS
100
AcDbLine
 10
379.9954500522066
 20
140.8134577269455
 30
0.0
 11
372.495450685506
 21
140.8134577269455
 31
0.0
  0
LINE
  5
5BA
330
1F
100
AcDbEntity
  8
1
  6
CONTINUOUS
100
AcDbLine
 10
378.9954508196164
 20
134.813456743469
 30
0.0
 11
373.4954508494187
 21
134.813456743469
 31
0.0
  0
LINE
  5
5BB
330
1F
100
AcDbEntity
  8
1
  6
CONTINUOUS
100
AcDbLine
 10
379.9954519148518
 20
136.3134579206607
 30
0.0
 11
372.495450685506
 21
136.3134579206607
 31
0.0
  0
LINE
  5
5BC
330
1F
100
AcDbEntity
  8
1
  6
CONTINUOUS
100
AcDbLine
 10
373.4954517807413
 20
125.3134579802654
 30
0.0
 11
378.995451750939
 21
125.3134579802654
 31
0.0
  0
LINE
  5
5BD
330
1F
100
AcDbEntity
  8
1
  6
CONTINUOUS
100
AcDbLine
 10
378.9954526822616
 20
106.3134567285677
 30
0.0
 11
373.4954527120639
 21
106.3134567285677
 31
0.0
  0
LINE
  5
5BE
330
1F
100
AcDbEntity
  8
1
  6
CONTINUOUS
100
AcDbLine
 10
380.1241327549863
 20
102.8134570861956
 30
0.0
 11
372.3667726393391
 21
102.8134570861956
 31
0.0
  0
LINE
  5
5BF
330
1F
100
AcDbEntity
  8
1
  6
CONTINUOUS
100
AcDbLine
 10
380.7454534347701
 20
101.3134577716491
 30
0.0
 11
371.7454528908778
 21
101.3134577716491
 31
0.0
  0
LINE
  5
5C0
330
1F
100
AcDbEntity
  8
1
  6
CONTINUOUS
100
AcDbLine
 10
370.7454522613037
 20
104.8134574140211
 30
0.0
 11
381.7454517360379
 21
104.8134574140211
 31
0.0
  0
ARC
  5
5C1
330
1F
100
AcDbEntity
  8
1
  6
CONTINUOUS
100
AcDbCircle
 10
378.4954521234908
 20
110.6134599371179
 30
0.0
 40
0.5000000000000006
100
AcDbArc
 50
180.0
 51
0.0
  0
LINE
  5
5C2
330
1F
100
AcDbEntity
  8
1
  6
CONTINUOUS
100
AcDbLine
 10
370.7454522613037
 20
99.8134574140213
 30
0.0
 11
381.7454517360379
 21
99.8134574140213
 31
0.0
  0
LINE
  5
5C3
330
1F
100
AcDbEntity
  8
1
  6
CONTINUOUS
100
AcDbLine
 10
385.1912148769546
 20
138.6134577388665
 30
0.0
 11
385.1912148769546
 21
137.9134589279792
 31
0.0
  0
LINE
  5
5C4
330
1F
100
AcDbEntity
  8
1
  6
CONTINUOUS
100
AcDbLine
 10
383.2454529132295
 20
106.0134591008327
 30
0.0
 11
383.2454529132295
 21
103.8134591127536
 31
0.0
  0
LWPOLYLINE
  5
5C5
330
1F
100
AcDbEntity
  8
1
  6
CONTINUOUS
100
AcDbPolyline
 90
       10
 70
   128
 43
0.0
 10
383.2454529132295
 20
103.8134591127536
 10
383.2408950205493
 20
103.8153441096445
 10
383.2273610408951
 20
103.8209506715437
 10
383.2052607561994
 20
103.8301074350973
 10
383.1752665813613
 20
103.8425312782428
 10
383.1382893498588
 20
103.8578459466597
 10
383.0954522367168
 20
103.8755895043514
 10
383.0480590935398
 20
103.8952217842243
 10
382.9975460197378
 20
103.9161430145404
 10
382.9454515602041
 20
103.9377236212394
  0
LINE
  5
5C6
330
1F
100
AcDbEntity
  8
1
  6
CONTINUOUS
100
AcDbLine
 10
383.4412094678331
 20
115.8134573544165
 30
0.0
 11
383.4412094678331
 21
115.3134600664278
 31
0.0
  0
LINE
  5
5C7
330
1F
100
AcDbEntity
  8
1
  6
CONTINUOUS
100
AcDbLine
 10
382.9454515602041
 20
106.3134567285677
 30
0.0
 11
382.9454515602041
 21
106.0134591008327
 31
0.0
  0
ARC
  5
5C8
330
1F
100
AcDbEntity
  8
1
  6
CONTINUOUS
100
AcDbCircle
 10
382.9454522944893
 20
106.0134561098134
 30
0.0
 40
0.3000006187553941
100
AcDbArc
 50
0.0
 51
90.00014023781902
  0
LINE
  5
5C9
330
1F
100
AcDbEntity
  8
1
  6
CONTINUOUS
100
AcDbLine
 10
385.1912148769546
 20
114.8134590531489
 30
0.0
 11
383.9412104811121
 21
114.8134590531489
 31
0.0
  0
LINE
  5
5CA
330
1F
100
AcDbEntity
  8
1
  6
CONTINUOUS
100
AcDbLine
 10
383.4412094678331
 20
114.8134590531489
 30
0.0
 11
383.2454510505844
 21
114.8134590531489
 31
0.0
  0
LINE
  5
5CB
330
1F
100
AcDbEntity
  8
1
  6
CONTINUOUS
100
AcDbLine
 10
385.1912148769546
 20
114.8134590531489
 30
0.0
 11
385.1912148769546
 21
109.5185549403331
 31
0.0
  0
LINE
  5
5CC
330
1F
100
AcDbEntity
  8
1
  6
CONTINUOUS
100
AcDbLine
 10
384.4057597692658
 20
108.6258748019835
 30
0.0
 11
383.2454529132295
 21
108.504173293223
 31
0.0
  0
ARC
  5
5CD
330
1F
100
AcDbEntity
  8
1
  6
CONTINUOUS
100
AcDbCircle
 10
384.291217246759
 20
109.5185537727773
 30
0.0
 40
0.8999976301964419
100
AcDbArc
 50
277.3118530946844
 51
0.0
  0
LINE
  5
5CE
330
1F
100
AcDbEntity
  8
1
  6
CONTINUOUS
100
AcDbLine
 10
383.2454529132295
 20
108.4139095092913
 30
0.0
 11
384.4184876166754
 21
108.5266870836582
 31
0.0
  0
ARC
  5
5CF
330
1F
100
AcDbEntity
  8
1
  6
CONTINUOUS
100
AcDbCircle
 10
384.2912148942187
 20
109.518554844057
 30
0.0
 40
0.9999999999999864
100
AcDbArc
 50
277.3120216480748
 51
0.0
  0
LINE
  5
5D0
330
1F
100
AcDbEntity
  8
1
  6
CONTINUOUS
100
AcDbLine
 10
385.8326297726083
 20
107.3184096659324
 30
0.0
 11
383.2454529132295
 21
107.0427530850074
 31
0.0
  0
ARC
  5
5D1
330
1F
100
AcDbEntity
  8
1
  6
CONTINUOUS
100
AcDbCircle
 10
385.6912112290387
 20
108.3083625539385
 30
0.0
 40
1.00000296246409
100
AcDbArc
 50
278.1299153165541
 51
0.0
  0
LINE
  5
5D2
330
1F
100
AcDbEntity
  8
1
  6
CONTINUOUS
100
AcDbLine
 10
383.2454510505844
 20
115.8134573544165
 30
0.0
 11
383.2454529132295
 21
106.0134591008327
 31
0.0
  0
LINE
  5
5D3
330
1F
100
AcDbEntity
  8
1
  6
CONTINUOUS
100
AcDbLine
 10
383.4412094678331
 20
115.3134600664278
 30
0.0
 11
383.9412104811121
 21
114.8134590531489
 31
0.0
  0
LINE
  5
5D4
330
1F
100
AcDbEntity
  8
1
  6
CONTINUOUS
100
AcDbLine
 10
383.4412094678331
 20
115.3134600664278
 30
0.0
 11
383.4412094678331
 21
114.8134590531489
 31
0.0
  0
LINE
  5
5D5
330
1F
100
AcDbEntity
  8
1
  6
CONTINUOUS
100
AcDbLine
 10
385.1912148769546
 20
137.9134589279792
 30
0.0
 11
385.1912148769546
 21
114.8134590531489
 31
0.0
  0
LINE
  5
5D6
330
1F
100
AcDbEntity
  8
1
  6
CONTINUOUS
100
AcDbLine
 10
313.1670620583498
 20
205.3134636427066
 30
0.0
 11
266.9670623086886
 21
205.3134636427066
 31
0.0
  0
LINE
  5
5D7
330
1F
100
AcDbEntity
  8
1
  6
CONTINUOUS
 62
     1
100
AcDbLine
 10
313.1670620583498
 20
190.3134630466601
 30
0.0
 11
266.9670623086886
 21
190.3134630466601
 31
0.0
  0
LINE
  5
5D8
330
1F
100
AcDbEntity
  8
1
  6
CONTINUOUS
 62
     1
100
AcDbLine
 10
313.1670620583498
 20
190.813464059939
 30
0.0
 11
266.9670623086886
 21
190.813464059939
 31
0.0
  0
LINE
  5
5D9
330
1F
100
AcDbEntity
  8
1
  6
CONTINUOUS
 62
     1
100
AcDbLine
 10
313.1670620583498
 20
189.5634633893869
 30
0.0
 11
266.9670623086886
 21
189.5634633893869
 31
0.0
  0
LINE
  5
5DA
330
1F
100
AcDbEntity
  8
1
  6
CONTINUOUS
 62
     1
100
AcDbLine
 10
313.1670620583498
 20
168.5634627411864
 30
0.0
 11
266.967062308689
 21
168.5634627411864
 31
0.0
  0
LINE
  5
5DB
330
1F
100
AcDbEntity
  8
1
  6
CONTINUOUS
 62
     1
100
AcDbLine
 10
313.1670620583498
 20
169.0634628231426
 30
0.0
 11
266.967062308689
 21
169.0634628231426
 31
0.0
  0
LINE
  5
5DC
330
1F
100
AcDbEntity
  8
1
  6
CONTINUOUS
 62
     1
100
AcDbLine
 10
313.1670620583498
 20
181.5634639407298
 30
0.0
 11
266.9670623086886
 21
181.5634639407298
 31
0.0
  0
LINE
  5
5DD
330
1F
100
AcDbEntity
  8
1
  6
CONTINUOUS
 62
     1
100
AcDbLine
 10
313.1670620583498
 20
182.0634630913636
 30
0.0
 11
266.9670623086886
 21
182.0634630913636
 31
0.0
  0
LINE
  5
5DE
330
1F
100
AcDbEntity
  8
1
  6
CONTINUOUS
 62
     1
100
AcDbLine
 10
313.1670620583498
 20
172.063463314881
 30
0.0
 11
266.967062308689
 21
172.063463314881
 31
0.0
  0
LINE
  5
5DF
330
1F
100
AcDbEntity
  8
1
  6
CONTINUOUS
 62
     1
100
AcDbLine
 10
313.1670620583498
 20
172.313462890198
 30
0.0
 11
266.967062308689
 21
172.313462890198
 31
0.0
  0
LINE
  5
5E0
330
1F
100
AcDbEntity
  8
1
  6
CONTINUOUS
 62
     1
100
AcDbLine
 10
313.1670620583498
 20
180.563463776817
 30
0.0
 11
266.9670623086886
 21
180.563463776817
 31
0.0
  0
LINE
  5
5E1
330
1F
100
AcDbEntity
  8
1
  6
CONTINUOUS
 62
     1
100
AcDbLine
 10
313.1670620583498
 20
181.0634629274509
 30
0.0
 11
266.9670623086886
 21
181.0634629274509
 31
0.0
  0
LINE
  5
5E2
330
1F
100
AcDbEntity
  8
1
  6
CONTINUOUS
 62
     1
100
AcDbLine
 10
313.1670620583498
 20
169.3134633297821
 30
0.0
 11
266.967062308689
 21
169.3134633297821
 31
0.0
  0
LINE
  5
5E3
330
1F
100
AcDbEntity
  8
1
  6
CONTINUOUS
 62
     1
100
AcDbLine
 10
313.1670620583498
 20
177.5634632850787
 30
0.0
 11
266.9670623086886
 21
177.5634632850787
 31
0.0
  0
LINE
  5
5E4
330
1F
100
AcDbEntity
  8
1
  6
CONTINUOUS
 62
     1
100
AcDbLine
 10
313.1670620583498
 20
178.0634624357125
 30
0.0
 11
266.9670623086886
 21
178.0634624357125
 31
0.0
  0
LINE
  5
5E5
330
1F
100
AcDbEntity
  8
1
  6
CONTINUOUS
 62
     1
100
AcDbLine
 10
313.1670620583498
 20
161.063463141655
 30
0.0
 11
266.967062308689
 21
161.063463141655
 31
0.0
  0
LINE
  5
5E6
330
1F
100
AcDbEntity
  8
1
  6
CONTINUOUS
 62
     1
100
AcDbLine
 10
313.1670620583498
 20
161.3134631826333
 30
0.0
 11
266.967062308689
 21
161.3134631826333
 31
0.0
  0
LINE
  5
5E7
330
1F
100
AcDbEntity
  8
1
  6
CONTINUOUS
 62
     1
100
AcDbLine
 10
313.1670620583498
 20
159.0634631921793
 30
0.0
 11
266.967062308689
 21
159.0634631921793
 31
0.0
  0
LINE
  5
5E8
330
1F
100
AcDbEntity
  8
1
  6
CONTINUOUS
 62
     1
100
AcDbLine
 10
313.1670620583498
 20
159.3134632040536
 30
0.0
 11
266.967062308689
 21
159.3134632040536
 31
0.0
  0
LINE
  5
5E9
330
1F
100
AcDbEntity
  8
1
  6
CONTINUOUS
 62
     1
100
AcDbLine
 10
313.1670620583498
 20
171.5634632329247
 30
0.0
 11
266.967062308689
 21
171.5634632329247
 31
0.0
  0
LINE
  5
5EA
330
1F
100
AcDbEntity
  8
1
  6
CONTINUOUS
 62
     1
100
AcDbLine
 10
313.1670620583498
 20
182.313463598003
 30
0.0
 11
266.9670623086886
 21
182.313463598003
 31
0.0
  0
LINE
  5
5EB
330
1F
100
AcDbEntity
  8
1
  6
CONTINUOUS
 62
     1
100
AcDbLine
 10
313.1670620583498
 20
181.3134634340904
 30
0.0
 11
266.9670623086886
 21
181.3134634340904
 31
0.0
  0
LINE
  5
5EC
330
1F
100
AcDbEntity
  8
1
  6
CONTINUOUS
 62
     1
100
AcDbLine
 10
313.1670620583498
 20
185.5634627337358
 30
0.0
 11
266.9670623086886
 21
185.5634627337358
 31
0.0
  0
LINE
  5
5ED
330
1F
100
AcDbEntity
  8
1
  6
CONTINUOUS
 62
     1
100
AcDbLine
 10
313.1670620583498
 20
186.0634637470147
 30
0.0
 11
266.9670623086886
 21
186.0634637470147
 31
0.0
  0
LINE
  5
5EE
330
1F
100
AcDbEntity
  8
1
  6
CONTINUOUS
 62
     1
100
AcDbLine
 10
313.1670620583498
 20
163.5634633186064
 30
0.0
 11
266.967062308689
 21
163.5634633186064
 31
0.0
  0
LINE
  5
5EF
330
1F
100
AcDbEntity
  8
1
  6
CONTINUOUS
 62
     1
100
AcDbLine
 10
313.1670620583498
 20
164.0634634005626
 30
0.0
 11
266.967062308689
 21
164.0634634005626
 31
0.0
  0
LINE
  5
5F0
330
1F
100
AcDbEntity
  8
1
  6
CONTINUOUS
 62
     1
100
AcDbLine
 10
313.1670620583498
 20
164.3134629758795
 30
0.0
 11
266.967062308689
 21
164.3134629758795
 31
0.0
  0
LINE
  5
5F1
330
1F
100
AcDbEntity
  8
1
  6
CONTINUOUS
 62
     1
100
AcDbLine
 10
313.1670620583498
 20
160.563463176114
 30
0.0
 11
266.967062308689
 21
160.563463176114
 31
0.0
  0
LINE
  5
5F2
330
1F
100
AcDbEntity
  8
1
  6
CONTINUOUS
 62
     1
100
AcDbLine
 10
313.1670620583498
 20
178.3134629423519
 30
0.0
 11
266.9670623086886
 21
178.3134629423519
 31
0.0
  0
LINE
  5
5F3
330
1F
100
AcDbEntity
  8
1
  6
CONTINUOUS
 62
     1
100
AcDbLine
 10
313.1670620583498
 20
186.3134623910091
 30
0.0
 11
266.9670623086886
 21
186.3134623910091
 31
0.0
  0
LINE
  5
5F4
330
1F
100
AcDbEntity
  8
1
  6
CONTINUOUS
 62
     1
100
AcDbLine
 10
313.1670620583498
 20
166.5634633446834
 30
0.0
 11
266.967062308689
 21
166.5634633446834
 31
0.0
  0
LINE
  5
5F5
330
1F
100
AcDbEntity
  8
1
  6
CONTINUOUS
 62
     1
100
AcDbLine
 10
313.1670620583498
 20
167.0634634266398
 30
0.0
 11
266.967062308689
 21
167.0634634266398
 31
0.0
  0
LINE
  5
5F6
330
1F
100
AcDbEntity
  8
1
  6
CONTINUOUS
 62
     1
100
AcDbLine
 10
313.1670620583498
 20
167.3134630019567
 30
0.0
 11
266.967062308689
 21
167.3134630019567
 31
0.0
  0
LINE
  5
5F7
330
1F
100
AcDbEntity
  8
1
  6
CONTINUOUS
 62
     1
100
AcDbLine
 10
313.1670620583498
 20
160.0634632105728
 30
0.0
 11
266.967062308689
 21
160.0634632105728
 31
0.0
  0
LINE
  5
5F8
330
1F
100
AcDbEntity
  8
1
  6
CONTINUOUS
 62
     1
100
AcDbLine
 10
313.1670620583498
 20
160.313463251551
 30
0.0
 11
266.967062308689
 21
160.313463251551
 31
0.0
  0
LINE
  5
5F9
330
1F
100
AcDbEntity
  8
1
  6
CONTINUOUS
 62
     1
100
AcDbLine
 10
313.1670620583498
 20
159.5634631868241
 30
0.0
 11
266.967062308689
 21
159.5634631868241
 31
0.0
  0
LINE
  5
5FA
330
1F
100
AcDbEntity
  8
1
  6
CONTINUOUS
 62
     1
100
AcDbLine
 10
313.1670620583498
 20
173.5634635607501
 30
0.0
 11
266.967062308689
 21
173.5634635607501
 31
0.0
  0
LINE
  5
5FB
330
1F
100
AcDbEntity
  8
1
  6
CONTINUOUS
 62
     1
100
AcDbLine
 10
313.1670620583498
 20
174.0634636427066
 30
0.0
 11
266.967062308689
 21
174.0634636427066
 31
0.0
  0
LINE
  5
5FC
330
1F
100
AcDbEntity
  8
1
  6
CONTINUOUS
 62
     1
100
AcDbLine
 10
313.1670620583498
 20
179.5634636129043
 30
0.0
 11
266.9670623086886
 21
179.5634636129043
 31
0.0
  0
LINE
  5
5FD
330
1F
100
AcDbEntity
  8
1
  6
CONTINUOUS
 62
     1
100
AcDbLine
 10
313.1670620583498
 20
180.063462763538
 30
0.0
 11
266.9670623086886
 21
180.063462763538
 31
0.0
  0
LINE
  5
5FE
330
1F
100
AcDbEntity
  8
1
  6
CONTINUOUS
 62
     1
100
AcDbLine
 10
313.1670620583498
 20
183.5634624059101
 30
0.0
 11
266.9670623086886
 21
183.5634624059101
 31
0.0
  0
LINE
  5
5FF
330
1F
100
AcDbEntity
  8
1
  6
CONTINUOUS
 62
     1
100
AcDbLine
 10
313.1670620583498
 20
184.0634634191891
 30
0.0
 11
266.9670623086886
 21
184.0634634191891
 31
0.0
  0
LINE
  5
600
330
1F
100
AcDbEntity
  8
1
  6
CONTINUOUS
 62
     1
100
AcDbLine
 10
313.1670620583498
 20
188.563463225474
 30
0.0
 11
266.9670623086886
 21
188.563463225474
 31
0.0
  0
LINE
  5
601
330
1F
100
AcDbEntity
  8
1
  6
CONTINUOUS
 62
     1
100
AcDbLine
 10
313.1670620583498
 20
189.0634623761079
 30
0.0
 11
266.9670623086886
 21
189.0634623761079
 31
0.0
  0
LINE
  5
602
330
1F
100
AcDbEntity
  8
1
  6
CONTINUOUS
 62
     1
100
AcDbLine
 10
313.1670620583498
 20
178.5634634489915
 30
0.0
 11
266.9670623086886
 21
178.5634634489915
 31
0.0
  0
LINE
  5
603
330
1F
100
AcDbEntity
  8
1
  6
CONTINUOUS
 62
     1
100
AcDbLine
 10
313.1670620583498
 20
179.0634625996253
 30
0.0
 11
266.9670623086886
 21
179.0634625996253
 31
0.0
  0
LINE
  5
604
330
1F
100
AcDbEntity
  8
1
  6
CONTINUOUS
 62
     1
100
AcDbLine
 10
313.1670620583498
 20
162.5634631546935
 30
0.0
 11
266.967062308689
 21
162.5634631546935
 31
0.0
  0
LINE
  5
605
330
1F
100
AcDbEntity
  8
1
  6
CONTINUOUS
 62
     1
100
AcDbLine
 10
313.1670620583498
 20
163.06346323665
 30
0.0
 11
266.967062308689
 21
163.06346323665
 31
0.0
  0
LINE
  5
606
330
1F
100
AcDbEntity
  8
1
  6
CONTINUOUS
 62
     1
100
AcDbLine
 10
313.1670620583498
 20
163.3134632776281
 30
0.0
 11
266.967062308689
 21
163.3134632776281
 31
0.0
  0
LINE
  5
607
330
1F
100
AcDbEntity
  8
1
  6
CONTINUOUS
 62
     1
100
AcDbLine
 10
313.1670620583498
 20
165.0634630988141
 30
0.0
 11
266.967062308689
 21
165.0634630988141
 31
0.0
  0
LINE
  5
608
330
1F
100
AcDbEntity
  8
1
  6
CONTINUOUS
 62
     1
100
AcDbLine
 10
313.1670620583498
 20
165.3134631397924
 30
0.0
 11
266.967062308689
 21
165.3134631397924
 31
0.0
  0
LINE
  5
609
330
1F
100
AcDbEntity
  8
1
  6
CONTINUOUS
 62
     1
100
AcDbLine
 10
313.1670620583498
 20
166.063463262727
 30
0.0
 11
266.967062308689
 21
166.063463262727
 31
0.0
  0
LINE
  5
60A
330
1F
100
AcDbEntity
  8
1
  6
CONTINUOUS
 62
     1
100
AcDbLine
 10
313.1670620583498
 20
166.3134633037052
 30
0.0
 11
266.967062308689
 21
166.3134633037052
 31
0.0
  0
LINE
  5
60B
330
1F
100
AcDbEntity
  8
1
  6
CONTINUOUS
 62
     1
100
AcDbLine
 10
313.1670620583498
 20
179.3134631062648
 30
0.0
 11
266.9670623086886
 21
179.3134631062648
 31
0.0
  0
LINE
  5
60C
330
1F
100
AcDbEntity
  8
1
  6
CONTINUOUS
 62
     1
100
AcDbLine
 10
313.1670620583498
 20
165.5634631807705
 30
0.0
 11
266.967062308689
 21
165.5634631807705
 31
0.0
  0
LINE
  5
60D
330
1F
100
AcDbEntity
  8
1
  6
CONTINUOUS
 62
     1
100
AcDbLine
 10
313.1670620583498
 20
189.3134628827474
 30
0.0
 11
266.9670623086886
 21
189.3134628827474
 31
0.0
  0
LINE
  5
60E
330
1F
100
AcDbEntity
  8
1
  6
CONTINUOUS
 62
     1
100
AcDbLine
 10
313.1670620583498
 20
184.3134639258287
 30
0.0
 11
266.9670623086886
 21
184.3134639258287
 31
0.0
  0
LINE
  5
60F
330
1F
100
AcDbEntity
  8
1
  6
CONTINUOUS
 62
     1
100
AcDbLine
 10
313.1670620583498
 20
174.3134632180234
 30
0.0
 11
266.967062308689
 21
174.3134632180234
 31
0.0
  0
LINE
  5
610
330
1F
100
AcDbEntity
  8
1
  6
CONTINUOUS
 62
     1
100
AcDbLine
 10
313.1670620583498
 20
164.5634630168578
 30
0.0
 11
266.967062308689
 21
164.5634630168578
 31
0.0
  0
LINE
  5
611
330
1F
100
AcDbEntity
  8
1
  6
CONTINUOUS
 62
     1
100
AcDbLine
 10
313.1670620583498
 20
180.3134632701776
 30
0.0
 11
266.9670623086886
 21
180.3134632701776
 31
0.0
  0
LINE
  5
612
330
1F
100
AcDbEntity
  8
1
  6
CONTINUOUS
 62
     1
100
AcDbLine
 10
313.1670620583498
 20
187.5634630615613
 30
0.0
 11
266.9670623086886
 21
187.5634630615613
 31
0.0
  0
LINE
  5
613
330
1F
100
AcDbEntity
  8
1
  6
CONTINUOUS
 62
     1
100
AcDbLine
 10
313.1670620583498
 20
188.0634640748403
 30
0.0
 11
266.9670623086886
 21
188.0634640748403
 31
0.0
  0
LINE
  5
614
330
1F
100
AcDbEntity
  8
1
  6
CONTINUOUS
 62
     1
100
AcDbLine
 10
313.1670620583498
 20
162.0634633055678
 30
0.0
 11
266.967062308689
 21
162.0634633055678
 31
0.0
  0
LINE
  5
615
330
1F
100
AcDbEntity
  8
1
  6
CONTINUOUS
 62
     1
100
AcDbLine
 10
313.1670620583498
 20
162.3134631137154
 30
0.0
 11
266.967062308689
 21
162.3134631137154
 31
0.0
  0
LINE
  5
616
330
1F
100
AcDbEntity
  8
1
  6
CONTINUOUS
 62
     1
100
AcDbLine
 10
313.1670620583498
 20
184.563462569823
 30
0.0
 11
266.9670623086886
 21
184.563462569823
 31
0.0
  0
LINE
  5
617
330
1F
100
AcDbEntity
  8
1
  6
CONTINUOUS
 62
     1
100
AcDbLine
 10
313.1670620583498
 20
185.0634635831019
 30
0.0
 11
266.9670623086886
 21
185.0634635831019
 31
0.0
  0
LINE
  5
618
330
1F
100
AcDbEntity
  8
1
  6
CONTINUOUS
 62
     1
100
AcDbLine
 10
313.1670620583498
 20
185.3134640897414
 30
0.0
 11
266.9670623086886
 21
185.3134640897414
 31
0.0
  0
LINE
  5
619
330
1F
100
AcDbEntity
  8
1
  6
CONTINUOUS
 62
     1
100
AcDbLine
 10
313.1670620583498
 20
169.563462905099
 30
0.0
 11
266.967062308689
 21
169.563462905099
 31
0.0
  0
LINE
  5
61A
330
1F
100
AcDbEntity
  8
1
  6
CONTINUOUS
 62
     1
100
AcDbLine
 10
313.1670620583498
 20
170.0634629870554
 30
0.0
 11
266.967062308689
 21
170.0634629870554
 31
0.0
  0
LINE
  5
61B
330
1F
100
AcDbEntity
  8
1
  6
CONTINUOUS
 62
     1
100
AcDbLine
 10
313.1670620583498
 20
173.0634634787938
 30
0.0
 11
266.967062308689
 21
173.0634634787938
 31
0.0
  0
LINE
  5
61C
330
1F
100
AcDbEntity
  8
1
  6
CONTINUOUS
 62
     1
100
AcDbLine
 10
313.1670620583498
 20
173.3134630541106
 30
0.0
 11
266.967062308689
 21
173.3134630541106
 31
0.0
  0
LINE
  5
61D
330
1F
100
AcDbEntity
  8
1
  6
CONTINUOUS
 62
     1
100
AcDbLine
 10
313.1670620583498
 20
170.313463493695
 30
0.0
 11
266.967062308689
 21
170.313463493695
 31
0.0
  0
LINE
  5
61E
330
1F
100
AcDbEntity
  8
1
  6
CONTINUOUS
 62
     1
100
AcDbLine
 10
313.1670620583498
 20
188.3134627188346
 30
0.0
 11
266.9670623086886
 21
188.3134627188346
 31
0.0
  0
LINE
  5
61F
330
1F
100
AcDbEntity
  8
1
  6
CONTINUOUS
 62
     1
100
AcDbLine
 10
313.1670620583498
 20
172.5634633968375
 30
0.0
 11
266.967062308689
 21
172.5634633968375
 31
0.0
  0
LINE
  5
620
330
1F
100
AcDbEntity
  8
1
  6
CONTINUOUS
 62
     1
100
AcDbLine
 10
313.1670620583498
 20
161.5634632236115
 30
0.0
 11
266.967062308689
 21
161.5634632236115
 31
0.0
  0
LINE
  5
621
330
1F
100
AcDbEntity
  8
1
  6
CONTINUOUS
 62
     1
100
AcDbLine
 10
313.1670620583498
 20
168.0634635905525
 30
0.0
 11
266.967062308689
 21
168.0634635905525
 31
0.0
  0
LINE
  5
622
330
1F
100
AcDbEntity
  8
1
  6
CONTINUOUS
 62
     1
100
AcDbLine
 10
313.1670620583498
 20
168.3134631658695
 30
0.0
 11
266.967062308689
 21
168.3134631658695
 31
0.0
  0
LINE
  5
623
330
1F
100
AcDbEntity
  8
1
  6
CONTINUOUS
 62
     1
100
AcDbLine
 10
313.1670620583498
 20
167.5634635085961
 30
0.0
 11
266.967062308689
 21
167.5634635085961
 31
0.0
  0
LINE
  5
624
330
1F
100
AcDbEntity
  8
1
  6
CONTINUOUS
 62
     1
100
AcDbLine
 10
313.1670620583498
 20
175.5634629572532
 30
0.0
 11
266.9670623086886
 21
175.5634629572532
 31
0.0
  0
LINE
  5
625
330
1F
100
AcDbEntity
  8
1
  6
CONTINUOUS
 62
     1
100
AcDbLine
 10
313.1670620583498
 20
176.0634639705321
 30
0.0
 11
266.9670623086886
 21
176.0634639705321
 31
0.0
  0
LINE
  5
626
330
1F
100
AcDbEntity
  8
1
  6
CONTINUOUS
 62
     1
100
AcDbLine
 10
313.1670620583498
 20
175.0634638066194
 30
0.0
 11
266.9670623086886
 21
175.0634638066194
 31
0.0
  0
LINE
  5
627
330
1F
100
AcDbEntity
  8
1
  6
CONTINUOUS
 62
     1
100
AcDbLine
 10
313.1670620583498
 20
175.3134624506136
 30
0.0
 11
266.9670623086886
 21
175.3134624506136
 31
0.0
  0
LINE
  5
628
330
1F
100
AcDbEntity
  8
1
  6
CONTINUOUS
 62
     1
100
AcDbLine
 10
313.1670620583498
 20
176.3134626145264
 30
0.0
 11
266.9670623086886
 21
176.3134626145264
 31
0.0
  0
LINE
  5
629
330
1F
100
AcDbEntity
  8
1
  6
CONTINUOUS
 62
     1
100
AcDbLine
 10
313.1670620583498
 20
174.5634627933404
 30
0.0
 11
266.9670623086886
 21
174.5634627933404
 31
0.0
  0
LINE
  5
62A
330
1F
100
AcDbEntity
  8
1
  6
CONTINUOUS
 62
     1
100
AcDbLine
 10
313.1670620583498
 20
176.563463121166
 30
0.0
 11
266.9670623086886
 21
176.563463121166
 31
0.0
  0
LINE
  5
62B
330
1F
100
AcDbEntity
  8
1
  6
CONTINUOUS
 62
     1
100
AcDbLine
 10
313.1670620583498
 20
177.0634641344449
 30
0.0
 11
266.9670623086886
 21
177.0634641344449
 31
0.0
  0
LINE
  5
62C
330
1F
100
AcDbEntity
  8
1
  6
CONTINUOUS
 62
     1
100
AcDbLine
 10
313.1670620583498
 20
187.0634639109275
 30
0.0
 11
266.9670623086886
 21
187.0634639109275
 31
0.0
  0
LINE
  5
62D
330
1F
100
AcDbEntity
  8
1
  6
CONTINUOUS
 62
     1
100
AcDbLine
 10
313.1670620583498
 20
187.3134625549218
 30
0.0
 11
266.9670623086886
 21
187.3134625549218
 31
0.0
  0
LINE
  5
62E
330
1F
100
AcDbEntity
  8
1
  6
CONTINUOUS
 62
     1
100
AcDbLine
 10
313.1670620583498
 20
186.5634628976485
 30
0.0
 11
266.9670623086886
 21
186.5634628976485
 31
0.0
  0
LINE
  5
62F
330
1F
100
AcDbEntity
  8
1
  6
CONTINUOUS
 62
     1
100
AcDbLine
 10
313.1670620583498
 20
182.5634641046426
 30
0.0
 11
266.9670623086886
 21
182.5634641046426
 31
0.0
  0
LINE
  5
630
330
1F
100
AcDbEntity
  8
1
  6
CONTINUOUS
 62
     1
100
AcDbLine
 10
313.1670620583498
 20
183.0634632552764
 30
0.0
 11
266.9670623086886
 21
183.0634632552764
 31
0.0
  0
LINE
  5
631
330
1F
100
AcDbEntity
  8
1
  6
CONTINUOUS
 62
     1
100
AcDbLine
 10
313.1670620583498
 20
171.0634631509683
 30
0.0
 11
266.967062308689
 21
171.0634631509683
 31
0.0
  0
LINE
  5
632
330
1F
100
AcDbEntity
  8
1
  6
CONTINUOUS
 62
     1
100
AcDbLine
 10
313.1670620583498
 20
171.3134636576078
 30
0.0
 11
266.967062308689
 21
171.3134636576078
 31
0.0
  0
LINE
  5
633
330
1F
100
AcDbEntity
  8
1
  6
CONTINUOUS
 62
     1
100
AcDbLine
 10
313.1670620583498
 20
177.3134627784393
 30
0.0
 11
266.9670623086886
 21
177.3134627784393
 31
0.0
  0
LINE
  5
634
330
1F
100
AcDbEntity
  8
1
  6
CONTINUOUS
 62
     1
100
AcDbLine
 10
313.1670620583498
 20
170.5634630690119
 30
0.0
 11
266.967062308689
 21
170.5634630690119
 31
0.0
  0
LINE
  5
635
330
1F
100
AcDbEntity
  8
1
  6
CONTINUOUS
 62
     1
100
AcDbLine
 10
313.1670620583498
 20
183.3134637619158
 30
0.0
 11
266.9670623086886
 21
183.3134637619158
 31
0.0
  0
LINE
  5
636
330
1F
100
AcDbEntity
  8
1
  6
CONTINUOUS
 62
     1
100
AcDbLine
 10
313.1670620583498
 20
158.5634631975344
 30
0.0
 11
266.967062308689
 21
158.5634631975344
 31
0.0
  0
LINE
  5
637
330
1F
100
AcDbEntity
  8
1
  6
CONTINUOUS
 62
     1
100
AcDbLine
 10
313.1670620583498
 20
158.0634632319934
 30
0.0
 11
266.967062308689
 21
158.0634632319934
 31
0.0
  0
LINE
  5
638
330
1F
100
AcDbEntity
  8
1
  6
CONTINUOUS
 62
     1
100
AcDbLine
 10
313.1670620583498
 20
158.3134632147639
 30
0.0
 11
266.967062308689
 21
158.3134632147639
 31
0.0
  0
LINE
  5
639
330
1F
100
AcDbEntity
  8
1
  6
CONTINUOUS
 62
     1
100
AcDbLine
 10
313.1670620583498
 20
157.563463150037
 30
0.0
 11
266.967062308689
 21
157.563463150037
 31
0.0
  0
LINE
  5
63A
330
1F
100
AcDbEntity
  8
1
  6
CONTINUOUS
 62
     1
100
AcDbLine
 10
313.1670620583498
 20
156.5634631025395
 30
0.0
 11
266.967062308689
 21
156.5634631025395
 31
0.0
  0
LINE
  5
63B
330
1F
100
AcDbEntity
  8
1
  6
CONTINUOUS
 62
     1
100
AcDbLine
 10
313.1670620583498
 20
157.0634631844959
 30
0.0
 11
266.967062308689
 21
157.0634631844959
 31
0.0
  0
LINE
  5
63C
330
1F
100
AcDbEntity
  8
1
  6
CONTINUOUS
 62
     1
100
AcDbLine
 10
313.1670620583498
 20
157.3134632254741
 30
0.0
 11
266.967062308689
 21
157.3134632254741
 31
0.0
  0
LINE
  5
63D
330
1F
100
AcDbEntity
  8
1
  6
CONTINUOUS
 62
     1
100
AcDbLine
 10
266.967062308689
 20
156.0634632534138
 30
0.0
 11
313.1670620583498
 21
156.0634632534138
 31
0.0
  0
LINE
  5
63E
330
1F
100
AcDbEntity
  8
1
  6
CONTINUOUS
 62
     1
100
AcDbLine
 10
266.967062308689
 20
156.313463294392
 30
0.0
 11
313.1670620583498
 21
156.313463294392
 31
0.0
  0
LINE
  5
63F
330
1F
100
AcDbEntity
  8
1
  6
CONTINUOUS
100
AcDbLine
 10
114.2099620634817
 20
205.3134636427066
 30
0.0
 11
68.00996231381986
 21
205.3134636427066
 31
0.0
  0
LINE
  5
642
330
1F
100
AcDbEntity
  8
1
  6
CONTINUOUS
100
AcDbLine
 10
68.00996206347917
 20
206.3134632155205
 30
0.0
 11
58.50996206348009
 21
206.3134632155207
 31
0.0
  0
LINE
  5
645
330
1F
100
AcDbEntity
  8
1
  6
CONTINUOUS
100
AcDbLine
 10
58.00996067469213
 20
204.7507883454463
 30
0.0
 11
52.50870900695417
 21
204.7507883454463
 31
0.0
  0
LINE
  5
646
330
1F
100
AcDbEntity
  8
1
  6
CONTINUOUS
100
AcDbLine
 10
52.00996341650578
 20
203.1083711827895
 30
0.0
 11
52.00996341650578
 21
203.5051183248659
 31
0.0
  0
ARC
  5
647
330
1F
100
AcDbEntity
  8
1
  6
CONTINUOUS
100
AcDbCircle
 10
52.50980803637141
 20
204.2506382539567
 30
0.0
 40
0.4998446409999424
100
AcDbArc
 50
89.98250008397455
 51
179.9833385743138
  0
LINE
  5
648
330
1F
100
AcDbEntity
  8
1
  6
CONTINUOUS
100
AcDbLine
 10
52.00996341650578
 20
203.5051183248659
 30
0.0
 11
52.00996341650578
 21
204.2507836068771
 31
0.0
  0
LINE
  5
649
330
1F
100
AcDbEntity
  8
1
  6
CONTINUOUS
100
AcDbLine
 10
52.00996341650578
 20
201.8134640003345
 30
0.0
 11
52.00996341650578
 21
204.2507873321674
 31
0.0
  0
ARC
  5
64A
330
1F
100
AcDbEntity
  8
1
  6
CONTINUOUS
100
AcDbCircle
 10
52.50980803637141
 20
204.2506382539567
 30
0.0
 40
0.4998446409999212
100
AcDbArc
 50
89.98250008397455
 51
179.9833386050261
  0
LINE
  5
64B
330
1F
100
AcDbEntity
  8
1
  6
CONTINUOUS
100
AcDbLine
 10
58.50996206348009
 20
206.3134632155207
 30
0.0
 11
57.94742050116155
 21
206.3134619439741
 31
0.0
  0
LINE
  5
64C
330
1F
100
AcDbEntity
  8
1
  6
CONTINUOUS
100
AcDbLine
 10
58.00996067469213
 20
205.3085164571903
 30
0.0
 11
58.00996067469213
 21
204.3185652638576
 31
0.0
  0
LINE
  5
64D
330
1F
100
AcDbEntity
  8
1
  6
CONTINUOUS
100
AcDbLine
 10
58.50996206348009
 20
206.3134632155207
 30
0.0
 11
58.50996206348009
 21
205.3085155787178
 31
0.0
  0
LINE
  5
64E
330
1F
100
AcDbEntity
  8
1
  6
CONTINUOUS
100
AcDbLine
 10
58.00996067469213
 20
205.3085164571903
 30
0.0
 11
58.00996067469213
 21
206.3134060646198
 31
0.0
  0
LINE
  5
64F
330
1F
100
AcDbEntity
  8
1
  6
CONTINUOUS
100
AcDbLine
 10
56.50996206347918
 20
174.0134636688753
 30
0.0
 11
52.50996206347918
 21
174.0134636688753
 31
0.0
  0
LINE
  5
650
330
1F
100
AcDbEntity
  8
1
  6
CONTINUOUS
100
AcDbLine
 10
55.00996204559896
 20
174.0134627963206
 30
0.0
 11
52.00996206347918
 21
174.0134624897189
 31
0.0
  0
LINE
  5
651
330
1F
100
AcDbEntity
  8
1
  6
CONTINUOUS
100
AcDbLine
 10
52.00996206347918
 20
174.0134636699261
 30
0.0
 11
55.00996204559896
 21
174.0134637276431
 31
0.0
  0
LINE
  5
652
330
1F
100
AcDbEntity
  8
1
  6
CONTINUOUS
100
AcDbLine
 10
52.50996206347918
 20
174.0134624800036
 30
0.0
 11
56.50996206347918
 21
174.0134636688753
 31
0.0
  0
LINE
  5
653
330
1F
100
AcDbEntity
  8
1
  6
CONTINUOUS
100
AcDbLine
 10
52.00996341650578
 20
171.5134633178613
 30
0.0
 11
54.00996374433134
 21
171.5134633178613
 31
0.0
  0
LINE
  5
654
330
1F
100
AcDbEntity
  8
1
  6
CONTINUOUS
100
AcDbLine
 10
52.00996341650578
 20
171.5134633178613
 30
0.0
 11
54.00996374433134
 21
171.5134633178613
 31
0.0
  0
LINE
  5
655
330
1F
100
AcDbEntity
  8
1
  6
CONTINUOUS
100
AcDbLine
 10
52.50996206347918
 20
174.0134636688753
 30
0.0
 11
52.00996206347918
 21
174.0134636699261
 31
0.0
  0
LINE
  5
656
330
1F
100
AcDbEntity
  8
1
  6
CONTINUOUS
100
AcDbLine
 10
52.00996206347918
 20
174.0134624897189
 30
0.0
 11
52.50996206347918
 21
174.0134624800036
 31
0.0
  0
LINE
  5
657
330
1F
100
AcDbEntity
  8
1
  6
CONTINUOUS
100
AcDbLine
 10
52.00996341650578
 20
171.5134633178613
 30
0.0
 11
52.00996206347918
 21
174.0134636699261
 31
0.0
  0
LINE
  5
658
330
1F
100
AcDbEntity
  8
1
  6
CONTINUOUS
100
AcDbLine
 10
56.50996206347918
 20
174.0134636688753
 30
0.0
 11
56.00996206347918
 21
174.0134637245654
 31
0.0
  0
LINE
  5
659
330
1F
100
AcDbEntity
  8
1
  6
CONTINUOUS
100
AcDbLine
 10
54.00996374433134
 20
171.5134633178613
 30
0.0
 11
55.00996204559896
 21
174.0134637276431
 31
0.0
  0
LINE
  5
65A
330
1F
100
AcDbEntity
  8
1
  6
CONTINUOUS
100
AcDbLine
 10
56.0099603468666
 20
170.5134640852711
 30
0.0
 11
56.00996206347918
 21
174.0134637245654
 31
0.0
  0
LINE
  5
65B
330
1F
100
AcDbEntity
  8
1
  6
CONTINUOUS
100
AcDbLine
 10
52.00996206347918
 20
174.0134636699261
 30
0.0
 11
52.00996341650578
 21
203.1083711827895
 31
0.0
  0
LINE
  5
65C
330
1F
100
AcDbEntity
  8
1
  6
CONTINUOUS
100
AcDbLine
 10
68.00996206348009
 20
204.3185650507761
 30
0.0
 11
68.00996206348009
 21
205.3085155789908
 31
0.0
  0
LINE
  5
65D
330
1F
100
AcDbEntity
  8
1
  6
CONTINUOUS
100
AcDbLine
 10
68.00996206347917
 20
206.3134632155205
 30
0.0
 11
68.00996206348009
 21
205.3085155789908
 31
0.0
  0
INSERT
  5
65E
330
1F
100
AcDbEntity
  8
1
100
AcDbBlockReference
  2
A$C09634F3C
 10
210.2008593527033
 20
165.0568863417411
 30
0.0
 50
29.99999999999164
  0
ARC
  5
65F
330
1F
100
AcDbEntity
  8
1
  6
CONTINUOUS
100
AcDbCircle
 10
203.3074313068326
 20
106.3134630528205
 30
0.0
 40
100.0
100
AcDbArc
 50
81.87031538861631
 51
98.12968516722705
  0
ARC
  5
660
330
1F
100
AcDbEntity
  8
1
  6
CONTINUOUS
100
AcDbCircle
 10
203.3074310074271
 20
105.1132221557208
 30
0.0
 40
100.000240422097
100
AcDbArc
 50
82.68799590156334
 51
97.31200409843665
  0
ARC
  5
661
330
1F
100
AcDbEntity
  8
1
100
AcDbCircle
 10
203.3074308228938
 20
105.0134630489337
 30
0.0
 40
100.0
100
AcDbArc
 50
82.84846834704309
 51
97.15153165965306
  0
LINE
  5
662
330
1F
100
AcDbEntity
  8
1
  6
CONTINUOUS
100
AcDbLine
 10
124.2099620634812
 20
206.3134630528205
 30
0.0
 11
114.2099620634811
 21
206.3134630528209
 31
0.0
  0
LINE
  5
663
330
1F
100
AcDbEntity
  8
1
  6
CONTINUOUS
100
AcDbLine
 10
114.2099620634817
 20
205.3085153892428
 30
0.0
 11
114.2099620634817
 21
204.3185649390696
 31
0.0
  0
LINE
  5
664
330
1F
100
AcDbEntity
  8
1
  6
CONTINUOUS
100
AcDbLine
 10
114.2099620634817
 20
205.3085153892428
 30
0.0
 11
114.2099620634811
 21
206.3134630528209
 31
0.0
  0
LINE
  5
665
330
1F
100
AcDbEntity
  8
1
  6
CONTINUOUS
100
AcDbLine
 10
124.2099620634817
 20
205.3085153892428
 30
0.0
 11
124.2099620684812
 21
204.3185649390696
 31
0.0
  0
LINE
  5
666
330
1F
100
AcDbEntity
  8
1
  6
CONTINUOUS
100
AcDbLine
 10
124.2099620634817
 20
205.3085153892428
 30
0.0
 11
124.2099620634812
 21
206.3134630528205
 31
0.0
  0
LINE
  5
667
330
1F
100
AcDbEntity
  8
1
100
AcDbLine
 10
200.0961921199118
 20
175.6134555288174
 30
0.0
 11
198.8574281666405
 21
175.6134555288176
 31
0.0
  0
LINE
  5
668
330
1F
100
AcDbEntity
  8
1
100
AcDbLine
 10
201.5187638958158
 20
175.1134555288176
 30
0.0
 11
202.163802903421
 21
175.1134555288174
 31
0.0
  0
LINE
  5
669
330
1F
100
AcDbEntity
  8
1
100
AcDbLine
 10
201.5915638293225
 20
174.6134555288174
 30
0.0
 11
202.2366028369277
 21
174.6134555288174
 31
0.0
  0
LINE
  5
66A
330
1F
100
AcDbEntity
  8
1
100
AcDbLine
 10
202.0961921199118
 20
175.6134555288176
 30
0.0
 11
201.4511531123066
 21
175.6134555288174
 31
0.0
  0
LINE
  5
66B
330
1F
100
AcDbEntity
  8
1
100
AcDbLine
 10
203.5187638958158
 20
175.1134555288174
 30
0.0
 11
204.163802903421
 21
175.1134555288174
 31
0.0
  0
LINE
  5
66C
330
1F
100
AcDbEntity
  8
1
100
AcDbLine
 10
203.5915638293225
 20
174.6134555288174
 30
0.0
 11
204.2366028369277
 21
174.6134555288174
 31
0.0
  0
LINE
  5
66D
330
1F
100
AcDbEntity
  8
1
100
AcDbLine
 10
204.0961921199118
 20
175.6134555288176
 30
0.0
 11
203.4511531123066
 21
175.6134555288176
 31
0.0
  0
LINE
  5
66E
330
1F
100
AcDbEntity
  8
1
100
AcDbLine
 10
205.5187638958158
 20
175.1134555288174
 30
0.0
 11
207.2574281666407
 21
175.1134555288174
 31
0.0
  0
LINE
  5
66F
330
1F
100
AcDbEntity
  8
1
100
AcDbLine
 10
205.5915638293225
 20
174.6134555288174
 30
0.0
 11
206.7574281666407
 21
174.6134555288174
 31
0.0
  0
LINE
  5
670
330
1F
100
AcDbEntity
  8
1
100
AcDbLine
 10
207.2574281666407
 20
170.6134555288175
 30
0.0
 11
207.2574281666407
 21
175.1134555288174
 31
0.0
  0
LINE
  5
671
330
1F
100
AcDbEntity
  8
1
100
AcDbLine
 10
206.7574281666407
 20
174.6134555288174
 30
0.0
 11
206.7574281666407
 21
171.1134555288174
 31
0.0
  0
LINE
  5
672
330
1F
100
AcDbEntity
  8
1
100
AcDbLine
 10
207.7574281666406
 20
170.1134555288176
 30
0.0
 11
207.7574281666406
 21
175.6134555288176
 31
0.0
  0
LINE
  5
673
330
1F
100
AcDbEntity
  8
1
100
AcDbLine
 10
199.3574281666405
 20
170.6134555288175
 30
0.0
 11
207.2574281666407
 21
170.6134555288175
 31
0.0
  0
LINE
  5
674
330
1F
100
AcDbEntity
  8
1
100
AcDbLine
 10
198.8574281666405
 20
170.1134555288176
 30
0.0
 11
207.7574281666406
 21
170.1134555288176
 31
0.0
  0
LINE
  5
675
330
1F
100
AcDbEntity
  8
1
100
AcDbLine
 10
202.5574281666408
 20
170.6134555288175
 30
0.0
 11
202.5574281666408
 21
171.1134555288174
 31
0.0
  0
LINE
  5
676
330
1F
100
AcDbEntity
  8
1
100
AcDbLine
 10
204.0574281666408
 20
170.6134555288175
 30
0.0
 11
204.0574281666408
 21
171.1134555288174
 31
0.0
  0
LINE
  5
677
330
1F
100
AcDbEntity
  8
1
100
AcDbLine
 10
199.8574281666405
 20
171.1134555288174
 30
0.0
 11
206.7574281666407
 21
171.1134555288174
 31
0.0
  0
LINE
  5
678
330
1F
100
AcDbEntity
  8
1
100
AcDbLine
 10
198.8574281666405
 20
175.6134555288176
 30
0.0
 11
198.8574281666405
 21
170.1134555288176
 31
0.0
  0
LINE
  5
679
330
1F
100
AcDbEntity
  8
1
100
AcDbLine
 10
199.3574281666405
 20
175.1134555288174
 30
0.0
 11
200.163802903421
 21
175.1134555288176
 31
0.0
  0
LINE
  5
67A
330
1F
100
AcDbEntity
  8
1
100
AcDbLine
 10
207.7574281666406
 20
175.6134555288176
 30
0.0
 11
205.4511531123066
 21
175.6134555288176
 31
0.0
  0
LINE
  5
67B
330
1F
100
AcDbEntity
  8
1
100
AcDbLine
 10
199.3574281666405
 20
170.6134555288175
 30
0.0
 11
199.3574281666405
 21
175.1134555288174
 31
0.0
  0
LINE
  5
67C
330
1F
100
AcDbEntity
  8
1
100
AcDbLine
 10
199.8574281666405
 20
174.6134555288174
 30
0.0
 11
200.2366028369277
 21
174.6134555288174
 31
0.0
  0
LINE
  5
67D
330
1F
100
AcDbEntity
  8
1
100
AcDbLine
 10
199.8574281666405
 20
174.6134555288174
 30
0.0
 11
199.8574281666405
 21
171.1134555288174
 31
0.0
  0
LINE
  5
67E
330
1F
100
AcDbEntity
  8
1
100
AcDbLine
 10
201.519379144755
 20
188.9134632760938
 30
0.0
 11
202.1644181523601
 21
188.9134632760938
 31
0.0
  0
LINE
  5
67F
330
1F
100
AcDbEntity
  8
1
100
AcDbLine
 10
203.5193791447553
 20
188.9134632760939
 30
0.0
 11
204.1644181523601
 21
188.9134632760939
 31
0.0
  0
LINE
  5
680
330
1F
100
AcDbEntity
  8
1
100
AcDbLine
 10
205.5193791447549
 20
188.9134632760939
 30
0.0
 11
207.7574308228931
 21
188.9134632760938
 31
0.0
  0
ARC
  5
681
330
1F
100
AcDbEntity
  8
1
100
AcDbCircle
 10
250.6473349167649
 20
182.0112691057181
 30
0.0
 40
49.61044570150637
100
AcDbArc
 50
168.7809954853485
 51
191.2040501843568
  0
ARC
  5
682
330
1F
100
AcDbEntity
  8
1
100
AcDbCircle
 10
249.29237392437
 20
182.0112691057181
 30
0.0
 40
49.61044570150637
100
AcDbArc
 50
168.7809954853485
 51
191.2040501843568
  0
ARC
  5
683
330
1F
100
AcDbEntity
  8
1
100
AcDbCircle
 10
252.6473349167649
 20
182.0112691057181
 30
0.0
 40
49.61044570150637
100
AcDbArc
 50
168.7809954853485
 51
191.2040501843568
  0
ARC
  5
684
330
1F
100
AcDbEntity
  8
1
100
AcDbCircle
 10
251.29237392437
 20
182.0112691057181
 30
0.0
 40
49.61044570150637
100
AcDbArc
 50
168.7809954853485
 51
191.2040501843568
  0
ARC
  5
685
330
1F
100
AcDbEntity
  8
1
100
AcDbCircle
 10
253.29237392437
 20
182.0112691057181
 30
0.0
 40
49.61044570150637
100
AcDbArc
 50
168.7809954853485
 51
191.2040501843568
  0
ARC
  5
686
330
1F
100
AcDbEntity
  8
1
100
AcDbCircle
 10
254.6473349167649
 20
182.0112691057181
 30
0.0
 40
49.61044570150637
100
AcDbArc
 50
168.7809954853485
 51
191.2040501843568
  0
ARC
  5
687
330
1F
100
AcDbEntity
  8
1
100
AcDbCircle
 10
205.3074308228933
 20
191.6634632760938
 30
0.0
 40
0.6774804961972134
100
AcDbArc
 50
337.8624252229328
 51
179.9999999999153
  0
ARC
  5
688
330
1F
100
AcDbEntity
  8
1
100
AcDbCircle
 10
203.3074308228933
 20
191.6634632760938
 30
0.0
 40
0.6774804961972134
100
AcDbArc
 50
337.8624252229328
 51
179.9999999999153
  0
ARC
  5
689
330
1F
100
AcDbEntity
  8
1
100
AcDbCircle
 10
201.3074308228933
 20
191.6634632760938
 30
0.0
 40
0.6774804961972134
100
AcDbArc
 50
337.8624252229328
 51
179.9999999999153
  0
ARC
  5
68A
330
1F
100
AcDbEntity
  8
1
100
AcDbCircle
 10
205.3074281666408
 20
172.3134555288176
 30
0.0
 40
0.6774804961972134
100
AcDbArc
 50
180.0
 51
0.0
  0
ARC
  5
68B
330
1F
100
AcDbEntity
  8
1
100
AcDbCircle
 10
203.3074281666408
 20
172.3134555288176
 30
0.0
 40
0.6774804961972134
100
AcDbArc
 50
180.0
 51
0.0
  0
ARC
  5
68C
330
1F
100
AcDbEntity
  8
1
100
AcDbCircle
 10
201.3074281666408
 20
172.3134555288176
 30
0.0
 40
0.6774804961972134
100
AcDbArc
 50
180.0
 51
0.0
  0
LINE
  5
68D
330
1F
100
AcDbEntity
  8
1
100
AcDbLine
 10
199.0428127439144
 20
188.9134632760938
 30
0.0
 11
200.1644181523601
 21
188.9134632760938
 31
0.0
  0
LINE
  5
68E
330
1F
100
AcDbEntity
  8
1
100
AcDbLine
 10
207.7574308228931
 20
188.9134632760938
 30
0.0
 11
207.7574308228931
 21
194.4134632760938
 31
0.0
  0
LINE
  5
68F
330
1F
100
AcDbEntity
  8
1
100
AcDbLine
 10
207.757428166641
 20
162.6134555288176
 30
0.0
 11
207.757428166641
 21
168.1134555288176
 31
0.0
  0
LINE
  5
690
330
1F
100
AcDbEntity
  8
1
100
AcDbLine
 10
199.857428166641
 20
167.1134555288174
 30
0.0
 11
199.857428166641
 21
163.6134555288174
 31
0.0
  0
LINE
  5
691
330
1F
100
AcDbEntity
  8
1
100
AcDbLine
 10
206.7574281666411
 20
167.1134555288174
 30
0.0
 11
206.7574281666411
 21
163.6134555288174
 31
0.0
  0
LINE
  5
692
330
1F
100
AcDbEntity
  8
1
100
AcDbLine
 10
207.2574281666411
 20
163.1134555288175
 30
0.0
 11
207.2574281666411
 21
167.6134555288174
 31
0.0
  0
LINE
  5
693
330
1F
100
AcDbEntity
  8
1
100
AcDbLine
 10
199.857428166641
 20
163.6134555288174
 30
0.0
 11
206.7574281666411
 21
163.6134555288174
 31
0.0
  0
LINE
  5
694
330
1F
100
AcDbEntity
  8
1
100
AcDbLine
 10
204.0574281666413
 20
163.1134555288175
 30
0.0
 11
204.0574281666413
 21
163.6134555288174
 31
0.0
  0
LINE
  5
695
330
1F
100
AcDbEntity
  8
1
100
AcDbLine
 10
202.5574281666413
 20
163.1134555288175
 30
0.0
 11
202.5574281666413
 21
163.6134555288174
 31
0.0
  0
LINE
  5
696
330
1F
100
AcDbEntity
  8
1
100
AcDbLine
 10
199.857428166641
 20
167.1134555288174
 30
0.0
 11
206.7574281666411
 21
167.1134555288174
 31
0.0
  0
CIRCLE
  5
697
330
1F
100
AcDbEntity
  8
1
100
AcDbCircle
 10
201.3074281666412
 20
164.8134555288176
 30
0.0
 40
0.25
  0
CIRCLE
  5
698
330
1F
100
AcDbEntity
  8
1
100
AcDbCircle
 10
203.3074281666412
 20
164.8134555288176
 30
0.0
 40
0.25
  0
CIRCLE
  5
699
330
1F
100
AcDbEntity
  8
1
100
AcDbCircle
 10
205.3074281666412
 20
164.8134555288176
 30
0.0
 40
0.25
  0
LINE
  5
69A
330
1F
100
AcDbEntity
  8
1
100
AcDbLine
 10
198.8574308228934
 20
194.4134632760938
 30
0.0
 11
198.8574308228934
 21
188.9134632760938
 31
0.0
  0
LINE
  5
69B
330
1F
100
AcDbEntity
  8
1
100
AcDbLine
 10
198.857428166641
 20
168.1134555288176
 30
0.0
 11
198.857428166641
 21
162.6134555288176
 31
0.0
  0
LINE
  5
69C
330
1F
100
AcDbEntity
  8
1
100
AcDbLine
 10
199.357428166641
 20
163.1134555288175
 30
0.0
 11
199.357428166641
 21
167.6134555288174
 31
0.0
  0
INSERT
  5
69D
330
1F
100
AcDbEntity
  8
1
100
AcDbBlockReference
  2
A$C09634F3C
 10
194.4008606225488
 20
165.056886332151
 30
0.0
 50
29.99999999999164
  0
LINE
  5
69E
330
1F
100
AcDbEntity
  8
1
100
AcDbLine
 10
207.757428166641
 20
168.1134555288176
 30
0.0
 11
198.857428166641
 21
168.1134555288176
 31
0.0
  0
LINE
  5
69F
330
1F
100
AcDbEntity
  8
1
100
AcDbLine
 10
198.857428166641
 20
162.6134555288176
 30
0.0
 11
207.757428166641
 21
162.6134555288176
 31
0.0
  0
LINE
  5
6A0
330
1F
100
AcDbEntity
  8
1
100
AcDbLine
 10
198.8574308228934
 20
188.9134632760938
 30
0.0
 11
199.0428127439144
 21
188.9134632760938
 31
0.0
  0
LINE
  5
6A1
330
1F
100
AcDbEntity
  8
1
100
AcDbLine
 10
207.7574308228931
 20
194.4134632760938
 30
0.0
 11
198.8574308228934
 21
194.4134632760938
 31
0.0
  0
LINE
  5
6A2
330
1F
100
AcDbEntity
  8
1
100
AcDbLine
 10
199.357428166641
 20
163.1134555288175
 30
0.0
 11
207.2574281666411
 21
163.1134555288175
 31
0.0
  0
LINE
  5
6A3
330
1F
100
AcDbEntity
  8
1
100
AcDbLine
 10
199.357428166641
 20
167.6134555288174
 30
0.0
 11
207.2574281666411
 21
167.6134555288174
 31
0.0
  0
INSERT
  5
6A4
330
1F
100
AcDbEntity
  8
1
100
AcDbBlockReference
  2
A$C09634F3C
 10
202.3008610904061
 20
198.0568938522671
 30
0.0
 50
29.99999999999164
  0
ARC
  5
6A5
330
1F
100
AcDbEntity
  8
1
  6
CONTINUOUS
100
AcDbCircle
 10
189.3074308314593
 20
204.3185648929268
 30
0.0
 40
1.000000000000001
100
AcDbArc
 50
98.12969612605115
 51
180.0
  0
ARC
  5
6A6
330
1F
100
AcDbEntity
  8
1
  6
CONTINUOUS
100
AcDbCircle
 10
190.7074308363594
 20
203.3083712100524
 30
0.0
 40
1.0
100
AcDbArc
 50
97.3120222039472
 51
180.0
  0
ARC
  5
6A7
330
1F
100
AcDbEntity
  8
1
100
AcDbCircle
 10
191.0074308228939
 20
203.0448355783437
 30
0.0
 40
1.199999999999999
100
AcDbArc
 50
97.15153165965306
 51
180.0
  0
LINE
  5
6A8
330
1F
100
AcDbEntity
  8
1
  6
CONTINUOUS
100
AcDbLine
 10
266.9670623086886
 20
206.3134630528209
 30
0.0
 11
256.9670623086885
 21
206.3134630528205
 31
0.0
  0
ARC
  5
6A9
330
1F
100
AcDbEntity
  8
1
  6
CONTINUOUS
100
AcDbCircle
 10
217.3074308314598
 20
204.3185650287405
 30
0.0
 40
1.000000000000073
100
AcDbArc
 50
0.0
 51
81.87030442976544
  0
ARC
  5
6AA
330
1F
100
AcDbEntity
  8
1
  6
CONTINUOUS
100
AcDbCircle
 10
215.9074308363596
 20
203.308371332185
 30
0.0
 40
1.000000000000055
100
AcDbArc
 50
0.0
 51
82.68797835142668
  0
ARC
  5
6AB
330
1F
100
AcDbEntity
  8
1
100
AcDbCircle
 10
215.6074308114498
 20
203.0448355797795
 30
0.0
 40
1.199999999999999
100
AcDbArc
 50
359.9999997650741
 51
82.84846834704309
  0
LINE
  5
6AC
330
1F
100
AcDbEntity
  8
1
  6
CONTINUOUS
100
AcDbLine
 10
256.967062303688
 20
204.3185650845845
 30
0.0
 11
256.9670623086885
 21
205.3085155264286
 31
0.0
  0
LINE
  5
6AD
330
1F
100
AcDbEntity
  8
1
  6
CONTINUOUS
100
AcDbLine
 10
256.9670623086885
 20
206.3134630528205
 30
0.0
 11
256.9670623086885
 21
205.3085155264286
 31
0.0
  0
LINE
  5
6AE
330
1F
100
AcDbEntity
  8
1
  6
CONTINUOUS
100
AcDbLine
 10
266.9670623086886
 20
204.3185650845848
 30
0.0
 11
266.9670623086886
 21
205.3085155264287
 31
0.0
  0
LINE
  5
6AF
330
1F
100
AcDbEntity
  8
1
  6
CONTINUOUS
100
AcDbLine
 10
266.9670623086886
 20
206.3134630528209
 30
0.0
 11
266.9670623086886
 21
205.3085155264287
 31
0.0
  0
ARC
  5
6B0
330
1F
100
AcDbEntity
  8
1
  6
CONTINUOUS
100
AcDbCircle
 10
357.6912179449262
 20
204.3185637355779
 30
0.0
 40
1.000002617212722
100
AcDbArc
 50
98.1298442577782
 51
180.0
  0
LINE
  5
6B1
330
1F
100
AcDbEntity
  8
1
  6
CONTINUOUS
100
AcDbLine
 10
328.6683153652156
 20
204.7507883454463
 30
0.0
 11
323.1670636974776
 21
204.7507883454463
 31
0.0
  0
LINE
  5
6B2
330
1F
100
AcDbEntity
  8
1
  6
CONTINUOUS
100
AcDbLine
 10
323.2296038710082
 20
206.3134619439741
 30
0.0
 11
322.6670623086897
 21
206.3134632155207
 31
0.0
  0
LINE
  5
6B3
330
1F
100
AcDbEntity
  8
1
  6
CONTINUOUS
100
AcDbLine
 10
323.1670636974776
 20
204.3185652638576
 30
0.0
 11
323.1670636974776
 21
205.3085164571903
 31
0.0
  0
LINE
  5
6B4
330
1F
100
AcDbEntity
  8
1
  6
CONTINUOUS
100
AcDbLine
 10
322.6670623086897
 20
205.3085157159037
 30
0.0
 11
322.6670623086897
 21
206.3134632155207
 31
0.0
  0
LINE
  5
6B5
330
1F
100
AcDbEntity
  8
1
  6
CONTINUOUS
100
AcDbLine
 10
323.1670636974776
 20
205.3085164571903
 30
0.0
 11
323.1670636974776
 21
206.3096584225795
 31
0.0
  0
LINE
  5
6B6
330
1F
100
AcDbEntity
  8
1
  6
CONTINUOUS
100
AcDbLine
 10
329.167060955664
 20
203.5051183248659
 30
0.0
 11
329.167060955664
 21
203.1083711827895
 31
0.0
  0
ARC
  5
6B7
330
1F
100
AcDbEntity
  8
1
  6
CONTINUOUS
100
AcDbCircle
 10
328.6672163357984
 20
204.2506382539567
 30
0.0
 40
0.4998446409998855
100
AcDbArc
 50
0.0166614481131063
 51
90.01749991602542
  0
LINE
  5
6B8
330
1F
100
AcDbEntity
  8
1
  6
CONTINUOUS
100
AcDbLine
 10
329.167060955664
 20
204.2507836068771
 30
0.0
 11
329.167060955664
 21
203.5051183248659
 31
0.0
  0
LINE
  5
6B9
330
1F
100
AcDbEntity
  8
1
  6
CONTINUOUS
100
AcDbLine
 10
329.167060955664
 20
204.2507873321674
 30
0.0
 11
329.167060955664
 21
201.8134640003345
 31
0.0
  0
ARC
  5
6BA
330
1F
100
AcDbEntity
  8
1
  6
CONTINUOUS
100
AcDbCircle
 10
328.6672163357984
 20
204.2506382539567
 30
0.0
 40
0.4998446409999425
100
AcDbArc
 50
0.0166615153287655
 51
90.0174999160515
  0
LINE
  5
6BB
330
1F
100
AcDbEntity
  8
1
  6
CONTINUOUS
100
AcDbLine
 10
328.6670623086901
 20
174.0134624800036
 30
0.0
 11
324.6670630120243
 21
174.0134627963206
 31
0.0
  0
LINE
  5
6BC
330
1F
100
AcDbEntity
  8
1
  6
CONTINUOUS
100
AcDbLine
 10
329.167060955664
 20
171.5134623865386
 30
0.0
 11
327.1670606278385
 21
171.5134623865386
 31
0.0
  0
LINE
  5
6BD
330
1F
100
AcDbEntity
  8
1
  6
CONTINUOUS
100
AcDbLine
 10
326.1670623265708
 20
174.0134627963206
 30
0.0
 11
327.1670606278385
 21
171.5134614552161
 31
0.0
  0
LINE
  5
6BE
330
1F
100
AcDbEntity
  8
1
  6
CONTINUOUS
100
AcDbLine
 10
325.1670640253032
 20
174.0134627963206
 30
0.0
 11
325.1670640253032
 21
170.5134622226259
 31
0.0
  0
LINE
  5
6BF
330
1F
100
AcDbEntity
  8
1
  6
CONTINUOUS
100
AcDbLine
 10
329.1670623086906
 20
174.0134624897189
 30
0.0
 11
328.6670623086901
 21
174.0134624800036
 31
0.0
  0
LINE
  5
6C0
330
1F
100
AcDbEntity
  8
1
  6
CONTINUOUS
100
AcDbLine
 10
329.1670623086906
 20
174.0134624897189
 30
0.0
 11
329.167060955664
 21
171.5134623865386
 31
0.0
  0
LINE
  5
6C1
330
1F
100
AcDbEntity
  8
1
  6
CONTINUOUS
100
AcDbLine
 10
329.167060955664
 20
203.1083711827895
 30
0.0
 11
329.1670623086906
 21
174.0134624897189
 31
0.0
  0
LINE
  5
6C2
330
1F
100
AcDbEntity
  8
1
  6
CONTINUOUS
100
AcDbLine
 10
313.1670623086897
 20
205.3085157161766
 30
0.0
 11
313.1670623086897
 21
204.318565196291
 31
0.0
  0
LINE
  5
6C3
330
1F
100
AcDbEntity
  8
1
  6
CONTINUOUS
100
AcDbLine
 10
313.1670623086897
 20
205.3085157161766
 30
0.0
 11
313.1670623086906
 21
206.3134632155205
 31
0.0
  0
LINE
  5
6C4
330
1F
100
AcDbEntity
  8
1
  6
CONTINUOUS
100
AcDbLine
 10
322.6670623086897
 20
206.3134632155207
 30
0.0
 11
313.1670623086906
 21
206.3134632155205
 31
0.0
  0
LINE
  5
6C5
330
1F
100
AcDbEntity
  8
1
  6
CONTINUOUS
100
AcDbLine
 10
374.6912131558705
 20
171.5134633178613
 30
0.0
 11
382.1912125225711
 21
171.5134633178613
 31
0.0
  0
LINE
  5
6C6
330
1F
100
AcDbEntity
  8
1
  6
CONTINUOUS
100
AcDbLine
 10
383.191214549129
 20
170.5134640852711
 30
0.0
 11
373.6912139232804
 21
170.5134640852711
 31
0.0
  0
ARC
  5
6C7
330
1F
100
AcDbEntity
  8
1
  6
CONTINUOUS
100
AcDbCircle
 10
371.6912149924386
 20
104.9132268967686
 30
0.0
 40
100.000236026955
100
AcDbArc
 50
82.6879957129274
 51
97.31200428707261
  0
ARC
  5
6C8
330
1F
100
AcDbEntity
  8
1
  6
CONTINUOUS
100
AcDbCircle
 10
371.6912152252693
 20
106.313446202581
 30
0.0
 40
100.0000177005718
100
AcDbArc
 50
81.8703164351889
 51
98.12968356481114
  0
LWPOLYLINE
  5
6C9
330
1F
100
AcDbEntity
  8
1
  6
CONTINUOUS
100
AcDbPolyline
 90
        3
 70
   128
 43
0.0
 10
384.4057616319108
 20
204.0010513211391
 10
379.8214324291397
 20
204.4818819905422
 10
375.2087127890039
 20
204.7504828716419
  0
ARC
  5
6CA
330
1F
100
AcDbEntity
  8
1
  6
CONTINUOUS
100
AcDbCircle
 10
371.6912142939468
 20
201.813462020349
 30
0.0
 40
2.999999793247041
100
AcDbArc
 50
180.0
 51
0.0
  0
LINE
  5
6CB
330
1F
100
AcDbEntity
  8
1
  6
CONTINUOUS
100
AcDbLine
 10
375.2087127890039
 20
204.7504828716419
 30
0.0
 11
368.1737162645507
 21
204.7504828716419
 31
0.0
  0
LWPOLYLINE
  5
6CC
330
1F
100
AcDbEntity
  8
1
  6
CONTINUOUS
100
AcDbPolyline
 90
        3
 70
   128
 43
0.0
 10
368.1737162645507
 20
204.7504828716419
 10
363.5609977849303
 20
204.4818819905422
 10
358.976669284289
 20
204.0010513211391
  0
ARC
  5
6CD
330
1F
100
AcDbEntity
  8
1
  6
CONTINUOUS
100
AcDbCircle
 10
359.0912117804918
 20
203.1083732441803
 30
0.0
 40
0.899996206910119
100
AcDbArc
 50
97.31159404004834
 51
180.0
  0
ARC
  5
6CE
330
1F
100
AcDbEntity
  8
1
  6
CONTINUOUS
100
AcDbCircle
 10
359.0912153481748
 20
203.1083714030105
 30
0.0
 40
0.9999999999998452
100
AcDbArc
 50
97.31202164804816
 51
180.0
  0
LINE
  5
6CF
330
1F
100
AcDbEntity
  8
1
  6
CONTINUOUS
100
AcDbLine
 10
368.1912144187439
 20
204.2507873321674
 30
0.0
 11
368.6912145007003
 21
204.2507873321674
 31
0.0
  0
LINE
  5
6D0
330
1F
100
AcDbEntity
  8
1
  6
CONTINUOUS
100
AcDbLine
 10
368.6912145007003
 20
204.2507873321674
 30
0.0
 11
368.6912145007003
 21
201.8134640003345
 31
0.0
  0
ARC
  5
6D1
330
1F
100
AcDbEntity
  8
1
  6
CONTINUOUS
100
AcDbCircle
 10
-40.50452682564719
 20
190.0641876381748
 30
0.0
 40
408.9420419117795
100
AcDbArc
 50
1.988045041360513
 51
2.058100243780133
  0
ARC
  5
6D2
330
1F
100
AcDbEntity
  8
1
  6
CONTINUOUS
100
AcDbCircle
 10
368.1912133599061
 20
204.2507879722781
 30
0.0
 40
0.5000011407947344
100
AcDbArc
 50
0.0
 51
92.00542430569825
  0
LINE
  5
6D3
330
1F
100
AcDbEntity
  8
1
  6
CONTINUOUS
100
AcDbLine
 10
374.6912140871931
 20
204.2507873321674
 30
0.0
 11
374.6912140871931
 21
201.8134640003345
 31
0.0
  0
LINE
  5
6D4
330
1F
100
AcDbEntity
  8
1
  6
CONTINUOUS
100
AcDbLine
 10
375.1912141691494
 20
204.2507873321674
 30
0.0
 11
374.6912140871931
 21
204.2507873321674
 31
0.0
  0
ARC
  5
6D5
330
1F
100
AcDbEntity
  8
1
  6
CONTINUOUS
100
AcDbCircle
 10
785.9800943739477
 20
189.9902496980631
 30
0.0
 40
411.0364855004259
100
AcDbArc
 50
177.9420782399955
 51
178.0117764748625
  0
ARC
  5
6D6
330
1F
100
AcDbEntity
  8
1
  6
CONTINUOUS
100
AcDbCircle
 10
375.1912160404895
 20
204.250787147134
 30
0.0
 40
0.5000019532961223
100
AcDbArc
 50
87.99461872364084
 51
180.0
  0
INSERT
  5
6D7
330
1F
100
AcDbEntity
  8
1
100
AcDbBlockReference
  2
A$C09634F3C
 10
374.4412140356879
 20
199.0634635661862
 30
0.0
 50
90.0
  0
LINE
  5
6D8
330
1F
100
AcDbEntity
  8
1
  6
CONTINUOUS
100
AcDbLine
 10
368.6912131037165
 20
174.0134627963206
 30
0.0
 11
374.6912131558705
 21
174.0134627963206
 31
0.0
  0
LINE
  5
6D9
330
1F
100
AcDbEntity
  8
1
  6
CONTINUOUS
100
AcDbLine
 10
361.1912132713546
 20
171.5134623865386
 30
0.0
 11
368.6912131037165
 21
171.5134623865386
 31
0.0
  0
LINE
  5
6DA
330
1F
100
AcDbEntity
  8
1
  6
CONTINUOUS
100
AcDbLine
 10
369.6912141989518
 20
170.5134622226259
 30
0.0
 11
360.191214271595
 21
170.5134622226259
 31
0.0
  0
LINE
  5
6DB
330
1F
100
AcDbEntity
  8
1
  6
CONTINUOUS
100
AcDbLine
 10
358.6912151027671
 20
174.0134624897189
 30
0.0
 11
361.1912132713546
 21
174.0134627963206
 31
0.0
  0
LINE
  5
6DC
330
1F
100
AcDbEntity
  8
1
  6
CONTINUOUS
100
AcDbLine
 10
358.6912151027671
 20
174.0134624897189
 30
0.0
 11
358.1912150322045
 21
174.0134624800036
 31
0.0
  0
LINE
  5
6DD
330
1F
100
AcDbEntity
  8
1
  6
CONTINUOUS
100
AcDbLine
 10
361.1912132713546
 20
174.0134627963206
 30
0.0
 11
361.1912132713546
 21
171.5134623865386
 31
0.0
  0
LINE
  5
6DE
330
1F
100
AcDbEntity
  8
1
  6
CONTINUOUS
100
AcDbLine
 10
360.191214271595
 20
170.5134622226259
 30
0.0
 11
360.191214271595
 21
174.0134627963206
 31
0.0
  0
LINE
  5
6DF
330
1F
100
AcDbEntity
  8
1
  6
CONTINUOUS
100
AcDbLine
 10
368.6912131037165
 20
174.0134627963206
 30
0.0
 11
368.6912131037165
 21
171.5134633178613
 31
0.0
  0
LINE
  5
6E0
330
1F
100
AcDbEntity
  8
1
  6
CONTINUOUS
100
AcDbLine
 10
369.6912141989518
 20
174.0134627963206
 30
0.0
 11
369.6912141989518
 21
170.5134622226259
 31
0.0
  0
LINE
  5
6E1
330
1F
100
AcDbEntity
  8
1
  6
CONTINUOUS
100
AcDbLine
 10
374.6912131558705
 20
174.0134627963206
 30
0.0
 11
374.6912131558705
 21
171.5134633178613
 31
0.0
  0
LINE
  5
6E2
330
1F
100
AcDbEntity
  8
1
  6
CONTINUOUS
100
AcDbLine
 10
373.6912139232804
 20
170.5134640852711
 30
0.0
 11
373.6912139232804
 21
174.0134627963206
 31
0.0
  0
LINE
  5
6E3
330
1F
100
AcDbEntity
  8
1
  6
CONTINUOUS
100
AcDbLine
 10
358.1912150322045
 20
174.0134624800036
 30
0.0
 11
358.1912151079226
 21
203.1083711827895
 31
0.0
  0
ARC
  5
6E4
330
1F
100
AcDbEntity
  8
1
  6
CONTINUOUS
100
AcDbCircle
 10
384.2912178714499
 20
203.1083731390034
 30
0.0
 40
0.8999970055070548
100
AcDbArc
 50
0.0
 51
82.6880623453859
  0
ARC
  5
6E5
330
1F
100
AcDbEntity
  8
1
  6
CONTINUOUS
100
AcDbCircle
 10
384.2912153481756
 20
203.1083712806531
 30
0.0
 40
1.000000000000037
100
AcDbArc
 50
359.9613962114915
 51
82.68797779552764
  0
ARC
  5
6E6
330
1F
100
AcDbEntity
  8
1
  6
CONTINUOUS
100
AcDbCircle
 10
385.6912120226246
 20
204.3185623759029
 30
0.0
 40
1.000004031525954
100
AcDbArc
 50
0.0
 51
81.87013936413167
  0
LINE
  5
6E7
330
1F
100
AcDbEntity
  8
1
  6
CONTINUOUS
100
AcDbLine
 10
382.1912125225711
 20
174.0134637276431
 30
0.0
 11
384.6912150322041
 21
174.0134636699261
 31
0.0
  0
LINE
  5
6E8
330
1F
100
AcDbEntity
  8
1
  6
CONTINUOUS
100
AcDbLine
 10
385.1912150322041
 20
174.0134636688753
 30
0.0
 11
384.6912150322041
 21
174.0134636699261
 31
0.0
  0
LINE
  5
6E9
330
1F
100
AcDbEntity
  8
1
  6
CONTINUOUS
100
AcDbLine
 10
382.1912125225711
 20
171.5134633178613
 30
0.0
 11
382.1912125225711
 21
174.0134637276431
 31
0.0
  0
LINE
  5
6EA
330
1F
100
AcDbEntity
  8
1
  6
CONTINUOUS
100
AcDbLine
 10
383.191214549129
 20
174.0134637276431
 30
0.0
 11
383.191214549129
 21
170.5134640852711
 31
0.0
  0
LINE
  5
6EB
330
1F
100
AcDbEntity
  8
1
  6
CONTINUOUS
100
AcDbLine
 10
385.1912148769546
 20
203.1083711827895
 30
0.0
 11
385.1912150322041
 21
174.0134636688753
 31
0.0
  0
LINE
  5
7FE
330
1F
100
AcDbEntity
  8
1
  6
CONTINUOUS
100
AcDbLine
 10
206.8072868988169
 20
308.2642615917912
 30
0.0
 11
215.9583488956345
 21
308.2642615917912
 31
0.0
  0
LINE
  5
7FF
330
1F
100
AcDbEntity
  8
1
  6
CONTINUOUS
100
AcDbLine
 10
217.4488541018666
 20
301.7642629448171
 30
0.0
 11
189.166025811388
 21
301.7642629448171
 31
0.0
  0
LINE
  5
800
330
1F
100
AcDbEntity
  8
1
  6
CONTINUOUS
100
AcDbLine
 10
217.4488538421943
 20
302.264264333605
 30
0.0
 11
189.1660247475161
 21
302.264264333605
 31
0.0
  0
LINE
  5
801
330
1F
100
AcDbEntity
  8
1
  6
CONTINUOUS
100
AcDbLine
 10
217.4488540999535
 20
292.2642629448171
 30
0.0
 11
189.1660258133
 21
292.2642629448171
 31
0.0
  0
LINE
  5
802
330
1F
100
AcDbEntity
  8
1
  6
CONTINUOUS
100
AcDbLine
 10
189.1660252470748
 20
246.0642629448155
 30
0.0
 11
217.4488539124201
 21
246.0642629448156
 31
0.0
  0
LINE
  5
803
330
1F
100
AcDbEntity
  8
1
  6
CONTINUOUS
100
AcDbLine
 10
189.1660252470748
 20
236.0642629448156
 30
0.0
 11
217.4488539124201
 21
236.0642629448157
 31
0.0
  0
LINE
  5
804
330
1F
100
AcDbEntity
  8
1
  6
CONTINUOUS
100
AcDbLine
 10
189.8074396431698
 20
292.2642626944771
 30
0.0
 11
189.8074396431698
 21
246.0642629448155
 31
0.0
  0
LINE
  5
805
330
1F
100
AcDbEntity
  8
1
  6
CONTINUOUS
100
AcDbLine
 10
188.3074391868743
 20
246.0642629448155
 30
0.0
 11
188.3074395845491
 21
236.0642629398156
 31
0.0
  0
LINE
  5
806
330
1F
100
AcDbEntity
  8
1
  6
CONTINUOUS
100
AcDbLine
 10
189.1660252470748
 20
236.0642629448156
 30
0.0
 11
188.3074395845491
 21
236.0642629398156
 31
0.0
  0
LINE
  5
807
330
1F
100
AcDbEntity
  8
1
  6
CONTINUOUS
100
AcDbLine
 10
189.1660252470748
 20
246.0642629448155
 30
0.0
 11
188.3074391868743
 21
246.0642629448155
 31
0.0
  0
LINE
  5
808
330
1F
100
AcDbEntity
  8
1
  6
CONTINUOUS
100
AcDbLine
 10
188.3074403286231
 20
301.7642633203259
 30
0.0
 11
188.3074393649166
 21
292.2642629448171
 31
0.0
  0
LINE
  5
809
330
1F
100
AcDbEntity
  8
1
  6
CONTINUOUS
100
AcDbLine
 10
188.3074393649166
 20
292.2642629448171
 30
0.0
 11
189.1660258133
 21
292.2642629448171
 31
0.0
  0
LINE
  5
80A
330
1F
100
AcDbEntity
  8
1
  6
CONTINUOUS
100
AcDbLine
 10
190.656530159737
 20
308.2642615917912
 30
0.0
 11
199.8075930878771
 21
308.2642615917912
 31
0.0
  0
LINE
  5
80B
330
1F
100
AcDbEntity
  8
1
  6
CONTINUOUS
100
AcDbLine
 10
189.8074396431698
 20
303.7642636481518
 30
0.0
 11
189.8074396431698
 21
306.2642612639659
 31
0.0
  0
LINE
  5
80C
330
1F
100
AcDbEntity
  8
1
  6
CONTINUOUS
100
AcDbLine
 10
189.8074396431698
 20
302.264264333605
 30
0.0
 11
189.8074396431698
 21
307.7642643038026
 31
0.0
  0
LINE
  5
80D
330
1F
100
AcDbEntity
  8
1
  6
CONTINUOUS
100
AcDbLine
 10
189.1660247475161
 20
302.264264333605
 30
0.0
 11
188.3074384659781
 21
302.264264333605
 31
0.0
  0
LINE
  5
80E
330
1F
100
AcDbEntity
  8
1
  6
CONTINUOUS
100
AcDbLine
 10
188.3074384659781
 20
301.7642633203259
 30
0.0
 11
188.3074384659781
 21
302.264264333605
 31
0.0
  0
LINE
  5
80F
330
1F
100
AcDbEntity
  8
1
  6
CONTINUOUS
100
AcDbLine
 10
189.8074396431698
 20
306.2642612639659
 30
0.0
 11
189.8074396431698
 21
308.2642615917915
 31
0.0
  0
LINE
  5
810
330
1F
100
AcDbEntity
  8
1
  6
CONTINUOUS
100
AcDbLine
 10
189.8074396431698
 20
308.2642615917915
 30
0.0
 11
190.2415607601655
 21
308.2642615917915
 31
0.0
  0
LINE
  5
811
330
1F
100
AcDbEntity
  8
1
  6
CONTINUOUS
100
AcDbLine
 10
190.3074387938035
 20
308.2642615917912
 30
0.0
 11
190.656530159737
 21
308.2642615917912
 31
0.0
  0
ARC
  5
812
330
1F
100
AcDbEntity
  8
1
  6
CONTINUOUS
100
AcDbCircle
 10
190.3074342392353
 20
307.7642669957393
 30
0.0
 40
0.4999945960727211
100
AcDbArc
 50
89.99947807926963
 51
180.0
  0
LINE
  5
813
330
1F
100
AcDbEntity
  8
1
  6
CONTINUOUS
100
AcDbLine
 10
199.8074403509749
 20
308.2642615917912
 30
0.0
 11
206.8074401013805
 21
308.2642615917912
 31
0.0
  0
LINE
  5
814
330
1F
100
AcDbEntity
  8
1
  6
CONTINUOUS
100
AcDbLine
 10
200.3074404329313
 20
302.264264333605
 30
0.0
 11
200.3074404329313
 21
307.7642643038026
 31
0.0
  0
ARC
  5
815
330
1F
100
AcDbEntity
  8
1
  6
CONTINUOUS
100
AcDbCircle
 10
203.3747708073841
 20
307.8880196395719
 30
0.0
 40
3.586964578742901
100
AcDbArc
 50
173.9790868460278
 51
181.9771775702067
  0
ARC
  5
816
330
1F
100
AcDbEntity
  8
1
  6
CONTINUOUS
100
AcDbCircle
 10
199.8074449012999
 20
307.7642660601775
 30
0.0
 40
0.499995531634583
100
AcDbArc
 50
0.0
 51
90.00052143348202
  0
LINE
  5
817
330
1F
100
AcDbEntity
  8
1
  6
CONTINUOUS
100
AcDbLine
 10
206.3074400194241
 20
307.7642643038026
 30
0.0
 11
206.3074400194241
 21
302.264264333605
 31
0.0
  0
LINE
  5
818
330
1F
100
AcDbEntity
  8
1
  6
CONTINUOUS
100
AcDbLine
 10
203.0074423656119
 20
308.2642615917915
 30
0.0
 11
207.7074411336584
 21
308.2642653170818
 31
0.0
  0
ARC
  5
819
330
1F
100
AcDbEntity
  8
1
  6
CONTINUOUS
100
AcDbCircle
 10
203.2400616315091
 20
307.8880179609965
 30
0.0
 40
3.587012040324466
100
AcDbArc
 50
358.0228754292877
 51
6.02086015447888
  0
ARC
  5
81A
330
1F
100
AcDbEntity
  8
1
  6
CONTINUOUS
100
AcDbCircle
 10
206.8074353573044
 20
307.7642662539298
 30
0.0
 40
0.4999953378839967
100
AcDbArc
 50
89.99945636384353
 51
180.0
  0
LINE
  5
81B
330
1F
100
AcDbEntity
  8
1
  6
CONTINUOUS
100
AcDbLine
 10
217.3074399598194
 20
292.2642626944773
 30
0.0
 11
217.3074399598194
 21
246.0642629448156
 31
0.0
  0
LINE
  5
81C
330
1F
100
AcDbEntity
  8
1
  6
CONTINUOUS
100
AcDbLine
 10
216.807439877863
 20
246.0642629448156
 30
0.0
 11
216.807439877863
 21
292.2642626944771
 31
0.0
  0
LINE
  5
81D
330
1F
100
AcDbEntity
  8
1
  6
CONTINUOUS
100
AcDbLine
 10
218.3074391868743
 20
246.0642629448156
 30
0.0
 11
218.3074395845494
 21
236.0642629398156
 31
0.0
  0
LINE
  5
81E
330
1F
100
AcDbEntity
  8
1
  6
CONTINUOUS
100
AcDbLine
 10
218.3074395845494
 20
236.0642629398156
 30
0.0
 11
217.4488539124201
 21
236.0642629448157
 31
0.0
  0
LINE
  5
81F
330
1F
100
AcDbEntity
  8
1
  6
CONTINUOUS
100
AcDbLine
 10
218.3074391868743
 20
246.0642629448156
 30
0.0
 11
217.4488539124201
 21
246.0642629448156
 31
0.0
  0
LINE
  5
820
330
1F
100
AcDbEntity
  8
1
  6
CONTINUOUS
100
AcDbLine
 10
218.3074405893935
 20
301.7642633203263
 30
0.0
 11
218.3074393649166
 21
292.2642629448171
 31
0.0
  0
LINE
  5
821
330
1F
100
AcDbEntity
  8
1
  6
CONTINUOUS
100
AcDbLine
 10
218.3074393649166
 20
292.2642629448171
 30
0.0
 11
218.3074401237323
 21
301.7642633203259
 31
0.0
  0
LINE
  5
822
330
1F
100
AcDbEntity
  8
1
  6
CONTINUOUS
100
AcDbLine
 10
217.4488540999535
 20
292.2642629448171
 30
0.0
 11
218.3074393649166
 21
292.2642629448171
 31
0.0
  0
LINE
  5
823
330
1F
100
AcDbEntity
  8
1
  6
CONTINUOUS
100
AcDbLine
 10
218.3074391924097
 20
302.264264333605
 30
0.0
 11
217.4488538421943
 21
302.264264333605
 31
0.0
  0
LINE
  5
824
330
1F
100
AcDbEntity
  8
1
  6
CONTINUOUS
100
AcDbLine
 10
216.8074394122017
 20
307.7642643038026
 30
0.0
 11
216.8074394122017
 21
303.7642636481517
 31
0.0
  0
LINE
  5
825
330
1F
100
AcDbEntity
  8
1
  6
CONTINUOUS
100
AcDbLine
 10
216.8074394122017
 20
307.7642643038026
 30
0.0
 11
216.8074394122017
 21
302.264264333605
 31
0.0
  0
LINE
  5
826
330
1F
100
AcDbEntity
  8
1
  6
CONTINUOUS
100
AcDbLine
 10
216.807439877863
 20
303.7642636481518
 30
0.0
 11
216.8074394122017
 21
303.7642636481517
 31
0.0
  0
LINE
  5
827
330
1F
100
AcDbEntity
  8
1
  6
CONTINUOUS
100
AcDbLine
 10
216.807439877863
 20
302.2642643336051
 30
0.0
 11
216.807439877863
 21
303.7642636481518
 31
0.0
  0
LINE
  5
828
330
1F
100
AcDbEntity
  8
1
  6
CONTINUOUS
100
AcDbLine
 10
215.9583465673282
 20
308.2642615917912
 30
0.0
 11
216.3074393302454
 21
308.2642615917912
 31
0.0
  0
ARC
  5
829
330
1F
100
AcDbEntity
  8
1
  6
CONTINUOUS
100
AcDbCircle
 10
216.3074440743216
 20
307.7642662539298
 30
0.0
 40
0.4999953378839983
100
AcDbArc
 50
0.0
 51
90.00054363616298
  0
LINE
  5
82A
330
1F
100
AcDbEntity
  8
1
  6
CONTINUOUS
100
AcDbLine
 10
218.3074391924097
 20
302.264264333605
 30
0.0
 11
218.307439658071
 21
302.2642643336051
 31
0.0
  0
LINE
  5
82B
330
1F
100
AcDbEntity
  8
1
  6
CONTINUOUS
100
AcDbLine
 10
218.307439658071
 20
301.7642633203263
 30
0.0
 11
218.307439658071
 21
302.2642643336051
 31
0.0
  0
TEXT
  5
85C
330
1F
100
AcDbEntity
  8
0
100
AcDbText
 10
60.20936799520791
 20
332.2003460502406
 30
0.0
 40
12.0
  1
SEP-ABU
100
AcDbText
  0
ENDSEC
  0
SECTION
  2
OBJECTS
  0
DICTIONARY
  5
C
330
0
100
AcDbDictionary
  3
ACAD_GROUP
350
D
  3
ACAD_LAYOUT
350
1A
  3
ACAD_MLINESTYLE
350
17
  3
ACAD_PLOTSETTINGS
350
19
  3
ACAD_PLOTSTYLENAME
350
E
  3
ACDBHEADERROUNDTRIPXREC
350
85E
  3
ACDBVARIABLEDICTIONARY
350
82C
  0
DICTIONARY
  5
BE
330
2
100
AcDbDictionary
280
     1
  3
ACAD_LAYERSTATES
360
BF
  0
DICTIONARY
  5
852
330
1F
100
AcDbDictionary
280
     1
  3
ACAD_LAYOUTSELFREF
360
87F
  0
DICTIONARY
  5
850
330
1B
100
AcDbDictionary
280
     1
  3
ACAD_LAYOUTSELFREF
360
87E
  0
DICTIONARY
  5
D
102
{ACAD_REACTORS
330
C
102
}
330
C
100
AcDbDictionary
  0
DICTIONARY
  5
1A
102
{ACAD_REACTORS
330
C
102
}
330
C
100
AcDbDictionary
  0
DICTIONARY
  5
17
102
{ACAD_REACTORS
330
C
102
}
330
C
100
AcDbDictionary
  3
STANDARD
350
18
  0
DICTIONARY
  5
19
102
{ACAD_REACTORS
330
C
102
}
330
C
100
AcDbDictionary
  0
ACDBDICTIONARYWDFLT
  5
E
102
{ACAD_REACTORS
330
C
102
}
330
C
100
AcDbDictionary
281
     1
  3
Normal
350
F
100
AcDbDictionaryWithDefault
340
F
  0
DICTIONARY
  5
85E
102
{ACAD_REACTORS
330
C
102
}
330
C
100
AcDbDictionary
  3
CEPSNTYPE
350
868
  3
FINGERPRINTGUID
350
869
  3
HYPERLINKBASE
350
861
  3
INSUNITS
350
867
  3
LAYOUTDICT
350
863
  3
LWETCUNION
350
866
  3
PLOTSETDICT
350
864
  3
PLOTSTYLNAMDICT
350
865
  3
PSVPSCALE
350
86B
  3
PUCSBASE
350
86E
  3
PUCSORGBACK
350
874
  3
PUCSORGBOTTOM
350
870
  3
PUCSORGFRONT
350
873
  3
PUCSORGLEFT
350
871
  3
PUCSORGRIGHT
350
872
  3
PUCSORGTOP
350
86F
  3
PUCSORTHOREF
350
86C
  3
PUCSORTHOVIEW
350
86D
  3
STYLESHEET
350
862
  3
TSTACKALIGN
350
85F
  3
TSTACKSIZE
350
860
  3
UCSBASE
350
877
  3
UCSORGBACK
350
87D
  3
UCSORGBOTTOM
350
879
  3
UCSORGFRONT
350
87C
  3
UCSORGLEFT
350
87A
  3
UCSORGRIGHT
350
87B
  3
UCSORGTOP
350
878
  3
UCSORTHOREF
350
875
  3
UCSORTHOVIEW
350
876
  3
VERSIONGUID
350
86A
  0
DICTIONARY
  5
82C
102
{ACAD_REACTORS
330
C
102
}
330
C
100
AcDbDictionary
  3
DIMASSOC
350
82E
  3
HIDETEXT
350
82D
  0
DICTIONARY
  5
BF
102
{ACAD_REACTORS
330
BE
102
}
330
BE
100
AcDbDictionary
  0
XRECORD
  5
87F
102
{ACAD_REACTORS
330
852
102
}
330
852
100
AcDbXrecord
340
1F
  0
XRECORD
  5
87E
102
{ACAD_REACTORS
330
850
102
}
330
850
100
AcDbXrecord
340
1B
  0
MLINESTYLE
  5
18
102
{ACAD_REACTORS
330
17
102
}
330
17
100
AcDbMlineStyle
  2
STANDARD
 70
     0
  3

 62
   256
 51
90.0
 52
90.0
 71
     2
 49
0.5
 62
   256
  6
BYLAYER
 49
-0.5
 62
   256
  6
BYLAYER
  0
ACDBPLACEHOLDER
  5
F
102
{ACAD_REACTORS
330
E
102
}
330
E
100
AcDbPlaceHolder
280
     0
  0
XRECORD
  5
868
102
{ACAD_REACTORS
330
85E
102
}
330
85E
100
AcDbXrecord
 90
        0
  0
XRECORD
  5
869
102
{ACAD_REACTORS
330
85E
102
}
330
85E
100
AcDbXrecord
  1
{E4395B42-08C6-45AA-A265-83F7D27AAA65}
  0
XRECORD
  5
861
102
{ACAD_REACTORS
330
85E
102
}
330
85E
100
AcDbXrecord
  1

  0
XRECORD
  5
867
102
{ACAD_REACTORS
330
85E
102
}
330
85E
100
AcDbXrecord
 90
        4
  0
XRECORD
  5
863
102
{ACAD_REACTORS
330
85E
102
}
330
85E
100
AcDbXrecord
340
1A
  0
XRECORD
  5
866
102
{ACAD_REACTORS
330
85E
102
}
330
85E
100
AcDbXrecord
 90
    10781
  0
XRECORD
  5
864
102
{ACAD_REACTORS
330
85E
102
}
330
85E
100
AcDbXrecord
340
19
  0
XRECORD
  5
865
102
{ACAD_REACTORS
330
85E
102
}
330
85E
100
AcDbXrecord
340
E
  0
XRECORD
  5
86B
102
{ACAD_REACTORS
330
85E
102
}
330
85E
100
AcDbXrecord
 40
0.0
  0
XRECORD
  5
86E
102
{ACAD_REACTORS
330
85E
102
}
330
85E
100
AcDbXrecord
340
0
  0
XRECORD
  5
874
102
{ACAD_REACTORS
330
85E
102
}
330
85E
100
AcDbXrecord
 10
0.0
 20
0.0
 30
0.0
  0
XRECORD
  5
870
102
{ACAD_REACTORS
330
85E
102
}
330
85E
100
AcDbXrecord
 10
0.0
 20
0.0
 30
0.0
  0
XRECORD
  5
873
102
{ACAD_REACTORS
330
85E
102
}
330
85E
100
AcDbXrecord
 10
0.0
 20
0.0
 30
0.0
  0
XRECORD
  5
871
102
{ACAD_REACTORS
330
85E
102
}
330
85E
100
AcDbXrecord
 10
0.0
 20
0.0
 30
0.0
  0
XRECORD
  5
872
102
{ACAD_REACTORS
330
85E
102
}
330
85E
100
AcDbXrecord
 10
0.0
 20
0.0
 30
0.0
  0
XRECORD
  5
86F
102
{ACAD_REACTORS
330
85E
102
}
330
85E
100
AcDbXrecord
 10
0.0
 20
0.0
 30
0.0
  0
XRECORD
  5
86C
102
{ACAD_REACTORS
330
85E
102
}
330
85E
100
AcDbXrecord
340
0
  0
XRECORD
  5
86D
102
{ACAD_REACTORS
330
85E
102
}
330
85E
100
AcDbXrecord
 70
     0
  0
XRECORD
  5
862
102
{ACAD_REACTORS
330
85E
102
}
330
85E
100
AcDbXrecord
  1

  0
XRECORD
  5
85F
102
{ACAD_REACTORS
330
85E
102
}
330
85E
100
AcDbXrecord
 90
        1
  0
XRECORD
  5
860
102
{ACAD_REACTORS
330
85E
102
}
330
85E
100
AcDbXrecord
 90
       70
  0
XRECORD
  5
877
102
{ACAD_REACTORS
330
85E
102
}
330
85E
100
AcDbXrecord
340
0
  0
XRECORD
  5
87D
102
{ACAD_REACTORS
330
85E
102
}
330
85E
100
AcDbXrecord
 10
0.0
 20
0.0
 30
0.0
  0
XRECORD
  5
879
102
{ACAD_REACTORS
330
85E
102
}
330
85E
100
AcDbXrecord
 10
0.0
 20
0.0
 30
0.0
  0
XRECORD
  5
87C
102
{ACAD_REACTORS
330
85E
102
}
330
85E
100
AcDbXrecord
 10
0.0
 20
0.0
 30
0.0
  0
XRECORD
  5
87A
102
{ACAD_REACTORS
330
85E
102
}
330
85E
100
AcDbXrecord
 10
0.0
 20
0.0
 30
0.0
  0
XRECORD
  5
87B
102
{ACAD_REACTORS
330
85E
102
}
330
85E
100
AcDbXrecord
 10
0.0
 20
0.0
 30
0.0
  0
XRECORD
  5
878
102
{ACAD_REACTORS
330
85E
102
}
330
85E
100
AcDbXrecord
 10
0.0
 20
0.0
 30
0.0
  0
XRECORD
  5
875
102
{ACAD_REACTORS
330
85E
102
}
330
85E
100
AcDbXrecord
340
0
  0
XRECORD
  5
876
102
{ACAD_REACTORS
330
85E
102
}
330
85E
100
AcDbXrecord
 70
     0
  0
XRECORD
  5
86A
102
{ACAD_REACTORS
330
85E
102
}
330
85E
100
AcDbXrecord
  1
{55C64324-5C14-44CD-94DF-E52D748E0CC8}
  0
DICTIONARYVAR
  5
82E
102
{ACAD_REACTORS
330
82C
102
}
330
82C
100
DictionaryVariables
280
     0
  1
2
  0
DICTIONARYVAR
  5
82D
102
{ACAD_REACTORS
330
82C
102
}
330
82C
100
DictionaryVariables
280
     0
  1
1
  0
ENDSEC
  0
EOF
