  0
SECTION
  2
HEADER
  9
$ACADVER
  1
AC1014
  9
$ACADMAINTVER
 70
     9
  9
$DWGCODEPAGE
  3
ANSI_932
  9
$INSBASE
 10
0.0
 20
0.0
 30
0.0
  9
$EXTMIN
 10
-0.2178826972168508
 20
-0.2222076073908283
 30
-0.0000000349181948
  9
$EXTMAX
 10
138.89717330353
 20
301.6177453316125
 30
0.0000000814935747
  9
$LIMMIN
 10
0.0
 20
0.0
  9
$LIMMAX
 10
420.0
 20
297.0
  9
$ORTHOMODE
 70
     0
  9
$REGENMODE
 70
     1
  9
$FILLMODE
 70
     1
  9
$QTEXTMODE
 70
     0
  9
$MIRRTEXT
 70
     1
  9
$DRAGMODE
 70
     2
  9
$LTSCALE
 40
1.0
  9
$OSMODE
 70
    55
  9
$ATTMODE
 70
     1
  9
$TEXTSIZE
 40
2.5
  9
$TRACEWID
 40
1.0
  9
$TEXTSTYLE
  7
STANDARD
  9
$CLAYER
  8
0
  9
$CELTYPE
  6
BYLAYER
  9
$CECOLOR
 62
   256
  9
$CELTSCALE
 40
1.0
  9
$DELOBJ
 70
     1
  9
$DISPSILH
 70
     0
  9
$DIMSCALE
 40
1.0
  9
$DIMASZ
 40
2.5
  9
$DIMEXO
 40
0.625
  9
$DIMDLI
 40
3.75
  9
$DIMRND
 40
0.0
  9
$DIMDLE
 40
0.0
  9
$DIMEXE
 40
1.25
  9
$DIMTP
 40
0.0
  9
$DIMTM
 40
0.0
  9
$DIMTXT
 40
2.5
  9
$DIMCEN
 40
2.5
  9
$DIMTSZ
 40
0.0
  9
$DIMTOL
 70
     0
  9
$DIMLIM
 70
     0
  9
$DIMTIH
 70
     0
  9
$DIMTOH
 70
     0
  9
$DIMSE1
 70
     0
  9
$DIMSE2
 70
     0
  9
$DIMTAD
 70
     1
  9
$DIMZIN
 70
     8
  9
$DIMBLK
  1

  9
$DIMASO
 70
     1
  9
$DIMSHO
 70
     1
  9
$DIMPOST
  1

  9
$DIMAPOST
  1

  9
$DIMALT
 70
     0
  9
$DIMALTD
 70
     3
  9
$DIMALTF
 40
0.03937007874016
  9
$DIMLFAC
 40
1.0
  9
$DIMTOFL
 70
     1
  9
$DIMTVP
 40
0.0
  9
$DIMTIX
 70
     0
  9
$DIMSOXD
 70
     0
  9
$DIMSAH
 70
     0
  9
$DIMBLK1
  1

  9
$DIMBLK2
  1

  9
$DIMSTYLE
  2
ISO-25
  9
$DIMCLRD
 70
     0
  9
$DIMCLRE
 70
     0
  9
$DIMCLRT
 70
     0
  9
$DIMTFAC
 40
1.0
  9
$DIMGAP
 40
0.625
  9
$DIMJUST
 70
     0
  9
$DIMSD1
 70
     0
  9
$DIMSD2
 70
     0
  9
$DIMTOLJ
 70
     0
  9
$DIMTZIN
 70
     8
  9
$DIMALTZ
 70
     0
  9
$DIMALTTZ
 70
     0
  9
$DIMFIT
 70
     3
  9
$DIMUPT
 70
     0
  9
$DIMUNIT
 70
     2
  9
$DIMDEC
 70
     2
  9
$DIMTDEC
 70
     2
  9
$DIMALTU
 70
     2
  9
$DIMALTTD
 70
     3
  9
$DIMTXSTY
  7
STANDARD
  9
$DIMAUNIT
 70
     0
  9
$LUNITS
 70
     2
  9
$LUPREC
 70
     4
  9
$SKETCHINC
 40
1.0
  9
$FILLETRAD
 40
10.0
  9
$AUNITS
 70
     0
  9
$AUPREC
 70
     0
  9
$MENU
  1
.
  9
$ELEVATION
 40
0.0
  9
$PELEVATION
 40
0.0
  9
$THICKNESS
 40
0.0
  9
$LIMCHECK
 70
     0
  9
$BLIPMODE
 70
     0
  9
$CHAMFERA
 40
10.0
  9
$CHAMFERB
 40
10.0
  9
$CHAMFERC
 40
20.0
  9
$CHAMFERD
 40
0.0
  9
$SKPOLY
 70
     0
  9
$TDCREATE
 40
2454229.831238900
  9
$TDUPDATE
 40
2455006.467965416
  9
$TDINDWG
 40
0.0029356250
  9
$TDUSRTIMER
 40
0.0029336343
  9
$USRTIMER
 70
     1
  9
$ANGBASE
 50
0.0
  9
$ANGDIR
 70
     0
  9
$PDMODE
 70
     0
  9
$PDSIZE
 40
0.0
  9
$PLINEWID
 40
0.0
  9
$COORDS
 70
     1
  9
$SPLFRAME
 70
     0
  9
$SPLINETYPE
 70
     6
  9
$SPLINESEGS
 70
     8
  9
$ATTDIA
 70
     0
  9
$ATTREQ
 70
     1
  9
$HANDLING
 70
 22529
  9
$HANDSEED
  5
CD4
  9
$SURFTAB1
 70
     6
  9
$SURFTAB2
 70
     6
  9
$SURFTYPE
 70
     6
  9
$SURFU
 70
     6
  9
$SURFV
 70
     6
  9
$UCSNAME
  2

  9
$UCSORG
 10
0.0
 20
0.0
 30
0.0
  9
$UCSXDIR
 10
1.0
 20
0.0
 30
0.0
  9
$UCSYDIR
 10
0.0
 20
1.0
 30
0.0
  9
$PUCSNAME
  2

  9
$PUCSORG
 10
0.0
 20
0.0
 30
0.0
  9
$PUCSXDIR
 10
1.0
 20
0.0
 30
0.0
  9
$PUCSYDIR
 10
0.0
 20
1.0
 30
0.0
  9
$USERI1
 70
     0
  9
$USERI2
 70
     0
  9
$USERI3
 70
     0
  9
$USERI4
 70
     0
  9
$USERI5
 70
     0
  9
$USERR1
 40
0.0
  9
$USERR2
 40
0.0
  9
$USERR3
 40
0.0
  9
$USERR4
 40
0.0
  9
$USERR5
 40
0.0
  9
$WORLDVIEW
 70
     1
  9
$SHADEDGE
 70
     3
  9
$SHADEDIF
 70
    70
  9
$TILEMODE
 70
     1
  9
$MAXACTVP
 70
    64
  9
$PINSBASE
 10
0.0
 20
0.0
 30
0.0
  9
$PLIMCHECK
 70
     0
  9
$PEXTMIN
 10
1.000000000000000E+20
 20
1.000000000000000E+20
 30
1.000000000000000E+20
  9
$PEXTMAX
 10
-1.000000000000000E+20
 20
-1.000000000000000E+20
 30
-1.000000000000000E+20
  9
$PLIMMIN
 10
0.0
 20
0.0
  9
$PLIMMAX
 10
420.0
 20
297.0
  9
$UNITMODE
 70
     0
  9
$VISRETAIN
 70
     1
  9
$PLINEGEN
 70
     0
  9
$PSLTSCALE
 70
     1
  9
$TREEDEPTH
 70
  3020
  9
$PICKSTYLE
 70
     1
  9
$CMLSTYLE
  2
STANDARD
  9
$CMLJUST
 70
     0
  9
$CMLSCALE
 40
20.0
  9
$PROXYGRAPHICS
 70
     1
  9
$MEASUREMENT
 70
     1
  0
ENDSEC
  0
SECTION
  2
CLASSES
  0
CLASS
  1
ACDBDICTIONARYWDFLT
  2
AcDbDictionaryWithDefault
  3
AutoCAD 2000
 90
        0
280
     0
281
     0
  0
CLASS
  1
ACDBPLACEHOLDER
  2
AcDbPlaceHolder
  3
AutoCAD 2000
 90
        0
280
     0
281
     0
  0
CLASS
  1
LAYOUT
  2
AcDbLayout
  3
AutoCAD 2000
 90
        0
280
     0
281
     0
  0
CLASS
  1
DICTIONARYVAR
  2
AcDbDictionaryVar
  3
AutoCAD 2000
 90
        0
280
     0
281
     0
  0
CLASS
  1
LONG_TRANSACTION
  2
AcDbLongTransaction
  3
AutoCAD 2000
 90
        0
280
     0
281
     0
  0
CLASS
  1
LWPOLYLINE
  2
AcDbPolyline
  3
AutoCAD 2000
 90
        0
280
     0
281
     1
  0
CLASS
  1
HATCH
  2
AcDbHatch
  3
AutoCAD 2000
 90
        0
280
     0
281
     1
  0
CLASS
  1
XRECORD
  2
AcDbXrecord
  3
AutoCAD 2000
 90
        0
280
     0
281
     0
  0
CLASS
  1
LONG_TRANSACTION
  2
AcDbLongTransaction
  3
AutoCAD 2000
 90
        0
280
     0
281
     0
  0
CLASS
  1
LWPOLYLINE
  2
AcDbPolyline
  3
AutoCAD 2000
 90
        0
280
     0
281
     1
  0
CLASS
  1
HATCH
  2
AcDbHatch
  3
AutoCAD 2000
 90
        0
280
     0
281
     1
  0
CLASS
  1
XRECORD
  2
AcDbXrecord
  3
AutoCAD 2000
 90
        0
280
     0
281
     0
  0
ENDSEC
  0
SECTION
  2
TABLES
  0
TABLE
  2
VPORT
  5
8
330
0
100
AcDbSymbolTable
 70
     2
  0
VPORT
  5
CB1
330
8
100
AcDbSymbolTableRecord
100
AcDbViewportTableRecord
  2
*ACTIVE
 70
     0
 10
0.0
 20
0.0
 11
1.0
 21
1.0
 12
69.33964530315662
 22
150.6977688621108
 13
0.0
 23
0.0
 14
10.0
 24
10.0
 15
10.0
 25
10.0
 16
0.0
 26
0.0
 36
1.0
 17
0.0
 27
0.0
 37
0.0
 40
304.3448488140159
 41
1.668975069252077
 42
50.0
 43
0.0
 44
0.0
 50
0.0
 51
0.0
 71
     0
 72
   100
 73
     1
 74
     3
 75
     0
 76
     0
 77
     0
 78
     0
  0
ENDTAB
  0
TABLE
  2
LTYPE
  5
5
330
0
100
AcDbSymbolTable
 70
     1
  0
LTYPE
  5
14
330
5
100
AcDbSymbolTableRecord
100
AcDbLinetypeTableRecord
  2
BYBLOCK
 70
     0
  3

 72
    65
 73
     0
 40
0.0
  0
LTYPE
  5
15
330
5
100
AcDbSymbolTableRecord
100
AcDbLinetypeTableRecord
  2
BYLAYER
 70
     0
  3

 72
    65
 73
     0
 40
0.0
  0
LTYPE
  5
16
330
5
100
AcDbSymbolTableRecord
100
AcDbLinetypeTableRecord
  2
CONTINUOUS
 70
     0
  3
Solid line
 72
    65
 73
     0
 40
0.0
  0
ENDTAB
  0
TABLE
  2
LAYER
  5
2
102
{ACAD_XDICTIONARY
360
2E
102
}
330
0
100
AcDbSymbolTable
 70
     2
  0
LAYER
  5
10
330
2
100
AcDbSymbolTableRecord
100
AcDbLayerTableRecord
  2
0
 70
     0
 62
     7
  6
CONTINUOUS
  0
LAYER
  5
2C
330
2
100
AcDbSymbolTableRecord
100
AcDbLayerTableRecord
  2
中心線
 70
     0
 62
   160
  6
CONTINUOUS
  0
ENDTAB
  0
TABLE
  2
STYLE
  5
3
330
0
100
AcDbSymbolTable
 70
     1
  0
STYLE
  5
11
330
3
100
AcDbSymbolTableRecord
100
AcDbTextStyleTableRecord
  2
STANDARD
 70
     0
 40
0.0
 41
1.0
 50
0.0
 71
     0
 42
2.5
  3
txt
  4

  0
ENDTAB
  0
TABLE
  2
VIEW
  5
6
330
0
100
AcDbSymbolTable
 70
     0
  0
ENDTAB
  0
TABLE
  2
UCS
  5
7
330
0
100
AcDbSymbolTable
 70
     0
  0
ENDTAB
  0
TABLE
  2
APPID
  5
9
330
0
100
AcDbSymbolTable
 70
     1
  0
APPID
  5
12
330
9
100
AcDbSymbolTableRecord
100
AcDbRegAppTableRecord
  2
ACAD
 70
     0
  0
ENDTAB
  0
TABLE
  2
DIMSTYLE
  5
A
330
0
100
AcDbSymbolTable
 70
     2
  0
DIMSTYLE
105
27
330
A
100
AcDbSymbolTableRecord
100
AcDbDimStyleTableRecord
  2
ISO-25
 70
     0
  3

  4

  5

  6

  7

 40
1.0
 41
2.5
 42
0.625
 43
3.75
 44
1.25
 45
0.0
 46
0.0
 47
0.0
 48
0.0
140
2.5
141
2.5
142
0.0
143
0.03937007874016
144
1.0
145
0.0
146
1.0
147
0.625
 71
     0
 72
     0
 73
     0
 74
     0
 75
     0
 76
     0
 77
     1
 78
     8
170
     0
171
     3
172
     1
173
     0
174
     0
175
     0
176
     0
177
     0
178
     0
270
     2
271
     2
272
     2
273
     2
274
     3
340
11
275
     0
280
     0
281
     0
282
     0
283
     0
284
     8
285
     0
286
     0
287
     3
288
     0
  0
DIMSTYLE
105
2D
330
A
100
AcDbSymbolTableRecord
100
AcDbDimStyleTableRecord
  2
STANDARD
 70
     0
  3

  4

  5

  6

  7

 40
1.0
 41
2.5
 42
0.625
 43
3.75
 44
1.25
 45
0.0
 46
0.0
 47
0.0
 48
0.0
140
2.5
141
2.5
142
0.0
143
0.0394
144
1.0
145
0.0
146
1.0
147
0.625
 71
     0
 72
     0
 73
     0
 74
     0
 75
     0
 76
     0
 77
     1
 78
     8
170
     0
171
     4
172
     1
173
     0
174
     0
175
     0
176
     0
177
     0
178
     0
270
     2
271
     4
272
     4
273
     8
274
     4
340
11
275
     0
280
     0
281
     0
282
     0
283
     1
284
     0
285
     0
286
     0
287
     3
288
     0
  0
ENDTAB
  0
TABLE
  2
BLOCK_RECORD
  5
1
330
0
100
AcDbSymbolTable
 70
     0
  0
BLOCK_RECORD
  5
1F
102
{ACAD_XDICTIONARY
360
CA6
102
}
330
1
100
AcDbSymbolTableRecord
100
AcDbBlockTableRecord
  2
*MODEL_SPACE
  0
BLOCK_RECORD
  5
1B
102
{ACAD_XDICTIONARY
360
CA4
102
}
330
1
100
AcDbSymbolTableRecord
100
AcDbBlockTableRecord
  2
*PAPER_SPACE
  0
ENDTAB
  0
ENDSEC
  0
SECTION
  2
BLOCKS
  0
BLOCK
  5
20
330
1F
100
AcDbEntity
  8
0
100
AcDbBlockBegin
  2
*MODEL_SPACE
 70
     0
 10
0.0
 20
0.0
 30
0.0
  3
*MODEL_SPACE
  1

  0
ENDBLK
  5
21
330
1F
100
AcDbEntity
  8
0
100
AcDbBlockEnd
  0
BLOCK
  5
1C
330
1B
100
AcDbEntity
 67
     1
  8
0
100
AcDbBlockBegin
  2
*PAPER_SPACE
 70
     0
 10
0.0
 20
0.0
 30
0.0
  3
*PAPER_SPACE
  1

  0
ENDBLK
  5
1D
330
1B
100
AcDbEntity
 67
     1
  8
0
100
AcDbBlockEnd
  0
ENDSEC
  0
SECTION
  2
ENTITIES
  0
LINE
  5
610
330
1F
100
AcDbEntity
  8
0
100
AcDbLine
 10
63.2716134919702
 20
178.7830695032292
 30
0.0
 11
63.2716134919702
 21
181.6830695032292
 31
0.0
  0
LINE
  5
611
330
1F
100
AcDbEntity
  8
0
100
AcDbLine
 10
54.08151763635277
 20
178.7830695032292
 30
0.0
 11
57.78399362899135
 21
183.723057852103
 31
0.0
  0
LINE
  5
612
330
1F
100
AcDbEntity
  8
0
100
AcDbLine
 10
75.93188749197004
 20
222.6807245032291
 30
0.0
 11
75.9318874919699
 21
74.40257450322942
 31
0.0
  0
LINE
  5
613
330
1F
100
AcDbEntity
  8
0
100
AcDbLine
 10
70.07661349196991
 20
71.05000850322944
 30
0.0
 11
70.07661349196999
 21
226.0500085032293
 31
0.0
  0
LINE
  5
614
330
1F
100
AcDbEntity
  8
0
100
AcDbLine
 10
137.3766134919695
 20
224.0484205032291
 30
0.0
 11
137.3766134919695
 21
73.05155750322912
 31
0.0
  0
LINE
  5
615
330
1F
100
AcDbEntity
  8
0
100
AcDbLine
 10
70.56093949196969
 20
71.05000850322944
 30
0.0
 11
70.56093949196982
 21
226.0500085032293
 31
0.0
  0
LINE
  5
616
330
1F
100
AcDbEntity
  8
0
100
AcDbLine
 10
70.83209049196959
 20
69.50396750322934
 30
0.0
 11
70.83209049196972
 21
227.5960495032291
 31
0.0
  0
LINE
  5
617
330
1F
100
AcDbEntity
  8
0
100
AcDbLine
 10
138.8766134919695
 20
238.551557503229
 30
0.0
 11
138.8766134919695
 21
60.0515575032291
 31
0.0
  0
LINE
  5
618
330
1F
100
AcDbEntity
  8
0
100
AcDbLine
 10
70.47661349197011
 20
171.7021661622819
 30
0.0
 11
70.47661349197011
 21
153.802166162282
 31
0.0
  0
LINE
  5
619
330
1F
100
AcDbEntity
  8
0
100
AcDbLine
 10
89.87661349196974
 20
198.7242138335773
 30
0.0
 11
89.87661349196962
 21
98.36398403036136
 31
0.0
  0
LINE
  5
61A
330
1F
100
AcDbEntity
  8
0
100
AcDbLine
 10
90.37661349196964
 20
98.61018350322906
 30
0.0
 11
90.37661349196977
 21
198.4929315032291
 31
0.0
  0
LINE
  5
61B
330
1F
100
AcDbEntity
  8
0
100
AcDbLine
 10
137.3766134919695
 20
96.55155750322904
 30
0.0
 11
137.3766134919695
 21
200.551557503229
 31
0.0
  0
LINE
  5
61C
330
1F
100
AcDbEntity
  8
0
100
AcDbLine
 10
137.3766134919695
 20
85.54864650322917
 30
0.0
 11
137.3766134919695
 21
211.5544685032291
 31
0.0
  0
LINE
  5
61D
330
1F
100
AcDbEntity
  8
0
100
AcDbLine
 10
76.90888549197012
 20
223.6804595032293
 30
0.0
 11
136.3536114919696
 21
225.048155503229
 31
0.0
  0
LINE
  5
61E
330
1F
100
AcDbEntity
  8
0
100
AcDbLine
 10
70.75409649196996
 20
228.5720235032293
 30
0.0
 11
136.3766134919695
 21
230.0500085032293
 31
0.0
  0
LINE
  5
61F
330
1F
100
AcDbEntity
  8
0
100
AcDbLine
 10
69.77661349196982
 20
227.5722775032293
 30
0.0
 11
69.77661349196982
 21
226.0500085032293
 31
0.0
  0
ARC
  5
620
330
1F
100
AcDbEntity
  8
0
100
AcDbCircle
 10
70.77661349196984
 20
227.5722775032293
 30
0.0
 40
1.0
100
AcDbArc
 50
91.29022700000518
 51
180.0
  0
ARC
  5
621
330
1F
100
AcDbEntity
  8
0
100
AcDbCircle
 10
71.83209049196982
 20
227.5960495032291
 30
0.0
 40
1.0
100
AcDbArc
 50
91.29022700000518
 51
180.0
  0
LINE
  5
622
330
1F
100
AcDbEntity
  8
0
100
AcDbLine
 10
70.56093949196982
 20
226.0500085032293
 30
0.0
 11
69.77661349196982
 21
226.0500085032293
 31
0.0
  0
ARC
  5
623
330
1F
100
AcDbEntity
  8
0
100
AcDbCircle
 10
76.93188749197005
 20
222.6807245032291
 30
0.0
 40
1.0
100
AcDbArc
 50
91.31802100000401
 51
180.0
  0
LINE
  5
624
330
1F
100
AcDbEntity
  8
0
100
AcDbLine
 10
136.3766134919695
 20
230.0500085032293
 30
0.0
 11
136.3766134919695
 21
238.551557503229
 31
0.0
  0
LINE
  5
625
330
1F
100
AcDbEntity
  8
0
100
AcDbLine
 10
136.3766134919695
 20
238.551557503229
 30
0.0
 11
138.8766134919695
 21
238.551557503229
 31
0.0
  0
ARC
  5
626
330
1F
100
AcDbEntity
  8
0
100
AcDbCircle
 10
136.3766134919697
 20
224.0484205032291
 30
0.0
 40
1.0
100
AcDbArc
 50
0.0
 51
91.31802100000401
  0
LINE
  5
627
330
1F
100
AcDbEntity
  8
0
100
AcDbLine
 10
136.3766134919695
 20
230.0500085032293
 30
0.0
 11
136.3766134919695
 21
225.0486845032291
 31
0.0
  0
LINE
  5
628
330
1F
100
AcDbEntity
  8
0
100
AcDbLine
 10
132.8766134919695
 20
209.051557503229
 30
0.0
 11
137.3766134919695
 21
209.051557503229
 31
0.0
  0
LINE
  5
629
330
1F
100
AcDbEntity
  8
0
100
AcDbLine
 10
132.8766134919695
 20
203.051557503229
 30
0.0
 11
137.3766134919695
 21
203.051557503229
 31
0.0
  0
LINE
  5
62A
330
1F
100
AcDbEntity
  8
0
100
AcDbLine
 10
127.8766134919695
 20
203.051557503229
 30
0.0
 11
127.8766134919695
 21
209.051557503229
 31
0.0
  0
LINE
  5
62B
330
1F
100
AcDbEntity
  8
0
100
AcDbLine
 10
132.8766134919695
 20
203.051557503229
 30
0.0
 11
132.8766134919695
 21
209.051557503229
 31
0.0
  0
LINE
  5
62C
330
1F
100
AcDbEntity
  8
0
100
AcDbLine
 10
131.3766134919695
 20
203.051557503229
 30
0.0
 11
131.3766134919695
 21
209.051557503229
 31
0.0
  0
LINE
  5
62D
330
1F
100
AcDbEntity
  8
0
100
AcDbLine
 10
128.8662194919695
 20
208.5515575032291
 30
0.0
 11
128.8662194919695
 21
203.5515575032289
 31
0.0
  0
LINE
  5
62E
330
1F
100
AcDbEntity
  8
0
100
AcDbLine
 10
130.8766134919695
 20
208.5515575032291
 30
0.0
 11
130.8766134919695
 21
203.5515575032289
 31
0.0
  0
LINE
  5
62F
330
1F
100
AcDbEntity
  8
0
100
AcDbLine
 10
131.3766134919695
 20
208.5515575032291
 30
0.0
 11
131.3766134919695
 21
203.5515575032289
 31
0.0
  0
LINE
  5
630
330
1F
100
AcDbEntity
  8
0
100
AcDbLine
 10
127.8766134919695
 20
209.051557503229
 30
0.0
 11
131.3766134919695
 21
209.051557503229
 31
0.0
  0
LINE
  5
631
330
1F
100
AcDbEntity
  8
0
100
AcDbLine
 10
131.3766134919695
 20
208.5515575032291
 30
0.0
 11
128.8662194919695
 21
208.5515575032291
 31
0.0
  0
LINE
  5
632
330
1F
100
AcDbEntity
  8
0
100
AcDbLine
 10
127.8766134919695
 20
203.051557503229
 30
0.0
 11
131.3766134919695
 21
203.051557503229
 31
0.0
  0
LINE
  5
633
330
1F
100
AcDbEntity
  8
0
100
AcDbLine
 10
128.8662194919695
 20
203.5515575032289
 30
0.0
 11
131.3766134919695
 21
203.5515575032289
 31
0.0
  0
LINE
  5
634
330
1F
100
AcDbEntity
  8
0
100
AcDbLine
 10
90.8536117495932
 20
199.7215575032289
 30
0.0
 11
137.3766134919695
 21
200.801557503229
 31
0.0
  0
LINE
  5
635
330
1F
100
AcDbEntity
  8
0
100
AcDbLine
 10
91.35361149196951
 20
199.4926665032291
 30
0.0
 11
137.3766134919695
 21
200.551557503229
 31
0.0
  0
LINE
  5
636
330
1F
100
AcDbEntity
  8
0
100
AcDbLine
 10
70.47661349197011
 20
189.5761395032299
 30
0.0
 11
70.47661349197011
 21
179.3761395032301
 31
0.0
  0
ARC
  5
637
330
1F
100
AcDbEntity
  8
0
100
AcDbCircle
 10
90.87661063156023
 20
198.7218220119028
 30
0.0
 40
1.0
100
AcDbArc
 50
91.3180190000062
 51
180.0
  0
ARC
  5
638
330
1F
100
AcDbEntity
  8
0
100
AcDbCircle
 10
91.37661349196973
 20
198.4929315032293
 30
0.0
 40
1.0
100
AcDbArc
 50
91.31801899999315
 51
180.0
  0
LINE
  5
639
330
1F
100
AcDbEntity
  8
0
100
AcDbLine
 10
69.57661349197003
 20
174.6261395032292
 30
0.0
 11
69.57661349197014
 21
177.6261395032292
 31
0.0
  0
LINE
  5
63A
330
1F
100
AcDbEntity
  8
0
 48
0.1
100
AcDbLine
 10
70.56093949197005
 20
179.3761395032301
 30
0.0
 11
70.47661349197011
 21
179.3761395032301
 31
0.0
  0
LINE
  5
63B
330
1F
100
AcDbEntity
  8
0
100
AcDbLine
 10
69.57661349197014
 20
177.6261395032292
 30
0.0
 11
70.56093949196982
 21
177.6261395032291
 31
0.0
  0
LINE
  5
63C
330
1F
100
AcDbEntity
  8
0
100
AcDbLine
 10
69.57661349197003
 20
174.6261395032292
 30
0.0
 11
70.56093949196982
 21
174.6261395032291
 31
0.0
  0
LINE
  5
63D
330
1F
100
AcDbEntity
  8
0
 48
0.1
100
AcDbLine
 10
70.56093949196982
 20
171.7021661622819
 30
0.0
 11
70.47661349197011
 21
171.7021661622819
 31
0.0
  0
LINE
  5
63E
330
1F
100
AcDbEntity
  8
0
100
AcDbLine
 10
63.28151763635259
 20
216.7810539373395
 30
0.0
 11
70.5609394919697
 21
219.2330697202844
 31
0.0
  0
LINE
  5
63F
330
1F
100
AcDbEntity
  8
0
100
AcDbLine
 10
67.27161349197007
 20
212.5370216491314
 30
0.0
 11
67.27161349197007
 21
183.0271017914373
 31
0.0
  0
LINE
  5
640
330
1F
100
AcDbEntity
  8
0
100
AcDbLine
 10
63.28151763635259
 20
213.8810539373397
 30
0.0
 11
58.91177210710097
 21
213.8810539373397
 31
0.0
  0
LINE
  5
641
330
1F
100
AcDbEntity
  8
0
100
AcDbLine
 10
54.08151763635277
 20
216.7810539373395
 30
0.0
 11
63.28151763635259
 21
216.7810539373395
 31
0.0
  0
LINE
  5
642
330
1F
100
AcDbEntity
  8
0
100
AcDbLine
 10
54.08151763635277
 20
216.7810539373395
 30
0.0
 11
57.78399362899135
 21
211.8410655884659
 31
0.0
  0
LINE
  5
643
330
1F
100
AcDbEntity
  8
0
100
AcDbLine
 10
58.91177210710097
 20
213.8810539373397
 30
0.0
 11
58.91177210710097
 21
211.8410655884659
 31
0.0
  0
LINE
  5
644
330
1F
100
AcDbEntity
  8
0
100
AcDbLine
 10
58.91177210710097
 20
211.8410655884659
 30
0.0
 11
57.78399362899135
 21
211.8410655884659
 31
0.0
  0
LINE
  5
645
330
1F
100
AcDbEntity
  8
0
100
AcDbLine
 10
63.28151763635259
 20
216.7810539373395
 30
0.0
 11
63.28151763635259
 21
213.8810539373397
 31
0.0
  0
LINE
  5
646
330
1F
100
AcDbEntity
  8
0
100
AcDbLine
 10
63.2716134919702
 20
213.8810539373397
 30
0.0
 11
63.2716134919702
 21
216.7810539373395
 31
0.0
  0
LINE
  5
647
330
1F
100
AcDbEntity
  8
0
100
AcDbLine
 10
63.28151763635259
 20
213.8810539373397
 30
0.0
 11
67.27161349197007
 21
212.5370216491314
 31
0.0
  0
LINE
  5
648
330
1F
100
AcDbEntity
  8
0
100
AcDbLine
 10
63.28151763635259
 20
181.6830695032292
 30
0.0
 11
58.91177210710097
 21
181.6830695032292
 31
0.0
  0
LINE
  5
649
330
1F
100
AcDbEntity
  8
0
100
AcDbLine
 10
58.91177210710097
 20
181.6830695032292
 30
0.0
 11
58.91177210710097
 21
183.723057852103
 31
0.0
  0
LINE
  5
64A
330
1F
100
AcDbEntity
  8
0
100
AcDbLine
 10
58.91177210710097
 20
183.723057852103
 30
0.0
 11
57.78399362899135
 21
183.723057852103
 31
0.0
  0
LINE
  5
64B
330
1F
100
AcDbEntity
  8
0
 48
0.1
100
AcDbLine
 10
69.36305648162117
 20
184.9963125717033
 30
0.0
 11
67.2815176363526
 21
186.1980895843476
 31
0.0
  0
LINE
  5
64C
330
1F
100
AcDbEntity
  8
0
 48
0.1
100
AcDbLine
 10
69.36305648162117
 20
184.9963125717033
 30
0.0
 11
67.2815176363526
 21
183.7945355590587
 31
0.0
  0
LINE
  5
64D
330
1F
100
AcDbEntity
  8
0
100
AcDbLine
 10
63.28151763635259
 20
181.6830695032292
 30
0.0
 11
67.27161349197007
 21
183.0271017914373
 31
0.0
  0
LINE
  5
64E
330
1F
100
AcDbEntity
  8
0
100
AcDbLine
 10
103.7225884919695
 20
141.936557503229
 30
0.0
 11
108.4853884919695
 21
141.936557503229
 31
0.0
  0
LINE
  5
64F
330
1F
100
AcDbEntity
  8
0
100
AcDbLine
 10
103.7225884919695
 20
141.936557503229
 30
0.0
 11
108.4853884919695
 21
141.936557503229
 31
0.0
  0
HATCH
  5
650
330
1F
100
AcDbEntity
  8
0
100
AcDbHatch
 10
0.0
 20
0.0
 30
0.0
210
0.0
220
0.0
230
1.0
  2
SOLID
 70
     1
 71
     0
 91
        1
 92
        1
 93
       13
 72
     1
 10
109.3524257282887
 20
145.2440573381304
 11
108.2212249904598
 21
143.5356635971856
 72
     2
 10
109.2140153511689
 20
142.8782945366305
 40
1.190699999999956
 50
866.4897499999996
 51
952.2706859999995
 73
     1
 72
     1
 10
108.4853881907081
 20
141.9365573381305
 11
103.7225883156692
 21
141.9365573381305
 72
     1
 10
103.7225883156692
 20
141.9365573381305
 11
112.4808921448284
 21
153.8526168121391
 72
     2
 10
111.734673669669
 20
154.4010873986304
 40
0.9261000000000107
 50
1043.684113
 51
1135.746172
 73
     1
 72
     1
 10
112.2559384600799
 20
155.1665573381305
 11
117.4817883156691
 21
155.1665573381305
 72
     1
 10
117.4817883156691
 20
155.1665573381305
 11
120.0616383156692
 21
141.9365573381305
 72
     1
 10
120.0616383156692
 20
141.9365573381305
 11
115.1003883156693
 21
141.9365573381305
 72
     1
 10
115.1003883156693
 20
141.9365573381305
 11
114.4554258156694
 21
145.2440573381304
 72
     1
 10
114.4554258156694
 20
145.2440573381304
 11
114.1200453156692
 21
146.9639573381304
 72
     1
 10
114.1200453156692
 20
146.9639573381304
 11
113.2944933156694
 21
151.1975573381304
 72
     1
 10
113.2944933156694
 20
151.1975573381304
 11
110.4912452535317
 21
146.9639573381304
 72
     1
 10
110.4912452535317
 20
146.9639573381304
 11
109.3524257282888
 21
145.2440573381304
 97
        0
 75
     0
 76
     1
 98
        1
 10
44.44210149196964
 20
128.3372745032292
  0
HATCH
  5
651
330
1F
100
AcDbEntity
  8
0
100
AcDbHatch
 10
0.0
 20
0.0
 30
0.0
210
0.0
220
0.0
230
1.0
  2
SOLID
 70
     1
 71
     0
 91
        1
 92
        1
 93
       13
 72
     1
 10
109.3524257282884
 20
145.2440573381304
 11
108.2212249904598
 21
143.5356635971856
 72
     2
 10
109.2140153511689
 20
142.8782945366305
 40
1.190699999999956
 50
866.4897499999996
 51
952.2706859999995
 73
     1
 72
     1
 10
108.4853881907081
 20
141.9365573381305
 11
103.722588315669
 21
141.9365573381305
 72
     1
 10
103.722588315669
 20
141.9365573381305
 11
112.4808921448282
 21
153.8526168121391
 72
     2
 10
111.734673669669
 20
154.4010873986304
 40
0.9261000000000107
 50
1043.684113
 51
1135.746172
 73
     1
 72
     1
 10
112.2559384600795
 20
155.1665573381305
 11
117.481788315669
 21
155.1665573381305
 72
     1
 10
117.481788315669
 20
155.1665573381305
 11
120.061638315669
 21
141.9365573381305
 72
     1
 10
120.061638315669
 20
141.9365573381305
 11
115.1003883156691
 21
141.9365573381305
 72
     1
 10
115.1003883156691
 20
141.9365573381305
 11
114.4554258156692
 21
145.2440573381304
 72
     1
 10
114.4554258156692
 20
145.2440573381304
 11
114.120045315669
 21
146.9639573381304
 72
     1
 10
114.120045315669
 20
146.9639573381304
 11
113.2944933156692
 21
151.1975573381304
 72
     1
 10
113.2944933156692
 20
151.1975573381304
 11
110.4912452535317
 21
146.9639573381304
 72
     1
 10
110.4912452535317
 20
146.9639573381304
 11
109.3524257282884
 21
145.2440573381304
 97
        0
 75
     0
 76
     1
 98
        1
 10
44.44210149196964
 20
128.3372745032292
  0
LINE
  5
652
330
1F
100
AcDbEntity
  8
0
100
AcDbLine
 10
112.4808914919695
 20
153.8526165032291
 30
0.0
 11
103.7225884919695
 21
141.936557503229
 31
0.0
  0
LINE
  5
653
330
1F
100
AcDbEntity
  8
0
100
AcDbLine
 10
112.4808914919695
 20
153.8526165032291
 30
0.0
 11
103.7225884919695
 21
141.936557503229
 31
0.0
  0
LINE
  5
654
330
1F
100
AcDbEntity
  8
0
100
AcDbLine
 10
70.47661349197011
 20
152.2221515032291
 30
0.0
 11
70.47661349196999
 21
138.8471515032291
 31
0.0
  0
ARC
  5
655
330
1F
100
AcDbEntity
  8
0
100
AcDbCircle
 10
107.0532234919693
 20
142.9829315032296
 30
0.0
 40
1.323
100
AcDbArc
 50
146.4897499999904
 51
232.2706919999964
  0
ARC
  5
656
330
1F
100
AcDbEntity
  8
0
100
AcDbCircle
 10
107.0532234919693
 20
142.9829315032296
 30
0.0
 40
1.323
100
AcDbArc
 50
146.4897499999904
 51
232.2706919999964
  0
LINE
  5
657
330
1F
100
AcDbEntity
  8
0
100
AcDbLine
 10
103.8548884919695
 20
155.1665575032294
 30
0.0
 11
101.0765884919696
 21
141.936557503229
 31
0.0
  0
LINE
  5
658
330
1F
100
AcDbEntity
  8
0
100
AcDbLine
 10
103.8548884919695
 20
155.1665575032294
 30
0.0
 11
101.0765884919696
 21
141.936557503229
 31
0.0
  0
HATCH
  5
659
330
1F
100
AcDbEntity
  8
0
100
AcDbHatch
 10
0.0
 20
0.0
 30
0.0
210
0.0
220
0.0
230
1.0
  2
SOLID
 70
     1
 71
     0
 91
        1
 92
        1
 93
        5
 72
     1
 10
96.31378831566912
 20
141.9365573381305
 11
98.76813064237603
 21
153.6239044915186
 72
     2
 10
97.34389662216921
 20
153.9229935656303
 40
1.455300000000043
 50
1068.140224
 51
1138.705292999999
 73
     1
 72
     1
 10
98.0998379120361
 20
155.1665573381305
 11
103.8548883156696
 21
155.1665573381305
 72
     1
 10
103.8548883156694
 20
155.1665573381305
 11
101.0765883156689
 21
141.9365573381305
 72
     1
 10
101.0765883156689
 20
141.9365573381305
 11
96.31378831566912
 21
141.9365573381305
 97
        0
 75
     0
 76
     1
 98
        1
 10
44.44210149196964
 20
128.3372745032292
  0
LINE
  5
65A
330
1F
100
AcDbEntity
  8
0
100
AcDbLine
 10
98.76813049196975
 20
153.6239045032291
 30
0.0
 11
96.31378849196977
 21
141.936557503229
 31
0.0
  0
LINE
  5
65B
330
1F
100
AcDbEntity
  8
0
100
AcDbLine
 10
98.76813049196975
 20
153.6239045032291
 30
0.0
 11
96.31378849196977
 21
141.936557503229
 31
0.0
  0
HATCH
  5
65C
330
1F
100
AcDbEntity
  8
0
100
AcDbHatch
 10
0.0
 20
0.0
 30
0.0
210
0.0
220
0.0
230
1.0
  2
SOLID
 70
     1
 71
     0
 91
        1
 92
        1
 93
        5
 72
     1
 10
96.31378831566912
 20
141.9365573381305
 11
98.7681306423758
 21
153.6239044915186
 72
     2
 10
97.34389662216921
 20
153.9229935656303
 40
1.455300000000043
 50
1068.140224
 51
1138.705292999999
 73
     1
 72
     1
 10
98.0998379120361
 20
155.1665573381305
 11
103.8548883156692
 21
155.1665573381305
 72
     1
 10
103.8548883156692
 20
155.1665573381305
 11
101.0765883156691
 21
141.9365573381305
 72
     1
 10
101.0765883156689
 20
141.9365573381305
 11
96.31378831566912
 21
141.9365573381305
 97
        0
 75
     0
 76
     1
 98
        1
 10
44.44210149196964
 20
128.3372745032292
  0
LINE
  5
65D
330
1F
100
AcDbEntity
  8
0
 48
0.1
100
AcDbLine
 10
70.47661349197011
 20
152.2221515032291
 30
0.0
 11
70.56093949196993
 21
152.2221515032291
 31
0.0
  0
LINE
  5
65E
330
1F
100
AcDbEntity
  8
0
 48
0.1
100
AcDbLine
 10
70.56093949196982
 20
153.802166162282
 30
0.0
 11
70.47661349197011
 21
153.802166162282
 31
0.0
  0
LINE
  5
65F
330
1F
100
AcDbEntity
  8
0
100
AcDbLine
 10
103.8548884919695
 20
155.1665575032294
 30
0.0
 11
98.0998384919696
 21
155.1665575032294
 31
0.0
  0
LINE
  5
660
330
1F
100
AcDbEntity
  8
0
100
AcDbLine
 10
103.8548884919695
 20
155.1665575032294
 30
0.0
 11
98.0998384919696
 21
155.1665575032294
 31
0.0
  0
ARC
  5
661
330
1F
100
AcDbEntity
  8
0
100
AcDbCircle
 10
97.34389649196934
 20
153.9229935032293
 30
0.0
 40
1.4553
100
AcDbArc
 50
348.1402210000031
 51
58.70528200000193
  0
ARC
  5
662
330
1F
100
AcDbEntity
  8
0
100
AcDbCircle
 10
97.34389649196934
 20
153.9229935032293
 30
0.0
 40
1.4553
100
AcDbArc
 50
348.1402210000031
 51
58.70528200000193
  0
LINE
  5
663
330
1F
100
AcDbEntity
  8
0
 48
0.1
100
AcDbLine
 10
70.47661349196999
 20
138.222151503229
 30
0.0
 11
70.56093949196982
 21
138.222151503229
 31
0.0
  0
LINE
  5
664
330
1F
100
AcDbEntity
  8
0
100
AcDbLine
 10
70.47661349196999
 20
138.8471515032291
 30
0.0
 11
70.47661349196999
 21
138.222151503229
 31
0.0
  0
LINE
  5
665
330
1F
100
AcDbEntity
  8
0
100
AcDbLine
 10
69.57661349197003
 20
133.472151503229
 30
0.0
 11
69.57661349197003
 21
136.4721515032291
 31
0.0
  0
LINE
  5
666
330
1F
100
AcDbEntity
  8
0
100
AcDbLine
 10
69.57661349197003
 20
133.472151503229
 30
0.0
 11
70.5609394919697
 21
133.4721515032289
 31
0.0
  0
LINE
  5
667
330
1F
100
AcDbEntity
  8
0
100
AcDbLine
 10
69.57661349197003
 20
136.4721515032291
 30
0.0
 11
70.5609394919697
 21
136.4721515032289
 31
0.0
  0
LINE
  5
668
330
1F
100
AcDbEntity
  8
0
100
AcDbLine
 10
101.0765884919696
 20
141.936557503229
 30
0.0
 11
96.31378849196977
 21
141.936557503229
 31
0.0
  0
LINE
  5
669
330
1F
100
AcDbEntity
  8
0
100
AcDbLine
 10
101.0765884919696
 20
141.936557503229
 30
0.0
 11
96.31378849196977
 21
141.936557503229
 31
0.0
  0
LINE
  5
66A
330
1F
100
AcDbEntity
  8
0
100
AcDbLine
 10
113.2944934919695
 20
151.1975575032293
 30
0.0
 11
115.1003884919695
 21
141.936557503229
 31
0.0
  0
LINE
  5
66B
330
1F
100
AcDbEntity
  8
0
100
AcDbLine
 10
113.2944934919695
 20
151.1975575032293
 30
0.0
 11
115.1003884919695
 21
141.936557503229
 31
0.0
  0
LINE
  5
66C
330
1F
100
AcDbEntity
  8
0
100
AcDbLine
 10
117.4817884919695
 20
155.1665575032294
 30
0.0
 11
120.0616384919696
 21
141.936557503229
 31
0.0
  0
LINE
  5
66D
330
1F
100
AcDbEntity
  8
0
100
AcDbLine
 10
117.4817884919695
 20
155.1665575032294
 30
0.0
 11
120.0616384919696
 21
141.936557503229
 31
0.0
  0
LINE
  5
66E
330
1F
100
AcDbEntity
  8
0
100
AcDbLine
 10
131.4394384919695
 20
155.1665575032294
 30
0.0
 11
128.6611384919695
 21
141.936557503229
 31
0.0
  0
LINE
  5
66F
330
1F
100
AcDbEntity
  8
0
100
AcDbLine
 10
131.4394384919695
 20
155.1665575032294
 30
0.0
 11
128.6611384919695
 21
141.936557503229
 31
0.0
  0
HATCH
  5
670
330
1F
100
AcDbEntity
  8
0
100
AcDbHatch
 10
0.0
 20
0.0
 30
0.0
210
0.0
220
0.0
230
1.0
  2
SOLID
 70
     1
 71
     0
 91
        1
 92
        1
 93
        5
 72
     1
 10
123.898338315669
 20
141.9365573381305
 11
126.352680642376
 21
153.6239044915186
 72
     2
 10
124.9284466221691
 20
153.9229935656303
 40
1.455300000000043
 50
1068.140224
 51
1138.705292999999
 73
     1
 72
     1
 10
125.6843879120359
 20
155.1665573381305
 11
131.439438315669
 21
155.1665573381305
 72
     1
 10
131.439438315669
 20
155.1665573381305
 11
128.661138315669
 21
141.9365573381305
 72
     1
 10
128.661138315669
 20
141.9365573381305
 11
123.898338315669
 21
141.9365573381305
 97
        0
 75
     0
 76
     1
 98
        1
 10
44.44210149196964
 20
128.3372745032292
  0
HATCH
  5
671
330
1F
100
AcDbEntity
  8
0
100
AcDbHatch
 10
0.0
 20
0.0
 30
0.0
210
0.0
220
0.0
230
1.0
  2
SOLID
 70
     1
 71
     0
 91
        1
 92
        1
 93
        5
 72
     1
 10
123.8983383156689
 20
141.9365573381305
 11
126.3526806423757
 21
153.6239044915186
 72
     2
 10
124.9284466221689
 20
153.9229935656303
 40
1.455300000000043
 50
1068.140224
 51
1138.705292999999
 73
     1
 72
     1
 10
125.6843879120359
 20
155.1665573381305
 11
131.4394383156687
 21
155.1665573381305
 72
     1
 10
131.439438315669
 20
155.1665573381305
 11
128.6611383156692
 21
141.9365573381305
 72
     1
 10
128.661138315669
 20
141.9365573381305
 11
123.8983383156689
 21
141.9365573381305
 97
        0
 75
     0
 76
     1
 98
        1
 10
44.44210149196964
 20
128.3372745032292
  0
LINE
  5
672
330
1F
100
AcDbEntity
  8
0
100
AcDbLine
 10
126.3526804919694
 20
153.6239045032291
 30
0.0
 11
123.8983384919694
 21
141.936557503229
 31
0.0
  0
LINE
  5
673
330
1F
100
AcDbEntity
  8
0
100
AcDbLine
 10
126.3526804919694
 20
153.6239045032291
 30
0.0
 11
123.8983384919694
 21
141.936557503229
 31
0.0
  0
LINE
  5
674
330
1F
100
AcDbEntity
  8
0
100
AcDbLine
 10
131.4394384919695
 20
155.1665575032294
 30
0.0
 11
125.6843884919695
 21
155.1665575032294
 31
0.0
  0
LINE
  5
675
330
1F
100
AcDbEntity
  8
0
100
AcDbLine
 10
131.4394384919695
 20
155.1665575032294
 30
0.0
 11
125.6843884919695
 21
155.1665575032294
 31
0.0
  0
LINE
  5
676
330
1F
100
AcDbEntity
  8
0
100
AcDbLine
 10
112.2559384919697
 20
155.1665575032294
 30
0.0
 11
117.4817884919695
 21
155.1665575032294
 31
0.0
  0
LINE
  5
677
330
1F
100
AcDbEntity
  8
0
100
AcDbLine
 10
112.2559384919697
 20
155.1665575032294
 30
0.0
 11
117.4817884919695
 21
155.1665575032294
 31
0.0
  0
ARC
  5
678
330
1F
100
AcDbEntity
  8
0
100
AcDbCircle
 10
111.7346734919694
 20
154.4010875032293
 30
0.0
 40
0.9261000000000001
100
AcDbArc
 50
323.6841139999928
 51
55.74619900000189
  0
ARC
  5
679
330
1F
100
AcDbEntity
  8
0
100
AcDbCircle
 10
111.7346734919694
 20
154.4010875032293
 30
0.0
 40
0.9261000000000001
100
AcDbArc
 50
323.6841139999928
 51
55.74619900000189
  0
ARC
  5
67A
330
1F
100
AcDbEntity
  8
0
100
AcDbCircle
 10
124.9284464919693
 20
153.9229935032293
 30
0.0
 40
1.4553
100
AcDbArc
 50
348.1402210000031
 51
58.70528200000193
  0
ARC
  5
67B
330
1F
100
AcDbEntity
  8
0
100
AcDbCircle
 10
124.9284464919693
 20
153.9229935032293
 30
0.0
 40
1.4553
100
AcDbArc
 50
348.1402210000031
 51
58.70528200000193
  0
LINE
  5
67C
330
1F
100
AcDbEntity
  8
0
100
AcDbLine
 10
113.2944934919695
 20
151.1975575032293
 30
0.0
 11
108.2212244919695
 21
143.5356635032291
 31
0.0
  0
LINE
  5
67D
330
1F
100
AcDbEntity
  8
0
100
AcDbLine
 10
113.2944934919695
 20
151.1975575032293
 30
0.0
 11
108.2212244919695
 21
143.5356635032291
 31
0.0
  0
SOLID
  5
67E
330
1F
100
AcDbEntity
  8
0
100
AcDbTrace
 10
109.3524254919693
 20
145.2440575032295
 30
0.0
 11
110.4912454919694
 21
146.9639575032295
 31
0.0
 12
114.4554254919692
 22
145.2440575032295
 32
0.0
 13
114.1200454919693
 23
146.9639575032295
 33
0.0
  0
SOLID
  5
67F
330
1F
100
AcDbEntity
  8
0
100
AcDbTrace
 10
109.3524254919693
 20
145.2440575032295
 30
0.0
 11
110.4912454919694
 21
146.9639575032295
 31
0.0
 12
114.4554254919692
 22
145.2440575032295
 32
0.0
 13
114.1200454919693
 23
146.9639575032295
 33
0.0
  0
LINE
  5
680
330
1F
100
AcDbEntity
  8
0
100
AcDbLine
 10
128.6611384919695
 20
141.936557503229
 30
0.0
 11
123.8983384919694
 21
141.936557503229
 31
0.0
  0
LINE
  5
681
330
1F
100
AcDbEntity
  8
0
100
AcDbLine
 10
128.6611384919695
 20
141.936557503229
 30
0.0
 11
123.8983384919694
 21
141.936557503229
 31
0.0
  0
LINE
  5
682
330
1F
100
AcDbEntity
  8
0
100
AcDbLine
 10
115.1003884919695
 20
141.936557503229
 30
0.0
 11
120.0616384919696
 21
141.936557503229
 31
0.0
  0
LINE
  5
683
330
1F
100
AcDbEntity
  8
0
100
AcDbLine
 10
115.1003884919695
 20
141.936557503229
 30
0.0
 11
120.0616384919696
 21
141.936557503229
 31
0.0
  0
LINE
  5
684
330
1F
100
AcDbEntity
  8
0
100
AcDbLine
 10
90.66559422936967
 20
97.38155750322896
 30
0.0
 11
137.3766134919695
 21
96.30155750322906
 31
0.0
  0
LINE
  5
685
330
1F
100
AcDbEntity
  8
0
100
AcDbLine
 10
91.35361149196951
 20
97.61044850322932
 30
0.0
 11
137.3766134919695
 21
96.55155750322904
 31
0.0
  0
ARC
  5
686
330
1F
100
AcDbEntity
  8
0
100
AcDbCircle
 10
90.87638218379089
 20
98.35886608743185
 30
0.0
 40
0.9997817914353085
100
AcDbArc
 50
179.706698188669
 51
257.828771090005
  0
ARC
  5
687
330
1F
100
AcDbEntity
  8
0
100
AcDbCircle
 10
91.37661349196941
 20
98.61018350322936
 30
0.0
 40
1.0
100
AcDbArc
 50
180.0
 51
268.6819809999938
  0
LINE
  5
688
330
1F
100
AcDbEntity
  8
0
100
AcDbLine
 10
127.8766134919695
 20
94.0515575032291
 30
0.0
 11
127.8766134919695
 21
88.0515575032291
 31
0.0
  0
LINE
  5
689
330
1F
100
AcDbEntity
  8
0
100
AcDbLine
 10
128.8662194919693
 20
88.55155750322911
 30
0.0
 11
128.8662194919693
 21
93.55155750322913
 31
0.0
  0
LINE
  5
68A
330
1F
100
AcDbEntity
  8
0
100
AcDbLine
 10
130.8766134919695
 20
88.55155750322911
 30
0.0
 11
130.8766134919695
 21
93.55155750322913
 31
0.0
  0
LINE
  5
68B
330
1F
100
AcDbEntity
  8
0
100
AcDbLine
 10
132.8766134919695
 20
94.0515575032291
 30
0.0
 11
132.8766134919695
 21
88.0515575032291
 31
0.0
  0
LINE
  5
68C
330
1F
100
AcDbEntity
  8
0
100
AcDbLine
 10
131.3766134919695
 20
94.0515575032291
 30
0.0
 11
131.3766134919695
 21
88.0515575032291
 31
0.0
  0
LINE
  5
68D
330
1F
100
AcDbEntity
  8
0
100
AcDbLine
 10
131.3766134919695
 20
88.55155750322911
 30
0.0
 11
131.3766134919695
 21
93.55155750322913
 31
0.0
  0
LINE
  5
68E
330
1F
100
AcDbEntity
  8
0
100
AcDbLine
 10
132.8766134919695
 20
94.0515575032291
 30
0.0
 11
137.3766134919695
 21
94.0515575032291
 31
0.0
  0
LINE
  5
68F
330
1F
100
AcDbEntity
  8
0
100
AcDbLine
 10
127.8766134919695
 20
94.0515575032291
 30
0.0
 11
131.3766134919695
 21
94.0515575032291
 31
0.0
  0
LINE
  5
690
330
1F
100
AcDbEntity
  8
0
100
AcDbLine
 10
128.8662194919693
 20
93.55155750322913
 30
0.0
 11
131.3766134919695
 21
93.55155750322913
 31
0.0
  0
LINE
  5
691
330
1F
100
AcDbEntity
  8
0
100
AcDbLine
 10
132.8766134919695
 20
88.0515575032291
 30
0.0
 11
137.3766134919695
 21
88.0515575032291
 31
0.0
  0
LINE
  5
692
330
1F
100
AcDbEntity
  8
0
100
AcDbLine
 10
127.8766134919695
 20
88.0515575032291
 30
0.0
 11
131.3766134919695
 21
88.0515575032291
 31
0.0
  0
LINE
  5
693
330
1F
100
AcDbEntity
  8
0
100
AcDbLine
 10
131.3766134919695
 20
88.55155750322911
 30
0.0
 11
128.8662194919693
 21
88.55155750322911
 31
0.0
  0
LINE
  5
694
330
1F
100
AcDbEntity
  8
0
100
AcDbLine
 10
63.28151763635259
 20
178.7830695032292
 30
0.0
 11
70.5609394919697
 21
176.3310537202847
 31
0.0
  0
LINE
  5
695
330
1F
100
AcDbEntity
  8
0
100
AcDbLine
 10
54.08151763635277
 20
178.7830695032292
 30
0.0
 11
63.28151763635259
 21
178.7830695032292
 31
0.0
  0
LINE
  5
696
330
1F
100
AcDbEntity
  8
0
100
AcDbLine
 10
136.3538924919697
 20
72.05181550322916
 30
0.0
 11
76.90916549196974
 21
73.40283250322922
 31
0.0
  0
LINE
  5
697
330
1F
100
AcDbEntity
  8
0
100
AcDbLine
 10
70.75409649196982
 20
68.52799350322944
 30
0.0
 11
136.3766134919695
 21
67.05000850322939
 31
0.0
  0
ARC
  5
698
330
1F
100
AcDbEntity
  8
0
100
AcDbCircle
 10
76.93188749196965
 20
74.40257450322935
 30
0.0
 40
1.0
100
AcDbArc
 50
180.0
 51
268.6980460000063
  0
LINE
  5
699
330
1F
100
AcDbEntity
  8
0
100
AcDbLine
 10
70.56093949196969
 20
71.05000850322944
 30
0.0
 11
69.77661349196971
 21
71.05000850322944
 31
0.0
  0
LINE
  5
69A
330
1F
100
AcDbEntity
  8
0
100
AcDbLine
 10
69.77661349196971
 20
69.5277395032293
 30
0.0
 11
69.77661349196971
 21
71.05000850322944
 31
0.0
  0
ARC
  5
69B
330
1F
100
AcDbEntity
  8
0
100
AcDbCircle
 10
70.77661349196947
 20
69.52773950322924
 30
0.0
 40
1.0
100
AcDbArc
 50
180.0
 51
268.7097729999947
  0
ARC
  5
69C
330
1F
100
AcDbEntity
  8
0
100
AcDbCircle
 10
71.83209049196936
 20
69.50396750322929
 30
0.0
 40
1.0
100
AcDbArc
 50
180.0
 51
268.7097729999947
  0
LINE
  5
69D
330
1F
100
AcDbEntity
  8
0
100
AcDbLine
 10
136.3766134919695
 20
60.0515575032291
 30
0.0
 11
136.3766134919695
 21
67.05000850322939
 31
0.0
  0
ARC
  5
69E
330
1F
100
AcDbEntity
  8
0
100
AcDbCircle
 10
136.3766134919694
 20
73.05155750322912
 30
0.0
 40
1.0
100
AcDbArc
 50
268.698046999999
 51
0.0
  0
LINE
  5
69F
330
1F
100
AcDbEntity
  8
0
100
AcDbLine
 10
136.3766134919695
 20
67.05000850322939
 30
0.0
 11
136.3766134919695
 21
72.05129850322926
 31
0.0
  0
LINE
  5
6A0
330
1F
100
AcDbEntity
  8
0
100
AcDbLine
 10
136.3766134919695
 20
60.0515575032291
 30
0.0
 11
138.8766134919695
 21
60.0515575032291
 31
0.0
  0
LINE
  5
6A1
330
1F
100
AcDbEntity
  8
0
100
AcDbLine
 10
77.91648749196939
 20
0.9155261694699774
 30
0.0
 11
137.3612144919695
 21
0.0000001694701979
 31
0.0
  0
LINE
  5
6A2
330
1F
100
AcDbEntity
  8
0
100
AcDbLine
 10
77.91648749196943
 20
34.0852771694701
 30
0.0
 11
137.3612144919695
 21
35.00080216947021
 31
0.0
  0
LINE
  5
6A3
330
1F
100
AcDbEntity
  8
0
100
AcDbLine
 10
78.08002849196951
 20
7.413970169470032
 30
0.0
 11
137.3766134919695
 21
6.500726169469956
 31
0.0
  0
LINE
  5
6A4
330
1F
100
AcDbEntity
  8
0
100
AcDbLine
 10
78.0780184919696
 20
27.58680116947011
 30
0.0
 11
137.3766134919695
 21
28.50007616946998
 31
0.0
  0
LINE
  5
6A5
330
1F
100
AcDbEntity
  8
0
100
AcDbLine
 10
72.6865404919696
 20
2.996503169470051
 30
0.0
 11
137.3766134919695
 21
2.000192169470166
 31
0.0
  0
LINE
  5
6A6
330
1F
100
AcDbEntity
  8
0
100
AcDbLine
 10
72.6865404919696
 20
32.0042991694699
 30
0.0
 11
137.3766134919695
 21
33.00061016947002
 31
0.0
  0
ARC
  5
6A7
330
1F
100
AcDbEntity
  8
0
100
AcDbCircle
 10
137.3766134919695
 20
0.9998811694695888
 30
0.0
 40
1.0
100
AcDbArc
 50
269.1176410000011
 51
0.0
  0
LINE
  5
6A8
330
1F
100
AcDbEntity
  8
0
100
AcDbLine
 10
137.3766134919695
 20
33.00061016947002
 30
0.0
 11
137.3766134919695
 21
2.000192169470166
 31
0.0
  0
LINE
  5
6A9
330
1F
100
AcDbEntity
  8
0
100
AcDbLine
 10
138.3766134919695
 20
33.00061016947002
 30
0.0
 11
138.3766134919695
 21
34.00092016947013
 31
0.0
  0
ARC
  5
6AA
330
1F
100
AcDbEntity
  8
0
100
AcDbCircle
 10
137.3766134919695
 20
34.00092016947005
 30
0.0
 40
1.0
100
AcDbArc
 50
0.0
 51
90.8823589999988
  0
LINE
  5
6AB
330
1F
100
AcDbEntity
  8
0
100
AcDbLine
 10
137.3766134919695
 20
33.00061016947002
 30
0.0
 11
138.3766134919695
 21
33.00061016947002
 31
0.0
  0
LINE
  5
6AC
330
1F
100
AcDbEntity
  8
0
100
AcDbLine
 10
138.3766134919695
 20
2.000192169470166
 30
0.0
 11
138.3766134919695
 21
0.9998811694699297
 31
0.0
  0
LINE
  5
6AD
330
1F
100
AcDbEntity
  8
0
100
AcDbLine
 10
138.3766134919695
 20
2.000192169470166
 30
0.0
 11
137.3766134919695
 21
2.000192169470166
 31
0.0
  0
ARC
  5
6AE
330
1F
100
AcDbEntity
  8
0
100
AcDbCircle
 10
77.93188749196945
 20
1.915408169469763
 30
0.0
 40
1.0
100
AcDbArc
 50
180.0
 51
269.1176410000011
  0
LINE
  5
6AF
330
1F
100
AcDbEntity
  8
0
100
AcDbLine
 10
83.77661349196943
 20
11.50040116946998
 30
0.0
 11
81.77661349196943
 21
11.50040116946998
 31
0.0
  0
LINE
  5
6B0
330
1F
100
AcDbEntity
  8
0
100
AcDbLine
 10
81.77661349196943
 20
23.50040116946998
 30
0.0
 11
83.77661349196943
 21
23.50040116946998
 31
0.0
  0
LINE
  5
6B1
330
1F
100
AcDbEntity
  8
0
100
AcDbLine
 10
89.77661349196941
 20
11.50040116946998
 30
0.0
 11
89.77661349196941
 21
23.50040116946998
 31
0.0
  0
LINE
  5
6B2
330
1F
100
AcDbEntity
  8
0
100
AcDbLine
 10
83.77661349196943
 20
23.50040116946998
 30
0.0
 11
83.77661349196943
 21
11.50040116946998
 31
0.0
  0
LINE
  5
6B3
330
1F
100
AcDbEntity
  8
0
100
AcDbLine
 10
95.77661349196949
 20
23.50040116946998
 30
0.0
 11
95.77661349196949
 21
11.50040116946998
 31
0.0
  0
LINE
  5
6B4
330
1F
100
AcDbEntity
  8
0
100
AcDbLine
 10
93.77661349196946
 20
11.50040116946998
 30
0.0
 11
93.77661349196946
 21
23.50040116946998
 31
0.0
  0
LINE
  5
6B5
330
1F
100
AcDbEntity
  8
0
100
AcDbLine
 10
91.7766134919695
 20
23.50040116946998
 30
0.0
 11
91.7766134919695
 21
11.50040116946998
 31
0.0
  0
LINE
  5
6B6
330
1F
100
AcDbEntity
  8
0
100
AcDbLine
 10
87.77661349196945
 20
23.50040116946998
 30
0.0
 11
87.77661349196945
 21
11.50040116946998
 31
0.0
  0
LINE
  5
6B7
330
1F
100
AcDbEntity
  8
0
100
AcDbLine
 10
85.77661349196942
 20
11.50040116946998
 30
0.0
 11
85.77661349196942
 21
23.50040116946998
 31
0.0
  0
LINE
  5
6B8
330
1F
100
AcDbEntity
  8
0
100
AcDbLine
 10
89.77661349196941
 20
23.50040116946998
 30
0.0
 11
91.7766134919695
 21
23.50040116946998
 31
0.0
  0
LINE
  5
6B9
330
1F
100
AcDbEntity
  8
0
100
AcDbLine
 10
93.77661349196946
 20
23.50040116946998
 30
0.0
 11
95.77661349196949
 21
23.50040116946998
 31
0.0
  0
LINE
  5
6BA
330
1F
100
AcDbEntity
  8
0
100
AcDbLine
 10
85.77661349196942
 20
23.50040116946998
 30
0.0
 11
87.77661349196945
 21
23.50040116946998
 31
0.0
  0
LINE
  5
6BB
330
1F
100
AcDbEntity
  8
0
100
AcDbLine
 10
91.7766134919695
 20
11.50040116946998
 30
0.0
 11
89.77661349196941
 21
11.50040116946998
 31
0.0
  0
LINE
  5
6BC
330
1F
100
AcDbEntity
  8
0
100
AcDbLine
 10
95.77661349196949
 20
11.50040116946998
 30
0.0
 11
93.77661349196946
 21
11.50040116946998
 31
0.0
  0
LINE
  5
6BD
330
1F
100
AcDbEntity
  8
0
100
AcDbLine
 10
87.77661349196945
 20
11.50040116946998
 30
0.0
 11
85.77661349196942
 21
11.50040116946998
 31
0.0
  0
ARC
  5
6BE
330
1F
100
AcDbEntity
  8
0
100
AcDbCircle
 10
170.7766134919695
 20
17.50040116946986
 30
0.0
 40
100.0
100
AcDbArc
 50
172.160173999997
 51
187.8398269999971
  0
ARC
  5
6BF
330
1F
100
AcDbEntity
  8
0
100
AcDbCircle
 10
175.7766134919695
 20
17.50040116946997
 30
0.0
 40
100.0
100
AcDbArc
 50
175.2667410000032
 51
184.7332589999966
  0
LINE
  5
6C0
330
1F
100
AcDbEntity
  8
0
100
AcDbLine
 10
81.77661349196943
 20
11.50040116946998
 30
0.0
 11
81.77661349196943
 21
23.50040116946998
 31
0.0
  0
ARC
  5
6C1
330
1F
100
AcDbEntity
  8
0
100
AcDbCircle
 10
77.93188749196945
 20
33.08539516946975
 30
0.0
 40
1.0
100
AcDbArc
 50
90.8823589999988
 51
180.0
  0
LINE
  5
6C2
330
1F
100
AcDbEntity
  8
0
100
AcDbLine
 10
76.93188749196962
 20
33.08539516947002
 30
0.0
 11
76.93188749196962
 21
32.06968416947002
 31
0.0
  0
ARC
  5
6C3
330
1F
100
AcDbEntity
  8
0
100
AcDbCircle
 10
78.11082749196945
 20
25.58707016946971
 30
0.0
 40
2.0
100
AcDbArc
 50
90.8823589999988
 51
175.2667410000032
  0
ARC
  5
6C4
330
1F
100
AcDbEntity
  8
0
100
AcDbCircle
 10
72.70193949196951
 20
31.00441816946989
 30
0.0
 40
1.0
100
AcDbArc
 50
90.88235699999987
 51
172.160173999997
  0
ARC
  5
6C5
330
1F
100
AcDbEntity
  8
0
100
AcDbCircle
 10
78.11082649196935
 20
9.413734169469664
 30
0.0
 40
2.0
100
AcDbArc
 50
184.7332589999966
 51
269.1176399999984
  0
LINE
  5
6C6
330
1F
100
AcDbEntity
  8
0
100
AcDbLine
 10
76.93188749196962
 20
1.91540816947004
 30
0.0
 11
76.93188749196962
 21
2.931120169469942
 31
0.0
  0
ARC
  5
6C7
330
1F
100
AcDbEntity
  8
0
100
AcDbCircle
 10
72.70194049196942
 20
3.996384169469954
 30
0.0
 40
1.0
100
AcDbArc
 50
187.8398269999971
 51
269.117643
  0
LINE
  5
6C8
330
1F
100
AcDbEntity
  8
0
100
AcDbLine
 10
72.68654049196952
 20
269.3951245944885
 30
0.0
 11
137.3766134919695
 21
268.3988125944888
 31
0.0
  0
LINE
  5
6C9
330
1F
100
AcDbEntity
  8
0
100
AcDbLine
 10
72.68654049196952
 20
298.4029205944884
 30
0.0
 11
137.3766134919695
 21
299.3992305944884
 31
0.0
  0
LINE
  5
6CA
330
1F
100
AcDbEntity
  8
0
100
AcDbLine
 10
78.08002849196954
 20
273.8125915944886
 30
0.0
 11
137.3766134919695
 21
272.8993465944885
 31
0.0
  0
LINE
  5
6CB
330
1F
100
AcDbEntity
  8
0
100
AcDbLine
 10
78.08002849196954
 20
293.9854535944886
 30
0.0
 11
137.3766134919695
 21
294.8986965944886
 31
0.0
  0
LINE
  5
6CC
330
1F
100
AcDbEntity
  8
0
100
AcDbLine
 10
77.91648749196962
 20
267.3141465944884
 30
0.0
 11
137.3612144919695
 21
266.3986205944888
 31
0.0
  0
LINE
  5
6CD
330
1F
100
AcDbEntity
  8
0
100
AcDbLine
 10
97.77661349196968
 20
277.8990215944886
 30
0.0
 11
99.77661349196969
 21
277.8990215944886
 31
0.0
  0
LINE
  5
6CE
330
1F
100
AcDbEntity
  8
0
100
AcDbLine
 10
77.91648749196962
 20
300.4838975944886
 30
0.0
 11
137.3612144919696
 21
301.3994225944888
 31
0.0
  0
LINE
  5
6CF
330
1F
100
AcDbEntity
  8
0
100
AcDbLine
 10
137.3766134919695
 20
268.3988125944888
 30
0.0
 11
137.3766134919695
 21
299.3992305944884
 31
0.0
  0
LINE
  5
6D0
330
1F
100
AcDbEntity
  8
0
100
AcDbLine
 10
129.7766134919696
 20
289.8990215944886
 30
0.0
 11
129.7766134919695
 21
277.8990215944886
 31
0.0
  0
LINE
  5
6D1
330
1F
100
AcDbEntity
  8
0
100
AcDbLine
 10
131.7766134919695
 20
277.8990215944886
 30
0.0
 11
131.7766134919696
 21
289.8990215944886
 31
0.0
  0
LINE
  5
6D2
330
1F
100
AcDbEntity
  8
0
100
AcDbLine
 10
138.3766134919695
 20
299.3992305944884
 30
0.0
 11
138.3766134919695
 21
300.3995415944886
 31
0.0
  0
LINE
  5
6D3
330
1F
100
AcDbEntity
  8
0
100
AcDbLine
 10
138.3766134919695
 20
299.3992305944884
 30
0.0
 11
137.3766134919695
 21
299.3992305944884
 31
0.0
  0
ARC
  5
6D4
330
1F
100
AcDbEntity
  8
0
100
AcDbCircle
 10
137.3766134919697
 20
300.3995415944883
 30
0.0
 40
1.0
100
AcDbArc
 50
0.0
 51
90.8823589999988
  0
LINE
  5
6D5
330
1F
100
AcDbEntity
  8
0
100
AcDbLine
 10
131.7766134919696
 20
289.8990215944886
 30
0.0
 11
129.7766134919696
 21
289.8990215944886
 31
0.0
  0
LINE
  5
6D6
330
1F
100
AcDbEntity
  8
0
100
AcDbLine
 10
129.7766134919695
 20
277.8990215944886
 30
0.0
 11
131.7766134919695
 21
277.8990215944886
 31
0.0
  0
LINE
  5
6D7
330
1F
100
AcDbEntity
  8
0
100
AcDbLine
 10
137.3766134919695
 20
268.3988125944888
 30
0.0
 11
138.3766134919695
 21
268.3988125944888
 31
0.0
  0
ARC
  5
6D8
330
1F
100
AcDbEntity
  8
0
100
AcDbCircle
 10
137.3766134919697
 20
267.3985025944888
 30
0.0
 40
1.0
100
AcDbArc
 50
269.1176410000011
 51
0.0
  0
LINE
  5
6D9
330
1F
100
AcDbEntity
  8
0
100
AcDbLine
 10
138.3766134919695
 20
268.3988125944888
 30
0.0
 11
138.3766134919695
 21
267.3985025944886
 31
0.0
  0
LINE
  5
6DA
330
1F
100
AcDbEntity
  8
0
100
AcDbLine
 10
115.7766134919695
 20
277.8990215944886
 30
0.0
 11
115.7766134919695
 21
289.8990215944886
 31
0.0
  0
LINE
  5
6DB
330
1F
100
AcDbEntity
  8
0
100
AcDbLine
 10
125.7766134919696
 20
289.8990215944886
 30
0.0
 11
125.7766134919695
 21
277.8990215944886
 31
0.0
  0
LINE
  5
6DC
330
1F
100
AcDbEntity
  8
0
100
AcDbLine
 10
127.7766134919695
 20
277.8990215944886
 30
0.0
 11
127.7766134919696
 21
289.8990215944886
 31
0.0
  0
LINE
  5
6DD
330
1F
100
AcDbEntity
  8
0
100
AcDbLine
 10
117.7766134919697
 20
289.8990215944886
 30
0.0
 11
117.7766134919695
 21
277.8990215944886
 31
0.0
  0
LINE
  5
6DE
330
1F
100
AcDbEntity
  8
0
100
AcDbLine
 10
119.7766134919695
 20
277.8990215944886
 30
0.0
 11
119.7766134919697
 21
289.8990215944886
 31
0.0
  0
LINE
  5
6DF
330
1F
100
AcDbEntity
  8
0
100
AcDbLine
 10
121.7766134919697
 20
289.8990215944886
 30
0.0
 11
121.7766134919695
 21
277.8990215944886
 31
0.0
  0
LINE
  5
6E0
330
1F
100
AcDbEntity
  8
0
100
AcDbLine
 10
123.7766134919695
 20
277.8990215944886
 30
0.0
 11
123.7766134919697
 21
289.8990215944886
 31
0.0
  0
LINE
  5
6E1
330
1F
100
AcDbEntity
  8
0
100
AcDbLine
 10
127.7766134919696
 20
289.8990215944886
 30
0.0
 11
125.7766134919696
 21
289.8990215944886
 31
0.0
  0
LINE
  5
6E2
330
1F
100
AcDbEntity
  8
0
100
AcDbLine
 10
123.7766134919697
 20
289.8990215944886
 30
0.0
 11
121.7766134919697
 21
289.8990215944886
 31
0.0
  0
LINE
  5
6E3
330
1F
100
AcDbEntity
  8
0
100
AcDbLine
 10
119.7766134919697
 20
289.8990215944886
 30
0.0
 11
117.7766134919697
 21
289.8990215944886
 31
0.0
  0
LINE
  5
6E4
330
1F
100
AcDbEntity
  8
0
100
AcDbLine
 10
125.7766134919695
 20
277.8990215944886
 30
0.0
 11
127.7766134919695
 21
277.8990215944886
 31
0.0
  0
LINE
  5
6E5
330
1F
100
AcDbEntity
  8
0
100
AcDbLine
 10
121.7766134919695
 20
277.8990215944886
 30
0.0
 11
123.7766134919695
 21
277.8990215944886
 31
0.0
  0
LINE
  5
6E6
330
1F
100
AcDbEntity
  8
0
100
AcDbLine
 10
113.7766134919695
 20
277.8990215944886
 30
0.0
 11
115.7766134919695
 21
277.8990215944886
 31
0.0
  0
LINE
  5
6E7
330
1F
100
AcDbEntity
  8
0
100
AcDbLine
 10
117.7766134919695
 20
277.8990215944886
 30
0.0
 11
119.7766134919695
 21
277.8990215944886
 31
0.0
  0
LINE
  5
6E8
330
1F
100
AcDbEntity
  8
0
100
AcDbLine
 10
105.7766134919695
 20
277.8990215944886
 30
0.0
 11
107.7766134919695
 21
277.8990215944886
 31
0.0
  0
LINE
  5
6E9
330
1F
100
AcDbEntity
  8
0
100
AcDbLine
 10
109.7766134919695
 20
277.8990215944886
 30
0.0
 11
111.7766134919695
 21
277.8990215944886
 31
0.0
  0
LINE
  5
6EA
330
1F
100
AcDbEntity
  8
0
100
AcDbLine
 10
101.7766134919695
 20
277.8990215944886
 30
0.0
 11
103.7766134919695
 21
277.8990215944886
 31
0.0
  0
ARC
  5
6EB
330
1F
100
AcDbEntity
  8
0
100
AcDbCircle
 10
170.7766134919696
 20
283.8990215944883
 30
0.0
 40
100.0
100
AcDbArc
 50
172.160173999997
 51
187.8398269999971
  0
ARC
  5
6EC
330
1F
100
AcDbEntity
  8
0
100
AcDbCircle
 10
175.7766134919696
 20
283.8990215944883
 30
0.0
 40
100.0
100
AcDbArc
 50
175.2667410000032
 51
184.7332589999966
  0
LINE
  5
6ED
330
1F
100
AcDbEntity
  8
0
100
AcDbLine
 10
85.77661349196967
 20
289.8990215944884
 30
0.0
 11
85.77661349196967
 21
277.8990215944884
 31
0.0
  0
LINE
  5
6EE
330
1F
100
AcDbEntity
  8
0
100
AcDbLine
 10
87.77661349196966
 20
277.8990215944884
 30
0.0
 11
87.77661349196966
 21
289.8990215944884
 31
0.0
  0
LINE
  5
6EF
330
1F
100
AcDbEntity
  8
0
100
AcDbLine
 10
81.77661349196965
 20
289.8990215944884
 30
0.0
 11
81.77661349196965
 21
277.8990215944884
 31
0.0
  0
LINE
  5
6F0
330
1F
100
AcDbEntity
  8
0
100
AcDbLine
 10
91.77661349196965
 20
277.8990215944884
 30
0.0
 11
91.77661349196965
 21
289.8990215944884
 31
0.0
  0
LINE
  5
6F1
330
1F
100
AcDbEntity
  8
0
100
AcDbLine
 10
93.77661349196968
 20
289.8990215944886
 30
0.0
 11
93.77661349196968
 21
277.8990215944886
 31
0.0
  0
LINE
  5
6F2
330
1F
100
AcDbEntity
  8
0
100
AcDbLine
 10
95.77661349196969
 20
277.8990215944886
 30
0.0
 11
95.77661349196969
 21
289.8990215944886
 31
0.0
  0
LINE
  5
6F3
330
1F
100
AcDbEntity
  8
0
100
AcDbLine
 10
83.77661349196968
 20
277.8990215944884
 30
0.0
 11
83.77661349196968
 21
289.8990215944884
 31
0.0
  0
LINE
  5
6F4
330
1F
100
AcDbEntity
  8
0
100
AcDbLine
 10
89.77661349196969
 20
289.8990215944884
 30
0.0
 11
89.77661349196969
 21
277.8990215944884
 31
0.0
  0
LINE
  5
6F5
330
1F
100
AcDbEntity
  8
0
100
AcDbLine
 10
97.77661349196968
 20
289.8990215944886
 30
0.0
 11
97.77661349196968
 21
277.8990215944886
 31
0.0
  0
LINE
  5
6F6
330
1F
100
AcDbEntity
  8
0
100
AcDbLine
 10
83.77661349196968
 20
289.8990215944884
 30
0.0
 11
81.77661349196965
 21
289.8990215944884
 31
0.0
  0
LINE
  5
6F7
330
1F
100
AcDbEntity
  8
0
100
AcDbLine
 10
91.77661349196965
 20
289.8990215944884
 30
0.0
 11
89.77661349196969
 21
289.8990215944884
 31
0.0
  0
LINE
  5
6F8
330
1F
100
AcDbEntity
  8
0
100
AcDbLine
 10
95.77661349196969
 20
289.8990215944886
 30
0.0
 11
93.77661349196968
 21
289.8990215944886
 31
0.0
  0
LINE
  5
6F9
330
1F
100
AcDbEntity
  8
0
100
AcDbLine
 10
87.77661349196966
 20
289.8990215944884
 30
0.0
 11
85.77661349196967
 21
289.8990215944884
 31
0.0
  0
ARC
  5
6FA
330
1F
100
AcDbEntity
  8
0
100
AcDbCircle
 10
77.93188749196962
 20
299.4840155944881
 30
0.0
 40
1.0
100
AcDbArc
 50
90.8823589999988
 51
180.0
  0
LINE
  5
6FB
330
1F
100
AcDbEntity
  8
0
100
AcDbLine
 10
76.93188749196962
 20
299.4840155944885
 30
0.0
 11
76.93188749196962
 21
298.4683035944886
 31
0.0
  0
ARC
  5
6FC
330
1F
100
AcDbEntity
  8
0
100
AcDbCircle
 10
78.11082749196964
 20
291.9856905944881
 30
0.0
 40
2.0
100
AcDbArc
 50
90.8823589999988
 51
175.2667410000032
  0
ARC
  5
6FD
330
1F
100
AcDbEntity
  8
0
100
AcDbCircle
 10
72.70193949196969
 20
297.4030385944886
 30
0.0
 40
1.0
100
AcDbArc
 50
90.88235699999987
 51
172.160173999997
  0
LINE
  5
6FE
330
1F
100
AcDbEntity
  8
0
100
AcDbLine
 10
81.77661349196965
 20
277.8990215944884
 30
0.0
 11
83.77661349196968
 21
277.8990215944884
 31
0.0
  0
LINE
  5
6FF
330
1F
100
AcDbEntity
  8
0
100
AcDbLine
 10
89.77661349196969
 20
277.8990215944884
 30
0.0
 11
91.77661349196965
 21
277.8990215944884
 31
0.0
  0
LINE
  5
700
330
1F
100
AcDbEntity
  8
0
100
AcDbLine
 10
93.77661349196968
 20
277.8990215944886
 30
0.0
 11
95.77661349196969
 21
277.8990215944886
 31
0.0
  0
LINE
  5
701
330
1F
100
AcDbEntity
  8
0
100
AcDbLine
 10
85.77661349196967
 20
277.8990215944884
 30
0.0
 11
87.77661349196966
 21
277.8990215944884
 31
0.0
  0
LINE
  5
702
330
1F
100
AcDbEntity
  8
0
100
AcDbLine
 10
76.93188749196962
 20
268.3140285944886
 30
0.0
 11
76.93188749196962
 21
269.3297395944886
 31
0.0
  0
ARC
  5
703
330
1F
100
AcDbEntity
  8
0
100
AcDbCircle
 10
78.11082649196953
 20
275.8123545944882
 30
0.0
 40
2.0
100
AcDbArc
 50
184.7332589999966
 51
269.1176399999984
  0
ARC
  5
704
330
1F
100
AcDbEntity
  8
0
100
AcDbCircle
 10
72.70194049196961
 20
270.3950045944886
 30
0.0
 40
1.0
100
AcDbArc
 50
187.8398269999971
 51
269.117643
  0
POINT
  5
705
330
1F
100
AcDbEntity
  8
0
100
AcDbPoint
 10
71.83209049196962
 20
269.4082825944887
 30
0.0
  0
ARC
  5
706
330
1F
100
AcDbEntity
  8
0
100
AcDbCircle
 10
77.93188749196962
 20
268.3140285944884
 30
0.0
 40
1.0
100
AcDbArc
 50
180.0
 51
269.1176410000011
  0
LWPOLYLINE
  5
707
330
1F
100
AcDbEntity
  8
0
100
AcDbPolyline
 90
        4
 70
     1
 43
0.0
 10
137.3766134919695
 20
33.00061016947002
 10
137.3766134919695
 20
2.00019216946994
 10
138.8766134919695
 20
2.00019216946994
 10
138.8766134919695
 20
33.00061016947002
  0
LINE
  5
708
330
1F
100
AcDbEntity
  8
0
100
AcDbLine
 10
137.3766134919695
 20
13.50040116946997
 30
0.0
 11
138.8766134919695
 21
13.50040116946997
 31
0.0
  0
LINE
  5
709
330
1F
100
AcDbEntity
  8
0
100
AcDbLine
 10
137.3766134919695
 20
21.50040116946996
 30
0.0
 11
138.8766134919695
 21
21.50040116946996
 31
0.0
  0
LINE
  5
70A
330
1F
100
AcDbEntity
  8
0
100
AcDbLine
 10
137.3766134919695
 20
15.00040116946997
 30
0.0
 11
138.8766134919695
 21
15.00040116946997
 31
0.0
  0
LINE
  5
70B
330
1F
100
AcDbEntity
  8
0
100
AcDbLine
 10
137.3766134919695
 20
20.00040116946997
 30
0.0
 11
138.8766134919695
 21
20.00040116946997
 31
0.0
  0
LINE
  5
70C
330
1F
100
AcDbEntity
  8
0
100
AcDbLine
 10
137.3766134919695
 20
3.50019216946994
 30
0.0
 11
138.8766134919695
 21
3.50019216946994
 31
0.0
  0
LINE
  5
70D
330
1F
100
AcDbEntity
  8
0
100
AcDbLine
 10
137.3766134919695
 20
31.50061016947002
 30
0.0
 11
138.8766134919695
 21
31.50061016947002
 31
0.0
  0
LWPOLYLINE
  5
70E
330
1F
100
AcDbEntity
  8
0
100
AcDbPolyline
 90
        4
 70
     1
 43
0.0
 10
138.8766134919695
 20
268.3988125944885
 10
138.8766134919695
 20
299.3992305944884
 10
137.3766134919695
 20
299.3992305944884
 10
137.3766134919695
 20
268.3988125944885
  0
ARC
  5
70F
330
1F
100
AcDbEntity
  8
0
100
AcDbCircle
 10
1.000000228885979
 20
224.0275395032294
 30
0.0
 40
1.0
100
AcDbArc
 50
90.0
 51
180.0
  0
ARC
  5
710
330
1F
100
AcDbEntity
  8
0
100
AcDbCircle
 10
1.00000022888595
 20
73.08839150322936
 30
0.0
 40
1.0
100
AcDbArc
 50
180.0
 51
270.0
  0
LINE
  5
711
330
1F
100
AcDbEntity
  8
0
100
AcDbLine
 10
0.000000228885952
 20
73.08839150322936
 30
0.0
 11
0.000000228885952
 21
224.0275395032294
 31
0.0
  0
LINE
  5
712
330
1F
100
AcDbEntity
  8
0
100
AcDbLine
 10
23.38511922888585
 20
165.0296725032294
 30
0.0
 11
23.38511922888584
 21
77.05568550322941
 31
0.0
  0
LINE
  5
713
330
1F
100
AcDbEntity
  8
0
100
AcDbLine
 10
10.08511922888585
 20
158.8796725032293
 30
0.0
 11
10.08511922888585
 21
144.8796725032293
 31
0.0
  0
LINE
  5
714
330
1F
100
AcDbEntity
  8
0
100
AcDbLine
 10
9.585119228885856
 20
159.3556855032293
 30
0.0
 11
9.585119228885856
 21
144.3556855032291
 31
0.0
  0
LINE
  5
715
330
1F
100
AcDbEntity
  8
0
100
AcDbLine
 10
22.88511922888585
 20
144.8796725032293
 30
0.0
 11
22.88511922888585
 21
158.8796725032293
 31
0.0
  0
LINE
  5
716
330
1F
100
AcDbEntity
  8
0
100
AcDbLine
 10
2.99283722888596
 20
227.5404535032293
 30
0.0
 11
2.992837228885931
 21
69.57493750322945
 31
0.0
  0
LINE
  5
717
330
1F
100
AcDbEntity
  8
0
100
AcDbLine
 10
4.985119228885834
 20
72.05181650322926
 30
0.0
 11
4.985119228885834
 21
225.0518165032289
 31
0.0
  0
LINE
  5
718
330
1F
100
AcDbEntity
  8
0
100
AcDbLine
 10
29.98511922888575
 20
72.05181650322926
 30
0.0
 11
29.98511922888586
 21
225.0518165032289
 31
0.0
  0
LINE
  5
719
330
1F
100
AcDbEntity
  8
0
100
AcDbLine
 10
34.05483022888586
 20
222.6767815032292
 30
0.0
 11
34.05483022888585
 21
74.42685250322918
 31
0.0
  0
LINE
  5
71A
330
1F
100
AcDbEntity
  8
0
100
AcDbLine
 10
31.97740222888595
 20
227.5404535032293
 30
0.0
 11
31.97740222888585
 21
69.57493750322945
 31
0.0
  0
LINE
  5
71B
330
1F
100
AcDbEntity
  8
0
100
AcDbLine
 10
34.97011822888585
 20
73.08839150322935
 30
0.0
 11
34.97011822888586
 21
224.0275395032294
 31
0.0
  0
LINE
  5
71C
330
1F
100
AcDbEntity
  8
0
100
AcDbLine
 10
0.9154082288858518
 20
222.6767815032292
 30
0.0
 11
0.9154082288858518
 21
74.4268525032292
 31
0.0
  0
LINE
  5
71D
330
1F
100
AcDbEntity
  8
0
100
AcDbLine
 10
5.085119228885858
 20
224.9556855032291
 30
0.0
 11
5.085119228885858
 21
72.15568550322931
 31
0.0
  0
LINE
  5
71E
330
1F
100
AcDbEntity
  8
0
100
AcDbLine
 10
29.88511922888585
 20
224.9556855032291
 30
0.0
 11
29.88511922888584
 21
72.05568550322941
 31
0.0
  0
LINE
  5
71F
330
1F
100
AcDbEntity
  8
0
100
AcDbLine
 10
17.51511922888583
 20
89.03568450322934
 30
0.0
 11
17.51511922888583
 21
85.22568450322912
 31
0.0
  0
LINE
  5
720
330
1F
100
AcDbEntity
  8
0
100
AcDbLine
 10
22.38511922888584
 20
106.7756845032292
 30
0.0
 11
22.38511922888584
 21
77.71568450322914
 31
0.0
  0
LINE
  5
721
330
1F
100
AcDbEntity
  8
0
100
AcDbLine
 10
9.185119228885852
 20
77.05568550322941
 30
0.0
 11
9.185119228885852
 21
106.9556855032294
 31
0.0
  0
ARC
  5
722
330
1F
100
AcDbEntity
  8
0
100
AcDbCircle
 10
14.48511922888583
 20
87.13068450322932
 30
0.0
 40
0.85
100
AcDbArc
 50
0.0
 51
323.2696049999991
  0
LINE
  5
723
330
1F
100
AcDbEntity
  8
0
100
AcDbLine
 10
9.685119228885852
 20
85.56568450322926
 30
0.0
 11
9.685119228885852
 21
88.66568450322917
 31
0.0
  0
LINE
  5
724
330
1F
100
AcDbEntity
  8
0
100
AcDbLine
 10
10.33511922888584
 20
88.96568450322913
 30
0.0
 11
10.33511922888584
 21
86.16568450322917
 31
0.0
  0
LINE
  5
725
330
1F
100
AcDbEntity
  8
0
100
AcDbLine
 10
11.53511922888583
 20
86.16568450322917
 30
0.0
 11
11.53511922888583
 21
88.96568450322913
 31
0.0
  0
LINE
  5
726
330
1F
100
AcDbEntity
  8
0
100
AcDbLine
 10
12.18511922888585
 20
85.56568450322926
 30
0.0
 11
12.18511922888585
 21
88.26568450322936
 31
0.0
  0
LINE
  5
727
330
1F
100
AcDbEntity
  8
0
100
AcDbLine
 10
12.33511922888586
 20
88.26568450322936
 30
0.0
 11
12.33511922888586
 21
85.22568450322912
 31
0.0
  0
CIRCLE
  5
728
330
1F
100
AcDbEntity
  8
0
100
AcDbCircle
 10
14.48511922888583
 20
87.13068450322932
 30
0.0
 40
1.564999999999999
  0
LINE
  5
729
330
1F
100
AcDbEntity
  8
0
100
AcDbLine
 10
28.48479422888584
 20
67.05181650322927
 30
0.0
 11
31.98532722888585
 21
67.05181650322927
 31
0.0
  0
ARC
  5
72A
330
1F
100
AcDbEntity
  8
0
100
AcDbCircle
 10
30.97740222888593
 20
69.57493750322945
 30
0.0
 40
1.0
100
AcDbArc
 50
270.0
 51
0.0
  0
ARC
  5
72B
330
1F
100
AcDbEntity
  8
0
100
AcDbCircle
 10
31.48532822888585
 20
61.55155150322936
 30
0.0
 40
1.5
100
AcDbArc
 50
270.0
 51
0.0
  0
LINE
  5
72C
330
1F
100
AcDbEntity
  8
0
100
AcDbLine
 10
12.83511922888584
 20
85.22568450322912
 30
0.0
 11
16.55511922888585
 21
85.22568450322912
 31
0.0
  0
LINE
  5
72D
330
1F
100
AcDbEntity
  8
0
100
AcDbLine
 10
12.83511922888584
 20
85.22568450322912
 30
0.0
 11
17.31511922888583
 21
85.22568450322912
 31
0.0
  0
LINE
  5
72E
330
1F
100
AcDbEntity
  8
0
100
AcDbLine
 10
12.83511922888584
 20
77.60568450322924
 30
0.0
 11
17.31511922888583
 21
77.60568450322924
 31
0.0
  0
LINE
  5
72F
330
1F
100
AcDbEntity
  8
0
100
AcDbLine
 10
12.83511922888584
 20
81.41568450322919
 30
0.0
 11
16.55511922888585
 21
81.41568450322919
 31
0.0
  0
LINE
  5
730
330
1F
100
AcDbEntity
  8
0
100
AcDbLine
 10
12.83511922888584
 20
81.41568450322919
 30
0.0
 11
17.31511922888583
 21
81.41568450322919
 31
0.0
  0
LINE
  5
731
330
1F
100
AcDbEntity
  8
0
100
AcDbLine
 10
9.185119228885852
 20
77.05568550322941
 30
0.0
 11
23.38511922888584
 21
77.05568550322941
 31
0.0
  0
LINE
  5
732
330
1F
100
AcDbEntity
  8
0
100
AcDbLine
 10
3.992837228885931
 20
68.57493750322944
 30
0.0
 11
30.97740222888585
 21
68.57493750322944
 31
0.0
  0
ARC
  5
733
330
1F
100
AcDbEntity
  8
0
100
AcDbCircle
 10
17.48511922888477
 20
-4327.157478496769
 30
0.0
 40
4395.595658
100
AcDbArc
 50
89.8755909999992
 51
90.12440900000077
  0
LINE
  5
734
330
1F
100
AcDbEntity
  8
0
100
AcDbLine
 10
7.161520228885834
 20
68.05181650322928
 30
0.0
 11
27.81278222888585
 21
68.05181650322928
 31
0.0
  0
ARC
  5
735
330
1F
100
AcDbEntity
  8
0
100
AcDbCircle
 10
17.48511922888583
 20
63.30155150322937
 30
0.0
 40
2.5
100
AcDbArc
 50
0.0
 51
180.0
  0
LINE
  5
736
330
1F
100
AcDbEntity
  8
0
100
AcDbLine
 10
5.985119228885722
 20
71.05181650322926
 30
0.0
 11
28.98511922888575
 21
71.05181650322926
 31
0.0
  0
LINE
  5
737
330
1F
100
AcDbEntity
  8
0
100
AcDbLine
 10
6.085119228885856
 20
71.1556855032293
 30
0.0
 11
28.88511922888584
 21
71.1556855032293
 31
0.0
  0
LINE
  5
738
330
1F
100
AcDbEntity
  8
中心線
100
AcDbLine
 10
24.98511922888585
 20
63.30155150322937
 30
0.0
 11
9.985119228885835
 21
63.30155150322937
 31
0.0
  0
LINE
  5
739
330
1F
100
AcDbEntity
  8
0
100
AcDbLine
 10
1.98491022888585
 20
68.05181650322928
 30
0.0
 11
1.98491022888585
 21
72.08839150322936
 31
0.0
  0
LINE
  5
73A
330
1F
100
AcDbEntity
  8
0
100
AcDbLine
 10
3.48491022888585
 20
60.05155150322936
 30
0.0
 11
13.48511922888582
 21
60.05155150322936
 31
0.0
  0
LINE
  5
73B
330
1F
100
AcDbEntity
  8
0
100
AcDbLine
 10
1.98491022888585
 20
61.55155150322936
 30
0.0
 11
1.98491022888585
 21
68.05181650322928
 31
0.0
  0
ARC
  5
73C
330
1F
100
AcDbEntity
  8
0
100
AcDbCircle
 10
3.992837228885931
 20
69.57493750322945
 30
0.0
 40
1.0
100
AcDbArc
 50
180.0
 51
270.0
  0
ARC
  5
73D
330
1F
100
AcDbEntity
  8
0
100
AcDbCircle
 10
3.48491022888585
 20
61.55155150322936
 30
0.0
 40
1.5
100
AcDbArc
 50
180.0
 51
270.0
  0
LINE
  5
73E
330
1F
100
AcDbEntity
  8
0
100
AcDbLine
 10
2.98491022888585
 20
67.05181650322927
 30
0.0
 11
6.485443228885841
 21
67.05181650322927
 31
0.0
  0
LINE
  5
73F
330
1F
100
AcDbEntity
  8
0
100
AcDbLine
 10
7.112950228885849
 20
67.98558850322958
 30
0.0
 11
6.485443228885841
 21
67.05181650322927
 31
0.0
  0
ARC
  5
740
330
1F
100
AcDbEntity
  8
0
100
AcDbCircle
 10
2.98491022888585
 20
68.05181650322928
 30
0.0
 40
1.0
100
AcDbArc
 50
180.0
 51
270.0
  0
ARC
  5
741
330
1F
100
AcDbEntity
  8
0
100
AcDbCircle
 10
7.942947228885927
 20
67.42782050322924
 30
0.0
 40
1.0
100
AcDbArc
 50
90.12440900000077
 51
146.0984159999965
  0
ARC
  5
742
330
1F
100
AcDbEntity
  8
0
100
AcDbCircle
 10
13.48511922888582
 20
61.55155150322936
 30
0.0
 40
1.5
100
AcDbArc
 50
270.0
 51
0.0
  0
LINE
  5
743
330
1F
100
AcDbEntity
  8
0
100
AcDbLine
 10
14.98511922888583
 20
63.30155150322937
 30
0.0
 11
14.98511922888583
 21
61.55155150322936
 31
0.0
  0
LINE
  5
744
330
1F
100
AcDbEntity
  8
0
100
AcDbLine
 10
1.98491022888585
 20
72.08839150322936
 30
0.0
 11
1.00000022888595
 21
72.08839150322936
 31
0.0
  0
ARC
  5
745
330
1F
100
AcDbEntity
  8
0
100
AcDbCircle
 10
1.91540822888585
 20
74.4268525032292
 30
0.0
 40
1.0
100
AcDbArc
 50
180.0
 51
270.0
  0
LINE
  5
746
330
1F
100
AcDbEntity
  8
0
100
AcDbLine
 10
1.98491022888585
 20
72.07609350322925
 30
0.0
 11
2.915837228885933
 21
73.42685250322919
 31
0.0
  0
LINE
  5
747
330
1F
100
AcDbEntity
  8
0
100
AcDbLine
 10
1.91540822888585
 20
73.42685250322919
 30
0.0
 11
2.915837228885933
 21
73.42685250322919
 31
0.0
  0
ARC
  5
748
330
1F
100
AcDbEntity
  8
0
100
AcDbCircle
 10
5.985119228885835
 20
72.05181650322926
 30
0.0
 40
1.0
100
AcDbArc
 50
180.0
 51
270.0
  0
ARC
  5
749
330
1F
100
AcDbEntity
  8
0
100
AcDbCircle
 10
6.085119228885856
 20
72.15568550322931
 30
0.0
 40
1.0
100
AcDbArc
 50
180.0
 51
270.0
  0
ARC
  5
74A
330
1F
100
AcDbEntity
  8
0
100
AcDbCircle
 10
9.985119228885835
 20
84.85568450322924
 30
0.0
 40
0.3
100
AcDbArc
 50
90.0
 51
180.0
  0
LINE
  5
74B
330
1F
100
AcDbEntity
  8
0
100
AcDbLine
 10
12.33511922888586
 20
85.22568450322912
 30
0.0
 11
12.33511922888586
 21
85.1556845032292
 31
0.0
  0
ARC
  5
74C
330
1F
100
AcDbEntity
  8
0
100
AcDbCircle
 10
14.48511922888583
 20
83.32068450322916
 30
0.0
 40
0.85
100
AcDbArc
 50
0.0
 51
323.2696049999991
  0
ARC
  5
74D
330
1F
100
AcDbEntity
  8
0
100
AcDbCircle
 10
14.48511922888583
 20
79.5106845032292
 30
0.0
 40
0.85
100
AcDbArc
 50
0.0
 51
323.2696049999991
  0
LINE
  5
74E
330
1F
100
AcDbEntity
  8
0
100
AcDbLine
 10
12.33511922888586
 20
80.64568450322919
 30
0.0
 11
12.33511922888586
 21
77.60568450322924
 31
0.0
  0
LINE
  5
74F
330
1F
100
AcDbEntity
  8
0
100
AcDbLine
 10
12.18511922888585
 20
77.94568450322916
 30
0.0
 11
12.18511922888585
 21
80.64568450322919
 31
0.0
  0
LINE
  5
750
330
1F
100
AcDbEntity
  8
0
100
AcDbLine
 10
9.685119228885852
 20
77.94568450322916
 30
0.0
 11
9.685119228885852
 21
81.04568450322929
 31
0.0
  0
ARC
  5
751
330
1F
100
AcDbEntity
  8
0
100
AcDbCircle
 10
11.23511922888582
 20
78.54568450322931
 30
0.0
 40
0.3
100
AcDbArc
 50
270.0
 51
0.0
  0
ARC
  5
752
330
1F
100
AcDbEntity
  8
0
100
AcDbCircle
 10
10.63511922888592
 20
78.54568450322931
 30
0.0
 40
0.3
100
AcDbArc
 50
180.0
 51
270.0
  0
LINE
  5
753
330
1F
100
AcDbEntity
  8
0
100
AcDbLine
 10
12.83511922888584
 20
77.60568450322924
 30
0.0
 11
12.33511922888586
 21
77.60568450322924
 31
0.0
  0
LINE
  5
754
330
1F
100
AcDbEntity
  8
0
100
AcDbLine
 10
11.78511922888583
 20
77.6456845032292
 30
0.0
 11
11.88511922888584
 21
77.6456845032292
 31
0.0
  0
LINE
  5
755
330
1F
100
AcDbEntity
  8
0
100
AcDbLine
 10
10.63511922888584
 20
78.24568450322934
 30
0.0
 11
11.23511922888575
 21
78.24568450322934
 31
0.0
  0
LINE
  5
756
330
1F
100
AcDbEntity
  8
0
100
AcDbLine
 10
12.83511922888584
 20
85.22568450322912
 30
0.0
 11
12.33511922888586
 21
85.22568450322912
 31
0.0
  0
ARC
  5
757
330
1F
100
AcDbEntity
  8
0
100
AcDbCircle
 10
10.63511922888592
 20
86.16568450322917
 30
0.0
 40
0.3
100
AcDbArc
 50
180.0
 51
270.0
  0
ARC
  5
758
330
1F
100
AcDbEntity
  8
0
100
AcDbCircle
 10
9.985119228885835
 20
85.56568450322926
 30
0.0
 40
0.3
100
AcDbArc
 50
180.0
 51
270.0
  0
ARC
  5
759
330
1F
100
AcDbEntity
  8
0
100
AcDbCircle
 10
11.88511922888592
 20
85.56568450322926
 30
0.0
 40
0.3
100
AcDbArc
 50
270.0
 51
0.0
  0
ARC
  5
75A
330
1F
100
AcDbEntity
  8
0
100
AcDbCircle
 10
11.23511922888582
 20
86.16568450322917
 30
0.0
 40
0.3
100
AcDbArc
 50
270.0
 51
0.0
  0
LINE
  5
75B
330
1F
100
AcDbEntity
  8
0
100
AcDbLine
 10
9.985119228885835
 20
85.26568450322931
 30
0.0
 11
10.08511922888585
 21
85.26568450322931
 31
0.0
  0
LINE
  5
75C
330
1F
100
AcDbEntity
  8
0
100
AcDbLine
 10
10.08511922888585
 20
85.26568450322931
 30
0.0
 11
11.78511922888583
 21
85.26568450322931
 31
0.0
  0
LINE
  5
75D
330
1F
100
AcDbEntity
  8
0
100
AcDbLine
 10
10.63511922888584
 20
85.86568450322925
 30
0.0
 11
11.23511922888575
 21
85.86568450322925
 31
0.0
  0
LINE
  5
75E
330
1F
100
AcDbEntity
  8
0
100
AcDbLine
 10
11.78511922888583
 20
85.26568450322931
 30
0.0
 11
11.88511922888584
 21
85.26568450322931
 31
0.0
  0
LINE
  5
75F
330
1F
100
AcDbEntity
  8
0
100
AcDbLine
 10
12.83511922888584
 20
85.22568450322912
 30
0.0
 11
12.33511922888586
 21
85.22568450322912
 31
0.0
  0
ARC
  5
760
330
1F
100
AcDbEntity
  8
0
100
AcDbCircle
 10
14.48511922888583
 20
87.13068450322932
 30
0.0
 40
0.85
100
AcDbArc
 50
323.2696049999991
 51
0.0
  0
LINE
  5
761
330
1F
100
AcDbEntity
  8
0
100
AcDbLine
 10
10.08511922888585
 20
77.6456845032292
 30
0.0
 11
11.78511922888583
 21
77.6456845032292
 31
0.0
  0
LINE
  5
762
330
1F
100
AcDbEntity
  8
0
100
AcDbLine
 10
9.985119228885835
 20
77.6456845032292
 30
0.0
 11
10.08511922888585
 21
77.6456845032292
 31
0.0
  0
ARC
  5
763
330
1F
100
AcDbEntity
  8
0
100
AcDbCircle
 10
11.88511922888592
 20
77.94568450322916
 30
0.0
 40
0.3
100
AcDbArc
 50
270.0
 51
0.0
  0
ARC
  5
764
330
1F
100
AcDbEntity
  8
0
100
AcDbCircle
 10
9.985119228885835
 20
77.94568450322916
 30
0.0
 40
0.3
100
AcDbArc
 50
180.0
 51
270.0
  0
LINE
  5
765
330
1F
100
AcDbEntity
  8
0
100
AcDbLine
 10
12.33511922888586
 20
85.1556845032292
 30
0.0
 11
12.33511922888586
 21
84.45568450322914
 31
0.0
  0
LINE
  5
766
330
1F
100
AcDbEntity
  8
0
100
AcDbLine
 10
10.33511922888584
 20
85.1556845032292
 30
0.0
 11
10.33511922888584
 21
82.35568450322924
 31
0.0
  0
LINE
  5
767
330
1F
100
AcDbEntity
  8
0
100
AcDbLine
 10
12.18511922888585
 20
84.45568450322914
 30
0.0
 11
12.18511922888585
 21
85.1556845032292
 31
0.0
  0
LINE
  5
768
330
1F
100
AcDbEntity
  8
0
100
AcDbLine
 10
11.53511922888583
 20
82.35568450322924
 30
0.0
 11
11.53511922888583
 21
85.1556845032292
 31
0.0
  0
ARC
  5
769
330
1F
100
AcDbEntity
  8
0
100
AcDbCircle
 10
10.63511922888592
 20
82.35568450322924
 30
0.0
 40
0.3
100
AcDbArc
 50
180.0
 51
270.0
  0
ARC
  5
76A
330
1F
100
AcDbEntity
  8
0
100
AcDbCircle
 10
11.23511922888582
 20
82.35568450322924
 30
0.0
 40
0.3
100
AcDbArc
 50
270.0
 51
0.0
  0
LINE
  5
76B
330
1F
100
AcDbEntity
  8
0
100
AcDbLine
 10
9.985119228885835
 20
81.45568450322917
 30
0.0
 11
10.08511922888585
 21
81.45568450322917
 31
0.0
  0
LINE
  5
76C
330
1F
100
AcDbEntity
  8
0
100
AcDbLine
 10
10.08511922888585
 20
81.45568450322917
 30
0.0
 11
11.78511922888583
 21
81.45568450322917
 31
0.0
  0
LINE
  5
76D
330
1F
100
AcDbEntity
  8
0
100
AcDbLine
 10
9.685119228885852
 20
81.75568450322932
 30
0.0
 11
9.685119228885852
 21
84.85568450322924
 31
0.0
  0
LINE
  5
76E
330
1F
100
AcDbEntity
  8
0
100
AcDbLine
 10
10.63511922888584
 20
82.05568450322928
 30
0.0
 11
11.23511922888575
 21
82.05568450322928
 31
0.0
  0
LINE
  5
76F
330
1F
100
AcDbEntity
  8
0
100
AcDbLine
 10
11.78511922888583
 20
81.45568450322917
 30
0.0
 11
11.88511922888584
 21
81.45568450322917
 31
0.0
  0
LINE
  5
770
330
1F
100
AcDbEntity
  8
0
100
AcDbLine
 10
12.18511922888585
 20
84.45568450322914
 30
0.0
 11
12.33511922888586
 21
84.45568450322914
 31
0.0
  0
LINE
  5
771
330
1F
100
AcDbEntity
  8
0
100
AcDbLine
 10
12.18511922888585
 20
81.75568450322932
 30
0.0
 11
12.18511922888585
 21
84.45568450322914
 31
0.0
  0
LINE
  5
772
330
1F
100
AcDbEntity
  8
0
100
AcDbLine
 10
9.985119228885835
 20
85.1556845032292
 30
0.0
 11
10.08511922888585
 21
85.1556845032292
 31
0.0
  0
LINE
  5
773
330
1F
100
AcDbEntity
  8
0
100
AcDbLine
 10
10.63511922888584
 20
85.1556845032292
 30
0.0
 11
11.23511922888575
 21
85.1556845032292
 31
0.0
  0
LINE
  5
774
330
1F
100
AcDbEntity
  8
0
100
AcDbLine
 10
10.08511922888585
 20
85.1556845032292
 30
0.0
 11
10.33511922888584
 21
85.1556845032292
 31
0.0
  0
LINE
  5
775
330
1F
100
AcDbEntity
  8
0
100
AcDbLine
 10
10.63511922888584
 20
85.1556845032292
 30
0.0
 11
10.33511922888584
 21
85.1556845032292
 31
0.0
  0
LINE
  5
776
330
1F
100
AcDbEntity
  8
0
100
AcDbLine
 10
11.78511922888583
 20
85.1556845032292
 30
0.0
 11
12.18511922888585
 21
85.1556845032292
 31
0.0
  0
LINE
  5
777
330
1F
100
AcDbEntity
  8
0
100
AcDbLine
 10
12.18511922888585
 20
85.1556845032292
 30
0.0
 11
12.33511922888586
 21
85.1556845032292
 31
0.0
  0
LINE
  5
778
330
1F
100
AcDbEntity
  8
0
100
AcDbLine
 10
11.53511922888583
 20
85.1556845032292
 30
0.0
 11
11.78511922888583
 21
85.1556845032292
 31
0.0
  0
LINE
  5
779
330
1F
100
AcDbEntity
  8
0
100
AcDbLine
 10
11.53511922888583
 20
85.1556845032292
 30
0.0
 11
11.23511922888575
 21
85.1556845032292
 31
0.0
  0
LINE
  5
77A
330
1F
100
AcDbEntity
  8
0
100
AcDbLine
 10
12.33511922888586
 20
81.41568450322919
 30
0.0
 11
12.33511922888586
 21
81.34568450322923
 31
0.0
  0
LINE
  5
77B
330
1F
100
AcDbEntity
  8
0
100
AcDbLine
 10
12.33511922888586
 20
81.34568450322923
 30
0.0
 11
12.33511922888586
 21
80.64568450322919
 31
0.0
  0
LINE
  5
77C
330
1F
100
AcDbEntity
  8
0
100
AcDbLine
 10
12.83511922888584
 20
81.41568450322919
 30
0.0
 11
12.33511922888586
 21
81.41568450322919
 31
0.0
  0
LINE
  5
77D
330
1F
100
AcDbEntity
  8
0
100
AcDbLine
 10
11.53511922888583
 20
81.34568450322923
 30
0.0
 11
11.23511922888575
 21
81.34568450322923
 31
0.0
  0
LINE
  5
77E
330
1F
100
AcDbEntity
  8
0
100
AcDbLine
 10
11.53511922888583
 20
81.34568450322923
 30
0.0
 11
11.78511922888583
 21
81.34568450322923
 31
0.0
  0
LINE
  5
77F
330
1F
100
AcDbEntity
  8
0
100
AcDbLine
 10
12.18511922888585
 20
81.34568450322923
 30
0.0
 11
12.33511922888586
 21
81.34568450322923
 31
0.0
  0
LINE
  5
780
330
1F
100
AcDbEntity
  8
0
100
AcDbLine
 10
11.78511922888583
 20
81.34568450322923
 30
0.0
 11
12.18511922888585
 21
81.34568450322923
 31
0.0
  0
LINE
  5
781
330
1F
100
AcDbEntity
  8
0
100
AcDbLine
 10
11.53511922888583
 20
78.54568450322931
 30
0.0
 11
11.53511922888583
 21
81.34568450322923
 31
0.0
  0
LINE
  5
782
330
1F
100
AcDbEntity
  8
0
100
AcDbLine
 10
12.18511922888585
 20
80.64568450322919
 30
0.0
 11
12.33511922888586
 21
80.64568450322919
 31
0.0
  0
LINE
  5
783
330
1F
100
AcDbEntity
  8
0
100
AcDbLine
 10
12.18511922888585
 20
80.64568450322919
 30
0.0
 11
12.18511922888585
 21
81.34568450322923
 31
0.0
  0
LINE
  5
784
330
1F
100
AcDbEntity
  8
0
100
AcDbLine
 10
10.63511922888584
 20
81.34568450322923
 30
0.0
 11
10.33511922888584
 21
81.34568450322923
 31
0.0
  0
LINE
  5
785
330
1F
100
AcDbEntity
  8
0
100
AcDbLine
 10
10.08511922888585
 20
81.34568450322923
 30
0.0
 11
10.33511922888584
 21
81.34568450322923
 31
0.0
  0
LINE
  5
786
330
1F
100
AcDbEntity
  8
0
100
AcDbLine
 10
10.33511922888584
 20
81.34568450322923
 30
0.0
 11
10.33511922888584
 21
78.54568450322931
 31
0.0
  0
LINE
  5
787
330
1F
100
AcDbEntity
  8
0
100
AcDbLine
 10
10.63511922888584
 20
81.34568450322923
 30
0.0
 11
11.23511922888575
 21
81.34568450322923
 31
0.0
  0
LINE
  5
788
330
1F
100
AcDbEntity
  8
0
100
AcDbLine
 10
9.985119228885835
 20
81.34568450322923
 30
0.0
 11
10.08511922888585
 21
81.34568450322923
 31
0.0
  0
ARC
  5
789
330
1F
100
AcDbEntity
  8
0
100
AcDbCircle
 10
9.985119228885835
 20
81.04568450322929
 30
0.0
 40
0.3
100
AcDbArc
 50
90.0
 51
180.0
  0
LINE
  5
78A
330
1F
100
AcDbEntity
  8
0
100
AcDbLine
 10
12.83511922888584
 20
81.41568450322919
 30
0.0
 11
12.33511922888586
 21
81.41568450322919
 31
0.0
  0
LINE
  5
78B
330
1F
100
AcDbEntity
  8
0
100
AcDbLine
 10
12.33511922888586
 20
84.45568450322914
 30
0.0
 11
12.33511922888586
 21
81.41568450322919
 31
0.0
  0
ARC
  5
78C
330
1F
100
AcDbEntity
  8
0
100
AcDbCircle
 10
9.985119228885835
 20
81.75568450322932
 30
0.0
 40
0.3
100
AcDbArc
 50
180.0
 51
270.0
  0
ARC
  5
78D
330
1F
100
AcDbEntity
  8
0
100
AcDbCircle
 10
11.88511922888592
 20
81.75568450322932
 30
0.0
 40
0.3
100
AcDbArc
 50
270.0
 51
0.0
  0
ARC
  5
78E
330
1F
100
AcDbEntity
  8
0
100
AcDbCircle
 10
14.48511922888583
 20
83.32068450322916
 30
0.0
 40
0.85
100
AcDbArc
 50
323.2696049999991
 51
0.0
  0
ARC
  5
78F
330
1F
100
AcDbEntity
  8
0
100
AcDbCircle
 10
14.48511922888583
 20
79.5106845032292
 30
0.0
 40
0.85
100
AcDbArc
 50
323.2696049999991
 51
0.0
  0
CIRCLE
  5
790
330
1F
100
AcDbEntity
  8
0
100
AcDbCircle
 10
14.48511922888583
 20
83.32068450322916
 30
0.0
 40
1.564999999999999
  0
CIRCLE
  5
791
330
1F
100
AcDbEntity
  8
0
100
AcDbCircle
 10
14.48511922888583
 20
79.5106845032292
 30
0.0
 40
1.564999999999999
  0
LINE
  5
792
330
1F
100
AcDbEntity
  8
中心線
100
AcDbLine
 10
17.48511922888575
 20
70.80155150322939
 30
0.0
 11
17.48511922888575
 21
55.80155150322937
 31
0.0
  0
LINE
  5
793
330
1F
100
AcDbEntity
  8
0
100
AcDbLine
 10
21.48511922888582
 20
60.05155150322936
 30
0.0
 11
31.48532822888585
 21
60.05155150322936
 31
0.0
  0
ARC
  5
794
330
1F
100
AcDbEntity
  8
0
100
AcDbCircle
 10
21.48511922888582
 20
61.55155150322936
 30
0.0
 40
1.5
100
AcDbArc
 50
180.0
 51
270.0
  0
LINE
  5
795
330
1F
100
AcDbEntity
  8
0
100
AcDbLine
 10
19.98511922888583
 20
63.30155150322937
 30
0.0
 11
19.98511922888583
 21
61.55155150322936
 31
0.0
  0
ARC
  5
796
330
1F
100
AcDbEntity
  8
0
100
AcDbCircle
 10
27.02729122888594
 20
67.42782050322924
 30
0.0
 40
1.0
100
AcDbArc
 50
33.90158400000335
 51
89.8755909999992
  0
LINE
  5
797
330
1F
100
AcDbEntity
  8
0
100
AcDbLine
 10
27.85728822888585
 20
67.98558850322958
 30
0.0
 11
28.48479422888584
 21
67.05181650322927
 31
0.0
  0
LINE
  5
798
330
1F
100
AcDbEntity
  8
0
100
AcDbLine
 10
22.38511922888584
 20
85.22568450322912
 30
0.0
 11
21.88511922888584
 21
85.22568450322912
 31
0.0
  0
LINE
  5
799
330
1F
100
AcDbEntity
  8
0
100
AcDbLine
 10
22.38511922888584
 20
85.22568450322912
 30
0.0
 11
21.88511922888584
 21
85.22568450322912
 31
0.0
  0
LINE
  5
79A
330
1F
100
AcDbEntity
  8
0
100
AcDbLine
 10
16.55511922888585
 20
85.22568450322912
 30
0.0
 11
17.31511922888583
 21
85.22568450322912
 31
0.0
  0
LINE
  5
79B
330
1F
100
AcDbEntity
  8
0
100
AcDbLine
 10
17.51511922888583
 20
85.22568450322912
 30
0.0
 11
17.31511922888583
 21
85.22568450322912
 31
0.0
  0
LINE
  5
79C
330
1F
100
AcDbEntity
  8
0
100
AcDbLine
 10
18.08511922888586
 20
85.22568450322912
 30
0.0
 11
19.48511922888575
 21
85.22568450322912
 31
0.0
  0
LINE
  5
79D
330
1F
100
AcDbEntity
  8
0
100
AcDbLine
 10
17.95511922888582
 20
85.22568450322912
 30
0.0
 11
18.08511922888586
 21
85.22568450322912
 31
0.0
  0
LINE
  5
79E
330
1F
100
AcDbEntity
  8
0
100
AcDbLine
 10
17.51511922888583
 20
85.22568450322912
 30
0.0
 11
17.95511922888582
 21
85.22568450322912
 31
0.0
  0
LINE
  5
79F
330
1F
100
AcDbEntity
  8
0
100
AcDbLine
 10
17.51511922888583
 20
85.22568450322912
 30
0.0
 11
17.31511922888583
 21
85.22568450322912
 31
0.0
  0
LINE
  5
7A0
330
1F
100
AcDbEntity
  8
0
100
AcDbLine
 10
19.48511922888575
 20
85.22568450322912
 30
0.0
 11
21.88511922888584
 21
85.22568450322912
 31
0.0
  0
LINE
  5
7A1
330
1F
100
AcDbEntity
  8
0
100
AcDbLine
 10
17.51511922888583
 20
85.22568450322912
 30
0.0
 11
21.88511922888584
 21
85.22568450322912
 31
0.0
  0
LINE
  5
7A2
330
1F
100
AcDbEntity
  8
0
100
AcDbLine
 10
22.38511922888584
 20
86.63568450322925
 30
0.0
 11
22.88511922888584
 21
86.63568450322925
 31
0.0
  0
LINE
  5
7A3
330
1F
100
AcDbEntity
  8
0
100
AcDbLine
 10
22.38511922888584
 20
85.33568450322926
 30
0.0
 11
22.88511922888584
 21
85.33568450322926
 31
0.0
  0
LINE
  5
7A4
330
1F
100
AcDbEntity
  8
0
100
AcDbLine
 10
22.88511922888584
 20
86.63568450322925
 30
0.0
 11
22.88511922888584
 21
86.23568450322911
 31
0.0
  0
LINE
  5
7A5
330
1F
100
AcDbEntity
  8
0
100
AcDbLine
 10
22.88511922888584
 20
86.23568450322911
 30
0.0
 11
22.88511922888584
 21
85.73568450322913
 31
0.0
  0
LINE
  5
7A6
330
1F
100
AcDbEntity
  8
0
100
AcDbLine
 10
22.88511922888584
 20
85.73568450322913
 30
0.0
 11
22.88511922888584
 21
85.33568450322926
 31
0.0
  0
LINE
  5
7A7
330
1F
100
AcDbEntity
  8
0
100
AcDbLine
 10
22.38511922888584
 20
85.33568450322926
 30
0.0
 11
22.38511922888584
 21
85.22568450322912
 31
0.0
  0
LINE
  5
7A8
330
1F
100
AcDbEntity
  8
0
100
AcDbLine
 10
17.51511922888583
 20
85.22568450322912
 30
0.0
 11
17.51511922888583
 21
81.41568450322919
 31
0.0
  0
LINE
  5
7A9
330
1F
100
AcDbEntity
  8
0
100
AcDbLine
 10
22.88511922888584
 20
78.61568450322923
 30
0.0
 11
22.88511922888584
 21
78.11568450322923
 31
0.0
  0
LINE
  5
7AA
330
1F
100
AcDbEntity
  8
0
100
AcDbLine
 10
17.51511922888583
 20
81.41568450322919
 30
0.0
 11
17.51511922888583
 21
77.60568450322924
 31
0.0
  0
LINE
  5
7AB
330
1F
100
AcDbEntity
  8
0
100
AcDbLine
 10
22.38511922888584
 20
77.60568450322924
 30
0.0
 11
21.88511922888584
 21
77.60568450322924
 31
0.0
  0
LINE
  5
7AC
330
1F
100
AcDbEntity
  8
0
100
AcDbLine
 10
17.51511922888583
 20
77.60568450322924
 30
0.0
 11
17.31511922888583
 21
77.60568450322924
 31
0.0
  0
LINE
  5
7AD
330
1F
100
AcDbEntity
  8
0
100
AcDbLine
 10
17.51511922888583
 20
77.60568450322924
 30
0.0
 11
21.88511922888584
 21
77.60568450322924
 31
0.0
  0
LINE
  5
7AE
330
1F
100
AcDbEntity
  8
0
100
AcDbLine
 10
22.38511922888584
 20
77.71568450322914
 30
0.0
 11
22.38511922888584
 21
77.60568450322924
 31
0.0
  0
LINE
  5
7AF
330
1F
100
AcDbEntity
  8
0
100
AcDbLine
 10
22.88511922888584
 20
78.11568450322923
 30
0.0
 11
22.88511922888584
 21
77.71568450322914
 31
0.0
  0
LINE
  5
7B0
330
1F
100
AcDbEntity
  8
0
100
AcDbLine
 10
22.38511922888584
 20
77.71568450322914
 30
0.0
 11
22.88511922888584
 21
77.71568450322914
 31
0.0
  0
LINE
  5
7B1
330
1F
100
AcDbEntity
  8
0
100
AcDbLine
 10
22.38511922888584
 20
81.41568450322919
 30
0.0
 11
21.88511922888584
 21
81.41568450322919
 31
0.0
  0
LINE
  5
7B2
330
1F
100
AcDbEntity
  8
0
100
AcDbLine
 10
22.38511922888584
 20
81.41568450322919
 30
0.0
 11
21.88511922888584
 21
81.41568450322919
 31
0.0
  0
LINE
  5
7B3
330
1F
100
AcDbEntity
  8
0
100
AcDbLine
 10
16.55511922888585
 20
81.41568450322919
 30
0.0
 11
17.31511922888583
 21
81.41568450322919
 31
0.0
  0
LINE
  5
7B4
330
1F
100
AcDbEntity
  8
0
100
AcDbLine
 10
17.51511922888583
 20
81.41568450322919
 30
0.0
 11
17.95511922888582
 21
81.41568450322919
 31
0.0
  0
LINE
  5
7B5
330
1F
100
AcDbEntity
  8
0
100
AcDbLine
 10
17.95511922888582
 20
81.41568450322919
 30
0.0
 11
18.08511922888586
 21
81.41568450322919
 31
0.0
  0
LINE
  5
7B6
330
1F
100
AcDbEntity
  8
0
100
AcDbLine
 10
18.08511922888586
 20
81.41568450322919
 30
0.0
 11
19.48511922888575
 21
81.41568450322919
 31
0.0
  0
LINE
  5
7B7
330
1F
100
AcDbEntity
  8
0
100
AcDbLine
 10
17.51511922888583
 20
81.41568450322919
 30
0.0
 11
17.31511922888583
 21
81.41568450322919
 31
0.0
  0
LINE
  5
7B8
330
1F
100
AcDbEntity
  8
0
100
AcDbLine
 10
17.51511922888583
 20
81.41568450322919
 30
0.0
 11
17.31511922888583
 21
81.41568450322919
 31
0.0
  0
LINE
  5
7B9
330
1F
100
AcDbEntity
  8
0
100
AcDbLine
 10
19.48511922888575
 20
81.41568450322919
 30
0.0
 11
21.88511922888584
 21
81.41568450322919
 31
0.0
  0
LINE
  5
7BA
330
1F
100
AcDbEntity
  8
0
100
AcDbLine
 10
17.51511922888583
 20
81.41568450322919
 30
0.0
 11
21.88511922888584
 21
81.41568450322919
 31
0.0
  0
LINE
  5
7BB
330
1F
100
AcDbEntity
  8
0
100
AcDbLine
 10
22.38511922888584
 20
82.82568450322928
 30
0.0
 11
22.88511922888584
 21
82.82568450322928
 31
0.0
  0
LINE
  5
7BC
330
1F
100
AcDbEntity
  8
0
100
AcDbLine
 10
22.38511922888584
 20
81.52568450322929
 30
0.0
 11
22.88511922888584
 21
81.52568450322929
 31
0.0
  0
LINE
  5
7BD
330
1F
100
AcDbEntity
  8
0
100
AcDbLine
 10
22.88511922888584
 20
82.82568450322928
 30
0.0
 11
22.88511922888584
 21
82.42568450322917
 31
0.0
  0
LINE
  5
7BE
330
1F
100
AcDbEntity
  8
0
100
AcDbLine
 10
22.88511922888584
 20
82.42568450322917
 30
0.0
 11
22.88511922888584
 21
81.92568450322919
 31
0.0
  0
LINE
  5
7BF
330
1F
100
AcDbEntity
  8
0
100
AcDbLine
 10
22.88511922888584
 20
81.92568450322919
 30
0.0
 11
22.88511922888584
 21
81.52568450322929
 31
0.0
  0
LINE
  5
7C0
330
1F
100
AcDbEntity
  8
0
100
AcDbLine
 10
22.88511922888584
 20
79.01568450322931
 30
0.0
 11
22.88511922888584
 21
78.61568450322923
 31
0.0
  0
LINE
  5
7C1
330
1F
100
AcDbEntity
  8
0
100
AcDbLine
 10
22.38511922888584
 20
79.01568450322931
 30
0.0
 11
22.88511922888584
 21
79.01568450322931
 31
0.0
  0
LINE
  5
7C2
330
1F
100
AcDbEntity
  8
0
100
AcDbLine
 10
22.38511922888584
 20
81.52568450322929
 30
0.0
 11
22.38511922888584
 21
81.41568450322919
 31
0.0
  0
ARC
  5
7C3
330
1F
100
AcDbEntity
  8
0
100
AcDbCircle
 10
28.98511922888585
 20
72.05181650322926
 30
0.0
 40
1.0
100
AcDbArc
 50
270.0
 51
0.0
  0
ARC
  5
7C4
330
1F
100
AcDbEntity
  8
0
100
AcDbCircle
 10
28.88511922888584
 20
72.15568550322931
 30
0.0
 40
1.0
100
AcDbArc
 50
270.0
 51
0.0
  0
LINE
  5
7C5
330
1F
100
AcDbEntity
  8
0
100
AcDbLine
 10
32.98532722888585
 20
68.05181650322928
 30
0.0
 11
32.98532722888585
 21
72.08839150322936
 31
0.0
  0
LINE
  5
7C6
330
1F
100
AcDbEntity
  8
0
100
AcDbLine
 10
32.98532822888585
 20
61.55155150322936
 30
0.0
 11
32.98532822888585
 21
72.11068450322912
 31
0.0
  0
ARC
  5
7C7
330
1F
100
AcDbEntity
  8
0
100
AcDbCircle
 10
31.98532722888593
 20
68.05181650322928
 30
0.0
 40
1.0
100
AcDbArc
 50
270.0
 51
0.0
  0
ARC
  5
7C8
330
1F
100
AcDbEntity
  8
0
100
AcDbCircle
 10
33.05483022888593
 20
74.4268525032292
 30
0.0
 40
1.0
100
AcDbArc
 50
270.0
 51
0.0
  0
LINE
  5
7C9
330
1F
100
AcDbEntity
  8
0
100
AcDbLine
 10
32.98532822888585
 20
72.07609350322925
 30
0.0
 11
32.05440222888585
 21
73.42685250322919
 31
0.0
  0
LINE
  5
7CA
330
1F
100
AcDbEntity
  8
0
100
AcDbLine
 10
33.05483022888584
 20
73.42685250322919
 30
0.0
 11
32.05440222888585
 21
73.42685250322919
 31
0.0
  0
ARC
  5
7CB
330
1F
100
AcDbEntity
  8
0
100
AcDbCircle
 10
33.97011822888593
 20
73.08839150322936
 30
0.0
 40
1.0
100
AcDbArc
 50
270.0
 51
0.0
  0
LINE
  5
7CC
330
1F
100
AcDbEntity
  8
0
100
AcDbLine
 10
32.98532722888585
 20
72.08839150322936
 30
0.0
 11
33.97011822888585
 21
72.08839150322934
 31
0.0
  0
LINE
  5
7CD
330
1F
100
AcDbEntity
  8
0
100
AcDbLine
 10
18.30595422888585
 20
122.475684503229
 30
0.0
 11
18.30595422888585
 21
119.475684503229
 31
0.0
  0
LINE
  5
7CE
330
1F
100
AcDbEntity
  8
0
100
AcDbLine
 10
20.27087622888585
 20
122.475684503229
 30
0.0
 11
20.27087622888585
 21
119.475684503229
 31
0.0
  0
LINE
  5
7CF
330
1F
100
AcDbEntity
  8
0
100
AcDbLine
 10
15.88511922888583
 20
118.475684503229
 30
0.0
 11
15.88511922888583
 21
123.475684503229
 31
0.0
  0
LINE
  5
7D0
330
1F
100
AcDbEntity
  8
0
100
AcDbLine
 10
15.38511922888583
 20
118.2556855032292
 30
0.0
 11
15.38511922888583
 21
123.9556855032293
 31
0.0
  0
LINE
  5
7D1
330
1F
100
AcDbEntity
  8
0
100
AcDbLine
 10
22.88511922888585
 20
123.475684503229
 30
0.0
 11
22.88511922888585
 21
118.475684503229
 31
0.0
  0
LINE
  5
7D2
330
1F
100
AcDbEntity
  8
0
100
AcDbLine
 10
20.48511922888432
 20
108.0256845032283
 30
0.0
 11
9.085119228886538
 21
108.0256845032283
 31
0.0
  0
LINE
  5
7D3
330
1F
100
AcDbEntity
  8
0
100
AcDbLine
 10
9.085119228886538
 20
117.225684503229
 30
0.0
 11
20.48511922888432
 21
117.2256845032272
 31
0.0
  0
LINE
  5
7D4
330
1F
100
AcDbEntity
  8
0
100
AcDbLine
 10
8.705951308074942
 20
107.5256845032283
 30
0.0
 11
20.88511922888583
 21
107.5256845032283
 31
0.0
  0
LINE
  5
7D5
330
1F
100
AcDbEntity
  8
0
100
AcDbLine
 10
8.705951308074942
 20
117.7256845032272
 30
0.0
 11
20.88511922888583
 21
117.7256845032272
 31
0.0
  0
LINE
  5
7D6
330
1F
100
AcDbEntity
  8
0
100
AcDbLine
 10
15.88511922888583
 20
118.475684503229
 30
0.0
 11
22.88511922888585
 21
118.475684503229
 31
0.0
  0
LINE
  5
7D7
330
1F
100
AcDbEntity
  8
0
100
AcDbLine
 10
22.38511922888584
 20
104.2756845032291
 30
0.0
 11
12.33511922888586
 21
104.2756845032291
 31
0.0
  0
LINE
  5
7D8
330
1F
100
AcDbEntity
  8
0
100
AcDbLine
 10
22.38511922888584
 20
106.7756845032292
 30
0.0
 11
12.33511922888586
 21
106.7756845032292
 31
0.0
  0
LINE
  5
7D9
330
1F
100
AcDbEntity
  8
0
100
AcDbLine
 10
12.83511922888584
 20
92.84568450322927
 30
0.0
 11
16.55511922888585
 21
92.84568450322927
 31
0.0
  0
LINE
  5
7DA
330
1F
100
AcDbEntity
  8
0
100
AcDbLine
 10
12.83511922888584
 20
92.84568450322927
 30
0.0
 11
17.31511922888583
 21
92.84568450322927
 31
0.0
  0
LINE
  5
7DB
330
1F
100
AcDbEntity
  8
0
100
AcDbLine
 10
12.83511922888584
 20
89.03568450322934
 30
0.0
 11
17.31511922888583
 21
89.03568450322934
 31
0.0
  0
LINE
  5
7DC
330
1F
100
AcDbEntity
  8
0
100
AcDbLine
 10
12.83511922888584
 20
89.03568450322934
 30
0.0
 11
16.55511922888585
 21
89.03568450322934
 31
0.0
  0
LINE
  5
7DD
330
1F
100
AcDbEntity
  8
0
100
AcDbLine
 10
12.83511922888584
 20
96.65568450322915
 30
0.0
 11
17.31511922888583
 21
96.65568450322915
 31
0.0
  0
LINE
  5
7DE
330
1F
100
AcDbEntity
  8
0
100
AcDbLine
 10
12.83511922888584
 20
96.65568450322915
 30
0.0
 11
16.55511922888585
 21
96.65568450322915
 31
0.0
  0
LINE
  5
7DF
330
1F
100
AcDbEntity
  8
0
100
AcDbLine
 10
12.83511922888584
 20
100.465684503229
 30
0.0
 11
17.31511922888583
 21
100.465684503229
 31
0.0
  0
LINE
  5
7E0
330
1F
100
AcDbEntity
  8
0
100
AcDbLine
 10
12.83511922888584
 20
100.465684503229
 30
0.0
 11
16.55511922888585
 21
100.465684503229
 31
0.0
  0
LINE
  5
7E1
330
1F
100
AcDbEntity
  8
0
100
AcDbLine
 10
12.33511922888586
 20
104.2756845032291
 30
0.0
 11
12.33511922888586
 21
106.7756845032292
 31
0.0
  0
LINE
  5
7E2
330
1F
100
AcDbEntity
  8
0
100
AcDbLine
 10
12.33511922888586
 20
104.2056845032291
 30
0.0
 11
12.33511922888586
 21
103.5056845032292
 31
0.0
  0
LINE
  5
7E3
330
1F
100
AcDbEntity
  8
0
100
AcDbLine
 10
11.53511922888583
 20
104.2056845032291
 30
0.0
 11
11.23511922888575
 21
104.2056845032291
 31
0.0
  0
LINE
  5
7E4
330
1F
100
AcDbEntity
  8
0
100
AcDbLine
 10
11.53511922888583
 20
104.2056845032291
 30
0.0
 11
11.78511922888583
 21
104.2056845032291
 31
0.0
  0
LINE
  5
7E5
330
1F
100
AcDbEntity
  8
0
100
AcDbLine
 10
12.18511922888585
 20
104.2056845032291
 30
0.0
 11
12.33511922888586
 21
104.2056845032291
 31
0.0
  0
LINE
  5
7E6
330
1F
100
AcDbEntity
  8
0
100
AcDbLine
 10
11.78511922888583
 20
104.2056845032291
 30
0.0
 11
12.18511922888585
 21
104.2056845032291
 31
0.0
  0
LINE
  5
7E7
330
1F
100
AcDbEntity
  8
0
100
AcDbLine
 10
12.18511922888585
 20
103.5056845032292
 30
0.0
 11
12.33511922888586
 21
103.5056845032292
 31
0.0
  0
LINE
  5
7E8
330
1F
100
AcDbEntity
  8
0
100
AcDbLine
 10
12.18511922888585
 20
103.5056845032292
 30
0.0
 11
12.18511922888585
 21
104.2056845032291
 31
0.0
  0
LINE
  5
7E9
330
1F
100
AcDbEntity
  8
0
100
AcDbLine
 10
10.63511922888584
 20
104.2056845032291
 30
0.0
 11
10.33511922888584
 21
104.2056845032291
 31
0.0
  0
LINE
  5
7EA
330
1F
100
AcDbEntity
  8
0
100
AcDbLine
 10
10.08511922888585
 20
104.2056845032291
 30
0.0
 11
10.33511922888584
 21
104.2056845032291
 31
0.0
  0
LINE
  5
7EB
330
1F
100
AcDbEntity
  8
0
100
AcDbLine
 10
10.63511922888584
 20
104.2056845032291
 30
0.0
 11
11.23511922888575
 21
104.2056845032291
 31
0.0
  0
LINE
  5
7EC
330
1F
100
AcDbEntity
  8
0
100
AcDbLine
 10
9.985119228885835
 20
104.2056845032291
 30
0.0
 11
10.08511922888585
 21
104.2056845032291
 31
0.0
  0
LINE
  5
7ED
330
1F
100
AcDbEntity
  8
0
100
AcDbLine
 10
12.33511922888586
 20
104.2756845032291
 30
0.0
 11
12.33511922888586
 21
104.2056845032291
 31
0.0
  0
ARC
  5
7EE
330
1F
100
AcDbEntity
  8
0
100
AcDbCircle
 10
9.985119228885835
 20
103.9056845032291
 30
0.0
 40
0.3
100
AcDbArc
 50
90.0
 51
180.0
  0
LINE
  5
7EF
330
1F
100
AcDbEntity
  8
0
100
AcDbLine
 10
10.33511922888584
 20
96.58568450322928
 30
0.0
 11
10.33511922888584
 21
93.78568450322932
 31
0.0
  0
LINE
  5
7F0
330
1F
100
AcDbEntity
  8
0
100
AcDbLine
 10
11.53511922888583
 20
93.78568450322932
 30
0.0
 11
11.53511922888583
 21
96.58568450322928
 31
0.0
  0
LINE
  5
7F1
330
1F
100
AcDbEntity
  8
0
100
AcDbLine
 10
9.685119228885852
 20
93.18568450322919
 30
0.0
 11
9.685119228885852
 21
96.28568450322928
 31
0.0
  0
LINE
  5
7F2
330
1F
100
AcDbEntity
  8
0
100
AcDbLine
 10
12.18511922888585
 20
93.18568450322919
 30
0.0
 11
12.18511922888585
 21
95.88568450322915
 31
0.0
  0
LINE
  5
7F3
330
1F
100
AcDbEntity
  8
0
100
AcDbLine
 10
12.33511922888586
 20
95.88568450322915
 30
0.0
 11
12.33511922888586
 21
92.84568450322927
 31
0.0
  0
ARC
  5
7F4
330
1F
100
AcDbEntity
  8
0
100
AcDbCircle
 10
14.48511922888583
 20
90.94068450322927
 30
0.0
 40
0.85
100
AcDbArc
 50
0.0
 51
323.2696049999991
  0
ARC
  5
7F5
330
1F
100
AcDbEntity
  8
0
100
AcDbCircle
 10
14.48511922888583
 20
94.75068450322922
 30
0.0
 40
0.85
100
AcDbArc
 50
0.0
 51
323.2696049999991
  0
LINE
  5
7F6
330
1F
100
AcDbEntity
  8
0
100
AcDbLine
 10
10.63511922888584
 20
93.48568450322913
 30
0.0
 11
11.23511922888575
 21
93.48568450322913
 31
0.0
  0
LINE
  5
7F7
330
1F
100
AcDbEntity
  8
0
100
AcDbLine
 10
12.18511922888585
 20
89.37568450322924
 30
0.0
 11
12.18511922888585
 21
92.07568450322927
 31
0.0
  0
LINE
  5
7F8
330
1F
100
AcDbEntity
  8
0
100
AcDbLine
 10
11.53511922888583
 20
92.77568450322936
 30
0.0
 11
11.23511922888575
 21
92.77568450322936
 31
0.0
  0
LINE
  5
7F9
330
1F
100
AcDbEntity
  8
0
100
AcDbLine
 10
11.53511922888583
 20
92.77568450322936
 30
0.0
 11
11.78511922888583
 21
92.77568450322936
 31
0.0
  0
LINE
  5
7FA
330
1F
100
AcDbEntity
  8
0
100
AcDbLine
 10
12.18511922888585
 20
92.77568450322936
 30
0.0
 11
12.33511922888586
 21
92.77568450322936
 31
0.0
  0
LINE
  5
7FB
330
1F
100
AcDbEntity
  8
0
100
AcDbLine
 10
11.78511922888583
 20
92.77568450322936
 30
0.0
 11
12.18511922888585
 21
92.77568450322936
 31
0.0
  0
LINE
  5
7FC
330
1F
100
AcDbEntity
  8
0
100
AcDbLine
 10
11.53511922888583
 20
89.97568450322914
 30
0.0
 11
11.53511922888583
 21
92.77568450322936
 31
0.0
  0
LINE
  5
7FD
330
1F
100
AcDbEntity
  8
0
100
AcDbLine
 10
12.18511922888585
 20
92.07568450322927
 30
0.0
 11
12.33511922888586
 21
92.07568450322927
 31
0.0
  0
LINE
  5
7FE
330
1F
100
AcDbEntity
  8
0
100
AcDbLine
 10
12.18511922888585
 20
92.07568450322927
 30
0.0
 11
12.18511922888585
 21
92.77568450322936
 31
0.0
  0
LINE
  5
7FF
330
1F
100
AcDbEntity
  8
0
100
AcDbLine
 10
11.78511922888583
 20
89.0756845032293
 30
0.0
 11
11.88511922888584
 21
89.0756845032293
 31
0.0
  0
LINE
  5
800
330
1F
100
AcDbEntity
  8
0
100
AcDbLine
 10
10.63511922888584
 20
89.67568450322918
 30
0.0
 11
11.23511922888575
 21
89.67568450322918
 31
0.0
  0
LINE
  5
801
330
1F
100
AcDbEntity
  8
0
100
AcDbLine
 10
10.63511922888584
 20
92.77568450322936
 30
0.0
 11
10.33511922888584
 21
92.77568450322936
 31
0.0
  0
LINE
  5
802
330
1F
100
AcDbEntity
  8
0
100
AcDbLine
 10
10.08511922888585
 20
92.77568450322936
 30
0.0
 11
10.33511922888584
 21
92.77568450322936
 31
0.0
  0
LINE
  5
803
330
1F
100
AcDbEntity
  8
0
100
AcDbLine
 10
10.33511922888584
 20
92.77568450322936
 30
0.0
 11
10.33511922888584
 21
89.97568450322914
 31
0.0
  0
LINE
  5
804
330
1F
100
AcDbEntity
  8
0
100
AcDbLine
 10
10.63511922888584
 20
92.77568450322936
 30
0.0
 11
11.23511922888575
 21
92.77568450322936
 31
0.0
  0
LINE
  5
805
330
1F
100
AcDbEntity
  8
0
100
AcDbLine
 10
9.685119228885852
 20
89.37568450322924
 30
0.0
 11
9.685119228885852
 21
92.47568450322914
 31
0.0
  0
LINE
  5
806
330
1F
100
AcDbEntity
  8
0
100
AcDbLine
 10
10.08511922888585
 20
89.0756845032293
 30
0.0
 11
11.78511922888583
 21
89.0756845032293
 31
0.0
  0
LINE
  5
807
330
1F
100
AcDbEntity
  8
0
100
AcDbLine
 10
9.985119228885835
 20
89.0756845032293
 30
0.0
 11
10.08511922888585
 21
89.0756845032293
 31
0.0
  0
LINE
  5
808
330
1F
100
AcDbEntity
  8
0
100
AcDbLine
 10
9.985119228885835
 20
92.77568450322936
 30
0.0
 11
10.08511922888585
 21
92.77568450322936
 31
0.0
  0
ARC
  5
809
330
1F
100
AcDbEntity
  8
0
100
AcDbCircle
 10
11.23511922888582
 20
89.97568450322914
 30
0.0
 40
0.3
100
AcDbArc
 50
270.0
 51
0.0
  0
ARC
  5
80A
330
1F
100
AcDbEntity
  8
0
100
AcDbCircle
 10
10.63511922888592
 20
89.97568450322914
 30
0.0
 40
0.3
100
AcDbArc
 50
180.0
 51
270.0
  0
ARC
  5
80B
330
1F
100
AcDbEntity
  8
0
100
AcDbCircle
 10
9.985119228885835
 20
92.47568450322914
 30
0.0
 40
0.3
100
AcDbArc
 50
90.0
 51
180.0
  0
LINE
  5
80C
330
1F
100
AcDbEntity
  8
0
100
AcDbLine
 10
12.33511922888586
 20
92.84568450322927
 30
0.0
 11
12.33511922888586
 21
92.77568450322936
 31
0.0
  0
LINE
  5
80D
330
1F
100
AcDbEntity
  8
0
100
AcDbLine
 10
12.33511922888586
 20
92.77568450322936
 30
0.0
 11
12.33511922888586
 21
92.07568450322927
 31
0.0
  0
LINE
  5
80E
330
1F
100
AcDbEntity
  8
0
100
AcDbLine
 10
12.83511922888584
 20
92.84568450322927
 30
0.0
 11
12.33511922888586
 21
92.84568450322927
 31
0.0
  0
ARC
  5
80F
330
1F
100
AcDbEntity
  8
0
100
AcDbCircle
 10
9.985119228885835
 20
93.18568450322919
 30
0.0
 40
0.3
100
AcDbArc
 50
180.0
 51
270.0
  0
ARC
  5
810
330
1F
100
AcDbEntity
  8
0
100
AcDbCircle
 10
11.88511922888592
 20
93.18568450322919
 30
0.0
 40
0.3
100
AcDbArc
 50
270.0
 51
0.0
  0
LINE
  5
811
330
1F
100
AcDbEntity
  8
0
100
AcDbLine
 10
9.985119228885835
 20
92.88568450322925
 30
0.0
 11
10.08511922888585
 21
92.88568450322925
 31
0.0
  0
LINE
  5
812
330
1F
100
AcDbEntity
  8
0
100
AcDbLine
 10
10.08511922888585
 20
92.88568450322925
 30
0.0
 11
11.78511922888583
 21
92.88568450322925
 31
0.0
  0
LINE
  5
813
330
1F
100
AcDbEntity
  8
0
100
AcDbLine
 10
11.78511922888583
 20
92.88568450322925
 30
0.0
 11
11.88511922888584
 21
92.88568450322925
 31
0.0
  0
LINE
  5
814
330
1F
100
AcDbEntity
  8
0
100
AcDbLine
 10
12.83511922888584
 20
92.84568450322927
 30
0.0
 11
12.33511922888586
 21
92.84568450322927
 31
0.0
  0
ARC
  5
815
330
1F
100
AcDbEntity
  8
0
100
AcDbCircle
 10
10.63511922888592
 20
93.78568450322928
 30
0.0
 40
0.3
100
AcDbArc
 50
180.0
 51
270.0
  0
ARC
  5
816
330
1F
100
AcDbEntity
  8
0
100
AcDbCircle
 10
11.23511922888582
 20
93.78568450322928
 30
0.0
 40
0.3
100
AcDbArc
 50
270.0
 51
0.0
  0
LINE
  5
817
330
1F
100
AcDbEntity
  8
0
100
AcDbLine
 10
12.83511922888584
 20
89.03568450322934
 30
0.0
 11
12.33511922888586
 21
89.03568450322934
 31
0.0
  0
ARC
  5
818
330
1F
100
AcDbEntity
  8
0
100
AcDbCircle
 10
9.985119228885835
 20
88.66568450322917
 30
0.0
 40
0.3
100
AcDbArc
 50
90.0
 51
180.0
  0
LINE
  5
819
330
1F
100
AcDbEntity
  8
0
100
AcDbLine
 10
9.985119228885835
 20
88.96568450322913
 30
0.0
 11
10.08511922888585
 21
88.96568450322913
 31
0.0
  0
LINE
  5
81A
330
1F
100
AcDbEntity
  8
0
100
AcDbLine
 10
10.63511922888584
 20
88.96568450322913
 30
0.0
 11
11.23511922888575
 21
88.96568450322913
 31
0.0
  0
LINE
  5
81B
330
1F
100
AcDbEntity
  8
0
100
AcDbLine
 10
10.08511922888585
 20
88.96568450322913
 30
0.0
 11
10.33511922888584
 21
88.96568450322913
 31
0.0
  0
LINE
  5
81C
330
1F
100
AcDbEntity
  8
0
100
AcDbLine
 10
10.63511922888584
 20
88.96568450322913
 30
0.0
 11
10.33511922888584
 21
88.96568450322913
 31
0.0
  0
LINE
  5
81D
330
1F
100
AcDbEntity
  8
0
100
AcDbLine
 10
12.18511922888585
 20
88.26568450322936
 30
0.0
 11
12.18511922888585
 21
88.96568450322913
 31
0.0
  0
LINE
  5
81E
330
1F
100
AcDbEntity
  8
0
100
AcDbLine
 10
12.18511922888585
 20
88.26568450322936
 30
0.0
 11
12.33511922888586
 21
88.26568450322936
 31
0.0
  0
LINE
  5
81F
330
1F
100
AcDbEntity
  8
0
100
AcDbLine
 10
11.78511922888583
 20
88.96568450322913
 30
0.0
 11
12.18511922888585
 21
88.96568450322913
 31
0.0
  0
LINE
  5
820
330
1F
100
AcDbEntity
  8
0
100
AcDbLine
 10
12.18511922888585
 20
88.96568450322913
 30
0.0
 11
12.33511922888586
 21
88.96568450322913
 31
0.0
  0
LINE
  5
821
330
1F
100
AcDbEntity
  8
0
100
AcDbLine
 10
11.53511922888583
 20
88.96568450322913
 30
0.0
 11
11.78511922888583
 21
88.96568450322913
 31
0.0
  0
LINE
  5
822
330
1F
100
AcDbEntity
  8
0
100
AcDbLine
 10
11.53511922888583
 20
88.96568450322913
 30
0.0
 11
11.23511922888575
 21
88.96568450322913
 31
0.0
  0
LINE
  5
823
330
1F
100
AcDbEntity
  8
0
100
AcDbLine
 10
12.83511922888584
 20
89.03568450322934
 30
0.0
 11
12.33511922888586
 21
89.03568450322934
 31
0.0
  0
LINE
  5
824
330
1F
100
AcDbEntity
  8
0
100
AcDbLine
 10
12.33511922888586
 20
88.96568450322913
 30
0.0
 11
12.33511922888586
 21
88.26568450322936
 31
0.0
  0
LINE
  5
825
330
1F
100
AcDbEntity
  8
0
100
AcDbLine
 10
12.33511922888586
 20
89.03568450322934
 30
0.0
 11
12.33511922888586
 21
88.96568450322913
 31
0.0
  0
ARC
  5
826
330
1F
100
AcDbEntity
  8
0
100
AcDbCircle
 10
11.88511922888592
 20
89.37568450322922
 30
0.0
 40
0.3
100
AcDbArc
 50
270.0
 51
0.0
  0
ARC
  5
827
330
1F
100
AcDbEntity
  8
0
100
AcDbCircle
 10
9.985119228885835
 20
89.37568450322922
 30
0.0
 40
0.3
100
AcDbArc
 50
180.0
 51
270.0
  0
LINE
  5
828
330
1F
100
AcDbEntity
  8
0
100
AcDbLine
 10
12.33511922888586
 20
92.07568450322927
 30
0.0
 11
12.33511922888586
 21
89.03568450322934
 31
0.0
  0
ARC
  5
829
330
1F
100
AcDbEntity
  8
0
100
AcDbCircle
 10
14.48511922888583
 20
90.94068450322927
 30
0.0
 40
0.85
100
AcDbArc
 50
323.2696049999991
 51
0.0
  0
ARC
  5
82A
330
1F
100
AcDbEntity
  8
0
100
AcDbCircle
 10
14.48511922888583
 20
94.75068450322922
 30
0.0
 40
0.85
100
AcDbArc
 50
323.2696049999991
 51
0.0
  0
ARC
  5
82B
330
1F
100
AcDbEntity
  8
0
100
AcDbCircle
 10
14.48511922888583
 20
98.56068450322915
 30
0.0
 40
0.85
100
AcDbArc
 50
0.0
 51
323.2696049999991
  0
LINE
  5
82C
330
1F
100
AcDbEntity
  8
0
100
AcDbLine
 10
10.33511922888584
 20
100.3956845032291
 30
0.0
 11
10.33511922888584
 21
97.59568450322928
 31
0.0
  0
LINE
  5
82D
330
1F
100
AcDbEntity
  8
0
100
AcDbLine
 10
12.18511922888585
 20
96.99568450322928
 30
0.0
 11
12.18511922888585
 21
99.69568450322917
 31
0.0
  0
LINE
  5
82E
330
1F
100
AcDbEntity
  8
0
100
AcDbLine
 10
9.685119228885852
 20
96.99568450322928
 30
0.0
 11
9.685119228885852
 21
100.0956845032291
 31
0.0
  0
LINE
  5
82F
330
1F
100
AcDbEntity
  8
0
100
AcDbLine
 10
12.33511922888586
 20
99.69568450322917
 30
0.0
 11
12.33511922888586
 21
96.65568450322915
 31
0.0
  0
LINE
  5
830
330
1F
100
AcDbEntity
  8
0
100
AcDbLine
 10
11.53511922888583
 20
97.59568450322928
 30
0.0
 11
11.53511922888583
 21
100.3956845032291
 31
0.0
  0
LINE
  5
831
330
1F
100
AcDbEntity
  8
0
100
AcDbLine
 10
11.78511922888583
 20
96.69568450322916
 30
0.0
 11
11.88511922888584
 21
96.69568450322916
 31
0.0
  0
LINE
  5
832
330
1F
100
AcDbEntity
  8
0
100
AcDbLine
 10
10.08511922888585
 20
96.69568450322916
 30
0.0
 11
11.78511922888583
 21
96.69568450322916
 31
0.0
  0
LINE
  5
833
330
1F
100
AcDbEntity
  8
0
100
AcDbLine
 10
9.985119228885835
 20
96.69568450322916
 30
0.0
 11
10.08511922888585
 21
96.69568450322916
 31
0.0
  0
LINE
  5
834
330
1F
100
AcDbEntity
  8
0
100
AcDbLine
 10
12.83511922888584
 20
96.65568450322915
 30
0.0
 11
12.33511922888586
 21
96.65568450322915
 31
0.0
  0
LINE
  5
835
330
1F
100
AcDbEntity
  8
0
100
AcDbLine
 10
12.83511922888584
 20
96.65568450322915
 30
0.0
 11
12.33511922888586
 21
96.65568450322915
 31
0.0
  0
ARC
  5
836
330
1F
100
AcDbEntity
  8
0
100
AcDbCircle
 10
11.23511922888582
 20
97.59568450322916
 30
0.0
 40
0.3
100
AcDbArc
 50
270.0
 51
0.0
  0
ARC
  5
837
330
1F
100
AcDbEntity
  8
0
100
AcDbCircle
 10
10.63511922888592
 20
97.59568450322916
 30
0.0
 40
0.3
100
AcDbArc
 50
180.0
 51
270.0
  0
LINE
  5
838
330
1F
100
AcDbEntity
  8
0
100
AcDbLine
 10
10.63511922888584
 20
97.29568450322927
 30
0.0
 11
11.23511922888575
 21
97.29568450322927
 31
0.0
  0
LINE
  5
839
330
1F
100
AcDbEntity
  8
0
100
AcDbLine
 10
10.63511922888584
 20
100.3956845032291
 30
0.0
 11
10.33511922888584
 21
100.3956845032291
 31
0.0
  0
LINE
  5
83A
330
1F
100
AcDbEntity
  8
0
100
AcDbLine
 10
10.08511922888585
 20
100.3956845032291
 30
0.0
 11
10.33511922888584
 21
100.3956845032291
 31
0.0
  0
LINE
  5
83B
330
1F
100
AcDbEntity
  8
0
100
AcDbLine
 10
10.63511922888584
 20
100.3956845032291
 30
0.0
 11
11.23511922888575
 21
100.3956845032291
 31
0.0
  0
LINE
  5
83C
330
1F
100
AcDbEntity
  8
0
100
AcDbLine
 10
9.985119228885835
 20
100.3956845032291
 30
0.0
 11
10.08511922888585
 21
100.3956845032291
 31
0.0
  0
ARC
  5
83D
330
1F
100
AcDbEntity
  8
0
100
AcDbCircle
 10
9.985119228885835
 20
100.0956845032291
 30
0.0
 40
0.3
100
AcDbArc
 50
90.0
 51
180.0
  0
LINE
  5
83E
330
1F
100
AcDbEntity
  8
0
100
AcDbLine
 10
12.33511922888586
 20
100.465684503229
 30
0.0
 11
12.33511922888586
 21
100.3956845032291
 31
0.0
  0
LINE
  5
83F
330
1F
100
AcDbEntity
  8
0
100
AcDbLine
 10
12.33511922888586
 20
100.3956845032291
 30
0.0
 11
12.33511922888586
 21
99.69568450322917
 31
0.0
  0
LINE
  5
840
330
1F
100
AcDbEntity
  8
0
100
AcDbLine
 10
12.83511922888584
 20
100.465684503229
 30
0.0
 11
12.33511922888586
 21
100.465684503229
 31
0.0
  0
LINE
  5
841
330
1F
100
AcDbEntity
  8
0
100
AcDbLine
 10
12.83511922888584
 20
100.465684503229
 30
0.0
 11
12.33511922888586
 21
100.465684503229
 31
0.0
  0
LINE
  5
842
330
1F
100
AcDbEntity
  8
0
100
AcDbLine
 10
11.78511922888583
 20
100.5056845032292
 30
0.0
 11
11.88511922888584
 21
100.5056845032292
 31
0.0
  0
LINE
  5
843
330
1F
100
AcDbEntity
  8
0
100
AcDbLine
 10
10.63511922888584
 20
101.105684503229
 30
0.0
 11
11.23511922888575
 21
101.105684503229
 31
0.0
  0
LINE
  5
844
330
1F
100
AcDbEntity
  8
0
100
AcDbLine
 10
10.08511922888585
 20
100.5056845032292
 30
0.0
 11
11.78511922888583
 21
100.5056845032292
 31
0.0
  0
LINE
  5
845
330
1F
100
AcDbEntity
  8
0
100
AcDbLine
 10
9.985119228885835
 20
100.5056845032292
 30
0.0
 11
10.08511922888585
 21
100.5056845032292
 31
0.0
  0
ARC
  5
846
330
1F
100
AcDbEntity
  8
0
100
AcDbCircle
 10
11.23511922888582
 20
101.405684503229
 30
0.0
 40
0.3
100
AcDbArc
 50
270.0
 51
0.0
  0
ARC
  5
847
330
1F
100
AcDbEntity
  8
0
100
AcDbCircle
 10
11.88511922888592
 20
100.8056845032291
 30
0.0
 40
0.3
100
AcDbArc
 50
270.0
 51
0.0
  0
ARC
  5
848
330
1F
100
AcDbEntity
  8
0
100
AcDbCircle
 10
9.985119228885835
 20
100.8056845032291
 30
0.0
 40
0.3
100
AcDbArc
 50
180.0
 51
270.0
  0
ARC
  5
849
330
1F
100
AcDbEntity
  8
0
100
AcDbCircle
 10
10.63511922888592
 20
101.405684503229
 30
0.0
 40
0.3
100
AcDbArc
 50
180.0
 51
270.0
  0
LINE
  5
84A
330
1F
100
AcDbEntity
  8
0
100
AcDbLine
 10
11.53511922888583
 20
100.3956845032291
 30
0.0
 11
11.23511922888575
 21
100.3956845032291
 31
0.0
  0
LINE
  5
84B
330
1F
100
AcDbEntity
  8
0
100
AcDbLine
 10
11.53511922888583
 20
100.3956845032291
 30
0.0
 11
11.78511922888583
 21
100.3956845032291
 31
0.0
  0
LINE
  5
84C
330
1F
100
AcDbEntity
  8
0
100
AcDbLine
 10
12.18511922888585
 20
100.3956845032291
 30
0.0
 11
12.33511922888586
 21
100.3956845032291
 31
0.0
  0
LINE
  5
84D
330
1F
100
AcDbEntity
  8
0
100
AcDbLine
 10
11.78511922888583
 20
100.3956845032291
 30
0.0
 11
12.18511922888585
 21
100.3956845032291
 31
0.0
  0
LINE
  5
84E
330
1F
100
AcDbEntity
  8
0
100
AcDbLine
 10
12.18511922888585
 20
99.69568450322917
 30
0.0
 11
12.33511922888586
 21
99.69568450322917
 31
0.0
  0
LINE
  5
84F
330
1F
100
AcDbEntity
  8
0
100
AcDbLine
 10
12.18511922888585
 20
99.69568450322917
 30
0.0
 11
12.18511922888585
 21
100.3956845032291
 31
0.0
  0
ARC
  5
850
330
1F
100
AcDbEntity
  8
0
100
AcDbCircle
 10
9.985119228885835
 20
96.28568450322928
 30
0.0
 40
0.3
100
AcDbArc
 50
90.0
 51
180.0
  0
LINE
  5
851
330
1F
100
AcDbEntity
  8
0
100
AcDbLine
 10
9.985119228885835
 20
96.58568450322928
 30
0.0
 11
10.08511922888585
 21
96.58568450322928
 31
0.0
  0
LINE
  5
852
330
1F
100
AcDbEntity
  8
0
100
AcDbLine
 10
10.63511922888584
 20
96.58568450322928
 30
0.0
 11
11.23511922888575
 21
96.58568450322928
 31
0.0
  0
LINE
  5
853
330
1F
100
AcDbEntity
  8
0
100
AcDbLine
 10
10.08511922888585
 20
96.58568450322928
 30
0.0
 11
10.33511922888584
 21
96.58568450322928
 31
0.0
  0
LINE
  5
854
330
1F
100
AcDbEntity
  8
0
100
AcDbLine
 10
10.63511922888584
 20
96.58568450322928
 30
0.0
 11
10.33511922888584
 21
96.58568450322928
 31
0.0
  0
LINE
  5
855
330
1F
100
AcDbEntity
  8
0
100
AcDbLine
 10
12.18511922888585
 20
95.88568450322915
 30
0.0
 11
12.18511922888585
 21
96.58568450322928
 31
0.0
  0
LINE
  5
856
330
1F
100
AcDbEntity
  8
0
100
AcDbLine
 10
12.18511922888585
 20
95.88568450322915
 30
0.0
 11
12.33511922888586
 21
95.88568450322915
 31
0.0
  0
LINE
  5
857
330
1F
100
AcDbEntity
  8
0
100
AcDbLine
 10
11.78511922888583
 20
96.58568450322928
 30
0.0
 11
12.18511922888585
 21
96.58568450322928
 31
0.0
  0
LINE
  5
858
330
1F
100
AcDbEntity
  8
0
100
AcDbLine
 10
12.18511922888585
 20
96.58568450322928
 30
0.0
 11
12.33511922888586
 21
96.58568450322928
 31
0.0
  0
LINE
  5
859
330
1F
100
AcDbEntity
  8
0
100
AcDbLine
 10
11.53511922888583
 20
96.58568450322928
 30
0.0
 11
11.78511922888583
 21
96.58568450322928
 31
0.0
  0
LINE
  5
85A
330
1F
100
AcDbEntity
  8
0
100
AcDbLine
 10
11.53511922888583
 20
96.58568450322928
 30
0.0
 11
11.23511922888575
 21
96.58568450322928
 31
0.0
  0
LINE
  5
85B
330
1F
100
AcDbEntity
  8
0
100
AcDbLine
 10
12.33511922888586
 20
96.58568450322928
 30
0.0
 11
12.33511922888586
 21
95.88568450322915
 31
0.0
  0
ARC
  5
85C
330
1F
100
AcDbEntity
  8
0
100
AcDbCircle
 10
11.88511922888592
 20
96.99568450322928
 30
0.0
 40
0.3
100
AcDbArc
 50
270.0
 51
0.0
  0
ARC
  5
85D
330
1F
100
AcDbEntity
  8
0
100
AcDbCircle
 10
9.985119228885835
 20
96.99568450322928
 30
0.0
 40
0.3
100
AcDbArc
 50
180.0
 51
270.0
  0
LINE
  5
85E
330
1F
100
AcDbEntity
  8
0
100
AcDbLine
 10
12.33511922888586
 20
96.65568450322915
 30
0.0
 11
12.33511922888586
 21
96.58568450322928
 31
0.0
  0
ARC
  5
85F
330
1F
100
AcDbEntity
  8
0
100
AcDbCircle
 10
14.48511922888583
 20
102.3706845032291
 30
0.0
 40
0.85
100
AcDbArc
 50
323.2696049999991
 51
0.0
  0
ARC
  5
860
330
1F
100
AcDbEntity
  8
0
100
AcDbCircle
 10
14.48511922888583
 20
98.56068450322915
 30
0.0
 40
0.85
100
AcDbArc
 50
323.2696049999991
 51
0.0
  0
CIRCLE
  5
861
330
1F
100
AcDbEntity
  8
0
100
AcDbCircle
 10
14.48511922888583
 20
94.75068450322922
 30
0.0
 40
1.564999999999999
  0
CIRCLE
  5
862
330
1F
100
AcDbEntity
  8
0
100
AcDbCircle
 10
14.48511922888583
 20
90.94068450322927
 30
0.0
 40
1.564999999999999
  0
CIRCLE
  5
863
330
1F
100
AcDbEntity
  8
0
100
AcDbCircle
 10
14.48511922888583
 20
98.56068450322915
 30
0.0
 40
1.564999999999999
  0
CIRCLE
  5
864
330
1F
100
AcDbEntity
  8
0
100
AcDbCircle
 10
14.48511922888583
 20
102.3706845032291
 30
0.0
 40
1.564999999999999
  0
ARC
  5
865
330
1F
100
AcDbEntity
  8
0
100
AcDbCircle
 10
14.48511922888583
 20
102.3706845032291
 30
0.0
 40
0.85
100
AcDbArc
 50
0.0
 51
323.2696049999991
  0
LINE
  5
866
330
1F
100
AcDbEntity
  8
0
100
AcDbLine
 10
12.33511922888586
 20
103.5056845032292
 30
0.0
 11
12.33511922888586
 21
100.465684503229
 31
0.0
  0
LINE
  5
867
330
1F
100
AcDbEntity
  8
0
100
AcDbLine
 10
12.18511922888585
 20
100.8056845032291
 30
0.0
 11
12.18511922888585
 21
103.5056845032292
 31
0.0
  0
LINE
  5
868
330
1F
100
AcDbEntity
  8
0
100
AcDbLine
 10
11.53511922888583
 20
101.405684503229
 30
0.0
 11
11.53511922888583
 21
104.2056845032291
 31
0.0
  0
LINE
  5
869
330
1F
100
AcDbEntity
  8
0
100
AcDbLine
 10
10.33511922888584
 20
104.2056845032291
 30
0.0
 11
10.33511922888584
 21
101.405684503229
 31
0.0
  0
LINE
  5
86A
330
1F
100
AcDbEntity
  8
0
100
AcDbLine
 10
9.685119228885852
 20
100.8056845032291
 30
0.0
 11
9.685119228885852
 21
103.9056845032291
 31
0.0
  0
LINE
  5
86B
330
1F
100
AcDbEntity
  8
0
100
AcDbLine
 10
8.185119228885142
 20
108.2339296588662
 30
0.0
 11
8.705951308074942
 21
107.5256845032283
 31
0.0
  0
LINE
  5
86C
330
1F
100
AcDbEntity
  8
0
100
AcDbLine
 10
8.185119228885142
 20
117.1155443485906
 30
0.0
 11
8.705951308074942
 21
117.7256845032272
 31
0.0
  0
LINE
  5
86D
330
1F
100
AcDbEntity
  8
0
100
AcDbLine
 10
15.38511922888583
 20
118.2556855032292
 30
0.0
 11
7.685119228885851
 21
118.2556855032292
 31
0.0
  0
LINE
  5
86E
330
1F
100
AcDbEntity
  8
0
100
AcDbLine
 10
7.685119228885851
 20
106.9556855032294
 30
0.0
 11
9.185119228885852
 21
106.9556855032294
 31
0.0
  0
LINE
  5
86F
330
1F
100
AcDbEntity
  8
0
100
AcDbLine
 10
8.185119228885142
 20
117.1155443485906
 30
0.0
 11
8.185119228885142
 21
108.2339296588662
 31
0.0
  0
LINE
  5
870
330
1F
100
AcDbEntity
  8
0
100
AcDbLine
 10
7.685119228885851
 20
118.2556855032292
 30
0.0
 11
7.685119228885851
 21
106.9556855032294
 31
0.0
  0
LINE
  5
871
330
1F
100
AcDbEntity
  8
0
100
AcDbLine
 10
9.085119228886538
 20
108.0256845032283
 30
0.0
 11
9.085119228886538
 21
117.225684503229
 31
0.0
  0
LINE
  5
872
330
1F
100
AcDbEntity
  8
0
100
AcDbLine
 10
13.58511922888654
 20
109.1256845032287
 30
0.0
 11
13.58511922888654
 21
111.1256845032287
 31
0.0
  0
LINE
  5
873
330
1F
100
AcDbEntity
  8
0
100
AcDbLine
 10
13.58511922888654
 20
111.1256845032287
 30
0.0
 11
14.08511922888654
 21
111.1256845032287
 31
0.0
  0
LINE
  5
874
330
1F
100
AcDbEntity
  8
0
100
AcDbLine
 10
13.58511922888654
 20
109.1256845032287
 30
0.0
 11
14.08511922888654
 21
109.1256845032287
 31
0.0
  0
LINE
  5
875
330
1F
100
AcDbEntity
  8
0
100
AcDbLine
 10
14.08511922888654
 20
109.1256845032287
 30
0.0
 11
14.08511922888654
 21
111.1256845032287
 31
0.0
  0
LINE
  5
876
330
1F
100
AcDbEntity
  8
0
100
AcDbLine
 10
13.58511922888654
 20
111.6256845032286
 30
0.0
 11
13.58511922888654
 21
113.6256845032286
 31
0.0
  0
LINE
  5
877
330
1F
100
AcDbEntity
  8
0
100
AcDbLine
 10
13.58511922888654
 20
113.6256845032286
 30
0.0
 11
14.08511922888654
 21
113.6256845032286
 31
0.0
  0
LINE
  5
878
330
1F
100
AcDbEntity
  8
0
100
AcDbLine
 10
13.58511922888654
 20
111.6256845032286
 30
0.0
 11
14.08511922888654
 21
111.6256845032286
 31
0.0
  0
LINE
  5
879
330
1F
100
AcDbEntity
  8
0
100
AcDbLine
 10
14.08511922888654
 20
111.6256845032286
 30
0.0
 11
14.08511922888654
 21
113.6256845032286
 31
0.0
  0
LINE
  5
87A
330
1F
100
AcDbEntity
  8
0
100
AcDbLine
 10
14.08511922888654
 20
114.1256845032287
 30
0.0
 11
14.08511922888654
 21
116.1256845032287
 31
0.0
  0
LINE
  5
87B
330
1F
100
AcDbEntity
  8
0
100
AcDbLine
 10
13.58511922888654
 20
114.1256845032287
 30
0.0
 11
14.08511922888654
 21
114.1256845032287
 31
0.0
  0
LINE
  5
87C
330
1F
100
AcDbEntity
  8
0
100
AcDbLine
 10
13.58511922888654
 20
116.1256845032287
 30
0.0
 11
14.08511922888654
 21
116.1256845032287
 31
0.0
  0
LINE
  5
87D
330
1F
100
AcDbEntity
  8
0
100
AcDbLine
 10
13.58511922888654
 20
114.1256845032287
 30
0.0
 11
13.58511922888654
 21
116.1256845032287
 31
0.0
  0
LINE
  5
87E
330
1F
100
AcDbEntity
  8
0
100
AcDbLine
 10
17.51511922888583
 20
104.2756845032291
 30
0.0
 11
17.51511922888583
 21
106.7756845032292
 31
0.0
  0
LINE
  5
87F
330
1F
100
AcDbEntity
  8
0
100
AcDbLine
 10
17.51511922888583
 20
96.65568450322915
 30
0.0
 11
17.51511922888583
 21
92.84568450322927
 31
0.0
  0
LINE
  5
880
330
1F
100
AcDbEntity
  8
0
100
AcDbLine
 10
22.38511922888584
 20
92.84568450322927
 30
0.0
 11
21.88511922888584
 21
92.84568450322927
 31
0.0
  0
LINE
  5
881
330
1F
100
AcDbEntity
  8
0
100
AcDbLine
 10
22.38511922888584
 20
92.84568450322927
 30
0.0
 11
21.88511922888584
 21
92.84568450322927
 31
0.0
  0
LINE
  5
882
330
1F
100
AcDbEntity
  8
0
100
AcDbLine
 10
22.38511922888584
 20
89.03568450322929
 30
0.0
 11
21.88511922888584
 21
89.03568450322929
 31
0.0
  0
LINE
  5
883
330
1F
100
AcDbEntity
  8
0
100
AcDbLine
 10
22.38511922888584
 20
89.03568450322929
 30
0.0
 11
21.88511922888584
 21
89.03568450322929
 31
0.0
  0
LINE
  5
884
330
1F
100
AcDbEntity
  8
0
100
AcDbLine
 10
17.51511922888583
 20
92.84568450322927
 30
0.0
 11
17.95511922888582
 21
92.84568450322927
 31
0.0
  0
LINE
  5
885
330
1F
100
AcDbEntity
  8
0
100
AcDbLine
 10
17.95511922888582
 20
92.84568450322927
 30
0.0
 11
18.08511922888586
 21
92.84568450322927
 31
0.0
  0
LINE
  5
886
330
1F
100
AcDbEntity
  8
0
100
AcDbLine
 10
18.08511922888586
 20
92.84568450322927
 30
0.0
 11
19.48511922888575
 21
92.84568450322927
 31
0.0
  0
LINE
  5
887
330
1F
100
AcDbEntity
  8
0
100
AcDbLine
 10
17.51511922888583
 20
92.84568450322927
 30
0.0
 11
17.31511922888583
 21
92.84568450322927
 31
0.0
  0
LINE
  5
888
330
1F
100
AcDbEntity
  8
0
100
AcDbLine
 10
16.55511922888585
 20
92.84568450322927
 30
0.0
 11
17.31511922888583
 21
92.84568450322927
 31
0.0
  0
LINE
  5
889
330
1F
100
AcDbEntity
  8
0
100
AcDbLine
 10
17.51511922888583
 20
92.84568450322927
 30
0.0
 11
17.31511922888583
 21
92.84568450322927
 31
0.0
  0
LINE
  5
88A
330
1F
100
AcDbEntity
  8
0
100
AcDbLine
 10
17.51511922888583
 20
89.03568450322934
 30
0.0
 11
17.31511922888583
 21
89.03568450322934
 31
0.0
  0
LINE
  5
88B
330
1F
100
AcDbEntity
  8
0
100
AcDbLine
 10
17.51511922888583
 20
89.03568450322934
 30
0.0
 11
17.31511922888583
 21
89.03568450322934
 31
0.0
  0
LINE
  5
88C
330
1F
100
AcDbEntity
  8
0
100
AcDbLine
 10
18.08511922888586
 20
89.03568450322929
 30
0.0
 11
19.48511922888575
 21
89.03568450322929
 31
0.0
  0
LINE
  5
88D
330
1F
100
AcDbEntity
  8
0
100
AcDbLine
 10
17.95511922888582
 20
89.03568450322929
 30
0.0
 11
18.08511922888586
 21
89.03568450322929
 31
0.0
  0
LINE
  5
88E
330
1F
100
AcDbEntity
  8
0
100
AcDbLine
 10
17.51511922888583
 20
89.03568450322934
 30
0.0
 11
17.95511922888582
 21
89.03568450322929
 31
0.0
  0
LINE
  5
88F
330
1F
100
AcDbEntity
  8
0
100
AcDbLine
 10
16.55511922888585
 20
89.03568450322934
 30
0.0
 11
17.31511922888583
 21
89.03568450322934
 31
0.0
  0
LINE
  5
890
330
1F
100
AcDbEntity
  8
0
100
AcDbLine
 10
17.51511922888583
 20
92.84568450322927
 30
0.0
 11
17.51511922888583
 21
89.03568450322934
 31
0.0
  0
LINE
  5
891
330
1F
100
AcDbEntity
  8
0
100
AcDbLine
 10
19.48511922888575
 20
92.84568450322927
 30
0.0
 11
21.88511922888584
 21
92.84568450322927
 31
0.0
  0
LINE
  5
892
330
1F
100
AcDbEntity
  8
0
100
AcDbLine
 10
17.51511922888583
 20
89.03568450322934
 30
0.0
 11
21.88511922888584
 21
89.03568450322929
 31
0.0
  0
LINE
  5
893
330
1F
100
AcDbEntity
  8
0
100
AcDbLine
 10
19.48511922888575
 20
89.03568450322929
 30
0.0
 11
21.88511922888584
 21
89.03568450322929
 31
0.0
  0
LINE
  5
894
330
1F
100
AcDbEntity
  8
0
100
AcDbLine
 10
17.51511922888583
 20
92.84568450322927
 30
0.0
 11
21.88511922888584
 21
92.84568450322927
 31
0.0
  0
LINE
  5
895
330
1F
100
AcDbEntity
  8
0
100
AcDbLine
 10
22.38511922888584
 20
94.25568450322932
 30
0.0
 11
22.88511922888584
 21
94.25568450322932
 31
0.0
  0
LINE
  5
896
330
1F
100
AcDbEntity
  8
0
100
AcDbLine
 10
22.88511922888584
 20
94.25568450322932
 30
0.0
 11
22.88511922888584
 21
93.85568450322926
 31
0.0
  0
LINE
  5
897
330
1F
100
AcDbEntity
  8
0
100
AcDbLine
 10
22.88511922888584
 20
89.54568450322929
 30
0.0
 11
22.88511922888584
 21
89.14568450322922
 31
0.0
  0
LINE
  5
898
330
1F
100
AcDbEntity
  8
0
100
AcDbLine
 10
22.88511922888584
 20
90.04568450322929
 30
0.0
 11
22.88511922888584
 21
89.54568450322929
 31
0.0
  0
LINE
  5
899
330
1F
100
AcDbEntity
  8
0
100
AcDbLine
 10
22.88511922888584
 20
90.44568450322918
 30
0.0
 11
22.88511922888584
 21
90.04568450322929
 31
0.0
  0
LINE
  5
89A
330
1F
100
AcDbEntity
  8
0
100
AcDbLine
 10
22.38511922888584
 20
89.14568450322922
 30
0.0
 11
22.88511922888584
 21
89.14568450322922
 31
0.0
  0
LINE
  5
89B
330
1F
100
AcDbEntity
  8
0
100
AcDbLine
 10
22.38511922888584
 20
90.44568450322918
 30
0.0
 11
22.88511922888584
 21
90.44568450322918
 31
0.0
  0
LINE
  5
89C
330
1F
100
AcDbEntity
  8
0
100
AcDbLine
 10
22.38511922888584
 20
92.95568450322916
 30
0.0
 11
22.88511922888584
 21
92.95568450322916
 31
0.0
  0
LINE
  5
89D
330
1F
100
AcDbEntity
  8
0
100
AcDbLine
 10
22.88511922888584
 20
93.35568450322924
 30
0.0
 11
22.88511922888584
 21
92.95568450322916
 31
0.0
  0
LINE
  5
89E
330
1F
100
AcDbEntity
  8
0
100
AcDbLine
 10
22.38511922888584
 20
92.95568450322916
 30
0.0
 11
22.38511922888584
 21
92.84568450322927
 31
0.0
  0
LINE
  5
89F
330
1F
100
AcDbEntity
  8
0
100
AcDbLine
 10
22.88511922888584
 20
93.85568450322926
 30
0.0
 11
22.88511922888584
 21
93.35568450322924
 31
0.0
  0
LINE
  5
8A0
330
1F
100
AcDbEntity
  8
0
100
AcDbLine
 10
22.38511922888584
 20
89.14568450322922
 30
0.0
 11
22.38511922888584
 21
89.03568450322929
 31
0.0
  0
LINE
  5
8A1
330
1F
100
AcDbEntity
  8
0
100
AcDbLine
 10
22.38511922888584
 20
96.65568450322915
 30
0.0
 11
21.88511922888584
 21
96.65568450322915
 31
0.0
  0
LINE
  5
8A2
330
1F
100
AcDbEntity
  8
0
100
AcDbLine
 10
22.38511922888584
 20
96.65568450322915
 30
0.0
 11
21.88511922888584
 21
96.65568450322915
 31
0.0
  0
LINE
  5
8A3
330
1F
100
AcDbEntity
  8
0
100
AcDbLine
 10
22.38511922888584
 20
100.465684503229
 30
0.0
 11
21.88511922888584
 21
100.465684503229
 31
0.0
  0
LINE
  5
8A4
330
1F
100
AcDbEntity
  8
0
100
AcDbLine
 10
22.38511922888584
 20
100.465684503229
 30
0.0
 11
21.88511922888584
 21
100.465684503229
 31
0.0
  0
LINE
  5
8A5
330
1F
100
AcDbEntity
  8
0
100
AcDbLine
 10
17.51511922888583
 20
100.465684503229
 30
0.0
 11
17.51511922888583
 21
96.65568450322915
 31
0.0
  0
LINE
  5
8A6
330
1F
100
AcDbEntity
  8
0
100
AcDbLine
 10
17.51511922888583
 20
96.65568450322915
 30
0.0
 11
17.31511922888583
 21
96.65568450322915
 31
0.0
  0
LINE
  5
8A7
330
1F
100
AcDbEntity
  8
0
100
AcDbLine
 10
17.51511922888583
 20
96.65568450322915
 30
0.0
 11
17.31511922888583
 21
96.65568450322915
 31
0.0
  0
LINE
  5
8A8
330
1F
100
AcDbEntity
  8
0
100
AcDbLine
 10
18.08511922888586
 20
96.65568450322915
 30
0.0
 11
19.48511922888575
 21
96.65568450322915
 31
0.0
  0
LINE
  5
8A9
330
1F
100
AcDbEntity
  8
0
100
AcDbLine
 10
17.95511922888582
 20
96.65568450322915
 30
0.0
 11
18.08511922888586
 21
96.65568450322915
 31
0.0
  0
LINE
  5
8AA
330
1F
100
AcDbEntity
  8
0
100
AcDbLine
 10
17.51511922888583
 20
96.65568450322915
 30
0.0
 11
17.95511922888582
 21
96.65568450322915
 31
0.0
  0
LINE
  5
8AB
330
1F
100
AcDbEntity
  8
0
100
AcDbLine
 10
16.55511922888585
 20
96.65568450322915
 30
0.0
 11
17.31511922888583
 21
96.65568450322915
 31
0.0
  0
LINE
  5
8AC
330
1F
100
AcDbEntity
  8
0
100
AcDbLine
 10
17.51511922888583
 20
100.465684503229
 30
0.0
 11
17.31511922888583
 21
100.465684503229
 31
0.0
  0
LINE
  5
8AD
330
1F
100
AcDbEntity
  8
0
100
AcDbLine
 10
17.51511922888583
 20
100.465684503229
 30
0.0
 11
17.95511922888582
 21
100.465684503229
 31
0.0
  0
LINE
  5
8AE
330
1F
100
AcDbEntity
  8
0
100
AcDbLine
 10
17.95511922888582
 20
100.465684503229
 30
0.0
 11
18.08511922888586
 21
100.465684503229
 31
0.0
  0
LINE
  5
8AF
330
1F
100
AcDbEntity
  8
0
100
AcDbLine
 10
18.08511922888586
 20
100.465684503229
 30
0.0
 11
19.48511922888575
 21
100.465684503229
 31
0.0
  0
LINE
  5
8B0
330
1F
100
AcDbEntity
  8
0
100
AcDbLine
 10
17.51511922888583
 20
100.465684503229
 30
0.0
 11
17.31511922888583
 21
100.465684503229
 31
0.0
  0
LINE
  5
8B1
330
1F
100
AcDbEntity
  8
0
100
AcDbLine
 10
16.55511922888585
 20
100.465684503229
 30
0.0
 11
17.31511922888583
 21
100.465684503229
 31
0.0
  0
LINE
  5
8B2
330
1F
100
AcDbEntity
  8
0
100
AcDbLine
 10
17.51511922888583
 20
96.65568450322915
 30
0.0
 11
21.88511922888584
 21
96.65568450322915
 31
0.0
  0
LINE
  5
8B3
330
1F
100
AcDbEntity
  8
0
100
AcDbLine
 10
19.48511922888575
 20
96.65568450322915
 30
0.0
 11
21.88511922888584
 21
96.65568450322915
 31
0.0
  0
LINE
  5
8B4
330
1F
100
AcDbEntity
  8
0
100
AcDbLine
 10
17.51511922888583
 20
100.465684503229
 30
0.0
 11
21.88511922888584
 21
100.465684503229
 31
0.0
  0
LINE
  5
8B5
330
1F
100
AcDbEntity
  8
0
100
AcDbLine
 10
19.48511922888575
 20
100.465684503229
 30
0.0
 11
21.88511922888584
 21
100.465684503229
 31
0.0
  0
LINE
  5
8B6
330
1F
100
AcDbEntity
  8
0
100
AcDbLine
 10
22.88511922888584
 20
98.06568450322927
 30
0.0
 11
22.88511922888584
 21
97.66568450322916
 31
0.0
  0
LINE
  5
8B7
330
1F
100
AcDbEntity
  8
0
100
AcDbLine
 10
22.38511922888584
 20
96.76568450322928
 30
0.0
 11
22.38511922888584
 21
96.65568450322915
 31
0.0
  0
LINE
  5
8B8
330
1F
100
AcDbEntity
  8
0
100
AcDbLine
 10
22.88511922888584
 20
97.16568450322917
 30
0.0
 11
22.88511922888584
 21
96.76568450322928
 31
0.0
  0
LINE
  5
8B9
330
1F
100
AcDbEntity
  8
0
100
AcDbLine
 10
22.38511922888584
 20
96.76568450322928
 30
0.0
 11
22.88511922888584
 21
96.76568450322928
 31
0.0
  0
LINE
  5
8BA
330
1F
100
AcDbEntity
  8
0
100
AcDbLine
 10
22.88511922888584
 20
97.66568450322916
 30
0.0
 11
22.88511922888584
 21
97.16568450322917
 31
0.0
  0
LINE
  5
8BB
330
1F
100
AcDbEntity
  8
0
100
AcDbLine
 10
22.38511922888584
 20
100.5756845032292
 30
0.0
 11
22.38511922888584
 21
100.465684503229
 31
0.0
  0
LINE
  5
8BC
330
1F
100
AcDbEntity
  8
0
100
AcDbLine
 10
22.38511922888584
 20
101.8756845032291
 30
0.0
 11
22.38511922888584
 21
100.5756845032292
 31
0.0
  0
LINE
  5
8BD
330
1F
100
AcDbEntity
  8
0
100
AcDbLine
 10
22.88511922888584
 20
100.975684503229
 30
0.0
 11
22.88511922888584
 21
100.5756845032292
 31
0.0
  0
LINE
  5
8BE
330
1F
100
AcDbEntity
  8
0
100
AcDbLine
 10
22.88511922888584
 20
101.475684503229
 30
0.0
 11
22.88511922888584
 21
100.975684503229
 31
0.0
  0
LINE
  5
8BF
330
1F
100
AcDbEntity
  8
0
100
AcDbLine
 10
22.88511922888584
 20
101.8756845032291
 30
0.0
 11
22.88511922888584
 21
101.475684503229
 31
0.0
  0
LINE
  5
8C0
330
1F
100
AcDbEntity
  8
0
100
AcDbLine
 10
22.38511922888584
 20
100.5756845032292
 30
0.0
 11
22.88511922888584
 21
100.5756845032292
 31
0.0
  0
LINE
  5
8C1
330
1F
100
AcDbEntity
  8
0
100
AcDbLine
 10
22.38511922888584
 20
101.8756845032291
 30
0.0
 11
22.88511922888584
 21
101.8756845032291
 31
0.0
  0
LINE
  5
8C2
330
1F
100
AcDbEntity
  8
0
100
AcDbLine
 10
22.38511922888584
 20
98.06568450322927
 30
0.0
 11
22.88511922888584
 21
98.06568450322927
 31
0.0
  0
LINE
  5
8C3
330
1F
100
AcDbEntity
  8
0
100
AcDbLine
 10
17.51511922888583
 20
104.2756845032291
 30
0.0
 11
17.51511922888583
 21
100.465684503229
 31
0.0
  0
LINE
  5
8C4
330
1F
100
AcDbEntity
  8
0
100
AcDbLine
 10
22.88511922888584
 20
107.5256845032283
 30
0.0
 11
22.88511922888585
 21
117.7256845032272
 31
0.0
  0
LINE
  5
8C5
330
1F
100
AcDbEntity
  8
0
100
AcDbLine
 10
22.73212357960443
 20
114.1766320027282
 30
0.0
 11
22.88511922888585
 21
114.3296276520096
 31
0.0
  0
LINE
  5
8C6
330
1F
100
AcDbEntity
  8
0
100
AcDbLine
 10
22.73212357960443
 20
110.9766320027275
 30
0.0
 11
22.88511922888584
 21
110.8236363534462
 31
0.0
  0
LINE
  5
8C7
330
1F
100
AcDbEntity
  8
0
100
AcDbLine
 10
21.28511922888724
 20
110.9766320027275
 30
0.0
 11
22.73212357960443
 21
110.9766320027275
 31
0.0
  0
LINE
  5
8C8
330
1F
100
AcDbEntity
  8
0
100
AcDbLine
 10
21.28511922888724
 20
114.1766320027282
 30
0.0
 11
22.73212357960443
 21
114.1766320027282
 31
0.0
  0
LINE
  5
8C9
330
1F
100
AcDbEntity
  8
0
100
AcDbLine
 10
22.88511922888584
 20
107.5256845032283
 30
0.0
 11
20.88511922888583
 21
107.5256845032283
 31
0.0
  0
LINE
  5
8CA
330
1F
100
AcDbEntity
  8
0
100
AcDbLine
 10
22.88511922888585
 20
117.7256845032272
 30
0.0
 11
20.88511922888583
 21
117.7256845032272
 31
0.0
  0
ARC
  5
8CB
330
1F
100
AcDbEntity
  8
0
100
AcDbCircle
 10
20.48511922888444
 20
108.4256845032278
 30
0.0
 40
0.4
100
AcDbArc
 50
270.0
 51
0.0
  0
ARC
  5
8CC
330
1F
100
AcDbEntity
  8
0
100
AcDbCircle
 10
20.48511922888444
 20
116.8256845032294
 30
0.0
 40
0.4
100
AcDbArc
 50
0.0
 51
90.0
  0
LINE
  5
8CD
330
1F
100
AcDbEntity
  8
0
100
AcDbLine
 10
20.88511922888583
 20
116.8256845032294
 30
0.0
 11
20.88511922888583
 21
108.4256845032278
 31
0.0
  0
ARC
  5
8CE
330
1F
100
AcDbEntity
  8
0
100
AcDbCircle
 10
20.88511922888583
 20
107.9256845032279
 30
0.0
 40
0.4
100
AcDbArc
 50
270.0
 51
0.0
  0
ARC
  5
8CF
330
1F
100
AcDbEntity
  8
0
100
AcDbCircle
 10
20.88511922888583
 20
117.3256845032276
 30
0.0
 40
0.4
100
AcDbArc
 50
0.0
 51
90.0
  0
LINE
  5
8D0
330
1F
100
AcDbEntity
  8
0
100
AcDbLine
 10
21.28511922888724
 20
117.3256845032276
 30
0.0
 11
21.28511922888724
 21
107.9256845032279
 31
0.0
  0
LINE
  5
8D1
330
1F
100
AcDbEntity
  8
0
100
AcDbLine
 10
17.58511922888654
 20
114.1256845032287
 30
0.0
 11
17.58511922888654
 21
116.1256845032287
 31
0.0
  0
LINE
  5
8D2
330
1F
100
AcDbEntity
  8
0
100
AcDbLine
 10
17.58511922888654
 20
116.1256845032287
 30
0.0
 11
18.08511922888654
 21
116.1256845032287
 31
0.0
  0
LINE
  5
8D3
330
1F
100
AcDbEntity
  8
0
100
AcDbLine
 10
17.58511922888654
 20
114.1256845032287
 30
0.0
 11
18.08511922888654
 21
114.1256845032287
 31
0.0
  0
LINE
  5
8D4
330
1F
100
AcDbEntity
  8
0
100
AcDbLine
 10
18.08511922888654
 20
114.1256845032287
 30
0.0
 11
18.08511922888654
 21
116.1256845032287
 31
0.0
  0
LINE
  5
8D5
330
1F
100
AcDbEntity
  8
0
100
AcDbLine
 10
18.08511922888654
 20
111.6256845032286
 30
0.0
 11
18.08511922888654
 21
113.6256845032286
 31
0.0
  0
LINE
  5
8D6
330
1F
100
AcDbEntity
  8
0
100
AcDbLine
 10
17.58511922888654
 20
111.6256845032286
 30
0.0
 11
18.08511922888654
 21
111.6256845032286
 31
0.0
  0
LINE
  5
8D7
330
1F
100
AcDbEntity
  8
0
100
AcDbLine
 10
17.58511922888654
 20
113.6256845032286
 30
0.0
 11
18.08511922888654
 21
113.6256845032286
 31
0.0
  0
LINE
  5
8D8
330
1F
100
AcDbEntity
  8
0
100
AcDbLine
 10
17.58511922888654
 20
111.6256845032286
 30
0.0
 11
17.58511922888654
 21
113.6256845032286
 31
0.0
  0
LINE
  5
8D9
330
1F
100
AcDbEntity
  8
0
100
AcDbLine
 10
18.08511922888654
 20
109.1256845032287
 30
0.0
 11
18.08511922888654
 21
111.1256845032287
 31
0.0
  0
LINE
  5
8DA
330
1F
100
AcDbEntity
  8
0
100
AcDbLine
 10
17.58511922888654
 20
109.1256845032287
 30
0.0
 11
18.08511922888654
 21
109.1256845032287
 31
0.0
  0
LINE
  5
8DB
330
1F
100
AcDbEntity
  8
0
100
AcDbLine
 10
17.58511922888654
 20
111.1256845032287
 30
0.0
 11
18.08511922888654
 21
111.1256845032287
 31
0.0
  0
LINE
  5
8DC
330
1F
100
AcDbEntity
  8
0
100
AcDbLine
 10
17.58511922888654
 20
109.1256845032287
 30
0.0
 11
17.58511922888654
 21
111.1256845032287
 31
0.0
  0
LINE
  5
8DD
330
1F
100
AcDbEntity
  8
0
100
AcDbLine
 10
18.30595422888585
 20
119.475684503229
 30
0.0
 11
20.27087622888585
 21
119.475684503229
 31
0.0
  0
LINE
  5
8DE
330
1F
100
AcDbEntity
  8
0
100
AcDbLine
 10
10.08511922888585
 20
144.8796725032293
 30
0.0
 11
22.88511922888585
 21
144.8796725032293
 31
0.0
  0
LINE
  5
8DF
330
1F
100
AcDbEntity
  8
0
100
AcDbLine
 10
9.585119228885856
 20
144.3556855032291
 30
0.0
 11
17.38511922888583
 21
144.3556855032291
 31
0.0
  0
LINE
  5
8E0
330
1F
100
AcDbEntity
  8
0
100
AcDbLine
 10
15.88511922888583
 20
123.475684503229
 30
0.0
 11
22.88511922888585
 21
123.475684503229
 31
0.0
  0
LINE
  5
8E1
330
1F
100
AcDbEntity
  8
0
100
AcDbLine
 10
15.38511922888583
 20
123.9556855032293
 30
0.0
 11
17.38511922888583
 21
123.9556855032293
 31
0.0
  0
CIRCLE
  5
8E2
330
1F
100
AcDbEntity
  8
0
100
AcDbCircle
 10
16.48511922888582
 20
151.8794015032294
 30
0.0
 40
5.029838999999999
  0
CIRCLE
  5
8E3
330
1F
100
AcDbEntity
  8
0
100
AcDbCircle
 10
16.48511922888582
 20
151.8794015032294
 30
0.0
 40
5.029838999999999
  0
CIRCLE
  5
8E4
330
1F
100
AcDbEntity
  8
0
100
AcDbCircle
 10
16.48486122888582
 20
151.8794015032294
 30
0.0
 40
4.448566
  0
LINE
  5
8E5
330
1F
100
AcDbEntity
  8
0
100
AcDbLine
 10
15.72978222888584
 20
153.4601835032294
 30
0.0
 11
15.72978222888584
 21
154.0527395032292
 31
0.0
  0
LINE
  5
8E6
330
1F
100
AcDbEntity
  8
0
100
AcDbLine
 10
15.72978222888584
 20
153.0226565032293
 30
0.0
 11
15.72978222888584
 21
154.490611503229
 31
0.0
  0
LINE
  5
8E7
330
1F
100
AcDbEntity
  8
0
100
AcDbLine
 10
15.72978222888584
 20
149.7763425032294
 30
0.0
 11
15.72978222888584
 21
150.3690715032293
 31
0.0
  0
LINE
  5
8E8
330
1F
100
AcDbEntity
  8
0
100
AcDbLine
 10
15.72978222888584
 20
149.3386435032291
 30
0.0
 11
15.72978222888584
 21
150.8065985032291
 31
0.0
  0
LINE
  5
8E9
330
1F
100
AcDbEntity
  8
0
100
AcDbLine
 10
15.72978222888584
 20
151.6182635032293
 30
0.0
 11
15.72978222888584
 21
152.2109915032291
 31
0.0
  0
LINE
  5
8EA
330
1F
100
AcDbEntity
  8
0
100
AcDbLine
 10
15.72978222888584
 20
151.1803915032291
 30
0.0
 11
15.72978222888584
 21
152.6483465032292
 31
0.0
  0
LINE
  5
8EB
330
1F
100
AcDbEntity
  8
0
100
AcDbLine
 10
11.82735022888583
 20
151.1452515032294
 30
0.0
 11
13.74678522888584
 21
151.1452515032294
 31
0.0
  0
LINE
  5
8EC
330
1F
100
AcDbEntity
  8
0
100
AcDbLine
 10
11.82735022888583
 20
152.6130345032291
 30
0.0
 11
11.82735022888583
 21
151.1452515032294
 31
0.0
  0
LINE
  5
8ED
330
1F
100
AcDbEntity
  8
0
100
AcDbLine
 10
13.74678522888584
 20
152.6130345032291
 30
0.0
 11
11.82735022888583
 21
152.6130345032291
 31
0.0
  0
LINE
  5
8EE
330
1F
100
AcDbEntity
  8
0
100
AcDbLine
 10
13.74678522888584
 20
151.1452515032294
 30
0.0
 11
13.74678522888584
 21
152.6130345032291
 31
0.0
  0
LINE
  5
8EF
330
1F
100
AcDbEntity
  8
0
100
AcDbLine
 10
11.82735022888583
 20
151.1452515032294
 30
0.0
 11
13.74678522888584
 21
151.1452515032294
 31
0.0
  0
LINE
  5
8F0
330
1F
100
AcDbEntity
  8
0
100
AcDbLine
 10
11.82735022888583
 20
152.6130345032291
 30
0.0
 11
11.82735022888583
 21
151.1452515032294
 31
0.0
  0
LINE
  5
8F1
330
1F
100
AcDbEntity
  8
0
100
AcDbLine
 10
13.74678522888584
 20
152.6130345032291
 30
0.0
 11
11.82735022888583
 21
152.6130345032291
 31
0.0
  0
LINE
  5
8F2
330
1F
100
AcDbEntity
  8
0
100
AcDbLine
 10
13.74678522888584
 20
151.1452515032294
 30
0.0
 11
13.74678522888584
 21
152.6130345032291
 31
0.0
  0
LINE
  5
8F3
330
1F
100
AcDbEntity
  8
0
100
AcDbLine
 10
14.36810822888584
 20
154.490266503229
 30
0.0
 11
14.74913622888583
 21
154.0527395032292
 31
0.0
  0
LINE
  5
8F4
330
1F
100
AcDbEntity
  8
0
100
AcDbLine
 10
14.36810822888584
 20
153.0226565032293
 30
0.0
 11
14.74913622888583
 21
153.4601835032294
 31
0.0
  0
LINE
  5
8F5
330
1F
100
AcDbEntity
  8
0
100
AcDbLine
 10
14.74879122888584
 20
154.0527395032292
 30
0.0
 11
14.74879122888584
 21
153.4601835032294
 31
0.0
  0
LINE
  5
8F6
330
1F
100
AcDbEntity
  8
0
100
AcDbLine
 10
14.36776422888582
 20
154.490611503229
 30
0.0
 11
14.36776422888582
 21
153.0226565032293
 31
0.0
  0
LINE
  5
8F7
330
1F
100
AcDbEntity
  8
0
100
AcDbLine
 10
14.36810822888584
 20
152.6483465032292
 30
0.0
 11
14.74913622888583
 21
152.2109915032291
 31
0.0
  0
LINE
  5
8F8
330
1F
100
AcDbEntity
  8
0
100
AcDbLine
 10
14.36810822888584
 20
150.8065985032291
 30
0.0
 11
14.74913622888583
 21
150.3690715032293
 31
0.0
  0
LINE
  5
8F9
330
1F
100
AcDbEntity
  8
0
100
AcDbLine
 10
14.36810822888584
 20
149.3386435032291
 30
0.0
 11
14.74913622888583
 21
149.7763425032294
 31
0.0
  0
LINE
  5
8FA
330
1F
100
AcDbEntity
  8
0
100
AcDbLine
 10
14.74879122888584
 20
150.3690715032293
 30
0.0
 11
14.74879122888584
 21
149.7763425032294
 31
0.0
  0
LINE
  5
8FB
330
1F
100
AcDbEntity
  8
0
100
AcDbLine
 10
14.36776422888582
 20
150.8065985032291
 30
0.0
 11
14.36776422888582
 21
149.3386435032291
 31
0.0
  0
LINE
  5
8FC
330
1F
100
AcDbEntity
  8
0
100
AcDbLine
 10
14.36810822888584
 20
151.1803915032291
 30
0.0
 11
14.74913622888583
 21
151.6182635032293
 31
0.0
  0
LINE
  5
8FD
330
1F
100
AcDbEntity
  8
0
100
AcDbLine
 10
14.74879122888584
 20
152.2109915032291
 30
0.0
 11
14.74879122888584
 21
151.6182635032293
 31
0.0
  0
LINE
  5
8FE
330
1F
100
AcDbEntity
  8
0
100
AcDbLine
 10
14.36776422888582
 20
152.6483465032292
 30
0.0
 11
14.36776422888582
 21
151.1803915032291
 31
0.0
  0
LINE
  5
8FF
330
1F
100
AcDbEntity
  8
0
100
AcDbLine
 10
14.74879122888584
 20
153.4601835032294
 30
0.0
 11
15.72978222888584
 21
153.4601835032294
 31
0.0
  0
LINE
  5
900
330
1F
100
AcDbEntity
  8
0
100
AcDbLine
 10
15.72978222888584
 20
154.0527395032292
 30
0.0
 11
14.74879122888584
 21
154.0527395032292
 31
0.0
  0
LINE
  5
901
330
1F
100
AcDbEntity
  8
0
100
AcDbLine
 10
14.36776422888582
 20
153.0226565032293
 30
0.0
 11
15.72978222888584
 21
153.0226565032293
 31
0.0
  0
LINE
  5
902
330
1F
100
AcDbEntity
  8
0
100
AcDbLine
 10
15.72978222888584
 20
154.490611503229
 30
0.0
 11
14.36776422888582
 21
154.490611503229
 31
0.0
  0
LINE
  5
903
330
1F
100
AcDbEntity
  8
0
100
AcDbLine
 10
14.74879122888584
 20
149.7763425032294
 30
0.0
 11
15.72978222888584
 21
149.7763425032294
 31
0.0
  0
LINE
  5
904
330
1F
100
AcDbEntity
  8
0
100
AcDbLine
 10
15.72978222888584
 20
150.3690715032293
 30
0.0
 11
14.74879122888584
 21
150.3690715032293
 31
0.0
  0
LINE
  5
905
330
1F
100
AcDbEntity
  8
0
100
AcDbLine
 10
14.36776422888582
 20
149.3386435032291
 30
0.0
 11
15.72978222888584
 21
149.3386435032291
 31
0.0
  0
LINE
  5
906
330
1F
100
AcDbEntity
  8
0
100
AcDbLine
 10
15.72978222888584
 20
150.8065985032291
 30
0.0
 11
14.36776422888582
 21
150.8065985032291
 31
0.0
  0
LINE
  5
907
330
1F
100
AcDbEntity
  8
0
100
AcDbLine
 10
14.74879122888584
 20
151.6182635032293
 30
0.0
 11
15.72978222888584
 21
151.6182635032293
 31
0.0
  0
LINE
  5
908
330
1F
100
AcDbEntity
  8
0
100
AcDbLine
 10
15.72978222888584
 20
152.2109915032291
 30
0.0
 11
14.74879122888584
 21
152.2109915032291
 31
0.0
  0
LINE
  5
909
330
1F
100
AcDbEntity
  8
0
100
AcDbLine
 10
14.36776422888582
 20
151.1803915032291
 30
0.0
 11
15.72978222888584
 21
151.1803915032291
 31
0.0
  0
LINE
  5
90A
330
1F
100
AcDbEntity
  8
0
100
AcDbLine
 10
15.72978222888584
 20
152.6483465032292
 30
0.0
 11
14.36776422888582
 21
152.6483465032292
 31
0.0
  0
LINE
  5
90B
330
1F
100
AcDbEntity
  8
0
100
AcDbLine
 10
22.88511922888585
 20
143.2996578441763
 30
0.0
 11
22.88511922888585
 21
125.3996578441764
 31
0.0
  0
LINE
  5
90C
330
1F
100
AcDbEntity
  8
0
100
AcDbLine
 10
17.88511922888583
 20
143.2996578441763
 30
0.0
 11
17.88511922888575
 21
125.3996578441764
 31
0.0
  0
LINE
  5
90D
330
1F
100
AcDbEntity
  8
0
100
AcDbLine
 10
17.38511922888583
 20
144.3556855032291
 30
0.0
 11
17.38511922888583
 21
123.9556855032293
 31
0.0
  0
LINE
  5
90E
330
1F
100
AcDbEntity
  8
0
100
AcDbLine
 10
21.13511922888583
 20
139.4296725032293
 30
0.0
 11
21.63511922888584
 21
139.4296725032293
 31
0.0
  0
LINE
  5
90F
330
1F
100
AcDbEntity
  8
0
100
AcDbLine
 10
21.13511922888583
 20
138.9296725032292
 30
0.0
 11
21.63511922888584
 21
138.9296725032292
 31
0.0
  0
LINE
  5
910
330
1F
100
AcDbEntity
  8
0
100
AcDbLine
 10
21.13511922888583
 20
139.4296725032293
 30
0.0
 11
21.13511922888583
 21
138.9296725032292
 31
0.0
  0
LINE
  5
911
330
1F
100
AcDbEntity
  8
0
100
AcDbLine
 10
21.63511922888584
 20
138.9296725032292
 30
0.0
 11
21.63511922888584
 21
139.4296725032293
 31
0.0
  0
LINE
  5
912
330
1F
100
AcDbEntity
  8
0
100
AcDbLine
 10
21.29511922888582
 20
139.269724503229
 30
0.0
 11
21.29511922888582
 21
139.0896205032289
 31
0.0
  0
LINE
  5
913
330
1F
100
AcDbEntity
  8
0
100
AcDbLine
 10
21.29511922888582
 20
139.0896205032289
 30
0.0
 11
21.38511922888584
 21
139.0896205032289
 31
0.0
  0
LINE
  5
914
330
1F
100
AcDbEntity
  8
0
100
AcDbLine
 10
21.29511922888582
 20
139.0896205032289
 30
0.0
 11
21.38511922888584
 21
139.0896205032289
 31
0.0
  0
LINE
  5
915
330
1F
100
AcDbEntity
  8
0
100
AcDbLine
 10
21.29511922888582
 20
139.269724503229
 30
0.0
 11
21.38511922888584
 21
139.269724503229
 31
0.0
  0
LINE
  5
916
330
1F
100
AcDbEntity
  8
0
100
AcDbLine
 10
21.47511922888584
 20
139.269724503229
 30
0.0
 11
21.38511922888584
 21
139.269724503229
 31
0.0
  0
LINE
  5
917
330
1F
100
AcDbEntity
  8
0
100
AcDbLine
 10
21.47511922888584
 20
139.0896205032289
 30
0.0
 11
21.38511922888584
 21
139.0896205032289
 31
0.0
  0
LINE
  5
918
330
1F
100
AcDbEntity
  8
0
100
AcDbLine
 10
21.47511922888584
 20
139.0896205032289
 30
0.0
 11
21.38511922888584
 21
139.0896205032289
 31
0.0
  0
LINE
  5
919
330
1F
100
AcDbEntity
  8
0
100
AcDbLine
 10
21.47511922888584
 20
139.269724503229
 30
0.0
 11
21.47511922888584
 21
139.0896205032289
 31
0.0
  0
LINE
  5
91A
330
1F
100
AcDbEntity
  8
0
100
AcDbLine
 10
19.13511922888583
 20
138.9296725032292
 30
0.0
 11
19.63511922888583
 21
138.9296725032292
 31
0.0
  0
LINE
  5
91B
330
1F
100
AcDbEntity
  8
0
100
AcDbLine
 10
19.13511922888583
 20
139.4296725032293
 30
0.0
 11
19.63511922888583
 21
139.4296725032293
 31
0.0
  0
LINE
  5
91C
330
1F
100
AcDbEntity
  8
0
100
AcDbLine
 10
19.47511922888583
 20
139.269724503229
 30
0.0
 11
19.47511922888583
 21
139.0896205032289
 31
0.0
  0
LINE
  5
91D
330
1F
100
AcDbEntity
  8
0
100
AcDbLine
 10
19.47511922888583
 20
139.0896205032289
 30
0.0
 11
19.38511922888583
 21
139.0896205032289
 31
0.0
  0
LINE
  5
91E
330
1F
100
AcDbEntity
  8
0
100
AcDbLine
 10
19.47511922888583
 20
139.0896205032289
 30
0.0
 11
19.38511922888583
 21
139.0896205032289
 31
0.0
  0
LINE
  5
91F
330
1F
100
AcDbEntity
  8
0
100
AcDbLine
 10
19.47511922888583
 20
139.269724503229
 30
0.0
 11
19.38511922888583
 21
139.269724503229
 31
0.0
  0
LINE
  5
920
330
1F
100
AcDbEntity
  8
0
100
AcDbLine
 10
19.29511922888575
 20
139.269724503229
 30
0.0
 11
19.38511922888583
 21
139.269724503229
 31
0.0
  0
LINE
  5
921
330
1F
100
AcDbEntity
  8
0
100
AcDbLine
 10
19.29511922888575
 20
139.0896205032289
 30
0.0
 11
19.38511922888583
 21
139.0896205032289
 31
0.0
  0
LINE
  5
922
330
1F
100
AcDbEntity
  8
0
100
AcDbLine
 10
19.29511922888575
 20
139.0896205032289
 30
0.0
 11
19.38511922888583
 21
139.0896205032289
 31
0.0
  0
LINE
  5
923
330
1F
100
AcDbEntity
  8
0
100
AcDbLine
 10
19.29511922888575
 20
139.269724503229
 30
0.0
 11
19.29511922888575
 21
139.0896205032289
 31
0.0
  0
LINE
  5
924
330
1F
100
AcDbEntity
  8
0
100
AcDbLine
 10
19.63511922888583
 20
138.9296725032292
 30
0.0
 11
19.63511922888583
 21
139.4296725032293
 31
0.0
  0
LINE
  5
925
330
1F
100
AcDbEntity
  8
0
100
AcDbLine
 10
19.13511922888583
 20
139.4296725032293
 30
0.0
 11
19.13511922888583
 21
138.9296725032292
 31
0.0
  0
LINE
  5
926
330
1F
100
AcDbEntity
  8
0
100
AcDbLine
 10
21.47511922888584
 20
131.2697245032291
 30
0.0
 11
21.47511922888584
 21
131.0896205032288
 31
0.0
  0
LINE
  5
927
330
1F
100
AcDbEntity
  8
0
100
AcDbLine
 10
21.29511922888582
 20
131.2697245032291
 30
0.0
 11
21.29511922888582
 21
131.0896205032288
 31
0.0
  0
LINE
  5
928
330
1F
100
AcDbEntity
  8
0
100
AcDbLine
 10
21.47511922888584
 20
131.0896205032288
 30
0.0
 11
21.38511922888584
 21
131.0896205032288
 31
0.0
  0
LINE
  5
929
330
1F
100
AcDbEntity
  8
0
100
AcDbLine
 10
21.47511922888584
 20
131.0896205032288
 30
0.0
 11
21.38511922888584
 21
131.0896205032288
 31
0.0
  0
LINE
  5
92A
330
1F
100
AcDbEntity
  8
0
100
AcDbLine
 10
21.29511922888582
 20
131.0896205032288
 30
0.0
 11
21.38511922888584
 21
131.0896205032288
 31
0.0
  0
LINE
  5
92B
330
1F
100
AcDbEntity
  8
0
100
AcDbLine
 10
21.29511922888582
 20
131.0896205032288
 30
0.0
 11
21.38511922888584
 21
131.0896205032288
 31
0.0
  0
LINE
  5
92C
330
1F
100
AcDbEntity
  8
0
100
AcDbLine
 10
21.13511922888583
 20
131.4296725032294
 30
0.0
 11
21.63511922888584
 21
131.4296725032294
 31
0.0
  0
LINE
  5
92D
330
1F
100
AcDbEntity
  8
0
100
AcDbLine
 10
21.47511922888584
 20
131.2697245032291
 30
0.0
 11
21.38511922888584
 21
131.2697245032291
 31
0.0
  0
LINE
  5
92E
330
1F
100
AcDbEntity
  8
0
100
AcDbLine
 10
21.29511922888582
 20
131.2697245032291
 30
0.0
 11
21.38511922888584
 21
131.2697245032291
 31
0.0
  0
LINE
  5
92F
330
1F
100
AcDbEntity
  8
0
100
AcDbLine
 10
21.13511922888583
 20
130.9296725032292
 30
0.0
 11
21.63511922888584
 21
130.9296725032292
 31
0.0
  0
LINE
  5
930
330
1F
100
AcDbEntity
  8
0
100
AcDbLine
 10
21.13511922888583
 20
131.4296725032294
 30
0.0
 11
21.13511922888583
 21
130.9296725032292
 31
0.0
  0
LINE
  5
931
330
1F
100
AcDbEntity
  8
0
100
AcDbLine
 10
21.63511922888584
 20
130.9296725032292
 30
0.0
 11
21.63511922888584
 21
131.4296725032294
 31
0.0
  0
LINE
  5
932
330
1F
100
AcDbEntity
  8
0
100
AcDbLine
 10
21.47511922888584
 20
129.2697245032291
 30
0.0
 11
21.47511922888584
 21
129.0896205032288
 31
0.0
  0
LINE
  5
933
330
1F
100
AcDbEntity
  8
0
100
AcDbLine
 10
21.29511922888582
 20
129.2697245032291
 30
0.0
 11
21.29511922888582
 21
129.0896205032288
 31
0.0
  0
LINE
  5
934
330
1F
100
AcDbEntity
  8
0
100
AcDbLine
 10
21.47511922888584
 20
129.0896205032288
 30
0.0
 11
21.38511922888584
 21
129.0896205032288
 31
0.0
  0
LINE
  5
935
330
1F
100
AcDbEntity
  8
0
100
AcDbLine
 10
21.47511922888584
 20
129.0896205032288
 30
0.0
 11
21.38511922888584
 21
129.0896205032288
 31
0.0
  0
LINE
  5
936
330
1F
100
AcDbEntity
  8
0
100
AcDbLine
 10
21.29511922888582
 20
129.0896205032288
 30
0.0
 11
21.38511922888584
 21
129.0896205032288
 31
0.0
  0
LINE
  5
937
330
1F
100
AcDbEntity
  8
0
100
AcDbLine
 10
21.29511922888582
 20
129.0896205032288
 30
0.0
 11
21.38511922888584
 21
129.0896205032288
 31
0.0
  0
LINE
  5
938
330
1F
100
AcDbEntity
  8
0
100
AcDbLine
 10
21.13511922888583
 20
129.4296725032292
 30
0.0
 11
21.63511922888584
 21
129.4296725032292
 31
0.0
  0
LINE
  5
939
330
1F
100
AcDbEntity
  8
0
100
AcDbLine
 10
21.47511922888584
 20
129.2697245032291
 30
0.0
 11
21.38511922888584
 21
129.2697245032291
 31
0.0
  0
LINE
  5
93A
330
1F
100
AcDbEntity
  8
0
100
AcDbLine
 10
21.29511922888582
 20
129.2697245032291
 30
0.0
 11
21.38511922888584
 21
129.2697245032291
 31
0.0
  0
LINE
  5
93B
330
1F
100
AcDbEntity
  8
0
100
AcDbLine
 10
21.13511922888583
 20
128.9296725032293
 30
0.0
 11
21.63511922888584
 21
128.9296725032293
 31
0.0
  0
LINE
  5
93C
330
1F
100
AcDbEntity
  8
0
100
AcDbLine
 10
21.13511922888583
 20
129.4296725032292
 30
0.0
 11
21.13511922888583
 21
128.9296725032293
 31
0.0
  0
LINE
  5
93D
330
1F
100
AcDbEntity
  8
0
100
AcDbLine
 10
21.63511922888584
 20
128.9296725032293
 30
0.0
 11
21.63511922888584
 21
129.4296725032292
 31
0.0
  0
LINE
  5
93E
330
1F
100
AcDbEntity
  8
0
100
AcDbLine
 10
19.29511922888575
 20
131.2697245032291
 30
0.0
 11
19.29511922888575
 21
131.0896205032288
 31
0.0
  0
LINE
  5
93F
330
1F
100
AcDbEntity
  8
0
100
AcDbLine
 10
19.47511922888583
 20
131.2697245032291
 30
0.0
 11
19.47511922888583
 21
131.0896205032288
 31
0.0
  0
LINE
  5
940
330
1F
100
AcDbEntity
  8
0
100
AcDbLine
 10
19.29511922888575
 20
131.0896205032288
 30
0.0
 11
19.38511922888583
 21
131.0896205032288
 31
0.0
  0
LINE
  5
941
330
1F
100
AcDbEntity
  8
0
100
AcDbLine
 10
19.29511922888575
 20
131.0896205032288
 30
0.0
 11
19.38511922888583
 21
131.0896205032288
 31
0.0
  0
LINE
  5
942
330
1F
100
AcDbEntity
  8
0
100
AcDbLine
 10
19.47511922888583
 20
131.0896205032288
 30
0.0
 11
19.38511922888583
 21
131.0896205032288
 31
0.0
  0
LINE
  5
943
330
1F
100
AcDbEntity
  8
0
100
AcDbLine
 10
19.47511922888583
 20
131.0896205032288
 30
0.0
 11
19.38511922888583
 21
131.0896205032288
 31
0.0
  0
LINE
  5
944
330
1F
100
AcDbEntity
  8
0
100
AcDbLine
 10
19.13511922888583
 20
131.4296725032294
 30
0.0
 11
19.63511922888583
 21
131.4296725032294
 31
0.0
  0
LINE
  5
945
330
1F
100
AcDbEntity
  8
0
100
AcDbLine
 10
19.29511922888575
 20
131.2697245032291
 30
0.0
 11
19.38511922888583
 21
131.2697245032291
 31
0.0
  0
LINE
  5
946
330
1F
100
AcDbEntity
  8
0
100
AcDbLine
 10
19.47511922888583
 20
131.2697245032291
 30
0.0
 11
19.38511922888583
 21
131.2697245032291
 31
0.0
  0
LINE
  5
947
330
1F
100
AcDbEntity
  8
0
100
AcDbLine
 10
19.13511922888583
 20
130.9296725032292
 30
0.0
 11
19.63511922888583
 21
130.9296725032292
 31
0.0
  0
LINE
  5
948
330
1F
100
AcDbEntity
  8
0
100
AcDbLine
 10
19.13511922888583
 20
131.4296725032294
 30
0.0
 11
19.13511922888583
 21
130.9296725032292
 31
0.0
  0
LINE
  5
949
330
1F
100
AcDbEntity
  8
0
100
AcDbLine
 10
19.63511922888583
 20
130.9296725032292
 30
0.0
 11
19.63511922888583
 21
131.4296725032294
 31
0.0
  0
LINE
  5
94A
330
1F
100
AcDbEntity
  8
0
100
AcDbLine
 10
19.29511922888575
 20
129.2697245032291
 30
0.0
 11
19.29511922888575
 21
129.0896205032288
 31
0.0
  0
LINE
  5
94B
330
1F
100
AcDbEntity
  8
0
100
AcDbLine
 10
19.47511922888583
 20
129.2697245032291
 30
0.0
 11
19.47511922888583
 21
129.0896205032288
 31
0.0
  0
LINE
  5
94C
330
1F
100
AcDbEntity
  8
0
100
AcDbLine
 10
19.29511922888575
 20
129.0896205032288
 30
0.0
 11
19.38511922888583
 21
129.0896205032288
 31
0.0
  0
LINE
  5
94D
330
1F
100
AcDbEntity
  8
0
100
AcDbLine
 10
19.29511922888575
 20
129.0896205032288
 30
0.0
 11
19.38511922888583
 21
129.0896205032288
 31
0.0
  0
LINE
  5
94E
330
1F
100
AcDbEntity
  8
0
100
AcDbLine
 10
19.47511922888583
 20
129.0896205032288
 30
0.0
 11
19.38511922888583
 21
129.0896205032288
 31
0.0
  0
LINE
  5
94F
330
1F
100
AcDbEntity
  8
0
100
AcDbLine
 10
19.47511922888583
 20
129.0896205032288
 30
0.0
 11
19.38511922888583
 21
129.0896205032288
 31
0.0
  0
LINE
  5
950
330
1F
100
AcDbEntity
  8
0
100
AcDbLine
 10
19.13511922888583
 20
129.4296725032292
 30
0.0
 11
19.63511922888583
 21
129.4296725032292
 31
0.0
  0
LINE
  5
951
330
1F
100
AcDbEntity
  8
0
100
AcDbLine
 10
19.29511922888575
 20
129.2697245032291
 30
0.0
 11
19.38511922888583
 21
129.2697245032291
 31
0.0
  0
LINE
  5
952
330
1F
100
AcDbEntity
  8
0
100
AcDbLine
 10
19.47511922888583
 20
129.2697245032291
 30
0.0
 11
19.38511922888583
 21
129.2697245032291
 31
0.0
  0
LINE
  5
953
330
1F
100
AcDbEntity
  8
0
100
AcDbLine
 10
19.13511922888583
 20
128.9296725032293
 30
0.0
 11
19.63511922888583
 21
128.9296725032293
 31
0.0
  0
LINE
  5
954
330
1F
100
AcDbEntity
  8
0
100
AcDbLine
 10
19.13511922888583
 20
129.4296725032292
 30
0.0
 11
19.13511922888583
 21
128.9296725032293
 31
0.0
  0
LINE
  5
955
330
1F
100
AcDbEntity
  8
0
100
AcDbLine
 10
19.63511922888583
 20
128.9296725032293
 30
0.0
 11
19.63511922888583
 21
129.4296725032292
 31
0.0
  0
LINE
  5
956
330
1F
100
AcDbEntity
  8
0
100
AcDbLine
 10
21.13511922888583
 20
127.4296725032292
 30
0.0
 11
21.13511922888583
 21
126.9296725032294
 31
0.0
  0
LINE
  5
957
330
1F
100
AcDbEntity
  8
0
100
AcDbLine
 10
21.63511922888584
 20
126.9296725032294
 30
0.0
 11
21.63511922888584
 21
127.4296725032292
 31
0.0
  0
LINE
  5
958
330
1F
100
AcDbEntity
  8
0
100
AcDbLine
 10
21.29511922888582
 20
127.2697245032291
 30
0.0
 11
21.29511922888582
 21
127.0896205032289
 31
0.0
  0
LINE
  5
959
330
1F
100
AcDbEntity
  8
0
100
AcDbLine
 10
21.47511922888584
 20
127.2697245032291
 30
0.0
 11
21.47511922888584
 21
127.0896205032289
 31
0.0
  0
LINE
  5
95A
330
1F
100
AcDbEntity
  8
0
100
AcDbLine
 10
21.13511922888583
 20
126.9296725032294
 30
0.0
 11
21.63511922888584
 21
126.9296725032294
 31
0.0
  0
LINE
  5
95B
330
1F
100
AcDbEntity
  8
0
100
AcDbLine
 10
21.29511922888582
 20
127.0896205032289
 30
0.0
 11
21.38511922888584
 21
127.0896205032289
 31
0.0
  0
LINE
  5
95C
330
1F
100
AcDbEntity
  8
0
100
AcDbLine
 10
21.29511922888582
 20
127.0896205032289
 30
0.0
 11
21.38511922888584
 21
127.0896205032289
 31
0.0
  0
LINE
  5
95D
330
1F
100
AcDbEntity
  8
0
100
AcDbLine
 10
21.47511922888584
 20
127.0896205032289
 30
0.0
 11
21.38511922888584
 21
127.0896205032289
 31
0.0
  0
LINE
  5
95E
330
1F
100
AcDbEntity
  8
0
100
AcDbLine
 10
21.47511922888584
 20
127.0896205032289
 30
0.0
 11
21.38511922888584
 21
127.0896205032289
 31
0.0
  0
LINE
  5
95F
330
1F
100
AcDbEntity
  8
0
100
AcDbLine
 10
21.13511922888583
 20
127.4296725032292
 30
0.0
 11
21.63511922888584
 21
127.4296725032292
 31
0.0
  0
LINE
  5
960
330
1F
100
AcDbEntity
  8
0
100
AcDbLine
 10
21.29511922888582
 20
127.2697245032291
 30
0.0
 11
21.38511922888584
 21
127.2697245032291
 31
0.0
  0
LINE
  5
961
330
1F
100
AcDbEntity
  8
0
100
AcDbLine
 10
21.47511922888584
 20
127.2697245032291
 30
0.0
 11
21.38511922888584
 21
127.2697245032291
 31
0.0
  0
LINE
  5
962
330
1F
100
AcDbEntity
  8
0
100
AcDbLine
 10
19.63511922888583
 20
126.9296725032294
 30
0.0
 11
19.63511922888583
 21
127.4296725032292
 31
0.0
  0
LINE
  5
963
330
1F
100
AcDbEntity
  8
0
100
AcDbLine
 10
19.13511922888583
 20
127.4296725032292
 30
0.0
 11
19.13511922888583
 21
126.9296725032294
 31
0.0
  0
LINE
  5
964
330
1F
100
AcDbEntity
  8
0
100
AcDbLine
 10
19.47511922888583
 20
127.2697245032291
 30
0.0
 11
19.47511922888583
 21
127.0896205032289
 31
0.0
  0
LINE
  5
965
330
1F
100
AcDbEntity
  8
0
100
AcDbLine
 10
19.29511922888575
 20
127.2697245032291
 30
0.0
 11
19.29511922888575
 21
127.0896205032289
 31
0.0
  0
LINE
  5
966
330
1F
100
AcDbEntity
  8
0
100
AcDbLine
 10
19.13511922888583
 20
126.9296725032294
 30
0.0
 11
19.63511922888583
 21
126.9296725032294
 31
0.0
  0
LINE
  5
967
330
1F
100
AcDbEntity
  8
0
100
AcDbLine
 10
19.47511922888583
 20
127.0896205032289
 30
0.0
 11
19.38511922888583
 21
127.0896205032289
 31
0.0
  0
LINE
  5
968
330
1F
100
AcDbEntity
  8
0
100
AcDbLine
 10
19.47511922888583
 20
127.0896205032289
 30
0.0
 11
19.38511922888583
 21
127.0896205032289
 31
0.0
  0
LINE
  5
969
330
1F
100
AcDbEntity
  8
0
100
AcDbLine
 10
19.29511922888575
 20
127.0896205032289
 30
0.0
 11
19.38511922888583
 21
127.0896205032289
 31
0.0
  0
LINE
  5
96A
330
1F
100
AcDbEntity
  8
0
100
AcDbLine
 10
19.29511922888575
 20
127.0896205032289
 30
0.0
 11
19.38511922888583
 21
127.0896205032289
 31
0.0
  0
LINE
  5
96B
330
1F
100
AcDbEntity
  8
0
100
AcDbLine
 10
19.47511922888583
 20
127.2697245032291
 30
0.0
 11
19.38511922888583
 21
127.2697245032291
 31
0.0
  0
LINE
  5
96C
330
1F
100
AcDbEntity
  8
0
100
AcDbLine
 10
19.29511922888575
 20
127.2697245032291
 30
0.0
 11
19.38511922888583
 21
127.2697245032291
 31
0.0
  0
LINE
  5
96D
330
1F
100
AcDbEntity
  8
0
100
AcDbLine
 10
19.13511922888583
 20
127.4296725032292
 30
0.0
 11
19.63511922888583
 21
127.4296725032292
 31
0.0
  0
LINE
  5
96E
330
1F
100
AcDbEntity
  8
0
100
AcDbLine
 10
18.30595422888585
 20
122.475684503229
 30
0.0
 11
20.27087622888585
 21
122.475684503229
 31
0.0
  0
LINE
  5
96F
330
1F
100
AcDbEntity
  8
0
100
AcDbLine
 10
21.13511922888583
 20
137.4296725032293
 30
0.0
 11
21.63511922888584
 21
137.4296725032293
 31
0.0
  0
LINE
  5
970
330
1F
100
AcDbEntity
  8
0
100
AcDbLine
 10
21.13511922888583
 20
136.9296725032292
 30
0.0
 11
21.63511922888584
 21
136.9296725032292
 31
0.0
  0
LINE
  5
971
330
1F
100
AcDbEntity
  8
0
100
AcDbLine
 10
21.13511922888583
 20
137.4296725032293
 30
0.0
 11
21.13511922888583
 21
136.9296725032292
 31
0.0
  0
LINE
  5
972
330
1F
100
AcDbEntity
  8
0
100
AcDbLine
 10
21.63511922888584
 20
136.9296725032292
 30
0.0
 11
21.63511922888584
 21
137.4296725032293
 31
0.0
  0
LINE
  5
973
330
1F
100
AcDbEntity
  8
0
100
AcDbLine
 10
21.29511922888582
 20
137.2697245032291
 30
0.0
 11
21.29511922888582
 21
137.0896205032289
 31
0.0
  0
LINE
  5
974
330
1F
100
AcDbEntity
  8
0
100
AcDbLine
 10
21.29511922888582
 20
137.0896205032289
 30
0.0
 11
21.38511922888584
 21
137.0896205032289
 31
0.0
  0
LINE
  5
975
330
1F
100
AcDbEntity
  8
0
100
AcDbLine
 10
21.29511922888582
 20
137.0896205032289
 30
0.0
 11
21.38511922888584
 21
137.0896205032289
 31
0.0
  0
LINE
  5
976
330
1F
100
AcDbEntity
  8
0
100
AcDbLine
 10
21.29511922888582
 20
137.2697245032291
 30
0.0
 11
21.38511922888584
 21
137.2697245032291
 31
0.0
  0
LINE
  5
977
330
1F
100
AcDbEntity
  8
0
100
AcDbLine
 10
21.47511922888584
 20
137.2697245032291
 30
0.0
 11
21.38511922888584
 21
137.2697245032291
 31
0.0
  0
LINE
  5
978
330
1F
100
AcDbEntity
  8
0
100
AcDbLine
 10
21.47511922888584
 20
137.0896205032289
 30
0.0
 11
21.38511922888584
 21
137.0896205032289
 31
0.0
  0
LINE
  5
979
330
1F
100
AcDbEntity
  8
0
100
AcDbLine
 10
21.47511922888584
 20
137.0896205032289
 30
0.0
 11
21.38511922888584
 21
137.0896205032289
 31
0.0
  0
LINE
  5
97A
330
1F
100
AcDbEntity
  8
0
100
AcDbLine
 10
21.47511922888584
 20
137.2697245032291
 30
0.0
 11
21.47511922888584
 21
137.0896205032289
 31
0.0
  0
LINE
  5
97B
330
1F
100
AcDbEntity
  8
0
100
AcDbLine
 10
21.13511922888583
 20
132.9296725032292
 30
0.0
 11
21.63511922888584
 21
132.9296725032292
 31
0.0
  0
LINE
  5
97C
330
1F
100
AcDbEntity
  8
0
100
AcDbLine
 10
21.13511922888583
 20
133.4296725032293
 30
0.0
 11
21.63511922888584
 21
133.4296725032293
 31
0.0
  0
LINE
  5
97D
330
1F
100
AcDbEntity
  8
0
100
AcDbLine
 10
21.13511922888583
 20
135.4296725032292
 30
0.0
 11
21.63511922888584
 21
135.4296725032292
 31
0.0
  0
LINE
  5
97E
330
1F
100
AcDbEntity
  8
0
100
AcDbLine
 10
21.13511922888583
 20
134.9296725032292
 30
0.0
 11
21.63511922888584
 21
134.9296725032292
 31
0.0
  0
LINE
  5
97F
330
1F
100
AcDbEntity
  8
0
100
AcDbLine
 10
21.13511922888583
 20
133.4296725032293
 30
0.0
 11
21.13511922888583
 21
132.9296725032292
 31
0.0
  0
LINE
  5
980
330
1F
100
AcDbEntity
  8
0
100
AcDbLine
 10
21.13511922888583
 20
135.4296725032292
 30
0.0
 11
21.13511922888583
 21
134.9296725032292
 31
0.0
  0
LINE
  5
981
330
1F
100
AcDbEntity
  8
0
100
AcDbLine
 10
21.63511922888584
 20
132.9296725032292
 30
0.0
 11
21.63511922888584
 21
133.4296725032293
 31
0.0
  0
LINE
  5
982
330
1F
100
AcDbEntity
  8
0
100
AcDbLine
 10
21.29511922888582
 20
133.269724503229
 30
0.0
 11
21.29511922888582
 21
133.0896205032289
 31
0.0
  0
LINE
  5
983
330
1F
100
AcDbEntity
  8
0
100
AcDbLine
 10
21.29511922888582
 20
133.0896205032289
 30
0.0
 11
21.38511922888584
 21
133.0896205032289
 31
0.0
  0
LINE
  5
984
330
1F
100
AcDbEntity
  8
0
100
AcDbLine
 10
21.29511922888582
 20
133.0896205032289
 30
0.0
 11
21.38511922888584
 21
133.0896205032289
 31
0.0
  0
LINE
  5
985
330
1F
100
AcDbEntity
  8
0
100
AcDbLine
 10
21.29511922888582
 20
133.269724503229
 30
0.0
 11
21.38511922888584
 21
133.269724503229
 31
0.0
  0
LINE
  5
986
330
1F
100
AcDbEntity
  8
0
100
AcDbLine
 10
21.47511922888584
 20
133.269724503229
 30
0.0
 11
21.38511922888584
 21
133.269724503229
 31
0.0
  0
LINE
  5
987
330
1F
100
AcDbEntity
  8
0
100
AcDbLine
 10
21.47511922888584
 20
133.0896205032289
 30
0.0
 11
21.38511922888584
 21
133.0896205032289
 31
0.0
  0
LINE
  5
988
330
1F
100
AcDbEntity
  8
0
100
AcDbLine
 10
21.47511922888584
 20
133.0896205032289
 30
0.0
 11
21.38511922888584
 21
133.0896205032289
 31
0.0
  0
LINE
  5
989
330
1F
100
AcDbEntity
  8
0
100
AcDbLine
 10
21.47511922888584
 20
133.269724503229
 30
0.0
 11
21.47511922888584
 21
133.0896205032289
 31
0.0
  0
LINE
  5
98A
330
1F
100
AcDbEntity
  8
0
100
AcDbLine
 10
21.63511922888584
 20
134.9296725032292
 30
0.0
 11
21.63511922888584
 21
135.4296725032292
 31
0.0
  0
LINE
  5
98B
330
1F
100
AcDbEntity
  8
0
100
AcDbLine
 10
21.29511922888582
 20
135.269724503229
 30
0.0
 11
21.29511922888582
 21
135.0896205032289
 31
0.0
  0
LINE
  5
98C
330
1F
100
AcDbEntity
  8
0
100
AcDbLine
 10
21.29511922888582
 20
135.0896205032289
 30
0.0
 11
21.38511922888584
 21
135.0896205032289
 31
0.0
  0
LINE
  5
98D
330
1F
100
AcDbEntity
  8
0
100
AcDbLine
 10
21.29511922888582
 20
135.0896205032289
 30
0.0
 11
21.38511922888584
 21
135.0896205032289
 31
0.0
  0
LINE
  5
98E
330
1F
100
AcDbEntity
  8
0
100
AcDbLine
 10
21.29511922888582
 20
135.269724503229
 30
0.0
 11
21.38511922888584
 21
135.269724503229
 31
0.0
  0
LINE
  5
98F
330
1F
100
AcDbEntity
  8
0
100
AcDbLine
 10
21.47511922888584
 20
135.269724503229
 30
0.0
 11
21.38511922888584
 21
135.269724503229
 31
0.0
  0
LINE
  5
990
330
1F
100
AcDbEntity
  8
0
100
AcDbLine
 10
21.47511922888584
 20
135.0896205032289
 30
0.0
 11
21.38511922888584
 21
135.0896205032289
 31
0.0
  0
LINE
  5
991
330
1F
100
AcDbEntity
  8
0
100
AcDbLine
 10
21.47511922888584
 20
135.0896205032289
 30
0.0
 11
21.38511922888584
 21
135.0896205032289
 31
0.0
  0
LINE
  5
992
330
1F
100
AcDbEntity
  8
0
100
AcDbLine
 10
21.47511922888584
 20
135.269724503229
 30
0.0
 11
21.47511922888584
 21
135.0896205032289
 31
0.0
  0
LINE
  5
993
330
1F
100
AcDbEntity
  8
0
100
AcDbLine
 10
19.13511922888583
 20
136.9296725032292
 30
0.0
 11
19.63511922888583
 21
136.9296725032292
 31
0.0
  0
LINE
  5
994
330
1F
100
AcDbEntity
  8
0
100
AcDbLine
 10
19.13511922888583
 20
137.4296725032293
 30
0.0
 11
19.63511922888583
 21
137.4296725032293
 31
0.0
  0
LINE
  5
995
330
1F
100
AcDbEntity
  8
0
100
AcDbLine
 10
19.47511922888583
 20
137.2697245032291
 30
0.0
 11
19.47511922888583
 21
137.0896205032289
 31
0.0
  0
LINE
  5
996
330
1F
100
AcDbEntity
  8
0
100
AcDbLine
 10
19.47511922888583
 20
137.0896205032289
 30
0.0
 11
19.38511922888583
 21
137.0896205032289
 31
0.0
  0
LINE
  5
997
330
1F
100
AcDbEntity
  8
0
100
AcDbLine
 10
19.47511922888583
 20
137.0896205032289
 30
0.0
 11
19.38511922888583
 21
137.0896205032289
 31
0.0
  0
LINE
  5
998
330
1F
100
AcDbEntity
  8
0
100
AcDbLine
 10
19.47511922888583
 20
137.2697245032291
 30
0.0
 11
19.38511922888583
 21
137.2697245032291
 31
0.0
  0
LINE
  5
999
330
1F
100
AcDbEntity
  8
0
100
AcDbLine
 10
19.29511922888575
 20
137.2697245032291
 30
0.0
 11
19.38511922888583
 21
137.2697245032291
 31
0.0
  0
LINE
  5
99A
330
1F
100
AcDbEntity
  8
0
100
AcDbLine
 10
19.29511922888575
 20
137.0896205032289
 30
0.0
 11
19.38511922888583
 21
137.0896205032289
 31
0.0
  0
LINE
  5
99B
330
1F
100
AcDbEntity
  8
0
100
AcDbLine
 10
19.29511922888575
 20
137.0896205032289
 30
0.0
 11
19.38511922888583
 21
137.0896205032289
 31
0.0
  0
LINE
  5
99C
330
1F
100
AcDbEntity
  8
0
100
AcDbLine
 10
19.29511922888575
 20
137.2697245032291
 30
0.0
 11
19.29511922888575
 21
137.0896205032289
 31
0.0
  0
LINE
  5
99D
330
1F
100
AcDbEntity
  8
0
100
AcDbLine
 10
19.63511922888583
 20
136.9296725032292
 30
0.0
 11
19.63511922888583
 21
137.4296725032293
 31
0.0
  0
LINE
  5
99E
330
1F
100
AcDbEntity
  8
0
100
AcDbLine
 10
19.13511922888583
 20
137.4296725032293
 30
0.0
 11
19.13511922888583
 21
136.9296725032292
 31
0.0
  0
LINE
  5
99F
330
1F
100
AcDbEntity
  8
0
100
AcDbLine
 10
19.29511922888575
 20
133.269724503229
 30
0.0
 11
19.29511922888575
 21
133.0896205032289
 31
0.0
  0
LINE
  5
9A0
330
1F
100
AcDbEntity
  8
0
100
AcDbLine
 10
19.13511922888583
 20
133.4296725032293
 30
0.0
 11
19.63511922888583
 21
133.4296725032293
 31
0.0
  0
LINE
  5
9A1
330
1F
100
AcDbEntity
  8
0
100
AcDbLine
 10
19.13511922888583
 20
134.9296725032292
 30
0.0
 11
19.63511922888583
 21
134.9296725032292
 31
0.0
  0
LINE
  5
9A2
330
1F
100
AcDbEntity
  8
0
100
AcDbLine
 10
19.13511922888583
 20
135.4296725032292
 30
0.0
 11
19.63511922888583
 21
135.4296725032292
 31
0.0
  0
LINE
  5
9A3
330
1F
100
AcDbEntity
  8
0
100
AcDbLine
 10
19.47511922888583
 20
135.269724503229
 30
0.0
 11
19.47511922888583
 21
135.0896205032289
 31
0.0
  0
LINE
  5
9A4
330
1F
100
AcDbEntity
  8
0
100
AcDbLine
 10
19.47511922888583
 20
135.0896205032289
 30
0.0
 11
19.38511922888583
 21
135.0896205032289
 31
0.0
  0
LINE
  5
9A5
330
1F
100
AcDbEntity
  8
0
100
AcDbLine
 10
19.47511922888583
 20
135.0896205032289
 30
0.0
 11
19.38511922888583
 21
135.0896205032289
 31
0.0
  0
LINE
  5
9A6
330
1F
100
AcDbEntity
  8
0
100
AcDbLine
 10
19.47511922888583
 20
135.269724503229
 30
0.0
 11
19.38511922888583
 21
135.269724503229
 31
0.0
  0
LINE
  5
9A7
330
1F
100
AcDbEntity
  8
0
100
AcDbLine
 10
19.29511922888575
 20
135.269724503229
 30
0.0
 11
19.38511922888583
 21
135.269724503229
 31
0.0
  0
LINE
  5
9A8
330
1F
100
AcDbEntity
  8
0
100
AcDbLine
 10
19.29511922888575
 20
135.0896205032289
 30
0.0
 11
19.38511922888583
 21
135.0896205032289
 31
0.0
  0
LINE
  5
9A9
330
1F
100
AcDbEntity
  8
0
100
AcDbLine
 10
19.29511922888575
 20
135.0896205032289
 30
0.0
 11
19.38511922888583
 21
135.0896205032289
 31
0.0
  0
LINE
  5
9AA
330
1F
100
AcDbEntity
  8
0
100
AcDbLine
 10
19.29511922888575
 20
135.269724503229
 30
0.0
 11
19.29511922888575
 21
135.0896205032289
 31
0.0
  0
LINE
  5
9AB
330
1F
100
AcDbEntity
  8
0
100
AcDbLine
 10
19.63511922888583
 20
134.9296725032292
 30
0.0
 11
19.63511922888583
 21
135.4296725032292
 31
0.0
  0
LINE
  5
9AC
330
1F
100
AcDbEntity
  8
0
100
AcDbLine
 10
19.13511922888583
 20
135.4296725032292
 30
0.0
 11
19.13511922888583
 21
134.9296725032292
 31
0.0
  0
LINE
  5
9AD
330
1F
100
AcDbEntity
  8
0
100
AcDbLine
 10
19.63511922888583
 20
132.9296725032292
 30
0.0
 11
19.63511922888583
 21
133.4296725032293
 31
0.0
  0
LINE
  5
9AE
330
1F
100
AcDbEntity
  8
0
100
AcDbLine
 10
19.13511922888583
 20
133.4296725032293
 30
0.0
 11
19.13511922888583
 21
132.9296725032292
 31
0.0
  0
LINE
  5
9AF
330
1F
100
AcDbEntity
  8
0
100
AcDbLine
 10
19.13511922888583
 20
132.9296725032292
 30
0.0
 11
19.63511922888583
 21
132.9296725032292
 31
0.0
  0
LINE
  5
9B0
330
1F
100
AcDbEntity
  8
0
100
AcDbLine
 10
19.47511922888583
 20
133.269724503229
 30
0.0
 11
19.47511922888583
 21
133.0896205032289
 31
0.0
  0
LINE
  5
9B1
330
1F
100
AcDbEntity
  8
0
100
AcDbLine
 10
19.47511922888583
 20
133.0896205032289
 30
0.0
 11
19.38511922888583
 21
133.0896205032289
 31
0.0
  0
LINE
  5
9B2
330
1F
100
AcDbEntity
  8
0
100
AcDbLine
 10
19.47511922888583
 20
133.0896205032289
 30
0.0
 11
19.38511922888583
 21
133.0896205032289
 31
0.0
  0
LINE
  5
9B3
330
1F
100
AcDbEntity
  8
0
100
AcDbLine
 10
19.47511922888583
 20
133.269724503229
 30
0.0
 11
19.38511922888583
 21
133.269724503229
 31
0.0
  0
LINE
  5
9B4
330
1F
100
AcDbEntity
  8
0
100
AcDbLine
 10
19.29511922888575
 20
133.269724503229
 30
0.0
 11
19.38511922888583
 21
133.269724503229
 31
0.0
  0
LINE
  5
9B5
330
1F
100
AcDbEntity
  8
0
100
AcDbLine
 10
19.29511922888575
 20
133.0896205032289
 30
0.0
 11
19.38511922888583
 21
133.0896205032289
 31
0.0
  0
LINE
  5
9B6
330
1F
100
AcDbEntity
  8
0
100
AcDbLine
 10
19.29511922888575
 20
133.0896205032289
 30
0.0
 11
19.38511922888583
 21
133.0896205032289
 31
0.0
  0
LINE
  5
9B7
330
1F
100
AcDbEntity
  8
0
100
AcDbLine
 10
17.88511922888583
 20
143.2996578441763
 30
0.0
 11
22.88511922888585
 21
143.2996578441763
 31
0.0
  0
LINE
  5
9B8
330
1F
100
AcDbEntity
  8
0
100
AcDbLine
 10
21.13511922888583
 20
141.4296725032293
 30
0.0
 11
21.63511922888584
 21
141.4296725032293
 31
0.0
  0
LINE
  5
9B9
330
1F
100
AcDbEntity
  8
0
100
AcDbLine
 10
21.13511922888583
 20
140.9296725032293
 30
0.0
 11
21.63511922888584
 21
140.9296725032293
 31
0.0
  0
LINE
  5
9BA
330
1F
100
AcDbEntity
  8
0
100
AcDbLine
 10
21.13511922888583
 20
141.4296725032293
 30
0.0
 11
21.13511922888583
 21
140.9296725032293
 31
0.0
  0
LINE
  5
9BB
330
1F
100
AcDbEntity
  8
0
100
AcDbLine
 10
21.63511922888584
 20
140.9296725032293
 30
0.0
 11
21.63511922888584
 21
141.4296725032293
 31
0.0
  0
LINE
  5
9BC
330
1F
100
AcDbEntity
  8
0
100
AcDbLine
 10
21.47511922888584
 20
141.269724503229
 30
0.0
 11
21.47511922888584
 21
141.0896205032289
 31
0.0
  0
LINE
  5
9BD
330
1F
100
AcDbEntity
  8
0
100
AcDbLine
 10
21.29511922888582
 20
141.269724503229
 30
0.0
 11
21.29511922888582
 21
141.0896205032289
 31
0.0
  0
LINE
  5
9BE
330
1F
100
AcDbEntity
  8
0
100
AcDbLine
 10
21.47511922888584
 20
141.269724503229
 30
0.0
 11
21.38511922888584
 21
141.269724503229
 31
0.0
  0
LINE
  5
9BF
330
1F
100
AcDbEntity
  8
0
100
AcDbLine
 10
21.29511922888582
 20
141.269724503229
 30
0.0
 11
21.38511922888584
 21
141.269724503229
 31
0.0
  0
LINE
  5
9C0
330
1F
100
AcDbEntity
  8
0
100
AcDbLine
 10
21.47511922888584
 20
141.0896205032289
 30
0.0
 11
21.38511922888584
 21
141.0896205032289
 31
0.0
  0
LINE
  5
9C1
330
1F
100
AcDbEntity
  8
0
100
AcDbLine
 10
21.47511922888584
 20
141.0896205032289
 30
0.0
 11
21.38511922888584
 21
141.0896205032289
 31
0.0
  0
LINE
  5
9C2
330
1F
100
AcDbEntity
  8
0
100
AcDbLine
 10
21.29511922888582
 20
141.0896205032289
 30
0.0
 11
21.38511922888584
 21
141.0896205032289
 31
0.0
  0
LINE
  5
9C3
330
1F
100
AcDbEntity
  8
0
100
AcDbLine
 10
21.29511922888582
 20
141.0896205032289
 30
0.0
 11
21.38511922888584
 21
141.0896205032289
 31
0.0
  0
LINE
  5
9C4
330
1F
100
AcDbEntity
  8
0
100
AcDbLine
 10
19.13511922888583
 20
141.4296725032293
 30
0.0
 11
19.13511922888583
 21
140.9296725032293
 31
0.0
  0
LINE
  5
9C5
330
1F
100
AcDbEntity
  8
0
100
AcDbLine
 10
19.63511922888583
 20
140.9296725032293
 30
0.0
 11
19.63511922888583
 21
141.4296725032293
 31
0.0
  0
LINE
  5
9C6
330
1F
100
AcDbEntity
  8
0
100
AcDbLine
 10
19.29511922888575
 20
141.269724503229
 30
0.0
 11
19.29511922888575
 21
141.0896205032289
 31
0.0
  0
LINE
  5
9C7
330
1F
100
AcDbEntity
  8
0
100
AcDbLine
 10
19.47511922888583
 20
141.269724503229
 30
0.0
 11
19.47511922888583
 21
141.0896205032289
 31
0.0
  0
LINE
  5
9C8
330
1F
100
AcDbEntity
  8
0
100
AcDbLine
 10
19.29511922888575
 20
141.269724503229
 30
0.0
 11
19.38511922888583
 21
141.269724503229
 31
0.0
  0
LINE
  5
9C9
330
1F
100
AcDbEntity
  8
0
100
AcDbLine
 10
19.47511922888583
 20
141.269724503229
 30
0.0
 11
19.38511922888583
 21
141.269724503229
 31
0.0
  0
LINE
  5
9CA
330
1F
100
AcDbEntity
  8
0
100
AcDbLine
 10
19.13511922888583
 20
141.4296725032293
 30
0.0
 11
19.63511922888583
 21
141.4296725032293
 31
0.0
  0
LINE
  5
9CB
330
1F
100
AcDbEntity
  8
0
100
AcDbLine
 10
19.29511922888575
 20
141.0896205032289
 30
0.0
 11
19.38511922888583
 21
141.0896205032289
 31
0.0
  0
LINE
  5
9CC
330
1F
100
AcDbEntity
  8
0
100
AcDbLine
 10
19.29511922888575
 20
141.0896205032289
 30
0.0
 11
19.38511922888583
 21
141.0896205032289
 31
0.0
  0
LINE
  5
9CD
330
1F
100
AcDbEntity
  8
0
100
AcDbLine
 10
19.47511922888583
 20
141.0896205032289
 30
0.0
 11
19.38511922888583
 21
141.0896205032289
 31
0.0
  0
LINE
  5
9CE
330
1F
100
AcDbEntity
  8
0
100
AcDbLine
 10
19.47511922888583
 20
141.0896205032289
 30
0.0
 11
19.38511922888583
 21
141.0896205032289
 31
0.0
  0
LINE
  5
9CF
330
1F
100
AcDbEntity
  8
0
100
AcDbLine
 10
19.13511922888583
 20
140.9296725032293
 30
0.0
 11
19.63511922888583
 21
140.9296725032293
 31
0.0
  0
LINE
  5
9D0
330
1F
100
AcDbEntity
  8
0
100
AcDbLine
 10
16.14646622888583
 20
152.9732195032291
 30
0.0
 11
16.58382122888584
 21
152.5918475032294
 31
0.0
  0
LINE
  5
9D1
330
1F
100
AcDbEntity
  8
0
100
AcDbLine
 10
16.58433822888584
 20
153.4319335032293
 30
0.0
 11
17.17689522888584
 21
153.4319335032293
 31
0.0
  0
LINE
  5
9D2
330
1F
100
AcDbEntity
  8
0
100
AcDbLine
 10
16.58433822888584
 20
154.4129245032294
 30
0.0
 11
16.58433822888584
 21
153.4319335032293
 31
0.0
  0
LINE
  5
9D3
330
1F
100
AcDbEntity
  8
0
100
AcDbLine
 10
17.17689522888584
 20
154.4129245032294
 30
0.0
 11
16.58433822888584
 21
154.4129245032294
 31
0.0
  0
LINE
  5
9D4
330
1F
100
AcDbEntity
  8
0
100
AcDbLine
 10
17.17689522888584
 20
153.4319335032293
 30
0.0
 11
17.17689522888584
 21
154.4129245032294
 31
0.0
  0
LINE
  5
9D5
330
1F
100
AcDbEntity
  8
0
100
AcDbLine
 10
16.14646622888583
 20
153.4319335032293
 30
0.0
 11
17.61442222888585
 21
153.4319335032293
 31
0.0
  0
LINE
  5
9D6
330
1F
100
AcDbEntity
  8
0
100
AcDbLine
 10
17.61442222888585
 20
152.9732195032291
 30
0.0
 11
17.17689522888584
 21
152.5918475032294
 31
0.0
  0
LINE
  5
9D7
330
1F
100
AcDbEntity
  8
0
100
AcDbLine
 10
17.89657522888585
 20
153.467245503229
 30
0.0
 11
18.33410222888582
 21
153.0862185032291
 31
0.0
  0
LINE
  5
9D8
330
1F
100
AcDbEntity
  8
0
100
AcDbLine
 10
19.36453022888584
 20
153.467245503229
 30
0.0
 11
18.92665922888584
 21
153.0862185032291
 31
0.0
  0
LINE
  5
9D9
330
1F
100
AcDbEntity
  8
0
100
AcDbLine
 10
18.92665922888584
 20
152.1050555032291
 30
0.0
 11
18.33410222888582
 21
152.1050555032291
 31
0.0
  0
LINE
  5
9DA
330
1F
100
AcDbEntity
  8
0
100
AcDbLine
 10
18.92665922888584
 20
153.0862185032291
 30
0.0
 11
18.92665922888584
 21
152.1050555032291
 31
0.0
  0
LINE
  5
9DB
330
1F
100
AcDbEntity
  8
0
100
AcDbLine
 10
18.33410222888582
 20
153.0862185032291
 30
0.0
 11
18.92665922888584
 21
153.0862185032291
 31
0.0
  0
LINE
  5
9DC
330
1F
100
AcDbEntity
  8
0
100
AcDbLine
 10
18.33410222888582
 20
152.1050555032291
 30
0.0
 11
18.33410222888582
 21
153.0862185032291
 31
0.0
  0
LINE
  5
9DD
330
1F
100
AcDbEntity
  8
0
100
AcDbLine
 10
19.36453022888584
 20
152.1050555032291
 30
0.0
 11
17.89657522888585
 21
152.1050555032291
 31
0.0
  0
LINE
  5
9DE
330
1F
100
AcDbEntity
  8
0
100
AcDbLine
 10
19.36453022888584
 20
153.467245503229
 30
0.0
 11
19.36453022888584
 21
152.1050555032291
 31
0.0
  0
LINE
  5
9DF
330
1F
100
AcDbEntity
  8
0
100
AcDbLine
 10
17.89657522888585
 20
153.467245503229
 30
0.0
 11
19.36453022888584
 21
153.467245503229
 31
0.0
  0
LINE
  5
9E0
330
1F
100
AcDbEntity
  8
0
100
AcDbLine
 10
17.89657522888585
 20
152.1050555032291
 30
0.0
 11
17.89657522888585
 21
153.467245503229
 31
0.0
  0
LINE
  5
9E1
330
1F
100
AcDbEntity
  8
0
100
AcDbLine
 10
17.89657522888585
 20
150.2774315032295
 30
0.0
 11
18.33410222888582
 21
150.6582875032291
 31
0.0
  0
LINE
  5
9E2
330
1F
100
AcDbEntity
  8
0
100
AcDbLine
 10
19.36453022888584
 20
150.2774315032295
 30
0.0
 11
18.92665922888584
 21
150.6582875032291
 31
0.0
  0
LINE
  5
9E3
330
1F
100
AcDbEntity
  8
0
100
AcDbLine
 10
16.14646622888583
 20
148.8869915032291
 30
0.0
 11
17.61442222888585
 21
148.8869915032291
 31
0.0
  0
LINE
  5
9E4
330
1F
100
AcDbEntity
  8
0
100
AcDbLine
 10
16.14646622888583
 20
150.2491825032293
 30
0.0
 11
16.14646622888583
 21
148.8869915032291
 31
0.0
  0
LINE
  5
9E5
330
1F
100
AcDbEntity
  8
0
100
AcDbLine
 10
17.61442222888585
 20
150.2491825032293
 30
0.0
 11
16.14646622888583
 21
150.2491825032293
 31
0.0
  0
LINE
  5
9E6
330
1F
100
AcDbEntity
  8
0
100
AcDbLine
 10
17.61442222888585
 20
148.8869915032291
 30
0.0
 11
17.61442222888585
 21
150.2491825032293
 31
0.0
  0
LINE
  5
9E7
330
1F
100
AcDbEntity
  8
0
100
AcDbLine
 10
18.33410222888582
 20
150.6582875032291
 30
0.0
 11
18.92665922888584
 21
150.6582875032291
 31
0.0
  0
LINE
  5
9E8
330
1F
100
AcDbEntity
  8
0
100
AcDbLine
 10
18.33410222888582
 20
151.6394505032291
 30
0.0
 11
18.33410222888582
 21
150.6582875032291
 31
0.0
  0
LINE
  5
9E9
330
1F
100
AcDbEntity
  8
0
100
AcDbLine
 10
18.92665922888584
 20
151.6394505032291
 30
0.0
 11
18.33410222888582
 21
151.6394505032291
 31
0.0
  0
LINE
  5
9EA
330
1F
100
AcDbEntity
  8
0
100
AcDbLine
 10
18.92665922888584
 20
150.6582875032291
 30
0.0
 11
18.92665922888584
 21
151.6394505032291
 31
0.0
  0
LINE
  5
9EB
330
1F
100
AcDbEntity
  8
0
100
AcDbLine
 10
17.89657522888585
 20
150.2774315032295
 30
0.0
 11
19.36453022888584
 21
150.2774315032295
 31
0.0
  0
LINE
  5
9EC
330
1F
100
AcDbEntity
  8
0
100
AcDbLine
 10
17.89657522888585
 20
151.6394505032291
 30
0.0
 11
17.89657522888585
 21
150.2774315032295
 31
0.0
  0
LINE
  5
9ED
330
1F
100
AcDbEntity
  8
0
100
AcDbLine
 10
19.36453022888584
 20
151.6394505032291
 30
0.0
 11
17.89657522888585
 21
151.6394505032291
 31
0.0
  0
LINE
  5
9EE
330
1F
100
AcDbEntity
  8
0
100
AcDbLine
 10
19.36453022888584
 20
150.2774315032295
 30
0.0
 11
19.36453022888584
 21
151.6394505032291
 31
0.0
  0
LINE
  5
9EF
330
1F
100
AcDbEntity
  8
0
100
AcDbLine
 10
16.14646622888583
 20
148.8869915032291
 30
0.0
 11
16.58382122888584
 21
149.2680185032289
 31
0.0
  0
LINE
  5
9F0
330
1F
100
AcDbEntity
  8
0
100
AcDbLine
 10
17.61442222888585
 20
148.8869915032291
 30
0.0
 11
17.17655022888584
 21
149.2680185032289
 31
0.0
  0
LINE
  5
9F1
330
1F
100
AcDbEntity
  8
0
100
AcDbLine
 10
16.58382122888584
 20
149.2680185032289
 30
0.0
 11
17.17655022888584
 21
149.2680185032289
 31
0.0
  0
LINE
  5
9F2
330
1F
100
AcDbEntity
  8
0
100
AcDbLine
 10
16.58382122888584
 20
150.2491825032293
 30
0.0
 11
16.58382122888584
 21
149.2680185032289
 31
0.0
  0
LINE
  5
9F3
330
1F
100
AcDbEntity
  8
0
100
AcDbLine
 10
17.17655022888584
 20
150.2491825032293
 30
0.0
 11
16.58382122888584
 21
150.2491825032293
 31
0.0
  0
LINE
  5
9F4
330
1F
100
AcDbEntity
  8
0
100
AcDbLine
 10
17.17655022888584
 20
149.2680185032289
 30
0.0
 11
17.17655022888584
 21
150.2491825032293
 31
0.0
  0
LINE
  5
9F5
330
1F
100
AcDbEntity
  8
0
100
AcDbLine
 10
16.58433822888584
 20
151.611200503229
 30
0.0
 11
17.17689522888584
 21
151.611200503229
 31
0.0
  0
LINE
  5
9F6
330
1F
100
AcDbEntity
  8
0
100
AcDbLine
 10
16.58433822888584
 20
152.5921915032291
 30
0.0
 11
16.58433822888584
 21
151.611200503229
 31
0.0
  0
LINE
  5
9F7
330
1F
100
AcDbEntity
  8
0
100
AcDbLine
 10
17.17689522888584
 20
152.5921915032291
 30
0.0
 11
16.58433822888584
 21
152.5921915032291
 31
0.0
  0
LINE
  5
9F8
330
1F
100
AcDbEntity
  8
0
100
AcDbLine
 10
17.17689522888584
 20
151.611200503229
 30
0.0
 11
17.17689522888584
 21
152.5921915032291
 31
0.0
  0
LINE
  5
9F9
330
1F
100
AcDbEntity
  8
0
100
AcDbLine
 10
16.14646622888583
 20
151.611200503229
 30
0.0
 11
17.61442222888585
 21
151.611200503229
 31
0.0
  0
LINE
  5
9FA
330
1F
100
AcDbEntity
  8
0
100
AcDbLine
 10
16.14646622888583
 20
152.9732195032291
 30
0.0
 11
16.14646622888583
 21
151.611200503229
 31
0.0
  0
LINE
  5
9FB
330
1F
100
AcDbEntity
  8
0
100
AcDbLine
 10
17.61442222888585
 20
152.9732195032291
 30
0.0
 11
16.14646622888583
 21
152.9732195032291
 31
0.0
  0
LINE
  5
9FC
330
1F
100
AcDbEntity
  8
0
100
AcDbLine
 10
17.61442222888585
 20
151.611200503229
 30
0.0
 11
17.61442222888585
 21
152.9732195032291
 31
0.0
  0
LINE
  5
9FD
330
1F
100
AcDbEntity
  8
0
100
AcDbLine
 10
17.61442222888585
 20
154.793952503229
 30
0.0
 11
17.17689522888584
 21
154.4125805032291
 31
0.0
  0
LINE
  5
9FE
330
1F
100
AcDbEntity
  8
0
100
AcDbLine
 10
16.14646622888583
 20
154.793952503229
 30
0.0
 11
16.58382122888584
 21
154.4125805032291
 31
0.0
  0
LINE
  5
9FF
330
1F
100
AcDbEntity
  8
0
100
AcDbLine
 10
16.14646622888583
 20
154.793952503229
 30
0.0
 11
16.14646622888583
 21
153.4319335032293
 31
0.0
  0
LINE
  5
A00
330
1F
100
AcDbEntity
  8
0
100
AcDbLine
 10
17.61442222888585
 20
153.4319335032293
 30
0.0
 11
17.61442222888585
 21
154.793952503229
 31
0.0
  0
LINE
  5
A01
330
1F
100
AcDbEntity
  8
0
100
AcDbLine
 10
17.61442222888585
 20
154.793952503229
 30
0.0
 11
16.14646622888583
 21
154.793952503229
 31
0.0
  0
LINE
  5
A02
330
1F
100
AcDbEntity
  8
0
100
AcDbLine
 10
32.98532722888595
 20
229.0518165032289
 30
0.0
 11
32.98532722888595
 21
225.0275395032294
 31
0.0
  0
LINE
  5
A03
330
1F
100
AcDbEntity
  8
中心線
100
AcDbLine
 10
17.48511922888586
 20
241.3015575032289
 30
0.0
 11
17.48511922888583
 21
226.301557503229
 31
0.0
  0
LINE
  5
A04
330
1F
100
AcDbEntity
  8
0
100
AcDbLine
 10
1.984910228885879
 20
229.0518165032289
 30
0.0
 11
1.98491022888585
 21
225.0275395032294
 31
0.0
  0
LINE
  5
A05
330
1F
100
AcDbEntity
  8
0
100
AcDbLine
 10
19.50021122888584
 20
191.8666635032294
 30
0.0
 11
19.50021122888584
 21
192.2747055032292
 31
0.0
  0
LINE
  5
A06
330
1F
100
AcDbEntity
  8
0
100
AcDbLine
 10
19.09216922888585
 20
192.2747055032292
 30
0.0
 11
19.09216922888585
 21
191.8666635032294
 31
0.0
  0
LINE
  5
A07
330
1F
100
AcDbEntity
  8
0
100
AcDbLine
 10
17.42734622888583
 20
191.8666635032294
 30
0.0
 11
17.42734622888583
 21
192.2747055032292
 31
0.0
  0
LINE
  5
A08
330
1F
100
AcDbEntity
  8
0
100
AcDbLine
 10
17.01930122888584
 20
192.2747055032292
 30
0.0
 11
17.01930122888584
 21
191.8666635032294
 31
0.0
  0
LINE
  5
A09
330
1F
100
AcDbEntity
  8
0
100
AcDbLine
 10
22.63511922888585
 20
201.040684503229
 30
0.0
 11
22.63511922888585
 21
175.9606845032291
 31
0.0
  0
LINE
  5
A0A
330
1F
100
AcDbEntity
  8
0
100
AcDbLine
 10
21.93215922888586
 20
179.1534305032292
 30
0.0
 11
21.93215922888586
 21
213.7991985032291
 31
0.0
  0
LINE
  5
A0B
330
1F
100
AcDbEntity
  8
0
100
AcDbLine
 10
21.32009122888586
 20
211.4325395032291
 30
0.0
 11
21.32009122888586
 21
184.1315735032291
 31
0.0
  0
LINE
  5
A0C
330
1F
100
AcDbEntity
  8
0
100
AcDbLine
 10
14.79137922888583
 20
213.7991985032291
 30
0.0
 11
14.79137922888583
 21
179.1534305032292
 31
0.0
  0
LINE
  5
A0D
330
1F
100
AcDbEntity
  8
0
100
AcDbLine
 10
13.58511922888586
 20
175.0556855032292
 30
0.0
 11
13.58511922888586
 21
220.5556855032291
 31
0.0
  0
LINE
  5
A0E
330
1F
100
AcDbEntity
  8
0
100
AcDbLine
 10
23.38511922888585
 20
220.5556855032291
 30
0.0
 11
23.38511922888585
 21
175.0556855032292
 31
0.0
  0
LINE
  5
A0F
330
1F
100
AcDbEntity
  8
0
100
AcDbLine
 10
14.13511922888583
 20
193.340684503229
 30
0.0
 11
14.13511922888583
 21
175.9606845032291
 31
0.0
  0
LINE
  5
A10
330
1F
100
AcDbEntity
  8
0
100
AcDbLine
 10
22.63511922888585
 20
175.9606845032291
 30
0.0
 11
22.63511922888585
 21
193.340684503229
 31
0.0
  0
LINE
  5
A11
330
1F
100
AcDbEntity
  8
0
100
AcDbLine
 10
15.19942422888583
 20
196.1127020032289
 30
0.0
 11
15.19942422888583
 21
184.1315735032291
 31
0.0
  0
LINE
  5
A12
330
1F
100
AcDbEntity
  8
0
100
AcDbLine
 10
15.88511922888583
 20
159.6296725032293
 30
0.0
 11
22.88511922888585
 21
159.6296725032293
 31
0.0
  0
LINE
  5
A13
330
1F
100
AcDbEntity
  8
0
100
AcDbLine
 10
15.88511922888583
 20
164.6296725032293
 30
0.0
 11
22.88511922888585
 21
164.6296725032293
 31
0.0
  0
LINE
  5
A14
330
1F
100
AcDbEntity
  8
0
100
AcDbLine
 10
10.08511922888585
 20
158.8796725032293
 30
0.0
 11
22.88511922888585
 21
158.8796725032293
 31
0.0
  0
LINE
  5
A15
330
1F
100
AcDbEntity
  8
0
100
AcDbLine
 10
15.23511922888575
 20
165.5796725032294
 30
0.0
 11
22.63511922888585
 21
165.5796725032293
 31
0.0
  0
LINE
  5
A17
330
1F
100
AcDbEntity
  8
0
100
AcDbLine
 10
15.23511922888575
 20
165.5796725032293
 30
0.0
 11
22.63511922888585
 21
165.5796725032293
 31
0.0
  0
CIRCLE
  5
A1A
330
1F
100
AcDbEntity
  8
0
100
AcDbCircle
 10
18.93511922888593
 20
169.3296725032293
 30
0.0
 40
3.7
  0
CIRCLE
  5
A1B
330
1F
100
AcDbEntity
  8
0
100
AcDbCircle
 10
18.93511922888593
 20
169.3296725032293
 30
0.0
 40
3.7
  0
ARC
  5
A1C
330
1F
100
AcDbEntity
  8
0
100
AcDbCircle
 10
18.93511922888585
 20
169.3296725032293
 30
0.0
 40
3.69999999999993
100
AcDbArc
 50
0.0
 51
180.0
  0
LINE
  5
A1D
330
1F
100
AcDbEntity
  8
0
100
AcDbLine
 10
22.88511922888585
 20
175.9606845032291
 30
0.0
 11
14.13511922888583
 21
175.9606845032291
 31
0.0
  0
LINE
  5
A1E
330
1F
100
AcDbEntity
  8
0
100
AcDbLine
 10
14.13511922888583
 20
175.9606845032291
 30
0.0
 11
22.63511922888585
 21
175.9606845032291
 31
0.0
  0
LINE
  5
A1F
330
1F
100
AcDbEntity
  8
0
100
AcDbLine
 10
23.38511922888585
 20
175.0556855032292
 30
0.0
 11
13.58511922888586
 21
175.0556855032292
 31
0.0
  0
LINE
  5
A20
330
1F
100
AcDbEntity
  8
0
100
AcDbLine
 10
14.79137922888583
 20
179.1534305032292
 30
0.0
 11
16.62757822888583
 21
179.1534305032292
 31
0.0
  0
LINE
  5
A21
330
1F
100
AcDbEntity
  8
0
100
AcDbLine
 10
21.93215922888586
 20
181.7649145032291
 30
0.0
 11
14.79137922888583
 21
181.7649145032291
 31
0.0
  0
LINE
  5
A22
330
1F
100
AcDbEntity
  8
0
100
AcDbLine
 10
14.79137922888583
 20
176.7086685032291
 30
0.0
 11
21.93215922888586
 21
176.7086685032291
 31
0.0
  0
LINE
  5
A23
330
1F
100
AcDbEntity
  8
0
100
AcDbLine
 10
21.93215922888586
 20
184.1315735032291
 30
0.0
 11
14.79137922888583
 21
184.1315735032291
 31
0.0
  0
LINE
  5
A24
330
1F
100
AcDbEntity
  8
0
100
AcDbLine
 10
4.985119228885834
 20
176.4977685032291
 30
0.0
 11
4.985119228885834
 21
169.1296725032293
 31
0.0
  0
LINE
  5
A25
330
1F
100
AcDbEntity
  8
0
100
AcDbLine
 10
15.88511922888583
 20
159.6296725032293
 30
0.0
 11
15.88511922888583
 21
164.6296725032293
 31
0.0
  0
LINE
  5
A26
330
1F
100
AcDbEntity
  8
0
100
AcDbLine
 10
9.585119228885856
 20
159.3556855032293
 30
0.0
 11
15.23511922888582
 21
159.3556855032293
 31
0.0
  0
LINE
  5
A27
330
1F
100
AcDbEntity
  8
0
100
AcDbLine
 10
15.23511922888582
 20
159.3556855032293
 30
0.0
 11
15.23511922888582
 21
164.6296725032293
 31
0.0
  0
LINE
  5
A28
330
1F
100
AcDbEntity
  8
0
100
AcDbLine
 10
15.23511922888582
 20
169.3296725032293
 30
0.0
 11
15.23511922888582
 21
164.6296725032293
 31
0.0
  0
LINE
  5
A29
330
1F
100
AcDbEntity
  8
0
100
AcDbLine
 10
14.79137922888583
 20
179.1534305032292
 30
0.0
 11
14.79137922888583
 21
176.7086685032291
 31
0.0
  0
LINE
  5
A2A
330
1F
100
AcDbEntity
  8
0
100
AcDbLine
 10
18.30595422888585
 20
163.6296725032293
 30
0.0
 11
18.30595422888585
 21
160.6296725032293
 31
0.0
  0
LINE
  5
A2B
330
1F
100
AcDbEntity
  8
0
100
AcDbLine
 10
20.27087622888585
 20
163.6296725032293
 30
0.0
 11
20.27087622888585
 21
160.6296725032293
 31
0.0
  0
LINE
  5
A2C
330
1F
100
AcDbEntity
  8
0
100
AcDbLine
 10
18.30595422888585
 20
163.6296725032293
 30
0.0
 11
20.27087622888585
 21
163.6296725032293
 31
0.0
  0
LINE
  5
A2D
330
1F
100
AcDbEntity
  8
0
100
AcDbLine
 10
18.30595422888585
 20
160.6296725032293
 30
0.0
 11
20.27087622888585
 21
160.6296725032293
 31
0.0
  0
LINE
  5
A2E
330
1F
100
AcDbEntity
  8
0
100
AcDbLine
 10
22.88511922888585
 20
164.6296725032293
 30
0.0
 11
22.88511922888585
 21
159.6296725032293
 31
0.0
  0
LINE
  5
A2F
330
1F
100
AcDbEntity
  8
0
100
AcDbLine
 10
17.90319022888573
 20
169.1686215032293
 30
0.0
 11
20.73672522888583
 21
169.1686215032293
 31
0.0
  0
LINE
  5
A30
330
1F
100
AcDbEntity
  8
0
100
AcDbLine
 10
17.02768222888582
 20
169.3296725032293
 30
0.0
 11
17.90319022888573
 21
168.7494825032291
 31
0.0
  0
LINE
  5
A31
330
1F
100
AcDbEntity
  8
0
100
AcDbLine
 10
17.90319022888573
 20
169.1686215032293
 30
0.0
 11
17.90319022888573
 21
168.7494825032291
 31
0.0
  0
LINE
  5
A32
330
1F
100
AcDbEntity
  8
0
100
AcDbLine
 10
22.63511922888585
 20
165.0296725032294
 30
0.0
 11
23.38511922888585
 21
165.0296725032294
 31
0.0
  0
LINE
  5
A33
330
1F
100
AcDbEntity
  8
0
100
AcDbLine
 10
22.48511922888586
 20
168.3398076988511
 30
0.0
 11
22.48511922888586
 21
165.5796725032293
 31
0.0
  0
LINE
  5
A34
330
1F
100
AcDbEntity
  8
0
100
AcDbLine
 10
22.63511922888576
 20
166.4896725032294
 30
0.0
 11
22.48511922888586
 21
166.4896725032294
 31
0.0
  0
LINE
  5
A35
330
1F
100
AcDbEntity
  8
0
100
AcDbLine
 10
22.63511922888576
 20
167.0896725032292
 30
0.0
 11
22.48511922888586
 21
167.0896725032292
 31
0.0
  0
LINE
  5
A3B
330
1F
100
AcDbEntity
  8
0
100
AcDbLine
 10
17.02768219653164
 20
169.3296725032293
 30
0.0
 11
17.90319068904032
 21
168.7494824710034
 31
0.0
  0
LINE
  5
A3C
330
1F
100
AcDbEntity
  8
0
100
AcDbLine
 10
17.90319068904032
 20
169.1686220270663
 30
0.0
 11
17.90319068904032
 21
168.7494824710034
 31
0.0
  0
LINE
  5
A3E
330
1F
100
AcDbEntity
  8
0
100
AcDbLine
 10
17.90319068904032
 20
169.1686220270663
 30
0.0
 11
20.73672513707505
 21
169.1686220270663
 31
0.0
  0
LINE
  5
A3F
330
1F
100
AcDbEntity
  8
0
100
AcDbLine
 10
22.63511922888585
 20
169.3296725032293
 30
0.0
 11
22.63511922888585
 21
165.0296725032294
 31
0.0
  0
LINE
  5
A46
330
1F
100
AcDbEntity
  8
0
100
AcDbLine
 10
20.73672513707505
 20
169.4907229793886
 30
0.0
 11
20.73672513707505
 21
169.1686220270663
 31
0.0
  0
LINE
  5
A47
330
1F
100
AcDbEntity
  8
0
100
AcDbLine
 10
17.90319068904032
 20
169.9098625354551
 30
0.0
 11
17.90319068904032
 21
169.4907229793886
 31
0.0
  0
LINE
  5
A48
330
1F
100
AcDbEntity
  8
0
100
AcDbLine
 10
17.02768219653164
 20
169.3296725032293
 30
0.0
 11
17.90319068904032
 21
169.9098625354551
 31
0.0
  0
LINE
  5
A49
330
1F
100
AcDbEntity
  8
0
100
AcDbLine
 10
17.90319068904032
 20
169.4907229793886
 30
0.0
 11
20.73672513707505
 21
169.4907229793886
 31
0.0
  0
CIRCLE
  5
A4B
330
1F
100
AcDbEntity
  8
0
100
AcDbCircle
 10
18.93511922888593
 20
169.3296725032293
 30
0.0
 40
1.907437032355004
  0
LINE
  5
A4C
330
1F
100
AcDbEntity
  8
0
100
AcDbLine
 10
17.90319022888573
 20
169.4907225032295
 30
0.0
 11
20.73672522888583
 21
169.4907225032295
 31
0.0
  0
LINE
  5
A4D
330
1F
100
AcDbEntity
  8
0
100
AcDbLine
 10
17.90319022888573
 20
169.9098625032291
 30
0.0
 11
17.90319022888573
 21
169.4907225032295
 31
0.0
  0
LINE
  5
A4E
330
1F
100
AcDbEntity
  8
0
100
AcDbLine
 10
17.02768222888582
 20
169.3296725032293
 30
0.0
 11
17.90319022888573
 21
169.9098625032291
 31
0.0
  0
LINE
  5
A4F
330
1F
100
AcDbEntity
  8
0
100
AcDbLine
 10
20.73672522888583
 20
169.4907225032295
 30
0.0
 11
20.73672522888583
 21
169.1686215032293
 31
0.0
  0
LINE
  5
A50
330
1F
100
AcDbEntity
  8
0
100
AcDbLine
 10
19.09216922888585
 20
191.8666635032294
 30
0.0
 11
19.50021122888584
 21
191.8666635032294
 31
0.0
  0
LINE
  5
A51
330
1F
100
AcDbEntity
  8
0
100
AcDbLine
 10
17.01930122888584
 20
191.8666635032294
 30
0.0
 11
17.42734622888583
 21
191.8666635032294
 31
0.0
  0
LINE
  5
A52
330
1F
100
AcDbEntity
  8
0
100
AcDbLine
 10
19.50021122888584
 20
190.5966635032294
 30
0.0
 11
19.50021122888584
 21
191.0047055032292
 31
0.0
  0
LINE
  5
A53
330
1F
100
AcDbEntity
  8
0
100
AcDbLine
 10
19.09216922888585
 20
191.0047055032292
 30
0.0
 11
19.09216922888585
 21
190.5966635032294
 31
0.0
  0
LINE
  5
A54
330
1F
100
AcDbEntity
  8
0
100
AcDbLine
 10
17.42734622888583
 20
190.5966635032294
 30
0.0
 11
17.42734622888583
 21
191.0047055032292
 31
0.0
  0
LINE
  5
A55
330
1F
100
AcDbEntity
  8
0
100
AcDbLine
 10
17.01930122888584
 20
191.0047055032292
 30
0.0
 11
17.01930122888584
 21
190.5966635032294
 31
0.0
  0
LINE
  5
A56
330
1F
100
AcDbEntity
  8
0
100
AcDbLine
 10
17.42734622888583
 20
191.0047055032292
 30
0.0
 11
17.01930122888584
 21
191.0047055032292
 31
0.0
  0
LINE
  5
A57
330
1F
100
AcDbEntity
  8
0
100
AcDbLine
 10
19.50021122888584
 20
191.0047055032292
 30
0.0
 11
19.09216922888585
 21
191.0047055032292
 31
0.0
  0
LINE
  5
A58
330
1F
100
AcDbEntity
  8
0
100
AcDbLine
 10
19.09216922888585
 20
190.5966635032294
 30
0.0
 11
19.50021122888584
 21
190.5966635032294
 31
0.0
  0
LINE
  5
A59
330
1F
100
AcDbEntity
  8
0
100
AcDbLine
 10
17.01930122888584
 20
190.5966635032294
 30
0.0
 11
17.42734622888583
 21
190.5966635032294
 31
0.0
  0
LINE
  5
A5A
330
1F
100
AcDbEntity
  8
0
100
AcDbLine
 10
17.42734622888583
 20
189.7347055032291
 30
0.0
 11
17.01930122888584
 21
189.7347055032291
 31
0.0
  0
LINE
  5
A5B
330
1F
100
AcDbEntity
  8
0
100
AcDbLine
 10
19.50021122888584
 20
189.7347055032291
 30
0.0
 11
19.09216922888585
 21
189.7347055032291
 31
0.0
  0
LINE
  5
A5C
330
1F
100
AcDbEntity
  8
0
100
AcDbLine
 10
16.62757822888583
 20
181.2313355032291
 30
0.0
 11
19.89193422888573
 21
181.2313355032291
 31
0.0
  0
LINE
  5
A5D
330
1F
100
AcDbEntity
  8
0
100
AcDbLine
 10
16.62757822888583
 20
180.4855535032291
 30
0.0
 11
19.89193422888573
 21
180.4855535032291
 31
0.0
  0
LINE
  5
A5E
330
1F
100
AcDbEntity
  8
0
100
AcDbLine
 10
16.62757822888583
 20
179.2226195032292
 30
0.0
 11
19.89193422888573
 21
179.2226195032292
 31
0.0
  0
LINE
  5
A5F
330
1F
100
AcDbEntity
  8
0
100
AcDbLine
 10
16.62757822888583
 20
179.5480915032291
 30
0.0
 11
19.89193422888573
 21
179.5480915032291
 31
0.0
  0
LINE
  5
A60
330
1F
100
AcDbEntity
  8
0
100
AcDbLine
 10
16.62757822888583
 20
179.8605795032289
 30
0.0
 11
19.89193422888573
 21
179.8605795032289
 31
0.0
  0
LINE
  5
A61
330
1F
100
AcDbEntity
  8
0
100
AcDbLine
 10
16.62757822888583
 20
180.1730665032291
 30
0.0
 11
19.89193422888573
 21
180.1730665032291
 31
0.0
  0
LINE
  5
A62
330
1F
100
AcDbEntity
  8
0
100
AcDbLine
 10
19.89193422888573
 20
179.1534305032292
 30
0.0
 11
21.93215922888586
 21
179.1534305032292
 31
0.0
  0
LINE
  5
A63
330
1F
100
AcDbEntity
  8
0
100
AcDbLine
 10
21.93215922888586
 20
179.1534305032292
 30
0.0
 11
21.93215922888586
 21
176.7086685032291
 31
0.0
  0
LINE
  5
A64
330
1F
100
AcDbEntity
  8
0
100
AcDbLine
 10
16.62757822888583
 20
179.1534305032292
 30
0.0
 11
16.62757822888583
 21
176.7086685032291
 31
0.0
  0
LINE
  5
A65
330
1F
100
AcDbEntity
  8
0
100
AcDbLine
 10
19.89193422888573
 20
179.2226195032292
 30
0.0
 11
19.89193422888573
 21
176.7086685032291
 31
0.0
  0
LINE
  5
A66
330
1F
100
AcDbEntity
  8
0
100
AcDbLine
 10
16.62757822888583
 20
181.2313355032291
 30
0.0
 11
16.62757822888583
 21
179.1534305032292
 31
0.0
  0
LINE
  5
A67
330
1F
100
AcDbEntity
  8
0
100
AcDbLine
 10
19.89193422888573
 20
181.2313355032291
 30
0.0
 11
19.89193422888573
 21
179.1534305032292
 31
0.0
  0
LINE
  5
A68
330
1F
100
AcDbEntity
  8
0
100
AcDbLine
 10
22.88511922888585
 20
182.0606845032291
 30
0.0
 11
22.63511922888585
 21
182.0606845032291
 31
0.0
  0
LINE
  5
A69
330
1F
100
AcDbEntity
  8
0
100
AcDbLine
 10
22.88511922888585
 20
182.0606845032291
 30
0.0
 11
22.88511922888585
 21
175.9606845032291
 31
0.0
  0
LINE
  5
A6A
330
1F
100
AcDbEntity
  8
0
100
AcDbLine
 10
19.09216922888585
 20
189.3266635032293
 30
0.0
 11
19.50021122888584
 21
189.3266635032293
 31
0.0
  0
LINE
  5
A6B
330
1F
100
AcDbEntity
  8
0
100
AcDbLine
 10
17.01930122888584
 20
189.3266635032293
 30
0.0
 11
17.42734622888583
 21
189.3266635032293
 31
0.0
  0
LINE
  5
A6C
330
1F
100
AcDbEntity
  8
0
100
AcDbLine
 10
19.50021122888584
 20
188.0566635032293
 30
0.0
 11
19.50021122888584
 21
188.4647055032291
 31
0.0
  0
LINE
  5
A6D
330
1F
100
AcDbEntity
  8
0
100
AcDbLine
 10
19.09216922888585
 20
188.4647055032291
 30
0.0
 11
19.09216922888585
 21
188.0566635032293
 31
0.0
  0
LINE
  5
A6E
330
1F
100
AcDbEntity
  8
0
100
AcDbLine
 10
17.42734622888583
 20
188.0566635032293
 30
0.0
 11
17.42734622888583
 21
188.4647055032291
 31
0.0
  0
LINE
  5
A6F
330
1F
100
AcDbEntity
  8
0
100
AcDbLine
 10
17.01930122888584
 20
188.4647055032291
 30
0.0
 11
17.01930122888584
 21
188.0566635032293
 31
0.0
  0
LINE
  5
A70
330
1F
100
AcDbEntity
  8
0
100
AcDbLine
 10
17.42734622888583
 20
188.4647055032291
 30
0.0
 11
17.01930122888584
 21
188.4647055032291
 31
0.0
  0
LINE
  5
A71
330
1F
100
AcDbEntity
  8
0
100
AcDbLine
 10
19.50021122888584
 20
188.4647055032291
 30
0.0
 11
19.09216922888585
 21
188.4647055032291
 31
0.0
  0
LINE
  5
A72
330
1F
100
AcDbEntity
  8
0
100
AcDbLine
 10
19.09216922888585
 20
188.0566635032293
 30
0.0
 11
19.50021122888584
 21
188.0566635032293
 31
0.0
  0
LINE
  5
A73
330
1F
100
AcDbEntity
  8
0
100
AcDbLine
 10
17.01930122888584
 20
188.0566635032293
 30
0.0
 11
17.42734622888583
 21
188.0566635032293
 31
0.0
  0
LINE
  5
A74
330
1F
100
AcDbEntity
  8
0
100
AcDbLine
 10
19.50021122888584
 20
186.7866635032292
 30
0.0
 11
19.50021122888584
 21
187.1947055032291
 31
0.0
  0
LINE
  5
A75
330
1F
100
AcDbEntity
  8
0
100
AcDbLine
 10
19.09216922888585
 20
187.1947055032291
 30
0.0
 11
19.09216922888585
 21
186.7866635032292
 31
0.0
  0
LINE
  5
A76
330
1F
100
AcDbEntity
  8
0
100
AcDbLine
 10
17.42734622888583
 20
186.7866635032292
 30
0.0
 11
17.42734622888583
 21
187.1947055032291
 31
0.0
  0
LINE
  5
A77
330
1F
100
AcDbEntity
  8
0
100
AcDbLine
 10
17.01930122888584
 20
187.1947055032291
 30
0.0
 11
17.01930122888584
 21
186.7866635032292
 31
0.0
  0
LINE
  5
A78
330
1F
100
AcDbEntity
  8
0
100
AcDbLine
 10
17.42734622888583
 20
187.1947055032291
 30
0.0
 11
17.01930122888584
 21
187.1947055032291
 31
0.0
  0
LINE
  5
A79
330
1F
100
AcDbEntity
  8
0
100
AcDbLine
 10
19.50021122888584
 20
187.1947055032291
 30
0.0
 11
19.09216922888585
 21
187.1947055032291
 31
0.0
  0
LINE
  5
A7A
330
1F
100
AcDbEntity
  8
0
100
AcDbLine
 10
19.09216922888585
 20
186.7866635032292
 30
0.0
 11
19.50021122888584
 21
186.7866635032292
 31
0.0
  0
LINE
  5
A7B
330
1F
100
AcDbEntity
  8
0
100
AcDbLine
 10
17.01930122888584
 20
186.7866635032292
 30
0.0
 11
17.42734622888583
 21
186.7866635032292
 31
0.0
  0
LINE
  5
A7C
330
1F
100
AcDbEntity
  8
0
100
AcDbLine
 10
19.50021122888584
 20
185.5166635032294
 30
0.0
 11
19.50021122888584
 21
185.9247055032291
 31
0.0
  0
LINE
  5
A7D
330
1F
100
AcDbEntity
  8
0
100
AcDbLine
 10
19.09216922888585
 20
185.9247055032291
 30
0.0
 11
19.09216922888585
 21
185.5166635032294
 31
0.0
  0
LINE
  5
A7E
330
1F
100
AcDbEntity
  8
0
100
AcDbLine
 10
17.42734622888583
 20
185.5166635032294
 30
0.0
 11
17.42734622888583
 21
185.9247055032291
 31
0.0
  0
LINE
  5
A7F
330
1F
100
AcDbEntity
  8
0
100
AcDbLine
 10
17.01930122888584
 20
185.9247055032291
 30
0.0
 11
17.01930122888584
 21
185.5166635032294
 31
0.0
  0
LINE
  5
A80
330
1F
100
AcDbEntity
  8
0
100
AcDbLine
 10
17.42734622888583
 20
185.9247055032291
 30
0.0
 11
17.01930122888584
 21
185.9247055032291
 31
0.0
  0
LINE
  5
A81
330
1F
100
AcDbEntity
  8
0
100
AcDbLine
 10
19.50021122888584
 20
185.9247055032291
 30
0.0
 11
19.09216922888585
 21
185.9247055032291
 31
0.0
  0
LINE
  5
A82
330
1F
100
AcDbEntity
  8
0
100
AcDbLine
 10
19.09216922888585
 20
185.5166635032294
 30
0.0
 11
19.50021122888584
 21
185.5166635032294
 31
0.0
  0
LINE
  5
A83
330
1F
100
AcDbEntity
  8
0
100
AcDbLine
 10
17.01930122888584
 20
185.5166635032294
 30
0.0
 11
17.42734622888583
 21
185.5166635032294
 31
0.0
  0
LINE
  5
A84
330
1F
100
AcDbEntity
  8
0
100
AcDbLine
 10
19.50021122888584
 20
189.3266635032293
 30
0.0
 11
19.50021122888584
 21
189.7347055032291
 31
0.0
  0
LINE
  5
A85
330
1F
100
AcDbEntity
  8
0
100
AcDbLine
 10
19.09216922888585
 20
189.7347055032291
 30
0.0
 11
19.09216922888585
 21
189.3266635032293
 31
0.0
  0
LINE
  5
A86
330
1F
100
AcDbEntity
  8
0
100
AcDbLine
 10
17.42734622888583
 20
189.3266635032293
 30
0.0
 11
17.42734622888583
 21
189.7347055032291
 31
0.0
  0
LINE
  5
A87
330
1F
100
AcDbEntity
  8
0
100
AcDbLine
 10
17.01930122888584
 20
189.7347055032291
 30
0.0
 11
17.01930122888584
 21
189.3266635032293
 31
0.0
  0
LINE
  5
A88
330
1F
100
AcDbEntity
  8
0
100
AcDbLine
 10
22.88511922888585
 20
191.8206845032291
 30
0.0
 11
22.63511922888585
 21
191.8206845032291
 31
0.0
  0
LINE
  5
A89
330
1F
100
AcDbEntity
  8
0
100
AcDbLine
 10
22.88511922888585
 20
191.0506845032291
 30
0.0
 11
22.63511922888585
 21
191.0506845032291
 31
0.0
  0
LINE
  5
A8A
330
1F
100
AcDbEntity
  8
0
100
AcDbLine
 10
22.88511922888585
 20
190.550684503229
 30
0.0
 11
22.63511922888585
 21
190.550684503229
 31
0.0
  0
LINE
  5
A8B
330
1F
100
AcDbEntity
  8
0
100
AcDbLine
 10
22.88511922888585
 20
189.7806845032291
 30
0.0
 11
22.63511922888585
 21
189.7806845032291
 31
0.0
  0
LINE
  5
A8C
330
1F
100
AcDbEntity
  8
0
100
AcDbLine
 10
22.88511922888585
 20
189.2806845032291
 30
0.0
 11
22.63511922888585
 21
189.2806845032291
 31
0.0
  0
LINE
  5
A8D
330
1F
100
AcDbEntity
  8
0
100
AcDbLine
 10
22.88511922888585
 20
188.510684503229
 30
0.0
 11
22.63511922888585
 21
188.510684503229
 31
0.0
  0
LINE
  5
A8E
330
1F
100
AcDbEntity
  8
0
100
AcDbLine
 10
22.88511922888585
 20
188.0106845032291
 30
0.0
 11
22.63511922888585
 21
188.0106845032291
 31
0.0
  0
LINE
  5
A8F
330
1F
100
AcDbEntity
  8
0
100
AcDbLine
 10
22.88511922888585
 20
187.2406845032291
 30
0.0
 11
22.63511922888585
 21
187.2406845032291
 31
0.0
  0
LINE
  5
A90
330
1F
100
AcDbEntity
  8
0
100
AcDbLine
 10
22.88511922888585
 20
186.740684503229
 30
0.0
 11
22.63511922888585
 21
186.740684503229
 31
0.0
  0
LINE
  5
A91
330
1F
100
AcDbEntity
  8
0
100
AcDbLine
 10
22.88511922888585
 20
185.9706845032291
 30
0.0
 11
22.63511922888585
 21
185.9706845032291
 31
0.0
  0
LINE
  5
A92
330
1F
100
AcDbEntity
  8
0
100
AcDbLine
 10
22.88511922888585
 20
185.4706845032291
 30
0.0
 11
22.63511922888585
 21
185.4706845032291
 31
0.0
  0
LINE
  5
A93
330
1F
100
AcDbEntity
  8
0
100
AcDbLine
 10
23.38511922888585
 20
220.5556855032291
 30
0.0
 11
13.58511922888586
 21
220.5556855032291
 31
0.0
  0
LINE
  5
A94
330
1F
100
AcDbEntity
  8
0
100
AcDbLine
 10
16.62757822888583
 20
216.4106845032292
 30
0.0
 11
14.79137922888591
 21
216.4106845032292
 31
0.0
  0
LINE
  5
A95
330
1F
100
AcDbEntity
  8
0
100
AcDbLine
 10
21.93215922888586
 20
213.7991985032291
 30
0.0
 11
14.79137922888583
 21
213.7991985032291
 31
0.0
  0
LINE
  5
A96
330
1F
100
AcDbEntity
  8
0
100
AcDbLine
 10
21.93215922888586
 20
211.4325395032291
 30
0.0
 11
14.79137922888583
 21
211.4325395032291
 31
0.0
  0
LINE
  5
A97
330
1F
100
AcDbEntity
  8
0
100
AcDbLine
 10
14.79137922888591
 20
218.8627005032289
 30
0.0
 11
21.93215922888586
 21
218.8627005032289
 31
0.0
  0
LINE
  5
A98
330
1F
100
AcDbEntity
  8
0
100
AcDbLine
 10
22.88511922888585
 20
219.6106845032291
 30
0.0
 11
14.13511922888583
 21
219.6106845032291
 31
0.0
  0
LINE
  5
A99
330
1F
100
AcDbEntity
  8
0
100
AcDbLine
 10
14.13511922888583
 20
219.6106845032291
 30
0.0
 11
22.63511922888585
 21
219.6106845032291
 31
0.0
  0
LINE
  5
A9A
330
1F
100
AcDbEntity
  8
0
100
AcDbLine
 10
6.085119228885856
 20
225.9556855032291
 30
0.0
 11
28.88511922888585
 21
225.9556855032291
 31
0.0
  0
LINE
  5
A9B
330
1F
100
AcDbEntity
  8
0
100
AcDbLine
 10
5.985119228885722
 20
226.0518165032288
 30
0.0
 11
28.98511922888586
 21
226.0518165032288
 31
0.0
  0
LINE
  5
A9C
330
1F
100
AcDbEntity
  8
0
100
AcDbLine
 10
15.19942422888583
 20
211.4325395032291
 30
0.0
 11
15.19942422888583
 21
199.4586670032291
 31
0.0
  0
LINE
  5
A9D
330
1F
100
AcDbEntity
  8
0
100
AcDbLine
 10
14.13511922888583
 20
193.340684503229
 30
0.0
 11
14.13511922888583
 21
219.6106845032291
 31
0.0
  0
LINE
  5
A9E
330
1F
100
AcDbEntity
  8
0
100
AcDbLine
 10
15.19942422888583
 20
199.4586670032291
 30
0.0
 11
14.79137922888583
 21
199.4586670032291
 31
0.0
  0
LINE
  5
A9F
330
1F
100
AcDbEntity
  8
0
100
AcDbLine
 10
15.19942422888583
 20
196.1127020032289
 30
0.0
 11
14.79137922888583
 21
196.1127020032289
 31
0.0
  0
LINE
  5
AA0
330
1F
100
AcDbEntity
  8
0
100
AcDbLine
 10
4.985119228885834
 20
225.0518165032289
 30
0.0
 11
4.985119228885834
 21
211.1106855032294
 31
0.0
  0
LINE
  5
AA1
330
1F
100
AcDbEntity
  8
0
100
AcDbLine
 10
1.98491022888585
 20
225.0275395032294
 30
0.0
 11
2.915837228885933
 21
223.6767815032294
 31
0.0
  0
LINE
  5
AA2
330
1F
100
AcDbEntity
  8
0
100
AcDbLine
 10
1.98491022888585
 20
225.0275395032294
 30
0.0
 11
2.915837228885933
 21
223.6767815032294
 31
0.0
  0
ARC
  5
AA3
330
1F
100
AcDbEntity
  8
0
100
AcDbCircle
 10
1.915408228885879
 20
222.6767815032294
 30
0.0
 40
1.0
100
AcDbArc
 50
90.0
 51
180.0
  0
ARC
  5
AA4
330
1F
100
AcDbEntity
  8
0
100
AcDbCircle
 10
1.915408228885879
 20
222.6767815032294
 30
0.0
 40
1.0
100
AcDbArc
 50
90.0
 51
180.0
  0
LINE
  5
AA5
330
1F
100
AcDbEntity
  8
0
100
AcDbLine
 10
1.91540822888585
 20
223.6767815032294
 30
0.0
 11
2.915837228885933
 21
223.6767815032294
 31
0.0
  0
LINE
  5
AA6
330
1F
100
AcDbEntity
  8
0
100
AcDbLine
 10
1.91540822888585
 20
223.6767815032294
 30
0.0
 11
2.915837228885933
 21
223.6767815032294
 31
0.0
  0
LINE
  5
AA7
330
1F
100
AcDbEntity
  8
0
100
AcDbLine
 10
1.98491022888585
 20
225.0275395032294
 30
0.0
 11
1.00000022888595
 21
225.0275395032294
 31
0.0
  0
ARC
  5
AA8
330
1F
100
AcDbEntity
  8
0
100
AcDbCircle
 10
5.985119228885863
 20
225.051816503229
 30
0.0
 40
1.0
100
AcDbArc
 50
90.0
 51
180.0
  0
ARC
  5
AA9
330
1F
100
AcDbEntity
  8
0
100
AcDbCircle
 10
6.085119228885886
 20
224.9556855032291
 30
0.0
 40
1.0
100
AcDbArc
 50
90.0
 51
180.0
  0
LINE
  5
AAA
330
1F
100
AcDbEntity
  8
0
100
AcDbLine
 10
14.79137922888583
 20
213.7991985032291
 30
0.0
 11
14.79137922888591
 21
218.8627005032289
 31
0.0
  0
LINE
  5
AAB
330
1F
100
AcDbEntity
  8
0
100
AcDbLine
 10
22.63511922888585
 20
219.6106845032291
 30
0.0
 11
22.63511922888585
 21
193.340684503229
 31
0.0
  0
LINE
  5
AAC
330
1F
100
AcDbEntity
  8
0
100
AcDbLine
 10
22.63511922888585
 20
201.040684503229
 30
0.0
 11
22.63511922888585
 21
219.6106845032291
 31
0.0
  0
LINE
  5
AAD
330
1F
100
AcDbEntity
  8
0
100
AcDbLine
 10
19.50021122888584
 20
208.3766635032294
 30
0.0
 11
19.50021122888584
 21
208.7847055032292
 31
0.0
  0
LINE
  5
AAE
330
1F
100
AcDbEntity
  8
0
100
AcDbLine
 10
19.09216922888585
 20
208.7847055032292
 30
0.0
 11
19.09216922888585
 21
208.3766635032294
 31
0.0
  0
LINE
  5
AAF
330
1F
100
AcDbEntity
  8
0
100
AcDbLine
 10
17.42734622888583
 20
208.3766635032294
 30
0.0
 11
17.42734622888583
 21
208.7847055032292
 31
0.0
  0
LINE
  5
AB0
330
1F
100
AcDbEntity
  8
0
100
AcDbLine
 10
17.01930122888584
 20
208.7847055032292
 30
0.0
 11
17.01930122888584
 21
208.3766635032294
 31
0.0
  0
LINE
  5
AB1
330
1F
100
AcDbEntity
  8
0
100
AcDbLine
 10
17.42734622888583
 20
208.7847055032292
 30
0.0
 11
17.01930122888584
 21
208.7847055032292
 31
0.0
  0
LINE
  5
AB2
330
1F
100
AcDbEntity
  8
0
100
AcDbLine
 10
19.50021122888584
 20
208.7847055032292
 30
0.0
 11
19.09216922888585
 21
208.7847055032292
 31
0.0
  0
LINE
  5
AB3
330
1F
100
AcDbEntity
  8
0
100
AcDbLine
 10
19.09216922888585
 20
208.3766635032294
 30
0.0
 11
19.50021122888584
 21
208.3766635032294
 31
0.0
  0
LINE
  5
AB4
330
1F
100
AcDbEntity
  8
0
100
AcDbLine
 10
17.01930122888584
 20
208.3766635032294
 30
0.0
 11
17.42734622888583
 21
208.3766635032294
 31
0.0
  0
LINE
  5
AB5
330
1F
100
AcDbEntity
  8
0
100
AcDbLine
 10
19.50021122888584
 20
207.1066635032294
 30
0.0
 11
19.50021122888584
 21
207.5147055032292
 31
0.0
  0
LINE
  5
AB6
330
1F
100
AcDbEntity
  8
0
100
AcDbLine
 10
19.09216922888585
 20
207.5147055032292
 30
0.0
 11
19.09216922888585
 21
207.1066635032294
 31
0.0
  0
LINE
  5
AB7
330
1F
100
AcDbEntity
  8
0
100
AcDbLine
 10
17.42734622888583
 20
207.1066635032294
 30
0.0
 11
17.42734622888583
 21
207.5147055032292
 31
0.0
  0
LINE
  5
AB8
330
1F
100
AcDbEntity
  8
0
100
AcDbLine
 10
17.01930122888584
 20
207.5147055032292
 30
0.0
 11
17.01930122888584
 21
207.1066635032294
 31
0.0
  0
LINE
  5
AB9
330
1F
100
AcDbEntity
  8
0
100
AcDbLine
 10
17.42734622888583
 20
207.5147055032292
 30
0.0
 11
17.01930122888584
 21
207.5147055032292
 31
0.0
  0
LINE
  5
ABA
330
1F
100
AcDbEntity
  8
0
100
AcDbLine
 10
19.50021122888584
 20
207.5147055032292
 30
0.0
 11
19.09216922888585
 21
207.5147055032292
 31
0.0
  0
LINE
  5
ABB
330
1F
100
AcDbEntity
  8
0
100
AcDbLine
 10
19.09216922888585
 20
207.1066635032294
 30
0.0
 11
19.50021122888584
 21
207.1066635032294
 31
0.0
  0
LINE
  5
ABC
330
1F
100
AcDbEntity
  8
0
100
AcDbLine
 10
17.01930122888584
 20
207.1066635032294
 30
0.0
 11
17.42734622888583
 21
207.1066635032294
 31
0.0
  0
LINE
  5
ABD
330
1F
100
AcDbEntity
  8
0
100
AcDbLine
 10
19.50021122888584
 20
205.8366635032292
 30
0.0
 11
19.50021122888584
 21
206.2447055032293
 31
0.0
  0
LINE
  5
ABE
330
1F
100
AcDbEntity
  8
0
100
AcDbLine
 10
19.09216922888585
 20
206.2447055032293
 30
0.0
 11
19.09216922888585
 21
205.8366635032292
 31
0.0
  0
LINE
  5
ABF
330
1F
100
AcDbEntity
  8
0
100
AcDbLine
 10
17.42734622888583
 20
205.8366635032292
 30
0.0
 11
17.42734622888583
 21
206.2447055032293
 31
0.0
  0
LINE
  5
AC0
330
1F
100
AcDbEntity
  8
0
100
AcDbLine
 10
17.01930122888584
 20
206.2447055032293
 30
0.0
 11
17.01930122888584
 21
205.8366635032292
 31
0.0
  0
LINE
  5
AC1
330
1F
100
AcDbEntity
  8
0
100
AcDbLine
 10
17.42734622888583
 20
206.2447055032293
 30
0.0
 11
17.01930122888584
 21
206.2447055032293
 31
0.0
  0
LINE
  5
AC2
330
1F
100
AcDbEntity
  8
0
100
AcDbLine
 10
19.50021122888584
 20
206.2447055032293
 30
0.0
 11
19.09216922888585
 21
206.2447055032293
 31
0.0
  0
LINE
  5
AC3
330
1F
100
AcDbEntity
  8
0
100
AcDbLine
 10
19.09216922888585
 20
205.8366635032292
 30
0.0
 11
19.50021122888584
 21
205.8366635032292
 31
0.0
  0
LINE
  5
AC4
330
1F
100
AcDbEntity
  8
0
100
AcDbLine
 10
17.01930122888584
 20
205.8366635032292
 30
0.0
 11
17.42734622888583
 21
205.8366635032292
 31
0.0
  0
LINE
  5
AC5
330
1F
100
AcDbEntity
  8
0
100
AcDbLine
 10
19.50021122888584
 20
204.5666635032293
 30
0.0
 11
19.50021122888584
 21
204.9747055032291
 31
0.0
  0
LINE
  5
AC6
330
1F
100
AcDbEntity
  8
0
100
AcDbLine
 10
19.09216922888585
 20
204.9747055032291
 30
0.0
 11
19.09216922888585
 21
204.5666635032293
 31
0.0
  0
LINE
  5
AC7
330
1F
100
AcDbEntity
  8
0
100
AcDbLine
 10
17.42734622888583
 20
204.5666635032293
 30
0.0
 11
17.42734622888583
 21
204.9747055032291
 31
0.0
  0
LINE
  5
AC8
330
1F
100
AcDbEntity
  8
0
100
AcDbLine
 10
17.01930122888584
 20
204.9747055032291
 30
0.0
 11
17.01930122888584
 21
204.5666635032293
 31
0.0
  0
LINE
  5
AC9
330
1F
100
AcDbEntity
  8
0
100
AcDbLine
 10
17.42734622888583
 20
204.9747055032291
 30
0.0
 11
17.01930122888584
 21
204.9747055032291
 31
0.0
  0
LINE
  5
ACA
330
1F
100
AcDbEntity
  8
0
100
AcDbLine
 10
19.50021122888584
 20
204.9747055032291
 30
0.0
 11
19.09216922888585
 21
204.9747055032291
 31
0.0
  0
LINE
  5
ACB
330
1F
100
AcDbEntity
  8
0
100
AcDbLine
 10
19.09216922888585
 20
204.5666635032293
 30
0.0
 11
19.50021122888584
 21
204.5666635032293
 31
0.0
  0
LINE
  5
ACC
330
1F
100
AcDbEntity
  8
0
100
AcDbLine
 10
17.01930122888584
 20
204.5666635032293
 30
0.0
 11
17.42734622888583
 21
204.5666635032293
 31
0.0
  0
LINE
  5
ACD
330
1F
100
AcDbEntity
  8
0
100
AcDbLine
 10
19.50021122888584
 20
203.2966635032293
 30
0.0
 11
19.50021122888584
 21
203.704705503229
 31
0.0
  0
LINE
  5
ACE
330
1F
100
AcDbEntity
  8
0
100
AcDbLine
 10
19.09216922888585
 20
203.704705503229
 30
0.0
 11
19.09216922888585
 21
203.2966635032293
 31
0.0
  0
LINE
  5
ACF
330
1F
100
AcDbEntity
  8
0
100
AcDbLine
 10
17.42734622888583
 20
203.2966635032293
 30
0.0
 11
17.42734622888583
 21
203.704705503229
 31
0.0
  0
LINE
  5
AD0
330
1F
100
AcDbEntity
  8
0
100
AcDbLine
 10
17.01930122888584
 20
203.704705503229
 30
0.0
 11
17.01930122888584
 21
203.2966635032293
 31
0.0
  0
LINE
  5
AD1
330
1F
100
AcDbEntity
  8
0
100
AcDbLine
 10
17.42734622888583
 20
203.704705503229
 30
0.0
 11
17.01930122888584
 21
203.704705503229
 31
0.0
  0
LINE
  5
AD2
330
1F
100
AcDbEntity
  8
0
100
AcDbLine
 10
19.50021122888584
 20
203.704705503229
 30
0.0
 11
19.09216922888585
 21
203.704705503229
 31
0.0
  0
LINE
  5
AD3
330
1F
100
AcDbEntity
  8
0
100
AcDbLine
 10
19.09216922888585
 20
203.2966635032293
 30
0.0
 11
19.50021122888584
 21
203.2966635032293
 31
0.0
  0
LINE
  5
AD4
330
1F
100
AcDbEntity
  8
0
100
AcDbLine
 10
17.01930122888584
 20
203.2966635032293
 30
0.0
 11
17.42734622888583
 21
203.2966635032293
 31
0.0
  0
LINE
  5
AD5
330
1F
100
AcDbEntity
  8
0
100
AcDbLine
 10
19.50021122888584
 20
202.0266635032294
 30
0.0
 11
19.50021122888584
 21
202.4347055032291
 31
0.0
  0
LINE
  5
AD6
330
1F
100
AcDbEntity
  8
0
100
AcDbLine
 10
19.09216922888585
 20
202.4347055032291
 30
0.0
 11
19.09216922888585
 21
202.0266635032294
 31
0.0
  0
LINE
  5
AD7
330
1F
100
AcDbEntity
  8
0
100
AcDbLine
 10
17.42734622888583
 20
202.0266635032294
 30
0.0
 11
17.42734622888583
 21
202.4347055032291
 31
0.0
  0
LINE
  5
AD8
330
1F
100
AcDbEntity
  8
0
100
AcDbLine
 10
17.01930122888584
 20
202.4347055032291
 30
0.0
 11
17.01930122888584
 21
202.0266635032294
 31
0.0
  0
LINE
  5
AD9
330
1F
100
AcDbEntity
  8
0
100
AcDbLine
 10
17.42734622888583
 20
202.4347055032291
 30
0.0
 11
17.01930122888584
 21
202.4347055032291
 31
0.0
  0
LINE
  5
ADA
330
1F
100
AcDbEntity
  8
0
100
AcDbLine
 10
19.50021122888584
 20
202.4347055032291
 30
0.0
 11
19.09216922888585
 21
202.4347055032291
 31
0.0
  0
LINE
  5
ADB
330
1F
100
AcDbEntity
  8
0
100
AcDbLine
 10
19.09216922888585
 20
202.0266635032294
 30
0.0
 11
19.50021122888584
 21
202.0266635032294
 31
0.0
  0
LINE
  5
ADC
330
1F
100
AcDbEntity
  8
0
100
AcDbLine
 10
17.01930122888584
 20
202.0266635032294
 30
0.0
 11
17.42734622888583
 21
202.0266635032294
 31
0.0
  0
LINE
  5
ADD
330
1F
100
AcDbEntity
  8
0
100
AcDbLine
 10
19.50021122888584
 20
200.7566635032294
 30
0.0
 11
19.50021122888584
 21
201.1647055032292
 31
0.0
  0
LINE
  5
ADE
330
1F
100
AcDbEntity
  8
0
100
AcDbLine
 10
19.09216922888585
 20
201.1647055032292
 30
0.0
 11
19.09216922888585
 21
200.7566635032294
 31
0.0
  0
LINE
  5
ADF
330
1F
100
AcDbEntity
  8
0
100
AcDbLine
 10
17.42734622888583
 20
200.7566635032294
 30
0.0
 11
17.42734622888583
 21
201.1647055032292
 31
0.0
  0
LINE
  5
AE0
330
1F
100
AcDbEntity
  8
0
100
AcDbLine
 10
17.01930122888584
 20
201.1647055032292
 30
0.0
 11
17.01930122888584
 21
200.7566635032294
 31
0.0
  0
LINE
  5
AE1
330
1F
100
AcDbEntity
  8
0
100
AcDbLine
 10
17.42734622888583
 20
201.1647055032292
 30
0.0
 11
17.01930122888584
 21
201.1647055032292
 31
0.0
  0
LINE
  5
AE2
330
1F
100
AcDbEntity
  8
0
100
AcDbLine
 10
19.50021122888584
 20
201.1647055032292
 30
0.0
 11
19.09216922888585
 21
201.1647055032292
 31
0.0
  0
LINE
  5
AE3
330
1F
100
AcDbEntity
  8
0
100
AcDbLine
 10
19.09216922888585
 20
200.7566635032294
 30
0.0
 11
19.50021122888584
 21
200.7566635032294
 31
0.0
  0
LINE
  5
AE4
330
1F
100
AcDbEntity
  8
0
100
AcDbLine
 10
17.01930122888584
 20
200.7566635032294
 30
0.0
 11
17.42734622888583
 21
200.7566635032294
 31
0.0
  0
LINE
  5
AE5
330
1F
100
AcDbEntity
  8
0
100
AcDbLine
 10
19.50021122888584
 20
199.4866635032294
 30
0.0
 11
19.50021122888584
 21
199.8947055032291
 31
0.0
  0
LINE
  5
AE6
330
1F
100
AcDbEntity
  8
0
100
AcDbLine
 10
19.09216922888585
 20
199.8947055032291
 30
0.0
 11
19.09216922888585
 21
199.4866635032294
 31
0.0
  0
LINE
  5
AE7
330
1F
100
AcDbEntity
  8
0
100
AcDbLine
 10
17.42734622888583
 20
199.4866635032294
 30
0.0
 11
17.42734622888583
 21
199.8947055032291
 31
0.0
  0
LINE
  5
AE8
330
1F
100
AcDbEntity
  8
0
100
AcDbLine
 10
17.01930122888584
 20
199.8947055032291
 30
0.0
 11
17.01930122888584
 21
199.4866635032294
 31
0.0
  0
LINE
  5
AE9
330
1F
100
AcDbEntity
  8
0
100
AcDbLine
 10
17.42734622888583
 20
199.8947055032291
 30
0.0
 11
17.01930122888584
 21
199.8947055032291
 31
0.0
  0
LINE
  5
AEA
330
1F
100
AcDbEntity
  8
0
100
AcDbLine
 10
19.50021122888584
 20
199.8947055032291
 30
0.0
 11
19.09216922888585
 21
199.8947055032291
 31
0.0
  0
LINE
  5
AEB
330
1F
100
AcDbEntity
  8
0
100
AcDbLine
 10
19.09216922888585
 20
199.4866635032294
 30
0.0
 11
19.50021122888584
 21
199.4866635032294
 31
0.0
  0
LINE
  5
AEC
330
1F
100
AcDbEntity
  8
0
100
AcDbLine
 10
17.01930122888584
 20
199.4866635032294
 30
0.0
 11
17.42734622888583
 21
199.4866635032294
 31
0.0
  0
LINE
  5
AED
330
1F
100
AcDbEntity
  8
0
100
AcDbLine
 10
19.50021122888584
 20
198.2166635032293
 30
0.0
 11
19.50021122888584
 21
198.6247055032291
 31
0.0
  0
LINE
  5
AEE
330
1F
100
AcDbEntity
  8
0
100
AcDbLine
 10
19.09216922888585
 20
198.6247055032291
 30
0.0
 11
19.09216922888585
 21
198.2166635032293
 31
0.0
  0
LINE
  5
AEF
330
1F
100
AcDbEntity
  8
0
100
AcDbLine
 10
17.42734622888583
 20
198.2166635032293
 30
0.0
 11
17.42734622888583
 21
198.6247055032291
 31
0.0
  0
LINE
  5
AF0
330
1F
100
AcDbEntity
  8
0
100
AcDbLine
 10
17.01930122888584
 20
198.6247055032291
 30
0.0
 11
17.01930122888584
 21
198.2166635032293
 31
0.0
  0
LINE
  5
AF1
330
1F
100
AcDbEntity
  8
0
100
AcDbLine
 10
17.42734622888583
 20
198.6247055032291
 30
0.0
 11
17.01930122888584
 21
198.6247055032291
 31
0.0
  0
LINE
  5
AF2
330
1F
100
AcDbEntity
  8
0
100
AcDbLine
 10
19.50021122888584
 20
198.6247055032291
 30
0.0
 11
19.09216922888585
 21
198.6247055032291
 31
0.0
  0
LINE
  5
AF3
330
1F
100
AcDbEntity
  8
0
100
AcDbLine
 10
19.09216922888585
 20
198.2166635032293
 30
0.0
 11
19.50021122888584
 21
198.2166635032293
 31
0.0
  0
LINE
  5
AF4
330
1F
100
AcDbEntity
  8
0
100
AcDbLine
 10
17.01930122888584
 20
198.2166635032293
 30
0.0
 11
17.42734622888583
 21
198.2166635032293
 31
0.0
  0
LINE
  5
AF5
330
1F
100
AcDbEntity
  8
0
100
AcDbLine
 10
19.50021122888584
 20
196.9466635032294
 30
0.0
 11
19.50021122888584
 21
197.3547055032291
 31
0.0
  0
LINE
  5
AF6
330
1F
100
AcDbEntity
  8
0
100
AcDbLine
 10
19.09216922888585
 20
197.3547055032291
 30
0.0
 11
19.09216922888585
 21
196.9466635032294
 31
0.0
  0
LINE
  5
AF7
330
1F
100
AcDbEntity
  8
0
100
AcDbLine
 10
17.42734622888583
 20
196.9466635032294
 30
0.0
 11
17.42734622888583
 21
197.3547055032291
 31
0.0
  0
LINE
  5
AF8
330
1F
100
AcDbEntity
  8
0
100
AcDbLine
 10
17.01930122888584
 20
197.3547055032291
 30
0.0
 11
17.01930122888584
 21
196.9466635032294
 31
0.0
  0
LINE
  5
AF9
330
1F
100
AcDbEntity
  8
0
100
AcDbLine
 10
17.42734622888583
 20
197.3547055032291
 30
0.0
 11
17.01930122888584
 21
197.3547055032291
 31
0.0
  0
LINE
  5
AFA
330
1F
100
AcDbEntity
  8
0
100
AcDbLine
 10
19.50021122888584
 20
197.3547055032291
 30
0.0
 11
19.09216922888585
 21
197.3547055032291
 31
0.0
  0
LINE
  5
AFB
330
1F
100
AcDbEntity
  8
0
100
AcDbLine
 10
19.09216922888585
 20
196.9466635032294
 30
0.0
 11
19.50021122888584
 21
196.9466635032294
 31
0.0
  0
LINE
  5
AFC
330
1F
100
AcDbEntity
  8
0
100
AcDbLine
 10
17.01930122888584
 20
196.9466635032294
 30
0.0
 11
17.42734622888583
 21
196.9466635032294
 31
0.0
  0
LINE
  5
AFD
330
1F
100
AcDbEntity
  8
0
100
AcDbLine
 10
19.50021122888584
 20
195.6766635032295
 30
0.0
 11
19.50021122888584
 21
196.0847055032292
 31
0.0
  0
LINE
  5
AFE
330
1F
100
AcDbEntity
  8
0
100
AcDbLine
 10
19.09216922888585
 20
196.0847055032292
 30
0.0
 11
19.09216922888585
 21
195.6766635032295
 31
0.0
  0
LINE
  5
AFF
330
1F
100
AcDbEntity
  8
0
100
AcDbLine
 10
17.42734622888583
 20
195.6766635032295
 30
0.0
 11
17.42734622888583
 21
196.0847055032292
 31
0.0
  0
LINE
  5
B00
330
1F
100
AcDbEntity
  8
0
100
AcDbLine
 10
17.01930122888584
 20
196.0847055032292
 30
0.0
 11
17.01930122888584
 21
195.6766635032295
 31
0.0
  0
LINE
  5
B01
330
1F
100
AcDbEntity
  8
0
100
AcDbLine
 10
17.42734622888583
 20
196.0847055032292
 30
0.0
 11
17.01930122888584
 21
196.0847055032292
 31
0.0
  0
LINE
  5
B02
330
1F
100
AcDbEntity
  8
0
100
AcDbLine
 10
19.50021122888584
 20
196.0847055032292
 30
0.0
 11
19.09216922888585
 21
196.0847055032292
 31
0.0
  0
LINE
  5
B03
330
1F
100
AcDbEntity
  8
0
100
AcDbLine
 10
19.09216922888585
 20
195.6766635032295
 30
0.0
 11
19.50021122888584
 21
195.6766635032295
 31
0.0
  0
LINE
  5
B04
330
1F
100
AcDbEntity
  8
0
100
AcDbLine
 10
17.01930122888584
 20
195.6766635032295
 30
0.0
 11
17.42734622888583
 21
195.6766635032295
 31
0.0
  0
LINE
  5
B05
330
1F
100
AcDbEntity
  8
0
100
AcDbLine
 10
19.50021122888584
 20
194.4066635032296
 30
0.0
 11
19.50021122888584
 21
194.8147055032293
 31
0.0
  0
LINE
  5
B06
330
1F
100
AcDbEntity
  8
0
100
AcDbLine
 10
19.09216922888585
 20
194.8147055032293
 30
0.0
 11
19.09216922888585
 21
194.4066635032296
 31
0.0
  0
LINE
  5
B07
330
1F
100
AcDbEntity
  8
0
100
AcDbLine
 10
17.42734622888583
 20
194.4066635032296
 30
0.0
 11
17.42734622888583
 21
194.8147055032293
 31
0.0
  0
LINE
  5
B08
330
1F
100
AcDbEntity
  8
0
100
AcDbLine
 10
17.01930122888584
 20
194.8147055032293
 30
0.0
 11
17.01930122888584
 21
194.4066635032296
 31
0.0
  0
LINE
  5
B09
330
1F
100
AcDbEntity
  8
0
100
AcDbLine
 10
17.42734622888583
 20
194.8147055032293
 30
0.0
 11
17.01930122888584
 21
194.8147055032293
 31
0.0
  0
LINE
  5
B0A
330
1F
100
AcDbEntity
  8
0
100
AcDbLine
 10
19.50021122888584
 20
194.8147055032293
 30
0.0
 11
19.09216922888585
 21
194.8147055032293
 31
0.0
  0
LINE
  5
B0B
330
1F
100
AcDbEntity
  8
0
100
AcDbLine
 10
19.09216922888585
 20
194.4066635032296
 30
0.0
 11
19.50021122888584
 21
194.4066635032296
 31
0.0
  0
LINE
  5
B0C
330
1F
100
AcDbEntity
  8
0
100
AcDbLine
 10
17.01930122888584
 20
194.4066635032296
 30
0.0
 11
17.42734622888583
 21
194.4066635032296
 31
0.0
  0
LINE
  5
B0D
330
1F
100
AcDbEntity
  8
0
100
AcDbLine
 10
19.50021122888584
 20
193.1366635032294
 30
0.0
 11
19.50021122888584
 21
193.5447055032293
 31
0.0
  0
LINE
  5
B0E
330
1F
100
AcDbEntity
  8
0
100
AcDbLine
 10
19.09216922888585
 20
193.5447055032293
 30
0.0
 11
19.09216922888585
 21
193.1366635032294
 31
0.0
  0
LINE
  5
B0F
330
1F
100
AcDbEntity
  8
0
100
AcDbLine
 10
17.42734622888583
 20
193.1366635032294
 30
0.0
 11
17.42734622888583
 21
193.5447055032293
 31
0.0
  0
LINE
  5
B10
330
1F
100
AcDbEntity
  8
0
100
AcDbLine
 10
17.01930122888584
 20
193.5447055032293
 30
0.0
 11
17.01930122888584
 21
193.1366635032294
 31
0.0
  0
LINE
  5
B11
330
1F
100
AcDbEntity
  8
0
100
AcDbLine
 10
17.42734622888583
 20
193.5447055032293
 30
0.0
 11
17.01930122888584
 21
193.5447055032293
 31
0.0
  0
LINE
  5
B12
330
1F
100
AcDbEntity
  8
0
100
AcDbLine
 10
19.50021122888584
 20
193.5447055032293
 30
0.0
 11
19.09216922888585
 21
193.5447055032293
 31
0.0
  0
LINE
  5
B13
330
1F
100
AcDbEntity
  8
0
100
AcDbLine
 10
19.09216922888585
 20
193.1366635032294
 30
0.0
 11
19.50021122888584
 21
193.1366635032294
 31
0.0
  0
LINE
  5
B14
330
1F
100
AcDbEntity
  8
0
100
AcDbLine
 10
17.01930122888584
 20
193.1366635032294
 30
0.0
 11
17.42734622888583
 21
193.1366635032294
 31
0.0
  0
LINE
  5
B15
330
1F
100
AcDbEntity
  8
0
100
AcDbLine
 10
17.42734622888583
 20
192.2747055032292
 30
0.0
 11
17.01930122888584
 21
192.2747055032292
 31
0.0
  0
LINE
  5
B16
330
1F
100
AcDbEntity
  8
0
100
AcDbLine
 10
19.50021122888584
 20
192.2747055032292
 30
0.0
 11
19.09216922888585
 21
192.2747055032292
 31
0.0
  0
LINE
  5
B17
330
1F
100
AcDbEntity
  8
0
100
AcDbLine
 10
22.88511922888585
 20
205.7906845032291
 30
0.0
 11
22.63511922888585
 21
205.7906845032291
 31
0.0
  0
LINE
  5
B18
330
1F
100
AcDbEntity
  8
0
100
AcDbLine
 10
22.88511922888585
 20
205.0206845032291
 30
0.0
 11
22.63511922888585
 21
205.0206845032291
 31
0.0
  0
LINE
  5
B19
330
1F
100
AcDbEntity
  8
0
100
AcDbLine
 10
22.88511922888585
 20
204.5206845032291
 30
0.0
 11
22.63511922888585
 21
204.5206845032291
 31
0.0
  0
LINE
  5
B1A
330
1F
100
AcDbEntity
  8
0
100
AcDbLine
 10
22.88511922888585
 20
203.7506845032291
 30
0.0
 11
22.63511922888585
 21
203.7506845032291
 31
0.0
  0
LINE
  5
B1B
330
1F
100
AcDbEntity
  8
0
100
AcDbLine
 10
22.88511922888585
 20
203.250684503229
 30
0.0
 11
22.63511922888585
 21
203.250684503229
 31
0.0
  0
LINE
  5
B1C
330
1F
100
AcDbEntity
  8
0
100
AcDbLine
 10
22.88511922888585
 20
206.2906845032291
 30
0.0
 11
22.63511922888585
 21
206.2906845032291
 31
0.0
  0
LINE
  5
B1D
330
1F
100
AcDbEntity
  8
0
100
AcDbLine
 10
22.88511922888585
 20
208.8306845032289
 30
0.0
 11
22.63511922888585
 21
208.8306845032289
 31
0.0
  0
LINE
  5
B1E
330
1F
100
AcDbEntity
  8
0
100
AcDbLine
 10
22.88511922888585
 20
208.3306845032291
 30
0.0
 11
22.63511922888585
 21
208.3306845032291
 31
0.0
  0
LINE
  5
B1F
330
1F
100
AcDbEntity
  8
0
100
AcDbLine
 10
22.88511922888585
 20
207.5606845032291
 30
0.0
 11
22.63511922888585
 21
207.5606845032291
 31
0.0
  0
LINE
  5
B20
330
1F
100
AcDbEntity
  8
0
100
AcDbLine
 10
22.88511922888585
 20
207.060684503229
 30
0.0
 11
22.63511922888585
 21
207.060684503229
 31
0.0
  0
LINE
  5
B21
330
1F
100
AcDbEntity
  8
0
100
AcDbLine
 10
22.88511922888585
 20
201.9806845032291
 30
0.0
 11
22.63511922888585
 21
201.9806845032291
 31
0.0
  0
LINE
  5
B22
330
1F
100
AcDbEntity
  8
0
100
AcDbLine
 10
22.88511922888585
 20
201.2106845032291
 30
0.0
 11
22.63511922888585
 21
201.2106845032291
 31
0.0
  0
LINE
  5
B23
330
1F
100
AcDbEntity
  8
0
100
AcDbLine
 10
22.88511922888585
 20
200.7106845032291
 30
0.0
 11
22.63511922888585
 21
200.7106845032291
 31
0.0
  0
LINE
  5
B24
330
1F
100
AcDbEntity
  8
0
100
AcDbLine
 10
22.88511922888585
 20
202.4806845032291
 30
0.0
 11
22.63511922888585
 21
202.4806845032291
 31
0.0
  0
LINE
  5
B25
330
1F
100
AcDbEntity
  8
0
100
AcDbLine
 10
22.88511922888585
 20
198.1706845032291
 30
0.0
 11
22.63511922888585
 21
198.1706845032291
 31
0.0
  0
LINE
  5
B26
330
1F
100
AcDbEntity
  8
0
100
AcDbLine
 10
22.88511922888585
 20
197.4006845032291
 30
0.0
 11
22.63511922888585
 21
197.4006845032291
 31
0.0
  0
LINE
  5
B27
330
1F
100
AcDbEntity
  8
0
100
AcDbLine
 10
22.88511922888585
 20
196.9006845032291
 30
0.0
 11
22.63511922888585
 21
196.9006845032291
 31
0.0
  0
LINE
  5
B28
330
1F
100
AcDbEntity
  8
0
100
AcDbLine
 10
22.88511922888585
 20
196.1306845032291
 30
0.0
 11
22.63511922888585
 21
196.1306845032291
 31
0.0
  0
LINE
  5
B29
330
1F
100
AcDbEntity
  8
0
100
AcDbLine
 10
22.88511922888585
 20
195.6306845032291
 30
0.0
 11
22.63511922888585
 21
195.6306845032291
 31
0.0
  0
LINE
  5
B2A
330
1F
100
AcDbEntity
  8
0
100
AcDbLine
 10
22.88511922888585
 20
199.9406845032291
 30
0.0
 11
22.63511922888585
 21
199.9406845032291
 31
0.0
  0
LINE
  5
B2B
330
1F
100
AcDbEntity
  8
0
100
AcDbLine
 10
22.88511922888585
 20
199.4406845032291
 30
0.0
 11
22.63511922888585
 21
199.4406845032291
 31
0.0
  0
LINE
  5
B2C
330
1F
100
AcDbEntity
  8
0
100
AcDbLine
 10
22.88511922888585
 20
198.6706845032291
 30
0.0
 11
22.63511922888585
 21
198.6706845032291
 31
0.0
  0
LINE
  5
B2D
330
1F
100
AcDbEntity
  8
0
100
AcDbLine
 10
22.88511922888585
 20
194.8606845032291
 30
0.0
 11
22.63511922888585
 21
194.8606845032291
 31
0.0
  0
LINE
  5
B2E
330
1F
100
AcDbEntity
  8
0
100
AcDbLine
 10
22.88511922888585
 20
194.3606845032291
 30
0.0
 11
22.63511922888585
 21
194.3606845032291
 31
0.0
  0
LINE
  5
B2F
330
1F
100
AcDbEntity
  8
0
100
AcDbLine
 10
22.88511922888585
 20
193.0906845032289
 30
0.0
 11
22.63511922888585
 21
193.0906845032289
 31
0.0
  0
LINE
  5
B30
330
1F
100
AcDbEntity
  8
0
100
AcDbLine
 10
22.88511922888585
 20
192.320684503229
 30
0.0
 11
22.63511922888585
 21
192.320684503229
 31
0.0
  0
LINE
  5
B31
330
1F
100
AcDbEntity
  8
0
100
AcDbLine
 10
22.88511922888585
 20
193.590684503229
 30
0.0
 11
22.63511922888585
 21
193.590684503229
 31
0.0
  0
LINE
  5
B32
330
1F
100
AcDbEntity
  8
0
100
AcDbLine
 10
22.88511922888585
 20
213.5106845032291
 30
0.0
 11
22.88511922888585
 21
219.6106845032291
 31
0.0
  0
LINE
  5
B33
330
1F
100
AcDbEntity
  8
0
100
AcDbLine
 10
21.93215922888586
 20
213.7991985032291
 30
0.0
 11
21.93215922888586
 21
218.8627005032289
 31
0.0
  0
LINE
  5
B34
330
1F
100
AcDbEntity
  8
0
100
AcDbLine
 10
16.62757822888583
 20
216.3414955032291
 30
0.0
 11
16.62757822888583
 21
218.8627005032289
 31
0.0
  0
LINE
  5
B35
330
1F
100
AcDbEntity
  8
0
100
AcDbLine
 10
19.89193422888573
 20
216.4106845032292
 30
0.0
 11
19.89193422888573
 21
218.8627005032289
 31
0.0
  0
LINE
  5
B36
330
1F
100
AcDbEntity
  8
0
100
AcDbLine
 10
19.89193422888573
 20
216.3414955032291
 30
0.0
 11
16.62757822888583
 21
216.3414955032291
 31
0.0
  0
LINE
  5
B37
330
1F
100
AcDbEntity
  8
0
100
AcDbLine
 10
19.89193422888573
 20
214.3327785032291
 30
0.0
 11
16.62757822888583
 21
214.3327785032291
 31
0.0
  0
LINE
  5
B38
330
1F
100
AcDbEntity
  8
0
100
AcDbLine
 10
16.62758222888585
 20
216.0160225032294
 30
0.0
 11
19.89193722888592
 21
216.0160215032291
 31
0.0
  0
LINE
  5
B39
330
1F
100
AcDbEntity
  8
0
100
AcDbLine
 10
16.62758222888585
 20
215.7035345032289
 30
0.0
 11
19.89193722888592
 21
215.7035345032289
 31
0.0
  0
LINE
  5
B3A
330
1F
100
AcDbEntity
  8
0
100
AcDbLine
 10
16.62758122888584
 20
215.3910475032292
 30
0.0
 11
19.89193722888592
 21
215.3910465032291
 31
0.0
  0
LINE
  5
B3B
330
1F
100
AcDbEntity
  8
0
100
AcDbLine
 10
16.62758122888584
 20
215.0785605032291
 30
0.0
 11
19.89193722888585
 21
215.0785595032291
 31
0.0
  0
LINE
  5
B3C
330
1F
100
AcDbEntity
  8
0
100
AcDbLine
 10
19.50021122888584
 20
209.6466635032295
 30
0.0
 11
19.50021122888584
 21
210.0547055032291
 31
0.0
  0
LINE
  5
B3D
330
1F
100
AcDbEntity
  8
0
100
AcDbLine
 10
19.09216922888585
 20
210.0547055032291
 30
0.0
 11
19.09216922888585
 21
209.6466635032295
 31
0.0
  0
LINE
  5
B3E
330
1F
100
AcDbEntity
  8
0
100
AcDbLine
 10
17.42734622888583
 20
209.6466635032295
 30
0.0
 11
17.42734622888583
 21
210.0547055032291
 31
0.0
  0
LINE
  5
B3F
330
1F
100
AcDbEntity
  8
0
100
AcDbLine
 10
17.01930122888584
 20
210.0547055032291
 30
0.0
 11
17.01930122888584
 21
209.6466635032295
 31
0.0
  0
LINE
  5
B40
330
1F
100
AcDbEntity
  8
0
100
AcDbLine
 10
17.42734622888583
 20
210.0547055032291
 30
0.0
 11
17.01930122888584
 21
210.0547055032291
 31
0.0
  0
LINE
  5
B41
330
1F
100
AcDbEntity
  8
0
100
AcDbLine
 10
19.50021122888584
 20
210.0547055032291
 30
0.0
 11
19.09216922888585
 21
210.0547055032291
 31
0.0
  0
LINE
  5
B42
330
1F
100
AcDbEntity
  8
0
100
AcDbLine
 10
19.09216922888585
 20
209.6466635032295
 30
0.0
 11
19.50021122888584
 21
209.6466635032295
 31
0.0
  0
LINE
  5
B43
330
1F
100
AcDbEntity
  8
0
100
AcDbLine
 10
17.01930122888584
 20
209.6466635032295
 30
0.0
 11
17.42734622888583
 21
209.6466635032295
 31
0.0
  0
LINE
  5
B44
330
1F
100
AcDbEntity
  8
0
100
AcDbLine
 10
21.93215922888586
 20
216.4106845032292
 30
0.0
 11
19.89193422888573
 21
216.4106845032292
 31
0.0
  0
LINE
  5
B45
330
1F
100
AcDbEntity
  8
0
100
AcDbLine
 10
16.62757822888583
 20
214.3327785032291
 30
0.0
 11
16.62757822888583
 21
216.4106845032292
 31
0.0
  0
LINE
  5
B46
330
1F
100
AcDbEntity
  8
0
100
AcDbLine
 10
19.89193422888573
 20
214.3327785032291
 30
0.0
 11
19.89193422888573
 21
216.4106845032292
 31
0.0
  0
LINE
  5
B47
330
1F
100
AcDbEntity
  8
0
100
AcDbLine
 10
22.88511922888585
 20
213.5106845032291
 30
0.0
 11
22.63511922888585
 21
213.5106845032291
 31
0.0
  0
LINE
  5
B48
330
1F
100
AcDbEntity
  8
0
100
AcDbLine
 10
22.88511922888585
 20
210.1006845032289
 30
0.0
 11
22.63511922888585
 21
210.1006845032289
 31
0.0
  0
LINE
  5
B49
330
1F
100
AcDbEntity
  8
0
100
AcDbLine
 10
22.88511922888585
 20
209.6006845032289
 30
0.0
 11
22.63511922888585
 21
209.6006845032289
 31
0.0
  0
LINE
  5
B4A
330
1F
100
AcDbEntity
  8
0
100
AcDbLine
 10
24.48511922888586
 20
219.6106845032291
 30
0.0
 11
24.48511922888586
 21
218.0106845032289
 31
0.0
  0
LINE
  5
B4B
330
1F
100
AcDbEntity
  8
0
100
AcDbLine
 10
24.28511922888586
 20
217.4556855032294
 30
0.0
 11
25.88511922888585
 21
217.4556855032294
 31
0.0
  0
LINE
  5
B4C
330
1F
100
AcDbEntity
  8
0
100
AcDbLine
 10
24.48511922888586
 20
219.6106845032291
 30
0.0
 11
25.58511922888586
 21
219.6106845032291
 31
0.0
  0
LINE
  5
B4D
330
1F
100
AcDbEntity
  8
0
100
AcDbLine
 10
24.48511922888586
 20
219.6106845032291
 30
0.0
 11
25.58511922888586
 21
219.6106845032291
 31
0.0
  0
LINE
  5
B4E
330
1F
100
AcDbEntity
  8
0
100
AcDbLine
 10
24.48511922888586
 20
218.0106845032291
 30
0.0
 11
25.58511922888586
 21
218.0106845032291
 31
0.0
  0
LINE
  5
B4F
330
1F
100
AcDbEntity
  8
0
100
AcDbLine
 10
24.48511922888586
 20
218.0106845032291
 30
0.0
 11
25.58511922888586
 21
218.0106845032291
 31
0.0
  0
LINE
  5
B50
330
1F
100
AcDbEntity
  8
0
100
AcDbLine
 10
25.58511922888586
 20
218.0106845032291
 30
0.0
 11
25.58511922888586
 21
219.6106845032291
 31
0.0
  0
LINE
  5
B51
330
1F
100
AcDbEntity
  8
0
100
AcDbLine
 10
25.58511922888586
 20
218.0106845032291
 30
0.0
 11
25.58511922888586
 21
219.6106845032291
 31
0.0
  0
LINE
  5
B52
330
1F
100
AcDbEntity
  8
0
100
AcDbLine
 10
25.58511922888586
 20
218.0106845032291
 30
0.0
 11
25.58511922888586
 21
219.6106845032291
 31
0.0
  0
LINE
  5
B53
330
1F
100
AcDbEntity
  8
0
100
AcDbLine
 10
24.28511922888586
 20
220.1556855032293
 30
0.0
 11
25.88511922888585
 21
220.1556855032293
 31
0.0
  0
LINE
  5
B54
330
1F
100
AcDbEntity
  8
0
100
AcDbLine
 10
24.28511922888586
 20
220.1556855032293
 30
0.0
 11
24.28511922888586
 21
217.4556855032294
 31
0.0
  0
LINE
  5
B55
330
1F
100
AcDbEntity
  8
0
100
AcDbLine
 10
25.88511922888585
 20
217.4556855032294
 30
0.0
 11
25.88511922888585
 21
220.1556855032293
 31
0.0
  0
ARC
  5
B56
330
1F
100
AcDbEntity
  8
0
100
AcDbCircle
 10
28.98511922888586
 20
225.051816503229
 30
0.0
 40
1.0
100
AcDbArc
 50
0.0
 51
90.0
  0
ARC
  5
B57
330
1F
100
AcDbEntity
  8
0
100
AcDbCircle
 10
28.88511922888585
 20
224.9556855032291
 30
0.0
 40
1.0
100
AcDbArc
 50
0.0
 51
90.0
  0
LINE
  5
B58
330
1F
100
AcDbEntity
  8
0
100
AcDbLine
 10
32.98532822888594
 20
225.0275395032294
 30
0.0
 11
32.05440222888594
 21
223.6767815032294
 31
0.0
  0
LINE
  5
B59
330
1F
100
AcDbEntity
  8
0
100
AcDbLine
 10
32.98532822888594
 20
225.0275395032294
 30
0.0
 11
32.05440222888594
 21
223.6767815032294
 31
0.0
  0
ARC
  5
B5A
330
1F
100
AcDbEntity
  8
0
100
AcDbCircle
 10
33.97011822888595
 20
224.0275395032294
 30
0.0
 40
1.0
100
AcDbArc
 50
0.0
 51
90.0
  0
LINE
  5
B5B
330
1F
100
AcDbEntity
  8
0
100
AcDbLine
 10
32.98532822888594
 20
225.0275395032294
 30
0.0
 11
33.97011822888586
 21
225.0275395032294
 31
0.0
  0
ARC
  5
B5C
330
1F
100
AcDbEntity
  8
0
100
AcDbCircle
 10
33.05483022888593
 20
222.6767815032294
 30
0.0
 40
1.0
100
AcDbArc
 50
0.0
 51
90.0
  0
ARC
  5
B5D
330
1F
100
AcDbEntity
  8
0
100
AcDbCircle
 10
33.05483022888593
 20
222.6767815032294
 30
0.0
 40
1.0
100
AcDbArc
 50
0.0
 51
90.0
  0
LINE
  5
B5E
330
1F
100
AcDbEntity
  8
0
100
AcDbLine
 10
33.05483022888586
 20
223.6767815032294
 30
0.0
 11
32.05440222888594
 21
223.6767815032294
 31
0.0
  0
LINE
  5
B5F
330
1F
100
AcDbEntity
  8
0
100
AcDbLine
 10
33.05483022888586
 20
223.6767815032294
 30
0.0
 11
32.05440222888594
 21
223.6767815032294
 31
0.0
  0
ARC
  5
B60
330
1F
100
AcDbEntity
  8
0
100
AcDbCircle
 10
31.48532822888586
 20
237.0515575032291
 30
0.0
 40
1.5
100
AcDbArc
 50
0.0
 51
90.0
  0
LINE
  5
B61
330
1F
100
AcDbEntity
  8
0
100
AcDbLine
 10
28.48479422888586
 20
230.0518165032289
 30
0.0
 11
31.98532722888595
 21
230.0518165032289
 31
0.0
  0
ARC
  5
B62
330
1F
100
AcDbEntity
  8
0
100
AcDbCircle
 10
30.97740222888595
 20
227.5404535032293
 30
0.0
 40
1.0
100
AcDbArc
 50
0.0
 51
90.0
  0
CIRCLE
  5
B63
330
1F
100
AcDbEntity
  8
0
100
AcDbCircle
 10
17.48511922888583
 20
233.801557503229
 30
0.0
 40
2.5
  0
LINE
  5
B64
330
1F
100
AcDbEntity
  8
0
100
AcDbLine
 10
3.99283722888596
 20
228.5404535032292
 30
0.0
 11
30.97740222888595
 21
228.5404535032292
 31
0.0
  0
LINE
  5
B65
330
1F
100
AcDbEntity
  8
0
100
AcDbLine
 10
3.48491022888588
 20
238.551557503229
 30
0.0
 11
31.48532822888586
 21
238.551557503229
 31
0.0
  0
LINE
  5
B66
330
1F
100
AcDbEntity
  8
中心線
100
AcDbLine
 10
24.98511922888586
 20
233.801557503229
 30
0.0
 11
9.985119228885862
 21
233.801557503229
 31
0.0
  0
ARC
  5
B67
330
1F
100
AcDbEntity
  8
0
100
AcDbCircle
 10
17.48511922888702
 20
4624.261111503229
 30
0.0
 40
4395.595658
100
AcDbArc
 50
269.8755909999992
 51
270.1244090000008
  0
LINE
  5
B68
330
1F
100
AcDbEntity
  8
0
100
AcDbLine
 10
7.161520228885976
 20
229.0518165032289
 30
0.0
 11
27.81278222888586
 21
229.0518165032289
 31
0.0
  0
LINE
  5
B69
330
1F
100
AcDbEntity
  8
0
100
AcDbLine
 10
1.984910228885879
 20
229.0518165032289
 30
0.0
 11
1.984910228885879
 21
237.0515575032289
 31
0.0
  0
LINE
  5
B6A
330
1F
100
AcDbEntity
  8
0
100
AcDbLine
 10
7.112950228885877
 20
229.1180445032291
 30
0.0
 11
6.48544322888587
 21
230.0518165032289
 31
0.0
  0
LINE
  5
B6B
330
1F
100
AcDbEntity
  8
0
100
AcDbLine
 10
2.98491022888588
 20
230.0518165032289
 30
0.0
 11
6.48544322888587
 21
230.0518165032289
 31
0.0
  0
ARC
  5
B6C
330
1F
100
AcDbEntity
  8
0
100
AcDbCircle
 10
3.992837228885931
 20
227.5404535032293
 30
0.0
 40
1.0
100
AcDbArc
 50
90.0
 51
180.0
  0
ARC
  5
B6D
330
1F
100
AcDbEntity
  8
0
100
AcDbCircle
 10
2.98491022888588
 20
229.051816503229
 30
0.0
 40
1.0
100
AcDbArc
 50
90.0
 51
180.0
  0
ARC
  5
B6E
330
1F
100
AcDbEntity
  8
0
100
AcDbCircle
 10
3.48491022888588
 20
237.0515575032291
 30
0.0
 40
1.5
100
AcDbArc
 50
90.0
 51
180.0
  0
ARC
  5
B6F
330
1F
100
AcDbEntity
  8
0
100
AcDbCircle
 10
7.942947228885927
 20
229.6758125032291
 30
0.0
 40
1.0
100
AcDbArc
 50
213.9015840000033
 51
269.8755909999992
  0
LINE
  5
B70
330
1F
100
AcDbEntity
  8
0
100
AcDbLine
 10
27.85728822888586
 20
229.1180445032291
 30
0.0
 11
28.48479422888586
 21
230.0518165032289
 31
0.0
  0
ARC
  5
B71
330
1F
100
AcDbEntity
  8
0
100
AcDbCircle
 10
27.02729122888595
 20
229.6758125032291
 30
0.0
 40
1.0
100
AcDbArc
 50
270.1244090000008
 51
326.0984159999966
  0
LINE
  5
B72
330
1F
100
AcDbEntity
  8
0
100
AcDbLine
 10
32.98532822888594
 20
228.1106845032291
 30
0.0
 11
32.98532822888594
 21
237.0515575032289
 31
0.0
  0
ARC
  5
B73
330
1F
100
AcDbEntity
  8
0
100
AcDbCircle
 10
31.98532722888595
 20
229.051816503229
 30
0.0
 40
1.0
100
AcDbArc
 50
0.0
 51
90.0
  0
LINE
  5
B74
330
1F
100
AcDbEntity
  8
0
100
AcDbLine
 10
17.88511922888583
 20
143.2996578441763
 30
0.0
 11
22.88511922888585
 21
143.2996578441763
 31
0.0
  0
LINE
  5
B75
330
1F
100
AcDbEntity
  8
0
100
AcDbLine
 10
17.88511922888575
 20
125.3996578441764
 30
0.0
 11
22.88511922888577
 21
125.3996578441764
 31
0.0
  0
LINE
  5
B76
330
1F
100
AcDbEntity
  8
0
100
AcDbLine
 10
17.88511922888575
 20
125.3996578441764
 30
0.0
 11
22.88511922888585
 21
125.3996578441764
 31
0.0
  0
LINE
  5
B77
330
1F
100
AcDbEntity
  8
0
100
AcDbLine
 10
114.7766134919695
 20
280.9990215944885
 30
0.0
 11
113.7766134919695
 21
280.9990215944885
 31
0.0
  0
LINE
  5
B78
330
1F
100
AcDbEntity
  8
0
100
AcDbLine
 10
114.7766134919697
 20
289.8990215944886
 30
0.0
 11
114.7766134919695
 21
280.9990215944885
 31
0.0
  0
LINE
  5
B79
330
1F
100
AcDbEntity
  8
0
100
AcDbLine
 10
114.7766134919697
 20
289.8990215944886
 30
0.0
 11
115.7766134919697
 21
289.8990215944886
 31
0.0
  0
LINE
  5
B7A
330
1F
100
AcDbEntity
  8
0
100
AcDbLine
 10
91.77661349196972
 20
289.8990215944884
 30
0.0
 11
91.77661349196965
 21
277.8990215944884
 31
0.0
  0
LINE
  5
B7B
330
1F
100
AcDbEntity
  8
0
100
AcDbLine
 10
93.77661349196968
 20
277.8990215944884
 30
0.0
 11
93.77661349196971
 21
289.8990215944884
 31
0.0
  0
LINE
  5
B7C
330
1F
100
AcDbEntity
  8
0
100
AcDbLine
 10
95.7766134919697
 20
289.8990215944884
 30
0.0
 11
95.77661349196969
 21
277.8990215944884
 31
0.0
  0
LINE
  5
B7D
330
1F
100
AcDbEntity
  8
0
100
AcDbLine
 10
89.77661349196969
 20
277.8990215944884
 30
0.0
 11
89.77661349196974
 21
289.8990215944884
 31
0.0
  0
LINE
  5
B7E
330
1F
100
AcDbEntity
  8
0
100
AcDbLine
 10
107.3766134919695
 20
286.4990215944885
 30
0.0
 11
107.3766134919695
 21
289.7990215944886
 31
0.0
  0
LINE
  5
B7F
330
1F
100
AcDbEntity
  8
0
100
AcDbLine
 10
106.1766134919694
 20
286.4990215944885
 30
0.0
 11
106.1766134919695
 21
289.7990215944886
 31
0.0
  0
LINE
  5
B80
330
1F
100
AcDbEntity
  8
0
100
AcDbLine
 10
112.9266134919695
 20
283.4240215944884
 30
0.0
 11
112.9266134919695
 21
287.5740215944885
 31
0.0
  0
LINE
  5
B81
330
1F
100
AcDbEntity
  8
0
100
AcDbLine
 10
100.6266134919695
 20
283.4240215944884
 30
0.0
 11
100.6266134919695
 21
287.5740215944885
 31
0.0
  0
LINE
  5
B82
330
1F
100
AcDbEntity
  8
0
100
AcDbLine
 10
97.77661349196968
 20
277.8990215944884
 30
0.0
 11
97.77661349196975
 21
289.8990215944884
 31
0.0
  0
LINE
  5
B83
330
1F
100
AcDbEntity
  8
0
100
AcDbLine
 10
98.77661349196969
 20
280.9990215944885
 30
0.0
 11
98.77661349196971
 21
289.8990215944886
 31
0.0
  0
LINE
  5
B84
330
1F
100
AcDbEntity
  8
0
100
AcDbLine
 10
111.6766134919696
 20
287.5740215944885
 30
0.0
 11
111.6766134919696
 21
288.0990215944884
 31
0.0
  0
LINE
  5
B85
330
1F
100
AcDbEntity
  8
0
100
AcDbLine
 10
108.7766134919696
 20
288.0990215944884
 30
0.0
 11
108.7766134919696
 21
289.7990215944886
 31
0.0
  0
LINE
  5
B86
330
1F
100
AcDbEntity
  8
0
100
AcDbLine
 10
111.6766134919696
 20
287.5740215944885
 30
0.0
 11
112.9266134919695
 21
287.5740215944885
 31
0.0
  0
LINE
  5
B87
330
1F
100
AcDbEntity
  8
0
100
AcDbLine
 10
101.8766134919695
 20
287.5740215944885
 30
0.0
 11
101.8766134919695
 21
288.0740215944884
 31
0.0
  0
LINE
  5
B88
330
1F
100
AcDbEntity
  8
0
100
AcDbLine
 10
104.7766134919696
 20
288.0740215944884
 30
0.0
 11
104.7766134919696
 21
289.7990215944886
 31
0.0
  0
LINE
  5
B89
330
1F
100
AcDbEntity
  8
0
100
AcDbLine
 10
101.8766134919695
 20
288.0740215944884
 30
0.0
 11
104.7766134919696
 21
288.0740215944884
 31
0.0
  0
LINE
  5
B8A
330
1F
100
AcDbEntity
  8
0
100
AcDbLine
 10
100.6266134919695
 20
287.5740215944885
 30
0.0
 11
101.8766134919695
 21
287.5740215944885
 31
0.0
  0
LINE
  5
B8B
330
1F
100
AcDbEntity
  8
0
100
AcDbLine
 10
104.7766134919696
 20
289.7990215944886
 30
0.0
 11
108.7766134919696
 21
289.7990215944886
 31
0.0
  0
LINE
  5
B8C
330
1F
100
AcDbEntity
  8
0
100
AcDbLine
 10
108.7766134919696
 20
288.0990215944884
 30
0.0
 11
111.6766134919696
 21
288.0990215944884
 31
0.0
  0
LINE
  5
B8D
330
1F
100
AcDbEntity
  8
0
100
AcDbLine
 10
97.77661349196975
 20
289.8990215944884
 30
0.0
 11
98.77661349196971
 21
289.8990215944886
 31
0.0
  0
LINE
  5
B8E
330
1F
100
AcDbEntity
  8
0
100
AcDbLine
 10
89.77661349196974
 20
289.8990215944884
 30
0.0
 11
91.77661349196972
 21
289.8990215944884
 31
0.0
  0
LINE
  5
B8F
330
1F
100
AcDbEntity
  8
0
100
AcDbLine
 10
93.77661349196971
 20
289.8990215944884
 30
0.0
 11
95.7766134919697
 21
289.8990215944884
 31
0.0
  0
LINE
  5
B90
330
1F
100
AcDbEntity
  8
0
100
AcDbLine
 10
105.7766134919695
 20
277.8990215944886
 30
0.0
 11
105.7766134919695
 21
280.9990215944885
 31
0.0
  0
LINE
  5
B91
330
1F
100
AcDbEntity
  8
0
100
AcDbLine
 10
111.7766134919695
 20
280.9990215944885
 30
0.0
 11
111.7766134919695
 21
277.8990215944886
 31
0.0
  0
LINE
  5
B92
330
1F
100
AcDbEntity
  8
0
100
AcDbLine
 10
109.7766134919695
 20
277.8990215944886
 30
0.0
 11
109.7766134919695
 21
280.9990215944885
 31
0.0
  0
LINE
  5
B93
330
1F
100
AcDbEntity
  8
0
100
AcDbLine
 10
107.7766134919695
 20
280.9990215944885
 30
0.0
 11
107.7766134919695
 21
277.8990215944886
 31
0.0
  0
LINE
  5
B94
330
1F
100
AcDbEntity
  8
0
100
AcDbLine
 10
103.7766134919695
 20
280.9990215944885
 30
0.0
 11
103.7766134919695
 21
277.8990215944886
 31
0.0
  0
LINE
  5
B95
330
1F
100
AcDbEntity
  8
0
100
AcDbLine
 10
101.7766134919695
 20
277.8990215944886
 30
0.0
 11
101.7766134919695
 21
280.9990215944885
 31
0.0
  0
LINE
  5
B96
330
1F
100
AcDbEntity
  8
0
100
AcDbLine
 10
99.77661349196969
 20
280.9990215944885
 30
0.0
 11
99.77661349196969
 21
277.8990215944886
 31
0.0
  0
LINE
  5
B97
330
1F
100
AcDbEntity
  8
0
100
AcDbLine
 10
113.7766134919695
 20
277.8990215944886
 30
0.0
 11
113.7766134919695
 21
280.9990215944885
 31
0.0
  0
LINE
  5
B98
330
1F
100
AcDbEntity
  8
0
100
AcDbLine
 10
111.6766134919695
 20
282.7990215944884
 30
0.0
 11
111.6766134919695
 21
283.4240215944884
 31
0.0
  0
LINE
  5
B99
330
1F
100
AcDbEntity
  8
0
100
AcDbLine
 10
111.6766134919695
 20
283.4240215944884
 30
0.0
 11
112.9266134919695
 21
283.4240215944884
 31
0.0
  0
ARC
  5
B9A
330
1F
100
AcDbEntity
  8
0
100
AcDbCircle
 10
110.2766134919695
 20
284.9990215944885
 30
0.0
 40
0.5
100
AcDbArc
 50
270.0
 51
0.0
  0
LINE
  5
B9B
330
1F
100
AcDbEntity
  8
0
100
AcDbLine
 10
110.7766134919695
 20
284.9990215944885
 30
0.0
 11
110.7766134919695
 21
285.9990215944885
 31
0.0
  0
ARC
  5
B9C
330
1F
100
AcDbEntity
  8
0
100
AcDbCircle
 10
103.2766134919695
 20
284.9990215944885
 30
0.0
 40
0.5
100
AcDbArc
 50
180.0
 51
270.0
  0
LINE
  5
B9D
330
1F
100
AcDbEntity
  8
0
100
AcDbLine
 10
103.2766134919695
 20
284.4990215944885
 30
0.0
 11
110.2766134919695
 21
284.4990215944885
 31
0.0
  0
LINE
  5
B9E
330
1F
100
AcDbEntity
  8
0
100
AcDbLine
 10
106.1766134919694
 20
282.7990215944884
 30
0.0
 11
106.1766134919694
 21
284.4990215944885
 31
0.0
  0
LINE
  5
B9F
330
1F
100
AcDbEntity
  8
0
100
AcDbLine
 10
107.3766134919695
 20
282.7990215944884
 30
0.0
 11
107.3766134919695
 21
284.4990215944885
 31
0.0
  0
ARC
  5
BA0
330
1F
100
AcDbEntity
  8
0
100
AcDbCircle
 10
110.2766134919695
 20
285.9990215944885
 30
0.0
 40
0.5
100
AcDbArc
 50
0.0
 51
90.0
  0
ARC
  5
BA1
330
1F
100
AcDbEntity
  8
0
100
AcDbCircle
 10
103.2766134919695
 20
285.9990215944885
 30
0.0
 40
0.5
100
AcDbArc
 50
90.0
 51
180.0
  0
LINE
  5
BA2
330
1F
100
AcDbEntity
  8
0
100
AcDbLine
 10
102.7766134919695
 20
284.9990215944885
 30
0.0
 11
102.7766134919695
 21
285.9990215944885
 31
0.0
  0
LINE
  5
BA3
330
1F
100
AcDbEntity
  8
0
100
AcDbLine
 10
103.2766134919695
 20
286.4990215944885
 30
0.0
 11
110.2766134919695
 21
286.4990215944885
 31
0.0
  0
LINE
  5
BA4
330
1F
100
AcDbEntity
  8
0
100
AcDbLine
 10
100.6266134919695
 20
283.4240215944884
 30
0.0
 11
101.8766134919695
 21
283.4240215944884
 31
0.0
  0
LINE
  5
BA5
330
1F
100
AcDbEntity
  8
0
100
AcDbLine
 10
101.8766134919695
 20
282.7990215944884
 30
0.0
 11
111.6766134919695
 21
282.7990215944884
 31
0.0
  0
LINE
  5
BA6
330
1F
100
AcDbEntity
  8
0
100
AcDbLine
 10
101.8766134919695
 20
282.7990215944884
 30
0.0
 11
101.8766134919695
 21
283.4240215944884
 31
0.0
  0
LINE
  5
BA7
330
1F
100
AcDbEntity
  8
0
100
AcDbLine
 10
107.7766134919695
 20
280.9990215944885
 30
0.0
 11
105.7766134919695
 21
280.9990215944885
 31
0.0
  0
LINE
  5
BA8
330
1F
100
AcDbEntity
  8
0
100
AcDbLine
 10
111.7766134919695
 20
280.9990215944885
 30
0.0
 11
109.7766134919695
 21
280.9990215944885
 31
0.0
  0
LINE
  5
BA9
330
1F
100
AcDbEntity
  8
0
100
AcDbLine
 10
103.7766134919695
 20
280.9990215944885
 30
0.0
 11
101.7766134919695
 21
280.9990215944885
 31
0.0
  0
LINE
  5
BAA
330
1F
100
AcDbEntity
  8
0
100
AcDbLine
 10
99.77661349196969
 20
280.9990215944885
 30
0.0
 11
98.77661349196969
 21
280.9990215944885
 31
0.0
  0
LINE
  5
BAB
330
1F
100
AcDbEntity
  8
0
100
AcDbLine
 10
103.7766134919695
 20
277.8990215944886
 30
0.0
 11
101.7766134919695
 21
277.8990215944886
 31
0.0
  0
LINE
  5
BAC
330
1F
100
AcDbEntity
  8
0
100
AcDbLine
 10
107.7766134919695
 20
277.8990215944886
 30
0.0
 11
105.7766134919695
 21
277.8990215944886
 31
0.0
  0
LINE
  5
BAD
330
1F
100
AcDbEntity
  8
0
100
AcDbLine
 10
99.77661349196969
 20
277.8990215944886
 30
0.0
 11
97.77661349196968
 21
277.8990215944884
 31
0.0
  0
LINE
  5
BAE
330
1F
100
AcDbEntity
  8
0
100
AcDbLine
 10
91.77661349196965
 20
277.8990215944884
 30
0.0
 11
89.77661349196969
 21
277.8990215944884
 31
0.0
  0
LINE
  5
BAF
330
1F
100
AcDbEntity
  8
0
100
AcDbLine
 10
95.77661349196969
 20
277.8990215944884
 30
0.0
 11
93.77661349196968
 21
277.8990215944884
 31
0.0
  0
LINE
  5
BB0
330
1F
100
AcDbEntity
  8
0
100
AcDbLine
 10
114.9766134919699
 20
14.50040166946997
 30
0.0
 11
104.9766134919699
 21
14.50040166946997
 31
0.0
  0
LINE
  5
BB1
330
1F
100
AcDbEntity
  8
0
100
AcDbLine
 10
104.9766134919699
 20
24.50040166946996
 30
0.0
 11
114.9766134919699
 21
24.50040166946996
 31
0.0
  0
ARC
  5
BB2
330
1F
100
AcDbEntity
  8
0
100
AcDbCircle
 10
112.9766134919699
 20
16.50040166946991
 30
0.0
 40
0.5
100
AcDbArc
 50
270.0
 51
0.0
  0
ARC
  5
BB3
330
1F
100
AcDbEntity
  8
0
100
AcDbCircle
 10
112.9766134919699
 20
22.50040166946992
 30
0.0
 40
0.5
100
AcDbArc
 50
0.0
 51
90.0
  0
LINE
  5
BB4
330
1F
100
AcDbEntity
  8
0
100
AcDbLine
 10
105.7766134919696
 20
11.50040166946997
 30
0.0
 11
107.7766134919696
 21
11.50040166946997
 31
0.0
  0
LINE
  5
BB5
330
1F
100
AcDbEntity
  8
0
100
AcDbLine
 10
105.7766134919696
 20
13.00040166946998
 30
0.0
 11
105.7766134919696
 21
11.50040166946997
 31
0.0
  0
LINE
  5
BB6
330
1F
100
AcDbEntity
  8
0
100
AcDbLine
 10
107.7766134919696
 20
11.50040166946997
 30
0.0
 11
107.7766134919696
 21
13.00040166946998
 31
0.0
  0
LINE
  5
BB7
330
1F
100
AcDbEntity
  8
0
100
AcDbLine
 10
105.7766134919696
 20
13.00040166946998
 30
0.0
 11
107.7766134919696
 21
13.00040166946998
 31
0.0
  0
LINE
  5
BB8
330
1F
100
AcDbEntity
  8
0
100
AcDbLine
 10
109.7766134919696
 20
13.00040166946998
 30
0.0
 11
111.7766134919697
 21
13.00040166946998
 31
0.0
  0
LINE
  5
BB9
330
1F
100
AcDbEntity
  8
0
100
AcDbLine
 10
109.7766134919696
 20
11.50040166946997
 30
0.0
 11
111.7766134919697
 21
11.50040166946997
 31
0.0
  0
LINE
  5
BBA
330
1F
100
AcDbEntity
  8
0
100
AcDbLine
 10
111.7766134919697
 20
11.50040166946997
 30
0.0
 11
111.7766134919697
 21
13.00040166946998
 31
0.0
  0
LINE
  5
BBB
330
1F
100
AcDbEntity
  8
0
100
AcDbLine
 10
109.7766134919696
 20
13.00040166946998
 30
0.0
 11
109.7766134919696
 21
11.50040166946997
 31
0.0
  0
LINE
  5
BBC
330
1F
100
AcDbEntity
  8
0
100
AcDbLine
 10
104.9766134919699
 20
14.50040166946997
 30
0.0
 11
104.9766134919699
 21
24.50040166946996
 31
0.0
  0
LINE
  5
BBD
330
1F
100
AcDbEntity
  8
0
100
AcDbLine
 10
106.4766134919699
 20
16.50040166946998
 30
0.0
 11
106.4766134919699
 21
22.50040166946998
 31
0.0
  0
LINE
  5
BBE
330
1F
100
AcDbEntity
  8
0
100
AcDbLine
 10
112.9766134919699
 20
16.00040166946998
 30
0.0
 11
106.9766134919699
 21
16.00040166946998
 31
0.0
  0
ARC
  5
BBF
330
1F
100
AcDbEntity
  8
0
100
AcDbCircle
 10
106.9766134919699
 20
16.50040166946991
 30
0.0
 40
0.5
100
AcDbArc
 50
180.0
 51
270.0
  0
LINE
  5
BC0
330
1F
100
AcDbEntity
  8
0
100
AcDbLine
 10
110.7266134919699
 20
16.00040166946998
 30
0.0
 11
110.7266134919699
 21
14.50040166946997
 31
0.0
  0
LINE
  5
BC1
330
1F
100
AcDbEntity
  8
0
100
AcDbLine
 10
109.2266134919699
 20
16.00040166946998
 30
0.0
 11
109.2266134919699
 21
14.50040166946997
 31
0.0
  0
LINE
  5
BC2
330
1F
100
AcDbEntity
  8
0
100
AcDbLine
 10
106.9766134919699
 20
23.00040166946996
 30
0.0
 11
112.9766134919699
 21
23.00040166946996
 31
0.0
  0
ARC
  5
BC3
330
1F
100
AcDbEntity
  8
0
100
AcDbCircle
 10
106.9766134919699
 20
22.50040166946992
 30
0.0
 40
0.5
100
AcDbArc
 50
90.0
 51
180.0
  0
LINE
  5
BC4
330
1F
100
AcDbEntity
  8
0
100
AcDbLine
 10
110.7266134919699
 20
24.50040166946996
 30
0.0
 11
110.7266134919699
 21
23.00040166946996
 31
0.0
  0
LINE
  5
BC5
330
1F
100
AcDbEntity
  8
0
100
AcDbLine
 10
109.2266134919699
 20
24.50040166946996
 30
0.0
 11
109.2266134919699
 21
23.00040166946996
 31
0.0
  0
LINE
  5
BC6
330
1F
100
AcDbEntity
  8
0
100
AcDbLine
 10
125.7766134919696
 20
23.50040166946996
 30
0.0
 11
125.7766134919696
 21
11.50040166946997
 31
0.0
  0
LINE
  5
BC7
330
1F
100
AcDbEntity
  8
0
100
AcDbLine
 10
127.7766134919696
 20
11.50040166946997
 30
0.0
 11
127.7766134919696
 21
23.50040166946996
 31
0.0
  0
LINE
  5
BC8
330
1F
100
AcDbEntity
  8
0
100
AcDbLine
 10
129.7766134919696
 20
23.50040166946996
 30
0.0
 11
129.7766134919696
 21
11.50040166946997
 31
0.0
  0
LINE
  5
BC9
330
1F
100
AcDbEntity
  8
0
100
AcDbLine
 10
131.7766134919696
 20
11.50040166946997
 30
0.0
 11
131.7766134919696
 21
23.50040166946996
 31
0.0
  0
LINE
  5
BCA
330
1F
100
AcDbEntity
  8
0
100
AcDbLine
 10
121.7766134919697
 20
23.50040166946996
 30
0.0
 11
121.7766134919697
 21
11.50040166946997
 31
0.0
  0
LINE
  5
BCB
330
1F
100
AcDbEntity
  8
0
100
AcDbLine
 10
123.7766134919697
 20
11.50040166946997
 30
0.0
 11
123.7766134919697
 21
23.50040166946996
 31
0.0
  0
LINE
  5
BCC
330
1F
100
AcDbEntity
  8
0
100
AcDbLine
 10
117.7766134919697
 20
23.50040166946996
 30
0.0
 11
117.7766134919697
 21
11.50040166946997
 31
0.0
  0
LINE
  5
BCD
330
1F
100
AcDbEntity
  8
0
100
AcDbLine
 10
119.7766134919697
 20
11.50040166946997
 30
0.0
 11
119.7766134919697
 21
23.50040166946996
 31
0.0
  0
LINE
  5
BCE
330
1F
100
AcDbEntity
  8
0
100
AcDbLine
 10
129.7766134919696
 20
11.50040166946997
 30
0.0
 11
131.7766134919696
 21
11.50040166946997
 31
0.0
  0
LINE
  5
BCF
330
1F
100
AcDbEntity
  8
0
100
AcDbLine
 10
125.7766134919696
 20
11.50040166946997
 30
0.0
 11
127.7766134919696
 21
11.50040166946997
 31
0.0
  0
LINE
  5
BD0
330
1F
100
AcDbEntity
  8
0
100
AcDbLine
 10
113.7766134919697
 20
13.00040166946998
 30
0.0
 11
115.7766134919697
 21
13.00040166946998
 31
0.0
  0
LINE
  5
BD1
330
1F
100
AcDbEntity
  8
0
100
AcDbLine
 10
113.7766134919697
 20
11.50040166946997
 30
0.0
 11
115.7766134919697
 21
11.50040166946997
 31
0.0
  0
LINE
  5
BD2
330
1F
100
AcDbEntity
  8
0
100
AcDbLine
 10
113.7766134919697
 20
13.00040166946998
 30
0.0
 11
113.7766134919697
 21
11.50040166946997
 31
0.0
  0
LINE
  5
BD3
330
1F
100
AcDbEntity
  8
0
100
AcDbLine
 10
115.7766134919697
 20
11.50040166946997
 30
0.0
 11
115.7766134919697
 21
13.00040166946998
 31
0.0
  0
LINE
  5
BD4
330
1F
100
AcDbEntity
  8
0
100
AcDbLine
 10
121.7766134919697
 20
11.50040166946997
 30
0.0
 11
123.7766134919697
 21
11.50040166946997
 31
0.0
  0
LINE
  5
BD5
330
1F
100
AcDbEntity
  8
0
100
AcDbLine
 10
117.7766134919697
 20
11.50040166946997
 30
0.0
 11
119.7766134919697
 21
11.50040166946997
 31
0.0
  0
LINE
  5
BD6
330
1F
100
AcDbEntity
  8
0
100
AcDbLine
 10
131.7766134919696
 20
23.50040166946996
 30
0.0
 11
129.7766134919696
 21
23.50040166946996
 31
0.0
  0
LINE
  5
BD7
330
1F
100
AcDbEntity
  8
0
100
AcDbLine
 10
114.9766134919699
 20
24.50040166946996
 30
0.0
 11
114.9766134919699
 21
14.50040166946997
 31
0.0
  0
LINE
  5
BD8
330
1F
100
AcDbEntity
  8
0
100
AcDbLine
 10
113.4766134919699
 20
22.50040166946998
 30
0.0
 11
113.4766134919699
 21
16.50040166946998
 31
0.0
  0
LINE
  5
BD9
330
1F
100
AcDbEntity
  8
0
100
AcDbLine
 10
127.7766134919696
 20
23.50040166946996
 30
0.0
 11
125.7766134919696
 21
23.50040166946996
 31
0.0
  0
LINE
  5
BDA
330
1F
100
AcDbEntity
  8
0
100
AcDbLine
 10
123.7766134919697
 20
23.50040166946996
 30
0.0
 11
121.7766134919697
 21
23.50040166946996
 31
0.0
  0
LINE
  5
BDB
330
1F
100
AcDbEntity
  8
0
100
AcDbLine
 10
119.7766134919697
 20
23.50040166946996
 30
0.0
 11
117.7766134919697
 21
23.50040166946996
 31
0.0
  0
LINE
  5
BDC
330
1F
100
AcDbEntity
  8
0
100
AcDbLine
 10
99.77661349196949
 20
23.50040116946998
 30
0.0
 11
99.77661349196949
 21
11.50040116946998
 31
0.0
  0
LINE
  5
BDD
330
1F
100
AcDbEntity
  8
0
100
AcDbLine
 10
97.77661349196952
 20
11.50040116946998
 30
0.0
 11
97.77661349196952
 21
23.50040116946998
 31
0.0
  0
LINE
  5
BDE
330
1F
100
AcDbEntity
  8
0
100
AcDbLine
 10
97.77661349196952
 20
23.50040116946998
 30
0.0
 11
99.77661349196949
 21
23.50040116946998
 31
0.0
  0
LINE
  5
BDF
330
1F
100
AcDbEntity
  8
0
100
AcDbLine
 10
99.77661349196949
 20
11.50040116946998
 30
0.0
 11
97.77661349196952
 21
11.50040116946998
 31
0.0
  0
LINE
  5
BE0
330
1F
100
AcDbEntity
  8
0
100
AcDbLine
 10
103.7766134919694
 20
23.50040116946998
 30
0.0
 11
103.7766134919694
 21
11.50040116946998
 31
0.0
  0
LINE
  5
BE1
330
1F
100
AcDbEntity
  8
0
100
AcDbLine
 10
101.7766134919694
 20
11.50040116946998
 30
0.0
 11
101.7766134919694
 21
23.50040116946998
 31
0.0
  0
LINE
  5
BE2
330
1F
100
AcDbEntity
  8
0
100
AcDbLine
 10
101.7766134919694
 20
23.50040116946998
 30
0.0
 11
103.7766134919694
 21
23.50040116946998
 31
0.0
  0
LINE
  5
BE3
330
1F
100
AcDbEntity
  8
0
100
AcDbLine
 10
103.7766134919694
 20
11.50040116946998
 30
0.0
 11
101.7766134919694
 21
11.50040116946998
 31
0.0
  0
LINE
  5
BE4
330
1F
100
AcDbEntity
  8
0
100
AcDbLine
 10
22.88511922888584
 20
107.5256845032283
 30
0.0
 11
22.88511922888584
 21
77.05568550322941
 31
0.0
  0
LINE
  5
BE5
330
1F
100
AcDbEntity
  8
0
100
AcDbLine
 10
22.88511922888585
 20
117.7256845032272
 30
0.0
 11
22.88511922888585
 21
118.475684503229
 31
0.0
  0
LINE
  5
BE6
330
1F
100
AcDbEntity
  8
0
100
AcDbLine
 10
22.88511922888585
 20
123.475684503229
 30
0.0
 11
22.88511922888585
 21
125.3996578441764
 31
0.0
  0
LINE
  5
BE7
330
1F
100
AcDbEntity
  8
0
100
AcDbLine
 10
22.88511922888585
 20
143.2996578441763
 30
0.0
 11
22.88511922888585
 21
144.8796725032293
 31
0.0
  0
LINE
  5
BE8
330
1F
100
AcDbEntity
  8
0
100
AcDbLine
 10
22.88511922888585
 20
158.8796725032293
 30
0.0
 11
22.88511922888585
 21
159.6296725032293
 31
0.0
  0
LINE
  5
BE9
330
1F
100
AcDbEntity
  8
0
100
AcDbLine
 10
22.88511922888585
 20
164.6296725032293
 30
0.0
 11
22.88511922888585
 21
165.0296725032294
 31
0.0
  0
LINE
  5
BEA
330
1F
100
AcDbEntity
  8
0
100
AcDbLine
 10
22.88511922888585
 20
175.0556855032292
 30
0.0
 11
22.88511922888585
 21
220.5556855032291
 31
0.0
  0
ENDSEC
  0
SECTION
  2
OBJECTS
  0
DICTIONARY
  5
C
330
0
100
AcDbDictionary
  3
ACAD_GROUP
350
D
  3
ACAD_LAYOUT
350
1A
  3
ACAD_MLINESTYLE
350
17
  3
ACAD_PLOTSETTINGS
350
19
  3
ACAD_PLOTSTYLENAME
350
E
  3
ACDBHEADERROUNDTRIPXREC
350
CB2
  3
ACDBVARIABLEDICTIONARY
350
BEC
  0
DICTIONARY
  5
2E
330
2
100
AcDbDictionary
280
     1
  3
ACAD_LAYERSTATES
360
2F
  0
DICTIONARY
  5
CA6
330
1F
100
AcDbDictionary
280
     1
  3
ACAD_LAYOUTSELFREF
360
CD3
  0
DICTIONARY
  5
CA4
330
1B
100
AcDbDictionary
280
     1
  3
ACAD_LAYOUTSELFREF
360
CD2
  0
DICTIONARY
  5
D
102
{ACAD_REACTORS
330
C
102
}
330
C
100
AcDbDictionary
  0
DICTIONARY
  5
1A
102
{ACAD_REACTORS
330
C
102
}
330
C
100
AcDbDictionary
  0
DICTIONARY
  5
17
102
{ACAD_REACTORS
330
C
102
}
330
C
100
AcDbDictionary
  3
STANDARD
350
18
  0
DICTIONARY
  5
19
102
{ACAD_REACTORS
330
C
102
}
330
C
100
AcDbDictionary
  0
ACDBDICTIONARYWDFLT
  5
E
102
{ACAD_REACTORS
330
C
102
}
330
C
100
AcDbDictionary
281
     1
  3
Normal
350
F
100
AcDbDictionaryWithDefault
340
F
  0
DICTIONARY
  5
CB2
102
{ACAD_REACTORS
330
C
102
}
330
C
100
AcDbDictionary
  3
CEPSNTYPE
350
CBC
  3
FINGERPRINTGUID
350
CBD
  3
HYPERLINKBASE
350
CB5
  3
INSUNITS
350
CBB
  3
LAYOUTDICT
350
CB7
  3
LWETCUNION
350
CBA
  3
PLOTSETDICT
350
CB8
  3
PLOTSTYLNAMDICT
350
CB9
  3
PSVPSCALE
350
CBF
  3
PUCSBASE
350
CC2
  3
PUCSORGBACK
350
CC8
  3
PUCSORGBOTTOM
350
CC4
  3
PUCSORGFRONT
350
CC7
  3
PUCSORGLEFT
350
CC5
  3
PUCSORGRIGHT
350
CC6
  3
PUCSORGTOP
350
CC3
  3
PUCSORTHOREF
350
CC0
  3
PUCSORTHOVIEW
350
CC1
  3
STYLESHEET
350
CB6
  3
TSTACKALIGN
350
CB3
  3
TSTACKSIZE
350
CB4
  3
UCSBASE
350
CCB
  3
UCSORGBACK
350
CD1
  3
UCSORGBOTTOM
350
CCD
  3
UCSORGFRONT
350
CD0
  3
UCSORGLEFT
350
CCE
  3
UCSORGRIGHT
350
CCF
  3
UCSORGTOP
350
CCC
  3
UCSORTHOREF
350
CC9
  3
UCSORTHOVIEW
350
CCA
  3
VERSIONGUID
350
CBE
  0
DICTIONARY
  5
BEC
102
{ACAD_REACTORS
330
C
102
}
330
C
100
AcDbDictionary
  3
DIMASSOC
350
BEE
  3
HIDETEXT
350
BED
  0
DICTIONARY
  5
2F
102
{ACAD_REACTORS
330
2E
102
}
330
2E
100
AcDbDictionary
  0
XRECORD
  5
CD3
102
{ACAD_REACTORS
330
CA6
102
}
330
CA6
100
AcDbXrecord
340
1F
  0
XRECORD
  5
CD2
102
{ACAD_REACTORS
330
CA4
102
}
330
CA4
100
AcDbXrecord
340
1B
  0
MLINESTYLE
  5
18
102
{ACAD_REACTORS
330
17
102
}
330
17
100
AcDbMlineStyle
  2
STANDARD
 70
     0
  3

 62
   256
 51
90.0
 52
90.0
 71
     2
 49
0.5
 62
   256
  6
BYLAYER
 49
-0.5
 62
   256
  6
BYLAYER
  0
ACDBPLACEHOLDER
  5
F
102
{ACAD_REACTORS
330
E
102
}
330
E
100
AcDbPlaceHolder
280
     0
  0
XRECORD
  5
CBC
102
{ACAD_REACTORS
330
CB2
102
}
330
CB2
100
AcDbXrecord
 90
        0
  0
XRECORD
  5
CBD
102
{ACAD_REACTORS
330
CB2
102
}
330
CB2
100
AcDbXrecord
  1
{52BAB494-7A96-4B68-9C5C-591BBDB0683A}
  0
XRECORD
  5
CB5
102
{ACAD_REACTORS
330
CB2
102
}
330
CB2
100
AcDbXrecord
  1

  0
XRECORD
  5
CBB
102
{ACAD_REACTORS
330
CB2
102
}
330
CB2
100
AcDbXrecord
 90
        4
  0
XRECORD
  5
CB7
102
{ACAD_REACTORS
330
CB2
102
}
330
CB2
100
AcDbXrecord
340
1A
  0
XRECORD
  5
CBA
102
{ACAD_REACTORS
330
CB2
102
}
330
CB2
100
AcDbXrecord
 90
    10781
  0
XRECORD
  5
CB8
102
{ACAD_REACTORS
330
CB2
102
}
330
CB2
100
AcDbXrecord
340
19
  0
XRECORD
  5
CB9
102
{ACAD_REACTORS
330
CB2
102
}
330
CB2
100
AcDbXrecord
340
E
  0
XRECORD
  5
CBF
102
{ACAD_REACTORS
330
CB2
102
}
330
CB2
100
AcDbXrecord
 40
0.0
  0
XRECORD
  5
CC2
102
{ACAD_REACTORS
330
CB2
102
}
330
CB2
100
AcDbXrecord
340
0
  0
XRECORD
  5
CC8
102
{ACAD_REACTORS
330
CB2
102
}
330
CB2
100
AcDbXrecord
 10
0.0
 20
0.0
 30
0.0
  0
XRECORD
  5
CC4
102
{ACAD_REACTORS
330
CB2
102
}
330
CB2
100
AcDbXrecord
 10
0.0
 20
0.0
 30
0.0
  0
XRECORD
  5
CC7
102
{ACAD_REACTORS
330
CB2
102
}
330
CB2
100
AcDbXrecord
 10
0.0
 20
0.0
 30
0.0
  0
XRECORD
  5
CC5
102
{ACAD_REACTORS
330
CB2
102
}
330
CB2
100
AcDbXrecord
 10
0.0
 20
0.0
 30
0.0
  0
XRECORD
  5
CC6
102
{ACAD_REACTORS
330
CB2
102
}
330
CB2
100
AcDbXrecord
 10
0.0
 20
0.0
 30
0.0
  0
XRECORD
  5
CC3
102
{ACAD_REACTORS
330
CB2
102
}
330
CB2
100
AcDbXrecord
 10
0.0
 20
0.0
 30
0.0
  0
XRECORD
  5
CC0
102
{ACAD_REACTORS
330
CB2
102
}
330
CB2
100
AcDbXrecord
340
0
  0
XRECORD
  5
CC1
102
{ACAD_REACTORS
330
CB2
102
}
330
CB2
100
AcDbXrecord
 70
     0
  0
XRECORD
  5
CB6
102
{ACAD_REACTORS
330
CB2
102
}
330
CB2
100
AcDbXrecord
  1

  0
XRECORD
  5
CB3
102
{ACAD_REACTORS
330
CB2
102
}
330
CB2
100
AcDbXrecord
 90
        1
  0
XRECORD
  5
CB4
102
{ACAD_REACTORS
330
CB2
102
}
330
CB2
100
AcDbXrecord
 90
       70
  0
XRECORD
  5
CCB
102
{ACAD_REACTORS
330
CB2
102
}
330
CB2
100
AcDbXrecord
340
0
  0
XRECORD
  5
CD1
102
{ACAD_REACTORS
330
CB2
102
}
330
CB2
100
AcDbXrecord
 10
0.0
 20
0.0
 30
0.0
  0
XRECORD
  5
CCD
102
{ACAD_REACTORS
330
CB2
102
}
330
CB2
100
AcDbXrecord
 10
0.0
 20
0.0
 30
0.0
  0
XRECORD
  5
CD0
102
{ACAD_REACTORS
330
CB2
102
}
330
CB2
100
AcDbXrecord
 10
0.0
 20
0.0
 30
0.0
  0
XRECORD
  5
CCE
102
{ACAD_REACTORS
330
CB2
102
}
330
CB2
100
AcDbXrecord
 10
0.0
 20
0.0
 30
0.0
  0
XRECORD
  5
CCF
102
{ACAD_REACTORS
330
CB2
102
}
330
CB2
100
AcDbXrecord
 10
0.0
 20
0.0
 30
0.0
  0
XRECORD
  5
CCC
102
{ACAD_REACTORS
330
CB2
102
}
330
CB2
100
AcDbXrecord
 10
0.0
 20
0.0
 30
0.0
  0
XRECORD
  5
CC9
102
{ACAD_REACTORS
330
CB2
102
}
330
CB2
100
AcDbXrecord
340
0
  0
XRECORD
  5
CCA
102
{ACAD_REACTORS
330
CB2
102
}
330
CB2
100
AcDbXrecord
 70
     0
  0
XRECORD
  5
CBE
102
{ACAD_REACTORS
330
CB2
102
}
330
CB2
100
AcDbXrecord
  1
{9FBEF8C4-0470-4BB4-84B2-E973E4FC2DD5}
  0
DICTIONARYVAR
  5
BEE
102
{ACAD_REACTORS
330
BEC
102
}
330
BEC
100
DictionaryVariables
280
     0
  1
2
  0
DICTIONARYVAR
  5
BED
102
{ACAD_REACTORS
330
BEC
102
}
330
BEC
100
DictionaryVariables
280
     0
  1
1
  0
ENDSEC
  0
EOF
