  0
SECTION
  2
HEADER
  9
$ACADVER
  1
AC1009
  9
$INSBASE
 10
0.0
 20
0.0
 30
0.0
  9
$EXTMIN
 10
-0.0128164049386896
 20
-0.1223595381276255
 30
-0.0015258207003583
  9
$EXTMAX
 10
152.0013434393347
 20
312.50802683260758
 30
0.0000000349246037
  9
$LIMMIN
 10
0.0
 20
0.0
  9
$LIMMAX
 10
420.0
 20
297.0
  9
$ORTHOMODE
 70
     0
  9
$REGENMODE
 70
     1
  9
$FILLMODE
 70
     1
  9
$QTEXTMODE
 70
     0
  9
$MIRRTEXT
 70
     1
  9
$DRAGMODE
 70
     2
  9
$LTSCALE
 40
1.0
  9
$OSMODE
 70
    49
  9
$ATTMODE
 70
     1
  9
$TEXTSIZE
 40
2.5
  9
$TRACEWID
 40
1.0
  9
$TEXTSTYLE
  7
STANDARD
  9
$CLAYER
  8
0
  9
$CELTYPE
  6
BYLAYER
  9
$CECOLOR
 62
   256
  9
$DIMSCALE
 40
1.0
  9
$DIMASZ
 40
2.5
  9
$DIMEXO
 40
0.625
  9
$DIMDLI
 40
3.75
  9
$DIMRND
 40
0.0
  9
$DIMDLE
 40
0.0
  9
$DIMEXE
 40
1.25
  9
$DIMTP
 40
0.0
  9
$DIMTM
 40
0.0
  9
$DIMTXT
 40
2.5
  9
$DIMCEN
 40
2.5
  9
$DIMTSZ
 40
0.0
  9
$DIMTOL
 70
     0
  9
$DIMLIM
 70
     0
  9
$DIMTIH
 70
     0
  9
$DIMTOH
 70
     0
  9
$DIMSE1
 70
     0
  9
$DIMSE2
 70
     0
  9
$DIMTAD
 70
     1
  9
$DIMZIN
 70
     8
  9
$DIMBLK
  1

  9
$DIMASO
 70
     1
  9
$DIMSHO
 70
     1
  9
$DIMPOST
  1

  9
$DIMAPOST
  1

  9
$DIMALT
 70
     0
  9
$DIMALTD
 70
     3
  9
$DIMALTF
 40
0.03937007874016
  9
$DIMLFAC
 40
1.0
  9
$DIMTOFL
 70
     1
  9
$DIMTVP
 40
0.0
  9
$DIMTIX
 70
     0
  9
$DIMSOXD
 70
     0
  9
$DIMSAH
 70
     0
  9
$DIMBLK1
  1

  9
$DIMBLK2
  1

  9
$DIMSTYLE
  2
ISO-25
  9
$DIMCLRD
 70
     0
  9
$DIMCLRE
 70
     0
  9
$DIMCLRT
 70
     0
  9
$DIMTFAC
 40
1.0
  9
$DIMGAP
 40
0.625
  9
$LUNITS
 70
     2
  9
$LUPREC
 70
     4
  9
$SKETCHINC
 40
1.0
  9
$FILLETRAD
 40
10.0
  9
$AUNITS
 70
     0
  9
$AUPREC
 70
     0
  9
$MENU
  1
.
  9
$ELEVATION
 40
0.0
  9
$PELEVATION
 40
0.0
  9
$THICKNESS
 40
0.0
  9
$LIMCHECK
 70
     0
  9
$BLIPMODE
 70
     0
  9
$CHAMFERA
 40
10.0
  9
$CHAMFERB
 40
10.0
  9
$SKPOLY
 70
     0
  9
$TDCREATE
 40
2453948.6332922559
  9
$TDUPDATE
 40
2453948.6343681021
  9
$TDINDWG
 40
0.0010763889
  9
$TDUSRTIMER
 40
0.0010763889
  9
$USRTIMER
 70
     1
  9
$ANGBASE
 50
0.0
  9
$ANGDIR
 70
     0
  9
$PDMODE
 70
     0
  9
$PDSIZE
 40
0.0
  9
$PLINEWID
 40
0.0
  9
$COORDS
 70
     0
  9
$SPLFRAME
 70
     0
  9
$SPLINETYPE
 70
     6
  9
$SPLINESEGS
 70
     8
  9
$ATTDIA
 70
     0
  9
$ATTREQ
 70
     1
  9
$HANDLING
 70
 22529
  9
$HANDSEED
  5
1001
  9
$SURFTAB1
 70
     6
  9
$SURFTAB2
 70
     6
  9
$SURFTYPE
 70
     6
  9
$SURFU
 70
     6
  9
$SURFV
 70
     6
  9
$UCSNAME
  2

  9
$UCSORG
 10
0.0
 20
0.0
 30
0.0
  9
$UCSXDIR
 10
1.0
 20
0.0
 30
0.0
  9
$UCSYDIR
 10
0.0
 20
1.0
 30
0.0
  9
$PUCSNAME
  2

  9
$PUCSORG
 10
0.0
 20
0.0
 30
0.0
  9
$PUCSXDIR
 10
1.0
 20
0.0
 30
0.0
  9
$PUCSYDIR
 10
0.0
 20
1.0
 30
0.0
  9
$USERI1
 70
     0
  9
$USERI2
 70
     0
  9
$USERI3
 70
     0
  9
$USERI4
 70
     0
  9
$USERI5
 70
     0
  9
$USERR1
 40
0.0
  9
$USERR2
 40
0.0
  9
$USERR3
 40
0.0
  9
$USERR4
 40
0.0
  9
$USERR5
 40
0.0
  9
$WORLDVIEW
 70
     1
  9
$SHADEDGE
 70
     3
  9
$SHADEDIF
 70
    70
  9
$TILEMODE
 70
     1
  9
$MAXACTVP
 70
    64
  9
$PLIMCHECK
 70
     0
  9
$PEXTMIN
 10
1.0000000000000000E+020
 20
1.0000000000000000E+020
 30
1.0000000000000000E+020
  9
$PEXTMAX
 10
-1.0000000000000000E+020
 20
-1.0000000000000000E+020
 30
-1.0000000000000000E+020
  9
$PLIMMIN
 10
0.0
 20
0.0
  9
$PLIMMAX
 10
420.0
 20
297.0
  9
$UNITMODE
 70
     0
  9
$VISRETAIN
 70
     1
  9
$PLINEGEN
 70
     0
  9
$PSLTSCALE
 70
     1
  0
ENDSEC
  0
SECTION
  2
TABLES
  0
TABLE
  2
VPORT
 70
     4
  0
VPORT
  2
*ACTIVE
 70
     0
 10
0.0
 20
0.0
 11
1.0
 21
1.0
 12
75.994263517198021
 22
156.19283364723989
 13
0.0
 23
0.0
 14
10.0
 24
10.0
 15
10.0
 25
10.0
 16
0.0
 26
0.0
 36
1.0
 17
0.0
 27
0.0
 37
0.0
 40
315.30244095510039
 41
1.7189728958630519
 42
50.0
 43
0.0
 44
0.0
 50
0.0
 51
0.0
 71
     0
 72
   100
 73
     1
 74
     3
 75
     0
 76
     0
 77
     0
 78
     0
  0
ENDTAB
  0
TABLE
  2
LTYPE
 70
     4
  0
LTYPE
  2
CONTINUOUS
 70
     0
  3
Solid line
 72
    65
 73
     0
 40
0.0
  0
LTYPE
  2
CENTER
 70
     0
  3
____ _ ____ _ ____ _ ____ _ ____ _ ____ _ ____
 72
    65
 73
     4
 40
2.0
 49
1.25
 49
-0.25
 49
0.25
 49
-0.25
  0
LTYPE
  2
DASHED
 70
     0
  3
Dashed __ __ __ __ __ __ __ __ __ __ __ __ __ _
 72
    65
 73
     2
 40
19.050000000000001
 49
12.699999999999999
 49
-6.3499999999999988
  0
LTYPE
  2
DIVIDE
 70
     0
  3
__ . . __ . . __ . . __ . . __ . . __ . . __
 72
    65
 73
     6
 40
1.25
 49
0.0
 49
-0.25
 49
0.0
 49
-0.25
 49
0.0
 49
-0.25
  0
ENDTAB
  0
TABLE
  2
LAYER
 70
     8
  0
LAYER
  2
0
 70
     0
 62
     7
  6
CONTINUOUS
  0
LAYER
  2
外枠
 70
     0
 62
     7
  6
CONTINUOUS
  0
LAYER
  2
寸法
 70
     0
 62
     1
  6
CONTINUOUS
  0
LAYER
  2
DEFPOINTS
 70
     0
 62
     7
  6
CONTINUOUS
  0
LAYER
  2
追加
 70
     0
 62
    10
  6
CONTINUOUS
  0
LAYER
  2
ﾚｲﾔ_1
 70
     0
 62
    12
  6
CONTINUOUS
  0
LAYER
  2
2_カバ_
 70
     0
 62
     7
  6
DIVIDE
  0
LAYER
  2
14_寸法１
 70
     0
 62
     7
  6
DIVIDE
  0
ENDTAB
  0
TABLE
  2
STYLE
 70
     1
  0
STYLE
  2
STANDARD
 70
     0
 40
0.0
 41
1.0
 50
0.0
 71
     0
 42
2.5
  3
txt
  4

  0
ENDTAB
  0
TABLE
  2
VIEW
 70
     0
  0
ENDTAB
  0
TABLE
  2
UCS
 70
     0
  0
ENDTAB
  0
TABLE
  2
APPID
 70
     1
  0
APPID
  2
ACAD
 70
     0
  0
ENDTAB
  0
TABLE
  2
DIMSTYLE
 70
     7
  0
DIMSTYLE
  2
ISO-25
 70
     0
  3

  4

  5

  6

  7

 40
1.0
 41
2.5
 42
0.625
 43
3.75
 44
1.25
 45
0.0
 46
0.0
 47
0.0
 48
0.0
140
2.5
141
2.5
142
0.0
143
0.03937007874016
144
1.0
145
0.0
146
1.0
147
0.625
 71
     0
 72
     0
 73
     0
 74
     0
 75
     0
 76
     0
 77
     1
 78
     8
170
     0
171
     3
172
     1
173
     0
174
     0
175
     0
176
     0
177
     0
178
     0
  0
DIMSTYLE
  2
1
 70
     0
  3

  4

  5

  6

  7

 40
0.0
 41
2.0
 42
1.0
 43
0.38
 44
1.0
 45
0.0
 46
0.0
 47
0.1
 48
0.1
140
2.5
141
-1.0
142
0.0
143
25.399999999999999
144
1.0
145
0.0
146
0.5
147
0.5
 71
     0
 72
     0
 73
     0
 74
     0
 75
     0
 76
     0
 77
     1
 78
     0
170
     0
171
     2
172
     0
173
     0
174
     0
175
     0
176
     0
177
     0
178
     0
  0
DIMSTYLE
  2
DIMSTYLE
 70
     0
  3

  4

  5

  6
OPEN
  7
OPEN
 40
1.0
 41
1.0
 42
2.539999961853026
 43
0.38
 44
2.539999961853026
 45
0.0
 46
0.0
 47
0.0
 48
0.0
140
3.2000000476837158
141
0.09
142
0.0
143
25.399999999999999
144
1.0
145
1.0
146
1.0
147
1.6000000238418579
 71
     0
 72
     0
 73
     0
 74
     0
 75
     0
 76
     0
 77
     0
 78
     0
170
     0
171
     2
172
     0
173
     1
174
     0
175
     0
176
     0
177
     0
178
     0
  0
DIMSTYLE
  2
2
 70
     0
  3

  4

  5

  6
OPEN
  7
OPEN
 40
1.0
 41
1.0
 42
2.539999961853026
 43
0.38
 44
2.539999961853026
 45
0.0
 46
0.0
 47
0.0
 48
0.0
140
3.2000000476837158
141
0.09
142
0.0
143
25.399999999999999
144
1.0
145
1.0
146
1.0
147
1.6000000000000001
 71
     0
 72
     0
 73
     0
 74
     0
 75
     0
 76
     0
 77
     1
 78
     8
170
     0
171
     2
172
     1
173
     1
174
     0
175
     0
176
     0
177
     0
178
     0
  0
DIMSTYLE
  2
__
 70
     0
  3
(<>)
  4

  5

  6
OPEN
  7
OPEN
 40
1.0
 41
1.0
 42
2.539999961853026
 43
0.38
 44
2.539999961853026
 45
0.0
 46
0.0
 47
0.0
 48
0.0
140
3.2000000476837158
141
0.09
142
0.0
143
25.399999999999999
144
1.0
145
1.0
146
1.0
147
1.6000000000000001
 71
     0
 72
     0
 73
     0
 74
     0
 75
     0
 76
     0
 77
     1
 78
     8
170
     0
171
     2
172
     1
173
     1
174
     0
175
     0
176
     0
177
     0
178
     0
  0
DIMSTYLE
  2
CPY公差0-_2
 70
     0
  3

  4

  5

  6
OPEN
  7
OPEN
 40
1.0
 41
1.0
 42
2.539999961853026
 43
0.38
 44
2.539999961853026
 45
0.0
 46
0.0
 47
0.0
 48
0.2
140
3.2000000476837158
141
0.09
142
0.0
143
25.399999999999999
144
1.0
145
1.0
146
1.0
147
1.6000000000000001
 71
     1
 72
     0
 73
     0
 74
     0
 75
     0
 76
     0
 77
     1
 78
     0
170
     0
171
     2
172
     1
173
     1
174
     0
175
     0
176
     0
177
     0
178
     0
  0
DIMSTYLE
  2
3
 70
     0
  3

  4

  5

  6
OPEN
  7
OPEN
 40
1.0
 41
1.0
 42
2.539999961853026
 43
0.38
 44
2.539999961853026
 45
0.0
 46
0.0
 47
0.0
 48
0.0
140
2.0
141
0.09
142
0.0
143
25.399999999999999
144
1.0
145
1.0
146
1.0
147
0.9
 71
     0
 72
     0
 73
     0
 74
     0
 75
     0
 76
     0
 77
     1
 78
     8
170
     0
171
     2
172
     1
173
     1
174
     0
175
     0
176
     0
177
     0
178
     0
  0
ENDTAB
  0
ENDSEC
  0
SECTION
  2
BLOCKS
  0
BLOCK
  8
0
  2
$MODEL_SPACE
 70
     0
 10
0.0
 20
0.0
 30
0.0
  3
$MODEL_SPACE
  1

  0
ENDBLK
  5
21
  8
0
  0
BLOCK
 67
     1
  8
0
  2
$PAPER_SPACE
 70
     0
 10
0.0
 20
0.0
 30
0.0
  3
$PAPER_SPACE
  1

  0
ENDBLK
  5
1D
 67
     1
  8
0
  0
BLOCK
  8
0
  2
_OPEN30
 70
     0
 10
0.0
 20
0.0
 30
0.0
  3
_OPEN30
  1

  0
LINE
  5
2C
  8
0
  6
BYBLOCK
 62
     0
 10
-1.0
 20
0.26794919
 30
0.0
 11
0.0
 21
0.0
 31
0.0
  0
LINE
  5
2D
  8
0
  6
BYBLOCK
 62
     0
 10
0.0
 20
0.0
 30
0.0
 11
-1.0
 21
-0.26794919
 31
0.0
  0
LINE
  5
2E
  8
0
  6
BYBLOCK
 62
     0
 10
0.0
 20
0.0
 30
0.0
 11
-1.0
 21
0.0
 31
0.0
  0
ENDBLK
  5
30
  8
0
  0
BLOCK
  8
0
  2
_OPEN
 70
     0
 10
0.0
 20
0.0
 30
0.0
  3
_OPEN
  1

  0
LINE
  5
32
  8
0
  6
BYBLOCK
 62
     0
 10
0.0
 20
0.0
 30
0.0
 11
-3.1279999530221492
 21
-0.5619999915596267
 31
0.0
  0
LINE
  5
33
  8
0
  6
BYBLOCK
 62
     0
 10
0.0
 20
0.0
 30
0.0
 11
-3.1279999530221572
 21
0.5619999915595885
 31
0.0
  0
LINE
  5
34
  8
0
  6
BYBLOCK
 62
     0
 10
0.0
 20
0.0
 30
0.0
 11
-2.9999999549445211
 21
0.0
 31
0.0
  0
ENDBLK
  5
36
  8
0
  0
BLOCK
  8
0
  2
*D3
 70
     1
 10
0.0
 20
0.0
 30
0.0
  3
*D3
  1

  0
LINE
  5
38
  8
14_寸法１
  6
CONTINUOUS
 62
     0
 10
214.67111902094359
 20
-18.512778660818629
 30
0.0
 11
187.7196060209437
 21
-18.512778660818618
 31
0.0
  0
LINE
  5
39
  8
14_寸法１
  6
CONTINUOUS
 62
     0
 10
204.41959002094441
 20
-86.612778660818094
 30
0.0
 11
187.7196060209437
 21
-86.612778660818094
 31
0.0
  0
LINE
  5
3A
  8
14_寸法１
  6
CONTINUOUS
 62
     0
 10
190.2596059827967
 20
-21.512778660818629
 30
0.0
 11
190.2596059827967
 21
-83.612778660818094
 31
0.0
  0
INSERT
  5
3B
  8
14_寸法１
  6
CONTINUOUS
 62
     0
  2
_OPEN30
 10
190.2596059827967
 20
-18.512778660818629
 30
0.0
 41
3.0
 42
3.0
 43
3.0
 50
90.0
  0
INSERT
  5
3C
  8
14_寸法１
  6
CONTINUOUS
 62
     0
  2
_OPEN30
 10
190.2596059827967
 20
-86.612778660818094
 30
0.0
 41
3.0
 42
3.0
 43
3.0
 50
270.0
  0
TEXT
  5
3D
  8
0
 62
     0
 10
189.2596059827967
 20
-56.562778660818338
 30
0.0
 40
3.0
  1
68.1
 50
90.0
  0
POINT
  5
3E
  8
DEFPOINTS
  6
CONTINUOUS
 62
     0
 10
217.21111898279671
 20
-18.512778660818629
 30
0.0
  0
POINT
  5
3F
  8
DEFPOINTS
  6
CONTINUOUS
 62
     0
 10
206.9595899827975
 20
-86.612778660818094
 30
0.0
  0
POINT
  5
40
  8
DEFPOINTS
  6
CONTINUOUS
 62
     0
 10
190.2596059827967
 20
-86.612778660818094
 30
0.0
  0
ENDBLK
  5
42
  8
0
  0
BLOCK
  8
0
  2
C37
 70
     0
 10
0.0
 20
0.0
 30
0.0
  3
C37
  1

  0
LINE
  5
44
  8
ﾚｲﾔ_1
  6
CONTINUOUS
 62
     7
 10
393.07816400000002
 20
-241.43821
 30
0.0
 11
393.07816400000002
 21
-240.45704599999991
 31
0.0
  0
LINE
  5
45
  8
ﾚｲﾔ_1
  6
CONTINUOUS
 62
     7
 10
393.07816400000002
 20
-240.45704599999991
 30
0.0
 11
392.485435
 21
-240.45704599999991
 31
0.0
  0
LINE
  5
46
  8
ﾚｲﾔ_1
  6
CONTINUOUS
 62
     7
 10
392.485435
 20
-240.45704599999991
 30
0.0
 11
392.485435
 21
-241.43821
 31
0.0
  0
LINE
  5
47
  8
ﾚｲﾔ_1
  6
CONTINUOUS
 62
     7
 10
392.485435
 20
-241.43821
 30
0.0
 11
393.07816400000002
 21
-241.43821
 31
0.0
  0
ENDBLK
  5
49
  8
0
  0
BLOCK
  8
0
  2
C38
 70
     0
 10
0.0
 20
0.0
 30
0.0
  3
C38
  1

  0
LINE
  5
4B
  8
ﾚｲﾔ_1
  6
CONTINUOUS
 62
     7
 10
395.26614399999988
 20
-240.428797
 30
0.0
 11
395.26614399999988
 21
-239.06677799999991
 31
0.0
  0
LINE
  5
4C
  8
ﾚｲﾔ_1
  6
CONTINUOUS
 62
     7
 10
395.26614399999988
 20
-239.06677799999991
 30
0.0
 11
393.79818899999998
 21
-239.06677799999991
 31
0.0
  0
LINE
  5
4D
  8
ﾚｲﾔ_1
  6
CONTINUOUS
 62
     7
 10
393.79818899999998
 20
-239.06677799999991
 30
0.0
 11
393.79818899999998
 21
-240.428797
 31
0.0
  0
LINE
  5
4E
  8
ﾚｲﾔ_1
  6
CONTINUOUS
 62
     7
 10
393.79818899999998
 20
-240.428797
 30
0.0
 11
395.26614399999988
 21
-240.428797
 31
0.0
  0
ENDBLK
  5
50
  8
0
  0
BLOCK
  8
0
  2
C39
 70
     0
 10
0.0
 20
0.0
 30
0.0
  3
C39
  1

  0
LINE
  5
52
  8
ﾚｲﾔ_1
  6
CONTINUOUS
 62
     7
 10
394.82827300000002
 20
-240.04794099999989
 30
0.0
 11
394.82827300000002
 21
-239.06677799999991
 31
0.0
  0
LINE
  5
53
  8
ﾚｲﾔ_1
  6
CONTINUOUS
 62
     7
 10
394.82827300000002
 20
-239.06677799999991
 30
0.0
 11
394.23571600000002
 21
-239.06677799999991
 31
0.0
  0
LINE
  5
54
  8
ﾚｲﾔ_1
  6
CONTINUOUS
 62
     7
 10
394.23571600000002
 20
-239.06677799999991
 30
0.0
 11
394.23571600000002
 21
-240.04794099999989
 31
0.0
  0
LINE
  5
55
  8
ﾚｲﾔ_1
  6
CONTINUOUS
 62
     7
 10
394.23571600000002
 20
-240.04794099999989
 30
0.0
 11
394.82827300000002
 21
-240.04794099999989
 31
0.0
  0
ENDBLK
  5
57
  8
0
  0
BLOCK
  8
0
  2
C40
 70
     0
 10
0.0
 20
0.0
 30
0.0
  3
C40
  1

  0
LINE
  5
59
  8
ﾚｲﾔ_1
  6
CONTINUOUS
 62
     7
 10
393.79818899999998
 20
-238.6011729999999
 30
0.0
 11
393.79818899999998
 21
-237.23898299999999
 31
0.0
  0
LINE
  5
5A
  8
ﾚｲﾔ_1
  6
CONTINUOUS
 62
     7
 10
393.79818899999998
 20
-237.23898299999999
 30
0.0
 11
395.26614399999988
 21
-237.23898299999999
 31
0.0
  0
LINE
  5
5B
  8
ﾚｲﾔ_1
  6
CONTINUOUS
 62
     7
 10
395.26614399999988
 20
-237.23898299999999
 30
0.0
 11
395.26614399999988
 21
-238.6011729999999
 31
0.0
  0
LINE
  5
5C
  8
ﾚｲﾔ_1
  6
CONTINUOUS
 62
     7
 10
395.26614399999988
 20
-238.6011729999999
 30
0.0
 11
393.79818899999998
 21
-238.6011729999999
 31
0.0
  0
ENDBLK
  5
5E
  8
0
  0
BLOCK
  8
0
  2
C41
 70
     0
 10
0.0
 20
0.0
 30
0.0
  3
C41
  1

  0
LINE
  5
60
  8
ﾚｲﾔ_1
  6
CONTINUOUS
 62
     7
 10
394.23571600000002
 20
-238.6011729999999
 30
0.0
 11
394.23571600000002
 21
-237.62001000000001
 31
0.0
  0
LINE
  5
61
  8
ﾚｲﾔ_1
  6
CONTINUOUS
 62
     7
 10
394.23571600000002
 20
-237.62001000000001
 30
0.0
 11
394.82827300000002
 21
-237.62001000000001
 31
0.0
  0
LINE
  5
62
  8
ﾚｲﾔ_1
  6
CONTINUOUS
 62
     7
 10
394.82827300000002
 20
-237.62001000000001
 30
0.0
 11
394.82827300000002
 21
-238.6011729999999
 31
0.0
  0
LINE
  5
63
  8
ﾚｲﾔ_1
  6
CONTINUOUS
 62
     7
 10
394.82827300000002
 20
-238.6011729999999
 30
0.0
 11
394.23571600000002
 21
-238.6011729999999
 31
0.0
  0
ENDBLK
  5
65
  8
0
  0
BLOCK
  8
0
  2
C42
 70
     0
 10
0.0
 20
0.0
 30
0.0
  3
C42
  1

  0
LINE
  5
67
  8
ﾚｲﾔ_1
  6
CONTINUOUS
 62
     7
 10
393.51603599999987
 20
-239.0950279999999
 30
0.0
 11
393.51603599999987
 21
-237.73300900000001
 31
0.0
  0
LINE
  5
68
  8
ﾚｲﾔ_1
  6
CONTINUOUS
 62
     7
 10
393.51603599999987
 20
-237.73300900000001
 30
0.0
 11
392.04807999999991
 21
-237.73300900000001
 31
0.0
  0
LINE
  5
69
  8
ﾚｲﾔ_1
  6
CONTINUOUS
 62
     7
 10
392.04807999999991
 20
-237.73300900000001
 30
0.0
 11
392.04807999999991
 21
-239.0950279999999
 31
0.0
  0
LINE
  5
6A
  8
ﾚｲﾔ_1
  6
CONTINUOUS
 62
     7
 10
392.04807999999991
 20
-239.0950279999999
 30
0.0
 11
393.51603599999987
 21
-239.0950279999999
 31
0.0
  0
ENDBLK
  5
6C
  8
0
  0
BLOCK
  8
0
  2
C43
 70
     0
 10
0.0
 20
0.0
 30
0.0
  3
C43
  1

  0
LINE
  5
6E
  8
ﾚｲﾔ_1
  6
CONTINUOUS
 62
     7
 10
393.078509
 20
-239.0950279999999
 30
0.0
 11
393.078509
 21
-238.114037
 31
0.0
  0
LINE
  5
6F
  8
ﾚｲﾔ_1
  6
CONTINUOUS
 62
     7
 10
393.078509
 20
-238.114037
 30
0.0
 11
392.485952
 21
-238.114037
 31
0.0
  0
LINE
  5
70
  8
ﾚｲﾔ_1
  6
CONTINUOUS
 62
     7
 10
392.485952
 20
-238.114037
 30
0.0
 11
392.485952
 21
-239.0950279999999
 31
0.0
  0
LINE
  5
71
  8
ﾚｲﾔ_1
  6
CONTINUOUS
 62
     7
 10
392.485952
 20
-239.0950279999999
 30
0.0
 11
393.078509
 21
-239.0950279999999
 31
0.0
  0
ENDBLK
  5
73
  8
0
  0
BLOCK
  8
0
  2
C44
 70
     0
 10
0.0
 20
0.0
 30
0.0
  3
C44
  1

  0
LINE
  5
75
  8
ﾚｲﾔ_1
  6
CONTINUOUS
 62
     7
 10
393.51603599999987
 20
-237.274295
 30
0.0
 11
393.51603599999987
 21
-235.91227599999991
 31
0.0
  0
LINE
  5
76
  8
ﾚｲﾔ_1
  6
CONTINUOUS
 62
     7
 10
393.51603599999987
 20
-235.91227599999991
 30
0.0
 11
392.04807999999991
 21
-235.91227599999991
 31
0.0
  0
LINE
  5
77
  8
ﾚｲﾔ_1
  6
CONTINUOUS
 62
     7
 10
392.04807999999991
 20
-235.91227599999991
 30
0.0
 11
392.04807999999991
 21
-237.274295
 31
0.0
  0
LINE
  5
78
  8
ﾚｲﾔ_1
  6
CONTINUOUS
 62
     7
 10
392.04807999999991
 20
-237.274295
 30
0.0
 11
393.51603599999987
 21
-237.274295
 31
0.0
  0
ENDBLK
  5
7A
  8
0
  0
BLOCK
  8
0
  2
C45
 70
     0
 10
0.0
 20
0.0
 30
0.0
  3
C45
  1

  0
LINE
  5
7C
  8
ﾚｲﾔ_1
  6
CONTINUOUS
 62
     7
 10
393.078509
 20
-237.274295
 30
0.0
 11
393.078509
 21
-236.29330400000001
 31
0.0
  0
LINE
  5
7D
  8
ﾚｲﾔ_1
  6
CONTINUOUS
 62
     7
 10
393.078509
 20
-236.29330400000001
 30
0.0
 11
392.485952
 21
-236.29330400000001
 31
0.0
  0
LINE
  5
7E
  8
ﾚｲﾔ_1
  6
CONTINUOUS
 62
     7
 10
392.485952
 20
-236.29330400000001
 30
0.0
 11
392.485952
 21
-237.274295
 31
0.0
  0
LINE
  5
7F
  8
ﾚｲﾔ_1
  6
CONTINUOUS
 62
     7
 10
392.485952
 20
-237.274295
 30
0.0
 11
393.078509
 21
-237.274295
 31
0.0
  0
ENDBLK
  5
81
  8
0
  0
BLOCK
  8
0
  2
C46
 70
     0
 10
0.0
 20
0.0
 30
0.0
  3
C46
  1

  0
LINE
  5
83
  8
ﾚｲﾔ_1
  6
CONTINUOUS
 62
     7
 10
391.631396
 20
-239.525837
 30
0.0
 11
391.631396
 21
-238.05788199999989
 31
0.0
  0
LINE
  5
84
  8
ﾚｲﾔ_1
  6
CONTINUOUS
 62
     7
 10
391.631396
 20
-238.05788199999989
 30
0.0
 11
390.2693779999999
 21
-238.05788199999989
 31
0.0
  0
LINE
  5
85
  8
ﾚｲﾔ_1
  6
CONTINUOUS
 62
     7
 10
390.2693779999999
 20
-238.05788199999989
 30
0.0
 11
390.2693779999999
 21
-239.525837
 31
0.0
  0
LINE
  5
86
  8
ﾚｲﾔ_1
  6
CONTINUOUS
 62
     7
 10
390.2693779999999
 20
-239.525837
 30
0.0
 11
391.631396
 21
-239.525837
 31
0.0
  0
ENDBLK
  5
88
  8
0
  0
BLOCK
  8
0
  2
C47
 70
     0
 10
0.0
 20
0.0
 30
0.0
  3
C47
  1

  0
LINE
  5
8A
  8
ﾚｲﾔ_1
  6
CONTINUOUS
 62
     7
 10
391.631396
 20
-239.087965
 30
0.0
 11
391.631396
 21
-238.495237
 31
0.0
  0
LINE
  5
8B
  8
ﾚｲﾔ_1
  6
CONTINUOUS
 62
     7
 10
391.631396
 20
-238.495237
 30
0.0
 11
390.65040499999992
 21
-238.495237
 31
0.0
  0
LINE
  5
8C
  8
ﾚｲﾔ_1
  6
CONTINUOUS
 62
     7
 10
390.65040499999992
 20
-238.495237
 30
0.0
 11
390.65040499999992
 21
-239.087965
 31
0.0
  0
LINE
  5
8D
  8
ﾚｲﾔ_1
  6
CONTINUOUS
 62
     7
 10
390.65040499999992
 20
-239.087965
 30
0.0
 11
391.631396
 21
-239.087965
 31
0.0
  0
ENDBLK
  5
8F
  8
0
  0
BLOCK
  8
0
  2
C48
 70
     0
 10
0.0
 20
0.0
 30
0.0
  3
C48
  1

  0
LINE
  5
91
  8
ﾚｲﾔ_1
  6
CONTINUOUS
 62
     7
 10
391.631396
 20
-237.683572
 30
0.0
 11
391.631396
 21
-236.2156169999999
 31
0.0
  0
LINE
  5
92
  8
ﾚｲﾔ_1
  6
CONTINUOUS
 62
     7
 10
391.631396
 20
-236.2156169999999
 30
0.0
 11
390.2693779999999
 21
-236.2156169999999
 31
0.0
  0
LINE
  5
93
  8
ﾚｲﾔ_1
  6
CONTINUOUS
 62
     7
 10
390.2693779999999
 20
-236.2156169999999
 30
0.0
 11
390.2693779999999
 21
-237.683572
 31
0.0
  0
LINE
  5
94
  8
ﾚｲﾔ_1
  6
CONTINUOUS
 62
     7
 10
390.2693779999999
 20
-237.683572
 30
0.0
 11
391.631396
 21
-237.683572
 31
0.0
  0
ENDBLK
  5
96
  8
0
  0
BLOCK
  8
0
  2
C49
 70
     0
 10
0.0
 20
0.0
 30
0.0
  3
C49
  1

  0
LINE
  5
98
  8
ﾚｲﾔ_1
  6
CONTINUOUS
 62
     7
 10
391.631396
 20
-237.24604500000001
 30
0.0
 11
391.631396
 21
-236.65348900000001
 31
0.0
  0
LINE
  5
99
  8
ﾚｲﾔ_1
  6
CONTINUOUS
 62
     7
 10
391.631396
 20
-236.65348900000001
 30
0.0
 11
390.65040499999992
 21
-236.65348900000001
 31
0.0
  0
LINE
  5
9A
  8
ﾚｲﾔ_1
  6
CONTINUOUS
 62
     7
 10
390.65040499999992
 20
-236.65348900000001
 30
0.0
 11
390.65040499999992
 21
-237.24604500000001
 31
0.0
  0
LINE
  5
9B
  8
ﾚｲﾔ_1
  6
CONTINUOUS
 62
     7
 10
390.65040499999992
 20
-237.24604500000001
 30
0.0
 11
391.631396
 21
-237.24604500000001
 31
0.0
  0
ENDBLK
  5
9D
  8
0
  0
BLOCK
  8
0
  2
C51
 70
     0
 10
0.0
 20
0.0
 30
0.0
  3
C51
  1

  0
LINE
  5
9F
  8
ﾚｲﾔ_1
  6
CONTINUOUS
 62
     7
 10
389.64839899999998
 20
-239.56097700000001
 30
0.0
 11
389.64839899999998
 21
-238.0931939999999
 31
0.0
  0
LINE
  5
A0
  8
ﾚｲﾔ_1
  6
CONTINUOUS
 62
     7
 10
389.64839899999998
 20
-238.0931939999999
 30
0.0
 11
387.72896400000002
 21
-238.0931939999999
 31
0.0
  0
LINE
  5
A1
  8
ﾚｲﾔ_1
  6
CONTINUOUS
 62
     7
 10
387.72896400000002
 20
-238.0931939999999
 30
0.0
 11
387.72896400000002
 21
-239.56097700000001
 31
0.0
  0
LINE
  5
A2
  8
ﾚｲﾔ_1
  6
CONTINUOUS
 62
     7
 10
387.72896400000002
 20
-239.56097700000001
 30
0.0
 11
389.64839899999998
 21
-239.56097700000001
 31
0.0
  0
ENDBLK
  5
A4
  8
0
  0
BLOCK
  8
0
  2
C52
 70
     0
 10
0.0
 20
0.0
 30
0.0
  3
C52
  1

  0
LINE
  5
A6
  8
ﾚｲﾔ_1
  6
CONTINUOUS
 62
     7
 10
389.64839899999998
 20
-239.56097700000001
 30
0.0
 11
389.64839899999998
 21
-238.0931939999999
 31
0.0
  0
LINE
  5
A7
  8
ﾚｲﾔ_1
  6
CONTINUOUS
 62
     7
 10
389.64839899999998
 20
-238.0931939999999
 30
0.0
 11
387.72896400000002
 21
-238.0931939999999
 31
0.0
  0
LINE
  5
A8
  8
ﾚｲﾔ_1
  6
CONTINUOUS
 62
     7
 10
387.72896400000002
 20
-238.0931939999999
 30
0.0
 11
387.72896400000002
 21
-239.56097700000001
 31
0.0
  0
LINE
  5
A9
  8
ﾚｲﾔ_1
  6
CONTINUOUS
 62
     7
 10
387.72896400000002
 20
-239.56097700000001
 30
0.0
 11
389.64839899999998
 21
-239.56097700000001
 31
0.0
  0
ENDBLK
  5
AB
  8
0
  0
BLOCK
  8
0
  2
C53
 70
     0
 10
0.0
 20
0.0
 30
0.0
  3
C53
  1

  0
LINE
  5
AD
  8
ﾚｲﾔ_1
  6
CONTINUOUS
 62
     7
 10
391.631396
 20
-241.36758499999999
 30
0.0
 11
391.631396
 21
-239.89962999999989
 31
0.0
  0
LINE
  5
AE
  8
ﾚｲﾔ_1
  6
CONTINUOUS
 62
     7
 10
391.631396
 20
-239.89962999999989
 30
0.0
 11
390.2693779999999
 21
-239.89962999999989
 31
0.0
  0
LINE
  5
AF
  8
ﾚｲﾔ_1
  6
CONTINUOUS
 62
     7
 10
390.2693779999999
 20
-239.89962999999989
 30
0.0
 11
390.2693779999999
 21
-241.36758499999999
 31
0.0
  0
LINE
  5
B0
  8
ﾚｲﾔ_1
  6
CONTINUOUS
 62
     7
 10
390.2693779999999
 20
-241.36758499999999
 30
0.0
 11
391.631396
 21
-241.36758499999999
 31
0.0
  0
ENDBLK
  5
B2
  8
0
  0
BLOCK
  8
0
  2
C54
 70
     0
 10
0.0
 20
0.0
 30
0.0
  3
C54
  1

  0
LINE
  5
B4
  8
ﾚｲﾔ_1
  6
CONTINUOUS
 62
     7
 10
391.631396
 20
-240.9298859999999
 30
0.0
 11
391.631396
 21
-240.33715699999999
 31
0.0
  0
LINE
  5
B5
  8
ﾚｲﾔ_1
  6
CONTINUOUS
 62
     7
 10
391.631396
 20
-240.33715699999999
 30
0.0
 11
390.65040499999992
 21
-240.33715699999999
 31
0.0
  0
LINE
  5
B6
  8
ﾚｲﾔ_1
  6
CONTINUOUS
 62
     7
 10
390.65040499999992
 20
-240.33715699999999
 30
0.0
 11
390.65040499999992
 21
-240.9298859999999
 31
0.0
  0
LINE
  5
B7
  8
ﾚｲﾔ_1
  6
CONTINUOUS
 62
     7
 10
390.65040499999992
 20
-240.9298859999999
 30
0.0
 11
391.631396
 21
-240.9298859999999
 31
0.0
  0
ENDBLK
  5
B9
  8
0
  0
BLOCK
  8
0
  2
C55
 70
     0
 10
0.0
 20
0.0
 30
0.0
  3
C55
  1

  0
LINE
  5
BB
  8
ﾚｲﾔ_1
  6
CONTINUOUS
 62
     7
 10
393.51603599999987
 20
-241.81923699999999
 30
0.0
 11
393.51603599999987
 21
-240.45704599999991
 31
0.0
  0
LINE
  5
BC
  8
ﾚｲﾔ_1
  6
CONTINUOUS
 62
     7
 10
393.51603599999987
 20
-240.45704599999991
 30
0.0
 11
392.04807999999991
 21
-240.45704599999991
 31
0.0
  0
LINE
  5
BD
  8
ﾚｲﾔ_1
  6
CONTINUOUS
 62
     7
 10
392.04807999999991
 20
-240.45704599999991
 30
0.0
 11
392.04807999999991
 21
-241.81923699999999
 31
0.0
  0
LINE
  5
BE
  8
ﾚｲﾔ_1
  6
CONTINUOUS
 62
     7
 10
392.04807999999991
 20
-241.81923699999999
 30
0.0
 11
393.51603599999987
 21
-241.81923699999999
 31
0.0
  0
ENDBLK
  5
C0
  8
0
  0
BLOCK
  8
0
  2
*D22
 70
     1
 10
0.0
 20
0.0
 30
0.0
  3
*D22
  1

  0
LINE
  5
C2
  8
14_寸法１
  6
CONTINUOUS
 62
     0
 10
210.95958998279761
 20
55.17624930103554
 30
0.0
 11
210.95958998279761
 21
86.656946406947981
 31
0.0
  0
LINE
  5
C3
  8
14_寸法１
  6
CONTINUOUS
 62
     0
 10
322.95958998279849
 20
55.176249301036449
 30
0.0
 11
322.95958998279849
 21
86.656946406947981
 31
0.0
  0
LINE
  5
C4
  8
14_寸法１
  6
CONTINUOUS
 62
     0
 10
213.95958998279761
 20
84.116946445094953
 30
0.0
 11
319.95958998279849
 21
84.116946445094953
 31
0.0
  0
INSERT
  5
C5
  8
14_寸法１
  6
CONTINUOUS
 62
     0
  2
_OPEN30
 10
210.95958998279761
 20
84.116946445094953
 30
0.0
 41
3.0
 42
3.0
 43
3.0
 50
180.0
  0
INSERT
  5
C6
  8
14_寸法１
  6
CONTINUOUS
 62
     0
  2
_OPEN30
 10
322.95958998279849
 20
84.116946445094953
 30
0.0
 41
3.0
 42
3.0
 43
3.0
  0
TEXT
  5
C7
  8
0
 62
     0
 10
263.95958998279798
 20
85.116946445094939
 30
0.0
 40
3.0
  1
112
  0
POINT
  5
C8
  8
DEFPOINTS
  6
CONTINUOUS
 62
     0
 10
210.95958998279761
 20
52.636249339182513
 30
0.0
  0
POINT
  5
C9
  8
DEFPOINTS
  6
CONTINUOUS
 62
     0
 10
322.95958998279849
 20
52.636249339183422
 30
0.0
  0
POINT
  5
CA
  8
DEFPOINTS
  6
CONTINUOUS
 62
     0
 10
322.95958998279849
 20
84.116946445094953
 30
0.0
  0
ENDBLK
  5
CC
  8
0
  0
BLOCK
  8
0
  2
*D23
 70
     1
 10
0.0
 20
0.0
 30
0.0
  3
*D23
  1

  0
LINE
  5
CE
  8
14_寸法１
  6
CONTINUOUS
 62
     0
 10
206.9595899827975
 20
64.176458301034017
 30
0.0
 11
206.9595899827975
 21
95.657155406946444
 31
0.0
  0
LINE
  5
CF
  8
14_寸法１
  6
CONTINUOUS
 62
     0
 10
326.95958998279752
 20
64.176458301035836
 30
0.0
 11
326.95958998279752
 21
95.657155406946444
 31
0.0
  0
LINE
  5
D0
  8
14_寸法１
  6
CONTINUOUS
 62
     0
 10
209.9595899827975
 20
93.117155445093431
 30
0.0
 11
323.95958998279752
 21
93.117155445093431
 31
0.0
  0
INSERT
  5
D1
  8
14_寸法１
  6
CONTINUOUS
 62
     0
  2
_OPEN30
 10
206.9595899827975
 20
93.117155445093431
 30
0.0
 41
3.0
 42
3.0
 43
3.0
 50
180.0
  0
INSERT
  5
D2
  8
14_寸法１
  6
CONTINUOUS
 62
     0
  2
_OPEN30
 10
326.95958998279752
 20
93.117155445093431
 30
0.0
 41
3.0
 42
3.0
 43
3.0
  0
TEXT
  5
D3
  8
0
 62
     0
 10
263.70958998279752
 20
94.117155445093431
 30
0.0
 40
3.0
  1
120
  0
POINT
  5
D4
  8
DEFPOINTS
  6
CONTINUOUS
 62
     0
 10
206.9595899827975
 20
61.63645833918099
 30
0.0
  0
POINT
  5
D5
  8
DEFPOINTS
  6
CONTINUOUS
 62
     0
 10
326.95958998279752
 20
61.636458339182802
 30
0.0
  0
POINT
  5
D6
  8
DEFPOINTS
  6
CONTINUOUS
 62
     0
 10
326.95958998279752
 20
93.117155445093431
 30
0.0
  0
ENDBLK
  5
D8
  8
0
  0
BLOCK
  8
0
  2
*D24
 70
     1
 10
0.0
 20
0.0
 30
0.0
  3
*D24
  1

  0
LINE
  5
DA
  8
14_寸法１
  6
CONTINUOUS
 62
     0
 10
218.15103848110741
 20
65.151896339181349
 30
0.0
 11
191.19650102094349
 21
65.151896339181349
 31
0.0
  0
LINE
  5
DB
  8
14_寸法１
  6
CONTINUOUS
 62
     0
 10
218.14801402094341
 20
30.120602339181001
 30
0.0
 11
191.19650102094349
 21
30.120602339181008
 31
0.0
  0
LINE
  5
DC
  8
14_寸法１
  6
CONTINUOUS
 62
     0
 10
193.73650098279651
 20
62.151896339181349
 30
0.0
 11
193.73650098279651
 21
33.120602339181012
 31
0.0
  0
INSERT
  5
DD
  8
14_寸法１
  6
CONTINUOUS
 62
     0
  2
_OPEN30
 10
193.73650098279651
 20
65.151896339181349
 30
0.0
 41
3.0
 42
3.0
 43
3.0
 50
90.0
  0
INSERT
  5
DE
  8
14_寸法１
  6
CONTINUOUS
 62
     0
  2
_OPEN30
 10
193.73650098279651
 20
30.120602339181008
 30
0.0
 41
3.0
 42
3.0
 43
3.0
 50
270.0
  0
TEXT
  5
DF
  8
0
 62
     0
 10
192.73650098279651
 20
45.136249339181198
 30
0.0
 40
3.0
  1
35
 50
90.0
  0
POINT
  5
E0
  8
DEFPOINTS
  6
CONTINUOUS
 62
     0
 10
220.69103844296041
 20
65.151896339181349
 30
0.0
  0
POINT
  5
E1
  8
DEFPOINTS
  6
CONTINUOUS
 62
     0
 10
220.68801398279649
 20
30.120602339181001
 30
0.0
  0
POINT
  5
E2
  8
DEFPOINTS
  6
CONTINUOUS
 62
     0
 10
193.73650098279651
 20
30.120602339181008
 30
0.0
  0
ENDBLK
  5
E4
  8
0
  0
BLOCK
  8
0
  2
*D25
 70
     1
 10
0.0
 20
0.0
 30
0.0
  3
*D25
  1

  0
LINE
  5
E6
  8
寸法
 62
     0
 10
189.79893002135671
 20
78.288012967073215
 30
0.0
 11
207.83490632382521
 21
52.162434491311899
 31
0.0
  0
LINE
  5
E7
  8
寸法
 62
     0
 10
214.08427364176819
 20
43.11006418705324
 30
0.0
 11
215.78864654666171
 21
40.641235922255397
 31
0.0
  0
TEXT
  5
E8
  8
0
 62
     0
 10
190.90593492710491
 20
78.444665891238131
 30
0.0
 40
3.0
  1
\U+22055
 50
304.61953090523298
  0
LINE
  5
E9
  8
寸法
 62
     0
 10
212.37990073687459
 20
45.578892451851061
 30
0.0
 11
209.5392792287187
 21
49.693606226514063
 31
0.0
  0
INSERT
  5
EA
  8
寸法
 62
     0
  2
_OPEN30
 10
212.37990073687459
 20
45.578892451851061
 30
0.0
 41
3.0
 42
3.0
 43
3.0
 50
124.61953090523311
  0
INSERT
  5
EB
  8
寸法
 62
     0
  2
_OPEN30
 10
209.5392792287187
 20
49.693606226514063
 30
0.0
 41
3.0
 42
3.0
 43
3.0
 50
304.61953090523298
  0
POINT
  5
EC
  8
DEFPOINTS
 62
     0
 10
209.5392792287187
 20
49.693606226514063
 30
0.0
  0
POINT
  5
ED
  8
DEFPOINTS
 62
     0
 10
212.37990073687459
 20
45.578892451851061
 30
0.0
  0
ENDBLK
  5
EF
  8
0
  0
BLOCK
  8
0
  2
*D26
 70
     1
 10
0.0
 20
0.0
 30
0.0
  3
*D26
  1

  0
LINE
  5
F1
  8
14_寸法１
  6
CONTINUOUS
 62
     0
 10
328.0026144048154
 20
50.136249339181177
 30
0.0
 11
347.31208563896797
 21
50.13624933918117
 31
0.0
  0
LINE
  5
F2
  8
14_寸法１
  6
CONTINUOUS
 62
     0
 10
327.9995899446514
 20
45.136249339181177
 30
0.0
 11
347.31208563896797
 21
45.13624933918117
 31
0.0
  0
LINE
  5
F3
  8
14_寸法１
  6
CONTINUOUS
 62
     0
 10
344.77208567711489
 20
53.136249339181163
 30
0.0
 11
344.77208567711489
 21
56.13624933918117
 31
0.0
  0
LINE
  5
F4
  8
14_寸法１
  6
CONTINUOUS
 62
     0
 10
344.77208567711489
 20
42.13624933918117
 30
0.0
 11
344.77208567711489
 21
39.136249339181163
 31
0.0
  0
LINE
  5
F5
  8
14_寸法１
  6
CONTINUOUS
 62
     0
 10
344.77208567711489
 20
50.13624933918117
 30
0.0
 11
344.77208567711489
 21
45.13624933918117
 31
0.0
  0
INSERT
  5
F6
  8
14_寸法１
  6
CONTINUOUS
 62
     0
  2
_OPEN30
 10
344.77208567711489
 20
50.13624933918117
 30
0.0
 41
3.0
 42
3.0
 43
3.0
 50
270.0
  0
INSERT
  5
F7
  8
14_寸法１
  6
CONTINUOUS
 62
     0
  2
_OPEN30
 10
344.77208567711489
 20
45.13624933918117
 30
0.0
 41
3.0
 42
3.0
 43
3.0
 50
90.0
  0
TEXT
  5
F8
  8
0
 62
     0
 10
343.772085677115
 20
46.636249339181219
 30
0.0
 40
3.0
  1
5
 50
90.0
  0
POINT
  5
F9
  8
DEFPOINTS
  6
CONTINUOUS
 62
     0
 10
325.46261444296232
 20
50.136249339181177
 30
0.0
  0
POINT
  5
FA
  8
DEFPOINTS
  6
CONTINUOUS
 62
     0
 10
325.45958998279838
 20
45.136249339181177
 30
0.0
  0
POINT
  5
FB
  8
DEFPOINTS
  6
CONTINUOUS
 62
     0
 10
344.77208567711489
 20
45.13624933918117
 30
0.0
  0
ENDBLK
  5
FD
  8
0
  0
BLOCK
  8
0
  2
*D28
 70
     1
 10
0.0
 20
0.0
 30
0.0
  3
*D28
  1

  0
LINE
  5
83D
  8
14_寸法１
  6
CONTINUOUS
 62
     0
 10
104.47248419892981
 20
68.099999957221598
 30
0.0
 11
77.520971198929843
 21
68.099999957221613
 31
0.0
  0
LINE
  5
83E
  8
14_寸法１
  6
CONTINUOUS
 62
     0
 10
94.220955198930596
 20
-0.0000000427778552
 30
0.0
 11
77.520971198929828
 21
-0.0000000427778505
 31
0.0
  0
LINE
  5
83F
  8
14_寸法１
  6
CONTINUOUS
 62
     0
 10
80.06097116078287
 20
65.099999957221613
 30
0.0
 11
80.060971160782856
 21
2.999999957222149
 31
0.0
  0
INSERT
  5
840
  8
14_寸法１
  6
CONTINUOUS
 62
     0
  2
_OPEN30
 10
80.06097116078287
 20
68.099999957221613
 30
0.0
 41
3.0
 42
3.0
 43
3.0
 50
90.0
  0
INSERT
  5
841
  8
14_寸法１
  6
CONTINUOUS
 62
     0
  2
_OPEN30
 10
80.060971160782856
 20
-0.0000000427778512
 30
0.0
 41
3.0
 42
3.0
 43
3.0
 50
270.0
  0
TEXT
  5
842
  8
0
 62
     0
 10
79.060971160782856
 20
30.049999957221889
 30
0.0
 40
3.0
  1
68.1
 50
90.0
  0
POINT
  5
843
  8
DEFPOINTS
  6
CONTINUOUS
 62
     0
 10
107.0124841607828
 20
68.099999957221598
 30
0.0
  0
POINT
  5
844
  8
DEFPOINTS
  6
CONTINUOUS
 62
     0
 10
96.760955160783624
 20
-0.0000000427778559
 30
0.0
  0
POINT
  5
845
  8
DEFPOINTS
  6
CONTINUOUS
 62
     0
 10
80.060971160782856
 20
-0.0000000427778512
 30
0.0
  0
ENDBLK
  5
7FF
  8
0
  0
BLOCK
  8
0
  2
*D29
 70
     1
 10
0.0
 20
0.0
 30
0.0
  3
*D29
  1

  0
LINE
  5
846
  8
14_寸法１
  6
CONTINUOUS
 62
     0
 10
100.76095516078369
 20
141.78902791907569
 30
0.0
 11
100.76095516078369
 21
173.26972502498819
 31
0.0
  0
LINE
  5
847
  8
14_寸法１
  6
CONTINUOUS
 62
     0
 10
212.76095516078459
 20
141.7890279190766
 30
0.0
 11
212.76095516078459
 21
173.26972502498819
 31
0.0
  0
LINE
  5
848
  8
14_寸法１
  6
CONTINUOUS
 62
     0
 10
103.76095516078369
 20
170.72972506313511
 30
0.0
 11
209.76095516078459
 21
170.72972506313511
 31
0.0
  0
INSERT
  5
849
  8
14_寸法１
  6
CONTINUOUS
 62
     0
  2
_OPEN30
 10
100.76095516078369
 20
170.72972506313511
 30
0.0
 41
3.0
 42
3.0
 43
3.0
 50
180.0
  0
INSERT
  5
84A
  8
14_寸法１
  6
CONTINUOUS
 62
     0
  2
_OPEN30
 10
212.76095516078459
 20
170.72972506313511
 30
0.0
 41
3.0
 42
3.0
 43
3.0
  0
TEXT
  5
84B
  8
0
 62
     0
 10
153.76095516078411
 20
171.72972506313511
 30
0.0
 40
3.0
  1
112
  0
POINT
  5
84C
  8
DEFPOINTS
  6
CONTINUOUS
 62
     0
 10
100.76095516078369
 20
139.24902795722269
 30
0.0
  0
POINT
  5
84D
  8
DEFPOINTS
  6
CONTINUOUS
 62
     0
 10
212.76095516078459
 20
139.2490279572236
 30
0.0
  0
POINT
  5
84E
  8
DEFPOINTS
  6
CONTINUOUS
 62
     0
 10
212.76095516078459
 20
170.72972506313511
 30
0.0
  0
ENDBLK
  5
80B
  8
0
  0
BLOCK
  8
0
  2
*D30
 70
     1
 10
0.0
 20
0.0
 30
0.0
  3
*D30
  1

  0
LINE
  5
84F
  8
14_寸法１
  6
CONTINUOUS
 62
     0
 10
96.760955160783624
 20
150.7892369190742
 30
0.0
 11
96.760955160783624
 21
182.2699340249867
 31
0.0
  0
LINE
  5
850
  8
14_寸法１
  6
CONTINUOUS
 62
     0
 10
216.7609551607836
 20
150.78923691907599
 30
0.0
 11
216.7609551607836
 21
182.2699340249867
 31
0.0
  0
LINE
  5
851
  8
14_寸法１
  6
CONTINUOUS
 62
     0
 10
99.760955160783624
 20
179.72993406313361
 30
0.0
 11
213.7609551607836
 21
179.72993406313361
 31
0.0
  0
INSERT
  5
852
  8
14_寸法１
  6
CONTINUOUS
 62
     0
  2
_OPEN30
 10
96.760955160783624
 20
179.72993406313361
 30
0.0
 41
3.0
 42
3.0
 43
3.0
 50
180.0
  0
INSERT
  5
853
  8
14_寸法１
  6
CONTINUOUS
 62
     0
  2
_OPEN30
 10
216.7609551607836
 20
179.72993406313361
 30
0.0
 41
3.0
 42
3.0
 43
3.0
  0
TEXT
  5
854
  8
0
 62
     0
 10
153.5109551607836
 20
180.72993406313361
 30
0.0
 40
3.0
  1
120
  0
POINT
  5
855
  8
DEFPOINTS
  6
CONTINUOUS
 62
     0
 10
96.760955160783624
 20
148.2492369572212
 30
0.0
  0
POINT
  5
856
  8
DEFPOINTS
  6
CONTINUOUS
 62
     0
 10
216.7609551607836
 20
148.24923695722299
 30
0.0
  0
POINT
  5
857
  8
DEFPOINTS
  6
CONTINUOUS
 62
     0
 10
216.7609551607836
 20
179.72993406313361
 30
0.0
  0
ENDBLK
  5
817
  8
0
  0
BLOCK
  8
0
  2
*D31
 70
     1
 10
0.0
 20
0.0
 30
0.0
  3
*D31
  1

  0
LINE
  5
858
  8
14_寸法１
  6
CONTINUOUS
 62
     0
 10
107.95240365909351
 20
151.7646749572215
 30
0.0
 11
80.997866198929614
 21
151.7646749572215
 31
0.0
  0
LINE
  5
859
  8
14_寸法１
  6
CONTINUOUS
 62
     0
 10
107.94937919892951
 20
116.7333809572212
 30
0.0
 11
80.997866198929614
 21
116.7333809572212
 31
0.0
  0
LINE
  5
85A
  8
14_寸法１
  6
CONTINUOUS
 62
     0
 10
83.537866160782656
 20
148.7646749572215
 30
0.0
 11
83.537866160782656
 21
119.7333809572212
 31
0.0
  0
INSERT
  5
85B
  8
14_寸法１
  6
CONTINUOUS
 62
     0
  2
_OPEN30
 10
83.537866160782656
 20
151.7646749572215
 30
0.0
 41
3.0
 42
3.0
 43
3.0
 50
90.0
  0
INSERT
  5
85C
  8
14_寸法１
  6
CONTINUOUS
 62
     0
  2
_OPEN30
 10
83.537866160782656
 20
116.7333809572212
 30
0.0
 41
3.0
 42
3.0
 43
3.0
 50
270.0
  0
TEXT
  5
85D
  8
0
 62
     0
 10
82.537866160782627
 20
131.74902795722139
 30
0.0
 40
3.0
  1
35
 50
90.0
  0
POINT
  5
85E
  8
DEFPOINTS
  6
CONTINUOUS
 62
     0
 10
110.4924036209465
 20
151.7646749572215
 30
0.0
  0
POINT
  5
85F
  8
DEFPOINTS
  6
CONTINUOUS
 62
     0
 10
110.4893791607826
 20
116.7333809572212
 30
0.0
  0
POINT
  5
860
  8
DEFPOINTS
  6
CONTINUOUS
 62
     0
 10
83.537866160782656
 20
116.7333809572212
 30
0.0
  0
ENDBLK
  5
823
  8
0
  0
BLOCK
  8
0
  2
*D32
 70
     1
 10
0.0
 20
0.0
 30
0.0
  3
*D32
  1

  0
LINE
  5
861
  8
寸法
 62
     0
 10
79.316233048527508
 20
165.31226296257989
 30
0.0
 11
97.636271501811336
 21
138.77521310935211
 31
0.0
  0
LINE
  5
862
  8
寸法
 62
     0
 10
103.88563881975431
 20
129.72284280509339
 30
0.0
 11
105.59001172464779
 21
127.2540145402956
 31
0.0
  0
TEXT
  5
863
  8
0
 62
     0
 10
80.707300105091306
 20
165.0574445092785
 30
0.0
 40
3.0
  1
\U+22055
 50
304.61953090523258
  0
LINE
  5
864
  8
寸法
 62
     0
 10
102.1812659148607
 20
132.19167106989121
 30
0.0
 11
99.340644406704897
 21
136.30638484455429
 31
0.0
  0
INSERT
  5
865
  8
寸法
 62
     0
  2
_OPEN30
 10
102.1812659148607
 20
132.19167106989121
 30
0.0
 41
3.0
 42
3.0
 43
3.0
 50
124.61953090523259
  0
INSERT
  5
866
  8
寸法
 62
     0
  2
_OPEN30
 10
99.340644406704897
 20
136.30638484455429
 30
0.0
 41
3.0
 42
3.0
 43
3.0
 50
304.61953090523258
  0
POINT
  5
867
  8
DEFPOINTS
 62
     0
 10
99.340644406704897
 20
136.30638484455429
 30
0.0
  0
POINT
  5
868
  8
DEFPOINTS
 62
     0
 10
102.1812659148607
 20
132.19167106989121
 30
0.0
  0
ENDBLK
  5
82E
  8
0
  0
BLOCK
  8
0
  2
*D33
 70
     1
 10
0.0
 20
0.0
 30
0.0
  3
*D33
  1

  0
LINE
  5
869
  8
14_寸法１
  6
CONTINUOUS
 62
     0
 10
217.8039795828015
 20
136.74902795722139
 30
0.0
 11
237.1134508169541
 21
136.74902795722139
 31
0.0
  0
LINE
  5
86A
  8
14_寸法１
  6
CONTINUOUS
 62
     0
 10
217.8009551226375
 20
131.74902795722139
 30
0.0
 11
237.1134508169541
 21
131.74902795722139
 31
0.0
  0
LINE
  5
86B
  8
14_寸法１
  6
CONTINUOUS
 62
     0
 10
234.57345085510099
 20
139.74902795722139
 30
0.0
 11
234.57345085510099
 21
142.74902795722139
 31
0.0
  0
LINE
  5
86C
  8
14_寸法１
  6
CONTINUOUS
 62
     0
 10
234.57345085510099
 20
128.74902795722139
 30
0.0
 11
234.57345085510099
 21
125.7490279572214
 31
0.0
  0
LINE
  5
86D
  8
14_寸法１
  6
CONTINUOUS
 62
     0
 10
234.57345085510099
 20
136.74902795722139
 30
0.0
 11
234.57345085510099
 21
131.74902795722139
 31
0.0
  0
INSERT
  5
86E
  8
14_寸法１
  6
CONTINUOUS
 62
     0
  2
_OPEN30
 10
234.57345085510099
 20
136.74902795722139
 30
0.0
 41
3.0
 42
3.0
 43
3.0
 50
270.0
  0
INSERT
  5
86F
  8
14_寸法１
  6
CONTINUOUS
 62
     0
  2
_OPEN30
 10
234.57345085510099
 20
131.74902795722139
 30
0.0
 41
3.0
 42
3.0
 43
3.0
 50
90.0
  0
TEXT
  5
870
  8
0
 62
     0
 10
233.57345085510099
 20
133.24902795722139
 30
0.0
 40
3.0
  1
5
 50
90.0
  0
POINT
  5
871
  8
DEFPOINTS
  6
CONTINUOUS
 62
     0
 10
215.26397962094839
 20
136.74902795722139
 30
0.0
  0
POINT
  5
872
  8
DEFPOINTS
  6
CONTINUOUS
 62
     0
 10
215.2609551607845
 20
131.74902795722139
 30
0.0
  0
POINT
  5
873
  8
DEFPOINTS
  6
CONTINUOUS
 62
     0
 10
234.57345085510099
 20
131.74902795722139
 30
0.0
  0
ENDBLK
  5
83C
  8
0
  0
BLOCK
  8
0
  2
*D34
 70
     1
 10
0.0
 20
0.0
 30
0.0
  3
*D34
  1

  0
LINE
  5
876
  8
0
 62
     0
 10
80.372866198929614
 20
151.7646749572215
 30
0.0
 11
53.450103565172988
 21
151.76467495722159
 31
0.0
  0
LINE
  5
877
  8
0
 62
     0
 10
80.372866198929614
 20
116.7333809572212
 30
0.0
 11
53.450103565172981
 21
116.7333809572212
 31
0.0
  0
LINE
  5
878
  8
0
 62
     0
 10
54.700103565172988
 20
149.26467495722159
 30
0.0
 11
54.700103565172981
 21
119.2333809572212
 31
0.0
  0
SOLID
  5
879
  8
0
 62
     0
 10
54.283436898506316
 20
149.26467495722159
 30
0.0
 11
55.116770231839652
 21
149.26467495722159
 31
0.0
 12
54.700103565172988
 22
151.76467495722159
 32
0.0
 13
54.700103565172988
 23
151.76467495722159
 33
0.0
  0
SOLID
  5
87A
  8
0
 62
     0
 10
54.283436898506309
 20
119.2333809572212
 30
0.0
 11
55.116770231839638
 21
119.2333809572212
 31
0.0
 12
54.700103565172981
 22
116.7333809572212
 32
0.0
 13
54.700103565172981
 23
116.7333809572212
 33
0.0
  0
TEXT
  5
87B
  8
0
 62
     0
 10
54.075103565172952
 20
129.4573612905547
 30
0.0
 40
2.5
  1
35.03
 50
90.0
  0
POINT
  5
87C
  8
DEFPOINTS
 62
     0
 10
80.997866198929614
 20
151.7646749572215
 30
0.0
  0
POINT
  5
87D
  8
DEFPOINTS
 62
     0
 10
80.997866198929614
 20
116.7333809572212
 30
0.0
  0
POINT
  5
87E
  8
DEFPOINTS
 62
     0
 10
54.700103565172981
 20
116.7333809572212
 30
0.0
  0
ENDBLK
  5
880
  8
0
  0
BLOCK
  8
0
  2
*D35
 70
     1
 10
0.0
 20
0.0
 30
0.0
  3
*D35
  1

  0
LINE
  5
883
  8
0
 62
     0
 10
96.760955160783624
 20
182.8949340249867
 30
0.0
 11
96.760955160783624
 21
188.17865484736751
 31
0.0
  0
LINE
  5
884
  8
0
 62
     0
 10
216.7609551607836
 20
182.8949340249867
 30
0.0
 11
216.7609551607836
 21
188.17865484736751
 31
0.0
  0
LINE
  5
885
  8
0
 62
     0
 10
99.260955160783624
 20
186.92865484736751
 30
0.0
 11
214.2609551607836
 21
186.92865484736751
 31
0.0
  0
SOLID
  5
886
  8
0
 62
     0
 10
99.260955160783624
 20
187.34532151403411
 30
0.0
 11
99.260955160783624
 21
186.5119881807008
 31
0.0
 12
96.760955160783624
 22
186.92865484736751
 32
0.0
 13
96.760955160783624
 23
186.92865484736751
 33
0.0
  0
SOLID
  5
887
  8
0
 62
     0
 10
214.2609551607836
 20
187.34532151403411
 30
0.0
 11
214.2609551607836
 21
186.5119881807008
 31
0.0
 12
216.7609551607836
 22
186.92865484736751
 32
0.0
 13
216.7609551607836
 23
186.92865484736751
 33
0.0
  0
TEXT
  5
888
  8
0
 62
     0
 10
154.0526218274502
 20
187.55365484736751
 30
0.0
 40
2.5
  1
120
  0
POINT
  5
889
  8
DEFPOINTS
 62
     0
 10
96.760955160783624
 20
182.2699340249867
 30
0.0
  0
POINT
  5
88A
  8
DEFPOINTS
 62
     0
 10
216.7609551607836
 20
182.2699340249867
 30
0.0
  0
POINT
  5
88B
  8
DEFPOINTS
 62
     0
 10
216.7609551607836
 20
186.92865484736751
 30
0.0
  0
ENDBLK
  5
88D
  8
0
  0
ENDSEC
  0
SECTION
  2
ENTITIES
  0
LINE
  5
BFD
  8
追加
  6
CENTER
 62
     5
 10
134.24902847600779
 20
94.640005141747267
 30
0.0
 11
134.24902847600779
 21
104.6400051417472
 31
0.0
  0
LINE
  5
BFE
  8
追加
  6
CENTER
 62
     5
 10
139.24902847600779
 20
99.640005141747267
 30
0.0
 11
129.24902847600779
 21
99.640005141747267
 31
0.0
  0
LINE
  5
BFF
  8
追加
  6
CENTER
 62
     5
 10
134.24902847600691
 20
206.64000514174819
 30
0.0
 11
134.24902847600691
 21
216.64000514174819
 31
0.0
  0
LINE
  5
C00
  8
追加
  6
CENTER
 62
     5
 10
139.24902847600691
 20
211.64000514174811
 30
0.0
 11
129.24902847600691
 21
211.64000514174811
 31
0.0
  0
LINE
  5
C01
  8
0
  6
CONTINUOUS
 10
140.24902847600549
 20
195.69000514174809
 30
0.0
 11
138.0490284760055
 21
195.69000514174809
 31
0.0
  0
LINE
  5
C02
  8
0
  6
CONTINUOUS
 10
140.24902847600549
 20
198.9900051417483
 30
0.0
 11
138.0490284760055
 21
198.9900051417483
 31
0.0
  0
LINE
  5
C03
  8
0
  6
CONTINUOUS
 10
140.24902847600549
 20
198.9900051417483
 30
0.0
 11
140.24902847600549
 21
195.69000514174809
 31
0.0
  0
LINE
  5
C04
  8
0
  6
CONTINUOUS
 10
138.0490284760055
 20
195.69000514174809
 30
0.0
 11
138.0490284760055
 21
198.9900051417483
 31
0.0
  0
LINE
  5
C05
  8
0
 10
139.9490284760054
 20
198.59000514174801
 30
0.0
 11
139.9490284760054
 21
195.9900051417485
 31
0.0
  0
LINE
  5
C06
  8
0
 10
140.24902847600549
 20
198.89000514174819
 30
0.0
 11
140.24902847600549
 21
195.6900051417484
 31
0.0
  0
LINE
  5
C07
  8
0
 10
138.34902847600591
 20
195.9900051417485
 30
0.0
 11
138.34902847600591
 21
198.59000514174801
 31
0.0
  0
LINE
  5
C08
  8
0
 10
138.0490284760057
 20
195.6900051417484
 30
0.0
 11
138.0490284760057
 21
198.89000514174819
 31
0.0
  0
LINE
  5
C09
  8
0
 10
139.9490284760054
 20
195.9900051417485
 30
0.0
 11
138.34902847600591
 21
195.9900051417485
 31
0.0
  0
LINE
  5
C0A
  8
0
 10
140.24902847600549
 20
195.6900051417484
 30
0.0
 11
138.0490284760057
 21
195.6900051417484
 31
0.0
  0
LINE
  5
C0B
  8
0
 10
140.24902847600549
 20
195.6900051417484
 30
0.0
 11
138.0490284760057
 21
195.6900051417484
 31
0.0
  0
LINE
  5
C0C
  8
0
 10
139.9490284760054
 20
198.59000514174801
 30
0.0
 11
138.34902847600591
 21
198.59000514174801
 31
0.0
  0
LINE
  5
C0D
  8
0
  6
DASHED
 10
126.3490284760059
 20
194.7900051417478
 30
0.0
 11
139.9490284760054
 21
194.7900051417478
 31
0.0
  0
LINE
  5
C0E
  8
0
 10
126.8490284760023
 20
175.73000514174831
 30
0.0
 11
139.64902847600339
 21
175.73000514174831
 31
0.0
  0
LINE
  5
C0F
  8
0
 10
126.8490284760023
 20
161.73000514174831
 30
0.0
 11
139.64902847600339
 21
161.73000514174831
 31
0.0
  0
LINE
  5
C10
  8
0
 10
126.8490284760023
 20
175.73000514174831
 30
0.0
 11
126.8490284760023
 21
161.73000514174831
 31
0.0
  0
CIRCLE
  5
C11
  8
0
  6
CONTINUOUS
 10
133.2487704760037
 20
168.7297347179242
 30
0.0
 40
4.4485659999999996
  0
CIRCLE
  5
C12
  8
0
  6
CONTINUOUS
 10
133.2490284760037
 20
168.7297347179242
 30
0.0
 40
5.0298389999999991
  0
CIRCLE
  5
C13
  8
0
  6
CONTINUOUS
 10
133.2490284760037
 20
168.7297347179242
 30
0.0
 40
5.0298389999999991
  0
INSERT
  5
C14
  8
0
  6
CONTINUOUS
  2
C37
 10
-259.1377045239974
 20
407.55656171792509
 30
0.0
  0
LINE
  5
C15
  8
0
  6
CONTINUOUS
 10
134.37833147600341
 20
165.7373247179253
 30
0.0
 11
133.94045947600301
 21
166.11835171792481
 31
0.0
  0
LINE
  5
C16
  8
0
  6
CONTINUOUS
 10
132.910375476003
 20
165.7373247179253
 30
0.0
 11
133.34773047600311
 21
166.11835171792481
 31
0.0
  0
INSERT
  5
C17
  8
0
  6
CONTINUOUS
  2
C38
 10
-259.1377045239974
 20
407.55656171792509
 30
0.0
  0
INSERT
  5
C18
  8
0
  6
CONTINUOUS
  2
C39
 10
-259.1377045239974
 20
407.55656171792509
 30
0.0
  0
INSERT
  5
C19
  8
0
  6
CONTINUOUS
  2
C40
 10
-259.1377045239974
 20
407.55656171792509
 30
0.0
  0
INSERT
  5
C1A
  8
0
  6
CONTINUOUS
  2
C41
 10
-259.1377045239974
 20
407.55656171792509
 30
0.0
  0
LINE
  5
C1B
  8
0
  6
CONTINUOUS
 10
136.12843947600359
 20
170.31757871792391
 30
0.0
 11
135.69056847600359
 21
169.93655171792449
 31
0.0
  0
LINE
  5
C1C
  8
0
  6
CONTINUOUS
 10
134.6604844760036
 20
170.31757871792391
 30
0.0
 11
135.09801147600359
 21
169.93655171792449
 31
0.0
  0
INSERT
  5
C1D
  8
0
  6
CONTINUOUS
  2
C42
 10
-259.1377045239974
 20
407.55656171792509
 30
0.0
  0
INSERT
  5
C1E
  8
0
  6
CONTINUOUS
  2
C43
 10
-259.1377045239974
 20
407.55656171792509
 30
0.0
  0
LINE
  5
C1F
  8
0
  6
CONTINUOUS
 10
134.37833147600341
 20
169.82355271792539
 30
0.0
 11
133.94080447600339
 21
169.4421807179238
 31
0.0
  0
INSERT
  5
C20
  8
0
  6
CONTINUOUS
  2
C44
 10
-259.1377045239974
 20
407.55656171792509
 30
0.0
  0
INSERT
  5
C21
  8
0
  6
CONTINUOUS
  2
C45
 10
-259.1377045239974
 20
407.55656171792509
 30
0.0
  0
LINE
  5
C22
  8
0
  6
CONTINUOUS
 10
132.910375476003
 20
171.64428571792411
 30
0.0
 11
133.34773047600311
 21
171.26291371792419
 31
0.0
  0
LINE
  5
C23
  8
0
  6
CONTINUOUS
 10
134.37833147600341
 20
171.64428571792411
 30
0.0
 11
133.94080447600339
 21
171.26291371792419
 31
0.0
  0
INSERT
  5
C24
  8
0
  6
CONTINUOUS
  2
C46
 10
-259.1377045239974
 20
407.55656171792509
 30
0.0
  0
INSERT
  5
C25
  8
0
  6
CONTINUOUS
  2
C47
 10
-259.1377045239974
 20
407.55656171792509
 30
0.0
  0
LINE
  5
C26
  8
0
  6
CONTINUOUS
 10
131.13201747600351
 20
168.03072471792399
 30
0.0
 11
131.5130454760033
 21
168.46859671792441
 31
0.0
  0
LINE
  5
C27
  8
0
  6
CONTINUOUS
 10
131.13201747600351
 20
169.49867971792401
 30
0.0
 11
131.5130454760033
 21
169.06132471792401
 31
0.0
  0
INSERT
  5
C28
  8
0
  6
CONTINUOUS
  2
C48
 10
-259.1377045239974
 20
407.55656171792509
 30
0.0
  0
INSERT
  5
C29
  8
0
  6
CONTINUOUS
  2
C49
 10
-259.1377045239974
 20
407.55656171792509
 30
0.0
  0
LINE
  5
C2A
  8
0
  6
CONTINUOUS
 10
131.13201747600351
 20
169.87298971792509
 30
0.0
 11
131.5130454760033
 21
170.3105167179252
 31
0.0
  0
LINE
  5
C2B
  8
0
  6
CONTINUOUS
 10
131.13201747600351
 20
171.34059971792479
 30
0.0
 11
131.5130454760033
 21
170.90307271792469
 31
0.0
  0
CIRCLE
  5
C2C
  8
0
  6
CONTINUOUS
 10
133.2487704760037
 20
168.7297347179242
 30
0.0
 40
4.4485659999999996
  0
LINE
  5
C2D
  8
0
  6
CONTINUOUS
 10
132.910375476003
 20
169.82355271792539
 30
0.0
 11
133.34773047600311
 21
169.4421807179238
 31
0.0
  0
INSERT
  5
C2E
  8
0
  6
CONTINUOUS
  2
C51
 10
-259.1377045239974
 20
407.55656171792509
 30
0.0
  0
INSERT
  5
C2F
  8
0
  6
CONTINUOUS
  2
C52
 10
-259.1377045239974
 20
407.55656171792509
 30
0.0
  0
INSERT
  5
C30
  8
0
  6
CONTINUOUS
  2
C53
 10
-259.1377045239974
 20
407.55656171792509
 30
0.0
  0
INSERT
  5
C31
  8
0
  6
CONTINUOUS
  2
C54
 10
-259.1377045239974
 20
407.55656171792509
 30
0.0
  0
LINE
  5
C32
  8
0
  6
CONTINUOUS
 10
131.13201747600351
 20
166.1889767179251
 30
0.0
 11
131.5130454760033
 21
166.62667571792511
 31
0.0
  0
LINE
  5
C33
  8
0
  6
CONTINUOUS
 10
131.13201747600351
 20
167.65693171792509
 30
0.0
 11
131.5130454760033
 21
167.2194047179251
 31
0.0
  0
INSERT
  5
C34
  8
0
  6
CONTINUOUS
  2
C55
 10
-259.1377045239974
 20
407.55656171792509
 30
0.0
  0
LINE
  5
C35
  8
0
  6
CONTINUOUS
 10
136.12843947600359
 20
167.12776471792449
 30
0.0
 11
135.69056847600359
 21
167.50862071792429
 31
0.0
  0
LINE
  5
C36
  8
0
  6
CONTINUOUS
 10
134.6604844760036
 20
167.12776471792449
 30
0.0
 11
135.09801147600359
 21
167.50862071792429
 31
0.0
  0
LINE
  5
C37
  8
0
  6
BYBLOCK
 10
124.9490284760044
 20
131.019922593378
 30
0.0
 11
125.4698605551925
 21
130.31167743774
 31
0.0
  0
LINE
  5
C38
  8
0
  6
BYBLOCK
 10
124.9490284760044
 20
139.90153728310321
 30
0.0
 11
125.4698605551925
 21
140.51167743773979
 31
0.0
  0
LINE
  5
C39
  8
0
  6
BYBLOCK
 10
125.84902847600409
 20
130.81167743774
 30
0.0
 11
125.8490284760059
 21
140.0116774377407
 31
0.0
  0
LINE
  5
C3A
  8
0
  6
BYBLOCK
 10
124.9490284760044
 20
139.90153728310321
 30
0.0
 11
124.9490284760044
 21
131.019922593378
 31
0.0
  0
LINE
  5
C3B
  8
0
  6
BYBLOCK
 10
139.64902847600339
 20
133.65868178845869
 30
0.0
 11
139.64902847600339
 21
140.51167743773979
 31
0.0
  0
LINE
  5
C3C
  8
0
  6
BYBLOCK
 10
139.496032826722
 20
137.01167743773979
 30
0.0
 11
139.64902847600339
 21
137.1646730870203
 31
0.0
  0
LINE
  5
C3D
  8
0
  6
BYBLOCK
 10
139.496032826722
 20
133.81167743774
 30
0.0
 11
139.64902847600339
 21
133.65868178845869
 31
0.0
  0
LINE
  5
C3E
  8
0
  6
BYBLOCK
 10
138.04902847600479
 20
133.81167743774
 30
0.0
 11
139.496032826722
 21
133.81167743774
 31
0.0
  0
LINE
  5
C3F
  8
0
  6
BYBLOCK
 10
138.04902847600479
 20
137.01167743773979
 30
0.0
 11
139.496032826722
 21
137.01167743773979
 31
0.0
  0
LINE
  5
C40
  8
0
  6
BYBLOCK
 10
139.64902847600339
 20
130.31167743774
 30
0.0
 11
137.64902847600331
 21
130.31167743774
 31
0.0
  0
LINE
  5
C41
  8
0
  6
BYBLOCK
 10
139.64902847600339
 20
140.51167743773979
 30
0.0
 11
137.64902847600331
 21
140.51167743773979
 31
0.0
  0
LINE
  5
C42
  8
0
  6
BYBLOCK
 10
139.64902847600339
 20
130.31167743774
 30
0.0
 11
139.64902847600339
 21
133.65868178845869
 31
0.0
  0
LINE
  5
C43
  8
0
  6
BYBLOCK
 10
137.2490284760037
 20
130.81167743774
 30
0.0
 11
125.84902847600409
 21
130.81167743774
 31
0.0
  0
LINE
  5
C44
  8
0
  6
BYBLOCK
 10
125.8490284760059
 20
140.0116774377407
 30
0.0
 11
137.2490284760037
 21
140.01167743773979
 31
0.0
  0
LINE
  5
C45
  8
0
  6
BYBLOCK
 10
125.4698605551925
 20
130.31167743774
 30
0.0
 11
137.64902847600331
 21
130.31167743774
 31
0.0
  0
LINE
  5
C46
  8
0
  6
BYBLOCK
 10
125.4698605551925
 20
140.51167743773979
 30
0.0
 11
137.64902847600331
 21
140.51167743773979
 31
0.0
  0
LINE
  5
C47
  8
0
  6
BYBLOCK
 10
130.34902847600409
 20
131.91167743774039
 30
0.0
 11
130.34902847600409
 21
133.91167743774039
 31
0.0
  0
LINE
  5
C48
  8
0
  6
BYBLOCK
 10
130.34902847600409
 20
133.91167743774039
 30
0.0
 11
130.84902847600409
 21
133.91167743774039
 31
0.0
  0
LINE
  5
C49
  8
0
  6
BYBLOCK
 10
130.34902847600409
 20
131.91167743774039
 30
0.0
 11
130.84902847600409
 21
131.91167743774039
 31
0.0
  0
LINE
  5
C4A
  8
0
  6
BYBLOCK
 10
130.84902847600409
 20
131.91167743774039
 30
0.0
 11
130.84902847600409
 21
133.91167743774039
 31
0.0
  0
LINE
  5
C4B
  8
0
  6
BYBLOCK
 10
130.34902847600409
 20
134.41167743774039
 30
0.0
 11
130.34902847600409
 21
136.41167743774031
 31
0.0
  0
LINE
  5
C4C
  8
0
  6
BYBLOCK
 10
130.34902847600409
 20
136.41167743774031
 30
0.0
 11
130.84902847600409
 21
136.41167743774031
 31
0.0
  0
LINE
  5
C4D
  8
0
  6
BYBLOCK
 10
130.34902847600409
 20
134.41167743774039
 30
0.0
 11
130.84902847600409
 21
134.41167743774039
 31
0.0
  0
LINE
  5
C4E
  8
0
  6
BYBLOCK
 10
130.84902847600409
 20
134.41167743774039
 30
0.0
 11
130.84902847600409
 21
136.41167743774031
 31
0.0
  0
LINE
  5
C4F
  8
0
  6
BYBLOCK
 10
130.84902847600409
 20
136.91167743774031
 30
0.0
 11
130.84902847600409
 21
138.91167743774031
 31
0.0
  0
LINE
  5
C50
  8
0
  6
BYBLOCK
 10
130.34902847600409
 20
136.91167743774031
 30
0.0
 11
130.84902847600409
 21
136.91167743774031
 31
0.0
  0
LINE
  5
C51
  8
0
  6
BYBLOCK
 10
130.34902847600409
 20
138.91167743774031
 30
0.0
 11
130.84902847600409
 21
138.91167743774031
 31
0.0
  0
LINE
  5
C52
  8
0
  6
BYBLOCK
 10
130.34902847600409
 20
136.91167743774031
 30
0.0
 11
130.34902847600409
 21
138.91167743774031
 31
0.0
  0
ARC
  5
C53
  8
0
  6
BYBLOCK
 10
137.2490284760037
 20
131.21167743773961
 30
0.0
 40
0.4
 50
270.0
 51
0.0
  0
ARC
  5
C54
  8
0
  6
BYBLOCK
 10
137.2490284760037
 20
139.61167743774021
 30
0.0
 40
0.4
 50
0.0
 51
89.999999999999986
  0
LINE
  5
C55
  8
0
  6
BYBLOCK
 10
137.64902847600331
 20
139.61167743774021
 30
0.0
 11
137.64902847600331
 21
131.2116774377397
 31
0.0
  0
ARC
  5
C56
  8
0
  6
BYBLOCK
 10
137.64902847600339
 20
130.71167743773961
 30
0.0
 40
0.4
 50
270.0
 51
0.0
  0
ARC
  5
C57
  8
0
  6
BYBLOCK
 10
137.64902847600339
 20
140.1116774377393
 30
0.0
 40
0.4
 50
0.0
 51
89.999999999999986
  0
LINE
  5
C58
  8
0
  6
BYBLOCK
 10
138.04902847600479
 20
140.1116774377393
 30
0.0
 11
138.04902847600479
 21
130.7116774377397
 31
0.0
  0
LINE
  5
C59
  8
0
  6
BYBLOCK
 10
134.34902847600409
 20
136.91167743774031
 30
0.0
 11
134.34902847600409
 21
138.91167743774031
 31
0.0
  0
LINE
  5
C5A
  8
0
  6
BYBLOCK
 10
134.34902847600409
 20
138.91167743774031
 30
0.0
 11
134.84902847600409
 21
138.91167743774031
 31
0.0
  0
LINE
  5
C5B
  8
0
  6
BYBLOCK
 10
134.34902847600409
 20
136.91167743774031
 30
0.0
 11
134.84902847600409
 21
136.91167743774031
 31
0.0
  0
LINE
  5
C5C
  8
0
  6
BYBLOCK
 10
134.84902847600409
 20
136.91167743774031
 30
0.0
 11
134.84902847600409
 21
138.91167743774031
 31
0.0
  0
LINE
  5
C5D
  8
0
  6
BYBLOCK
 10
134.84902847600409
 20
134.41167743774039
 30
0.0
 11
134.84902847600409
 21
136.41167743774031
 31
0.0
  0
LINE
  5
C5E
  8
0
  6
BYBLOCK
 10
134.34902847600409
 20
134.41167743774039
 30
0.0
 11
134.84902847600409
 21
134.41167743774039
 31
0.0
  0
LINE
  5
C5F
  8
0
  6
BYBLOCK
 10
134.34902847600409
 20
136.41167743774031
 30
0.0
 11
134.84902847600409
 21
136.41167743774031
 31
0.0
  0
LINE
  5
C60
  8
0
  6
BYBLOCK
 10
134.34902847600409
 20
134.41167743774039
 30
0.0
 11
134.34902847600409
 21
136.41167743774031
 31
0.0
  0
LINE
  5
C61
  8
0
  6
BYBLOCK
 10
134.84902847600409
 20
131.91167743774039
 30
0.0
 11
134.84902847600409
 21
133.91167743774039
 31
0.0
  0
LINE
  5
C62
  8
0
  6
BYBLOCK
 10
134.34902847600409
 20
131.91167743774039
 30
0.0
 11
134.84902847600409
 21
131.91167743774039
 31
0.0
  0
LINE
  5
C63
  8
0
  6
BYBLOCK
 10
134.34902847600409
 20
133.91167743774039
 30
0.0
 11
134.84902847600409
 21
133.91167743774039
 31
0.0
  0
LINE
  5
C64
  8
0
  6
BYBLOCK
 10
134.34902847600409
 20
131.91167743774039
 30
0.0
 11
134.34902847600409
 21
133.91167743774039
 31
0.0
  0
LINE
  5
C65
  8
0
  6
BYBLOCK
 10
130.81819960448999
 20
192.88000514174831
 30
0.0
 11
130.81819960448999
 21
192.08000514174901
 31
0.0
  0
LINE
  5
C66
  8
0
  6
BYBLOCK
 10
131.79902847600391
 20
179.88000514174809
 30
0.0
 11
131.79902847600391
 21
180.48000514174851
 31
0.0
  0
LINE
  5
C67
  8
0
  6
BYBLOCK
 10
131.79902847600391
 20
180.48000514174851
 30
0.0
 11
132.3990284760043
 21
180.48000514174851
 31
0.0
  0
LINE
  5
C68
  8
0
  6
BYBLOCK
 10
131.79902847600391
 20
179.88000514174809
 30
0.0
 11
132.3990284760043
 21
179.88000514174809
 31
0.0
  0
LINE
  5
C69
  8
0
  6
BYBLOCK
 10
132.3990284760043
 20
179.88000514174809
 30
0.0
 11
132.3990284760043
 21
180.48000514174851
 31
0.0
  0
LINE
  5
C6A
  8
0
  6
BYBLOCK
 10
131.79902847600391
 20
181.88000514174809
 30
0.0
 11
131.79902847600391
 21
182.48000514174851
 31
0.0
  0
LINE
  5
C6B
  8
0
  6
BYBLOCK
 10
131.79902847600391
 20
182.48000514174851
 30
0.0
 11
132.3990284760043
 21
182.48000514174851
 31
0.0
  0
LINE
  5
C6C
  8
0
  6
BYBLOCK
 10
131.79902847600391
 20
181.88000514174809
 30
0.0
 11
132.3990284760043
 21
181.88000514174809
 31
0.0
  0
LINE
  5
C6D
  8
0
  6
BYBLOCK
 10
132.3990284760043
 20
181.88000514174809
 30
0.0
 11
132.3990284760043
 21
182.48000514174851
 31
0.0
  0
LINE
  5
C6E
  8
0
  6
BYBLOCK
 10
131.79902847600391
 20
183.88000514174809
 30
0.0
 11
131.79902847600391
 21
184.48000514174851
 31
0.0
  0
LINE
  5
C6F
  8
0
  6
BYBLOCK
 10
131.79902847600391
 20
184.48000514174851
 30
0.0
 11
132.3990284760043
 21
184.48000514174851
 31
0.0
  0
LINE
  5
C70
  8
0
  6
BYBLOCK
 10
131.79902847600391
 20
183.88000514174809
 30
0.0
 11
132.3990284760043
 21
183.88000514174809
 31
0.0
  0
LINE
  5
C71
  8
0
  6
BYBLOCK
 10
132.3990284760043
 20
183.88000514174809
 30
0.0
 11
132.3990284760043
 21
184.48000514174851
 31
0.0
  0
LINE
  5
C72
  8
0
  6
BYBLOCK
 10
131.79902847600391
 20
185.88000514174809
 30
0.0
 11
131.79902847600391
 21
186.48000514174851
 31
0.0
  0
LINE
  5
C73
  8
0
  6
BYBLOCK
 10
131.79902847600391
 20
186.48000514174851
 30
0.0
 11
132.3990284760043
 21
186.48000514174851
 31
0.0
  0
LINE
  5
C74
  8
0
  6
BYBLOCK
 10
131.79902847600391
 20
185.88000514174809
 30
0.0
 11
132.3990284760043
 21
185.88000514174809
 31
0.0
  0
LINE
  5
C75
  8
0
  6
BYBLOCK
 10
132.3990284760043
 20
185.88000514174809
 30
0.0
 11
132.3990284760043
 21
186.48000514174851
 31
0.0
  0
LINE
  5
C76
  8
0
  6
BYBLOCK
 10
131.79902847600391
 20
187.88000514174809
 30
0.0
 11
131.79902847600391
 21
188.48000514174851
 31
0.0
  0
LINE
  5
C77
  8
0
  6
BYBLOCK
 10
131.79902847600391
 20
188.48000514174851
 30
0.0
 11
132.3990284760043
 21
188.48000514174851
 31
0.0
  0
LINE
  5
C78
  8
0
  6
BYBLOCK
 10
131.79902847600391
 20
187.88000514174809
 30
0.0
 11
132.3990284760043
 21
187.88000514174809
 31
0.0
  0
LINE
  5
C79
  8
0
  6
BYBLOCK
 10
132.3990284760043
 20
187.88000514174809
 30
0.0
 11
132.3990284760043
 21
188.48000514174851
 31
0.0
  0
LINE
  5
C7A
  8
0
  6
BYBLOCK
 10
131.79902847600391
 20
189.88000514174809
 30
0.0
 11
131.79902847600391
 21
190.48000514174851
 31
0.0
  0
LINE
  5
C7B
  8
0
  6
BYBLOCK
 10
131.79902847600391
 20
190.48000514174851
 30
0.0
 11
132.3990284760043
 21
190.48000514174851
 31
0.0
  0
LINE
  5
C7C
  8
0
  6
BYBLOCK
 10
131.79902847600391
 20
189.88000514174809
 30
0.0
 11
132.3990284760043
 21
189.88000514174809
 31
0.0
  0
LINE
  5
C7D
  8
0
  6
BYBLOCK
 10
132.3990284760043
 20
189.88000514174809
 30
0.0
 11
132.3990284760043
 21
190.48000514174851
 31
0.0
  0
LINE
  5
C7E
  8
0
  6
BYBLOCK
 10
136.79902847600391
 20
189.88000514174809
 30
0.0
 11
136.79902847600391
 21
190.48000514174851
 31
0.0
  0
LINE
  5
C7F
  8
0
  6
BYBLOCK
 10
136.79902847600391
 20
190.48000514174851
 30
0.0
 11
137.3990284760043
 21
190.48000514174851
 31
0.0
  0
LINE
  5
C80
  8
0
  6
BYBLOCK
 10
136.79902847600391
 20
189.88000514174809
 30
0.0
 11
137.3990284760043
 21
189.88000514174809
 31
0.0
  0
LINE
  5
C81
  8
0
  6
BYBLOCK
 10
137.3990284760043
 20
189.88000514174809
 30
0.0
 11
137.3990284760043
 21
190.48000514174851
 31
0.0
  0
LINE
  5
C82
  8
0
  6
BYBLOCK
 10
136.79902847600391
 20
187.88000514174809
 30
0.0
 11
136.79902847600391
 21
188.48000514174851
 31
0.0
  0
LINE
  5
C83
  8
0
  6
BYBLOCK
 10
136.79902847600391
 20
188.48000514174851
 30
0.0
 11
137.3990284760043
 21
188.48000514174851
 31
0.0
  0
LINE
  5
C84
  8
0
  6
BYBLOCK
 10
136.79902847600391
 20
187.88000514174809
 30
0.0
 11
137.3990284760043
 21
187.88000514174809
 31
0.0
  0
LINE
  5
C85
  8
0
  6
BYBLOCK
 10
137.3990284760043
 20
187.88000514174809
 30
0.0
 11
137.3990284760043
 21
188.48000514174851
 31
0.0
  0
LINE
  5
C86
  8
0
  6
BYBLOCK
 10
136.79902847600391
 20
185.88000514174809
 30
0.0
 11
136.79902847600391
 21
186.48000514174851
 31
0.0
  0
LINE
  5
C87
  8
0
  6
BYBLOCK
 10
136.79902847600391
 20
186.48000514174851
 30
0.0
 11
137.3990284760043
 21
186.48000514174851
 31
0.0
  0
LINE
  5
C88
  8
0
  6
BYBLOCK
 10
136.79902847600391
 20
185.88000514174809
 30
0.0
 11
137.3990284760043
 21
185.88000514174809
 31
0.0
  0
LINE
  5
C89
  8
0
  6
BYBLOCK
 10
137.3990284760043
 20
185.88000514174809
 30
0.0
 11
137.3990284760043
 21
186.48000514174851
 31
0.0
  0
LINE
  5
C8A
  8
0
  6
BYBLOCK
 10
136.79902847600391
 20
183.88000514174809
 30
0.0
 11
136.79902847600391
 21
184.48000514174851
 31
0.0
  0
LINE
  5
C8B
  8
0
  6
BYBLOCK
 10
136.79902847600391
 20
184.48000514174851
 30
0.0
 11
137.3990284760043
 21
184.48000514174851
 31
0.0
  0
LINE
  5
C8C
  8
0
  6
BYBLOCK
 10
136.79902847600391
 20
183.88000514174809
 30
0.0
 11
137.3990284760043
 21
183.88000514174809
 31
0.0
  0
LINE
  5
C8D
  8
0
  6
BYBLOCK
 10
137.3990284760043
 20
183.88000514174809
 30
0.0
 11
137.3990284760043
 21
184.48000514174851
 31
0.0
  0
LINE
  5
C8E
  8
0
  6
BYBLOCK
 10
136.79902847600391
 20
181.88000514174809
 30
0.0
 11
136.79902847600391
 21
182.48000514174851
 31
0.0
  0
LINE
  5
C8F
  8
0
  6
BYBLOCK
 10
136.79902847600391
 20
182.48000514174851
 30
0.0
 11
137.3990284760043
 21
182.48000514174851
 31
0.0
  0
LINE
  5
C90
  8
0
  6
BYBLOCK
 10
136.79902847600391
 20
181.88000514174809
 30
0.0
 11
137.3990284760043
 21
181.88000514174809
 31
0.0
  0
LINE
  5
C91
  8
0
  6
BYBLOCK
 10
137.3990284760043
 20
181.88000514174809
 30
0.0
 11
137.3990284760043
 21
182.48000514174851
 31
0.0
  0
LINE
  5
C92
  8
0
  6
BYBLOCK
 10
136.79902847600391
 20
179.88000514174809
 30
0.0
 11
136.79902847600391
 21
180.48000514174851
 31
0.0
  0
LINE
  5
C93
  8
0
  6
BYBLOCK
 10
136.79902847600391
 20
180.48000514174851
 30
0.0
 11
137.3990284760043
 21
180.48000514174851
 31
0.0
  0
LINE
  5
C94
  8
0
  6
BYBLOCK
 10
136.79902847600391
 20
179.88000514174809
 30
0.0
 11
137.3990284760043
 21
179.88000514174809
 31
0.0
  0
LINE
  5
C95
  8
0
  6
BYBLOCK
 10
137.3990284760043
 20
179.88000514174809
 30
0.0
 11
137.3990284760043
 21
180.48000514174851
 31
0.0
  0
LINE
  5
C96
  8
0
  6
BYBLOCK
 10
130.81819960448999
 20
178.28000514174849
 30
0.0
 11
130.81819960448999
 21
177.48000514174831
 31
0.0
  0
LINE
  5
C97
  8
0
  6
BYBLOCK
 10
129.94902847600719
 20
182.18054228101801
 30
0.0
 11
127.9490284760072
 21
182.18054228101801
 31
0.0
  0
LINE
  5
C98
  8
0
  6
BYBLOCK
 10
128.94902847600719
 20
182.18054228101801
 30
0.0
 11
128.9490284760036
 21
178.28000514174849
 31
0.0
  0
LINE
  5
C99
  8
0
  6
BYBLOCK
 10
128.1490284760043
 20
177.48000514174831
 30
0.0
 11
128.1490284760043
 21
182.18054228101801
 31
0.0
  0
LINE
  5
C9A
  8
0
  6
BYBLOCK
 10
128.69902847600719
 20
185.18054228101801
 30
0.0
 11
128.69902847600719
 21
184.18054228101801
 31
0.0
  0
LINE
  5
C9B
  8
0
  6
BYBLOCK
 10
128.69902847600719
 20
184.18054228101801
 30
0.0
 11
128.44902847600719
 21
184.1805422810171
 31
0.0
  0
LINE
  5
C9C
  8
0
  6
BYBLOCK
 10
129.94902847600719
 20
183.18054228101801
 30
0.0
 11
128.44902847600719
 21
183.18054228101801
 31
0.0
  0
LINE
  5
C9D
  8
0
  6
BYBLOCK
 10
128.44902847600719
 20
183.18054228101801
 30
0.0
 11
128.44902847600719
 21
185.18054228101801
 31
0.0
  0
LINE
  5
C9E
  8
0
  6
BYBLOCK
 10
129.94902847600719
 20
183.18054228101801
 30
0.0
 11
129.94902847600719
 21
182.18054228101801
 31
0.0
  0
LINE
  5
C9F
  8
0
  6
BYBLOCK
 10
127.9490284760072
 20
182.18054228101801
 30
0.0
 11
127.9490284760072
 21
185.18054228101801
 31
0.0
  0
LINE
  5
CA0
  8
0
  6
BYBLOCK
 10
129.94902847600719
 20
187.68054228101801
 30
0.0
 11
128.44902847600719
 21
187.68054228101801
 31
0.0
  0
LINE
  5
CA1
  8
0
  6
BYBLOCK
 10
128.69902847600719
 20
186.1805422810171
 30
0.0
 11
128.44902847600719
 21
186.1805422810171
 31
0.0
  0
LINE
  5
CA2
  8
0
  6
BYBLOCK
 10
128.69902847600719
 20
185.1805422810171
 30
0.0
 11
128.69902847600719
 21
186.1805422810171
 31
0.0
  0
LINE
  5
CA3
  8
0
  6
BYBLOCK
 10
128.44902847600719
 20
187.68054228101801
 30
0.0
 11
128.44902847600719
 21
185.1805422810171
 31
0.0
  0
LINE
  5
CA4
  8
0
  6
BYBLOCK
 10
127.9490284760072
 20
188.68054228101801
 30
0.0
 11
127.9490284760072
 21
185.1805422810171
 31
0.0
  0
LINE
  5
CA5
  8
0
  6
BYBLOCK
 10
129.94902847600719
 20
188.68054228101801
 30
0.0
 11
127.9490284760072
 21
188.68054228101801
 31
0.0
  0
LINE
  5
CA6
  8
0
  6
BYBLOCK
 10
129.94902847600719
 20
187.68054228101801
 30
0.0
 11
129.94902847600719
 21
188.68054228101801
 31
0.0
  0
LINE
  5
CA7
  8
0
  6
BYBLOCK
 10
128.94902847600719
 20
188.68054228101801
 30
0.0
 11
128.9490284760036
 21
192.0800051417481
 31
0.0
  0
LINE
  5
CA8
  8
0
  6
BYBLOCK
 10
128.9490284760036
 20
178.28000514174849
 30
0.0
 11
139.6490284760043
 21
178.28000514174849
 31
0.0
  0
LINE
  5
CA9
  8
0
  6
BYBLOCK
 10
128.9490284760036
 20
192.0800051417481
 30
0.0
 11
139.6490284760043
 21
192.0800051417481
 31
0.0
  0
LINE
  5
CAA
  8
0
  6
BYBLOCK
 10
128.1490284760043
 20
192.88000514174831
 30
0.0
 11
128.1490284760043
 21
188.68054228101801
 31
0.0
  0
LINE
  5
CAB
  8
0
  6
BYBLOCK
 10
128.1490284760043
 20
177.48000514174831
 30
0.0
 11
139.6490284760043
 21
177.48000514174831
 31
0.0
  0
LINE
  5
CAC
  8
0
  6
BYBLOCK
 10
128.1490284760043
 20
192.88000514174831
 30
0.0
 11
139.6490284760043
 21
192.88000514174831
 31
0.0
  0
LINE
  5
CAD
  8
0
  6
BYBLOCK
 10
138.37582514818081
 20
116.4100051417487
 30
0.0
 11
138.37582514818081
 21
114.4100051417487
 31
0.0
  0
LINE
  5
CAE
  8
0
 10
139.64902847600521
 20
112.36793444052419
 30
0.0
 11
139.64902847600521
 21
121.7879344405243
 31
0.0
  0
LINE
  5
CAF
  8
0
  6
BYBLOCK
 10
138.64902847600521
 20
114.1400051417482
 30
0.0
 11
138.64902847600521
 21
129.38000514174891
 31
0.0
  0
LINE
  5
CB0
  8
0
  6
BYBLOCK
 10
138.37582514818081
 20
124.0300051417486
 30
0.0
 11
138.37582514818081
 21
122.0300051417485
 31
0.0
  0
LINE
  5
CB1
  8
0
  6
BYBLOCK
 10
138.37582514818081
 20
118.9500051417486
 30
0.0
 11
138.37582514818081
 21
116.9500051417486
 31
0.0
  0
LINE
  5
CB2
  8
0
  6
BYBLOCK
 10
138.37582514818081
 20
121.4900051417486
 30
0.0
 11
138.37582514818081
 21
119.4900051417486
 31
0.0
  0
LINE
  5
CB3
  8
0
 10
131.74315812923069
 20
114.1400051417482
 30
0.0
 11
131.74315812923069
 21
117.9500051417486
 31
0.0
  0
LINE
  5
CB4
  8
0
 10
131.74315812923069
 20
117.9500051417486
 30
0.0
 11
131.74315812923069
 21
129.38000514174891
 31
0.0
  0
LINE
  5
CB5
  8
0
 10
131.14902847600521
 20
121.7600051417481
 30
0.0
 11
129.64902847600521
 21
121.7600051417481
 31
0.0
  0
LINE
  5
CB6
  8
0
 10
129.64902847600521
 20
121.7600051417481
 30
0.0
 11
131.14902847600521
 21
121.7600051417481
 31
0.0
  0
LINE
  5
CB7
  8
0
 10
129.64902847600521
 20
124.3000051417481
 30
0.0
 11
131.14902847600521
 21
124.3000051417481
 31
0.0
  0
LINE
  5
CB8
  8
0
 10
131.14902847600521
 20
124.3000051417481
 30
0.0
 11
129.64902847600521
 21
124.3000051417481
 31
0.0
  0
LINE
  5
CB9
  8
0
 10
135.68747670005851
 20
114.7320758429729
 30
0.0
 11
135.68747670005851
 21
116.0320758429722
 31
0.0
  0
LINE
  5
CBA
  8
0
  6
BYBLOCK
 10
132.68747670005851
 20
116.0320758429722
 30
0.0
 11
132.68747670005851
 21
114.7320758429729
 31
0.0
  0
ARC
  5
CBB
  8
0
 10
133.69176503406689
 20
115.5846021252533
 30
0.0
 40
0.6750000000000079
 50
213.74898859589939
 51
326.2510114041005
  0
ARC
  5
CBC
  8
0
 10
133.69176503406689
 20
115.5846021252533
 30
0.0
 40
0.5624999999999976
 50
221.81031489579769
 51
318.18968510420171
  0
LINE
  5
CBD
  8
0
 10
135.68747670005851
 20
115.0350051417487
 30
0.0
 11
135.68747670005851
 21
115.7850051417487
 31
0.0
  0
LINE
  5
CBE
  8
0
  6
BYBLOCK
 10
136.37582514818081
 20
114.4100051417487
 30
0.0
 11
136.37582514818081
 21
116.4100051417487
 31
0.0
  0
LINE
  5
CBF
  8
0
  6
BYBLOCK
 10
132.68747670005851
 20
114.7320758429729
 30
0.0
 11
135.68747670005851
 21
114.7320758429729
 31
0.0
  0
LINE
  5
CC0
  8
0
 10
134.25301364208229
 20
120.6904081582439
 30
0.0
 11
135.68747670005851
 21
120.6904081582439
 31
0.0
  0
LINE
  5
CC1
  8
0
 10
132.9150285032951
 20
120.6904081582439
 30
0.0
 11
133.27250228828541
 21
120.6904081582439
 31
0.0
  0
ARC
  5
CC2
  8
0
 10
133.69176503406689
 20
120.3154081582439
 30
0.0
 40
0.6750000000000079
 50
33.748988595899391
 51
146.25101140410061
  0
ARC
  5
CC3
  8
0
 10
133.69176503406689
 20
120.3154081582439
 30
0.0
 40
0.5624999999999976
 50
41.810314895798292
 51
138.18968510419899
  0
LINE
  5
CC4
  8
0
  6
BYBLOCK
 10
132.68747670005851
 20
121.1120758429721
 30
0.0
 11
135.68747670005851
 21
121.1120758429721
 31
0.0
  0
LINE
  5
CC5
  8
0
  6
BYBLOCK
 10
136.37582514818081
 20
122.0300051417485
 30
0.0
 11
136.37582514818081
 21
124.0300051417486
 31
0.0
  0
LINE
  5
CC6
  8
0
  6
BYBLOCK
 10
132.68747670005851
 20
123.65207584297291
 30
0.0
 11
135.68747670005851
 21
123.65207584297291
 31
0.0
  0
LINE
  5
CC7
  8
0
  6
BYBLOCK
 10
132.68747670005851
 20
122.35207584297279
 30
0.0
 11
135.68747670005851
 21
122.35207584297279
 31
0.0
  0
ARC
  5
CC8
  8
0
 10
133.69176503406689
 20
122.8554081582438
 30
0.0
 40
0.5624999999999976
 50
41.810314895798292
 51
138.18968510419899
  0
ARC
  5
CC9
  8
0
 10
133.69176503406689
 20
122.8554081582438
 30
0.0
 40
0.6750000000000079
 50
33.748988595899391
 51
146.25101140410061
  0
LINE
  5
CCA
  8
0
 10
132.9150285032951
 20
123.2304081582439
 30
0.0
 11
133.27250228828541
 21
123.2304081582439
 31
0.0
  0
LINE
  5
CCB
  8
0
 10
134.25301364208229
 20
123.2304081582439
 30
0.0
 11
135.68747670005851
 21
123.2304081582439
 31
0.0
  0
LINE
  5
CCC
  8
0
  6
BYBLOCK
 10
132.68747670005851
 20
123.65207584297291
 30
0.0
 11
132.68747670005851
 21
122.35207584297279
 31
0.0
  0
LINE
  5
CCD
  8
0
 10
135.68747670005851
 20
122.35207584297279
 30
0.0
 11
135.68747670005851
 21
123.65207584297291
 31
0.0
  0
LINE
  5
CCE
  8
0
 10
134.25301364208229
 20
122.8296021252532
 30
0.0
 11
135.68747670005851
 21
122.8296021252532
 31
0.0
  0
LINE
  5
CCF
  8
0
 10
132.9150285032951
 20
122.8296021252532
 30
0.0
 11
133.27250228828541
 21
122.8296021252532
 31
0.0
  0
ARC
  5
CD0
  8
0
 10
133.69176503406689
 20
123.2046021252532
 30
0.0
 40
0.5624999999999976
 50
221.81031489579769
 51
318.18968510420171
  0
ARC
  5
CD1
  8
0
 10
133.69176503406689
 20
123.2046021252532
 30
0.0
 40
0.6750000000000079
 50
213.74898859589939
 51
326.2510114041005
  0
LINE
  5
CD2
  8
0
 10
135.68747670005851
 20
122.6550051417486
 30
0.0
 11
135.68747670005851
 21
123.4050051417486
 31
0.0
  0
LINE
  5
CD3
  8
0
 10
132.9150285032951
 20
122.8296021252532
 30
0.0
 11
132.9150285032951
 21
123.2304081582439
 31
0.0
  0
ARC
  5
CD4
  8
0
 10
133.69176503406689
 20
120.6646021252532
 30
0.0
 40
0.6750000000000079
 50
213.74898859589939
 51
326.2510114041005
  0
ARC
  5
CD5
  8
0
 10
133.69176503406689
 20
120.6646021252532
 30
0.0
 40
0.5624999999999976
 50
221.81031489579769
 51
318.18968510420171
  0
LINE
  5
CD6
  8
0
 10
132.9150285032951
 20
120.2896021252533
 30
0.0
 11
133.27250228828541
 21
120.2896021252533
 31
0.0
  0
LINE
  5
CD7
  8
0
 10
134.25301364208229
 20
120.2896021252533
 30
0.0
 11
135.68747670005851
 21
120.2896021252533
 31
0.0
  0
LINE
  5
CD8
  8
0
  6
BYBLOCK
 10
132.68747670005851
 20
119.8120758429728
 30
0.0
 11
135.68747670005851
 21
119.8120758429728
 31
0.0
  0
LINE
  5
CD9
  8
0
 10
135.68747670005851
 20
117.2720758429729
 30
0.0
 11
135.68747670005851
 21
118.57207584297301
 31
0.0
  0
LINE
  5
CDA
  8
0
  6
BYBLOCK
 10
132.68747670005851
 20
118.57207584297301
 30
0.0
 11
132.68747670005851
 21
117.2720758429729
 31
0.0
  0
LINE
  5
CDB
  8
0
 10
132.9150285032951
 20
117.74960212525239
 30
0.0
 11
132.9150285032951
 21
118.15040815824401
 31
0.0
  0
LINE
  5
CDC
  8
0
  6
BYBLOCK
 10
132.68747670005851
 20
118.57207584297301
 30
0.0
 11
135.68747670005851
 21
118.57207584297301
 31
0.0
  0
LINE
  5
CDD
  8
0
  6
BYBLOCK
 10
132.68747670005851
 20
117.2720758429729
 30
0.0
 11
135.68747670005851
 21
117.2720758429729
 31
0.0
  0
ARC
  5
CDE
  8
0
 10
133.69176503406689
 20
117.77540815824391
 30
0.0
 40
0.5624999999999976
 50
41.810314895798292
 51
138.18968510419899
  0
ARC
  5
CDF
  8
0
 10
133.69176503406689
 20
117.77540815824391
 30
0.0
 40
0.6750000000000079
 50
33.748988595899391
 51
146.25101140410061
  0
LINE
  5
CE0
  8
0
 10
132.9150285032951
 20
118.15040815824401
 30
0.0
 11
133.27250228828541
 21
118.15040815824401
 31
0.0
  0
LINE
  5
CE1
  8
0
 10
134.25301364208229
 20
118.15040815824401
 30
0.0
 11
135.68747670005851
 21
118.15040815824401
 31
0.0
  0
LINE
  5
CE2
  8
0
 10
134.25301364208229
 20
117.74960212525239
 30
0.0
 11
135.68747670005851
 21
117.74960212525239
 31
0.0
  0
LINE
  5
CE3
  8
0
 10
132.9150285032951
 20
117.74960212525239
 30
0.0
 11
133.27250228828541
 21
117.74960212525239
 31
0.0
  0
ARC
  5
CE4
  8
0
 10
133.69176503406689
 20
118.1246021252523
 30
0.0
 40
0.6750000000000079
 50
213.74898859589939
 51
326.2510114041005
  0
ARC
  5
CE5
  8
0
 10
133.69176503406689
 20
118.1246021252523
 30
0.0
 40
0.5624999999999976
 50
221.81031489579769
 51
318.18968510420171
  0
LINE
  5
CE6
  8
0
 10
135.68747670005851
 20
117.5750051417486
 30
0.0
 11
135.68747670005851
 21
118.3250051417486
 31
0.0
  0
LINE
  5
CE7
  8
0
  6
BYBLOCK
 10
136.37582514818081
 20
116.9500051417486
 30
0.0
 11
136.37582514818081
 21
118.9500051417486
 31
0.0
  0
LINE
  5
CE8
  8
0
 10
132.9150285032951
 20
115.2096021252533
 30
0.0
 11
132.9150285032951
 21
115.610408158244
 31
0.0
  0
LINE
  5
CE9
  8
0
  6
BYBLOCK
 10
132.68747670005851
 20
116.0320758429722
 30
0.0
 11
135.68747670005851
 21
116.0320758429722
 31
0.0
  0
ARC
  5
CEA
  8
0
 10
133.69176503406689
 20
115.2354081582439
 30
0.0
 40
0.5624999999999976
 50
41.810314895798292
 51
138.18968510419899
  0
ARC
  5
CEB
  8
0
 10
133.69176503406689
 20
115.2354081582439
 30
0.0
 40
0.6750000000000079
 50
33.748988595899391
 51
146.25101140410061
  0
LINE
  5
CEC
  8
0
 10
132.9150285032951
 20
115.610408158244
 30
0.0
 11
133.27250228828541
 21
115.610408158244
 31
0.0
  0
LINE
  5
CED
  8
0
 10
134.25301364208229
 20
115.610408158244
 30
0.0
 11
135.68747670005851
 21
115.610408158244
 31
0.0
  0
LINE
  5
CEE
  8
0
 10
134.25301364208229
 20
115.2096021252533
 30
0.0
 11
135.68747670005851
 21
115.2096021252533
 31
0.0
  0
LINE
  5
CEF
  8
0
 10
132.9150285032951
 20
115.2096021252533
 30
0.0
 11
133.27250228828541
 21
115.2096021252533
 31
0.0
  0
LINE
  5
CF0
  8
0
 10
132.9150285032951
 20
120.2896021252533
 30
0.0
 11
132.9150285032951
 21
120.6904081582439
 31
0.0
  0
LINE
  5
CF1
  8
0
 10
135.68747670005851
 20
120.1150051417486
 30
0.0
 11
135.68747670005851
 21
120.8650051417486
 31
0.0
  0
LINE
  5
CF2
  8
0
 10
135.68747670005851
 20
119.8120758429728
 30
0.0
 11
135.68747670005851
 21
121.1120758429721
 31
0.0
  0
LINE
  5
CF3
  8
0
  6
BYBLOCK
 10
132.68747670005851
 20
121.1120758429721
 30
0.0
 11
132.68747670005851
 21
119.8120758429728
 31
0.0
  0
LINE
  5
CF4
  8
0
  6
BYBLOCK
 10
136.37582514818081
 20
119.4900051417486
 30
0.0
 11
136.37582514818081
 21
121.4900051417486
 31
0.0
  0
LINE
  5
CF5
  8
0
 10
129.64902847600521
 20
112.6400051417482
 30
0.0
 11
139.64902847600521
 21
112.6400051417482
 31
0.0
  0
LINE
  5
CF6
  8
0
 10
139.64902847600521
 20
114.1400051417482
 30
0.0
 11
129.64902847600521
 21
114.1400051417482
 31
0.0
  0
LINE
  5
CF7
  8
0
 10
129.64902847600521
 20
114.1400051417482
 30
0.0
 11
139.64902847600521
 21
114.1400051417482
 31
0.0
  0
LINE
  5
CF8
  8
0
 10
129.64902847600521
 20
121.7600051417481
 30
0.0
 11
139.64902847600521
 21
121.7600051417481
 31
0.0
  0
LINE
  5
CF9
  8
0
 10
139.64902847600521
 20
121.7600051417481
 30
0.0
 11
129.64902847600521
 21
121.7600051417481
 31
0.0
  0
LINE
  5
CFA
  8
0
 10
129.64902847600521
 20
119.2200051417481
 30
0.0
 11
139.64902847600521
 21
119.2200051417481
 31
0.0
  0
LINE
  5
CFB
  8
0
 10
139.64902847600521
 20
119.2200051417481
 30
0.0
 11
129.64902847600521
 21
119.2200051417481
 31
0.0
  0
LINE
  5
CFC
  8
0
 10
129.64902847600521
 20
116.6800051417482
 30
0.0
 11
139.64902847600521
 21
116.6800051417482
 31
0.0
  0
LINE
  5
CFD
  8
0
 10
139.64902847600521
 20
116.6800051417482
 30
0.0
 11
129.64902847600521
 21
116.6800051417482
 31
0.0
  0
LINE
  5
CFE
  8
0
 10
139.64902847600521
 20
121.76000514174901
 30
0.0
 11
129.64902847600521
 21
121.76000514174901
 31
0.0
  0
LINE
  5
CFF
  8
0
 10
129.64902847600521
 20
121.76000514174901
 30
0.0
 11
139.64902847600521
 21
121.76000514174901
 31
0.0
  0
LINE
  5
D00
  8
0
 10
139.64902847600521
 20
124.3000051417481
 30
0.0
 11
129.64902847600521
 21
124.3000051417481
 31
0.0
  0
LINE
  5
D01
  8
0
 10
129.64902847600521
 20
124.3000051417481
 30
0.0
 11
139.64902847600521
 21
124.3000051417481
 31
0.0
  0
POLYLINE
  5
D02
  8
0
  6
BYBLOCK
 66
     1
 10
0.0
 20
0.0
 30
0.0
 70
     1
  0
VERTEX
  5
FD9
  8
0
  6
BYBLOCK
 10
136.66366794864319
 20
114.7269973989483
 30
0.0
  0
VERTEX
  5
FDA
  8
0
  6
BYBLOCK
 10
136.66366794864319
 20
116.0836158072803
 30
0.0
  0
VERTEX
  5
FDB
  8
0
  6
BYBLOCK
 10
138.06020482130899
 20
116.0836158072803
 30
0.0
  0
VERTEX
  5
FDC
  8
0
  6
BYBLOCK
 10
138.06020482130899
 20
114.7269973989483
 30
0.0
  0
SEQEND
  5
FDD
  8
0
  6
BYBLOCK
  0
LINE
  5
D03
  8
0
  6
BYBLOCK
 10
138.37582514818081
 20
114.4100051417487
 30
0.0
 11
136.37582514818081
 21
114.4100051417487
 31
0.0
  0
LINE
  5
D04
  8
0
 10
135.4490284760044
 20
121.7600051417481
 30
0.0
 11
139.64902847600521
 21
121.7600051417481
 31
0.0
  0
LINE
  5
D05
  8
0
  6
BYBLOCK
 10
136.37582514818081
 20
121.4900051417486
 30
0.0
 11
138.37582514818081
 21
121.4900051417486
 31
0.0
  0
POLYLINE
  5
D06
  8
0
  6
BYBLOCK
 66
     1
 10
0.0
 20
0.0
 30
0.0
 70
     1
  0
VERTEX
  5
FDE
  8
0
  6
BYBLOCK
 10
136.66366794864319
 20
122.3469973989482
 30
0.0
  0
VERTEX
  5
FDF
  8
0
  6
BYBLOCK
 10
136.66366794864319
 20
123.7036158072802
 30
0.0
  0
VERTEX
  5
FE0
  8
0
  6
BYBLOCK
 10
138.06020482130899
 20
123.7036158072802
 30
0.0
  0
VERTEX
  5
FE1
  8
0
  6
BYBLOCK
 10
138.06020482130899
 20
122.3469973989482
 30
0.0
  0
SEQEND
  5
FE2
  8
0
  6
BYBLOCK
  0
LINE
  5
D07
  8
0
  6
BYBLOCK
 10
136.37582514818081
 20
124.0300051417486
 30
0.0
 11
138.37582514818081
 21
124.0300051417486
 31
0.0
  0
LINE
  5
D08
  8
0
  6
BYBLOCK
 10
138.37582514818081
 20
122.0300051417485
 30
0.0
 11
136.37582514818081
 21
122.0300051417485
 31
0.0
  0
LINE
  5
D09
  8
0
 10
135.4490284760044
 20
124.3000051417481
 30
0.0
 11
139.64902847600521
 21
124.3000051417481
 31
0.0
  0
LINE
  5
D0A
  8
0
  6
BYBLOCK
 10
138.37582514818081
 20
119.4900051417486
 30
0.0
 11
136.37582514818081
 21
119.4900051417486
 31
0.0
  0
POLYLINE
  5
D0B
  8
0
  6
BYBLOCK
 66
     1
 10
0.0
 20
0.0
 30
0.0
 70
     1
  0
VERTEX
  5
FE3
  8
0
  6
BYBLOCK
 10
136.66366794864319
 20
117.26699739894831
 30
0.0
  0
VERTEX
  5
FE4
  8
0
  6
BYBLOCK
 10
136.66366794864319
 20
118.6236158072803
 30
0.0
  0
VERTEX
  5
FE5
  8
0
  6
BYBLOCK
 10
138.06020482130899
 20
118.6236158072803
 30
0.0
  0
VERTEX
  5
FE6
  8
0
  6
BYBLOCK
 10
138.06020482130899
 20
117.26699739894831
 30
0.0
  0
SEQEND
  5
FE7
  8
0
  6
BYBLOCK
  0
LINE
  5
D0C
  8
0
  6
BYBLOCK
 10
136.37582514818081
 20
118.9500051417486
 30
0.0
 11
138.37582514818081
 21
118.9500051417486
 31
0.0
  0
LINE
  5
D0D
  8
0
  6
BYBLOCK
 10
138.37582514818081
 20
116.9500051417486
 30
0.0
 11
136.37582514818081
 21
116.9500051417486
 31
0.0
  0
LINE
  5
D0E
  8
0
  6
BYBLOCK
 10
136.37582514818081
 20
116.4100051417487
 30
0.0
 11
138.37582514818081
 21
116.4100051417487
 31
0.0
  0
POLYLINE
  5
D0F
  8
0
  6
BYBLOCK
 66
     1
 10
0.0
 20
0.0
 30
0.0
 70
     1
  0
VERTEX
  5
FE8
  8
0
  6
BYBLOCK
 10
136.66366794864319
 20
119.8069973989483
 30
0.0
  0
VERTEX
  5
FE9
  8
0
  6
BYBLOCK
 10
136.66366794864319
 20
121.16361580728029
 30
0.0
  0
VERTEX
  5
FEA
  8
0
  6
BYBLOCK
 10
138.06020482130899
 20
121.16361580728029
 30
0.0
  0
VERTEX
  5
FEB
  8
0
  6
BYBLOCK
 10
138.06020482130899
 20
119.8069973989483
 30
0.0
  0
SEQEND
  5
FEC
  8
0
  6
BYBLOCK
  0
LINE
  5
D10
  8
0
 10
134.6490284760024
 20
159.98000514174831
 30
0.0
 11
139.6490284760024
 21
159.98000514174831
 31
0.0
  0
LINE
  5
D11
  8
0
 10
134.6490284760024
 20
142.0800051417487
 30
0.0
 11
139.6490284760024
 21
142.0800051417487
 31
0.0
  0
LINE
  5
D12
  8
0
 10
136.3990284760024
 20
155.78000514174849
 30
0.0
 11
136.3990284760024
 21
156.28000514174849
 31
0.0
  0
LINE
  5
D13
  8
0
 10
135.8990284760024
 20
156.28000514174849
 30
0.0
 11
135.8990284760024
 21
155.78000514174849
 31
0.0
  0
LINE
  5
D14
  8
0
 10
136.2390284760026
 20
155.93995314550611
 30
0.0
 11
136.1490284760024
 21
155.93995314550611
 31
0.0
  0
LINE
  5
D15
  8
0
 10
136.2390284760026
 20
155.93995314550611
 30
0.0
 11
136.1490284760024
 21
155.93995314550611
 31
0.0
  0
LINE
  5
D16
  8
0
 10
136.0590284760041
 20
155.93995314550611
 30
0.0
 11
136.1490284760024
 21
155.93995314550611
 31
0.0
  0
LINE
  5
D17
  8
0
 10
136.0590284760041
 20
155.93995314550611
 30
0.0
 11
136.1490284760024
 21
155.93995314550611
 31
0.0
  0
LINE
  5
D18
  8
0
 10
136.2390284760026
 20
156.1200571379909
 30
0.0
 11
136.1490284760024
 21
156.1200571379909
 31
0.0
  0
LINE
  5
D19
  8
0
 10
136.0590284760041
 20
156.1200571379909
 30
0.0
 11
136.1490284760024
 21
156.1200571379909
 31
0.0
  0
LINE
  5
D1A
  8
0
 10
136.2390284760026
 20
156.1200571379909
 30
0.0
 11
136.2390284760026
 21
155.93995314550611
 31
0.0
  0
LINE
  5
D1B
  8
0
 10
136.0590284760041
 20
156.1200571379909
 30
0.0
 11
136.0590284760041
 21
155.93995314550611
 31
0.0
  0
LINE
  5
D1C
  8
0
 10
135.8990284760024
 20
155.78000514174849
 30
0.0
 11
136.3990284760024
 21
155.78000514174849
 31
0.0
  0
LINE
  5
D1D
  8
0
 10
136.3990284760024
 20
157.78000514174849
 30
0.0
 11
136.3990284760024
 21
158.28000514174849
 31
0.0
  0
LINE
  5
D1E
  8
0
 10
135.8990284760024
 20
158.28000514174849
 30
0.0
 11
135.8990284760024
 21
157.78000514174849
 31
0.0
  0
LINE
  5
D1F
  8
0
 10
135.8990284760024
 20
157.78000514174849
 30
0.0
 11
136.3990284760024
 21
157.78000514174849
 31
0.0
  0
LINE
  5
D20
  8
0
 10
136.0590284760041
 20
158.1200571379909
 30
0.0
 11
136.0590284760041
 21
157.93995314550611
 31
0.0
  0
LINE
  5
D21
  8
0
 10
136.0590284760041
 20
157.93995314550611
 30
0.0
 11
136.1490284760024
 21
157.93995314550611
 31
0.0
  0
LINE
  5
D22
  8
0
 10
136.0590284760041
 20
157.93995314550611
 30
0.0
 11
136.1490284760024
 21
157.93995314550611
 31
0.0
  0
LINE
  5
D23
  8
0
 10
136.0590284760041
 20
158.1200571379909
 30
0.0
 11
136.1490284760024
 21
158.1200571379909
 31
0.0
  0
LINE
  5
D24
  8
0
 10
136.2390284760026
 20
158.1200571379909
 30
0.0
 11
136.1490284760024
 21
158.1200571379909
 31
0.0
  0
LINE
  5
D25
  8
0
 10
136.2390284760026
 20
157.93995314550611
 30
0.0
 11
136.1490284760024
 21
157.93995314550611
 31
0.0
  0
LINE
  5
D26
  8
0
 10
136.2390284760026
 20
157.93995314550611
 30
0.0
 11
136.1490284760024
 21
157.93995314550611
 31
0.0
  0
LINE
  5
D27
  8
0
 10
136.2390284760026
 20
158.1200571379909
 30
0.0
 11
136.2390284760026
 21
157.93995314550611
 31
0.0
  0
LINE
  5
D28
  8
0
 10
135.8990284760024
 20
158.28000514174849
 30
0.0
 11
136.3990284760024
 21
158.28000514174849
 31
0.0
  0
LINE
  5
D29
  8
0
 10
135.8990284760024
 20
156.28000514174849
 30
0.0
 11
136.3990284760024
 21
156.28000514174849
 31
0.0
  0
LINE
  5
D2A
  8
0
 10
136.3990284760024
 20
151.78000514174849
 30
0.0
 11
136.3990284760024
 21
152.28000514174849
 31
0.0
  0
LINE
  5
D2B
  8
0
 10
136.0590284760041
 20
152.1200571379909
 30
0.0
 11
136.0590284760041
 21
151.93995314550611
 31
0.0
  0
LINE
  5
D2C
  8
0
 10
136.0590284760041
 20
151.93995314550611
 30
0.0
 11
136.1490284760024
 21
151.93995314550611
 31
0.0
  0
LINE
  5
D2D
  8
0
 10
136.0590284760041
 20
151.93995314550611
 30
0.0
 11
136.1490284760024
 21
151.93995314550611
 31
0.0
  0
LINE
  5
D2E
  8
0
 10
136.0590284760041
 20
152.1200571379909
 30
0.0
 11
136.1490284760024
 21
152.1200571379909
 31
0.0
  0
LINE
  5
D2F
  8
0
 10
136.2390284760026
 20
152.1200571379909
 30
0.0
 11
136.1490284760024
 21
152.1200571379909
 31
0.0
  0
LINE
  5
D30
  8
0
 10
136.2390284760026
 20
151.93995314550611
 30
0.0
 11
136.1490284760024
 21
151.93995314550611
 31
0.0
  0
LINE
  5
D31
  8
0
 10
136.2390284760026
 20
151.93995314550611
 30
0.0
 11
136.1490284760024
 21
151.93995314550611
 31
0.0
  0
LINE
  5
D32
  8
0
 10
136.2390284760026
 20
152.1200571379909
 30
0.0
 11
136.2390284760026
 21
151.93995314550611
 31
0.0
  0
LINE
  5
D33
  8
0
 10
136.3990284760024
 20
149.78000514174849
 30
0.0
 11
136.3990284760024
 21
150.28000514174849
 31
0.0
  0
LINE
  5
D34
  8
0
 10
136.0590284760041
 20
150.1200571379909
 30
0.0
 11
136.0590284760041
 21
149.93995314550611
 31
0.0
  0
LINE
  5
D35
  8
0
 10
136.0590284760041
 20
149.93995314550611
 30
0.0
 11
136.1490284760024
 21
149.93995314550611
 31
0.0
  0
LINE
  5
D36
  8
0
 10
136.0590284760041
 20
149.93995314550611
 30
0.0
 11
136.1490284760024
 21
149.93995314550611
 31
0.0
  0
LINE
  5
D37
  8
0
 10
136.0590284760041
 20
150.1200571379909
 30
0.0
 11
136.1490284760024
 21
150.1200571379909
 31
0.0
  0
LINE
  5
D38
  8
0
 10
136.2390284760026
 20
150.1200571379909
 30
0.0
 11
136.1490284760024
 21
150.1200571379909
 31
0.0
  0
LINE
  5
D39
  8
0
 10
136.2390284760026
 20
149.93995314550611
 30
0.0
 11
136.1490284760024
 21
149.93995314550611
 31
0.0
  0
LINE
  5
D3A
  8
0
 10
136.2390284760026
 20
149.93995314550611
 30
0.0
 11
136.1490284760024
 21
149.93995314550611
 31
0.0
  0
LINE
  5
D3B
  8
0
 10
136.2390284760026
 20
150.1200571379909
 30
0.0
 11
136.2390284760026
 21
149.93995314550611
 31
0.0
  0
LINE
  5
D3C
  8
0
 10
136.3990284760024
 20
153.78000514174849
 30
0.0
 11
136.3990284760024
 21
154.28000514174849
 31
0.0
  0
LINE
  5
D3D
  8
0
 10
136.0590284760041
 20
154.1200571379909
 30
0.0
 11
136.0590284760041
 21
153.939953145506
 31
0.0
  0
LINE
  5
D3E
  8
0
 10
136.0590284760041
 20
153.939953145506
 30
0.0
 11
136.1490284760024
 21
153.939953145506
 31
0.0
  0
LINE
  5
D3F
  8
0
 10
136.0590284760041
 20
153.939953145506
 30
0.0
 11
136.1490284760024
 21
153.939953145506
 31
0.0
  0
LINE
  5
D40
  8
0
 10
136.0590284760041
 20
154.1200571379909
 30
0.0
 11
136.1490284760024
 21
154.1200571379909
 31
0.0
  0
LINE
  5
D41
  8
0
 10
136.2390284760026
 20
154.1200571379909
 30
0.0
 11
136.1490284760024
 21
154.1200571379909
 31
0.0
  0
LINE
  5
D42
  8
0
 10
136.2390284760026
 20
153.939953145506
 30
0.0
 11
136.1490284760024
 21
153.939953145506
 31
0.0
  0
LINE
  5
D43
  8
0
 10
136.2390284760026
 20
153.939953145506
 30
0.0
 11
136.1490284760024
 21
153.939953145506
 31
0.0
  0
LINE
  5
D44
  8
0
 10
136.2390284760026
 20
154.1200571379909
 30
0.0
 11
136.2390284760026
 21
153.939953145506
 31
0.0
  0
LINE
  5
D45
  8
0
 10
136.0590284760041
 20
144.1200571379909
 30
0.0
 11
136.1490284760024
 21
144.1200571379909
 31
0.0
  0
LINE
  5
D46
  8
0
 10
136.2390284760026
 20
144.1200571379909
 30
0.0
 11
136.1490284760024
 21
144.1200571379909
 31
0.0
  0
LINE
  5
D47
  8
0
 10
136.0590284760041
 20
143.93995314550611
 30
0.0
 11
136.1490284760024
 21
143.93995314550611
 31
0.0
  0
LINE
  5
D48
  8
0
 10
136.0590284760041
 20
143.93995314550611
 30
0.0
 11
136.1490284760024
 21
143.93995314550611
 31
0.0
  0
LINE
  5
D49
  8
0
 10
136.2390284760026
 20
143.93995314550611
 30
0.0
 11
136.1490284760024
 21
143.93995314550611
 31
0.0
  0
LINE
  5
D4A
  8
0
 10
136.2390284760026
 20
143.93995314550611
 30
0.0
 11
136.1490284760024
 21
143.93995314550611
 31
0.0
  0
LINE
  5
D4B
  8
0
 10
136.0590284760041
 20
144.1200571379909
 30
0.0
 11
136.0590284760041
 21
143.93995314550611
 31
0.0
  0
LINE
  5
D4C
  8
0
 10
136.2390284760026
 20
144.1200571379909
 30
0.0
 11
136.2390284760026
 21
143.93995314550611
 31
0.0
  0
LINE
  5
D4D
  8
0
 10
136.3990284760024
 20
143.78000514174849
 30
0.0
 11
136.3990284760024
 21
144.28000514174849
 31
0.0
  0
LINE
  5
D4E
  8
0
 10
136.3990284760024
 20
145.78000514174849
 30
0.0
 11
136.3990284760024
 21
146.28000514174849
 31
0.0
  0
LINE
  5
D4F
  8
0
 10
136.0590284760041
 20
147.93995314550611
 30
0.0
 11
136.1490284760024
 21
147.93995314550611
 31
0.0
  0
LINE
  5
D50
  8
0
 10
136.0590284760041
 20
147.93995314550611
 30
0.0
 11
136.1490284760024
 21
147.93995314550611
 31
0.0
  0
LINE
  5
D51
  8
0
 10
136.0590284760041
 20
148.1200571379909
 30
0.0
 11
136.1490284760024
 21
148.1200571379909
 31
0.0
  0
LINE
  5
D52
  8
0
 10
136.2390284760026
 20
148.1200571379909
 30
0.0
 11
136.1490284760024
 21
148.1200571379909
 31
0.0
  0
LINE
  5
D53
  8
0
 10
136.2390284760026
 20
147.93995314550611
 30
0.0
 11
136.1490284760024
 21
147.93995314550611
 31
0.0
  0
LINE
  5
D54
  8
0
 10
136.2390284760026
 20
147.93995314550611
 30
0.0
 11
136.1490284760024
 21
147.93995314550611
 31
0.0
  0
LINE
  5
D55
  8
0
 10
136.2390284760026
 20
148.1200571379909
 30
0.0
 11
136.2390284760026
 21
147.93995314550611
 31
0.0
  0
LINE
  5
D56
  8
0
 10
136.3990284760024
 20
147.78000514174849
 30
0.0
 11
136.3990284760024
 21
148.28000514174849
 31
0.0
  0
LINE
  5
D57
  8
0
 10
136.2390284760026
 20
146.1200571379909
 30
0.0
 11
136.1490284760024
 21
146.1200571379909
 31
0.0
  0
LINE
  5
D58
  8
0
 10
136.0590284760041
 20
146.1200571379909
 30
0.0
 11
136.1490284760024
 21
146.1200571379909
 31
0.0
  0
LINE
  5
D59
  8
0
 10
136.0590284760041
 20
148.1200571379909
 30
0.0
 11
136.0590284760041
 21
147.93995314550611
 31
0.0
  0
LINE
  5
D5A
  8
0
 10
136.2390284760026
 20
145.93995314550611
 30
0.0
 11
136.1490284760024
 21
145.93995314550611
 31
0.0
  0
LINE
  5
D5B
  8
0
 10
136.2390284760026
 20
145.93995314550611
 30
0.0
 11
136.1490284760024
 21
145.93995314550611
 31
0.0
  0
LINE
  5
D5C
  8
0
 10
136.0590284760041
 20
145.93995314550611
 30
0.0
 11
136.1490284760024
 21
145.93995314550611
 31
0.0
  0
LINE
  5
D5D
  8
0
 10
136.0590284760041
 20
145.93995314550611
 30
0.0
 11
136.1490284760024
 21
145.93995314550611
 31
0.0
  0
LINE
  5
D5E
  8
0
 10
136.2390284760026
 20
146.1200571379909
 30
0.0
 11
136.2390284760026
 21
145.93995314550611
 31
0.0
  0
LINE
  5
D5F
  8
0
 10
136.0590284760041
 20
146.1200571379909
 30
0.0
 11
136.0590284760041
 21
145.93995314550611
 31
0.0
  0
LINE
  5
D60
  8
0
 10
135.8990284760024
 20
152.28000514174849
 30
0.0
 11
135.8990284760024
 21
151.78000514174849
 31
0.0
  0
LINE
  5
D61
  8
0
 10
135.8990284760024
 20
150.28000514174849
 30
0.0
 11
135.8990284760024
 21
149.78000514174849
 31
0.0
  0
LINE
  5
D62
  8
0
 10
135.8990284760024
 20
154.28000514174849
 30
0.0
 11
135.8990284760024
 21
153.78000514174849
 31
0.0
  0
LINE
  5
D63
  8
0
 10
135.8990284760024
 20
144.28000514174849
 30
0.0
 11
135.8990284760024
 21
143.78000514174849
 31
0.0
  0
LINE
  5
D64
  8
0
 10
135.8990284760024
 20
146.28000514174849
 30
0.0
 11
135.8990284760024
 21
145.78000514174849
 31
0.0
  0
LINE
  5
D65
  8
0
 10
135.8990284760024
 20
148.28000514174849
 30
0.0
 11
135.8990284760024
 21
147.78000514174849
 31
0.0
  0
LINE
  5
D66
  8
0
 10
135.8990284760024
 20
152.28000514174849
 30
0.0
 11
136.3990284760024
 21
152.28000514174849
 31
0.0
  0
LINE
  5
D67
  8
0
 10
135.8990284760024
 20
151.78000514174849
 30
0.0
 11
136.3990284760024
 21
151.78000514174849
 31
0.0
  0
LINE
  5
D68
  8
0
 10
135.8990284760024
 20
150.28000514174849
 30
0.0
 11
136.3990284760024
 21
150.28000514174849
 31
0.0
  0
LINE
  5
D69
  8
0
 10
135.8990284760024
 20
149.78000514174849
 30
0.0
 11
136.3990284760024
 21
149.78000514174849
 31
0.0
  0
LINE
  5
D6A
  8
0
 10
135.8990284760024
 20
154.28000514174849
 30
0.0
 11
136.3990284760024
 21
154.28000514174849
 31
0.0
  0
LINE
  5
D6B
  8
0
 10
135.8990284760024
 20
153.78000514174849
 30
0.0
 11
136.3990284760024
 21
153.78000514174849
 31
0.0
  0
LINE
  5
D6C
  8
0
 10
135.8990284760024
 20
144.28000514174849
 30
0.0
 11
136.3990284760024
 21
144.28000514174849
 31
0.0
  0
LINE
  5
D6D
  8
0
 10
135.8990284760024
 20
143.78000514174849
 30
0.0
 11
136.3990284760024
 21
143.78000514174849
 31
0.0
  0
LINE
  5
D6E
  8
0
 10
135.8990284760024
 20
145.78000514174849
 30
0.0
 11
136.3990284760024
 21
145.78000514174849
 31
0.0
  0
LINE
  5
D6F
  8
0
 10
135.8990284760024
 20
147.78000514174849
 30
0.0
 11
136.3990284760024
 21
147.78000514174849
 31
0.0
  0
LINE
  5
D70
  8
0
 10
135.8990284760024
 20
148.28000514174849
 30
0.0
 11
136.3990284760024
 21
148.28000514174849
 31
0.0
  0
LINE
  5
D71
  8
0
 10
135.8990284760024
 20
146.28000514174849
 30
0.0
 11
136.3990284760024
 21
146.28000514174849
 31
0.0
  0
LINE
  5
D72
  8
0
 10
138.3990284760024
 20
155.78000514174849
 30
0.0
 11
138.3990284760024
 21
156.28000514174849
 31
0.0
  0
LINE
  5
D73
  8
0
 10
137.8990284760024
 20
156.28000514174849
 30
0.0
 11
137.8990284760024
 21
155.78000514174849
 31
0.0
  0
LINE
  5
D74
  8
0
 10
138.0590284760041
 20
155.93995314550611
 30
0.0
 11
138.1490284760024
 21
155.93995314550611
 31
0.0
  0
LINE
  5
D75
  8
0
 10
138.0590284760041
 20
155.93995314550611
 30
0.0
 11
138.1490284760024
 21
155.93995314550611
 31
0.0
  0
LINE
  5
D76
  8
0
 10
138.2390284760026
 20
155.93995314550611
 30
0.0
 11
138.1490284760024
 21
155.93995314550611
 31
0.0
  0
LINE
  5
D77
  8
0
 10
138.2390284760026
 20
155.93995314550611
 30
0.0
 11
138.1490284760024
 21
155.93995314550611
 31
0.0
  0
LINE
  5
D78
  8
0
 10
138.0590284760041
 20
156.1200571379909
 30
0.0
 11
138.1490284760024
 21
156.1200571379909
 31
0.0
  0
LINE
  5
D79
  8
0
 10
138.2390284760026
 20
156.1200571379909
 30
0.0
 11
138.1490284760024
 21
156.1200571379909
 31
0.0
  0
LINE
  5
D7A
  8
0
 10
138.0590284760041
 20
156.1200571379909
 30
0.0
 11
138.0590284760041
 21
155.93995314550611
 31
0.0
  0
LINE
  5
D7B
  8
0
 10
138.2390284760026
 20
156.1200571379909
 30
0.0
 11
138.2390284760026
 21
155.93995314550611
 31
0.0
  0
LINE
  5
D7C
  8
0
 10
137.8990284760024
 20
155.78000514174849
 30
0.0
 11
138.3990284760024
 21
155.78000514174849
 31
0.0
  0
LINE
  5
D7D
  8
0
 10
138.3990284760024
 20
157.78000514174849
 30
0.0
 11
138.3990284760024
 21
158.28000514174849
 31
0.0
  0
LINE
  5
D7E
  8
0
 10
137.8990284760024
 20
158.28000514174849
 30
0.0
 11
137.8990284760024
 21
157.78000514174849
 31
0.0
  0
LINE
  5
D7F
  8
0
 10
137.8990284760024
 20
157.78000514174849
 30
0.0
 11
138.3990284760024
 21
157.78000514174849
 31
0.0
  0
LINE
  5
D80
  8
0
 10
138.2390284760026
 20
158.1200571379909
 30
0.0
 11
138.2390284760026
 21
157.93995314550611
 31
0.0
  0
LINE
  5
D81
  8
0
 10
138.2390284760026
 20
157.93995314550611
 30
0.0
 11
138.1490284760024
 21
157.93995314550611
 31
0.0
  0
LINE
  5
D82
  8
0
 10
138.2390284760026
 20
157.93995314550611
 30
0.0
 11
138.1490284760024
 21
157.93995314550611
 31
0.0
  0
LINE
  5
D83
  8
0
 10
138.2390284760026
 20
158.1200571379909
 30
0.0
 11
138.1490284760024
 21
158.1200571379909
 31
0.0
  0
LINE
  5
D84
  8
0
 10
138.0590284760041
 20
158.1200571379909
 30
0.0
 11
138.1490284760024
 21
158.1200571379909
 31
0.0
  0
LINE
  5
D85
  8
0
 10
138.0590284760041
 20
157.93995314550611
 30
0.0
 11
138.1490284760024
 21
157.93995314550611
 31
0.0
  0
LINE
  5
D86
  8
0
 10
138.0590284760041
 20
157.93995314550611
 30
0.0
 11
138.1490284760024
 21
157.93995314550611
 31
0.0
  0
LINE
  5
D87
  8
0
 10
138.0590284760041
 20
158.1200571379909
 30
0.0
 11
138.0590284760041
 21
157.93995314550611
 31
0.0
  0
LINE
  5
D88
  8
0
 10
137.8990284760024
 20
158.28000514174849
 30
0.0
 11
138.3990284760024
 21
158.28000514174849
 31
0.0
  0
LINE
  5
D89
  8
0
 10
137.8990284760024
 20
156.28000514174849
 30
0.0
 11
138.3990284760024
 21
156.28000514174849
 31
0.0
  0
LINE
  5
D8A
  8
0
 10
138.2390284760026
 20
152.1200571379909
 30
0.0
 11
138.2390284760026
 21
151.93995314550611
 31
0.0
  0
LINE
  5
D8B
  8
0
 10
138.2390284760026
 20
151.93995314550611
 30
0.0
 11
138.1490284760024
 21
151.93995314550611
 31
0.0
  0
LINE
  5
D8C
  8
0
 10
138.2390284760026
 20
151.93995314550611
 30
0.0
 11
138.1490284760024
 21
151.93995314550611
 31
0.0
  0
LINE
  5
D8D
  8
0
 10
138.2390284760026
 20
152.1200571379909
 30
0.0
 11
138.1490284760024
 21
152.1200571379909
 31
0.0
  0
LINE
  5
D8E
  8
0
 10
138.0590284760041
 20
152.1200571379909
 30
0.0
 11
138.1490284760024
 21
152.1200571379909
 31
0.0
  0
LINE
  5
D8F
  8
0
 10
138.0590284760041
 20
151.93995314550611
 30
0.0
 11
138.1490284760024
 21
151.93995314550611
 31
0.0
  0
LINE
  5
D90
  8
0
 10
138.0590284760041
 20
151.93995314550611
 30
0.0
 11
138.1490284760024
 21
151.93995314550611
 31
0.0
  0
LINE
  5
D91
  8
0
 10
138.0590284760041
 20
152.1200571379909
 30
0.0
 11
138.0590284760041
 21
151.93995314550611
 31
0.0
  0
LINE
  5
D92
  8
0
 10
138.3990284760024
 20
151.78000514174849
 30
0.0
 11
138.3990284760024
 21
152.28000514174849
 31
0.0
  0
LINE
  5
D93
  8
0
 10
137.8990284760024
 20
152.28000514174849
 30
0.0
 11
137.8990284760024
 21
151.78000514174849
 31
0.0
  0
LINE
  5
D94
  8
0
 10
137.8990284760024
 20
151.78000514174849
 30
0.0
 11
138.3990284760024
 21
151.78000514174849
 31
0.0
  0
LINE
  5
D95
  8
0
 10
137.8990284760024
 20
152.28000514174849
 30
0.0
 11
138.3990284760024
 21
152.28000514174849
 31
0.0
  0
LINE
  5
D96
  8
0
 10
138.2390284760026
 20
150.1200571379909
 30
0.0
 11
138.2390284760026
 21
149.93995314550611
 31
0.0
  0
LINE
  5
D97
  8
0
 10
138.2390284760026
 20
149.93995314550611
 30
0.0
 11
138.1490284760024
 21
149.93995314550611
 31
0.0
  0
LINE
  5
D98
  8
0
 10
138.2390284760026
 20
149.93995314550611
 30
0.0
 11
138.1490284760024
 21
149.93995314550611
 31
0.0
  0
LINE
  5
D99
  8
0
 10
138.2390284760026
 20
150.1200571379909
 30
0.0
 11
138.1490284760024
 21
150.1200571379909
 31
0.0
  0
LINE
  5
D9A
  8
0
 10
138.0590284760041
 20
150.1200571379909
 30
0.0
 11
138.1490284760024
 21
150.1200571379909
 31
0.0
  0
LINE
  5
D9B
  8
0
 10
138.0590284760041
 20
149.93995314550611
 30
0.0
 11
138.1490284760024
 21
149.93995314550611
 31
0.0
  0
LINE
  5
D9C
  8
0
 10
138.0590284760041
 20
149.93995314550611
 30
0.0
 11
138.1490284760024
 21
149.93995314550611
 31
0.0
  0
LINE
  5
D9D
  8
0
 10
138.0590284760041
 20
150.1200571379909
 30
0.0
 11
138.0590284760041
 21
149.93995314550611
 31
0.0
  0
LINE
  5
D9E
  8
0
 10
138.3990284760024
 20
149.78000514174849
 30
0.0
 11
138.3990284760024
 21
150.28000514174849
 31
0.0
  0
LINE
  5
D9F
  8
0
 10
137.8990284760024
 20
150.28000514174849
 30
0.0
 11
137.8990284760024
 21
149.78000514174849
 31
0.0
  0
LINE
  5
DA0
  8
0
 10
137.8990284760024
 20
149.78000514174849
 30
0.0
 11
138.3990284760024
 21
149.78000514174849
 31
0.0
  0
LINE
  5
DA1
  8
0
 10
137.8990284760024
 20
150.28000514174849
 30
0.0
 11
138.3990284760024
 21
150.28000514174849
 31
0.0
  0
LINE
  5
DA2
  8
0
 10
138.2390284760026
 20
154.1200571379909
 30
0.0
 11
138.2390284760026
 21
153.939953145506
 31
0.0
  0
LINE
  5
DA3
  8
0
 10
138.2390284760026
 20
153.939953145506
 30
0.0
 11
138.1490284760024
 21
153.939953145506
 31
0.0
  0
LINE
  5
DA4
  8
0
 10
138.2390284760026
 20
153.939953145506
 30
0.0
 11
138.1490284760024
 21
153.939953145506
 31
0.0
  0
LINE
  5
DA5
  8
0
 10
138.2390284760026
 20
154.1200571379909
 30
0.0
 11
138.1490284760024
 21
154.1200571379909
 31
0.0
  0
LINE
  5
DA6
  8
0
 10
138.0590284760041
 20
154.1200571379909
 30
0.0
 11
138.1490284760024
 21
154.1200571379909
 31
0.0
  0
LINE
  5
DA7
  8
0
 10
138.0590284760041
 20
153.939953145506
 30
0.0
 11
138.1490284760024
 21
153.939953145506
 31
0.0
  0
LINE
  5
DA8
  8
0
 10
138.0590284760041
 20
153.939953145506
 30
0.0
 11
138.1490284760024
 21
153.939953145506
 31
0.0
  0
LINE
  5
DA9
  8
0
 10
138.0590284760041
 20
154.1200571379909
 30
0.0
 11
138.0590284760041
 21
153.939953145506
 31
0.0
  0
LINE
  5
DAA
  8
0
 10
138.3990284760024
 20
153.78000514174849
 30
0.0
 11
138.3990284760024
 21
154.28000514174849
 31
0.0
  0
LINE
  5
DAB
  8
0
 10
137.8990284760024
 20
154.28000514174849
 30
0.0
 11
137.8990284760024
 21
153.78000514174849
 31
0.0
  0
LINE
  5
DAC
  8
0
 10
137.8990284760024
 20
153.78000514174849
 30
0.0
 11
138.3990284760024
 21
153.78000514174849
 31
0.0
  0
LINE
  5
DAD
  8
0
 10
137.8990284760024
 20
154.28000514174849
 30
0.0
 11
138.3990284760024
 21
154.28000514174849
 31
0.0
  0
LINE
  5
DAE
  8
0
 10
138.2390284760026
 20
144.1200571379909
 30
0.0
 11
138.1490284760024
 21
144.1200571379909
 31
0.0
  0
LINE
  5
DAF
  8
0
 10
138.0590284760041
 20
144.1200571379909
 30
0.0
 11
138.1490284760024
 21
144.1200571379909
 31
0.0
  0
LINE
  5
DB0
  8
0
 10
137.8990284760024
 20
144.28000514174849
 30
0.0
 11
138.3990284760024
 21
144.28000514174849
 31
0.0
  0
LINE
  5
DB1
  8
0
 10
138.2390284760026
 20
143.93995314550611
 30
0.0
 11
138.1490284760024
 21
143.93995314550611
 31
0.0
  0
LINE
  5
DB2
  8
0
 10
138.2390284760026
 20
143.93995314550611
 30
0.0
 11
138.1490284760024
 21
143.93995314550611
 31
0.0
  0
LINE
  5
DB3
  8
0
 10
138.0590284760041
 20
143.93995314550611
 30
0.0
 11
138.1490284760024
 21
143.93995314550611
 31
0.0
  0
LINE
  5
DB4
  8
0
 10
138.0590284760041
 20
143.93995314550611
 30
0.0
 11
138.1490284760024
 21
143.93995314550611
 31
0.0
  0
LINE
  5
DB5
  8
0
 10
137.8990284760024
 20
143.78000514174849
 30
0.0
 11
138.3990284760024
 21
143.78000514174849
 31
0.0
  0
LINE
  5
DB6
  8
0
 10
138.2390284760026
 20
144.1200571379909
 30
0.0
 11
138.2390284760026
 21
143.93995314550611
 31
0.0
  0
LINE
  5
DB7
  8
0
 10
138.0590284760041
 20
144.1200571379909
 30
0.0
 11
138.0590284760041
 21
143.93995314550611
 31
0.0
  0
LINE
  5
DB8
  8
0
 10
138.3990284760024
 20
143.78000514174849
 30
0.0
 11
138.3990284760024
 21
144.28000514174849
 31
0.0
  0
LINE
  5
DB9
  8
0
 10
137.8990284760024
 20
144.28000514174849
 30
0.0
 11
137.8990284760024
 21
143.78000514174849
 31
0.0
  0
LINE
  5
DBA
  8
0
 10
138.3990284760024
 20
145.78000514174849
 30
0.0
 11
138.3990284760024
 21
146.28000514174849
 31
0.0
  0
LINE
  5
DBB
  8
0
 10
137.8990284760024
 20
146.28000514174849
 30
0.0
 11
137.8990284760024
 21
145.78000514174849
 31
0.0
  0
LINE
  5
DBC
  8
0
 10
137.8990284760024
 20
145.78000514174849
 30
0.0
 11
138.3990284760024
 21
145.78000514174849
 31
0.0
  0
LINE
  5
DBD
  8
0
 10
138.0590284760041
 20
146.1200571379909
 30
0.0
 11
138.1490284760024
 21
146.1200571379909
 31
0.0
  0
LINE
  5
DBE
  8
0
 10
138.2390284760026
 20
146.1200571379909
 30
0.0
 11
138.1490284760024
 21
146.1200571379909
 31
0.0
  0
LINE
  5
DBF
  8
0
 10
138.2390284760026
 20
148.1200571379909
 30
0.0
 11
138.2390284760026
 21
147.93995314550611
 31
0.0
  0
LINE
  5
DC0
  8
0
 10
138.2390284760026
 20
147.93995314550611
 30
0.0
 11
138.1490284760024
 21
147.93995314550611
 31
0.0
  0
LINE
  5
DC1
  8
0
 10
138.2390284760026
 20
147.93995314550611
 30
0.0
 11
138.1490284760024
 21
147.93995314550611
 31
0.0
  0
LINE
  5
DC2
  8
0
 10
138.2390284760026
 20
148.1200571379909
 30
0.0
 11
138.1490284760024
 21
148.1200571379909
 31
0.0
  0
LINE
  5
DC3
  8
0
 10
138.0590284760041
 20
148.1200571379909
 30
0.0
 11
138.1490284760024
 21
148.1200571379909
 31
0.0
  0
LINE
  5
DC4
  8
0
 10
138.0590284760041
 20
147.93995314550611
 30
0.0
 11
138.1490284760024
 21
147.93995314550611
 31
0.0
  0
LINE
  5
DC5
  8
0
 10
138.0590284760041
 20
147.93995314550611
 30
0.0
 11
138.1490284760024
 21
147.93995314550611
 31
0.0
  0
LINE
  5
DC6
  8
0
 10
138.0590284760041
 20
148.1200571379909
 30
0.0
 11
138.0590284760041
 21
147.93995314550611
 31
0.0
  0
LINE
  5
DC7
  8
0
 10
138.3990284760024
 20
147.78000514174849
 30
0.0
 11
138.3990284760024
 21
148.28000514174849
 31
0.0
  0
LINE
  5
DC8
  8
0
 10
137.8990284760024
 20
148.28000514174849
 30
0.0
 11
137.8990284760024
 21
147.78000514174849
 31
0.0
  0
LINE
  5
DC9
  8
0
 10
137.8990284760024
 20
148.28000514174849
 30
0.0
 11
138.3990284760024
 21
148.28000514174849
 31
0.0
  0
LINE
  5
DCA
  8
0
 10
137.8990284760024
 20
146.28000514174849
 30
0.0
 11
138.3990284760024
 21
146.28000514174849
 31
0.0
  0
LINE
  5
DCB
  8
0
 10
137.8990284760024
 20
147.78000514174849
 30
0.0
 11
138.3990284760024
 21
147.78000514174849
 31
0.0
  0
LINE
  5
DCC
  8
0
 10
138.0590284760041
 20
145.93995314550611
 30
0.0
 11
138.1490284760024
 21
145.93995314550611
 31
0.0
  0
LINE
  5
DCD
  8
0
 10
138.0590284760041
 20
145.93995314550611
 30
0.0
 11
138.1490284760024
 21
145.93995314550611
 31
0.0
  0
LINE
  5
DCE
  8
0
 10
138.2390284760026
 20
145.93995314550611
 30
0.0
 11
138.1490284760024
 21
145.93995314550611
 31
0.0
  0
LINE
  5
DCF
  8
0
 10
138.2390284760026
 20
145.93995314550611
 30
0.0
 11
138.1490284760024
 21
145.93995314550611
 31
0.0
  0
LINE
  5
DD0
  8
0
 10
138.0590284760041
 20
146.1200571379909
 30
0.0
 11
138.0590284760041
 21
145.93995314550611
 31
0.0
  0
LINE
  5
DD1
  8
0
 10
138.2390284760026
 20
146.1200571379909
 30
0.0
 11
138.2390284760026
 21
145.93995314550611
 31
0.0
  0
LINE
  5
DD2
  8
0
 10
134.6490284760024
 20
159.98000514174831
 30
0.0
 11
134.6490284760024
 21
142.0800051417487
 31
0.0
  0
LINE
  5
DD3
  8
0
  6
BYBLOCK
 10
139.64902847600521
 20
130.26915018555121
 30
0.0
 11
139.64902847600521
 21
133.61615453626979
 31
0.0
  0
POLYLINE
  5
DD4
  8
0
  6
BYBLOCK
 66
     1
 10
0.0
 20
0.0
 30
0.0
 70
     1
  0
VERTEX
  5
FED
  8
0
  6
BYBLOCK
 10
136.66366794864319
 20
124.8869973989482
 30
0.0
  0
VERTEX
  5
FEE
  8
0
  6
BYBLOCK
 10
136.66366794864319
 20
126.24361580728019
 30
0.0
  0
VERTEX
  5
FEF
  8
0
  6
BYBLOCK
 10
138.06020482130899
 20
126.24361580728019
 30
0.0
  0
VERTEX
  5
FF0
  8
0
  6
BYBLOCK
 10
138.06020482130899
 20
124.8869973989482
 30
0.0
  0
SEQEND
  5
FF1
  8
0
  6
BYBLOCK
  0
LINE
  5
DD5
  8
0
  6
BYBLOCK
 10
138.37582514818081
 20
124.5700051417485
 30
0.0
 11
136.37582514818081
 21
124.5700051417485
 31
0.0
  0
LINE
  5
DD6
  8
0
 10
135.4490284760044
 20
129.38000514174891
 30
0.0
 11
139.64902847600521
 21
129.38000514174891
 31
0.0
  0
LINE
  5
DD7
  8
0
  6
BYBLOCK
 10
138.37582514818081
 20
127.1100051417494
 30
0.0
 11
136.37582514818081
 21
127.1100051417494
 31
0.0
  0
LINE
  5
DD8
  8
0
  6
BYBLOCK
 10
136.37582514818081
 20
129.11000514174941
 30
0.0
 11
138.37582514818081
 21
129.11000514174941
 31
0.0
  0
POLYLINE
  5
DD9
  8
0
  6
BYBLOCK
 66
     1
 10
0.0
 20
0.0
 30
0.0
 70
     1
  0
VERTEX
  5
FF2
  8
0
  6
BYBLOCK
 10
136.66366794864319
 20
127.4269973989491
 30
0.0
  0
VERTEX
  5
FF3
  8
0
  6
BYBLOCK
 10
136.66366794864319
 20
128.78361580728111
 30
0.0
  0
VERTEX
  5
FF4
  8
0
  6
BYBLOCK
 10
138.06020482130899
 20
128.78361580728111
 30
0.0
  0
VERTEX
  5
FF5
  8
0
  6
BYBLOCK
 10
138.06020482130899
 20
127.4269973989491
 30
0.0
  0
SEQEND
  5
FF6
  8
0
  6
BYBLOCK
  0
LINE
  5
DDA
  8
0
  6
BYBLOCK
 10
136.37582514818081
 20
126.5700051417485
 30
0.0
 11
138.37582514818081
 21
126.5700051417485
 31
0.0
  0
LINE
  5
DDB
  8
0
 10
135.4490284760044
 20
126.840005141749
 30
0.0
 11
139.64902847600521
 21
126.840005141749
 31
0.0
  0
LINE
  5
DDC
  8
0
 10
129.64902847600521
 20
129.38000514174891
 30
0.0
 11
139.64902847600521
 21
129.38000514174891
 31
0.0
  0
LINE
  5
DDD
  8
0
 10
139.64902847600521
 20
129.38000514174891
 30
0.0
 11
129.64902847600521
 21
129.38000514174891
 31
0.0
  0
LINE
  5
DDE
  8
0
 10
129.64902847600521
 20
126.840005141749
 30
0.0
 11
139.64902847600521
 21
126.840005141749
 31
0.0
  0
LINE
  5
DDF
  8
0
 10
139.64902847600521
 20
126.840005141749
 30
0.0
 11
129.64902847600521
 21
126.840005141749
 31
0.0
  0
LINE
  5
DE0
  8
0
 10
139.64902847600521
 20
124.300005141749
 30
0.0
 11
129.64902847600521
 21
124.300005141749
 31
0.0
  0
LINE
  5
DE1
  8
0
 10
129.64902847600521
 20
124.300005141749
 30
0.0
 11
139.64902847600521
 21
124.300005141749
 31
0.0
  0
LINE
  5
DE2
  8
0
 10
139.64902847600521
 20
126.840005141749
 30
0.0
 11
129.64902847600521
 21
126.840005141749
 31
0.0
  0
LINE
  5
DE3
  8
0
 10
129.64902847600521
 20
126.840005141749
 30
0.0
 11
139.64902847600521
 21
126.840005141749
 31
0.0
  0
LINE
  5
DE4
  8
0
  6
BYBLOCK
 10
136.37582514818081
 20
124.5700051417485
 30
0.0
 11
136.37582514818081
 21
126.5700051417485
 31
0.0
  0
LINE
  5
DE5
  8
0
  6
BYBLOCK
 10
132.68747670005851
 20
126.1920758429729
 30
0.0
 11
132.68747670005851
 21
124.8920758429727
 31
0.0
  0
LINE
  5
DE6
  8
0
 10
135.68747670005851
 20
124.8920758429727
 30
0.0
 11
135.68747670005851
 21
126.1920758429729
 31
0.0
  0
LINE
  5
DE7
  8
0
 10
135.68747670005851
 20
125.1950051417485
 30
0.0
 11
135.68747670005851
 21
125.9450051417485
 31
0.0
  0
LINE
  5
DE8
  8
0
 10
132.9150285032951
 20
125.36960212525319
 30
0.0
 11
132.9150285032951
 21
125.7704081582438
 31
0.0
  0
LINE
  5
DE9
  8
0
  6
BYBLOCK
 10
132.68747670005851
 20
124.8920758429727
 30
0.0
 11
135.68747670005851
 21
124.8920758429727
 31
0.0
  0
LINE
  5
DEA
  8
0
 10
134.25301364208229
 20
125.36960212525319
 30
0.0
 11
135.68747670005851
 21
125.36960212525319
 31
0.0
  0
LINE
  5
DEB
  8
0
 10
132.9150285032951
 20
125.36960212525319
 30
0.0
 11
133.27250228828541
 21
125.36960212525319
 31
0.0
  0
ARC
  5
DEC
  8
0
 10
133.69176503406689
 20
125.7446021252531
 30
0.0
 40
0.5624999999999976
 50
221.81031489579769
 51
318.18968510420171
  0
ARC
  5
DED
  8
0
 10
133.69176503406689
 20
125.7446021252531
 30
0.0
 40
0.6750000000000079
 50
213.74898859589939
 51
326.2510114041005
  0
LINE
  5
DEE
  8
0
 10
132.9150285032951
 20
127.9096021252531
 30
0.0
 11
132.9150285032951
 21
128.31040815824471
 31
0.0
  0
LINE
  5
DEF
  8
0
 10
135.68747670005851
 20
127.7350051417494
 30
0.0
 11
135.68747670005851
 21
128.48500514174941
 31
0.0
  0
ARC
  5
DF0
  8
0
 10
133.69176503406689
 20
128.28460212525309
 30
0.0
 40
0.6750000000000079
 50
213.74898859589939
 51
326.2510114041005
  0
ARC
  5
DF1
  8
0
 10
133.69176503406689
 20
128.28460212525309
 30
0.0
 40
0.5624999999999976
 50
221.81031489579769
 51
318.18968510420171
  0
LINE
  5
DF2
  8
0
 10
132.9150285032951
 20
127.9096021252531
 30
0.0
 11
133.27250228828541
 21
127.9096021252531
 31
0.0
  0
LINE
  5
DF3
  8
0
 10
134.25301364208229
 20
127.9096021252531
 30
0.0
 11
135.68747670005851
 21
127.9096021252531
 31
0.0
  0
LINE
  5
DF4
  8
0
 10
135.68747670005851
 20
127.4320758429736
 30
0.0
 11
135.68747670005851
 21
128.7320758429729
 31
0.0
  0
LINE
  5
DF5
  8
0
  6
BYBLOCK
 10
132.68747670005851
 20
128.7320758429729
 30
0.0
 11
132.68747670005851
 21
127.4320758429736
 31
0.0
  0
LINE
  5
DF6
  8
0
 10
134.25301364208229
 20
128.31040815824471
 30
0.0
 11
135.68747670005851
 21
128.31040815824471
 31
0.0
  0
LINE
  5
DF7
  8
0
 10
132.9150285032951
 20
128.31040815824471
 30
0.0
 11
133.27250228828541
 21
128.31040815824471
 31
0.0
  0
ARC
  5
DF8
  8
0
 10
133.69176503406689
 20
127.9354081582447
 30
0.0
 40
0.6750000000000079
 50
33.748988595899391
 51
146.25101140410061
  0
ARC
  5
DF9
  8
0
 10
133.69176503406689
 20
127.9354081582447
 30
0.0
 40
0.5624999999999976
 50
41.810314895798292
 51
138.18968510419899
  0
LINE
  5
DFA
  8
0
  6
BYBLOCK
 10
132.68747670005851
 20
127.4320758429736
 30
0.0
 11
135.68747670005851
 21
127.4320758429736
 31
0.0
  0
LINE
  5
DFB
  8
0
  6
BYBLOCK
 10
132.68747670005851
 20
128.7320758429729
 30
0.0
 11
135.68747670005851
 21
128.7320758429729
 31
0.0
  0
LINE
  5
DFC
  8
0
  6
BYBLOCK
 10
136.37582514818081
 20
127.1100051417494
 30
0.0
 11
136.37582514818081
 21
129.11000514174941
 31
0.0
  0
LINE
  5
DFD
  8
0
  6
BYBLOCK
 10
132.68747670005851
 20
126.1920758429729
 30
0.0
 11
135.68747670005851
 21
126.1920758429729
 31
0.0
  0
ARC
  5
DFE
  8
0
 10
133.69176503406689
 20
125.3954081582438
 30
0.0
 40
0.5624999999999976
 50
41.810314895798292
 51
138.18968510419899
  0
ARC
  5
DFF
  8
0
 10
133.69176503406689
 20
125.3954081582438
 30
0.0
 40
0.6750000000000079
 50
33.748988595899391
 51
146.25101140410061
  0
LINE
  5
E00
  8
0
 10
132.9150285032951
 20
125.7704081582438
 30
0.0
 11
133.27250228828541
 21
125.7704081582438
 31
0.0
  0
LINE
  5
E01
  8
0
 10
134.25301364208229
 20
125.7704081582438
 30
0.0
 11
135.68747670005851
 21
125.7704081582438
 31
0.0
  0
LINE
  5
E02
  8
0
 10
131.14902847600521
 20
129.38000514174891
 30
0.0
 11
129.64902847600521
 21
129.38000514174891
 31
0.0
  0
LINE
  5
E03
  8
0
 10
129.64902847600521
 20
129.38000514174891
 30
0.0
 11
131.14902847600521
 21
129.38000514174891
 31
0.0
  0
LINE
  5
E04
  8
0
 10
129.64902847600521
 20
126.840005141749
 30
0.0
 11
131.14902847600521
 21
126.840005141749
 31
0.0
  0
LINE
  5
E05
  8
0
 10
131.14902847600521
 20
126.840005141749
 30
0.0
 11
129.64902847600521
 21
126.840005141749
 31
0.0
  0
LINE
  5
E06
  8
0
  6
BYBLOCK
 10
138.37582514818081
 20
126.5700051417485
 30
0.0
 11
138.37582514818081
 21
124.5700051417485
 31
0.0
  0
LINE
  5
E07
  8
0
  6
BYBLOCK
 10
138.37582514818081
 20
129.11000514174941
 30
0.0
 11
138.37582514818081
 21
127.1100051417494
 31
0.0
  0
LINE
  5
E08
  8
0
  6
BYBLOCK
 10
129.64902847600521
 20
112.6400051417482
 30
0.0
 11
129.64902847600521
 21
129.38000514174891
 31
0.0
  0
LINE
  5
E09
  8
0
  6
BYBLOCK
 10
139.64902847600339
 20
194.7900051417478
 30
0.0
 11
139.6490284760051
 21
112.09000514174799
 31
0.0
  0
LINE
  5
E0A
  8
0
  6
CONTINUOUS
 10
149.74902847600561
 20
206.89000514174819
 30
0.0
 11
149.74902847600561
 21
202.9115811417482
 31
0.0
  0
LINE
  5
E0B
  8
0
  6
CONTINUOUS
 10
149.74902847600561
 20
202.9115811417482
 30
0.0
 11
150.76467547600569
 21
202.9115811417482
 31
0.0
  0
ARC
  5
E0C
  8
0
  6
CONTINUOUS
 10
148.74902847600561
 20
206.89000514174819
 30
0.0
 40
1.0
 50
0.0
 51
89.999999999999986
  0
ARC
  5
E0D
  8
0
  6
CONTINUOUS
 10
149.81785347600581
 20
200.505411141748
 30
0.0
 40
1.0
 50
0.0
 51
89.999999999999986
  0
LINE
  5
E0E
  8
0
  6
CONTINUOUS
 10
149.81785347600581
 20
201.50541114174811
 30
0.0
 11
148.8176164760057
 21
201.50541114174811
 31
0.0
  0
LINE
  5
E0F
  8
0
  6
CONTINUOUS
 10
149.74902847600561
 20
202.9115811417482
 30
0.0
 11
148.8176164760057
 21
201.50541114174811
 31
0.0
  0
LINE
  5
E10
  8
0
  6
CONTINUOUS
 10
149.74902847600561
 20
202.9115811417482
 30
0.0
 11
148.8176164760057
 21
201.50541114174811
 31
0.0
  0
ARC
  5
E11
  8
0
  6
CONTINUOUS
 10
150.76467547600569
 20
201.9115811417482
 30
0.0
 40
1.0
 50
0.0
 51
89.999999000005104
  0
LINE
  5
E12
  8
0
  6
CONTINUOUS
 10
149.74902747600609
 20
206.89000514174819
 30
0.0
 11
149.74902747600609
 21
214.89000514174819
 31
0.0
  0
ARC
  5
E13
  8
0
  6
CONTINUOUS
 10
120.2490294760059
 20
214.89000514174819
 30
0.0
 40
1.5
 50
89.999999999999986
 51
180.0
  0
LINE
  5
E14
  8
0
  6
CONTINUOUS
 10
120.2490294760059
 20
216.39000514174819
 30
0.0
 11
148.24902747600609
 21
216.39000514174819
 31
0.0
  0
ARC
  5
E15
  8
0
  6
CONTINUOUS
 10
145.64902847600609
 20
202.79000514174871
 30
0.0
 40
1.0
 50
0.0
 51
89.999999999999986
  0
ARC
  5
E16
  8
0
  6
CONTINUOUS
 10
145.74902847600561
 20
202.89000514174811
 30
0.0
 40
1.0
 50
0.0
 51
89.999999999999986
  0
ARC
  5
E17
  8
0
  6
CONTINUOUS
 10
143.77406047600601
 20
207.49068914174811
 30
0.0
 40
1.0
 50
270.12524100003583
 51
326.04630300000912
  0
LINE
  5
E18
  8
0
  6
CONTINUOUS
 10
145.24849447600579
 20
207.89000514174819
 30
0.0
 11
144.60354947600581
 21
206.9321661417485
 31
0.0
  0
ARC
  5
E19
  8
0
  6
CONTINUOUS
 10
122.8490284760059
 20
202.79000514174871
 30
0.0
 40
1.0
 50
89.999999999999986
 51
180.0
  0
ARC
  5
E1A
  8
0
  6
CONTINUOUS
 10
122.74902847600561
 20
202.89000514174811
 30
0.0
 40
1.0
 50
89.999999999999986
 51
180.0
  0
ARC
  5
E1B
  8
0
  6
CONTINUOUS
 10
124.72399747600539
 20
207.49068914174811
 30
0.0
 40
1.0
 50
213.9536969999908
 51
269.87475899996411
  0
LINE
  5
E1C
  8
0
  6
CONTINUOUS
 10
123.24956247600539
 20
207.89000514174819
 30
0.0
 11
123.8945074760054
 21
206.9321661417485
 31
0.0
  0
ARC
  5
E1D
  8
0
  6
CONTINUOUS
 10
120.7590284760058
 20
205.38678214174851
 30
0.0
 40
1.0
 50
89.82221899996577
 51
180.0
  0
LINE
  5
E1E
  8
0
  6
CONTINUOUS
 10
118.74902847600561
 20
206.89000514174819
 30
0.0
 11
118.74902847600561
 21
202.91158114174829
 31
0.0
  0
LINE
  5
E1F
  8
0
  6
CONTINUOUS
 10
118.74902847600561
 20
202.91158114174829
 30
0.0
 11
117.73338147600541
 21
202.91158114174829
 31
0.0
  0
ARC
  5
E20
  8
0
  6
CONTINUOUS
 10
119.74902847600561
 20
206.89000514174819
 30
0.0
 40
1.0
 50
89.999999999999986
 51
180.0
  0
LINE
  5
E21
  8
0
  6
CONTINUOUS
 10
119.74902847600561
 20
207.89000514174819
 30
0.0
 11
123.24956247600539
 21
207.89000514174819
 31
0.0
  0
LINE
  5
E22
  8
0
  6
CONTINUOUS
 10
118.6802034760062
 20
201.50541114174811
 30
0.0
 11
119.6804404760055
 21
201.50541114174811
 31
0.0
  0
ARC
  5
E23
  8
0
  6
CONTINUOUS
 10
118.6802034760062
 20
200.505411141748
 30
0.0
 40
1.0
 50
89.999999999999986
 51
180.0
  0
LINE
  5
E24
  8
0
  6
CONTINUOUS
 10
118.74902847600561
 20
202.91158114174829
 30
0.0
 11
119.6804404760055
 21
201.50541114174811
 31
0.0
  0
LINE
  5
E25
  8
0
  6
CONTINUOUS
 10
118.74902847600561
 20
202.91158114174829
 30
0.0
 11
119.6804404760055
 21
201.50541114174811
 31
0.0
  0
ARC
  5
E26
  8
0
  6
CONTINUOUS
 10
117.73338147600541
 20
201.9115811417482
 30
0.0
 40
1.0
 50
89.999999999999986
 51
180.0
  0
LINE
  5
E27
  8
0
  6
CONTINUOUS
 10
122.8490284760059
 20
203.79000514174871
 30
0.0
 11
145.64902847600609
 21
203.79000514174871
 31
0.0
  0
ARC
  5
E28
  8
0
  6
CONTINUOUS
 10
134.24902847600771
 20
4552.9625611417487
 30
0.0
 40
4346.5967079999991
 50
269.82221900001792
 51
270.17778099998202
  0
ARC
  5
E29
  8
0
  6
CONTINUOUS
 10
134.24902847600771
 20
4565.0494541417493
 30
0.0
 40
4358.5691749999987
 50
269.87475899996411
 51
270.12524100003583
  0
LINE
  5
E2A
  8
0
  6
CONTINUOUS
 10
123.92470747600549
 20
206.889744141748
 30
0.0
 11
144.57335047600591
 21
206.889744141748
 31
0.0
  0
LINE
  5
E2B
  8
0
  6
CONTINUOUS
 10
122.74902847600561
 20
203.89000514174819
 30
0.0
 11
145.74902847600561
 21
203.89000514174819
 31
0.0
  0
LINE
  5
E2C
  8
0
  6
CONTINUOUS
 10
118.7490294760059
 20
206.89000514174819
 30
0.0
 11
118.7490294760059
 21
214.89000514174819
 31
0.0
  0
CIRCLE
  5
E2D
  8
0
  6
CONTINUOUS
 10
134.24902847600561
 20
211.64000514174811
 30
0.0
 40
2.5
  0
ARC
  5
E2E
  8
0
  6
CONTINUOUS
 10
147.7390284760063
 20
205.38678214174851
 30
0.0
 40
1.0
 50
0.0
 51
90.177780999982076
  0
ARC
  5
E2F
  8
0
  6
CONTINUOUS
 10
148.24902747600609
 20
214.89000514174819
 30
0.0
 40
1.5
 50
0.0
 51
89.999999999999986
  0
LINE
  5
E30
  8
0
  6
CONTINUOUS
 10
145.24849447600579
 20
207.89000514174819
 30
0.0
 11
148.74902847600561
 21
207.89000514174819
 31
0.0
  0
LINE
  5
E31
  8
0
  6
CONTINUOUS
 10
139.9490284760054
 20
176.23000514174831
 30
0.0
 11
126.3490284760059
 21
176.23000514174831
 31
0.0
  0
LINE
  5
E32
  8
0
  6
CONTINUOUS
 10
134.14902847600609
 20
161.23000514174831
 30
0.0
 11
126.3490284760059
 21
161.23000514174831
 31
0.0
  0
LINE
  5
E33
  8
0
  6
CONTINUOUS
 10
126.3490284760059
 20
194.7900051417478
 30
0.0
 11
126.3490284760059
 21
161.23000514174831
 31
0.0
  0
LINE
  5
E34
  8
0
  6
CONTINUOUS
 10
124.4490284760054
 20
140.89000514174819
 30
0.0
 11
134.14902847600609
 21
140.89000514174819
 31
0.0
  0
LINE
  5
E35
  8
0
  6
CONTINUOUS
 10
129.14902847600609
 20
129.59000514174801
 30
0.0
 11
124.4490284760054
 21
129.59000514174801
 31
0.0
  0
LINE
  5
E36
  8
0
  6
CONTINUOUS
 10
124.4490284760054
 20
129.59000514174801
 30
0.0
 11
124.4490284760054
 21
140.89000514174819
 31
0.0
  0
LINE
  5
E37
  8
0
  6
CONTINUOUS
 10
134.14902847600609
 20
140.89000514174819
 30
0.0
 11
134.14902847600609
 21
161.23000514174831
 31
0.0
  0
LINE
  5
E38
  8
0
  6
CONTINUOUS
 10
149.74902947600589
 20
108.36842814174869
 30
0.0
 11
148.8176164760057
 21
109.77460014174871
 31
0.0
  0
LINE
  5
E39
  8
0
  6
CONTINUOUS
 10
149.74902847600561
 20
108.36842914174809
 30
0.0
 11
150.76467547600569
 21
108.36842914174809
 31
0.0
  0
ARC
  5
E3A
  8
0
  6
CONTINUOUS
 10
150.76467547600569
 20
109.36842914174809
 30
0.0
 40
1.0
 50
270.0
 51
0.0
  0
ARC
  5
E3B
  8
0
  6
CONTINUOUS
 10
149.81785347600581
 20
110.77460014174861
 30
0.0
 40
1.0
 50
270.0
 51
0.0
  0
LINE
  5
E3C
  8
0
  6
CONTINUOUS
 10
149.81785347600581
 20
109.77460014174871
 30
0.0
 11
148.8176164760057
 21
109.77460014174871
 31
0.0
  0
ARC
  5
E3D
  8
0
  6
CONTINUOUS
 10
148.74902847600549
 20
104.3900051417482
 30
0.0
 40
1.0
 50
270.0
 51
0.0
  0
LINE
  5
E3E
  8
0
  6
CONTINUOUS
 10
149.74902847600561
 20
104.3900051417482
 30
0.0
 11
149.74902847600561
 21
108.36842914174809
 31
0.0
  0
LINE
  5
E3F
  8
0
  6
CONTINUOUS
 10
149.74902747600609
 20
97.890005141748276
 30
0.0
 11
149.74902747600609
 21
104.3900051417482
 31
0.0
  0
ARC
  5
E40
  8
0
  6
CONTINUOUS
 10
145.64902847600609
 20
108.4900051417485
 30
0.0
 40
1.0
 50
270.0
 51
0.0
  0
ARC
  5
E41
  8
0
  6
CONTINUOUS
 10
145.74902847600549
 20
108.3900051417482
 30
0.0
 40
1.0
 50
270.0
 51
0.0
  0
LINE
  5
E42
  8
0
  6
CONTINUOUS
 10
145.24849447600579
 20
103.3900051417482
 30
0.0
 11
144.60354947600581
 21
104.34784414174879
 31
0.0
  0
ARC
  5
E43
  8
0
  6
CONTINUOUS
 10
143.77406047600601
 20
103.7893221417485
 30
0.0
 40
1.0
 50
33.953696999990832
 51
89.874759000016255
  0
ARC
  5
E44
  8
0
  6
CONTINUOUS
 10
134.24902847600549
 20
99.640005141748219
 30
0.0
 40
2.5
 50
0.0
 51
180.0
  0
ARC
  5
E45
  8
0
  6
CONTINUOUS
 10
122.8490284760059
 20
108.4900051417485
 30
0.0
 40
1.0
 50
180.0
 51
270.0
  0
ARC
  5
E46
  8
0
  6
CONTINUOUS
 10
122.74902847600551
 20
108.3900051417482
 30
0.0
 40
1.0
 50
180.0
 51
270.0
  0
LINE
  5
E47
  8
0
  6
CONTINUOUS
 10
118.74902847600551
 20
108.36842914174809
 30
0.0
 11
119.6804404760054
 21
109.77460014174871
 31
0.0
  0
ARC
  5
E48
  8
0
  6
CONTINUOUS
 10
117.73338147600531
 20
109.36842914174809
 30
0.0
 40
1.0
 50
180.0
 51
270.0
  0
LINE
  5
E49
  8
0
  6
CONTINUOUS
 10
118.74902847600551
 20
108.36842914174809
 30
0.0
 11
117.73338147600531
 21
108.36842914174809
 31
0.0
  0
LINE
  5
E4A
  8
0
  6
CONTINUOUS
 10
118.6802034760061
 20
109.77460014174871
 30
0.0
 11
119.6804404760054
 21
109.77460014174871
 31
0.0
  0
ARC
  5
E4B
  8
0
  6
CONTINUOUS
 10
118.6802034760062
 20
110.77460014174871
 30
0.0
 40
1.0
 50
180.0
 51
270.0
  0
ARC
  5
E4C
  8
0
  6
CONTINUOUS
 10
124.72399747600539
 20
103.7893221417485
 30
0.0
 40
1.0
 50
90.125240999983689
 51
146.04630300000909
  0
LINE
  5
E4D
  8
0
  6
CONTINUOUS
 10
123.24956247600529
 20
103.3900051417482
 30
0.0
 11
123.8945074760053
 21
104.34784414174879
 31
0.0
  0
ARC
  5
E4E
  8
0
  6
CONTINUOUS
 10
120.7590284760057
 20
105.89322914174829
 30
0.0
 40
1.0
 50
180.0
 51
270.17778099998202
  0
ARC
  5
E4F
  8
0
  6
CONTINUOUS
 10
119.74902847600551
 20
104.3900051417482
 30
0.0
 40
1.0
 50
180.0
 51
270.0
  0
LINE
  5
E50
  8
0
  6
CONTINUOUS
 10
119.74902847600551
 20
103.3900051417482
 30
0.0
 11
123.24956247600529
 21
103.3900051417482
 31
0.0
  0
LINE
  5
E51
  8
0
  6
CONTINUOUS
 10
118.74902847600551
 20
104.3900051417482
 30
0.0
 11
118.74902847600551
 21
108.36842914174809
 31
0.0
  0
LINE
  5
E52
  8
0
  6
CONTINUOUS
 10
122.8490284760059
 20
107.4900051417486
 30
0.0
 11
145.64902847600609
 21
107.4900051417486
 31
0.0
  0
ARC
  5
E53
  8
0
  6
CONTINUOUS
 10
134.24902847600339
 20
-4241.6825498582511
 30
0.0
 40
4346.5967079999991
 50
89.82221899996577
 51
90.177780999982076
  0
ARC
  5
E54
  8
0
  6
CONTINUOUS
 10
134.24902847600339
 20
-4253.7694428582508
 30
0.0
 40
4358.5691749999987
 50
89.874759000016255
 51
90.125240999983689
  0
LINE
  5
E55
  8
0
  6
CONTINUOUS
 10
144.57335047600591
 20
104.39026714174869
 30
0.0
 11
123.92470747600549
 21
104.39026714174869
 31
0.0
  0
LINE
  5
E56
  8
0
  6
CONTINUOUS
 10
122.74902847600551
 20
107.3900051417482
 30
0.0
 11
145.74902847600561
 21
107.3900051417482
 31
0.0
  0
LINE
  5
E57
  8
0
  6
CONTINUOUS
 10
129.14902847600609
 20
112.09000514174799
 30
0.0
 11
139.94902847600531
 21
112.09000514174799
 31
0.0
  0
ARC
  5
E58
  8
0
  6
CONTINUOUS
 10
130.24902847600549
 20
97.890005141748233
 30
0.0
 40
1.5
 50
270.0
 51
0.0
  0
ARC
  5
E59
  8
0
  6
CONTINUOUS
 10
138.24902847600549
 20
97.890005141748233
 30
0.0
 40
1.5
 50
180.0
 51
270.0
  0
LINE
  5
E5A
  8
0
  6
CONTINUOUS
 10
138.24902847600549
 20
96.390005141748276
 30
0.0
 11
148.24902747600609
 21
96.390005141748276
 31
0.0
  0
ARC
  5
E5B
  8
0
  6
CONTINUOUS
 10
120.2490294760058
 20
97.890005141748276
 30
0.0
 40
1.5
 50
180.0
 51
270.0
  0
LINE
  5
E5C
  8
0
  6
CONTINUOUS
 10
120.2490294760059
 20
96.390005141748276
 30
0.0
 11
130.24902847600549
 21
96.390005141748276
 31
0.0
  0
LINE
  5
E5D
  8
0
  6
CONTINUOUS
 10
118.7490294760058
 20
97.890005141748276
 30
0.0
 11
118.7490294760058
 21
104.3900051417482
 31
0.0
  0
LINE
  5
E5E
  8
0
  6
CONTINUOUS
 10
136.74902847600549
 20
99.640005141748276
 30
0.0
 11
136.74902847600549
 21
97.890005141748276
 31
0.0
  0
LINE
  5
E5F
  8
0
  6
CONTINUOUS
 10
131.74902847600549
 20
99.640005141748276
 30
0.0
 11
131.74902847600549
 21
97.890005141748276
 31
0.0
  0
ARC
  5
E60
  8
0
  6
CONTINUOUS
 10
148.24902747600609
 20
97.890005141748233
 30
0.0
 40
1.5
 50
270.0
 51
0.0
  0
ARC
  5
E61
  8
0
  6
CONTINUOUS
 10
147.73902847600621
 20
105.89322914174819
 30
0.0
 40
1.0
 50
269.82221900001792
 51
0.0
  0
LINE
  5
E62
  8
0
  6
CONTINUOUS
 10
145.24849447600579
 20
103.3900051417482
 30
0.0
 11
148.74902847600561
 21
103.3900051417482
 31
0.0
  0
LINE
  5
E63
  8
0
  6
CONTINUOUS
 10
146.64902847600609
 20
202.79000514174871
 30
0.0
 11
146.64902847600609
 21
108.4900051417486
 31
0.0
  0
LINE
  5
E64
  8
0
  6
CONTINUOUS
 10
121.8490284760059
 20
202.79000514174871
 30
0.0
 11
121.8490284760059
 21
108.4900051417486
 31
0.0
  0
LINE
  5
E65
  8
0
  6
CONTINUOUS
 10
119.7590284760058
 20
205.38678214174851
 30
0.0
 11
119.7590284760057
 21
105.89322914174829
 31
0.0
  0
LINE
  5
E66
  8
0
  6
CONTINUOUS
 10
116.73338147600541
 20
109.36842914174809
 30
0.0
 11
116.73338147600541
 21
201.91158114174829
 31
0.0
  0
LINE
  5
E67
  8
0
  6
CONTINUOUS
 10
148.7390284760063
 20
205.38678214174851
 30
0.0
 11
148.7390284760063
 21
105.89322914174829
 31
0.0
  0
LINE
  5
E68
  8
0
  6
CONTINUOUS
 10
151.76467547600569
 20
109.36842914174809
 30
0.0
 11
151.76467547600569
 21
201.91158114174829
 31
0.0
  0
LINE
  5
E69
  8
0
  6
CONTINUOUS
 10
121.74902847600551
 20
108.3900051417482
 30
0.0
 11
121.74902847600561
 21
202.89000514174819
 31
0.0
  0
LINE
  5
E6A
  8
0
  6
CONTINUOUS
 10
146.74902847600561
 20
108.3900051417482
 30
0.0
 11
146.74902847600561
 21
202.89000514174819
 31
0.0
  0
LINE
  5
E6B
  8
0
  6
CONTINUOUS
 10
117.6802034760062
 20
200.50541114174811
 30
0.0
 11
117.6802034760061
 21
110.77460014174871
 31
0.0
  0
LINE
  5
E6C
  8
0
  6
CONTINUOUS
 10
129.14902847600609
 20
112.09000514174799
 30
0.0
 11
129.14902847600609
 21
129.59000514174801
 31
0.0
  0
LINE
  5
E6D
  8
0
  6
CONTINUOUS
 10
150.81785347600581
 20
200.50541114174811
 30
0.0
 11
150.81785347600581
 21
110.77460014174871
 31
0.0
  0
LINE
  5
E6E
  8
0
  6
CONTINUOUS
 10
139.9490284760054
 20
194.7900051417478
 30
0.0
 11
139.94902847600531
 21
112.09000514174799
 31
0.0
  0
LINE
  5
E6F
  8
0
 10
1.5000004760062811
 20
20.007823141748919
 30
0.0
 11
0.0000004760062813
 21
20.007823141748919
 31
0.0
  0
LINE
  5
E70
  8
0
 10
1.5000004760062799
 20
15.007823141748929
 30
0.0
 11
0.0000004760062804
 21
15.007823141748929
 31
0.0
  0
LINE
  5
E71
  8
0
 10
1.5000004760062811
 20
21.507823141748929
 30
0.0
 11
0.0000004760062816
 21
21.507823141748929
 31
0.0
  0
LINE
  5
E72
  8
0
 10
1.5000004760062799
 20
13.50782314174892
 30
0.0
 11
0.0000004760062801
 21
13.50782314174892
 31
0.0
  0
POLYLINE
  5
E73
  8
0
 66
     1
 10
0.0
 20
0.0
 30
0.0
 70
     1
  0
VERTEX
  5
FF7
  8
0
 10
1.5000004760062831
 20
33.008032141748743
 30
0.0
  0
VERTEX
  5
FF8
  8
0
 10
1.5000004760062771
 20
2.0076141417491149
 30
0.0
  0
VERTEX
  5
FF9
  8
0
 10
0.000000476006278
 20
2.0076141417491149
 30
0.0
  0
VERTEX
  5
FFA
  8
0
 10
0.0000004760062837
 20
33.008032141748743
 30
0.0
  0
SEQEND
  5
FFB
  8
0
  0
LINE
  5
E74
  8
0
 10
1.5000004760062831
 20
33.008032141748743
 30
0.0
 11
1.5000004760062771
 21
2.0076141417491149
 31
0.0
  0
POLYLINE
  5
E75
  8
0
 66
     1
 10
0.0
 20
0.0
 30
0.0
 70
     1
  0
VERTEX
  5
FFC
  8
0
 10
1.5000004760063339
 20
310.39334614174879
 30
0.0
  0
VERTEX
  5
FFD
  8
0
 10
1.500000476006329
 20
279.39292814174922
 30
0.0
  0
VERTEX
  5
FFE
  8
0
 10
0.000000476006329
 20
279.39292814174922
 30
0.0
  0
VERTEX
  5
FFF
  8
0
 10
0.0000004760063346
 20
310.39334614174879
 30
0.0
  0
SEQEND
  5
1000
  8
0
  0
LINE
  5
E76
  8
0
 10
0.0000004760063173
 20
215.6400051417483
 30
0.0
 11
1.500000476006317
 21
215.6400051417483
 31
0.0
  0
LINE
  5
E77
  8
0
 10
1.4936274760061281
 20
96.640005141747395
 30
0.0
 11
1.500000476006295
 21
96.646378141746666
 31
0.0
  0
LINE
  5
E78
  8
0
 10
0.0000004760062952
 20
95.640005141747395
 30
0.0
 11
1.500000476006295
 21
95.640005141747395
 31
0.0
  0
LINE
  5
E79
  8
0
 10
1.500000476006295
 20
95.640005141747395
 30
0.0
 11
1.500000476006297
 21
107.6418571417468
 31
0.0
  0
LINE
  5
E7A
  8
0
 10
1.5000004760063139
 20
202.88843414174849
 30
0.0
 11
1.500000476006317
 21
215.6400051417483
 31
0.0
  0
LINE
  5
E7B
  8
0
 10
0.0000004760062952
 20
95.640005141747395
 30
0.0
 11
0.0000004760063173
 21
215.6400051417483
 31
0.0
  0
ARC
  5
E7C
  8
0
  6
CONTINUOUS
 10
60.944631476005668
 20
1.923708141749273
 30
0.0
 40
1.0
 50
270.88282099996832
 51
0.0
  0
ARC
  5
E7D
  8
2_カバ_
  6
CONTINUOUS
 62
     7
 10
-31.899999523994271
 20
17.507824141749261
 30
0.0
 40
100.0
 50
351.6685109999919
 51
352.1601729999698
  0
LINE
  5
E7E
  8
2_カバ_
  6
CONTINUOUS
 62
     7
 10
67.044631476006032
 20
3.017823141749147
 30
0.0
 11
66.190182476005646
 21
3.0046571417485088
 31
0.0
  0
ARC
  5
E7F
  8
2_カバ_
  6
CONTINUOUS
 62
   140
 10
66.174774476006334
 20
4.0045381417482409
 30
0.0
 40
1.0
 50
270.88282099996832
 51
352.160600000008
  0
LINE
  5
E80
  8
0
  6
CONTINUOUS
 10
51.100000476005732
 20
11.507824141749261
 30
0.0
 11
53.100000476005732
 21
11.507824141749261
 31
0.0
  0
LINE
  5
E81
  8
0
  6
CONTINUOUS
 10
55.100000476005732
 20
11.507824141749261
 30
0.0
 11
57.100000476005732
 21
11.507824141749261
 31
0.0
  0
ARC
  5
E82
  8
0
  6
CONTINUOUS
 10
60.76584347600641
 20
9.4218431417490933
 30
0.0
 40
2.0
 50
270.88282099996832
 51
355.26714400001669
  0
LINE
  5
E83
  8
0
  6
CONTINUOUS
 10
61.944631476005668
 20
1.923708141749273
 30
0.0
 11
61.944631476005668
 21
2.939236141749177
 31
0.0
  0
LINE
  5
E84
  8
0
  6
CONTINUOUS
 10
47.100000476005732
 20
11.507824141749261
 30
0.0
 11
49.100000476005732
 21
11.507824141749261
 31
0.0
  0
LINE
  5
E85
  8
0
  6
CONTINUOUS
 10
43.100000476005732
 20
11.507824141749261
 30
0.0
 11
45.100000476005732
 21
11.507824141749261
 31
0.0
  0
LINE
  5
E86
  8
0
  6
CONTINUOUS
 10
35.100000476005732
 20
11.507824141749261
 30
0.0
 11
37.100000476005732
 21
11.507824141749261
 31
0.0
  0
LINE
  5
E87
  8
0
  6
CONTINUOUS
 10
31.100000476005729
 20
11.507824141749261
 30
0.0
 11
33.100000476005732
 21
11.507824141749261
 31
0.0
  0
LINE
  5
E88
  8
0
  6
CONTINUOUS
 10
39.100000476005732
 20
11.507824141749261
 30
0.0
 11
41.100000476005732
 21
11.507824141749261
 31
0.0
  0
ARC
  5
E89
  8
0
  6
CONTINUOUS
 10
-31.899999523994271
 20
17.507824141749261
 30
0.0
 40
100.0
 50
7.8398260000161093
 51
8.3314879999821958
  0
LINE
  5
E8A
  8
0
  6
CONTINUOUS
 10
67.044631476006032
 20
31.997823141748711
 30
0.0
 11
66.190182476005646
 21
32.010990141748771
 31
0.0
  0
ARC
  5
E8B
  8
0
  6
CONTINUOUS
 10
66.174774476006334
 20
31.011109141749039
 30
0.0
 40
1.0
 50
7.8393979999627748
 51
89.117178999979487
  0
LINE
  5
E8C
  8
0
  6
CONTINUOUS
 10
53.100000476005739
 20
23.507824141749261
 30
0.0
 11
51.100000476005739
 21
23.507824141749261
 31
0.0
  0
LINE
  5
E8D
  8
0
  6
CONTINUOUS
 10
57.100000476005739
 20
23.507824141749261
 30
0.0
 11
55.100000476005732
 21
23.507824141749261
 31
0.0
  0
LINE
  5
E8E
  8
0
  6
CONTINUOUS
 10
61.944631476005682
 20
33.091939141748917
 30
0.0
 11
61.944631476005682
 21
32.07641114174902
 31
0.0
  0
ARC
  5
E8F
  8
0
  6
CONTINUOUS
 10
60.944631476005668
 20
33.091939141748917
 30
0.0
 40
1.0
 50
0.0
 51
89.117178999979487
  0
ARC
  5
E90
  8
0
  6
CONTINUOUS
 10
60.765844476005839
 20
25.5938041417491
 30
0.0
 40
2.0
 50
4.7328550000147827
 51
89.117178999979487
  0
LINE
  5
E91
  8
0
  6
CONTINUOUS
 10
49.100000476005739
 20
23.507824141749261
 30
0.0
 11
47.100000476005739
 21
23.507824141749261
 31
0.0
  0
LINE
  5
E92
  8
0
  6
CONTINUOUS
 10
45.100000476005732
 20
23.507824141749261
 30
0.0
 11
43.100000476005732
 21
23.507824141749261
 31
0.0
  0
LINE
  5
E93
  8
0
  6
CONTINUOUS
 10
37.100000476005739
 20
23.507824141749261
 30
0.0
 11
35.100000476005732
 21
23.507824141749261
 31
0.0
  0
LINE
  5
E94
  8
0
  6
CONTINUOUS
 10
33.100000476005739
 20
23.507824141749261
 30
0.0
 11
31.100000476005729
 21
23.507824141749261
 31
0.0
  0
LINE
  5
E95
  8
0
  6
CONTINUOUS
 10
41.100000476005739
 20
23.507824141749261
 30
0.0
 11
39.100000476005739
 21
23.507824141749261
 31
0.0
  0
LINE
  5
E96
  8
0
  6
CONTINUOUS
 10
67.315674476005782
 20
107.3900051417483
 30
0.0
 11
68.100000476005746
 21
107.3900051417483
 31
0.0
  0
LINE
  5
E97
  8
0
  6
CONTINUOUS
 10
68.100000476005746
 20
105.8915341417493
 30
0.0
 11
68.100000476005746
 21
107.3900051417483
 31
0.0
  0
ARC
  5
E98
  8
0
  6
CONTINUOUS
 10
66.044631476006046
 20
105.8673821417493
 30
0.0
 40
1.0
 50
271.31099500000022
 51
0.0
  0
LINE
  5
E99
  8
0
  6
CONTINUOUS
 10
67.044631476006046
 20
105.8673821417493
 30
0.0
 11
67.044631476006046
 21
104.8900051417483
 31
0.0
  0
ARC
  5
E9A
  8
0
  6
CONTINUOUS
 10
67.100000476005746
 20
105.8915341417493
 30
0.0
 40
1.0
 50
271.31099500000022
 51
0.0
  0
ARC
  5
E9B
  8
0
  6
CONTINUOUS
 10
60.944631476005689
 20
110.7519761417485
 30
0.0
 40
1.0
 50
271.31099500000022
 51
0.0
  0
LINE
  5
E9C
  8
0
  6
CONTINUOUS
 10
31.100000476005729
 20
23.507824141749261
 30
0.0
 11
31.100000476005729
 21
11.507824141749261
 31
0.0
  0
LINE
  5
E9D
  8
0
  6
CONTINUOUS
 10
29.100000476005729
 20
11.507824141749261
 30
0.0
 11
29.100000476005729
 21
23.507824141749261
 31
0.0
  0
LINE
  5
E9E
  8
0
  6
CONTINUOUS
 10
53.100000476005732
 20
11.507824141749261
 30
0.0
 11
53.100000476005739
 21
23.507824141749261
 31
0.0
  0
LINE
  5
E9F
  8
0
  6
CONTINUOUS
 10
51.100000476005739
 20
23.507824141749261
 30
0.0
 11
51.100000476005732
 21
11.507824141749261
 31
0.0
  0
LINE
  5
EA0
  8
0
  6
CONTINUOUS
 10
57.100000476005732
 20
11.507824141749261
 30
0.0
 11
57.100000476005739
 21
23.507824141749261
 31
0.0
  0
LINE
  5
EA1
  8
0
  6
CONTINUOUS
 10
37.100000476005732
 20
11.507824141749261
 30
0.0
 11
37.100000476005739
 21
23.507824141749261
 31
0.0
  0
LINE
  5
EA2
  8
0
  6
CONTINUOUS
 10
35.100000476005732
 20
23.507824141749261
 30
0.0
 11
35.100000476005732
 21
11.507824141749261
 31
0.0
  0
LINE
  5
EA3
  8
0
  6
CONTINUOUS
 10
47.100000476005739
 20
23.507824141749261
 30
0.0
 11
47.100000476005732
 21
11.507824141749261
 31
0.0
  0
LINE
  5
EA4
  8
0
  6
CONTINUOUS
 10
45.100000476005732
 20
11.507824141749261
 30
0.0
 11
45.100000476005732
 21
23.507824141749261
 31
0.0
  0
LINE
  5
EA5
  8
0
  6
CONTINUOUS
 10
43.100000476005732
 20
23.507824141749261
 30
0.0
 11
43.100000476005732
 21
11.507824141749261
 31
0.0
  0
LINE
  5
EA6
  8
0
  6
CONTINUOUS
 10
55.100000476005732
 20
23.507824141749261
 30
0.0
 11
55.100000476005732
 21
11.507824141749261
 31
0.0
  0
LINE
  5
EA7
  8
0
  6
CONTINUOUS
 10
49.100000476005732
 20
11.507824141749261
 30
0.0
 11
49.100000476005739
 21
23.507824141749261
 31
0.0
  0
LINE
  5
EA8
  8
0
  6
CONTINUOUS
 10
33.100000476005732
 20
11.507824141749261
 30
0.0
 11
33.100000476005739
 21
23.507824141749261
 31
0.0
  0
LINE
  5
EA9
  8
0
  6
CONTINUOUS
 10
41.100000476005732
 20
11.507824141749261
 30
0.0
 11
41.100000476005739
 21
23.507824141749261
 31
0.0
  0
LINE
  5
EAA
  8
0
  6
CONTINUOUS
 10
39.100000476005739
 20
23.507824141749261
 30
0.0
 11
39.100000476005732
 21
11.507824141749261
 31
0.0
  0
ARC
  5
EAB
  8
0
  6
CONTINUOUS
 10
-36.899999523994268
 20
17.507824141749261
 30
0.0
 40
100.0
 50
355.26714400001669
 51
4.7328550000147827
  0
ARC
  5
EAC
  8
0
  6
CONTINUOUS
 10
-31.899999523994271
 20
17.507824141749261
 30
0.0
 40
100.0
 50
352.160600000008
 51
7.8393979999627748
  0
LINE
  5
EAD
  8
0
  6
CONTINUOUS
 10
25.100000476005729
 20
11.507824141749261
 30
0.0
 11
23.100000476005729
 21
11.507824141749261
 31
0.0
  0
LINE
  5
EAE
  8
0
  6
CONTINUOUS
 10
22.100000476005729
 20
17.507824141749261
 30
0.0
 11
22.100000476005729
 21
11.507824141749261
 31
0.0
  0
ARC
  5
EAF
  8
0
  6
CONTINUOUS
 10
20.100000476005729
 20
13.507824141749261
 30
0.0
 40
0.5
 50
270.0
 51
0.0
  0
LINE
  5
EB0
  8
0
  6
CONTINUOUS
 10
17.850000476005729
 20
11.507824141749261
 30
0.0
 11
17.850000476005729
 21
13.007824141749261
 31
0.0
  0
LINE
  5
EB1
  8
0
  6
CONTINUOUS
 10
16.350000476005729
 20
11.507824141749261
 30
0.0
 11
16.350000476005729
 21
13.007824141749261
 31
0.0
  0
ARC
  5
EB2
  8
0
  6
CONTINUOUS
 10
20.100000476005729
 20
15.507824141749261
 30
0.0
 40
0.5
 50
0.0
 51
89.999999999999986
  0
LINE
  5
EB3
  8
0
  6
CONTINUOUS
 10
17.850000476005729
 20
16.007824141749261
 30
0.0
 11
17.850000476005729
 21
17.507824141749261
 31
0.0
  0
LINE
  5
EB4
  8
0
  6
CONTINUOUS
 10
16.350000476005729
 20
16.007824141749261
 30
0.0
 11
16.350000476005729
 21
17.507824141749261
 31
0.0
  0
LINE
  5
EB5
  8
0
  6
CONTINUOUS
 10
20.600000476005729
 20
15.507824141749261
 30
0.0
 11
20.600000476005729
 21
13.507824141749261
 31
0.0
  0
ARC
  5
EB6
  8
0
  6
CONTINUOUS
 10
14.10000047600573
 20
13.507824141749261
 30
0.0
 40
0.5
 50
180.0
 51
270.0
  0
ARC
  5
EB7
  8
0
  6
CONTINUOUS
 10
14.10000047600573
 20
15.507824141749261
 30
0.0
 40
0.5
 50
89.999999999999986
 51
180.0
  0
LINE
  5
EB8
  8
0
  6
CONTINUOUS
 10
12.10000047600573
 20
11.507824141749261
 30
0.0
 11
12.10000047600573
 21
17.507824141749261
 31
0.0
  0
LINE
  5
EB9
  8
0
  6
CONTINUOUS
 10
13.60000047600573
 20
13.507824141749261
 30
0.0
 11
13.60000047600573
 21
15.507824141749261
 31
0.0
  0
LINE
  5
EBA
  8
0
  6
CONTINUOUS
 10
7.100000476005734
 20
11.507824141749261
 30
0.0
 11
9.100000476005734
 21
11.507824141749261
 31
0.0
  0
LINE
  5
EBB
  8
0
  6
CONTINUOUS
 10
22.100000476005729
 20
11.507824141749261
 30
0.0
 11
12.10000047600573
 21
11.507824141749261
 31
0.0
  0
LINE
  5
EBC
  8
0
  6
CONTINUOUS
 10
12.10000047600573
 20
17.507824141749261
 30
0.0
 11
22.100000476005729
 21
17.507824141749261
 31
0.0
  0
LINE
  5
EBD
  8
0
  6
CONTINUOUS
 10
14.10000047600573
 20
16.007824141749261
 30
0.0
 11
20.100000476005729
 21
16.007824141749261
 31
0.0
  0
LINE
  5
EBE
  8
0
  6
CONTINUOUS
 10
20.100000476005729
 20
13.007824141749261
 30
0.0
 11
14.10000047600573
 21
13.007824141749261
 31
0.0
  0
LINE
  5
EBF
  8
0
  6
CONTINUOUS
 10
0.500000476006278
 20
2.0078231417489292
 30
0.0
 11
1.5000004760062771
 21
2.0078231417489292
 31
0.0
  0
LINE
  5
EC0
  8
0
  6
CONTINUOUS
 10
0.500000476006278
 20
2.0078231417489292
 30
0.0
 11
0.5000004760062778
 21
0.4999411417490478
 31
0.0
  0
ARC
  5
EC1
  8
0
  6
CONTINUOUS
 10
1.0000004760062771
 20
0.4999411417490478
 30
0.0
 40
0.5
 50
180.0
 51
270.88282099996832
  0
LINE
  5
EC2
  8
0
  6
CONTINUOUS
 10
25.100000476005729
 20
23.507824141749261
 30
0.0
 11
23.100000476005729
 21
23.507824141749261
 31
0.0
  0
LINE
  5
EC3
  8
0
  6
CONTINUOUS
 10
21.100000476005729
 20
19.007824141749261
 30
0.0
 11
19.100000476005729
 21
19.007824141749261
 31
0.0
  0
LINE
  5
EC4
  8
0
  6
CONTINUOUS
 10
21.100000476005729
 20
23.507824141749261
 30
0.0
 11
19.100000476005729
 21
23.507824141749261
 31
0.0
  0
LINE
  5
EC5
  8
0
  6
CONTINUOUS
 10
21.100000476005729
 20
19.007824141749261
 30
0.0
 11
21.100000476005729
 21
23.507824141749261
 31
0.0
  0
LINE
  5
EC6
  8
0
  6
CONTINUOUS
 10
19.100000476005729
 20
23.507824141749261
 30
0.0
 11
19.100000476005729
 21
19.007824141749261
 31
0.0
  0
LINE
  5
EC7
  8
0
  6
CONTINUOUS
 10
17.100000476005729
 20
19.007824141749261
 30
0.0
 11
17.100000476005729
 21
23.507824141749261
 31
0.0
  0
LINE
  5
EC8
  8
0
  6
CONTINUOUS
 10
13.10000047600573
 20
19.007824141749261
 30
0.0
 11
11.10000047600573
 21
19.007824141749261
 31
0.0
  0
LINE
  5
EC9
  8
0
  6
CONTINUOUS
 10
13.10000047600573
 20
23.507824141749261
 30
0.0
 11
11.10000047600573
 21
23.507824141749261
 31
0.0
  0
LINE
  5
ECA
  8
0
  6
CONTINUOUS
 10
13.10000047600573
 20
19.007824141749261
 30
0.0
 11
13.10000047600573
 21
23.507824141749261
 31
0.0
  0
LINE
  5
ECB
  8
0
  6
CONTINUOUS
 10
11.10000047600573
 20
23.507824141749261
 30
0.0
 11
11.10000047600573
 21
19.007824141749261
 31
0.0
  0
LINE
  5
ECC
  8
0
  6
CONTINUOUS
 10
15.10000047600573
 20
23.507824141749261
 30
0.0
 11
15.10000047600573
 21
19.007824141749261
 31
0.0
  0
LINE
  5
ECD
  8
0
  6
CONTINUOUS
 10
9.1000004760057358
 20
23.507824141749261
 30
0.0
 11
7.1000004760057349
 21
23.507824141749261
 31
0.0
  0
LINE
  5
ECE
  8
0
  6
CONTINUOUS
 10
17.100000476005729
 20
23.507824141749261
 30
0.0
 11
15.10000047600573
 21
23.507824141749261
 31
0.0
  0
LINE
  5
ECF
  8
0
  6
CONTINUOUS
 10
17.100000476005729
 20
19.007824141749261
 30
0.0
 11
15.10000047600573
 21
19.007824141749261
 31
0.0
  0
LINE
  5
ED0
  8
0
  6
CONTINUOUS
 10
1.5000004760062831
 20
33.007823141748929
 30
0.0
 11
0.5000004760062838
 21
33.007823141748929
 31
0.0
  0
LINE
  5
ED1
  8
0
  6
CONTINUOUS
 10
0.5000004760062838
 20
33.007823141748929
 30
0.0
 11
0.5000004760062839
 21
34.515706141749149
 31
0.0
  0
ARC
  5
ED2
  8
0
  6
CONTINUOUS
 10
1.0000004760062831
 20
34.515706141749149
 30
0.0
 40
0.5
 50
89.117178999979487
 51
180.0
  0
LINE
  5
ED3
  8
0
  6
CONTINUOUS
 10
1.5000004760062959
 20
103.3900051417482
 30
0.0
 11
1.500000476006297
 21
108.391329141749
 31
0.0
  0
ARC
  5
ED4
  8
0
  6
CONTINUOUS
 10
1.500000476006297
 20
109.3915761417489
 30
0.0
 40
1.0
 50
180.0
 51
271.31099500000022
  0
LINE
  5
ED5
  8
0
  6
CONTINUOUS
 10
1.5000004760062831
 20
33.007823141748929
 30
0.0
 11
1.5000004760062771
 21
2.0078231417489292
 31
0.0
  0
LINE
  5
ED6
  8
0
  6
CONTINUOUS
 10
27.100000476005729
 20
23.507824141749261
 30
0.0
 11
27.100000476005729
 21
11.507824141749261
 31
0.0
  0
LINE
  5
ED7
  8
0
  6
CONTINUOUS
 10
23.100000476005729
 20
23.507824141749261
 30
0.0
 11
23.100000476005729
 21
11.507824141749261
 31
0.0
  0
LINE
  5
ED8
  8
0
  6
CONTINUOUS
 10
9.100000476005734
 20
11.507824141749261
 30
0.0
 11
9.1000004760057358
 21
23.507824141749261
 31
0.0
  0
LINE
  5
ED9
  8
0
  6
CONTINUOUS
 10
7.1000004760057349
 20
23.507824141749261
 30
0.0
 11
7.100000476005734
 21
11.507824141749261
 31
0.0
  0
LINE
  5
EDA
  8
0
  6
CONTINUOUS
 10
25.100000476005729
 20
11.507824141749261
 30
0.0
 11
25.100000476005729
 21
23.507824141749261
 31
0.0
  0
LINE
  5
EDB
  8
0
  6
CONTINUOUS
 10
1.5000004760062959
 20
103.3900051417482
 30
0.0
 11
67.122879476005849
 21
104.8917961417489
 31
0.0
  0
LINE
  5
EDC
  8
0
  6
CONTINUOUS
 10
1.52287947600549
 20
108.39183814174849
 30
0.0
 11
60.967510476005792
 21
109.752238141749
 31
0.0
  0
LINE
  5
EDD
  8
0
  6
CONTINUOUS
 10
29.100000476005729
 20
23.507824141749261
 30
0.0
 11
27.100000476005729
 21
23.507824141749261
 31
0.0
  0
LINE
  5
EDE
  8
0
  6
CONTINUOUS
 10
27.100000476005729
 20
11.507824141749261
 30
0.0
 11
29.100000476005729
 21
11.507824141749261
 31
0.0
  0
LINE
  5
EDF
  8
0
  6
CONTINUOUS
 10
66.190182476005646
 20
32.010990141748771
 30
0.0
 11
1.5000004760062831
 21
33.007823141748929
 31
0.0
  0
LINE
  5
EE0
  8
0
  6
CONTINUOUS
 10
66.190182476005646
 20
3.0046571417485088
 30
0.0
 11
1.5000004760062771
 21
2.0078231417489292
 31
0.0
  0
LINE
  5
EE1
  8
0
  6
CONTINUOUS
 10
60.960038476006453
 20
34.091820141748649
 30
0.0
 11
1.0077044760059319
 21
35.015647141749177
 31
0.0
  0
LINE
  5
EE2
  8
0
  6
CONTINUOUS
 10
60.960038476006453
 20
0.9238261417492026
 30
0.0
 11
1.0077044760059259
 21
0.0000001417490125
 31
0.0
  0
LINE
  5
EE3
  8
0
  6
CONTINUOUS
 10
60.796658476006478
 20
7.4220801417492899
 30
0.0
 11
1.5000004760062779
 21
6.5083581417490564
 31
0.0
  0
LINE
  5
EE4
  8
0
  6
CONTINUOUS
 10
60.796659476005921
 20
27.593566141748571
 30
0.0
 11
1.5000004760062819
 21
28.507289141748231
 31
0.0
  0
LINE
  5
EE5
  8
0
  6
CONTINUOUS
 10
67.31567447600581
 20
203.8900051417483
 30
0.0
 11
68.100000476005775
 21
203.8900051417483
 31
0.0
  0
LINE
  5
EE6
  8
0
  6
CONTINUOUS
 10
68.100000476005775
 20
205.38847614174901
 30
0.0
 11
68.100000476005775
 21
203.8900051417483
 31
0.0
  0
LINE
  5
EE7
  8
0
  6
CONTINUOUS
 10
67.044631476006074
 20
206.3900051417483
 30
0.0
 11
67.044631476006074
 21
205.412628141749
 31
0.0
  0
ARC
  5
EE8
  8
0
  6
CONTINUOUS
 10
66.044631476006074
 20
205.412628141749
 30
0.0
 40
1.0
 50
0.0
 51
88.689004999999725
  0
ARC
  5
EE9
  8
0
  6
CONTINUOUS
 10
67.100000476005775
 20
205.38847614174901
 30
0.0
 40
1.0
 50
0.0
 51
88.689004999999725
  0
ARC
  5
EEA
  8
0
  6
CONTINUOUS
 10
60.944631476005711
 20
200.52803314174861
 30
0.0
 40
1.0
 50
0.0
 51
88.689004999999725
  0
ARC
  5
EEB
  8
2_カバ_
  6
CONTINUOUS
 62
     7
 10
-31.899999523994211
 20
294.8931361417487
 30
0.0
 40
100.0
 50
351.66851200001781
 51
352.1601739999839
  0
LINE
  5
EEC
  8
2_カバ_
  6
CONTINUOUS
 62
     7
 10
67.044631476006089
 20
280.40313714174829
 30
0.0
 11
66.190182476005702
 21
280.38997014174919
 31
0.0
  0
ARC
  5
EED
  8
0
  6
CONTINUOUS
 10
66.174774476006405
 20
281.38985114174892
 30
0.0
 40
1.0
 50
270.88282099996832
 51
352.16060200003398
  0
LINE
  5
EEE
  8
0
  6
CONTINUOUS
 10
61.944631476005718
 20
279.30902114174899
 30
0.0
 11
61.944631476005718
 21
280.32454914174889
 31
0.0
  0
ARC
  5
EEF
  8
0
  6
CONTINUOUS
 10
60.944631476005711
 20
279.30902114174899
 30
0.0
 40
1.0
 50
270.88282099996832
 51
0.0
  0
LINE
  5
EF0
  8
0
  6
CONTINUOUS
 10
53.100000476005782
 20
288.8931361417487
 30
0.0
 11
51.100000476005782
 21
288.8931361417487
 31
0.0
  0
LINE
  5
EF1
  8
0
  6
CONTINUOUS
 10
57.100000476005782
 20
288.8931361417487
 30
0.0
 11
55.100000476005782
 21
288.8931361417487
 31
0.0
  0
ARC
  5
EF2
  8
0
  6
CONTINUOUS
 10
60.765844476005888
 20
286.80715614174881
 30
0.0
 40
2.0
 50
270.88282099996832
 51
355.26714499998189
  0
ARC
  5
EF3
  8
2_カバ_
  6
CONTINUOUS
 62
     7
 10
-31.899999523994211
 20
294.8931361417487
 30
0.0
 40
100.0
 50
7.8398270000301871
 51
8.3314890000080322
  0
LINE
  5
EF4
  8
2_カバ_
  6
CONTINUOUS
 62
     7
 10
67.044631476006089
 20
309.38313714174882
 30
0.0
 11
66.190182476005702
 21
309.39630314174849
 31
0.0
  0
ARC
  5
EF5
  8
0
  6
CONTINUOUS
 10
66.174774476006405
 20
308.39642214174881
 30
0.0
 40
1.0
 50
7.8393999999920077
 51
89.117178999979487
  0
LINE
  5
EF6
  8
0
  6
CONTINUOUS
 10
51.100000476005782
 20
300.8931361417487
 30
0.0
 11
53.100000476005789
 21
300.8931361417487
 31
0.0
  0
LINE
  5
EF7
  8
0
  6
CONTINUOUS
 10
55.100000476005789
 20
300.8931361417487
 30
0.0
 11
57.100000476005789
 21
300.8931361417487
 31
0.0
  0
ARC
  5
EF8
  8
0
  6
CONTINUOUS
 10
60.944631476005718
 20
310.47725214174869
 30
0.0
 40
1.0
 50
0.0
 51
89.117178999979487
  0
LINE
  5
EF9
  8
0
  6
CONTINUOUS
 10
61.944631476005718
 20
310.47725214174869
 30
0.0
 11
61.944631476005718
 21
309.46172414174879
 31
0.0
  0
ARC
  5
EFA
  8
0
  6
CONTINUOUS
 10
60.765843476006467
 20
302.97911714174882
 30
0.0
 40
2.0
 50
4.7328559999833058
 51
89.117178999979487
  0
ARC
  5
EFB
  8
0
  6
CONTINUOUS
 10
-36.899999523994211
 20
294.8931361417487
 30
0.0
 40
100.0
 50
355.26714499998189
 51
4.7328559999833058
  0
LINE
  5
EFC
  8
0
  6
CONTINUOUS
 10
53.100000476005789
 20
300.8931361417487
 30
0.0
 11
53.100000476005782
 21
288.8931361417487
 31
0.0
  0
LINE
  5
EFD
  8
0
  6
CONTINUOUS
 10
51.100000476005782
 20
288.8931361417487
 30
0.0
 11
51.100000476005782
 21
300.8931361417487
 31
0.0
  0
LINE
  5
EFE
  8
0
  6
CONTINUOUS
 10
57.100000476005789
 20
300.8931361417487
 30
0.0
 11
57.100000476005782
 21
288.8931361417487
 31
0.0
  0
LINE
  5
EFF
  8
0
  6
CONTINUOUS
 10
55.100000476005782
 20
288.8931361417487
 30
0.0
 11
55.100000476005789
 21
300.8931361417487
 31
0.0
  0
LINE
  5
F00
  8
0
  6
CONTINUOUS
 10
49.100000476005782
 20
288.8931361417487
 30
0.0
 11
47.100000476005782
 21
288.8931361417487
 31
0.0
  0
LINE
  5
F01
  8
0
  6
CONTINUOUS
 10
45.100000476005782
 20
288.8931361417487
 30
0.0
 11
43.100000476005782
 21
288.8931361417487
 31
0.0
  0
LINE
  5
F02
  8
0
  6
CONTINUOUS
 10
35.100000476005782
 20
288.89313714174898
 30
0.0
 11
37.100000476005782
 21
288.89313714174898
 31
0.0
  0
LINE
  5
F03
  8
0
  6
CONTINUOUS
 10
31.100000476005778
 20
288.89313714174898
 30
0.0
 11
33.100000476005782
 21
288.89313714174898
 31
0.0
  0
LINE
  5
F04
  8
0
  6
CONTINUOUS
 10
41.100000476005782
 20
288.8931361417487
 30
0.0
 11
39.100000476005782
 21
288.8931361417487
 31
0.0
  0
LINE
  5
F05
  8
0
  6
CONTINUOUS
 10
47.100000476005789
 20
300.8931361417487
 30
0.0
 11
49.100000476005789
 21
300.8931361417487
 31
0.0
  0
LINE
  5
F06
  8
0
  6
CONTINUOUS
 10
43.100000476005789
 20
300.8931361417487
 30
0.0
 11
45.100000476005789
 21
300.8931361417487
 31
0.0
  0
LINE
  5
F07
  8
0
  6
CONTINUOUS
 10
35.100000476005789
 20
300.8931361417487
 30
0.0
 11
37.100000476005782
 21
300.8931361417487
 31
0.0
  0
LINE
  5
F08
  8
0
  6
CONTINUOUS
 10
31.100000476005778
 20
300.8931361417487
 30
0.0
 11
33.100000476005789
 21
300.8931361417487
 31
0.0
  0
LINE
  5
F09
  8
0
  6
CONTINUOUS
 10
39.100000476005789
 20
300.8931361417487
 30
0.0
 11
41.100000476005782
 21
300.8931361417487
 31
0.0
  0
LINE
  5
F0A
  8
0
  6
CONTINUOUS
 10
31.100000476005778
 20
288.89313714174898
 30
0.0
 11
31.100000476005778
 21
300.8931361417487
 31
0.0
  0
LINE
  5
F0B
  8
0
  6
CONTINUOUS
 10
29.100000476005778
 20
300.8931361417487
 30
0.0
 11
29.100000476005778
 21
288.89313714174898
 31
0.0
  0
LINE
  5
F0C
  8
0
  6
CONTINUOUS
 10
37.100000476005782
 20
300.8931361417487
 30
0.0
 11
37.100000476005782
 21
288.89313714174898
 31
0.0
  0
LINE
  5
F0D
  8
0
  6
CONTINUOUS
 10
35.100000476005782
 20
288.89313714174898
 30
0.0
 11
35.100000476005789
 21
300.8931361417487
 31
0.0
  0
LINE
  5
F0E
  8
0
  6
CONTINUOUS
 10
47.100000476005782
 20
288.8931361417487
 30
0.0
 11
47.100000476005789
 21
300.8931361417487
 31
0.0
  0
LINE
  5
F0F
  8
0
  6
CONTINUOUS
 10
45.100000476005789
 20
300.8931361417487
 30
0.0
 11
45.100000476005782
 21
288.8931361417487
 31
0.0
  0
LINE
  5
F10
  8
0
  6
CONTINUOUS
 10
43.100000476005782
 20
288.8931361417487
 30
0.0
 11
43.100000476005789
 21
300.8931361417487
 31
0.0
  0
LINE
  5
F11
  8
0
  6
CONTINUOUS
 10
49.100000476005789
 20
300.8931361417487
 30
0.0
 11
49.100000476005782
 21
288.8931361417487
 31
0.0
  0
LINE
  5
F12
  8
0
  6
CONTINUOUS
 10
33.100000476005789
 20
300.8931361417487
 30
0.0
 11
33.100000476005782
 21
288.89313714174898
 31
0.0
  0
LINE
  5
F13
  8
0
  6
CONTINUOUS
 10
41.100000476005782
 20
300.8931361417487
 30
0.0
 11
41.100000476005782
 21
288.8931361417487
 31
0.0
  0
LINE
  5
F14
  8
0
  6
CONTINUOUS
 10
39.100000476005782
 20
288.8931361417487
 30
0.0
 11
39.100000476005789
 21
300.8931361417487
 31
0.0
  0
ARC
  5
F15
  8
0
  6
CONTINUOUS
 10
-31.899999523994211
 20
294.8931361417487
 30
0.0
 40
100.0
 50
352.16060200003398
 51
7.8393999999920077
  0
LINE
  5
F16
  8
0
  6
CONTINUOUS
 10
6.4000004760059408
 20
150.6400051417483
 30
0.0
 11
8.5000004760063046
 21
150.6400051417483
 31
0.0
  0
ARC
  5
F17
  8
0
  6
CONTINUOUS
 10
5.9875004760064874
 20
152.1400051417483
 30
0.0
 40
0.8125
 50
300.51023700001969
 51
59.489762999980307
  0
LINE
  5
F18
  8
0
  6
CONTINUOUS
 10
8.5000004760063064
 20
160.64000514174819
 30
0.0
 11
6.4000004760059426
 21
160.64000514174819
 31
0.0
  0
ARC
  5
F19
  8
0
  6
CONTINUOUS
 10
5.9875004760064892
 20
159.1400051417483
 30
0.0
 40
0.8125
 50
300.51023700001969
 51
59.489762999980307
  0
LINE
  5
F1A
  8
0
  6
CONTINUOUS
 10
8.5000004760063064
 20
160.64000514174819
 30
0.0
 11
8.5000004760063046
 21
150.6400051417483
 31
0.0
  0
LINE
  5
F1B
  8
0
  6
CONTINUOUS
 10
6.4000004760059426
 20
160.64000514174819
 30
0.0
 11
6.4000004760059408
 21
150.6400051417483
 31
0.0
  0
ARC
  5
F1C
  8
0
  6
CONTINUOUS
 10
1.5000004760063139
 20
201.88843414174849
 30
0.0
 40
1.0
 50
88.689004999999725
 51
180.0
  0
LINE
  5
F1D
  8
0
  6
CONTINUOUS
 10
1.500000476006315
 20
207.8900051417483
 30
0.0
 11
1.5000004760063139
 21
202.888715141749
 31
0.0
  0
LINE
  5
F1E
  8
0
  6
CONTINUOUS
 10
1.500000476006329
 20
279.39313714174898
 30
0.0
 11
0.5000004760063291
 21
279.39313714174898
 31
0.0
  0
LINE
  5
F1F
  8
0
  6
CONTINUOUS
 10
0.5000004760063291
 20
279.39313714174898
 30
0.0
 11
0.5000004760063287
 21
277.88525414174882
 31
0.0
  0
ARC
  5
F20
  8
0
  6
CONTINUOUS
 10
1.0000004760063279
 20
277.88525414174882
 30
0.0
 40
0.5
 50
180.0
 51
270.88282099996832
  0
LINE
  5
F21
  8
0
  6
CONTINUOUS
 10
21.40000047600596
 20
288.99313714174849
 30
0.0
 11
17.40000047600596
 21
288.99313714174849
 31
0.0
  0
ARC
  5
F22
  8
0
  6
CONTINUOUS
 10
22.90000047600596
 20
292.79313714174862
 30
0.0
 40
0.5
 50
270.0
 51
0.0
  0
LINE
  5
F23
  8
0
  6
CONTINUOUS
 10
24.30000047600651
 20
291.2181371417488
 30
0.0
 11
24.30000047600651
 21
290.69313714174922
 31
0.0
  0
LINE
  5
F24
  8
0
  6
CONTINUOUS
 10
25.55000047600651
 20
291.2181371417488
 30
0.0
 11
24.30000047600651
 21
291.2181371417488
 31
0.0
  0
ARC
  5
F25
  8
0
  6
CONTINUOUS
 10
22.90000047600596
 20
293.79313714174862
 30
0.0
 40
0.5
 50
0.0
 51
89.999999999999986
  0
LINE
  5
F26
  8
0
  6
CONTINUOUS
 10
25.55000047600651
 20
295.36813714174838
 30
0.0
 11
24.30000047600651
 21
295.36813714174838
 31
0.0
  0
LINE
  5
F27
  8
0
  6
CONTINUOUS
 10
24.30000047600651
 20
295.99313714174838
 30
0.0
 11
24.30000047600651
 21
295.36813714174838
 31
0.0
  0
LINE
  5
F28
  8
0
  6
CONTINUOUS
 10
23.40000047600596
 20
293.79313714174862
 30
0.0
 11
23.40000047600596
 21
292.79313714174862
 31
0.0
  0
LINE
  5
F29
  8
0
  6
CONTINUOUS
 10
25.55000047600651
 20
295.36813714174838
 30
0.0
 11
25.55000047600651
 21
291.2181371417488
 31
0.0
  0
LINE
  5
F2A
  8
0
  6
CONTINUOUS
 10
20.000000476006331
 20
295.99313714174838
 30
0.0
 11
20.000000476006331
 21
294.29313714174862
 31
0.0
  0
LINE
  5
F2B
  8
0
  6
CONTINUOUS
 10
18.80000047600651
 20
295.99313714174838
 30
0.0
 11
18.80000047600651
 21
294.29313714174862
 31
0.0
  0
LINE
  5
F2C
  8
0
  6
CONTINUOUS
 10
24.30000047600651
 20
290.69313714174922
 30
0.0
 11
21.40000047600596
 21
290.69313714174922
 31
0.0
  0
LINE
  5
F2D
  8
0
  6
CONTINUOUS
 10
18.80000047600651
 20
292.29313714174862
 30
0.0
 11
18.80000047600651
 21
288.99313714174849
 31
0.0
  0
LINE
  5
F2E
  8
0
  6
CONTINUOUS
 10
20.000000476006331
 20
292.29313714174862
 30
0.0
 11
20.000000476006331
 21
288.99313714174849
 31
0.0
  0
LINE
  5
F2F
  8
0
  6
CONTINUOUS
 10
17.40000047600596
 20
290.69313714174922
 30
0.0
 11
17.40000047600596
 21
288.99313714174849
 31
0.0
  0
LINE
  5
F30
  8
0
  6
CONTINUOUS
 10
21.40000047600596
 20
290.69313714174922
 30
0.0
 11
21.40000047600596
 21
288.99313714174849
 31
0.0
  0
LINE
  5
F31
  8
0
  6
CONTINUOUS
 10
12.10000047600578
 20
288.8931361417487
 30
0.0
 11
11.10000047600578
 21
288.8931361417487
 31
0.0
  0
LINE
  5
F32
  8
0
  6
CONTINUOUS
 10
9.1000004760057855
 20
288.8931361417487
 30
0.0
 11
7.1000004760057838
 21
288.8931361417487
 31
0.0
  0
LINE
  5
F33
  8
0
  6
CONTINUOUS
 10
14.500000476006329
 20
291.2181371417488
 30
0.0
 11
14.500000476006329
 21
290.69313714174922
 31
0.0
  0
LINE
  5
F34
  8
0
  6
CONTINUOUS
 10
14.500000476006329
 20
291.2181371417488
 30
0.0
 11
13.250000476006329
 21
291.2181371417488
 31
0.0
  0
ARC
  5
F35
  8
0
  6
CONTINUOUS
 10
15.90000047600596
 20
292.79313714174862
 30
0.0
 40
0.5
 50
180.0
 51
270.0
  0
LINE
  5
F36
  8
0
  6
CONTINUOUS
 10
14.500000476006329
 20
295.99313714174838
 30
0.0
 11
14.500000476006329
 21
295.36813714174838
 31
0.0
  0
LINE
  5
F37
  8
0
  6
CONTINUOUS
 10
14.500000476006329
 20
295.36813714174838
 30
0.0
 11
13.250000476006329
 21
295.36813714174838
 31
0.0
  0
ARC
  5
F38
  8
0
  6
CONTINUOUS
 10
15.90000047600596
 20
293.79313714174862
 30
0.0
 40
0.5
 50
89.999999999999986
 51
180.0
  0
LINE
  5
F39
  8
0
  6
CONTINUOUS
 10
15.40000047600596
 20
293.79313714174862
 30
0.0
 11
15.40000047600596
 21
292.79313714174862
 31
0.0
  0
LINE
  5
F3A
  8
0
  6
CONTINUOUS
 10
13.250000476006329
 20
295.36813714174838
 30
0.0
 11
13.250000476006329
 21
291.2181371417488
 31
0.0
  0
LINE
  5
F3B
  8
0
  6
CONTINUOUS
 10
22.90000047600596
 20
294.29313714174862
 30
0.0
 11
15.90000047600596
 21
294.29313714174862
 31
0.0
  0
LINE
  5
F3C
  8
0
  6
CONTINUOUS
 10
17.40000047600596
 20
290.69313714174922
 30
0.0
 11
14.500000476006329
 21
290.69313714174922
 31
0.0
  0
LINE
  5
F3D
  8
0
  6
CONTINUOUS
 10
22.90000047600596
 20
292.29313714174862
 30
0.0
 11
15.90000047600596
 21
292.29313714174862
 31
0.0
  0
LINE
  5
F3E
  8
0
  6
CONTINUOUS
 10
24.30000047600651
 20
295.99313714174838
 30
0.0
 11
14.500000476006329
 21
295.99313714174838
 31
0.0
  0
LINE
  5
F3F
  8
0
  6
CONTINUOUS
 10
23.100000476005778
 20
300.8931361417487
 30
0.0
 11
23.100000476005778
 21
297.79313714174862
 31
0.0
  0
LINE
  5
F40
  8
0
  6
CONTINUOUS
 10
25.100000476005778
 20
300.8931361417487
 30
0.0
 11
25.100000476005778
 21
297.79313714174862
 31
0.0
  0
LINE
  5
F41
  8
0
  6
CONTINUOUS
 10
25.100000476005778
 20
300.8931361417487
 30
0.0
 11
23.100000476005778
 21
300.8931361417487
 31
0.0
  0
LINE
  5
F42
  8
0
  6
CONTINUOUS
 10
25.100000476005778
 20
297.79313714174862
 30
0.0
 11
23.100000476005778
 21
297.79313714174862
 31
0.0
  0
LINE
  5
F43
  8
0
  6
CONTINUOUS
 10
21.100000476005778
 20
300.8931361417487
 30
0.0
 11
21.100000476005778
 21
297.79313714174862
 31
0.0
  0
LINE
  5
F44
  8
0
  6
CONTINUOUS
 10
19.100000476005778
 20
300.8931361417487
 30
0.0
 11
19.100000476005778
 21
297.79313714174862
 31
0.0
  0
LINE
  5
F45
  8
0
  6
CONTINUOUS
 10
17.100000476005778
 20
300.8931361417487
 30
0.0
 11
17.100000476005778
 21
297.79313714174862
 31
0.0
  0
LINE
  5
F46
  8
0
  6
CONTINUOUS
 10
21.100000476005778
 20
300.8931361417487
 30
0.0
 11
19.100000476005778
 21
300.8931361417487
 31
0.0
  0
LINE
  5
F47
  8
0
  6
CONTINUOUS
 10
21.100000476005778
 20
297.79313714174862
 30
0.0
 11
19.100000476005778
 21
297.79313714174862
 31
0.0
  0
LINE
  5
F48
  8
0
  6
CONTINUOUS
 10
11.10000047600578
 20
300.8931361417487
 30
0.0
 11
13.10000047600578
 21
300.8931361417487
 31
0.0
  0
LINE
  5
F49
  8
0
  6
CONTINUOUS
 10
13.10000047600578
 20
300.8931361417487
 30
0.0
 11
13.10000047600578
 21
297.79313714174862
 31
0.0
  0
LINE
  5
F4A
  8
0
  6
CONTINUOUS
 10
15.10000047600578
 20
300.8931361417487
 30
0.0
 11
15.10000047600578
 21
297.79313714174862
 31
0.0
  0
LINE
  5
F4B
  8
0
  6
CONTINUOUS
 10
12.10000047600578
 20
297.79313714174862
 30
0.0
 11
13.10000047600578
 21
297.79313714174862
 31
0.0
  0
LINE
  5
F4C
  8
0
  6
CONTINUOUS
 10
7.1000004760057873
 20
300.8931361417487
 30
0.0
 11
9.1000004760057873
 21
300.8931361417487
 31
0.0
  0
LINE
  5
F4D
  8
0
  6
CONTINUOUS
 10
17.100000476005778
 20
300.8931361417487
 30
0.0
 11
15.10000047600578
 21
300.8931361417487
 31
0.0
  0
LINE
  5
F4E
  8
0
  6
CONTINUOUS
 10
17.100000476005778
 20
297.79313714174862
 30
0.0
 11
15.10000047600578
 21
297.79313714174862
 31
0.0
  0
LINE
  5
F4F
  8
0
  6
CONTINUOUS
 10
27.100000476005778
 20
288.89313714174898
 30
0.0
 11
27.100000476005778
 21
300.8931361417487
 31
0.0
  0
LINE
  5
F50
  8
0
  6
CONTINUOUS
 10
11.10000047600578
 20
288.8931361417487
 30
0.0
 11
11.10000047600578
 21
300.8931361417487
 31
0.0
  0
LINE
  5
F51
  8
0
  6
CONTINUOUS
 10
9.1000004760057873
 20
300.8931361417487
 30
0.0
 11
9.1000004760057855
 21
288.8931361417487
 31
0.0
  0
LINE
  5
F52
  8
0
  6
CONTINUOUS
 10
7.1000004760057838
 20
288.8931361417487
 30
0.0
 11
7.1000004760057873
 21
300.8931361417487
 31
0.0
  0
LINE
  5
F53
  8
0
  6
CONTINUOUS
 10
12.10000047600578
 20
288.89313714174898
 30
0.0
 11
12.10000047600578
 21
297.79313714174862
 31
0.0
  0
LINE
  5
F54
  8
0
  6
CONTINUOUS
 10
0.5000004760063347
 20
310.39313714174898
 30
0.0
 11
1.5000004760063339
 21
310.39313714174898
 31
0.0
  0
LINE
  5
F55
  8
0
  6
CONTINUOUS
 10
0.5000004760063347
 20
310.39313714174898
 30
0.0
 11
0.5000004760063349
 21
311.90101914174892
 31
0.0
  0
ARC
  5
F56
  8
0
  6
CONTINUOUS
 10
1.0000004760063339
 20
311.90101914174892
 30
0.0
 40
0.5
 50
89.117178999979487
 51
180.0
  0
LINE
  5
F57
  8
0
  6
CONTINUOUS
 10
1.500000476006329
 20
279.39313714174898
 30
0.0
 11
1.5000004760063339
 21
310.39313714174898
 31
0.0
  0
LINE
  5
F58
  8
0
  6
CONTINUOUS
 10
66.190182476005702
 20
280.38997014174919
 30
0.0
 11
1.500000476006329
 21
279.39313714174898
 31
0.0
  0
LINE
  5
F59
  8
0
  6
CONTINUOUS
 10
66.190182476005702
 20
309.39630314174849
 30
0.0
 11
1.5000004760063339
 21
310.39313714174898
 31
0.0
  0
LINE
  5
F5A
  8
0
  6
CONTINUOUS
 10
60.960038476006488
 20
278.30914014174829
 30
0.0
 11
1.007704476005977
 21
277.38531314174872
 31
0.0
  0
LINE
  5
F5B
  8
0
  6
CONTINUOUS
 10
60.960038476006503
 20
311.47713414174871
 30
0.0
 11
1.007704476005983
 21
312.4009601417489
 31
0.0
  0
LINE
  5
F5C
  8
0
  6
CONTINUOUS
 10
60.796658476006542
 20
304.97888014174862
 30
0.0
 11
1.500000476006333
 21
305.89260214174891
 31
0.0
  0
LINE
  5
F5D
  8
0
  6
CONTINUOUS
 10
60.796659476005964
 20
284.80739414174849
 30
0.0
 11
1.500000476006329
 21
283.89367114174883
 31
0.0
  0
LINE
  5
F5E
  8
0
  6
CONTINUOUS
 10
1.500000476006315
 20
207.8900051417483
 30
0.0
 11
67.122879476005878
 21
206.38821414174859
 31
0.0
  0
LINE
  5
F5F
  8
0
  6
CONTINUOUS
 10
1.5228794760055071
 20
202.8881721417489
 30
0.0
 11
60.967510476005799
 21
201.52777214174839
 31
0.0
  0
LINE
  5
F60
  8
0
  6
CONTINUOUS
 10
27.100000476005778
 20
300.8931361417487
 30
0.0
 11
29.100000476005778
 21
300.8931361417487
 31
0.0
  0
LINE
  5
F61
  8
0
  6
CONTINUOUS
 10
27.100000476005778
 20
288.89313714174898
 30
0.0
 11
29.100000476005778
 21
288.89313714174898
 31
0.0
  0
LINE
  5
F62
  8
0
  6
CONTINUOUS
 10
67.31567447600581
 20
203.8900051417483
 30
0.0
 11
67.315674476005782
 21
107.3900051417483
 31
0.0
  0
LINE
  5
F63
  8
0
  6
CONTINUOUS
 10
67.800000476006502
 20
203.8900051417483
 30
0.0
 11
67.800000476006474
 21
107.3900051417483
 31
0.0
  0
LINE
  5
F64
  8
0
  6
CONTINUOUS
 10
0.5000004760062977
 20
109.3915761417489
 30
0.0
 11
0.5000004760063148
 21
201.88843414174849
 31
0.0
  0
LINE
  5
F65
  8
0
  6
CONTINUOUS
 10
61.944631476005682
 20
110.7519761417485
 30
0.0
 11
61.944631476005704
 21
200.52803314174861
 31
0.0
  0
LINE
  5
F66
  8
0
  6
CONTINUOUS
 10
67.044631476006074
 20
205.412628141749
 30
0.0
 11
67.044631476006046
 21
105.8673821417493
 31
0.0
  0
ENDSEC
  0
EOF
