  0
SECTION
  2
HEADER
  9
$ACADVER
  1
AC1014
  9
$ACADMAINTVER
 70
     9
  9
$DWGCODEPAGE
  3
ANSI_932
  9
$INSBASE
 10
0.0
 20
0.0
 30
0.0
  9
$EXTMIN
 10
0.0000005719671208
 20
0.0000003719746928
 30
0.0
  9
$EXTMAX
 10
336.9485651204803
 20
438.8181809718968
 30
6.483974233579615E+99
  9
$LIMMIN
 10
0.0
 20
0.0
  9
$LIMMAX
 10
420.0
 20
297.0
  9
$ORTHOMODE
 70
     0
  9
$REGENMODE
 70
     1
  9
$FILLMODE
 70
     1
  9
$QTEXTMODE
 70
     0
  9
$MIRRTEXT
 70
     1
  9
$DRAGMODE
 70
     2
  9
$LTSCALE
 40
1.0
  9
$OSMODE
 70
    55
  9
$ATTMODE
 70
     1
  9
$TEXTSIZE
 40
2.5
  9
$TRACEWID
 40
1.0
  9
$TEXTSTYLE
  7
STANDARD
  9
$CLAYER
  8
0
  9
$CELTYPE
  6
BYLAYER
  9
$CECOLOR
 62
   256
  9
$CELTSCALE
 40
1.0
  9
$DELOBJ
 70
     1
  9
$DISPSILH
 70
     0
  9
$DIMSCALE
 40
1.0
  9
$DIMASZ
 40
2.5
  9
$DIMEXO
 40
0.625
  9
$DIMDLI
 40
3.75
  9
$DIMRND
 40
0.0
  9
$DIMDLE
 40
0.0
  9
$DIMEXE
 40
1.25
  9
$DIMTP
 40
0.0
  9
$DIMTM
 40
0.0
  9
$DIMTXT
 40
2.5
  9
$DIMCEN
 40
2.5
  9
$DIMTSZ
 40
0.0
  9
$DIMTOL
 70
     0
  9
$DIMLIM
 70
     0
  9
$DIMTIH
 70
     0
  9
$DIMTOH
 70
     0
  9
$DIMSE1
 70
     0
  9
$DIMSE2
 70
     0
  9
$DIMTAD
 70
     1
  9
$DIMZIN
 70
     8
  9
$DIMBLK
  1

  9
$DIMASO
 70
     1
  9
$DIMSHO
 70
     1
  9
$DIMPOST
  1

  9
$DIMAPOST
  1

  9
$DIMALT
 70
     0
  9
$DIMALTD
 70
     3
  9
$DIMALTF
 40
0.03937007874016
  9
$DIMLFAC
 40
1.0
  9
$DIMTOFL
 70
     1
  9
$DIMTVP
 40
0.0
  9
$DIMTIX
 70
     0
  9
$DIMSOXD
 70
     0
  9
$DIMSAH
 70
     0
  9
$DIMBLK1
  1

  9
$DIMBLK2
  1

  9
$DIMSTYLE
  2
ISO-25
  9
$DIMCLRD
 70
     0
  9
$DIMCLRE
 70
     0
  9
$DIMCLRT
 70
     0
  9
$DIMTFAC
 40
1.0
  9
$DIMGAP
 40
0.625
  9
$DIMJUST
 70
     0
  9
$DIMSD1
 70
     0
  9
$DIMSD2
 70
     0
  9
$DIMTOLJ
 70
     0
  9
$DIMTZIN
 70
     8
  9
$DIMALTZ
 70
     0
  9
$DIMALTTZ
 70
     0
  9
$DIMFIT
 70
     3
  9
$DIMUPT
 70
     0
  9
$DIMUNIT
 70
     2
  9
$DIMDEC
 70
     2
  9
$DIMTDEC
 70
     2
  9
$DIMALTU
 70
     2
  9
$DIMALTTD
 70
     3
  9
$DIMTXSTY
  7
STANDARD
  9
$DIMAUNIT
 70
     0
  9
$LUNITS
 70
     2
  9
$LUPREC
 70
     4
  9
$SKETCHINC
 40
1.0
  9
$FILLETRAD
 40
10.0
  9
$AUNITS
 70
     0
  9
$AUPREC
 70
     0
  9
$MENU
  1
.
  9
$ELEVATION
 40
0.0
  9
$PELEVATION
 40
0.0
  9
$THICKNESS
 40
0.0
  9
$LIMCHECK
 70
     0
  9
$BLIPMODE
 70
     0
  9
$CHAMFERA
 40
10.0
  9
$CHAMFERB
 40
10.0
  9
$CHAMFERC
 40
20.0
  9
$CHAMFERD
 40
0.0
  9
$SKPOLY
 70
     0
  9
$TDCREATE
 40
2454897.622083310
  9
$TDUPDATE
 40
2455006.466376516
  9
$TDINDWG
 40
0.0015137500
  9
$TDUSRTIMER
 40
0.0015117708
  9
$USRTIMER
 70
     1
  9
$ANGBASE
 50
0.0
  9
$ANGDIR
 70
     0
  9
$PDMODE
 70
     0
  9
$PDSIZE
 40
0.0
  9
$PLINEWID
 40
0.0
  9
$COORDS
 70
     1
  9
$SPLFRAME
 70
     0
  9
$SPLINETYPE
 70
     6
  9
$SPLINESEGS
 70
     8
  9
$ATTDIA
 70
     0
  9
$ATTREQ
 70
     1
  9
$HANDLING
 70
 22529
  9
$HANDSEED
  5
D36
  9
$SURFTAB1
 70
     6
  9
$SURFTAB2
 70
     6
  9
$SURFTYPE
 70
     6
  9
$SURFU
 70
     6
  9
$SURFV
 70
     6
  9
$UCSNAME
  2

  9
$UCSORG
 10
0.0
 20
0.0
 30
0.0
  9
$UCSXDIR
 10
1.0
 20
0.0
 30
0.0
  9
$UCSYDIR
 10
0.0
 20
1.0
 30
0.0
  9
$PUCSNAME
  2

  9
$PUCSORG
 10
0.0
 20
0.0
 30
0.0
  9
$PUCSXDIR
 10
1.0
 20
0.0
 30
0.0
  9
$PUCSYDIR
 10
0.0
 20
1.0
 30
0.0
  9
$USERI1
 70
     0
  9
$USERI2
 70
     0
  9
$USERI3
 70
     0
  9
$USERI4
 70
     0
  9
$USERI5
 70
     0
  9
$USERR1
 40
0.0
  9
$USERR2
 40
0.0
  9
$USERR3
 40
0.0
  9
$USERR4
 40
0.0
  9
$USERR5
 40
0.0
  9
$WORLDVIEW
 70
     1
  9
$SHADEDGE
 70
     3
  9
$SHADEDIF
 70
    70
  9
$TILEMODE
 70
     1
  9
$MAXACTVP
 70
    64
  9
$PINSBASE
 10
0.0
 20
0.0
 30
0.0
  9
$PLIMCHECK
 70
     0
  9
$PEXTMIN
 10
1.000000000000000E+20
 20
1.000000000000000E+20
 30
1.000000000000000E+20
  9
$PEXTMAX
 10
-1.000000000000000E+20
 20
-1.000000000000000E+20
 30
-1.000000000000000E+20
  9
$PLIMMIN
 10
0.0
 20
0.0
  9
$PLIMMAX
 10
420.0
 20
297.0
  9
$UNITMODE
 70
     0
  9
$VISRETAIN
 70
     1
  9
$PLINEGEN
 70
     0
  9
$PSLTSCALE
 70
     1
  9
$TREEDEPTH
 70
  3020
  9
$PICKSTYLE
 70
     1
  9
$CMLSTYLE
  2
STANDARD
  9
$CMLJUST
 70
     0
  9
$CMLSCALE
 40
20.0
  9
$PROXYGRAPHICS
 70
     1
  9
$MEASUREMENT
 70
     1
  0
ENDSEC
  0
SECTION
  2
CLASSES
  0
CLASS
  1
ACDBDICTIONARYWDFLT
  2
AcDbDictionaryWithDefault
  3
AutoCAD 2000
 90
        0
280
     0
281
     0
  0
CLASS
  1
ACDBPLACEHOLDER
  2
AcDbPlaceHolder
  3
AutoCAD 2000
 90
        0
280
     0
281
     0
  0
CLASS
  1
LAYOUT
  2
AcDbLayout
  3
AutoCAD 2000
 90
        0
280
     0
281
     0
  0
CLASS
  1
DICTIONARYVAR
  2
AcDbDictionaryVar
  3
AutoCAD 2000
 90
        0
280
     0
281
     0
  0
CLASS
  1
LONG_TRANSACTION
  2
AcDbLongTransaction
  3
AutoCAD 2000
 90
        0
280
     0
281
     0
  0
CLASS
  1
LWPOLYLINE
  2
AcDbPolyline
  3
AutoCAD 2000
 90
        0
280
     0
281
     1
  0
CLASS
  1
HATCH
  2
AcDbHatch
  3
AutoCAD 2000
 90
        0
280
     0
281
     1
  0
CLASS
  1
XRECORD
  2
AcDbXrecord
  3
AutoCAD 2000
 90
        0
280
     0
281
     0
  0
CLASS
  1
LONG_TRANSACTION
  2
AcDbLongTransaction
  3
AutoCAD 2000
 90
        0
280
     0
281
     0
  0
CLASS
  1
LWPOLYLINE
  2
AcDbPolyline
  3
AutoCAD 2000
 90
        0
280
     0
281
     1
  0
CLASS
  1
HATCH
  2
AcDbHatch
  3
AutoCAD 2000
 90
        0
280
     0
281
     1
  0
CLASS
  1
XRECORD
  2
AcDbXrecord
  3
AutoCAD 2000
 90
        0
280
     0
281
     0
  0
ENDSEC
  0
SECTION
  2
TABLES
  0
TABLE
  2
VPORT
  5
8
330
0
100
AcDbSymbolTable
 70
     2
  0
VPORT
  5
D13
330
8
100
AcDbSymbolTableRecord
100
AcDbViewportTableRecord
  2
*ACTIVE
 70
     0
 10
0.0
 20
0.0
 11
1.0
 21
1.0
 12
168.4742828462237
 22
219.4090906719357
 13
0.0
 23
0.0
 14
10.0
 24
10.0
 15
10.0
 25
10.0
 16
0.0
 26
0.0
 36
1.0
 17
0.0
 27
0.0
 37
0.0
 40
442.4598252522036
 41
1.668975069252077
 42
50.0
 43
0.0
 44
0.0
 50
0.0
 51
0.0
 71
     0
 72
   100
 73
     1
 74
     3
 75
     0
 76
     0
 77
     0
 78
     0
  0
ENDTAB
  0
TABLE
  2
LTYPE
  5
5
330
0
100
AcDbSymbolTable
 70
     2
  0
LTYPE
  5
14
330
5
100
AcDbSymbolTableRecord
100
AcDbLinetypeTableRecord
  2
BYBLOCK
 70
     0
  3

 72
    65
 73
     0
 40
0.0
  0
LTYPE
  5
15
330
5
100
AcDbSymbolTableRecord
100
AcDbLinetypeTableRecord
  2
BYLAYER
 70
     0
  3

 72
    65
 73
     0
 40
0.0
  0
LTYPE
  5
16
330
5
100
AcDbSymbolTableRecord
100
AcDbLinetypeTableRecord
  2
CONTINUOUS
 70
     0
  3
Solid line
 72
    65
 73
     0
 40
0.0
  0
LTYPE
  5
76
330
5
100
AcDbSymbolTableRecord
100
AcDbLinetypeTableRecord
  2
CENTER
 70
     0
  3
____ _ ____ _ ____ _ ____ _ ____ _ ____ _ ____
 72
    65
 73
     4
 40
2.0
 49
1.25
 74
     0
 49
-0.25
 74
     0
 49
0.25
 74
     0
 49
-0.25
 74
     0
  0
ENDTAB
  0
TABLE
  2
LAYER
  5
2
102
{ACAD_XDICTIONARY
360
84
102
}
330
0
100
AcDbSymbolTable
 70
     5
  0
LAYER
  5
10
330
2
100
AcDbSymbolTableRecord
100
AcDbLayerTableRecord
  2
0
 70
     0
 62
     7
  6
CONTINUOUS
  0
LAYER
  5
77
330
2
100
AcDbSymbolTableRecord
100
AcDbLayerTableRecord
  2
外枠
 70
     0
 62
     7
  6
CONTINUOUS
  0
LAYER
  5
7A
330
2
100
AcDbSymbolTableRecord
100
AcDbLayerTableRecord
  2
DEFPOINTS
 70
     0
 62
     7
  6
CONTINUOUS
  0
LAYER
  5
7B
330
2
100
AcDbSymbolTableRecord
100
AcDbLayerTableRecord
  2
CLASS1
 70
     0
 62
     7
  6
CONTINUOUS
  0
ENDTAB
  0
TABLE
  2
STYLE
  5
3
330
0
100
AcDbSymbolTable
 70
     2
  0
STYLE
  5
11
330
3
100
AcDbSymbolTableRecord
100
AcDbTextStyleTableRecord
  2
STANDARD
 70
     0
 40
0.0
 41
1.0
 50
0.0
 71
     0
 42
2.5
  3
txt
  4

  0
ENDTAB
  0
TABLE
  2
VIEW
  5
6
330
0
100
AcDbSymbolTable
 70
     0
  0
ENDTAB
  0
TABLE
  2
UCS
  5
7
330
0
100
AcDbSymbolTable
 70
     0
  0
ENDTAB
  0
TABLE
  2
APPID
  5
9
330
0
100
AcDbSymbolTable
 70
     1
  0
APPID
  5
12
330
9
100
AcDbSymbolTableRecord
100
AcDbRegAppTableRecord
  2
ACAD
 70
     0
  0
ENDTAB
  0
TABLE
  2
DIMSTYLE
  5
A
330
0
100
AcDbSymbolTable
 70
     1
  0
DIMSTYLE
105
27
330
A
100
AcDbSymbolTableRecord
100
AcDbDimStyleTableRecord
  2
ISO-25
 70
     0
  3

  4

  5

  6

  7

 40
1.0
 41
2.5
 42
0.625
 43
3.75
 44
1.25
 45
0.0
 46
0.0
 47
0.0
 48
0.0
140
2.5
141
2.5
142
0.0
143
0.03937007874016
144
1.0
145
0.0
146
1.0
147
0.625
 71
     0
 72
     0
 73
     0
 74
     0
 75
     0
 76
     0
 77
     1
 78
     8
170
     0
171
     3
172
     1
173
     0
174
     0
175
     0
176
     0
177
     0
178
     0
270
     2
271
     2
272
     2
273
     2
274
     3
340
11
275
     0
280
     0
281
     0
282
     0
283
     0
284
     8
285
     0
286
     0
287
     3
288
     0
  0
ENDTAB
  0
TABLE
  2
BLOCK_RECORD
  5
1
330
0
100
AcDbSymbolTable
 70
     1
  0
BLOCK_RECORD
  5
1F
102
{ACAD_XDICTIONARY
360
D07
102
}
330
1
100
AcDbSymbolTableRecord
100
AcDbBlockTableRecord
  2
*MODEL_SPACE
  0
BLOCK_RECORD
  5
1B
102
{ACAD_XDICTIONARY
360
D05
102
}
330
1
100
AcDbSymbolTableRecord
100
AcDbBlockTableRecord
  2
*PAPER_SPACE
  0
BLOCK_RECORD
  5
31
330
1
100
AcDbSymbolTableRecord
100
AcDbBlockTableRecord
  2
A$C51C20FFB
  0
ENDTAB
  0
ENDSEC
  0
SECTION
  2
BLOCKS
  0
BLOCK
  5
20
330
1F
100
AcDbEntity
  8
0
100
AcDbBlockBegin
  2
*MODEL_SPACE
 70
     0
 10
0.0
 20
0.0
 30
0.0
  3
*MODEL_SPACE
  1

  0
ENDBLK
  5
21
330
1F
100
AcDbEntity
  8
0
100
AcDbBlockEnd
  0
BLOCK
  5
1C
330
1B
100
AcDbEntity
 67
     1
  8
0
100
AcDbBlockBegin
  2
*PAPER_SPACE
 70
     0
 10
0.0
 20
0.0
 30
0.0
  3
*PAPER_SPACE
  1

  0
ENDBLK
  5
1D
330
1B
100
AcDbEntity
 67
     1
  8
0
100
AcDbBlockEnd
  0
BLOCK
  5
36
330
31
100
AcDbEntity
  8
0
100
AcDbBlockBegin
  2
A$C51C20FFB
 70
     0
 10
0.0
 20
0.0
 30
0.0
  3
A$C51C20FFB
  1

  0
LINE
  5
32
330
31
100
AcDbEntity
  8
0
100
AcDbLine
 10
31.0
 20
2.499998662678081
 30
0.0
 11
0.0
 21
2.499998662678081
 31
0.0
  0
LINE
  5
33
330
31
100
AcDbEntity
  8
0
100
AcDbLine
 10
31.0
 20
-0.000001337321919
 30
0.0
 11
31.0
 21
2.499998662678081
 31
0.0
  0
LINE
  5
34
330
31
100
AcDbEntity
  8
0
100
AcDbLine
 10
0.0
 20
-0.000001337321919
 30
0.0
 11
31.0
 21
-0.000001337321919
 31
0.0
  0
LINE
  5
35
330
31
100
AcDbEntity
  8
0
100
AcDbLine
 10
0.0
 20
2.499998662678081
 30
0.0
 11
0.0
 21
-0.000001337321919
 31
0.0
  0
ENDBLK
  5
37
330
31
100
AcDbEntity
  8
0
100
AcDbBlockEnd
  0
ENDSEC
  0
SECTION
  2
ENTITIES
  0
LINE
  5
673
330
1F
100
AcDbEntity
  8
CLASS1
100
AcDbLine
 10
2.500000571967234
 20
298.3305601497533
 30
0.0
 11
2.500000571967234
 21
293.3292701497535
 31
0.0
  0
LINE
  5
674
330
1F
100
AcDbEntity
  8
CLASS1
100
AcDbLine
 10
68.12251757196702
 20
296.8525751497533
 30
0.0
 11
2.500000571967234
 21
298.3305601497533
 31
0.0
  0
LINE
  5
675
330
1F
100
AcDbEntity
  8
CLASS1
100
AcDbLine
 10
0.0000005719671208
 20
126.8290111497534
 30
0.0
 11
0.0000005719672345
 21
305.3290111497535
 31
0.0
  0
LINE
  5
676
330
1F
100
AcDbEntity
  8
0
100
AcDbLine
 10
152.9741338462236
 20
295.8292701497533
 30
0.0
 11
152.9741338462236
 21
303.8290111497535
 31
0.0
  0
LINE
  5
677
330
1F
100
AcDbEntity
  8
0
100
AcDbLine
 10
183.9745518462238
 20
294.8881381497534
 30
0.0
 11
183.9745518462238
 21
303.8290111497535
 31
0.0
  0
LINE
  5
678
330
1F
100
AcDbEntity
  8
0
  6
CENTER
 62
     5
100
AcDbLine
 10
168.4743428462236
 20
308.0790111497535
 30
0.0
 11
168.4743428462236
 21
293.0790111497535
 31
0.0
  0
LINE
  5
67A
330
1F
100
AcDbEntity
  8
CLASS1
100
AcDbLine
 10
61.96772857196674
 20
141.7001091497533
 30
0.0
 11
2.523002571967026
 21
140.3324131497535
 31
0.0
  0
LINE
  5
67B
330
1F
100
AcDbEntity
  8
CLASS1
100
AcDbLine
 10
68.1225175719669
 20
136.8085451497534
 30
0.0
 11
2.50000057196712
 21
135.3305601497534
 31
0.0
  0
LINE
  5
67C
330
1F
100
AcDbEntity
  8
CLASS1
100
AcDbLine
 10
2.522721571967053
 20
293.3287531497534
 30
0.0
 11
61.9674485719671
 21
291.9777361497534
 31
0.0
  0
LINE
  5
67D
330
1F
100
AcDbEntity
  8
CLASS1
100
AcDbLine
 10
62.94472657196685
 20
142.6998441497534
 30
0.0
 11
62.94472657196696
 21
290.9779941497534
 31
0.0
  0
LINE
  5
67E
330
1F
100
AcDbEntity
  8
CLASS1
100
AcDbLine
 10
68.80000057196696
 20
294.3305601497533
 30
0.0
 11
68.80000057196685
 21
139.3305601497534
 31
0.0
  0
LINE
  5
67F
330
1F
100
AcDbEntity
  8
CLASS1
100
AcDbLine
 10
68.31567457196718
 20
294.3305601497533
 30
0.0
 11
68.31567457196706
 21
139.3305601497534
 31
0.0
  0
LINE
  5
680
330
1F
100
AcDbEntity
  8
CLASS1
100
AcDbLine
 10
68.04452357196726
 20
295.8766011497533
 30
0.0
 11
68.04452357196715
 21
137.7845191497534
 31
0.0
  0
ARC
  5
681
330
1F
100
AcDbEntity
  8
CLASS1
100
AcDbCircle
 10
68.1000005719668
 20
137.8082911497533
 30
0.0
 40
1.0
100
AcDbArc
 50
271.2902270000052
 51
0.0
  0
LINE
  5
682
330
1F
100
AcDbEntity
  8
CLASS1
100
AcDbLine
 10
68.31567457196706
 20
139.3305601497534
 30
0.0
 11
69.10000057196703
 21
139.3305601497534
 31
0.0
  0
LINE
  5
683
330
1F
100
AcDbEntity
  8
CLASS1
100
AcDbLine
 10
69.10000057196703
 20
137.8082911497533
 30
0.0
 11
69.10000057196703
 21
139.3305601497534
 31
0.0
  0
ARC
  5
684
330
1F
100
AcDbEntity
  8
CLASS1
100
AcDbCircle
 10
67.04452357196692
 20
137.7845191497534
 30
0.0
 40
1.0
100
AcDbArc
 50
271.2902270000052
 51
0.0
  0
ARC
  5
685
330
1F
100
AcDbEntity
  8
CLASS1
100
AcDbCircle
 10
61.94472657196661
 20
142.6998441497534
 30
0.0
 40
1.0
100
AcDbArc
 50
271.318021000004
 51
0.0
  0
LINE
  5
686
330
1F
100
AcDbEntity
  8
0
100
AcDbLine
 10
69.30000057196672
 20
189.2544291497532
 30
0.0
 11
69.30000057196662
 21
186.2544291497533
 31
0.0
  0
LINE
  5
687
330
1F
100
AcDbEntity
  8
0
100
AcDbLine
 10
69.30000057196672
 20
189.2544291497532
 30
0.0
 11
68.31567457196695
 21
189.2544291497534
 31
0.0
  0
LINE
  5
688
330
1F
100
AcDbEntity
  8
0
100
AcDbLine
 10
69.30000057196662
 20
186.2544291497533
 30
0.0
 11
68.31567457196682
 21
186.2544291497535
 31
0.0
  0
LINE
  5
689
330
1F
100
AcDbEntity
  8
0
100
AcDbLine
 10
69.30000057196672
 20
230.4084171497536
 30
0.0
 11
69.30000057196672
 21
227.4084171497535
 31
0.0
  0
LINE
  5
68A
330
1F
100
AcDbEntity
  8
0
100
AcDbLine
 10
69.30000057196672
 20
230.4084171497536
 30
0.0
 11
68.31567457196695
 21
230.4084171497537
 31
0.0
  0
LINE
  5
68B
330
1F
100
AcDbEntity
  8
0
100
AcDbLine
 10
69.30000057196672
 20
227.4084171497535
 30
0.0
 11
68.31567457196695
 21
227.4084171497536
 31
0.0
  0
LINE
  5
68C
330
1F
100
AcDbEntity
  8
CLASS1
100
AcDbLine
 10
68.31567457196718
 20
294.3305601497533
 30
0.0
 11
69.10000057196715
 21
294.3305601497533
 31
0.0
  0
LINE
  5
68D
330
1F
100
AcDbEntity
  8
CLASS1
100
AcDbLine
 10
69.10000057196715
 20
295.8528291497533
 30
0.0
 11
69.10000057196715
 21
294.3305601497533
 31
0.0
  0
ARC
  5
68E
330
1F
100
AcDbEntity
  8
CLASS1
100
AcDbCircle
 10
68.10000057196726
 20
295.8528291497533
 30
0.0
 40
1.0
100
AcDbArc
 50
0.0
 51
88.70977299999479
  0
ARC
  5
68F
330
1F
100
AcDbEntity
  8
CLASS1
100
AcDbCircle
 10
67.04452357196736
 20
295.8766011497533
 30
0.0
 40
1.0
100
AcDbArc
 50
0.0
 51
88.70977299999479
  0
ARC
  5
690
330
1F
100
AcDbEntity
  8
CLASS1
100
AcDbCircle
 10
61.94472657196707
 20
290.9779941497534
 30
0.0
 40
1.0
100
AcDbArc
 50
0.0
 51
88.69804600000644
  0
LINE
  5
691
330
1F
100
AcDbEntity
  8
0
100
AcDbLine
 10
178.8465118462236
 20
295.8954981497536
 30
0.0
 11
179.4740178462236
 21
296.8292701497535
 31
0.0
  0
LINE
  5
692
330
1F
100
AcDbEntity
  8
0
100
AcDbLine
 10
154.9820608462238
 20
295.3179071497538
 30
0.0
 11
181.9666258462238
 21
295.3179071497538
 31
0.0
  0
LINE
  5
693
330
1F
100
AcDbEntity
  8
0
100
AcDbLine
 10
156.9743428462236
 20
292.8292701497533
 30
0.0
 11
179.9743428462236
 21
292.8292701497533
 31
0.0
  0
LINE
  5
694
330
1F
100
AcDbEntity
  8
0
100
AcDbLine
 10
157.0743428462236
 20
292.7331391497537
 30
0.0
 11
179.8743428462236
 21
292.7331391497537
 31
0.0
  0
LINE
  5
695
330
1F
100
AcDbEntity
  8
0
100
AcDbLine
 10
178.8465118462235
 20
134.763042149754
 30
0.0
 11
179.4740178462235
 21
133.8292701497537
 31
0.0
  0
LINE
  5
696
330
1F
100
AcDbEntity
  8
0
100
AcDbLine
 10
172.4743428462234
 20
126.8290051497537
 30
0.0
 11
182.4745518462234
 21
126.8290051497537
 31
0.0
  0
LINE
  5
697
330
1F
100
AcDbEntity
  8
0
100
AcDbLine
 10
154.9820608462236
 20
135.3523911497537
 30
0.0
 11
181.9666258462234
 21
135.3523911497537
 31
0.0
  0
LINE
  5
698
330
1F
100
AcDbEntity
  8
0
100
AcDbLine
 10
157.0743428462235
 20
137.9331391497537
 30
0.0
 11
179.8743428462236
 21
137.9331391497537
 31
0.0
  0
LINE
  5
699
330
1F
100
AcDbEntity
  8
0
100
AcDbLine
 10
156.9743428462234
 20
137.8292701497537
 30
0.0
 11
179.9743428462234
 21
137.8292701497537
 31
0.0
  0
LINE
  5
69A
330
1F
100
AcDbEntity
  8
CLASS1
100
AcDbLine
 10
1.50000057196712
 20
141.3321481497535
 30
0.0
 11
1.500000571967234
 21
292.3290111497535
 31
0.0
  0
LINE
  5
69B
330
1F
100
AcDbEntity
  8
0
100
AcDbLine
 10
182.9666258462236
 20
294.3179071497538
 30
0.0
 11
182.9666258462234
 21
136.3523911497537
 31
0.0
  0
LINE
  5
69C
330
1F
100
AcDbEntity
  8
0
100
AcDbLine
 10
180.8743428462236
 20
291.7331391497537
 30
0.0
 11
180.8743428462236
 21
138.8331391497538
 31
0.0
  0
LINE
  5
69D
330
1F
100
AcDbEntity
  8
0
100
AcDbLine
 10
185.9593418462235
 20
139.8658451497537
 30
0.0
 11
185.9593418462236
 21
290.8049931497539
 31
0.0
  0
LINE
  5
69E
330
1F
100
AcDbEntity
  8
0
100
AcDbLine
 10
185.0440538462236
 20
289.4542351497538
 30
0.0
 11
185.0440538462235
 21
141.2043061497535
 31
0.0
  0
LINE
  5
69F
330
1F
100
AcDbEntity
  8
0
100
AcDbLine
 10
180.9743428462234
 20
138.8292701497537
 30
0.0
 11
180.9743428462236
 21
291.8292701497533
 31
0.0
  0
LINE
  5
6A0
330
1F
100
AcDbEntity
  8
0
100
AcDbLine
 10
2.50000057196712
 20
135.3305601497534
 30
0.0
 11
2.50000057196712
 21
126.8290111497534
 31
0.0
  0
LINE
  5
6A1
330
1F
100
AcDbEntity
  8
CLASS1
100
AcDbLine
 10
2.50000057196712
 20
126.8290111497534
 30
0.0
 11
0.0000005719671208
 21
126.8290111497534
 31
0.0
  0
ARC
  5
6A2
330
1F
100
AcDbEntity
  8
CLASS1
100
AcDbCircle
 10
2.500000571967007
 20
141.3321481497535
 30
0.0
 40
1.0
100
AcDbArc
 50
180.0
 51
271.318021000004
  0
LINE
  5
6A3
330
1F
100
AcDbEntity
  8
CLASS1
100
AcDbLine
 10
2.50000057196712
 20
135.3305601497534
 30
0.0
 11
2.50000057196712
 21
140.3318841497533
 31
0.0
  0
LINE
  5
6A4
330
1F
100
AcDbEntity
  8
0
100
AcDbLine
 10
183.9745518462234
 20
128.3290051497538
 30
0.0
 11
183.9745518462234
 21
138.8881381497535
 31
0.0
  0
ARC
  5
6A5
330
1F
100
AcDbEntity
  8
0
100
AcDbCircle
 10
182.4745518462235
 20
128.3290051497535
 30
0.0
 40
1.5
100
AcDbArc
 50
270.0
 51
0.0
  0
ARC
  5
6A6
330
1F
100
AcDbEntity
  8
0
100
AcDbCircle
 10
184.0440538462235
 20
141.2043061497533
 30
0.0
 40
1.0
100
AcDbArc
 50
270.0
 51
0.0
  0
LINE
  5
6A7
330
1F
100
AcDbEntity
  8
0
100
AcDbLine
 10
184.0440538462235
 20
140.2043061497535
 30
0.0
 11
183.0436258462234
 21
140.2043061497535
 31
0.0
  0
LINE
  5
6A8
330
1F
100
AcDbEntity
  8
0
100
AcDbLine
 10
183.9745508462234
 20
134.8292701497537
 30
0.0
 11
183.9745508462234
 21
138.8658451497537
 31
0.0
  0
ARC
  5
6A9
330
1F
100
AcDbEntity
  8
0
100
AcDbCircle
 10
181.9666258462236
 20
136.3523911497537
 30
0.0
 40
1.0
100
AcDbArc
 50
270.0
 51
0.0
  0
LINE
  5
6AA
330
1F
100
AcDbEntity
  8
0
100
AcDbLine
 10
183.9745508462234
 20
138.8658451497537
 30
0.0
 11
184.9593418462236
 21
138.8658451497537
 31
0.0
  0
LINE
  5
6AB
330
1F
100
AcDbEntity
  8
0
100
AcDbLine
 10
183.9745518462234
 20
138.8535471497535
 30
0.0
 11
183.0436258462234
 21
140.2043061497535
 31
0.0
  0
ARC
  5
6AC
330
1F
100
AcDbEntity
  8
0
100
AcDbCircle
 10
184.9593418462236
 20
139.8658451497535
 30
0.0
 40
1.0
100
AcDbArc
 50
270.0
 51
0.0
  0
ARC
  5
6AD
330
1F
100
AcDbEntity
  8
0
100
AcDbCircle
 10
182.9745508462234
 20
134.8292701497536
 30
0.0
 40
1.0
100
AcDbArc
 50
270.0
 51
0.0
  0
LINE
  5
6AE
330
1F
100
AcDbEntity
  8
0
100
AcDbLine
 10
179.4740178462235
 20
133.8292701497537
 30
0.0
 11
182.9745508462234
 21
133.8292701497537
 31
0.0
  0
ARC
  5
6AF
330
1F
100
AcDbEntity
  8
0
100
AcDbCircle
 10
179.8743428462236
 20
138.9331391497536
 30
0.0
 40
1.0
100
AcDbArc
 50
270.0
 51
0.0
  0
ARC
  5
6B0
330
1F
100
AcDbEntity
  8
0
100
AcDbCircle
 10
179.9743428462235
 20
138.8292701497534
 30
0.0
 40
1.0
100
AcDbArc
 50
270.0
 51
0.0
  0
ARC
  5
6B1
330
1F
100
AcDbEntity
  8
CLASS1
100
AcDbCircle
 10
2.500000571967348
 20
292.3290111497535
 30
0.0
 40
1.0
100
AcDbArc
 50
88.69804699999894
 51
180.0
  0
ARC
  5
6B2
330
1F
100
AcDbEntity
  8
0
100
AcDbCircle
 10
181.9666258462238
 20
294.3179071497538
 30
0.0
 40
1.0
100
AcDbArc
 50
0.0
 51
90.0
  0
ARC
  5
6B3
330
1F
100
AcDbEntity
  8
0
100
AcDbCircle
 10
182.9745508462238
 20
295.8292701497533
 30
0.0
 40
1.0
100
AcDbArc
 50
0.0
 51
90.0
  0
LINE
  5
6B4
330
1F
100
AcDbEntity
  8
0
100
AcDbLine
 10
184.0440538462236
 20
290.4542351497538
 30
0.0
 11
183.0436258462238
 21
290.4542351497538
 31
0.0
  0
LINE
  5
6B5
330
1F
100
AcDbEntity
  8
0
100
AcDbLine
 10
184.0440538462236
 20
290.4542351497538
 30
0.0
 11
183.0436258462238
 21
290.4542351497538
 31
0.0
  0
LINE
  5
6B6
330
1F
100
AcDbEntity
  8
0
100
AcDbLine
 10
183.9745518462238
 20
291.8049931497538
 30
0.0
 11
184.9593418462236
 21
291.8049931497538
 31
0.0
  0
ARC
  5
6B7
330
1F
100
AcDbEntity
  8
0
100
AcDbCircle
 10
184.9593418462238
 20
290.8049931497539
 30
0.0
 40
1.0
100
AcDbArc
 50
0.0
 51
90.0
  0
ARC
  5
6B8
330
1F
100
AcDbEntity
  8
0
100
AcDbCircle
 10
184.0440538462236
 20
289.4542351497538
 30
0.0
 40
1.0
100
AcDbArc
 50
0.0
 51
90.0
  0
ARC
  5
6B9
330
1F
100
AcDbEntity
  8
0
100
AcDbCircle
 10
184.0440538462236
 20
289.4542351497538
 30
0.0
 40
1.0
100
AcDbArc
 50
0.0
 51
90.0
  0
LINE
  5
6BA
330
1F
100
AcDbEntity
  8
0
100
AcDbLine
 10
183.9745518462238
 20
291.8049931497538
 30
0.0
 11
183.0436258462238
 21
290.4542351497538
 31
0.0
  0
LINE
  5
6BB
330
1F
100
AcDbEntity
  8
0
100
AcDbLine
 10
183.9745518462238
 20
291.8049931497538
 30
0.0
 11
183.0436258462238
 21
290.4542351497538
 31
0.0
  0
LINE
  5
6BC
330
1F
100
AcDbEntity
  8
0
100
AcDbLine
 10
183.9745508462238
 20
295.8292701497533
 30
0.0
 11
183.9745508462238
 21
291.8049931497538
 31
0.0
  0
ARC
  5
6BD
330
1F
100
AcDbEntity
  8
0
100
AcDbCircle
 10
179.8743428462236
 20
291.7331391497537
 30
0.0
 40
1.0
100
AcDbArc
 50
0.0
 51
90.0
  0
ARC
  5
6BE
330
1F
100
AcDbEntity
  8
0
100
AcDbCircle
 10
179.9743428462236
 20
291.8292701497533
 30
0.0
 40
1.0
100
AcDbArc
 50
0.0
 51
90.0
  0
LINE
  5
6BF
330
1F
100
AcDbEntity
  8
0
100
AcDbLine
 10
179.4740178462236
 20
296.8292701497535
 30
0.0
 11
182.9745508462238
 21
296.8292701497535
 31
0.0
  0
LINE
  5
6C0
330
1F
100
AcDbEntity
  8
0
100
AcDbLine
 10
156.074342846224
 20
244.5114441121986
 30
0.0
 11
156.0743428462236
 21
138.9331391497537
 31
0.0
  0
LINE
  5
6C1
330
1F
100
AcDbEntity
  8
0
100
AcDbLine
 10
151.9046318462236
 20
289.4542351497538
 30
0.0
 11
151.9046318462236
 21
141.2043061497535
 31
0.0
  0
LINE
  5
6C2
330
1F
100
AcDbEntity
  8
0
100
AcDbLine
 10
155.9743428462236
 20
138.8292701497537
 30
0.0
 11
155.9743428462236
 21
291.8292701497533
 31
0.0
  0
LINE
  5
6C3
330
1F
100
AcDbEntity
  8
0
100
AcDbLine
 10
150.9892238462236
 20
139.8658451497537
 30
0.0
 11
150.9892238462238
 21
290.8049931497539
 31
0.0
  0
LINE
  5
6C4
330
1F
100
AcDbEntity
  8
0
100
AcDbLine
 10
153.9820608462238
 20
294.3179071497538
 30
0.0
 11
153.9820608462235
 21
136.3523911497537
 31
0.0
  0
LINE
  5
6C5
330
1F
100
AcDbEntity
  8
0
100
AcDbLine
 10
152.9741338462236
 20
128.3290051497538
 30
0.0
 11
152.9741338462236
 21
134.8292701497537
 31
0.0
  0
LINE
  5
6C6
330
1F
100
AcDbEntity
  8
0
100
AcDbLine
 10
165.9743428462235
 20
130.0790051497538
 30
0.0
 11
165.9743428462235
 21
128.3290051497538
 31
0.0
  0
LINE
  5
6C7
330
1F
100
AcDbEntity
  8
0
100
AcDbLine
 10
170.9743428462235
 20
130.0790051497538
 30
0.0
 11
170.9743428462235
 21
128.3290051497538
 31
0.0
  0
LINE
  5
6C8
330
1F
100
AcDbEntity
  8
0
  6
CENTER
 62
     5
100
AcDbLine
 10
168.4743428462234
 20
137.5790051497538
 30
0.0
 11
168.4743428462234
 21
122.5790051497537
 31
0.0
  0
LINE
  5
6C9
330
1F
100
AcDbEntity
  8
0
100
AcDbLine
 10
154.4741338462235
 20
126.8290051497537
 30
0.0
 11
164.4743428462234
 21
126.8290051497537
 31
0.0
  0
ARC
  5
6CA
330
1F
100
AcDbEntity
  8
0
100
AcDbCircle
 10
172.4743428462236
 20
128.3290051497535
 30
0.0
 40
1.5
100
AcDbArc
 50
180.0
 51
270.0
  0
ARC
  5
6CB
330
1F
100
AcDbEntity
  8
0
100
AcDbCircle
 10
164.4743428462236
 20
128.3290051497538
 30
0.0
 40
1.5
100
AcDbArc
 50
270.0
 51
0.0
  0
ARC
  5
6CC
330
1F
100
AcDbEntity
  8
0
100
AcDbCircle
 10
154.4741338462235
 20
128.3290051497538
 30
0.0
 40
1.5
100
AcDbArc
 50
180.0
 51
270.0
  0
ARC
  5
6CD
330
1F
100
AcDbEntity
  8
0
100
AcDbCircle
 10
158.9321708462236
 20
134.2052741497535
 30
0.0
 40
1.0
100
AcDbArc
 50
90.12440900000084
 51
146.0984159999946
  0
LINE
  5
6CE
330
1F
100
AcDbEntity
  8
0
100
AcDbLine
 10
158.1507438462235
 20
134.8292701497537
 30
0.0
 11
178.8020058462234
 21
134.8292701497537
 31
0.0
  0
ARC
  5
6CF
330
1F
100
AcDbEntity
  8
0
100
AcDbCircle
 10
168.4743428462236
 20
130.0790051497537
 30
0.0
 40
2.5
100
AcDbArc
 50
0.0
 51
180.0
  0
ARC
  5
6D0
330
1F
100
AcDbEntity
  8
0
100
AcDbCircle
 10
168.4743428462214
 20
-4260.380024850247
 30
0.0
 40
4395.595658
100
AcDbArc
 50
89.87559099999918
 51
90.12440900000084
  0
LINE
  5
6D1
330
1F
100
AcDbEntity
  8
0
  6
CENTER
 62
     5
100
AcDbLine
 10
175.9743428462234
 20
130.0790051497538
 30
0.0
 11
160.9743428462234
 21
130.0790051497538
 31
0.0
  0
ARC
  5
6D2
330
1F
100
AcDbEntity
  8
0
100
AcDbCircle
 10
178.0165148462234
 20
134.2052741497535
 30
0.0
 40
1.0
100
AcDbArc
 50
33.90158400000528
 51
89.87559099999918
  0
ARC
  5
6D3
330
1F
100
AcDbEntity
  8
0
100
AcDbCircle
 10
152.9046318462235
 20
141.2043061497535
 30
0.0
 40
1.0
100
AcDbArc
 50
180.0
 51
270.0
  0
LINE
  5
6D4
330
1F
100
AcDbEntity
  8
0
100
AcDbLine
 10
152.9046318462236
 20
140.2043061497535
 30
0.0
 11
153.9050608462236
 21
140.2043061497535
 31
0.0
  0
LINE
  5
6D5
330
1F
100
AcDbEntity
  8
0
100
AcDbLine
 10
152.9741338462236
 20
134.8292701497537
 30
0.0
 11
152.9741338462236
 21
138.8658451497537
 31
0.0
  0
LINE
  5
6D6
330
1F
100
AcDbEntity
  8
0
100
AcDbLine
 10
152.9741338462236
 20
138.8658451497537
 30
0.0
 11
151.9892238462236
 21
138.8658451497537
 31
0.0
  0
LINE
  5
6D7
330
1F
100
AcDbEntity
  8
0
100
AcDbLine
 10
152.9741338462236
 20
138.8535471497535
 30
0.0
 11
153.9050608462236
 21
140.2043061497535
 31
0.0
  0
ARC
  5
6D8
330
1F
100
AcDbEntity
  8
0
100
AcDbCircle
 10
151.9892238462236
 20
139.8658451497537
 30
0.0
 40
1.0
100
AcDbArc
 50
180.0
 51
270.0
  0
ARC
  5
6D9
330
1F
100
AcDbEntity
  8
0
100
AcDbCircle
 10
153.9741338462236
 20
134.8292701497537
 30
0.0
 40
1.0
100
AcDbArc
 50
180.0
 51
270.0
  0
ARC
  5
6DA
330
1F
100
AcDbEntity
  8
0
100
AcDbCircle
 10
157.0743428462235
 20
138.9331391497537
 30
0.0
 40
1.0
100
AcDbArc
 50
180.0
 51
270.0
  0
ARC
  5
6DB
330
1F
100
AcDbEntity
  8
0
100
AcDbCircle
 10
156.9743428462236
 20
138.8292701497537
 30
0.0
 40
1.0
100
AcDbArc
 50
180.0
 51
270.0
  0
LINE
  5
6DC
330
1F
100
AcDbEntity
  8
0
100
AcDbLine
 10
158.1021738462235
 20
134.763042149754
 30
0.0
 11
157.4746668462236
 21
133.8292701497537
 31
0.0
  0
ARC
  5
6DD
330
1F
100
AcDbEntity
  8
0
100
AcDbCircle
 10
154.9820608462236
 20
136.3523911497537
 30
0.0
 40
1.0
100
AcDbArc
 50
180.0
 51
270.0
  0
LINE
  5
6DE
330
1F
100
AcDbEntity
  8
0
100
AcDbLine
 10
153.9741338462236
 20
133.8292701497537
 30
0.0
 11
157.4746668462236
 21
133.8292701497537
 31
0.0
  0
ARC
  5
6DF
330
1F
100
AcDbEntity
  8
0
100
AcDbCircle
 10
158.9321708462238
 20
296.4532661497536
 30
0.0
 40
1.0
100
AcDbArc
 50
213.9015840000051
 51
269.8755909999992
  0
LINE
  5
6E0
330
1F
100
AcDbEntity
  8
0
100
AcDbLine
 10
158.1507438462238
 20
295.8292701497533
 30
0.0
 11
178.8020058462236
 21
295.8292701497533
 31
0.0
  0
ARC
  5
6E1
330
1F
100
AcDbEntity
  8
0
100
AcDbCircle
 10
168.4743428462259
 20
4691.038565149752
 30
0.0
 40
4395.595658
100
AcDbArc
 50
269.8755909999992
 51
270.1244089999974
  0
ARC
  5
6E2
330
1F
100
AcDbEntity
  8
0
100
AcDbCircle
 10
178.0165148462238
 20
296.4532661497536
 30
0.0
 40
1.0
100
AcDbArc
 50
270.1244089999974
 51
326.0984159999947
  0
LINE
  5
6E3
330
1F
100
AcDbEntity
  8
0
100
AcDbLine
 10
155.9743428462236
 20
291.8292701497533
 30
0.0
 11
155.9743428462236
 21
277.8881391497538
 31
0.0
  0
ARC
  5
6E4
330
1F
100
AcDbEntity
  8
0
100
AcDbCircle
 10
153.9741338462236
 20
295.8292701497533
 30
0.0
 40
1.0
100
AcDbArc
 50
90.0
 51
180.0
  0
LINE
  5
6E5
330
1F
100
AcDbEntity
  8
0
100
AcDbLine
 10
152.9741338462236
 20
291.8049931497538
 30
0.0
 11
151.9892238462238
 21
291.8049931497538
 31
0.0
  0
ARC
  5
6E6
330
1F
100
AcDbEntity
  8
0
100
AcDbCircle
 10
152.9046318462236
 20
289.4542351497538
 30
0.0
 40
1.0
100
AcDbArc
 50
90.0
 51
180.0
  0
ARC
  5
6E7
330
1F
100
AcDbEntity
  8
0
100
AcDbCircle
 10
152.9046318462236
 20
289.4542351497538
 30
0.0
 40
1.0
100
AcDbArc
 50
90.0
 51
180.0
  0
LINE
  5
6E8
330
1F
100
AcDbEntity
  8
0
100
AcDbLine
 10
152.9046318462236
 20
290.4542351497538
 30
0.0
 11
153.9050608462238
 21
290.4542351497538
 31
0.0
  0
LINE
  5
6E9
330
1F
100
AcDbEntity
  8
0
100
AcDbLine
 10
152.9046318462236
 20
290.4542351497538
 30
0.0
 11
153.9050608462238
 21
290.4542351497538
 31
0.0
  0
LINE
  5
6EA
330
1F
100
AcDbEntity
  8
0
100
AcDbLine
 10
152.9741338462236
 20
291.8049931497538
 30
0.0
 11
153.9050608462238
 21
290.4542351497538
 31
0.0
  0
LINE
  5
6EB
330
1F
100
AcDbEntity
  8
0
100
AcDbLine
 10
152.9741338462236
 20
291.8049931497538
 30
0.0
 11
153.9050608462238
 21
290.4542351497538
 31
0.0
  0
ARC
  5
6EC
330
1F
100
AcDbEntity
  8
0
100
AcDbCircle
 10
151.9892238462238
 20
290.8049931497539
 30
0.0
 40
1.0
100
AcDbArc
 50
90.0
 51
180.0
  0
LINE
  5
6ED
330
1F
100
AcDbEntity
  8
0
100
AcDbLine
 10
152.9741338462236
 20
295.8292701497533
 30
0.0
 11
152.9741338462236
 21
291.8049931497538
 31
0.0
  0
LINE
  5
6EE
330
1F
100
AcDbEntity
  8
0
100
AcDbLine
 10
158.1021738462236
 20
295.8954981497536
 30
0.0
 11
157.4746668462236
 21
296.8292701497535
 31
0.0
  0
ARC
  5
6EF
330
1F
100
AcDbEntity
  8
0
100
AcDbCircle
 10
157.0743428462236
 20
291.7331391497537
 30
0.0
 40
1.0
100
AcDbArc
 50
90.0
 51
180.0
  0
ARC
  5
6F0
330
1F
100
AcDbEntity
  8
0
100
AcDbCircle
 10
156.9743428462236
 20
291.8292701497533
 30
0.0
 40
1.0
100
AcDbArc
 50
90.0
 51
180.0
  0
ARC
  5
6F1
330
1F
100
AcDbEntity
  8
0
100
AcDbCircle
 10
154.9820608462238
 20
294.3179071497538
 30
0.0
 40
1.0
100
AcDbArc
 50
90.0
 51
180.0
  0
LINE
  5
6F2
330
1F
100
AcDbEntity
  8
0
100
AcDbLine
 10
153.9741338462236
 20
296.8292701497535
 30
0.0
 11
157.4746668462236
 21
296.8292701497535
 31
0.0
  0
LINE
  5
6F3
330
1F
100
AcDbEntity
  8
0
100
AcDbLine
 10
154.4741338462236
 20
305.3290111497535
 30
0.0
 11
182.4745518462236
 21
305.3290111497535
 31
0.0
  0
LINE
  5
6F4
330
1F
100
AcDbEntity
  8
CLASS1
100
AcDbLine
 10
2.500000571967234
 20
305.3290111497535
 30
0.0
 11
0.0000005719672345
 21
305.3290111497535
 31
0.0
  0
LINE
  5
6F5
330
1F
100
AcDbEntity
  8
0
100
AcDbLine
 10
2.500000571967234
 20
305.3290111497535
 30
0.0
 11
2.500000571967234
 21
298.3305601497533
 31
0.0
  0
ARC
  5
6F6
330
1F
100
AcDbEntity
  8
0
100
AcDbCircle
 10
182.4745518462236
 20
303.8290111497535
 30
0.0
 40
1.5
100
AcDbArc
 50
0.0
 51
90.0
  0
LINE
  5
6F7
330
1F
100
AcDbEntity
  8
0
  6
CENTER
 62
     5
100
AcDbLine
 10
175.9743428462236
 20
300.5790111497535
 30
0.0
 11
160.9743428462236
 21
300.5790111497535
 31
0.0
  0
CIRCLE
  5
6F8
330
1F
100
AcDbEntity
  8
0
100
AcDbCircle
 10
168.4743428462236
 20
300.5790111497535
 30
0.0
 40
2.5
  0
ARC
  5
6F9
330
1F
100
AcDbEntity
  8
0
100
AcDbCircle
 10
154.4741338462236
 20
303.8290111497535
 30
0.0
 40
1.5
100
AcDbArc
 50
90.0
 51
180.0
  0
LINE
  5
6FA
330
1F
100
AcDbEntity
  8
0
100
AcDbLine
 10
174.3743428462236
 20
231.8071261497539
 30
0.0
 11
174.3743428462236
 21
143.8331391497538
 31
0.0
  0
LINE
  5
6FB
330
1F
100
AcDbEntity
  8
0
100
AcDbLine
 10
161.0743428462235
 20
225.6571261497537
 30
0.0
 11
161.0743428462235
 21
211.6571261497537
 31
0.0
  0
LINE
  5
6FC
330
1F
100
AcDbEntity
  8
0
100
AcDbLine
 10
160.5743428462236
 20
226.1331391497538
 30
0.0
 11
160.5743428462236
 21
211.1331391497536
 31
0.0
  0
LINE
  5
6FD
330
1F
100
AcDbEntity
  8
0
100
AcDbLine
 10
173.8743428462236
 20
211.6571261497537
 30
0.0
 11
173.8743428462236
 21
225.6571261497537
 31
0.0
  0
LINE
  5
6FE
330
1F
100
AcDbEntity
  8
0
100
AcDbLine
 10
168.5043428462236
 20
155.8131381497536
 30
0.0
 11
168.5043428462236
 21
152.0031381497534
 31
0.0
  0
LINE
  5
6FF
330
1F
100
AcDbEntity
  8
0
100
AcDbLine
 10
173.3743428462236
 20
173.5531381497537
 30
0.0
 11
173.3743428462236
 21
144.4931381497534
 31
0.0
  0
LINE
  5
700
330
1F
100
AcDbEntity
  8
0
100
AcDbLine
 10
160.1743428462236
 20
143.8331391497538
 30
0.0
 11
160.1743428462236
 21
173.7331391497539
 31
0.0
  0
ARC
  5
701
330
1F
100
AcDbEntity
  8
0
100
AcDbCircle
 10
165.4743428462234
 20
153.9081381497536
 30
0.0
 40
0.85
100
AcDbArc
 50
0.0
 51
323.269604999999
  0
LINE
  5
702
330
1F
100
AcDbEntity
  8
0
100
AcDbLine
 10
160.6743428462235
 20
152.3431381497536
 30
0.0
 11
160.6743428462235
 21
155.4431381497535
 31
0.0
  0
LINE
  5
703
330
1F
100
AcDbEntity
  8
0
100
AcDbLine
 10
161.3243428462236
 20
155.7431381497534
 30
0.0
 11
161.3243428462236
 21
152.9431381497535
 31
0.0
  0
LINE
  5
704
330
1F
100
AcDbEntity
  8
0
100
AcDbLine
 10
162.5243428462234
 20
152.9431381497535
 30
0.0
 11
162.5243428462234
 21
155.7431381497534
 31
0.0
  0
LINE
  5
705
330
1F
100
AcDbEntity
  8
0
100
AcDbLine
 10
163.1743428462236
 20
152.3431381497536
 30
0.0
 11
163.1743428462236
 21
155.0431381497536
 31
0.0
  0
LINE
  5
706
330
1F
100
AcDbEntity
  8
0
100
AcDbLine
 10
163.3243428462236
 20
155.0431381497536
 30
0.0
 11
163.3243428462236
 21
152.0031381497534
 31
0.0
  0
CIRCLE
  5
707
330
1F
100
AcDbEntity
  8
0
100
AcDbCircle
 10
165.4743428462234
 20
153.9081381497536
 30
0.0
 40
1.564999999999999
  0
LINE
  5
708
330
1F
100
AcDbEntity
  8
0
100
AcDbLine
 10
163.8243428462236
 20
152.0031381497534
 30
0.0
 11
167.5443428462235
 21
152.0031381497534
 31
0.0
  0
LINE
  5
709
330
1F
100
AcDbEntity
  8
0
100
AcDbLine
 10
163.8243428462236
 20
152.0031381497534
 30
0.0
 11
168.3043428462235
 21
152.0031381497534
 31
0.0
  0
LINE
  5
70A
330
1F
100
AcDbEntity
  8
0
100
AcDbLine
 10
163.8243428462236
 20
144.3831381497535
 30
0.0
 11
168.3043428462235
 21
144.3831381497535
 31
0.0
  0
LINE
  5
70B
330
1F
100
AcDbEntity
  8
0
100
AcDbLine
 10
163.8243428462236
 20
148.1931381497535
 30
0.0
 11
167.5443428462235
 21
148.1931381497535
 31
0.0
  0
LINE
  5
70C
330
1F
100
AcDbEntity
  8
0
100
AcDbLine
 10
163.8243428462236
 20
148.1931381497535
 30
0.0
 11
168.3043428462235
 21
148.1931381497535
 31
0.0
  0
LINE
  5
70D
330
1F
100
AcDbEntity
  8
0
100
AcDbLine
 10
160.1743428462236
 20
143.8331391497538
 30
0.0
 11
174.3743428462236
 21
143.8331391497538
 31
0.0
  0
ARC
  5
70E
330
1F
100
AcDbEntity
  8
0
100
AcDbCircle
 10
160.9743428462234
 20
151.6331381497535
 30
0.0
 40
0.3
100
AcDbArc
 50
90.0
 51
180.0
  0
LINE
  5
70F
330
1F
100
AcDbEntity
  8
0
100
AcDbLine
 10
163.3243428462236
 20
152.0031381497534
 30
0.0
 11
163.3243428462236
 21
151.9331381497535
 31
0.0
  0
ARC
  5
710
330
1F
100
AcDbEntity
  8
0
100
AcDbCircle
 10
165.4743428462234
 20
150.0981381497534
 30
0.0
 40
0.85
100
AcDbArc
 50
0.0
 51
323.269604999999
  0
ARC
  5
711
330
1F
100
AcDbEntity
  8
0
100
AcDbCircle
 10
165.4743428462234
 20
146.2881381497535
 30
0.0
 40
0.85
100
AcDbArc
 50
0.0
 51
323.269604999999
  0
LINE
  5
712
330
1F
100
AcDbEntity
  8
0
100
AcDbLine
 10
163.3243428462236
 20
147.4231381497535
 30
0.0
 11
163.3243428462236
 21
144.3831381497535
 31
0.0
  0
LINE
  5
713
330
1F
100
AcDbEntity
  8
0
100
AcDbLine
 10
163.1743428462236
 20
144.7231381497534
 30
0.0
 11
163.1743428462236
 21
147.4231381497535
 31
0.0
  0
LINE
  5
714
330
1F
100
AcDbEntity
  8
0
100
AcDbLine
 10
160.6743428462235
 20
144.7231381497534
 30
0.0
 11
160.6743428462235
 21
147.8231381497536
 31
0.0
  0
ARC
  5
715
330
1F
100
AcDbEntity
  8
0
100
AcDbCircle
 10
162.2243428462234
 20
145.3231381497536
 30
0.0
 40
0.3
100
AcDbArc
 50
270.0
 51
0.0
  0
ARC
  5
716
330
1F
100
AcDbEntity
  8
0
100
AcDbCircle
 10
161.6243428462235
 20
145.3231381497536
 30
0.0
 40
0.3
100
AcDbArc
 50
180.0
 51
270.0
  0
LINE
  5
717
330
1F
100
AcDbEntity
  8
0
100
AcDbLine
 10
163.8243428462236
 20
144.3831381497535
 30
0.0
 11
163.3243428462236
 21
144.3831381497535
 31
0.0
  0
LINE
  5
718
330
1F
100
AcDbEntity
  8
0
100
AcDbLine
 10
162.7743428462235
 20
144.4231381497535
 30
0.0
 11
162.8743428462236
 21
144.4231381497535
 31
0.0
  0
LINE
  5
719
330
1F
100
AcDbEntity
  8
0
100
AcDbLine
 10
161.6243428462236
 20
145.0231381497536
 30
0.0
 11
162.2243428462236
 21
145.0231381497536
 31
0.0
  0
LINE
  5
71A
330
1F
100
AcDbEntity
  8
0
100
AcDbLine
 10
163.8243428462236
 20
152.0031381497534
 30
0.0
 11
163.3243428462236
 21
152.0031381497534
 31
0.0
  0
ARC
  5
71B
330
1F
100
AcDbEntity
  8
0
100
AcDbCircle
 10
161.6243428462235
 20
152.9431381497535
 30
0.0
 40
0.3
100
AcDbArc
 50
180.0
 51
270.0
  0
ARC
  5
71C
330
1F
100
AcDbEntity
  8
0
100
AcDbCircle
 10
160.9743428462234
 20
152.3431381497536
 30
0.0
 40
0.3
100
AcDbArc
 50
180.0
 51
270.0
  0
ARC
  5
71D
330
1F
100
AcDbEntity
  8
0
100
AcDbCircle
 10
162.8743428462235
 20
152.3431381497536
 30
0.0
 40
0.3
100
AcDbArc
 50
270.0
 51
0.0
  0
ARC
  5
71E
330
1F
100
AcDbEntity
  8
0
100
AcDbCircle
 10
162.2243428462234
 20
152.9431381497535
 30
0.0
 40
0.3
100
AcDbArc
 50
270.0
 51
0.0
  0
LINE
  5
71F
330
1F
100
AcDbEntity
  8
0
100
AcDbLine
 10
160.9743428462236
 20
152.0431381497536
 30
0.0
 11
161.0743428462235
 21
152.0431381497536
 31
0.0
  0
LINE
  5
720
330
1F
100
AcDbEntity
  8
0
100
AcDbLine
 10
161.0743428462235
 20
152.0431381497536
 30
0.0
 11
162.7743428462235
 21
152.0431381497536
 31
0.0
  0
LINE
  5
721
330
1F
100
AcDbEntity
  8
0
100
AcDbLine
 10
161.6243428462236
 20
152.6431381497535
 30
0.0
 11
162.2243428462236
 21
152.6431381497535
 31
0.0
  0
LINE
  5
722
330
1F
100
AcDbEntity
  8
0
100
AcDbLine
 10
162.7743428462235
 20
152.0431381497536
 30
0.0
 11
162.8743428462236
 21
152.0431381497536
 31
0.0
  0
LINE
  5
723
330
1F
100
AcDbEntity
  8
0
100
AcDbLine
 10
163.8243428462236
 20
152.0031381497534
 30
0.0
 11
163.3243428462236
 21
152.0031381497534
 31
0.0
  0
ARC
  5
724
330
1F
100
AcDbEntity
  8
0
100
AcDbCircle
 10
165.4743428462234
 20
153.9081381497536
 30
0.0
 40
0.85
100
AcDbArc
 50
323.269604999999
 51
0.0
  0
LINE
  5
725
330
1F
100
AcDbEntity
  8
0
100
AcDbLine
 10
161.0743428462235
 20
144.4231381497535
 30
0.0
 11
162.7743428462235
 21
144.4231381497535
 31
0.0
  0
LINE
  5
726
330
1F
100
AcDbEntity
  8
0
100
AcDbLine
 10
160.9743428462236
 20
144.4231381497535
 30
0.0
 11
161.0743428462235
 21
144.4231381497535
 31
0.0
  0
ARC
  5
727
330
1F
100
AcDbEntity
  8
0
100
AcDbCircle
 10
162.8743428462235
 20
144.7231381497534
 30
0.0
 40
0.3
100
AcDbArc
 50
270.0
 51
0.0
  0
ARC
  5
728
330
1F
100
AcDbEntity
  8
0
100
AcDbCircle
 10
160.9743428462234
 20
144.7231381497534
 30
0.0
 40
0.3
100
AcDbArc
 50
180.0
 51
270.0
  0
LINE
  5
729
330
1F
100
AcDbEntity
  8
0
100
AcDbLine
 10
163.3243428462236
 20
151.9331381497535
 30
0.0
 11
163.3243428462236
 21
151.2331381497534
 31
0.0
  0
LINE
  5
72A
330
1F
100
AcDbEntity
  8
0
100
AcDbLine
 10
161.3243428462236
 20
151.9331381497535
 30
0.0
 11
161.3243428462236
 21
149.1331381497535
 31
0.0
  0
LINE
  5
72B
330
1F
100
AcDbEntity
  8
0
100
AcDbLine
 10
163.1743428462236
 20
151.2331381497534
 30
0.0
 11
163.1743428462236
 21
151.9331381497535
 31
0.0
  0
LINE
  5
72C
330
1F
100
AcDbEntity
  8
0
100
AcDbLine
 10
162.5243428462234
 20
149.1331381497535
 30
0.0
 11
162.5243428462234
 21
151.9331381497535
 31
0.0
  0
ARC
  5
72D
330
1F
100
AcDbEntity
  8
0
100
AcDbCircle
 10
161.6243428462235
 20
149.1331381497535
 30
0.0
 40
0.3
100
AcDbArc
 50
180.0
 51
270.0
  0
ARC
  5
72E
330
1F
100
AcDbEntity
  8
0
100
AcDbCircle
 10
162.2243428462234
 20
149.1331381497535
 30
0.0
 40
0.3
100
AcDbArc
 50
270.0
 51
0.0
  0
LINE
  5
72F
330
1F
100
AcDbEntity
  8
0
100
AcDbLine
 10
160.9743428462236
 20
148.2331381497535
 30
0.0
 11
161.0743428462235
 21
148.2331381497535
 31
0.0
  0
LINE
  5
730
330
1F
100
AcDbEntity
  8
0
100
AcDbLine
 10
161.0743428462235
 20
148.2331381497535
 30
0.0
 11
162.7743428462235
 21
148.2331381497535
 31
0.0
  0
LINE
  5
731
330
1F
100
AcDbEntity
  8
0
100
AcDbLine
 10
160.6743428462235
 20
148.5331381497536
 30
0.0
 11
160.6743428462235
 21
151.6331381497535
 31
0.0
  0
LINE
  5
732
330
1F
100
AcDbEntity
  8
0
100
AcDbLine
 10
161.6243428462236
 20
148.8331381497537
 30
0.0
 11
162.2243428462236
 21
148.8331381497537
 31
0.0
  0
LINE
  5
733
330
1F
100
AcDbEntity
  8
0
100
AcDbLine
 10
162.7743428462235
 20
148.2331381497535
 30
0.0
 11
162.8743428462236
 21
148.2331381497535
 31
0.0
  0
LINE
  5
734
330
1F
100
AcDbEntity
  8
0
100
AcDbLine
 10
163.1743428462236
 20
151.2331381497534
 30
0.0
 11
163.3243428462236
 21
151.2331381497534
 31
0.0
  0
LINE
  5
735
330
1F
100
AcDbEntity
  8
0
100
AcDbLine
 10
163.1743428462236
 20
148.5331381497536
 30
0.0
 11
163.1743428462236
 21
151.2331381497534
 31
0.0
  0
LINE
  5
736
330
1F
100
AcDbEntity
  8
0
100
AcDbLine
 10
160.9743428462236
 20
151.9331381497535
 30
0.0
 11
161.0743428462235
 21
151.9331381497535
 31
0.0
  0
LINE
  5
737
330
1F
100
AcDbEntity
  8
0
100
AcDbLine
 10
161.6243428462236
 20
151.9331381497535
 30
0.0
 11
162.2243428462236
 21
151.9331381497535
 31
0.0
  0
LINE
  5
738
330
1F
100
AcDbEntity
  8
0
100
AcDbLine
 10
161.0743428462235
 20
151.9331381497535
 30
0.0
 11
161.3243428462236
 21
151.9331381497535
 31
0.0
  0
LINE
  5
739
330
1F
100
AcDbEntity
  8
0
100
AcDbLine
 10
161.6243428462236
 20
151.9331381497535
 30
0.0
 11
161.3243428462236
 21
151.9331381497535
 31
0.0
  0
LINE
  5
73A
330
1F
100
AcDbEntity
  8
0
100
AcDbLine
 10
162.7743428462235
 20
151.9331381497535
 30
0.0
 11
163.1743428462236
 21
151.9331381497535
 31
0.0
  0
LINE
  5
73B
330
1F
100
AcDbEntity
  8
0
100
AcDbLine
 10
163.1743428462236
 20
151.9331381497535
 30
0.0
 11
163.3243428462236
 21
151.9331381497535
 31
0.0
  0
LINE
  5
73C
330
1F
100
AcDbEntity
  8
0
100
AcDbLine
 10
162.5243428462234
 20
151.9331381497535
 30
0.0
 11
162.7743428462235
 21
151.9331381497535
 31
0.0
  0
LINE
  5
73D
330
1F
100
AcDbEntity
  8
0
100
AcDbLine
 10
162.5243428462234
 20
151.9331381497535
 30
0.0
 11
162.2243428462236
 21
151.9331381497535
 31
0.0
  0
LINE
  5
73E
330
1F
100
AcDbEntity
  8
0
100
AcDbLine
 10
163.3243428462236
 20
148.1931381497535
 30
0.0
 11
163.3243428462236
 21
148.1231381497535
 31
0.0
  0
LINE
  5
73F
330
1F
100
AcDbEntity
  8
0
100
AcDbLine
 10
163.3243428462236
 20
148.1231381497535
 30
0.0
 11
163.3243428462236
 21
147.4231381497535
 31
0.0
  0
LINE
  5
740
330
1F
100
AcDbEntity
  8
0
100
AcDbLine
 10
163.8243428462236
 20
148.1931381497535
 30
0.0
 11
163.3243428462236
 21
148.1931381497535
 31
0.0
  0
LINE
  5
741
330
1F
100
AcDbEntity
  8
0
100
AcDbLine
 10
162.5243428462234
 20
148.1231381497535
 30
0.0
 11
162.2243428462236
 21
148.1231381497535
 31
0.0
  0
LINE
  5
742
330
1F
100
AcDbEntity
  8
0
100
AcDbLine
 10
162.5243428462234
 20
148.1231381497535
 30
0.0
 11
162.7743428462235
 21
148.1231381497535
 31
0.0
  0
LINE
  5
743
330
1F
100
AcDbEntity
  8
0
100
AcDbLine
 10
163.1743428462236
 20
148.1231381497535
 30
0.0
 11
163.3243428462236
 21
148.1231381497535
 31
0.0
  0
LINE
  5
744
330
1F
100
AcDbEntity
  8
0
100
AcDbLine
 10
162.7743428462235
 20
148.1231381497535
 30
0.0
 11
163.1743428462236
 21
148.1231381497535
 31
0.0
  0
LINE
  5
745
330
1F
100
AcDbEntity
  8
0
100
AcDbLine
 10
162.5243428462234
 20
145.3231381497536
 30
0.0
 11
162.5243428462234
 21
148.1231381497535
 31
0.0
  0
LINE
  5
746
330
1F
100
AcDbEntity
  8
0
100
AcDbLine
 10
163.1743428462236
 20
147.4231381497535
 30
0.0
 11
163.3243428462236
 21
147.4231381497535
 31
0.0
  0
LINE
  5
747
330
1F
100
AcDbEntity
  8
0
100
AcDbLine
 10
163.1743428462236
 20
147.4231381497535
 30
0.0
 11
163.1743428462236
 21
148.1231381497535
 31
0.0
  0
LINE
  5
748
330
1F
100
AcDbEntity
  8
0
100
AcDbLine
 10
161.6243428462236
 20
148.1231381497535
 30
0.0
 11
161.3243428462236
 21
148.1231381497535
 31
0.0
  0
LINE
  5
749
330
1F
100
AcDbEntity
  8
0
100
AcDbLine
 10
161.0743428462235
 20
148.1231381497535
 30
0.0
 11
161.3243428462236
 21
148.1231381497535
 31
0.0
  0
LINE
  5
74A
330
1F
100
AcDbEntity
  8
0
100
AcDbLine
 10
161.3243428462236
 20
148.1231381497535
 30
0.0
 11
161.3243428462236
 21
145.3231381497536
 31
0.0
  0
LINE
  5
74B
330
1F
100
AcDbEntity
  8
0
100
AcDbLine
 10
161.6243428462236
 20
148.1231381497535
 30
0.0
 11
162.2243428462236
 21
148.1231381497535
 31
0.0
  0
LINE
  5
74C
330
1F
100
AcDbEntity
  8
0
100
AcDbLine
 10
160.9743428462236
 20
148.1231381497535
 30
0.0
 11
161.0743428462235
 21
148.1231381497535
 31
0.0
  0
ARC
  5
74D
330
1F
100
AcDbEntity
  8
0
100
AcDbCircle
 10
160.9743428462234
 20
147.8231381497536
 30
0.0
 40
0.3
100
AcDbArc
 50
90.0
 51
180.0
  0
LINE
  5
74E
330
1F
100
AcDbEntity
  8
0
100
AcDbLine
 10
163.8243428462236
 20
148.1931381497535
 30
0.0
 11
163.3243428462236
 21
148.1931381497535
 31
0.0
  0
LINE
  5
74F
330
1F
100
AcDbEntity
  8
0
100
AcDbLine
 10
163.3243428462236
 20
151.2331381497534
 30
0.0
 11
163.3243428462236
 21
148.1931381497535
 31
0.0
  0
ARC
  5
750
330
1F
100
AcDbEntity
  8
0
100
AcDbCircle
 10
160.9743428462234
 20
148.5331381497536
 30
0.0
 40
0.3
100
AcDbArc
 50
180.0
 51
270.0
  0
ARC
  5
751
330
1F
100
AcDbEntity
  8
0
100
AcDbCircle
 10
162.8743428462235
 20
148.5331381497536
 30
0.0
 40
0.3
100
AcDbArc
 50
270.0
 51
0.0
  0
ARC
  5
752
330
1F
100
AcDbEntity
  8
0
100
AcDbCircle
 10
165.4743428462234
 20
150.0981381497534
 30
0.0
 40
0.85
100
AcDbArc
 50
323.269604999999
 51
0.0
  0
ARC
  5
753
330
1F
100
AcDbEntity
  8
0
100
AcDbCircle
 10
165.4743428462234
 20
146.2881381497535
 30
0.0
 40
0.85
100
AcDbArc
 50
323.269604999999
 51
0.0
  0
CIRCLE
  5
754
330
1F
100
AcDbEntity
  8
0
100
AcDbCircle
 10
165.4743428462234
 20
150.0981381497534
 30
0.0
 40
1.564999999999999
  0
CIRCLE
  5
755
330
1F
100
AcDbEntity
  8
0
100
AcDbCircle
 10
165.4743428462234
 20
146.2881381497535
 30
0.0
 40
1.564999999999999
  0
LINE
  5
756
330
1F
100
AcDbEntity
  8
0
100
AcDbLine
 10
173.3743428462236
 20
152.0031381497534
 30
0.0
 11
172.8743428462236
 21
152.0031381497534
 31
0.0
  0
LINE
  5
757
330
1F
100
AcDbEntity
  8
0
100
AcDbLine
 10
173.3743428462236
 20
152.0031381497534
 30
0.0
 11
172.8743428462236
 21
152.0031381497534
 31
0.0
  0
LINE
  5
758
330
1F
100
AcDbEntity
  8
0
100
AcDbLine
 10
167.5443428462235
 20
152.0031381497534
 30
0.0
 11
168.3043428462235
 21
152.0031381497534
 31
0.0
  0
LINE
  5
759
330
1F
100
AcDbEntity
  8
0
100
AcDbLine
 10
168.5043428462236
 20
152.0031381497534
 30
0.0
 11
168.3043428462235
 21
152.0031381497534
 31
0.0
  0
LINE
  5
75A
330
1F
100
AcDbEntity
  8
0
100
AcDbLine
 10
169.0743428462235
 20
152.0031381497534
 30
0.0
 11
170.4743428462236
 21
152.0031381497534
 31
0.0
  0
LINE
  5
75B
330
1F
100
AcDbEntity
  8
0
100
AcDbLine
 10
168.9443428462236
 20
152.0031381497534
 30
0.0
 11
169.0743428462235
 21
152.0031381497534
 31
0.0
  0
LINE
  5
75C
330
1F
100
AcDbEntity
  8
0
100
AcDbLine
 10
168.5043428462236
 20
152.0031381497534
 30
0.0
 11
168.9443428462236
 21
152.0031381497534
 31
0.0
  0
LINE
  5
75D
330
1F
100
AcDbEntity
  8
0
100
AcDbLine
 10
168.5043428462236
 20
152.0031381497534
 30
0.0
 11
168.3043428462235
 21
152.0031381497534
 31
0.0
  0
LINE
  5
75E
330
1F
100
AcDbEntity
  8
0
100
AcDbLine
 10
170.4743428462236
 20
152.0031381497534
 30
0.0
 11
172.8743428462236
 21
152.0031381497534
 31
0.0
  0
LINE
  5
75F
330
1F
100
AcDbEntity
  8
0
100
AcDbLine
 10
168.5043428462236
 20
152.0031381497534
 30
0.0
 11
172.8743428462236
 21
152.0031381497534
 31
0.0
  0
LINE
  5
760
330
1F
100
AcDbEntity
  8
0
100
AcDbLine
 10
173.3743428462236
 20
153.4131381497535
 30
0.0
 11
173.8743428462236
 21
153.4131381497535
 31
0.0
  0
LINE
  5
761
330
1F
100
AcDbEntity
  8
0
100
AcDbLine
 10
173.3743428462236
 20
152.1131381497535
 30
0.0
 11
173.8743428462236
 21
152.1131381497535
 31
0.0
  0
LINE
  5
762
330
1F
100
AcDbEntity
  8
0
100
AcDbLine
 10
173.8743428462236
 20
153.4131381497535
 30
0.0
 11
173.8743428462236
 21
153.0131381497534
 31
0.0
  0
LINE
  5
763
330
1F
100
AcDbEntity
  8
0
100
AcDbLine
 10
173.8743428462236
 20
153.0131381497534
 30
0.0
 11
173.8743428462236
 21
152.5131381497535
 31
0.0
  0
LINE
  5
764
330
1F
100
AcDbEntity
  8
0
100
AcDbLine
 10
173.8743428462236
 20
152.5131381497535
 30
0.0
 11
173.8743428462236
 21
152.1131381497535
 31
0.0
  0
LINE
  5
765
330
1F
100
AcDbEntity
  8
0
100
AcDbLine
 10
173.3743428462236
 20
152.1131381497535
 30
0.0
 11
173.3743428462236
 21
152.0031381497534
 31
0.0
  0
LINE
  5
766
330
1F
100
AcDbEntity
  8
0
100
AcDbLine
 10
168.5043428462236
 20
152.0031381497534
 30
0.0
 11
168.5043428462236
 21
148.1931381497535
 31
0.0
  0
LINE
  5
767
330
1F
100
AcDbEntity
  8
0
100
AcDbLine
 10
173.8743428462236
 20
145.3931381497535
 30
0.0
 11
173.8743428462236
 21
144.8931381497535
 31
0.0
  0
LINE
  5
768
330
1F
100
AcDbEntity
  8
0
100
AcDbLine
 10
168.5043428462236
 20
148.1931381497535
 30
0.0
 11
168.5043428462236
 21
144.3831381497535
 31
0.0
  0
LINE
  5
769
330
1F
100
AcDbEntity
  8
0
100
AcDbLine
 10
173.3743428462236
 20
144.3831381497535
 30
0.0
 11
172.8743428462236
 21
144.3831381497535
 31
0.0
  0
LINE
  5
76A
330
1F
100
AcDbEntity
  8
0
100
AcDbLine
 10
168.5043428462236
 20
144.3831381497535
 30
0.0
 11
168.3043428462235
 21
144.3831381497535
 31
0.0
  0
LINE
  5
76B
330
1F
100
AcDbEntity
  8
0
100
AcDbLine
 10
168.5043428462236
 20
144.3831381497535
 30
0.0
 11
172.8743428462236
 21
144.3831381497535
 31
0.0
  0
LINE
  5
76C
330
1F
100
AcDbEntity
  8
0
100
AcDbLine
 10
173.3743428462236
 20
144.4931381497534
 30
0.0
 11
173.3743428462236
 21
144.3831381497535
 31
0.0
  0
LINE
  5
76D
330
1F
100
AcDbEntity
  8
0
100
AcDbLine
 10
173.8743428462236
 20
144.8931381497535
 30
0.0
 11
173.8743428462236
 21
144.4931381497534
 31
0.0
  0
LINE
  5
76E
330
1F
100
AcDbEntity
  8
0
100
AcDbLine
 10
173.3743428462236
 20
144.4931381497534
 30
0.0
 11
173.8743428462236
 21
144.4931381497534
 31
0.0
  0
LINE
  5
76F
330
1F
100
AcDbEntity
  8
0
100
AcDbLine
 10
173.3743428462236
 20
148.1931381497535
 30
0.0
 11
172.8743428462236
 21
148.1931381497535
 31
0.0
  0
LINE
  5
770
330
1F
100
AcDbEntity
  8
0
100
AcDbLine
 10
173.3743428462236
 20
148.1931381497535
 30
0.0
 11
172.8743428462236
 21
148.1931381497535
 31
0.0
  0
LINE
  5
771
330
1F
100
AcDbEntity
  8
0
100
AcDbLine
 10
167.5443428462235
 20
148.1931381497535
 30
0.0
 11
168.3043428462235
 21
148.1931381497535
 31
0.0
  0
LINE
  5
772
330
1F
100
AcDbEntity
  8
0
100
AcDbLine
 10
168.5043428462236
 20
148.1931381497535
 30
0.0
 11
168.9443428462236
 21
148.1931381497535
 31
0.0
  0
LINE
  5
773
330
1F
100
AcDbEntity
  8
0
100
AcDbLine
 10
168.9443428462236
 20
148.1931381497535
 30
0.0
 11
169.0743428462235
 21
148.1931381497535
 31
0.0
  0
LINE
  5
774
330
1F
100
AcDbEntity
  8
0
100
AcDbLine
 10
169.0743428462235
 20
148.1931381497535
 30
0.0
 11
170.4743428462236
 21
148.1931381497535
 31
0.0
  0
LINE
  5
775
330
1F
100
AcDbEntity
  8
0
100
AcDbLine
 10
168.5043428462236
 20
148.1931381497535
 30
0.0
 11
168.3043428462235
 21
148.1931381497535
 31
0.0
  0
LINE
  5
776
330
1F
100
AcDbEntity
  8
0
100
AcDbLine
 10
168.5043428462236
 20
148.1931381497535
 30
0.0
 11
168.3043428462235
 21
148.1931381497535
 31
0.0
  0
LINE
  5
777
330
1F
100
AcDbEntity
  8
0
100
AcDbLine
 10
170.4743428462236
 20
148.1931381497535
 30
0.0
 11
172.8743428462236
 21
148.1931381497535
 31
0.0
  0
LINE
  5
778
330
1F
100
AcDbEntity
  8
0
100
AcDbLine
 10
168.5043428462236
 20
148.1931381497535
 30
0.0
 11
172.8743428462236
 21
148.1931381497535
 31
0.0
  0
LINE
  5
779
330
1F
100
AcDbEntity
  8
0
100
AcDbLine
 10
173.3743428462236
 20
149.6031381497536
 30
0.0
 11
173.8743428462236
 21
149.6031381497536
 31
0.0
  0
LINE
  5
77A
330
1F
100
AcDbEntity
  8
0
100
AcDbLine
 10
173.3743428462236
 20
148.3031381497536
 30
0.0
 11
173.8743428462236
 21
148.3031381497536
 31
0.0
  0
LINE
  5
77B
330
1F
100
AcDbEntity
  8
0
100
AcDbLine
 10
173.8743428462236
 20
149.6031381497536
 30
0.0
 11
173.8743428462236
 21
149.2031381497535
 31
0.0
  0
LINE
  5
77C
330
1F
100
AcDbEntity
  8
0
100
AcDbLine
 10
173.8743428462236
 20
149.2031381497535
 30
0.0
 11
173.8743428462236
 21
148.7031381497535
 31
0.0
  0
LINE
  5
77D
330
1F
100
AcDbEntity
  8
0
100
AcDbLine
 10
173.8743428462236
 20
148.7031381497535
 30
0.0
 11
173.8743428462236
 21
148.3031381497536
 31
0.0
  0
LINE
  5
77E
330
1F
100
AcDbEntity
  8
0
100
AcDbLine
 10
173.8743428462236
 20
145.7931381497536
 30
0.0
 11
173.8743428462236
 21
145.3931381497535
 31
0.0
  0
LINE
  5
77F
330
1F
100
AcDbEntity
  8
0
100
AcDbLine
 10
173.3743428462236
 20
145.7931381497536
 30
0.0
 11
173.8743428462236
 21
145.7931381497536
 31
0.0
  0
LINE
  5
780
330
1F
100
AcDbEntity
  8
0
100
AcDbLine
 10
173.3743428462236
 20
148.3031381497536
 30
0.0
 11
173.3743428462236
 21
148.1931381497535
 31
0.0
  0
LINE
  5
781
330
1F
100
AcDbEntity
  8
0
100
AcDbLine
 10
169.2951778462235
 20
189.2531381497534
 30
0.0
 11
169.2951778462235
 21
186.2531381497534
 31
0.0
  0
LINE
  5
782
330
1F
100
AcDbEntity
  8
0
100
AcDbLine
 10
171.2600998462235
 20
189.2531381497534
 30
0.0
 11
171.2600998462235
 21
186.2531381497534
 31
0.0
  0
LINE
  5
783
330
1F
100
AcDbEntity
  8
0
100
AcDbLine
 10
166.8743428462236
 20
185.2531381497534
 30
0.0
 11
166.8743428462236
 21
190.2531381497534
 31
0.0
  0
LINE
  5
784
330
1F
100
AcDbEntity
  8
0
100
AcDbLine
 10
166.3743428462236
 20
185.0331391497537
 30
0.0
 11
166.3743428462236
 21
190.7331391497539
 31
0.0
  0
LINE
  5
785
330
1F
100
AcDbEntity
  8
0
100
AcDbLine
 10
173.8743428462236
 20
190.2531381497534
 30
0.0
 11
173.8743428462236
 21
185.2531381497534
 31
0.0
  0
LINE
  5
786
330
1F
100
AcDbEntity
  8
0
100
AcDbLine
 10
171.474342846222
 20
174.8031381497528
 30
0.0
 11
160.0743428462243
 21
174.8031381497528
 31
0.0
  0
LINE
  5
787
330
1F
100
AcDbEntity
  8
0
100
AcDbLine
 10
160.0743428462243
 20
184.0031381497534
 30
0.0
 11
171.474342846222
 21
184.0031381497516
 31
0.0
  0
LINE
  5
788
330
1F
100
AcDbEntity
  8
0
100
AcDbLine
 10
159.6951749254126
 20
174.3031381497528
 30
0.0
 11
171.8743428462236
 21
174.3031381497528
 31
0.0
  0
LINE
  5
789
330
1F
100
AcDbEntity
  8
0
100
AcDbLine
 10
159.6951749254126
 20
184.5031381497516
 30
0.0
 11
171.8743428462236
 21
184.5031381497516
 31
0.0
  0
LINE
  5
78A
330
1F
100
AcDbEntity
  8
0
100
AcDbLine
 10
166.8743428462236
 20
185.2531381497534
 30
0.0
 11
173.8743428462236
 21
185.2531381497534
 31
0.0
  0
LINE
  5
78B
330
1F
100
AcDbEntity
  8
0
100
AcDbLine
 10
173.3743428462236
 20
171.0531381497536
 30
0.0
 11
163.3243428462236
 21
171.0531381497536
 31
0.0
  0
LINE
  5
78C
330
1F
100
AcDbEntity
  8
0
100
AcDbLine
 10
173.3743428462236
 20
173.5531381497537
 30
0.0
 11
163.3243428462236
 21
173.5531381497537
 31
0.0
  0
LINE
  5
78D
330
1F
100
AcDbEntity
  8
0
100
AcDbLine
 10
163.8243428462236
 20
159.6231381497536
 30
0.0
 11
167.5443428462235
 21
159.6231381497536
 31
0.0
  0
LINE
  5
78E
330
1F
100
AcDbEntity
  8
0
100
AcDbLine
 10
163.8243428462236
 20
159.6231381497536
 30
0.0
 11
168.3043428462235
 21
159.6231381497536
 31
0.0
  0
LINE
  5
78F
330
1F
100
AcDbEntity
  8
0
100
AcDbLine
 10
163.8243428462236
 20
155.8131381497536
 30
0.0
 11
168.3043428462235
 21
155.8131381497536
 31
0.0
  0
LINE
  5
790
330
1F
100
AcDbEntity
  8
0
100
AcDbLine
 10
163.8243428462236
 20
155.8131381497536
 30
0.0
 11
167.5443428462235
 21
155.8131381497536
 31
0.0
  0
LINE
  5
791
330
1F
100
AcDbEntity
  8
0
100
AcDbLine
 10
163.8243428462236
 20
163.4331381497536
 30
0.0
 11
168.3043428462235
 21
163.4331381497536
 31
0.0
  0
LINE
  5
792
330
1F
100
AcDbEntity
  8
0
100
AcDbLine
 10
163.8243428462236
 20
163.4331381497536
 30
0.0
 11
167.5443428462235
 21
163.4331381497536
 31
0.0
  0
LINE
  5
793
330
1F
100
AcDbEntity
  8
0
100
AcDbLine
 10
163.8243428462236
 20
167.2431381497534
 30
0.0
 11
168.3043428462235
 21
167.2431381497534
 31
0.0
  0
LINE
  5
794
330
1F
100
AcDbEntity
  8
0
100
AcDbLine
 10
163.8243428462236
 20
167.2431381497534
 30
0.0
 11
167.5443428462235
 21
167.2431381497534
 31
0.0
  0
LINE
  5
795
330
1F
100
AcDbEntity
  8
0
100
AcDbLine
 10
163.3243428462236
 20
171.0531381497536
 30
0.0
 11
163.3243428462236
 21
173.5531381497537
 31
0.0
  0
LINE
  5
796
330
1F
100
AcDbEntity
  8
0
100
AcDbLine
 10
163.3243428462236
 20
170.9831381497535
 30
0.0
 11
163.3243428462236
 21
170.2831381497536
 31
0.0
  0
LINE
  5
797
330
1F
100
AcDbEntity
  8
0
100
AcDbLine
 10
162.5243428462234
 20
170.9831381497535
 30
0.0
 11
162.2243428462236
 21
170.9831381497535
 31
0.0
  0
LINE
  5
798
330
1F
100
AcDbEntity
  8
0
100
AcDbLine
 10
162.5243428462234
 20
170.9831381497535
 30
0.0
 11
162.7743428462235
 21
170.9831381497535
 31
0.0
  0
LINE
  5
799
330
1F
100
AcDbEntity
  8
0
100
AcDbLine
 10
163.1743428462236
 20
170.9831381497535
 30
0.0
 11
163.3243428462236
 21
170.9831381497535
 31
0.0
  0
LINE
  5
79A
330
1F
100
AcDbEntity
  8
0
100
AcDbLine
 10
162.7743428462235
 20
170.9831381497535
 30
0.0
 11
163.1743428462236
 21
170.9831381497535
 31
0.0
  0
LINE
  5
79B
330
1F
100
AcDbEntity
  8
0
100
AcDbLine
 10
163.1743428462236
 20
170.2831381497536
 30
0.0
 11
163.3243428462236
 21
170.2831381497536
 31
0.0
  0
LINE
  5
79C
330
1F
100
AcDbEntity
  8
0
100
AcDbLine
 10
163.1743428462236
 20
170.2831381497536
 30
0.0
 11
163.1743428462236
 21
170.9831381497535
 31
0.0
  0
LINE
  5
79D
330
1F
100
AcDbEntity
  8
0
100
AcDbLine
 10
161.6243428462236
 20
170.9831381497535
 30
0.0
 11
161.3243428462236
 21
170.9831381497535
 31
0.0
  0
LINE
  5
79E
330
1F
100
AcDbEntity
  8
0
100
AcDbLine
 10
161.0743428462235
 20
170.9831381497535
 30
0.0
 11
161.3243428462236
 21
170.9831381497535
 31
0.0
  0
LINE
  5
79F
330
1F
100
AcDbEntity
  8
0
100
AcDbLine
 10
161.6243428462236
 20
170.9831381497535
 30
0.0
 11
162.2243428462236
 21
170.9831381497535
 31
0.0
  0
LINE
  5
7A0
330
1F
100
AcDbEntity
  8
0
100
AcDbLine
 10
160.9743428462236
 20
170.9831381497535
 30
0.0
 11
161.0743428462235
 21
170.9831381497535
 31
0.0
  0
LINE
  5
7A1
330
1F
100
AcDbEntity
  8
0
100
AcDbLine
 10
163.3243428462236
 20
171.0531381497536
 30
0.0
 11
163.3243428462236
 21
170.9831381497535
 31
0.0
  0
ARC
  5
7A2
330
1F
100
AcDbEntity
  8
0
100
AcDbCircle
 10
160.9743428462234
 20
170.6831381497535
 30
0.0
 40
0.3
100
AcDbArc
 50
90.0
 51
180.0
  0
LINE
  5
7A3
330
1F
100
AcDbEntity
  8
0
100
AcDbLine
 10
161.3243428462236
 20
163.3631381497535
 30
0.0
 11
161.3243428462236
 21
160.5631381497536
 31
0.0
  0
LINE
  5
7A4
330
1F
100
AcDbEntity
  8
0
100
AcDbLine
 10
162.5243428462234
 20
160.5631381497536
 30
0.0
 11
162.5243428462234
 21
163.3631381497535
 31
0.0
  0
LINE
  5
7A5
330
1F
100
AcDbEntity
  8
0
100
AcDbLine
 10
160.6743428462235
 20
159.9631381497535
 30
0.0
 11
160.6743428462235
 21
163.0631381497536
 31
0.0
  0
LINE
  5
7A6
330
1F
100
AcDbEntity
  8
0
100
AcDbLine
 10
163.1743428462236
 20
159.9631381497535
 30
0.0
 11
163.1743428462236
 21
162.6631381497535
 31
0.0
  0
LINE
  5
7A7
330
1F
100
AcDbEntity
  8
0
100
AcDbLine
 10
163.3243428462236
 20
162.6631381497535
 30
0.0
 11
163.3243428462236
 21
159.6231381497536
 31
0.0
  0
ARC
  5
7A8
330
1F
100
AcDbEntity
  8
0
100
AcDbCircle
 10
165.4743428462234
 20
157.7181381497536
 30
0.0
 40
0.85
100
AcDbArc
 50
0.0
 51
323.269604999999
  0
ARC
  5
7A9
330
1F
100
AcDbEntity
  8
0
100
AcDbCircle
 10
165.4743428462234
 20
161.5281381497536
 30
0.0
 40
0.85
100
AcDbArc
 50
0.0
 51
323.269604999999
  0
LINE
  5
7AA
330
1F
100
AcDbEntity
  8
0
100
AcDbLine
 10
161.6243428462236
 20
160.2631381497535
 30
0.0
 11
162.2243428462236
 21
160.2631381497535
 31
0.0
  0
LINE
  5
7AB
330
1F
100
AcDbEntity
  8
0
100
AcDbLine
 10
163.1743428462236
 20
156.1531381497536
 30
0.0
 11
163.1743428462236
 21
158.8531381497536
 31
0.0
  0
LINE
  5
7AC
330
1F
100
AcDbEntity
  8
0
100
AcDbLine
 10
162.5243428462234
 20
159.5531381497536
 30
0.0
 11
162.2243428462236
 21
159.5531381497536
 31
0.0
  0
LINE
  5
7AD
330
1F
100
AcDbEntity
  8
0
100
AcDbLine
 10
162.5243428462234
 20
159.5531381497536
 30
0.0
 11
162.7743428462235
 21
159.5531381497536
 31
0.0
  0
LINE
  5
7AE
330
1F
100
AcDbEntity
  8
0
100
AcDbLine
 10
163.1743428462236
 20
159.5531381497536
 30
0.0
 11
163.3243428462236
 21
159.5531381497536
 31
0.0
  0
LINE
  5
7AF
330
1F
100
AcDbEntity
  8
0
100
AcDbLine
 10
162.7743428462235
 20
159.5531381497536
 30
0.0
 11
163.1743428462236
 21
159.5531381497536
 31
0.0
  0
LINE
  5
7B0
330
1F
100
AcDbEntity
  8
0
100
AcDbLine
 10
162.5243428462234
 20
156.7531381497534
 30
0.0
 11
162.5243428462234
 21
159.5531381497536
 31
0.0
  0
LINE
  5
7B1
330
1F
100
AcDbEntity
  8
0
100
AcDbLine
 10
163.1743428462236
 20
158.8531381497536
 30
0.0
 11
163.3243428462236
 21
158.8531381497536
 31
0.0
  0
LINE
  5
7B2
330
1F
100
AcDbEntity
  8
0
100
AcDbLine
 10
163.1743428462236
 20
158.8531381497536
 30
0.0
 11
163.1743428462236
 21
159.5531381497536
 31
0.0
  0
LINE
  5
7B3
330
1F
100
AcDbEntity
  8
0
100
AcDbLine
 10
162.7743428462235
 20
155.8531381497536
 30
0.0
 11
162.8743428462236
 21
155.8531381497536
 31
0.0
  0
LINE
  5
7B4
330
1F
100
AcDbEntity
  8
0
100
AcDbLine
 10
161.6243428462236
 20
156.4531381497535
 30
0.0
 11
162.2243428462236
 21
156.4531381497535
 31
0.0
  0
LINE
  5
7B5
330
1F
100
AcDbEntity
  8
0
100
AcDbLine
 10
161.6243428462236
 20
159.5531381497536
 30
0.0
 11
161.3243428462236
 21
159.5531381497536
 31
0.0
  0
LINE
  5
7B6
330
1F
100
AcDbEntity
  8
0
100
AcDbLine
 10
161.0743428462235
 20
159.5531381497536
 30
0.0
 11
161.3243428462236
 21
159.5531381497536
 31
0.0
  0
LINE
  5
7B7
330
1F
100
AcDbEntity
  8
0
100
AcDbLine
 10
161.3243428462236
 20
159.5531381497536
 30
0.0
 11
161.3243428462236
 21
156.7531381497534
 31
0.0
  0
LINE
  5
7B8
330
1F
100
AcDbEntity
  8
0
100
AcDbLine
 10
161.6243428462236
 20
159.5531381497536
 30
0.0
 11
162.2243428462236
 21
159.5531381497536
 31
0.0
  0
LINE
  5
7B9
330
1F
100
AcDbEntity
  8
0
100
AcDbLine
 10
160.6743428462235
 20
156.1531381497536
 30
0.0
 11
160.6743428462235
 21
159.2531381497534
 31
0.0
  0
LINE
  5
7BA
330
1F
100
AcDbEntity
  8
0
100
AcDbLine
 10
161.0743428462235
 20
155.8531381497536
 30
0.0
 11
162.7743428462235
 21
155.8531381497536
 31
0.0
  0
LINE
  5
7BB
330
1F
100
AcDbEntity
  8
0
100
AcDbLine
 10
160.9743428462236
 20
155.8531381497536
 30
0.0
 11
161.0743428462235
 21
155.8531381497536
 31
0.0
  0
LINE
  5
7BC
330
1F
100
AcDbEntity
  8
0
100
AcDbLine
 10
160.9743428462236
 20
159.5531381497536
 30
0.0
 11
161.0743428462235
 21
159.5531381497536
 31
0.0
  0
ARC
  5
7BD
330
1F
100
AcDbEntity
  8
0
100
AcDbCircle
 10
162.2243428462234
 20
156.7531381497534
 30
0.0
 40
0.3
100
AcDbArc
 50
270.0
 51
0.0
  0
ARC
  5
7BE
330
1F
100
AcDbEntity
  8
0
100
AcDbCircle
 10
161.6243428462235
 20
156.7531381497534
 30
0.0
 40
0.3
100
AcDbArc
 50
180.0
 51
270.0
  0
ARC
  5
7BF
330
1F
100
AcDbEntity
  8
0
100
AcDbCircle
 10
160.9743428462234
 20
159.2531381497534
 30
0.0
 40
0.3
100
AcDbArc
 50
90.0
 51
180.0
  0
LINE
  5
7C0
330
1F
100
AcDbEntity
  8
0
100
AcDbLine
 10
163.3243428462236
 20
159.6231381497536
 30
0.0
 11
163.3243428462236
 21
159.5531381497536
 31
0.0
  0
LINE
  5
7C1
330
1F
100
AcDbEntity
  8
0
100
AcDbLine
 10
163.3243428462236
 20
159.5531381497536
 30
0.0
 11
163.3243428462236
 21
158.8531381497536
 31
0.0
  0
LINE
  5
7C2
330
1F
100
AcDbEntity
  8
0
100
AcDbLine
 10
163.8243428462236
 20
159.6231381497536
 30
0.0
 11
163.3243428462236
 21
159.6231381497536
 31
0.0
  0
ARC
  5
7C3
330
1F
100
AcDbEntity
  8
0
100
AcDbCircle
 10
160.9743428462234
 20
159.9631381497535
 30
0.0
 40
0.3
100
AcDbArc
 50
180.0
 51
270.0
  0
ARC
  5
7C4
330
1F
100
AcDbEntity
  8
0
100
AcDbCircle
 10
162.8743428462235
 20
159.9631381497535
 30
0.0
 40
0.3
100
AcDbArc
 50
270.0
 51
0.0
  0
LINE
  5
7C5
330
1F
100
AcDbEntity
  8
0
100
AcDbLine
 10
160.9743428462236
 20
159.6631381497535
 30
0.0
 11
161.0743428462235
 21
159.6631381497535
 31
0.0
  0
LINE
  5
7C6
330
1F
100
AcDbEntity
  8
0
100
AcDbLine
 10
161.0743428462235
 20
159.6631381497535
 30
0.0
 11
162.7743428462235
 21
159.6631381497535
 31
0.0
  0
LINE
  5
7C7
330
1F
100
AcDbEntity
  8
0
100
AcDbLine
 10
162.7743428462235
 20
159.6631381497535
 30
0.0
 11
162.8743428462236
 21
159.6631381497535
 31
0.0
  0
LINE
  5
7C8
330
1F
100
AcDbEntity
  8
0
100
AcDbLine
 10
163.8243428462236
 20
159.6231381497536
 30
0.0
 11
163.3243428462236
 21
159.6231381497536
 31
0.0
  0
ARC
  5
7C9
330
1F
100
AcDbEntity
  8
0
100
AcDbCircle
 10
161.6243428462235
 20
160.5631381497536
 30
0.0
 40
0.3
100
AcDbArc
 50
180.0
 51
270.0
  0
ARC
  5
7CA
330
1F
100
AcDbEntity
  8
0
100
AcDbCircle
 10
162.2243428462234
 20
160.5631381497536
 30
0.0
 40
0.3
100
AcDbArc
 50
270.0
 51
0.0
  0
LINE
  5
7CB
330
1F
100
AcDbEntity
  8
0
100
AcDbLine
 10
163.8243428462236
 20
155.8131381497536
 30
0.0
 11
163.3243428462236
 21
155.8131381497536
 31
0.0
  0
ARC
  5
7CC
330
1F
100
AcDbEntity
  8
0
100
AcDbCircle
 10
160.9743428462234
 20
155.4431381497535
 30
0.0
 40
0.3
100
AcDbArc
 50
90.0
 51
180.0
  0
LINE
  5
7CD
330
1F
100
AcDbEntity
  8
0
100
AcDbLine
 10
160.9743428462236
 20
155.7431381497534
 30
0.0
 11
161.0743428462235
 21
155.7431381497534
 31
0.0
  0
LINE
  5
7CE
330
1F
100
AcDbEntity
  8
0
100
AcDbLine
 10
161.6243428462236
 20
155.7431381497534
 30
0.0
 11
162.2243428462236
 21
155.7431381497534
 31
0.0
  0
LINE
  5
7CF
330
1F
100
AcDbEntity
  8
0
100
AcDbLine
 10
161.0743428462235
 20
155.7431381497534
 30
0.0
 11
161.3243428462236
 21
155.7431381497534
 31
0.0
  0
LINE
  5
7D0
330
1F
100
AcDbEntity
  8
0
100
AcDbLine
 10
161.6243428462236
 20
155.7431381497534
 30
0.0
 11
161.3243428462236
 21
155.7431381497534
 31
0.0
  0
LINE
  5
7D1
330
1F
100
AcDbEntity
  8
0
100
AcDbLine
 10
163.1743428462236
 20
155.0431381497536
 30
0.0
 11
163.1743428462236
 21
155.7431381497534
 31
0.0
  0
LINE
  5
7D2
330
1F
100
AcDbEntity
  8
0
100
AcDbLine
 10
163.1743428462236
 20
155.0431381497536
 30
0.0
 11
163.3243428462236
 21
155.0431381497536
 31
0.0
  0
LINE
  5
7D3
330
1F
100
AcDbEntity
  8
0
100
AcDbLine
 10
162.7743428462235
 20
155.7431381497534
 30
0.0
 11
163.1743428462236
 21
155.7431381497534
 31
0.0
  0
LINE
  5
7D4
330
1F
100
AcDbEntity
  8
0
100
AcDbLine
 10
163.1743428462236
 20
155.7431381497534
 30
0.0
 11
163.3243428462236
 21
155.7431381497534
 31
0.0
  0
LINE
  5
7D5
330
1F
100
AcDbEntity
  8
0
100
AcDbLine
 10
162.5243428462234
 20
155.7431381497534
 30
0.0
 11
162.7743428462235
 21
155.7431381497534
 31
0.0
  0
LINE
  5
7D6
330
1F
100
AcDbEntity
  8
0
100
AcDbLine
 10
162.5243428462234
 20
155.7431381497534
 30
0.0
 11
162.2243428462236
 21
155.7431381497534
 31
0.0
  0
LINE
  5
7D7
330
1F
100
AcDbEntity
  8
0
100
AcDbLine
 10
163.8243428462236
 20
155.8131381497536
 30
0.0
 11
163.3243428462236
 21
155.8131381497536
 31
0.0
  0
LINE
  5
7D8
330
1F
100
AcDbEntity
  8
0
100
AcDbLine
 10
163.3243428462236
 20
155.7431381497534
 30
0.0
 11
163.3243428462236
 21
155.0431381497536
 31
0.0
  0
LINE
  5
7D9
330
1F
100
AcDbEntity
  8
0
100
AcDbLine
 10
163.3243428462236
 20
155.8131381497536
 30
0.0
 11
163.3243428462236
 21
155.7431381497534
 31
0.0
  0
ARC
  5
7DA
330
1F
100
AcDbEntity
  8
0
100
AcDbCircle
 10
162.8743428462235
 20
156.1531381497536
 30
0.0
 40
0.3
100
AcDbArc
 50
270.0
 51
0.0
  0
ARC
  5
7DB
330
1F
100
AcDbEntity
  8
0
100
AcDbCircle
 10
160.9743428462234
 20
156.1531381497536
 30
0.0
 40
0.3
100
AcDbArc
 50
180.0
 51
270.0
  0
LINE
  5
7DC
330
1F
100
AcDbEntity
  8
0
100
AcDbLine
 10
163.3243428462236
 20
158.8531381497536
 30
0.0
 11
163.3243428462236
 21
155.8131381497536
 31
0.0
  0
ARC
  5
7DD
330
1F
100
AcDbEntity
  8
0
100
AcDbCircle
 10
165.4743428462234
 20
157.7181381497536
 30
0.0
 40
0.85
100
AcDbArc
 50
323.269604999999
 51
0.0
  0
ARC
  5
7DE
330
1F
100
AcDbEntity
  8
0
100
AcDbCircle
 10
165.4743428462234
 20
161.5281381497536
 30
0.0
 40
0.85
100
AcDbArc
 50
323.269604999999
 51
0.0
  0
ARC
  5
7DF
330
1F
100
AcDbEntity
  8
0
100
AcDbCircle
 10
165.4743428462234
 20
165.3381381497535
 30
0.0
 40
0.85
100
AcDbArc
 50
0.0
 51
323.269604999999
  0
LINE
  5
7E0
330
1F
100
AcDbEntity
  8
0
100
AcDbLine
 10
161.3243428462236
 20
167.1731381497535
 30
0.0
 11
161.3243428462236
 21
164.3731381497536
 31
0.0
  0
LINE
  5
7E1
330
1F
100
AcDbEntity
  8
0
100
AcDbLine
 10
163.1743428462236
 20
163.7731381497536
 30
0.0
 11
163.1743428462236
 21
166.4731381497534
 31
0.0
  0
LINE
  5
7E2
330
1F
100
AcDbEntity
  8
0
100
AcDbLine
 10
160.6743428462235
 20
163.7731381497536
 30
0.0
 11
160.6743428462235
 21
166.8731381497535
 31
0.0
  0
LINE
  5
7E3
330
1F
100
AcDbEntity
  8
0
100
AcDbLine
 10
163.3243428462236
 20
166.4731381497534
 30
0.0
 11
163.3243428462236
 21
163.4331381497536
 31
0.0
  0
LINE
  5
7E4
330
1F
100
AcDbEntity
  8
0
100
AcDbLine
 10
162.5243428462234
 20
164.3731381497536
 30
0.0
 11
162.5243428462234
 21
167.1731381497535
 31
0.0
  0
LINE
  5
7E5
330
1F
100
AcDbEntity
  8
0
100
AcDbLine
 10
162.7743428462235
 20
163.4731381497534
 30
0.0
 11
162.8743428462236
 21
163.4731381497534
 31
0.0
  0
LINE
  5
7E6
330
1F
100
AcDbEntity
  8
0
100
AcDbLine
 10
161.0743428462235
 20
163.4731381497534
 30
0.0
 11
162.7743428462235
 21
163.4731381497534
 31
0.0
  0
LINE
  5
7E7
330
1F
100
AcDbEntity
  8
0
100
AcDbLine
 10
160.9743428462236
 20
163.4731381497534
 30
0.0
 11
161.0743428462235
 21
163.4731381497534
 31
0.0
  0
LINE
  5
7E8
330
1F
100
AcDbEntity
  8
0
100
AcDbLine
 10
163.8243428462236
 20
163.4331381497536
 30
0.0
 11
163.3243428462236
 21
163.4331381497536
 31
0.0
  0
LINE
  5
7E9
330
1F
100
AcDbEntity
  8
0
100
AcDbLine
 10
163.8243428462236
 20
163.4331381497536
 30
0.0
 11
163.3243428462236
 21
163.4331381497536
 31
0.0
  0
ARC
  5
7EA
330
1F
100
AcDbEntity
  8
0
100
AcDbCircle
 10
162.2243428462234
 20
164.3731381497536
 30
0.0
 40
0.3
100
AcDbArc
 50
270.0
 51
0.0
  0
ARC
  5
7EB
330
1F
100
AcDbEntity
  8
0
100
AcDbCircle
 10
161.6243428462235
 20
164.3731381497536
 30
0.0
 40
0.3
100
AcDbArc
 50
180.0
 51
270.0
  0
LINE
  5
7EC
330
1F
100
AcDbEntity
  8
0
100
AcDbLine
 10
161.6243428462236
 20
164.0731381497536
 30
0.0
 11
162.2243428462236
 21
164.0731381497536
 31
0.0
  0
LINE
  5
7ED
330
1F
100
AcDbEntity
  8
0
100
AcDbLine
 10
161.6243428462236
 20
167.1731381497535
 30
0.0
 11
161.3243428462236
 21
167.1731381497535
 31
0.0
  0
LINE
  5
7EE
330
1F
100
AcDbEntity
  8
0
100
AcDbLine
 10
161.0743428462235
 20
167.1731381497535
 30
0.0
 11
161.3243428462236
 21
167.1731381497535
 31
0.0
  0
LINE
  5
7EF
330
1F
100
AcDbEntity
  8
0
100
AcDbLine
 10
161.6243428462236
 20
167.1731381497535
 30
0.0
 11
162.2243428462236
 21
167.1731381497535
 31
0.0
  0
LINE
  5
7F0
330
1F
100
AcDbEntity
  8
0
100
AcDbLine
 10
160.9743428462236
 20
167.1731381497535
 30
0.0
 11
161.0743428462235
 21
167.1731381497535
 31
0.0
  0
ARC
  5
7F1
330
1F
100
AcDbEntity
  8
0
100
AcDbCircle
 10
160.9743428462234
 20
166.8731381497535
 30
0.0
 40
0.3
100
AcDbArc
 50
90.0
 51
180.0
  0
LINE
  5
7F2
330
1F
100
AcDbEntity
  8
0
100
AcDbLine
 10
163.3243428462236
 20
167.2431381497534
 30
0.0
 11
163.3243428462236
 21
167.1731381497535
 31
0.0
  0
LINE
  5
7F3
330
1F
100
AcDbEntity
  8
0
100
AcDbLine
 10
163.3243428462236
 20
167.1731381497535
 30
0.0
 11
163.3243428462236
 21
166.4731381497534
 31
0.0
  0
LINE
  5
7F4
330
1F
100
AcDbEntity
  8
0
100
AcDbLine
 10
163.8243428462236
 20
167.2431381497534
 30
0.0
 11
163.3243428462236
 21
167.2431381497534
 31
0.0
  0
LINE
  5
7F5
330
1F
100
AcDbEntity
  8
0
100
AcDbLine
 10
163.8243428462236
 20
167.2431381497534
 30
0.0
 11
163.3243428462236
 21
167.2431381497534
 31
0.0
  0
LINE
  5
7F6
330
1F
100
AcDbEntity
  8
0
100
AcDbLine
 10
162.7743428462235
 20
167.2831381497536
 30
0.0
 11
162.8743428462236
 21
167.2831381497536
 31
0.0
  0
LINE
  5
7F7
330
1F
100
AcDbEntity
  8
0
100
AcDbLine
 10
161.6243428462236
 20
167.8831381497535
 30
0.0
 11
162.2243428462236
 21
167.8831381497535
 31
0.0
  0
LINE
  5
7F8
330
1F
100
AcDbEntity
  8
0
100
AcDbLine
 10
161.0743428462235
 20
167.2831381497536
 30
0.0
 11
162.7743428462235
 21
167.2831381497536
 31
0.0
  0
LINE
  5
7F9
330
1F
100
AcDbEntity
  8
0
100
AcDbLine
 10
160.9743428462236
 20
167.2831381497536
 30
0.0
 11
161.0743428462235
 21
167.2831381497536
 31
0.0
  0
ARC
  5
7FA
330
1F
100
AcDbEntity
  8
0
100
AcDbCircle
 10
162.2243428462234
 20
168.1831381497536
 30
0.0
 40
0.3
100
AcDbArc
 50
270.0
 51
0.0
  0
ARC
  5
7FB
330
1F
100
AcDbEntity
  8
0
100
AcDbCircle
 10
162.8743428462235
 20
167.5831381497537
 30
0.0
 40
0.3
100
AcDbArc
 50
270.0
 51
0.0
  0
ARC
  5
7FC
330
1F
100
AcDbEntity
  8
0
100
AcDbCircle
 10
160.9743428462234
 20
167.5831381497537
 30
0.0
 40
0.3
100
AcDbArc
 50
180.0
 51
270.0
  0
ARC
  5
7FD
330
1F
100
AcDbEntity
  8
0
100
AcDbCircle
 10
161.6243428462235
 20
168.1831381497536
 30
0.0
 40
0.3
100
AcDbArc
 50
180.0
 51
270.0
  0
LINE
  5
7FE
330
1F
100
AcDbEntity
  8
0
100
AcDbLine
 10
162.5243428462234
 20
167.1731381497535
 30
0.0
 11
162.2243428462236
 21
167.1731381497535
 31
0.0
  0
LINE
  5
7FF
330
1F
100
AcDbEntity
  8
0
100
AcDbLine
 10
162.5243428462234
 20
167.1731381497535
 30
0.0
 11
162.7743428462235
 21
167.1731381497535
 31
0.0
  0
LINE
  5
800
330
1F
100
AcDbEntity
  8
0
100
AcDbLine
 10
163.1743428462236
 20
167.1731381497535
 30
0.0
 11
163.3243428462236
 21
167.1731381497535
 31
0.0
  0
LINE
  5
801
330
1F
100
AcDbEntity
  8
0
100
AcDbLine
 10
162.7743428462235
 20
167.1731381497535
 30
0.0
 11
163.1743428462236
 21
167.1731381497535
 31
0.0
  0
LINE
  5
802
330
1F
100
AcDbEntity
  8
0
100
AcDbLine
 10
163.1743428462236
 20
166.4731381497534
 30
0.0
 11
163.3243428462236
 21
166.4731381497534
 31
0.0
  0
LINE
  5
803
330
1F
100
AcDbEntity
  8
0
100
AcDbLine
 10
163.1743428462236
 20
166.4731381497534
 30
0.0
 11
163.1743428462236
 21
167.1731381497535
 31
0.0
  0
ARC
  5
804
330
1F
100
AcDbEntity
  8
0
100
AcDbCircle
 10
160.9743428462234
 20
163.0631381497536
 30
0.0
 40
0.3
100
AcDbArc
 50
90.0
 51
180.0
  0
LINE
  5
805
330
1F
100
AcDbEntity
  8
0
100
AcDbLine
 10
160.9743428462236
 20
163.3631381497535
 30
0.0
 11
161.0743428462235
 21
163.3631381497535
 31
0.0
  0
LINE
  5
806
330
1F
100
AcDbEntity
  8
0
100
AcDbLine
 10
161.6243428462236
 20
163.3631381497535
 30
0.0
 11
162.2243428462236
 21
163.3631381497535
 31
0.0
  0
LINE
  5
807
330
1F
100
AcDbEntity
  8
0
100
AcDbLine
 10
161.0743428462235
 20
163.3631381497535
 30
0.0
 11
161.3243428462236
 21
163.3631381497535
 31
0.0
  0
LINE
  5
808
330
1F
100
AcDbEntity
  8
0
100
AcDbLine
 10
161.6243428462236
 20
163.3631381497535
 30
0.0
 11
161.3243428462236
 21
163.3631381497535
 31
0.0
  0
LINE
  5
809
330
1F
100
AcDbEntity
  8
0
100
AcDbLine
 10
163.1743428462236
 20
162.6631381497535
 30
0.0
 11
163.1743428462236
 21
163.3631381497535
 31
0.0
  0
LINE
  5
80A
330
1F
100
AcDbEntity
  8
0
100
AcDbLine
 10
163.1743428462236
 20
162.6631381497535
 30
0.0
 11
163.3243428462236
 21
162.6631381497535
 31
0.0
  0
LINE
  5
80B
330
1F
100
AcDbEntity
  8
0
100
AcDbLine
 10
162.7743428462235
 20
163.3631381497535
 30
0.0
 11
163.1743428462236
 21
163.3631381497535
 31
0.0
  0
LINE
  5
80C
330
1F
100
AcDbEntity
  8
0
100
AcDbLine
 10
163.1743428462236
 20
163.3631381497535
 30
0.0
 11
163.3243428462236
 21
163.3631381497535
 31
0.0
  0
LINE
  5
80D
330
1F
100
AcDbEntity
  8
0
100
AcDbLine
 10
162.5243428462234
 20
163.3631381497535
 30
0.0
 11
162.7743428462235
 21
163.3631381497535
 31
0.0
  0
LINE
  5
80E
330
1F
100
AcDbEntity
  8
0
100
AcDbLine
 10
162.5243428462234
 20
163.3631381497535
 30
0.0
 11
162.2243428462236
 21
163.3631381497535
 31
0.0
  0
LINE
  5
80F
330
1F
100
AcDbEntity
  8
0
100
AcDbLine
 10
163.3243428462236
 20
163.3631381497535
 30
0.0
 11
163.3243428462236
 21
162.6631381497535
 31
0.0
  0
ARC
  5
810
330
1F
100
AcDbEntity
  8
0
100
AcDbCircle
 10
162.8743428462235
 20
163.7731381497536
 30
0.0
 40
0.3
100
AcDbArc
 50
270.0
 51
0.0
  0
ARC
  5
811
330
1F
100
AcDbEntity
  8
0
100
AcDbCircle
 10
160.9743428462234
 20
163.7731381497536
 30
0.0
 40
0.3
100
AcDbArc
 50
180.0
 51
270.0
  0
LINE
  5
812
330
1F
100
AcDbEntity
  8
0
100
AcDbLine
 10
163.3243428462236
 20
163.4331381497536
 30
0.0
 11
163.3243428462236
 21
163.3631381497535
 31
0.0
  0
ARC
  5
813
330
1F
100
AcDbEntity
  8
0
100
AcDbCircle
 10
165.4743428462234
 20
169.1481381497536
 30
0.0
 40
0.85
100
AcDbArc
 50
323.269604999999
 51
0.0
  0
ARC
  5
814
330
1F
100
AcDbEntity
  8
0
100
AcDbCircle
 10
165.4743428462234
 20
165.3381381497535
 30
0.0
 40
0.85
100
AcDbArc
 50
323.269604999999
 51
0.0
  0
CIRCLE
  5
815
330
1F
100
AcDbEntity
  8
0
100
AcDbCircle
 10
165.4743428462234
 20
161.5281381497536
 30
0.0
 40
1.564999999999999
  0
CIRCLE
  5
816
330
1F
100
AcDbEntity
  8
0
100
AcDbCircle
 10
165.4743428462234
 20
157.7181381497536
 30
0.0
 40
1.564999999999999
  0
CIRCLE
  5
817
330
1F
100
AcDbEntity
  8
0
100
AcDbCircle
 10
165.4743428462234
 20
165.3381381497535
 30
0.0
 40
1.564999999999999
  0
CIRCLE
  5
818
330
1F
100
AcDbEntity
  8
0
100
AcDbCircle
 10
165.4743428462234
 20
169.1481381497536
 30
0.0
 40
1.564999999999999
  0
ARC
  5
819
330
1F
100
AcDbEntity
  8
0
100
AcDbCircle
 10
165.4743428462234
 20
169.1481381497536
 30
0.0
 40
0.85
100
AcDbArc
 50
0.0
 51
323.269604999999
  0
LINE
  5
81A
330
1F
100
AcDbEntity
  8
0
100
AcDbLine
 10
163.3243428462236
 20
170.2831381497536
 30
0.0
 11
163.3243428462236
 21
167.2431381497534
 31
0.0
  0
LINE
  5
81B
330
1F
100
AcDbEntity
  8
0
100
AcDbLine
 10
163.1743428462236
 20
167.5831381497537
 30
0.0
 11
163.1743428462236
 21
170.2831381497536
 31
0.0
  0
LINE
  5
81C
330
1F
100
AcDbEntity
  8
0
100
AcDbLine
 10
162.5243428462234
 20
168.1831381497536
 30
0.0
 11
162.5243428462234
 21
170.9831381497535
 31
0.0
  0
LINE
  5
81D
330
1F
100
AcDbEntity
  8
0
100
AcDbLine
 10
161.3243428462236
 20
170.9831381497535
 30
0.0
 11
161.3243428462236
 21
168.1831381497536
 31
0.0
  0
LINE
  5
81E
330
1F
100
AcDbEntity
  8
0
100
AcDbLine
 10
160.6743428462235
 20
167.5831381497537
 30
0.0
 11
160.6743428462235
 21
170.6831381497535
 31
0.0
  0
LINE
  5
81F
330
1F
100
AcDbEntity
  8
0
100
AcDbLine
 10
159.1743428462228
 20
175.0113833053908
 30
0.0
 11
159.6951749254126
 21
174.3031381497528
 31
0.0
  0
LINE
  5
820
330
1F
100
AcDbEntity
  8
0
100
AcDbLine
 10
159.1743428462228
 20
183.892997995115
 30
0.0
 11
159.6951749254126
 21
184.5031381497516
 31
0.0
  0
LINE
  5
821
330
1F
100
AcDbEntity
  8
0
100
AcDbLine
 10
166.3743428462236
 20
185.0331391497537
 30
0.0
 11
158.6743428462235
 21
185.0331391497537
 31
0.0
  0
LINE
  5
822
330
1F
100
AcDbEntity
  8
0
100
AcDbLine
 10
158.6743428462235
 20
173.7331391497539
 30
0.0
 11
160.1743428462236
 21
173.7331391497539
 31
0.0
  0
LINE
  5
823
330
1F
100
AcDbEntity
  8
0
100
AcDbLine
 10
159.1743428462228
 20
183.892997995115
 30
0.0
 11
159.1743428462228
 21
175.0113833053908
 31
0.0
  0
LINE
  5
824
330
1F
100
AcDbEntity
  8
0
100
AcDbLine
 10
158.6743428462235
 20
185.0331391497537
 30
0.0
 11
158.6743428462235
 21
173.7331391497539
 31
0.0
  0
LINE
  5
825
330
1F
100
AcDbEntity
  8
0
100
AcDbLine
 10
160.0743428462243
 20
174.8031381497528
 30
0.0
 11
160.0743428462243
 21
184.0031381497534
 31
0.0
  0
LINE
  5
826
330
1F
100
AcDbEntity
  8
0
100
AcDbLine
 10
164.5743428462243
 20
175.9031381497531
 30
0.0
 11
164.5743428462243
 21
177.9031381497531
 31
0.0
  0
LINE
  5
827
330
1F
100
AcDbEntity
  8
0
100
AcDbLine
 10
164.5743428462243
 20
177.9031381497531
 30
0.0
 11
165.0743428462243
 21
177.9031381497531
 31
0.0
  0
LINE
  5
828
330
1F
100
AcDbEntity
  8
0
100
AcDbLine
 10
164.5743428462243
 20
175.9031381497531
 30
0.0
 11
165.0743428462243
 21
175.9031381497531
 31
0.0
  0
LINE
  5
829
330
1F
100
AcDbEntity
  8
0
100
AcDbLine
 10
165.0743428462243
 20
175.9031381497531
 30
0.0
 11
165.0743428462243
 21
177.9031381497531
 31
0.0
  0
LINE
  5
82A
330
1F
100
AcDbEntity
  8
0
100
AcDbLine
 10
164.5743428462243
 20
178.4031381497531
 30
0.0
 11
164.5743428462243
 21
180.4031381497531
 31
0.0
  0
LINE
  5
82B
330
1F
100
AcDbEntity
  8
0
100
AcDbLine
 10
164.5743428462243
 20
180.4031381497531
 30
0.0
 11
165.0743428462243
 21
180.4031381497531
 31
0.0
  0
LINE
  5
82C
330
1F
100
AcDbEntity
  8
0
100
AcDbLine
 10
164.5743428462243
 20
178.4031381497531
 30
0.0
 11
165.0743428462243
 21
178.4031381497531
 31
0.0
  0
LINE
  5
82D
330
1F
100
AcDbEntity
  8
0
100
AcDbLine
 10
165.0743428462243
 20
178.4031381497531
 30
0.0
 11
165.0743428462243
 21
180.4031381497531
 31
0.0
  0
LINE
  5
82E
330
1F
100
AcDbEntity
  8
0
100
AcDbLine
 10
165.0743428462243
 20
180.9031381497531
 30
0.0
 11
165.0743428462243
 21
182.9031381497531
 31
0.0
  0
LINE
  5
82F
330
1F
100
AcDbEntity
  8
0
100
AcDbLine
 10
164.5743428462243
 20
180.9031381497531
 30
0.0
 11
165.0743428462243
 21
180.9031381497531
 31
0.0
  0
LINE
  5
830
330
1F
100
AcDbEntity
  8
0
100
AcDbLine
 10
164.5743428462243
 20
182.9031381497531
 30
0.0
 11
165.0743428462243
 21
182.9031381497531
 31
0.0
  0
LINE
  5
831
330
1F
100
AcDbEntity
  8
0
100
AcDbLine
 10
164.5743428462243
 20
180.9031381497531
 30
0.0
 11
164.5743428462243
 21
182.9031381497531
 31
0.0
  0
LINE
  5
832
330
1F
100
AcDbEntity
  8
0
100
AcDbLine
 10
168.5043428462236
 20
171.0531381497536
 30
0.0
 11
168.5043428462236
 21
173.5531381497537
 31
0.0
  0
LINE
  5
833
330
1F
100
AcDbEntity
  8
0
100
AcDbLine
 10
168.5043428462236
 20
163.4331381497536
 30
0.0
 11
168.5043428462236
 21
159.6231381497536
 31
0.0
  0
LINE
  5
834
330
1F
100
AcDbEntity
  8
0
100
AcDbLine
 10
173.3743428462236
 20
159.6231381497536
 30
0.0
 11
172.8743428462236
 21
159.6231381497536
 31
0.0
  0
LINE
  5
835
330
1F
100
AcDbEntity
  8
0
100
AcDbLine
 10
173.3743428462236
 20
159.6231381497536
 30
0.0
 11
172.8743428462236
 21
159.6231381497536
 31
0.0
  0
LINE
  5
836
330
1F
100
AcDbEntity
  8
0
100
AcDbLine
 10
173.3743428462236
 20
155.8131381497536
 30
0.0
 11
172.8743428462236
 21
155.8131381497536
 31
0.0
  0
LINE
  5
837
330
1F
100
AcDbEntity
  8
0
100
AcDbLine
 10
173.3743428462236
 20
155.8131381497536
 30
0.0
 11
172.8743428462236
 21
155.8131381497536
 31
0.0
  0
LINE
  5
838
330
1F
100
AcDbEntity
  8
0
100
AcDbLine
 10
168.5043428462236
 20
159.6231381497536
 30
0.0
 11
168.9443428462236
 21
159.6231381497536
 31
0.0
  0
LINE
  5
839
330
1F
100
AcDbEntity
  8
0
100
AcDbLine
 10
168.9443428462236
 20
159.6231381497536
 30
0.0
 11
169.0743428462235
 21
159.6231381497536
 31
0.0
  0
LINE
  5
83A
330
1F
100
AcDbEntity
  8
0
100
AcDbLine
 10
169.0743428462235
 20
159.6231381497536
 30
0.0
 11
170.4743428462236
 21
159.6231381497536
 31
0.0
  0
LINE
  5
83B
330
1F
100
AcDbEntity
  8
0
100
AcDbLine
 10
168.5043428462236
 20
159.6231381497536
 30
0.0
 11
168.3043428462235
 21
159.6231381497536
 31
0.0
  0
LINE
  5
83C
330
1F
100
AcDbEntity
  8
0
100
AcDbLine
 10
167.5443428462235
 20
159.6231381497536
 30
0.0
 11
168.3043428462235
 21
159.6231381497536
 31
0.0
  0
LINE
  5
83D
330
1F
100
AcDbEntity
  8
0
100
AcDbLine
 10
168.5043428462236
 20
159.6231381497536
 30
0.0
 11
168.3043428462235
 21
159.6231381497536
 31
0.0
  0
LINE
  5
83E
330
1F
100
AcDbEntity
  8
0
100
AcDbLine
 10
168.5043428462236
 20
155.8131381497536
 30
0.0
 11
168.3043428462235
 21
155.8131381497536
 31
0.0
  0
LINE
  5
83F
330
1F
100
AcDbEntity
  8
0
100
AcDbLine
 10
168.5043428462236
 20
155.8131381497536
 30
0.0
 11
168.3043428462235
 21
155.8131381497536
 31
0.0
  0
LINE
  5
840
330
1F
100
AcDbEntity
  8
0
100
AcDbLine
 10
169.0743428462235
 20
155.8131381497536
 30
0.0
 11
170.4743428462236
 21
155.8131381497536
 31
0.0
  0
LINE
  5
841
330
1F
100
AcDbEntity
  8
0
100
AcDbLine
 10
168.9443428462236
 20
155.8131381497536
 30
0.0
 11
169.0743428462235
 21
155.8131381497536
 31
0.0
  0
LINE
  5
842
330
1F
100
AcDbEntity
  8
0
100
AcDbLine
 10
168.5043428462236
 20
155.8131381497536
 30
0.0
 11
168.9443428462236
 21
155.8131381497536
 31
0.0
  0
LINE
  5
843
330
1F
100
AcDbEntity
  8
0
100
AcDbLine
 10
167.5443428462235
 20
155.8131381497536
 30
0.0
 11
168.3043428462235
 21
155.8131381497536
 31
0.0
  0
LINE
  5
844
330
1F
100
AcDbEntity
  8
0
100
AcDbLine
 10
168.5043428462236
 20
159.6231381497536
 30
0.0
 11
168.5043428462236
 21
155.8131381497536
 31
0.0
  0
LINE
  5
845
330
1F
100
AcDbEntity
  8
0
100
AcDbLine
 10
170.4743428462236
 20
159.6231381497536
 30
0.0
 11
172.8743428462236
 21
159.6231381497536
 31
0.0
  0
LINE
  5
846
330
1F
100
AcDbEntity
  8
0
100
AcDbLine
 10
168.5043428462236
 20
155.8131381497536
 30
0.0
 11
172.8743428462236
 21
155.8131381497536
 31
0.0
  0
LINE
  5
847
330
1F
100
AcDbEntity
  8
0
100
AcDbLine
 10
170.4743428462236
 20
155.8131381497536
 30
0.0
 11
172.8743428462236
 21
155.8131381497536
 31
0.0
  0
LINE
  5
848
330
1F
100
AcDbEntity
  8
0
100
AcDbLine
 10
168.5043428462236
 20
159.6231381497536
 30
0.0
 11
172.8743428462236
 21
159.6231381497536
 31
0.0
  0
LINE
  5
849
330
1F
100
AcDbEntity
  8
0
100
AcDbLine
 10
173.3743428462236
 20
161.0331381497536
 30
0.0
 11
173.8743428462236
 21
161.0331381497536
 31
0.0
  0
LINE
  5
84A
330
1F
100
AcDbEntity
  8
0
100
AcDbLine
 10
173.8743428462236
 20
161.0331381497536
 30
0.0
 11
173.8743428462236
 21
160.6331381497535
 31
0.0
  0
LINE
  5
84B
330
1F
100
AcDbEntity
  8
0
100
AcDbLine
 10
173.8743428462236
 20
156.3231381497536
 30
0.0
 11
173.8743428462236
 21
155.9231381497535
 31
0.0
  0
LINE
  5
84C
330
1F
100
AcDbEntity
  8
0
100
AcDbLine
 10
173.8743428462236
 20
156.8231381497536
 30
0.0
 11
173.8743428462236
 21
156.3231381497536
 31
0.0
  0
LINE
  5
84D
330
1F
100
AcDbEntity
  8
0
100
AcDbLine
 10
173.8743428462236
 20
157.2231381497534
 30
0.0
 11
173.8743428462236
 21
156.8231381497536
 31
0.0
  0
LINE
  5
84E
330
1F
100
AcDbEntity
  8
0
100
AcDbLine
 10
173.3743428462236
 20
155.9231381497535
 30
0.0
 11
173.8743428462236
 21
155.9231381497535
 31
0.0
  0
LINE
  5
84F
330
1F
100
AcDbEntity
  8
0
100
AcDbLine
 10
173.3743428462236
 20
157.2231381497534
 30
0.0
 11
173.8743428462236
 21
157.2231381497534
 31
0.0
  0
LINE
  5
850
330
1F
100
AcDbEntity
  8
0
100
AcDbLine
 10
173.3743428462236
 20
159.7331381497534
 30
0.0
 11
173.8743428462236
 21
159.7331381497534
 31
0.0
  0
LINE
  5
851
330
1F
100
AcDbEntity
  8
0
100
AcDbLine
 10
173.8743428462236
 20
160.1331381497535
 30
0.0
 11
173.8743428462236
 21
159.7331381497534
 31
0.0
  0
LINE
  5
852
330
1F
100
AcDbEntity
  8
0
100
AcDbLine
 10
173.3743428462236
 20
159.7331381497534
 30
0.0
 11
173.3743428462236
 21
159.6231381497536
 31
0.0
  0
LINE
  5
853
330
1F
100
AcDbEntity
  8
0
100
AcDbLine
 10
173.8743428462236
 20
160.6331381497535
 30
0.0
 11
173.8743428462236
 21
160.1331381497535
 31
0.0
  0
LINE
  5
854
330
1F
100
AcDbEntity
  8
0
100
AcDbLine
 10
173.3743428462236
 20
155.9231381497535
 30
0.0
 11
173.3743428462236
 21
155.8131381497536
 31
0.0
  0
LINE
  5
855
330
1F
100
AcDbEntity
  8
0
100
AcDbLine
 10
173.3743428462236
 20
163.4331381497536
 30
0.0
 11
172.8743428462236
 21
163.4331381497536
 31
0.0
  0
LINE
  5
856
330
1F
100
AcDbEntity
  8
0
100
AcDbLine
 10
173.3743428462236
 20
163.4331381497536
 30
0.0
 11
172.8743428462236
 21
163.4331381497536
 31
0.0
  0
LINE
  5
857
330
1F
100
AcDbEntity
  8
0
100
AcDbLine
 10
173.3743428462236
 20
167.2431381497534
 30
0.0
 11
172.8743428462236
 21
167.2431381497534
 31
0.0
  0
LINE
  5
858
330
1F
100
AcDbEntity
  8
0
100
AcDbLine
 10
173.3743428462236
 20
167.2431381497534
 30
0.0
 11
172.8743428462236
 21
167.2431381497534
 31
0.0
  0
LINE
  5
859
330
1F
100
AcDbEntity
  8
0
100
AcDbLine
 10
168.5043428462236
 20
167.2431381497534
 30
0.0
 11
168.5043428462236
 21
163.4331381497536
 31
0.0
  0
LINE
  5
85A
330
1F
100
AcDbEntity
  8
0
100
AcDbLine
 10
168.5043428462236
 20
163.4331381497536
 30
0.0
 11
168.3043428462235
 21
163.4331381497536
 31
0.0
  0
LINE
  5
85B
330
1F
100
AcDbEntity
  8
0
100
AcDbLine
 10
168.5043428462236
 20
163.4331381497536
 30
0.0
 11
168.3043428462235
 21
163.4331381497536
 31
0.0
  0
LINE
  5
85C
330
1F
100
AcDbEntity
  8
0
100
AcDbLine
 10
169.0743428462235
 20
163.4331381497536
 30
0.0
 11
170.4743428462236
 21
163.4331381497536
 31
0.0
  0
LINE
  5
85D
330
1F
100
AcDbEntity
  8
0
100
AcDbLine
 10
168.9443428462236
 20
163.4331381497536
 30
0.0
 11
169.0743428462235
 21
163.4331381497536
 31
0.0
  0
LINE
  5
85E
330
1F
100
AcDbEntity
  8
0
100
AcDbLine
 10
168.5043428462236
 20
163.4331381497536
 30
0.0
 11
168.9443428462236
 21
163.4331381497536
 31
0.0
  0
LINE
  5
85F
330
1F
100
AcDbEntity
  8
0
100
AcDbLine
 10
167.5443428462235
 20
163.4331381497536
 30
0.0
 11
168.3043428462235
 21
163.4331381497536
 31
0.0
  0
LINE
  5
860
330
1F
100
AcDbEntity
  8
0
100
AcDbLine
 10
168.5043428462236
 20
167.2431381497534
 30
0.0
 11
168.3043428462235
 21
167.2431381497534
 31
0.0
  0
LINE
  5
861
330
1F
100
AcDbEntity
  8
0
100
AcDbLine
 10
168.5043428462236
 20
167.2431381497534
 30
0.0
 11
168.9443428462236
 21
167.2431381497534
 31
0.0
  0
LINE
  5
862
330
1F
100
AcDbEntity
  8
0
100
AcDbLine
 10
168.9443428462236
 20
167.2431381497534
 30
0.0
 11
169.0743428462235
 21
167.2431381497534
 31
0.0
  0
LINE
  5
863
330
1F
100
AcDbEntity
  8
0
100
AcDbLine
 10
169.0743428462235
 20
167.2431381497534
 30
0.0
 11
170.4743428462236
 21
167.2431381497534
 31
0.0
  0
LINE
  5
864
330
1F
100
AcDbEntity
  8
0
100
AcDbLine
 10
168.5043428462236
 20
167.2431381497534
 30
0.0
 11
168.3043428462235
 21
167.2431381497534
 31
0.0
  0
LINE
  5
865
330
1F
100
AcDbEntity
  8
0
100
AcDbLine
 10
167.5443428462235
 20
167.2431381497534
 30
0.0
 11
168.3043428462235
 21
167.2431381497534
 31
0.0
  0
LINE
  5
866
330
1F
100
AcDbEntity
  8
0
100
AcDbLine
 10
168.5043428462236
 20
163.4331381497536
 30
0.0
 11
172.8743428462236
 21
163.4331381497536
 31
0.0
  0
LINE
  5
867
330
1F
100
AcDbEntity
  8
0
100
AcDbLine
 10
170.4743428462236
 20
163.4331381497536
 30
0.0
 11
172.8743428462236
 21
163.4331381497536
 31
0.0
  0
LINE
  5
868
330
1F
100
AcDbEntity
  8
0
100
AcDbLine
 10
168.5043428462236
 20
167.2431381497534
 30
0.0
 11
172.8743428462236
 21
167.2431381497534
 31
0.0
  0
LINE
  5
869
330
1F
100
AcDbEntity
  8
0
100
AcDbLine
 10
170.4743428462236
 20
167.2431381497534
 30
0.0
 11
172.8743428462236
 21
167.2431381497534
 31
0.0
  0
LINE
  5
86A
330
1F
100
AcDbEntity
  8
0
100
AcDbLine
 10
173.8743428462236
 20
164.8431381497536
 30
0.0
 11
173.8743428462236
 21
164.4431381497535
 31
0.0
  0
LINE
  5
86B
330
1F
100
AcDbEntity
  8
0
100
AcDbLine
 10
173.3743428462236
 20
163.5431381497536
 30
0.0
 11
173.3743428462236
 21
163.4331381497536
 31
0.0
  0
LINE
  5
86C
330
1F
100
AcDbEntity
  8
0
100
AcDbLine
 10
173.8743428462236
 20
163.9431381497535
 30
0.0
 11
173.8743428462236
 21
163.5431381497536
 31
0.0
  0
LINE
  5
86D
330
1F
100
AcDbEntity
  8
0
100
AcDbLine
 10
173.3743428462236
 20
163.5431381497536
 30
0.0
 11
173.8743428462236
 21
163.5431381497536
 31
0.0
  0
LINE
  5
86E
330
1F
100
AcDbEntity
  8
0
100
AcDbLine
 10
173.8743428462236
 20
164.4431381497535
 30
0.0
 11
173.8743428462236
 21
163.9431381497535
 31
0.0
  0
LINE
  5
86F
330
1F
100
AcDbEntity
  8
0
100
AcDbLine
 10
173.3743428462236
 20
167.3531381497536
 30
0.0
 11
173.3743428462236
 21
167.2431381497534
 31
0.0
  0
LINE
  5
870
330
1F
100
AcDbEntity
  8
0
100
AcDbLine
 10
173.3743428462236
 20
168.6531381497536
 30
0.0
 11
173.3743428462236
 21
167.3531381497536
 31
0.0
  0
LINE
  5
871
330
1F
100
AcDbEntity
  8
0
100
AcDbLine
 10
173.8743428462236
 20
167.7531381497534
 30
0.0
 11
173.8743428462236
 21
167.3531381497536
 31
0.0
  0
LINE
  5
872
330
1F
100
AcDbEntity
  8
0
100
AcDbLine
 10
173.8743428462236
 20
168.2531381497534
 30
0.0
 11
173.8743428462236
 21
167.7531381497534
 31
0.0
  0
LINE
  5
873
330
1F
100
AcDbEntity
  8
0
100
AcDbLine
 10
173.8743428462236
 20
168.6531381497536
 30
0.0
 11
173.8743428462236
 21
168.2531381497534
 31
0.0
  0
LINE
  5
874
330
1F
100
AcDbEntity
  8
0
100
AcDbLine
 10
173.3743428462236
 20
167.3531381497536
 30
0.0
 11
173.8743428462236
 21
167.3531381497536
 31
0.0
  0
LINE
  5
875
330
1F
100
AcDbEntity
  8
0
100
AcDbLine
 10
173.3743428462236
 20
168.6531381497536
 30
0.0
 11
173.8743428462236
 21
168.6531381497536
 31
0.0
  0
LINE
  5
876
330
1F
100
AcDbEntity
  8
0
100
AcDbLine
 10
173.3743428462236
 20
164.8431381497536
 30
0.0
 11
173.8743428462236
 21
164.8431381497536
 31
0.0
  0
LINE
  5
877
330
1F
100
AcDbEntity
  8
0
100
AcDbLine
 10
168.5043428462236
 20
171.0531381497536
 30
0.0
 11
168.5043428462236
 21
167.2431381497534
 31
0.0
  0
LINE
  5
878
330
1F
100
AcDbEntity
  8
0
100
AcDbLine
 10
173.8743428462236
 20
174.3031381497528
 30
0.0
 11
173.8743428462236
 21
184.5031381497516
 31
0.0
  0
LINE
  5
879
330
1F
100
AcDbEntity
  8
0
100
AcDbLine
 10
173.7213471969421
 20
180.9540856492528
 30
0.0
 11
173.8743428462236
 21
181.1070812985342
 31
0.0
  0
LINE
  5
87A
330
1F
100
AcDbEntity
  8
0
100
AcDbLine
 10
173.7213471969421
 20
177.7540856492521
 30
0.0
 11
173.8743428462236
 21
177.6010899999707
 31
0.0
  0
LINE
  5
87B
330
1F
100
AcDbEntity
  8
0
100
AcDbLine
 10
172.274342846225
 20
177.7540856492521
 30
0.0
 11
173.7213471969421
 21
177.7540856492521
 31
0.0
  0
LINE
  5
87C
330
1F
100
AcDbEntity
  8
0
100
AcDbLine
 10
172.274342846225
 20
180.9540856492528
 30
0.0
 11
173.7213471969421
 21
180.9540856492528
 31
0.0
  0
LINE
  5
87D
330
1F
100
AcDbEntity
  8
0
100
AcDbLine
 10
173.8743428462236
 20
174.3031381497528
 30
0.0
 11
171.8743428462236
 21
174.3031381497528
 31
0.0
  0
LINE
  5
87E
330
1F
100
AcDbEntity
  8
0
100
AcDbLine
 10
173.8743428462236
 20
184.5031381497516
 30
0.0
 11
171.8743428462236
 21
184.5031381497516
 31
0.0
  0
ARC
  5
87F
330
1F
100
AcDbEntity
  8
0
100
AcDbCircle
 10
171.4743428462219
 20
175.2031381497523
 30
0.0
 40
0.4
100
AcDbArc
 50
270.0
 51
0.0
  0
ARC
  5
880
330
1F
100
AcDbEntity
  8
0
100
AcDbCircle
 10
171.4743428462219
 20
183.6031381497539
 30
0.0
 40
0.4
100
AcDbArc
 50
0.0
 51
90.0
  0
LINE
  5
881
330
1F
100
AcDbEntity
  8
0
100
AcDbLine
 10
171.8743428462236
 20
183.6031381497539
 30
0.0
 11
171.8743428462236
 21
175.2031381497523
 31
0.0
  0
ARC
  5
882
330
1F
100
AcDbEntity
  8
0
100
AcDbCircle
 10
171.8743428462234
 20
174.7031381497524
 30
0.0
 40
0.4
100
AcDbArc
 50
270.0
 51
0.0
  0
ARC
  5
883
330
1F
100
AcDbEntity
  8
0
100
AcDbCircle
 10
171.8743428462234
 20
184.103138149752
 30
0.0
 40
0.4
100
AcDbArc
 50
0.0
 51
90.0
  0
LINE
  5
884
330
1F
100
AcDbEntity
  8
0
100
AcDbLine
 10
172.274342846225
 20
184.103138149752
 30
0.0
 11
172.274342846225
 21
174.7031381497524
 31
0.0
  0
LINE
  5
885
330
1F
100
AcDbEntity
  8
0
100
AcDbLine
 10
168.5743428462243
 20
180.9031381497531
 30
0.0
 11
168.5743428462243
 21
182.9031381497531
 31
0.0
  0
LINE
  5
886
330
1F
100
AcDbEntity
  8
0
100
AcDbLine
 10
168.5743428462243
 20
182.9031381497531
 30
0.0
 11
169.0743428462243
 21
182.9031381497531
 31
0.0
  0
LINE
  5
887
330
1F
100
AcDbEntity
  8
0
100
AcDbLine
 10
168.5743428462243
 20
180.9031381497531
 30
0.0
 11
169.0743428462243
 21
180.9031381497531
 31
0.0
  0
LINE
  5
888
330
1F
100
AcDbEntity
  8
0
100
AcDbLine
 10
169.0743428462243
 20
180.9031381497531
 30
0.0
 11
169.0743428462243
 21
182.9031381497531
 31
0.0
  0
LINE
  5
889
330
1F
100
AcDbEntity
  8
0
100
AcDbLine
 10
169.0743428462243
 20
178.4031381497531
 30
0.0
 11
169.0743428462243
 21
180.4031381497531
 31
0.0
  0
LINE
  5
88A
330
1F
100
AcDbEntity
  8
0
100
AcDbLine
 10
168.5743428462243
 20
178.4031381497531
 30
0.0
 11
169.0743428462243
 21
178.4031381497531
 31
0.0
  0
LINE
  5
88B
330
1F
100
AcDbEntity
  8
0
100
AcDbLine
 10
168.5743428462243
 20
180.4031381497531
 30
0.0
 11
169.0743428462243
 21
180.4031381497531
 31
0.0
  0
LINE
  5
88C
330
1F
100
AcDbEntity
  8
0
100
AcDbLine
 10
168.5743428462243
 20
178.4031381497531
 30
0.0
 11
168.5743428462243
 21
180.4031381497531
 31
0.0
  0
LINE
  5
88D
330
1F
100
AcDbEntity
  8
0
100
AcDbLine
 10
169.0743428462243
 20
175.9031381497531
 30
0.0
 11
169.0743428462243
 21
177.9031381497531
 31
0.0
  0
LINE
  5
88E
330
1F
100
AcDbEntity
  8
0
100
AcDbLine
 10
168.5743428462243
 20
175.9031381497531
 30
0.0
 11
169.0743428462243
 21
175.9031381497531
 31
0.0
  0
LINE
  5
88F
330
1F
100
AcDbEntity
  8
0
100
AcDbLine
 10
168.5743428462243
 20
177.9031381497531
 30
0.0
 11
169.0743428462243
 21
177.9031381497531
 31
0.0
  0
LINE
  5
890
330
1F
100
AcDbEntity
  8
0
100
AcDbLine
 10
168.5743428462243
 20
175.9031381497531
 30
0.0
 11
168.5743428462243
 21
177.9031381497531
 31
0.0
  0
LINE
  5
891
330
1F
100
AcDbEntity
  8
0
100
AcDbLine
 10
169.2951778462235
 20
186.2531381497534
 30
0.0
 11
171.2600998462235
 21
186.2531381497534
 31
0.0
  0
LINE
  5
892
330
1F
100
AcDbEntity
  8
0
100
AcDbLine
 10
161.0743428462235
 20
211.6571261497537
 30
0.0
 11
173.8743428462236
 21
211.6571261497537
 31
0.0
  0
LINE
  5
893
330
1F
100
AcDbEntity
  8
0
100
AcDbLine
 10
160.5743428462236
 20
211.1331391497536
 30
0.0
 11
168.3743428462236
 21
211.1331391497536
 31
0.0
  0
LINE
  5
894
330
1F
100
AcDbEntity
  8
0
100
AcDbLine
 10
166.8743428462236
 20
190.2531381497534
 30
0.0
 11
173.8743428462236
 21
190.2531381497534
 31
0.0
  0
LINE
  5
895
330
1F
100
AcDbEntity
  8
0
100
AcDbLine
 10
166.3743428462236
 20
190.7331391497539
 30
0.0
 11
168.3743428462236
 21
190.7331391497539
 31
0.0
  0
CIRCLE
  5
896
330
1F
100
AcDbEntity
  8
0
100
AcDbCircle
 10
167.4743428462235
 20
218.6568551497539
 30
0.0
 40
5.029838999999999
  0
CIRCLE
  5
897
330
1F
100
AcDbEntity
  8
0
100
AcDbCircle
 10
167.4743428462235
 20
218.6568551497539
 30
0.0
 40
5.029838999999999
  0
CIRCLE
  5
898
330
1F
100
AcDbEntity
  8
0
100
AcDbCircle
 10
167.4740848462237
 20
218.6568551497539
 30
0.0
 40
4.448566
  0
LINE
  5
899
330
1F
100
AcDbEntity
  8
0
100
AcDbLine
 10
166.7190058462234
 20
220.2376371497539
 30
0.0
 11
166.7190058462234
 21
220.8301931497536
 31
0.0
  0
LINE
  5
89A
330
1F
100
AcDbEntity
  8
0
100
AcDbLine
 10
166.7190058462234
 20
219.8001101497538
 30
0.0
 11
166.7190058462234
 21
221.2680651497534
 31
0.0
  0
LINE
  5
89B
330
1F
100
AcDbEntity
  8
0
100
AcDbLine
 10
166.7190058462234
 20
216.5537961497538
 30
0.0
 11
166.7190058462234
 21
217.1465251497538
 31
0.0
  0
LINE
  5
89C
330
1F
100
AcDbEntity
  8
0
100
AcDbLine
 10
166.7190058462234
 20
216.1160971497536
 30
0.0
 11
166.7190058462234
 21
217.5840521497537
 31
0.0
  0
LINE
  5
89D
330
1F
100
AcDbEntity
  8
0
100
AcDbLine
 10
166.7190058462234
 20
218.3957171497538
 30
0.0
 11
166.7190058462234
 21
218.9884451497536
 31
0.0
  0
LINE
  5
89E
330
1F
100
AcDbEntity
  8
0
100
AcDbLine
 10
166.7190058462234
 20
217.9578451497536
 30
0.0
 11
166.7190058462234
 21
219.4258001497536
 31
0.0
  0
LINE
  5
89F
330
1F
100
AcDbEntity
  8
0
100
AcDbLine
 10
162.8165738462236
 20
217.9227051497539
 30
0.0
 11
164.7360088462235
 21
217.9227051497539
 31
0.0
  0
LINE
  5
8A0
330
1F
100
AcDbEntity
  8
0
100
AcDbLine
 10
162.8165738462236
 20
219.3904881497537
 30
0.0
 11
162.8165738462236
 21
217.9227051497539
 31
0.0
  0
LINE
  5
8A1
330
1F
100
AcDbEntity
  8
0
100
AcDbLine
 10
164.7360088462235
 20
219.3904881497537
 30
0.0
 11
162.8165738462236
 21
219.3904881497537
 31
0.0
  0
LINE
  5
8A2
330
1F
100
AcDbEntity
  8
0
100
AcDbLine
 10
164.7360088462235
 20
217.9227051497539
 30
0.0
 11
164.7360088462235
 21
219.3904881497537
 31
0.0
  0
LINE
  5
8A3
330
1F
100
AcDbEntity
  8
0
100
AcDbLine
 10
162.8165738462236
 20
217.9227051497539
 30
0.0
 11
164.7360088462235
 21
217.9227051497539
 31
0.0
  0
LINE
  5
8A4
330
1F
100
AcDbEntity
  8
0
100
AcDbLine
 10
162.8165738462236
 20
219.3904881497537
 30
0.0
 11
162.8165738462236
 21
217.9227051497539
 31
0.0
  0
LINE
  5
8A5
330
1F
100
AcDbEntity
  8
0
100
AcDbLine
 10
164.7360088462235
 20
219.3904881497537
 30
0.0
 11
162.8165738462236
 21
219.3904881497537
 31
0.0
  0
LINE
  5
8A6
330
1F
100
AcDbEntity
  8
0
100
AcDbLine
 10
164.7360088462235
 20
217.9227051497539
 30
0.0
 11
164.7360088462235
 21
219.3904881497537
 31
0.0
  0
LINE
  5
8A7
330
1F
100
AcDbEntity
  8
0
100
AcDbLine
 10
165.3573318462236
 20
221.2677201497534
 30
0.0
 11
165.7383598462236
 21
220.8301931497536
 31
0.0
  0
LINE
  5
8A8
330
1F
100
AcDbEntity
  8
0
100
AcDbLine
 10
165.3573318462236
 20
219.8001101497538
 30
0.0
 11
165.7383598462236
 21
220.2376371497539
 31
0.0
  0
LINE
  5
8A9
330
1F
100
AcDbEntity
  8
0
100
AcDbLine
 10
165.7380148462235
 20
220.8301931497536
 30
0.0
 11
165.7380148462235
 21
220.2376371497539
 31
0.0
  0
LINE
  5
8AA
330
1F
100
AcDbEntity
  8
0
100
AcDbLine
 10
165.3569878462236
 20
221.2680651497534
 30
0.0
 11
165.3569878462236
 21
219.8001101497538
 31
0.0
  0
LINE
  5
8AB
330
1F
100
AcDbEntity
  8
0
100
AcDbLine
 10
165.3573318462236
 20
219.4258001497536
 30
0.0
 11
165.7383598462236
 21
218.9884451497536
 31
0.0
  0
LINE
  5
8AC
330
1F
100
AcDbEntity
  8
0
100
AcDbLine
 10
165.3573318462236
 20
217.5840521497537
 30
0.0
 11
165.7383598462236
 21
217.1465251497538
 31
0.0
  0
LINE
  5
8AD
330
1F
100
AcDbEntity
  8
0
100
AcDbLine
 10
165.3573318462236
 20
216.1160971497536
 30
0.0
 11
165.7383598462236
 21
216.5537961497538
 31
0.0
  0
LINE
  5
8AE
330
1F
100
AcDbEntity
  8
0
100
AcDbLine
 10
165.7380148462235
 20
217.1465251497538
 30
0.0
 11
165.7380148462235
 21
216.5537961497538
 31
0.0
  0
LINE
  5
8AF
330
1F
100
AcDbEntity
  8
0
100
AcDbLine
 10
165.3569878462236
 20
217.5840521497537
 30
0.0
 11
165.3569878462236
 21
216.1160971497536
 31
0.0
  0
LINE
  5
8B0
330
1F
100
AcDbEntity
  8
0
100
AcDbLine
 10
165.3573318462236
 20
217.9578451497536
 30
0.0
 11
165.7383598462236
 21
218.3957171497538
 31
0.0
  0
LINE
  5
8B1
330
1F
100
AcDbEntity
  8
0
100
AcDbLine
 10
165.7380148462235
 20
218.9884451497536
 30
0.0
 11
165.7380148462235
 21
218.3957171497538
 31
0.0
  0
LINE
  5
8B2
330
1F
100
AcDbEntity
  8
0
100
AcDbLine
 10
165.3569878462236
 20
219.4258001497536
 30
0.0
 11
165.3569878462236
 21
217.9578451497536
 31
0.0
  0
LINE
  5
8B3
330
1F
100
AcDbEntity
  8
0
100
AcDbLine
 10
165.7380148462235
 20
220.2376371497539
 30
0.0
 11
166.7190058462234
 21
220.2376371497539
 31
0.0
  0
LINE
  5
8B4
330
1F
100
AcDbEntity
  8
0
100
AcDbLine
 10
166.7190058462234
 20
220.8301931497536
 30
0.0
 11
165.7380148462235
 21
220.8301931497536
 31
0.0
  0
LINE
  5
8B5
330
1F
100
AcDbEntity
  8
0
100
AcDbLine
 10
165.3569878462236
 20
219.8001101497538
 30
0.0
 11
166.7190058462234
 21
219.8001101497538
 31
0.0
  0
LINE
  5
8B6
330
1F
100
AcDbEntity
  8
0
100
AcDbLine
 10
166.7190058462234
 20
221.2680651497534
 30
0.0
 11
165.3569878462236
 21
221.2680651497534
 31
0.0
  0
LINE
  5
8B7
330
1F
100
AcDbEntity
  8
0
100
AcDbLine
 10
165.7380148462235
 20
216.5537961497538
 30
0.0
 11
166.7190058462234
 21
216.5537961497538
 31
0.0
  0
LINE
  5
8B8
330
1F
100
AcDbEntity
  8
0
100
AcDbLine
 10
166.7190058462234
 20
217.1465251497538
 30
0.0
 11
165.7380148462235
 21
217.1465251497538
 31
0.0
  0
LINE
  5
8B9
330
1F
100
AcDbEntity
  8
0
100
AcDbLine
 10
165.3569878462236
 20
216.1160971497536
 30
0.0
 11
166.7190058462234
 21
216.1160971497536
 31
0.0
  0
LINE
  5
8BA
330
1F
100
AcDbEntity
  8
0
100
AcDbLine
 10
166.7190058462234
 20
217.5840521497537
 30
0.0
 11
165.3569878462236
 21
217.5840521497537
 31
0.0
  0
LINE
  5
8BB
330
1F
100
AcDbEntity
  8
0
100
AcDbLine
 10
165.7380148462235
 20
218.3957171497538
 30
0.0
 11
166.7190058462234
 21
218.3957171497538
 31
0.0
  0
LINE
  5
8BC
330
1F
100
AcDbEntity
  8
0
100
AcDbLine
 10
166.7190058462234
 20
218.9884451497536
 30
0.0
 11
165.7380148462235
 21
218.9884451497536
 31
0.0
  0
LINE
  5
8BD
330
1F
100
AcDbEntity
  8
0
100
AcDbLine
 10
165.3569878462236
 20
217.9578451497536
 30
0.0
 11
166.7190058462234
 21
217.9578451497536
 31
0.0
  0
LINE
  5
8BE
330
1F
100
AcDbEntity
  8
0
100
AcDbLine
 10
166.7190058462234
 20
219.4258001497536
 30
0.0
 11
165.3569878462236
 21
219.4258001497536
 31
0.0
  0
LINE
  5
8BF
330
1F
100
AcDbEntity
  8
0
100
AcDbLine
 10
173.8743428462236
 20
210.0771114907007
 30
0.0
 11
173.8743428462236
 21
192.1771114907009
 31
0.0
  0
LINE
  5
8C0
330
1F
100
AcDbEntity
  8
0
100
AcDbLine
 10
168.8743428462236
 20
210.0771114907007
 30
0.0
 11
168.8743428462236
 21
192.1771114907009
 31
0.0
  0
LINE
  5
8C1
330
1F
100
AcDbEntity
  8
0
100
AcDbLine
 10
168.3743428462236
 20
211.1331391497536
 30
0.0
 11
168.3743428462236
 21
190.7331391497539
 31
0.0
  0
LINE
  5
8C2
330
1F
100
AcDbEntity
  8
0
100
AcDbLine
 10
172.1243428462236
 20
206.207126149754
 30
0.0
 11
172.6243428462236
 21
206.207126149754
 31
0.0
  0
LINE
  5
8C3
330
1F
100
AcDbEntity
  8
0
100
AcDbLine
 10
172.1243428462236
 20
205.707126149754
 30
0.0
 11
172.6243428462236
 21
205.707126149754
 31
0.0
  0
LINE
  5
8C4
330
1F
100
AcDbEntity
  8
0
100
AcDbLine
 10
172.1243428462236
 20
206.207126149754
 30
0.0
 11
172.1243428462236
 21
205.707126149754
 31
0.0
  0
LINE
  5
8C5
330
1F
100
AcDbEntity
  8
0
100
AcDbLine
 10
172.6243428462236
 20
205.707126149754
 30
0.0
 11
172.6243428462236
 21
206.207126149754
 31
0.0
  0
LINE
  5
8C6
330
1F
100
AcDbEntity
  8
0
100
AcDbLine
 10
172.2843428462234
 20
206.0471781497536
 30
0.0
 11
172.2843428462234
 21
205.8670741497535
 31
0.0
  0
LINE
  5
8C7
330
1F
100
AcDbEntity
  8
0
100
AcDbLine
 10
172.2843428462234
 20
205.8670741497535
 30
0.0
 11
172.3743428462236
 21
205.8670741497535
 31
0.0
  0
LINE
  5
8C8
330
1F
100
AcDbEntity
  8
0
100
AcDbLine
 10
172.2843428462234
 20
205.8670741497535
 30
0.0
 11
172.3743428462236
 21
205.8670741497535
 31
0.0
  0
LINE
  5
8C9
330
1F
100
AcDbEntity
  8
0
100
AcDbLine
 10
172.2843428462234
 20
206.0471781497536
 30
0.0
 11
172.3743428462236
 21
206.0471781497536
 31
0.0
  0
LINE
  5
8CA
330
1F
100
AcDbEntity
  8
0
100
AcDbLine
 10
172.4643428462236
 20
206.0471781497536
 30
0.0
 11
172.3743428462236
 21
206.0471781497536
 31
0.0
  0
LINE
  5
8CB
330
1F
100
AcDbEntity
  8
0
100
AcDbLine
 10
172.4643428462236
 20
205.8670741497535
 30
0.0
 11
172.3743428462236
 21
205.8670741497535
 31
0.0
  0
LINE
  5
8CC
330
1F
100
AcDbEntity
  8
0
100
AcDbLine
 10
172.4643428462236
 20
205.8670741497535
 30
0.0
 11
172.3743428462236
 21
205.8670741497535
 31
0.0
  0
LINE
  5
8CD
330
1F
100
AcDbEntity
  8
0
100
AcDbLine
 10
172.4643428462236
 20
206.0471781497536
 30
0.0
 11
172.4643428462236
 21
205.8670741497535
 31
0.0
  0
LINE
  5
8CE
330
1F
100
AcDbEntity
  8
0
100
AcDbLine
 10
170.1243428462236
 20
205.707126149754
 30
0.0
 11
170.6243428462236
 21
205.707126149754
 31
0.0
  0
LINE
  5
8CF
330
1F
100
AcDbEntity
  8
0
100
AcDbLine
 10
170.1243428462236
 20
206.207126149754
 30
0.0
 11
170.6243428462236
 21
206.207126149754
 31
0.0
  0
LINE
  5
8D0
330
1F
100
AcDbEntity
  8
0
100
AcDbLine
 10
170.4643428462236
 20
206.0471781497536
 30
0.0
 11
170.4643428462236
 21
205.8670741497535
 31
0.0
  0
LINE
  5
8D1
330
1F
100
AcDbEntity
  8
0
100
AcDbLine
 10
170.4643428462236
 20
205.8670741497535
 30
0.0
 11
170.3743428462236
 21
205.8670741497535
 31
0.0
  0
LINE
  5
8D2
330
1F
100
AcDbEntity
  8
0
100
AcDbLine
 10
170.4643428462236
 20
205.8670741497535
 30
0.0
 11
170.3743428462236
 21
205.8670741497535
 31
0.0
  0
LINE
  5
8D3
330
1F
100
AcDbEntity
  8
0
100
AcDbLine
 10
170.4643428462236
 20
206.0471781497536
 30
0.0
 11
170.3743428462236
 21
206.0471781497536
 31
0.0
  0
LINE
  5
8D4
330
1F
100
AcDbEntity
  8
0
100
AcDbLine
 10
170.2843428462234
 20
206.0471781497536
 30
0.0
 11
170.3743428462236
 21
206.0471781497536
 31
0.0
  0
LINE
  5
8D5
330
1F
100
AcDbEntity
  8
0
100
AcDbLine
 10
170.2843428462234
 20
205.8670741497535
 30
0.0
 11
170.3743428462236
 21
205.8670741497535
 31
0.0
  0
LINE
  5
8D6
330
1F
100
AcDbEntity
  8
0
100
AcDbLine
 10
170.2843428462234
 20
205.8670741497535
 30
0.0
 11
170.3743428462236
 21
205.8670741497535
 31
0.0
  0
LINE
  5
8D7
330
1F
100
AcDbEntity
  8
0
100
AcDbLine
 10
170.2843428462234
 20
206.0471781497536
 30
0.0
 11
170.2843428462234
 21
205.8670741497535
 31
0.0
  0
LINE
  5
8D8
330
1F
100
AcDbEntity
  8
0
100
AcDbLine
 10
170.6243428462236
 20
205.707126149754
 30
0.0
 11
170.6243428462236
 21
206.207126149754
 31
0.0
  0
LINE
  5
8D9
330
1F
100
AcDbEntity
  8
0
100
AcDbLine
 10
170.1243428462236
 20
206.207126149754
 30
0.0
 11
170.1243428462236
 21
205.707126149754
 31
0.0
  0
LINE
  5
8DA
330
1F
100
AcDbEntity
  8
0
100
AcDbLine
 10
172.4643428462236
 20
198.0471781497536
 30
0.0
 11
172.4643428462236
 21
197.8670741497534
 31
0.0
  0
LINE
  5
8DB
330
1F
100
AcDbEntity
  8
0
100
AcDbLine
 10
172.2843428462234
 20
198.0471781497536
 30
0.0
 11
172.2843428462234
 21
197.8670741497534
 31
0.0
  0
LINE
  5
8DC
330
1F
100
AcDbEntity
  8
0
100
AcDbLine
 10
172.4643428462236
 20
197.8670741497534
 30
0.0
 11
172.3743428462236
 21
197.8670741497534
 31
0.0
  0
LINE
  5
8DD
330
1F
100
AcDbEntity
  8
0
100
AcDbLine
 10
172.4643428462236
 20
197.8670741497534
 30
0.0
 11
172.3743428462236
 21
197.8670741497534
 31
0.0
  0
LINE
  5
8DE
330
1F
100
AcDbEntity
  8
0
100
AcDbLine
 10
172.2843428462234
 20
197.8670741497534
 30
0.0
 11
172.3743428462236
 21
197.8670741497534
 31
0.0
  0
LINE
  5
8DF
330
1F
100
AcDbEntity
  8
0
100
AcDbLine
 10
172.2843428462234
 20
197.8670741497534
 30
0.0
 11
172.3743428462236
 21
197.8670741497534
 31
0.0
  0
LINE
  5
8E0
330
1F
100
AcDbEntity
  8
0
100
AcDbLine
 10
172.1243428462236
 20
198.2071261497539
 30
0.0
 11
172.6243428462236
 21
198.2071261497539
 31
0.0
  0
LINE
  5
8E1
330
1F
100
AcDbEntity
  8
0
100
AcDbLine
 10
172.4643428462236
 20
198.0471781497536
 30
0.0
 11
172.3743428462236
 21
198.0471781497536
 31
0.0
  0
LINE
  5
8E2
330
1F
100
AcDbEntity
  8
0
100
AcDbLine
 10
172.2843428462234
 20
198.0471781497536
 30
0.0
 11
172.3743428462236
 21
198.0471781497536
 31
0.0
  0
LINE
  5
8E3
330
1F
100
AcDbEntity
  8
0
100
AcDbLine
 10
172.1243428462236
 20
197.707126149754
 30
0.0
 11
172.6243428462236
 21
197.707126149754
 31
0.0
  0
LINE
  5
8E4
330
1F
100
AcDbEntity
  8
0
100
AcDbLine
 10
172.1243428462236
 20
198.2071261497539
 30
0.0
 11
172.1243428462236
 21
197.707126149754
 31
0.0
  0
LINE
  5
8E5
330
1F
100
AcDbEntity
  8
0
100
AcDbLine
 10
172.6243428462236
 20
197.707126149754
 30
0.0
 11
172.6243428462236
 21
198.2071261497539
 31
0.0
  0
LINE
  5
8E6
330
1F
100
AcDbEntity
  8
0
100
AcDbLine
 10
172.4643428462236
 20
196.0471781497536
 30
0.0
 11
172.4643428462236
 21
195.8670741497535
 31
0.0
  0
LINE
  5
8E7
330
1F
100
AcDbEntity
  8
0
100
AcDbLine
 10
172.2843428462234
 20
196.0471781497536
 30
0.0
 11
172.2843428462234
 21
195.8670741497535
 31
0.0
  0
LINE
  5
8E8
330
1F
100
AcDbEntity
  8
0
100
AcDbLine
 10
172.4643428462236
 20
195.8670741497535
 30
0.0
 11
172.3743428462236
 21
195.8670741497535
 31
0.0
  0
LINE
  5
8E9
330
1F
100
AcDbEntity
  8
0
100
AcDbLine
 10
172.4643428462236
 20
195.8670741497535
 30
0.0
 11
172.3743428462236
 21
195.8670741497535
 31
0.0
  0
LINE
  5
8EA
330
1F
100
AcDbEntity
  8
0
100
AcDbLine
 10
172.2843428462234
 20
195.8670741497535
 30
0.0
 11
172.3743428462236
 21
195.8670741497535
 31
0.0
  0
LINE
  5
8EB
330
1F
100
AcDbEntity
  8
0
100
AcDbLine
 10
172.2843428462234
 20
195.8670741497535
 30
0.0
 11
172.3743428462236
 21
195.8670741497535
 31
0.0
  0
LINE
  5
8EC
330
1F
100
AcDbEntity
  8
0
100
AcDbLine
 10
172.1243428462236
 20
196.207126149754
 30
0.0
 11
172.6243428462236
 21
196.207126149754
 31
0.0
  0
LINE
  5
8ED
330
1F
100
AcDbEntity
  8
0
100
AcDbLine
 10
172.4643428462236
 20
196.0471781497536
 30
0.0
 11
172.3743428462236
 21
196.0471781497536
 31
0.0
  0
LINE
  5
8EE
330
1F
100
AcDbEntity
  8
0
100
AcDbLine
 10
172.2843428462234
 20
196.0471781497536
 30
0.0
 11
172.3743428462236
 21
196.0471781497536
 31
0.0
  0
LINE
  5
8EF
330
1F
100
AcDbEntity
  8
0
100
AcDbLine
 10
172.1243428462236
 20
195.707126149754
 30
0.0
 11
172.6243428462236
 21
195.707126149754
 31
0.0
  0
LINE
  5
8F0
330
1F
100
AcDbEntity
  8
0
100
AcDbLine
 10
172.1243428462236
 20
196.207126149754
 30
0.0
 11
172.1243428462236
 21
195.707126149754
 31
0.0
  0
LINE
  5
8F1
330
1F
100
AcDbEntity
  8
0
100
AcDbLine
 10
172.6243428462236
 20
195.707126149754
 30
0.0
 11
172.6243428462236
 21
196.207126149754
 31
0.0
  0
LINE
  5
8F2
330
1F
100
AcDbEntity
  8
0
100
AcDbLine
 10
170.2843428462234
 20
198.0471781497536
 30
0.0
 11
170.2843428462234
 21
197.8670741497534
 31
0.0
  0
LINE
  5
8F3
330
1F
100
AcDbEntity
  8
0
100
AcDbLine
 10
170.4643428462236
 20
198.0471781497536
 30
0.0
 11
170.4643428462236
 21
197.8670741497534
 31
0.0
  0
LINE
  5
8F4
330
1F
100
AcDbEntity
  8
0
100
AcDbLine
 10
170.2843428462234
 20
197.8670741497534
 30
0.0
 11
170.3743428462236
 21
197.8670741497534
 31
0.0
  0
LINE
  5
8F5
330
1F
100
AcDbEntity
  8
0
100
AcDbLine
 10
170.2843428462234
 20
197.8670741497534
 30
0.0
 11
170.3743428462236
 21
197.8670741497534
 31
0.0
  0
LINE
  5
8F6
330
1F
100
AcDbEntity
  8
0
100
AcDbLine
 10
170.4643428462236
 20
197.8670741497534
 30
0.0
 11
170.3743428462236
 21
197.8670741497534
 31
0.0
  0
LINE
  5
8F7
330
1F
100
AcDbEntity
  8
0
100
AcDbLine
 10
170.4643428462236
 20
197.8670741497534
 30
0.0
 11
170.3743428462236
 21
197.8670741497534
 31
0.0
  0
LINE
  5
8F8
330
1F
100
AcDbEntity
  8
0
100
AcDbLine
 10
170.1243428462236
 20
198.2071261497539
 30
0.0
 11
170.6243428462236
 21
198.2071261497539
 31
0.0
  0
LINE
  5
8F9
330
1F
100
AcDbEntity
  8
0
100
AcDbLine
 10
170.2843428462234
 20
198.0471781497536
 30
0.0
 11
170.3743428462236
 21
198.0471781497536
 31
0.0
  0
LINE
  5
8FA
330
1F
100
AcDbEntity
  8
0
100
AcDbLine
 10
170.4643428462236
 20
198.0471781497536
 30
0.0
 11
170.3743428462236
 21
198.0471781497536
 31
0.0
  0
LINE
  5
8FB
330
1F
100
AcDbEntity
  8
0
100
AcDbLine
 10
170.1243428462236
 20
197.707126149754
 30
0.0
 11
170.6243428462236
 21
197.707126149754
 31
0.0
  0
LINE
  5
8FC
330
1F
100
AcDbEntity
  8
0
100
AcDbLine
 10
170.1243428462236
 20
198.2071261497539
 30
0.0
 11
170.1243428462236
 21
197.707126149754
 31
0.0
  0
LINE
  5
8FD
330
1F
100
AcDbEntity
  8
0
100
AcDbLine
 10
170.6243428462236
 20
197.707126149754
 30
0.0
 11
170.6243428462236
 21
198.2071261497539
 31
0.0
  0
LINE
  5
8FE
330
1F
100
AcDbEntity
  8
0
100
AcDbLine
 10
170.2843428462234
 20
196.0471781497536
 30
0.0
 11
170.2843428462234
 21
195.8670741497535
 31
0.0
  0
LINE
  5
8FF
330
1F
100
AcDbEntity
  8
0
100
AcDbLine
 10
170.4643428462236
 20
196.0471781497536
 30
0.0
 11
170.4643428462236
 21
195.8670741497535
 31
0.0
  0
LINE
  5
900
330
1F
100
AcDbEntity
  8
0
100
AcDbLine
 10
170.2843428462234
 20
195.8670741497535
 30
0.0
 11
170.3743428462236
 21
195.8670741497535
 31
0.0
  0
LINE
  5
901
330
1F
100
AcDbEntity
  8
0
100
AcDbLine
 10
170.2843428462234
 20
195.8670741497535
 30
0.0
 11
170.3743428462236
 21
195.8670741497535
 31
0.0
  0
LINE
  5
902
330
1F
100
AcDbEntity
  8
0
100
AcDbLine
 10
170.4643428462236
 20
195.8670741497535
 30
0.0
 11
170.3743428462236
 21
195.8670741497535
 31
0.0
  0
LINE
  5
903
330
1F
100
AcDbEntity
  8
0
100
AcDbLine
 10
170.4643428462236
 20
195.8670741497535
 30
0.0
 11
170.3743428462236
 21
195.8670741497535
 31
0.0
  0
LINE
  5
904
330
1F
100
AcDbEntity
  8
0
100
AcDbLine
 10
170.1243428462236
 20
196.207126149754
 30
0.0
 11
170.6243428462236
 21
196.207126149754
 31
0.0
  0
LINE
  5
905
330
1F
100
AcDbEntity
  8
0
100
AcDbLine
 10
170.2843428462234
 20
196.0471781497536
 30
0.0
 11
170.3743428462236
 21
196.0471781497536
 31
0.0
  0
LINE
  5
906
330
1F
100
AcDbEntity
  8
0
100
AcDbLine
 10
170.4643428462236
 20
196.0471781497536
 30
0.0
 11
170.3743428462236
 21
196.0471781497536
 31
0.0
  0
LINE
  5
907
330
1F
100
AcDbEntity
  8
0
100
AcDbLine
 10
170.1243428462236
 20
195.707126149754
 30
0.0
 11
170.6243428462236
 21
195.707126149754
 31
0.0
  0
LINE
  5
908
330
1F
100
AcDbEntity
  8
0
100
AcDbLine
 10
170.1243428462236
 20
196.207126149754
 30
0.0
 11
170.1243428462236
 21
195.707126149754
 31
0.0
  0
LINE
  5
909
330
1F
100
AcDbEntity
  8
0
100
AcDbLine
 10
170.6243428462236
 20
195.707126149754
 30
0.0
 11
170.6243428462236
 21
196.207126149754
 31
0.0
  0
LINE
  5
90A
330
1F
100
AcDbEntity
  8
0
100
AcDbLine
 10
172.1243428462236
 20
194.207126149754
 30
0.0
 11
172.1243428462236
 21
193.7071261497539
 31
0.0
  0
LINE
  5
90B
330
1F
100
AcDbEntity
  8
0
100
AcDbLine
 10
172.6243428462236
 20
193.7071261497539
 30
0.0
 11
172.6243428462236
 21
194.207126149754
 31
0.0
  0
LINE
  5
90C
330
1F
100
AcDbEntity
  8
0
100
AcDbLine
 10
172.2843428462234
 20
194.0471781497536
 30
0.0
 11
172.2843428462234
 21
193.8670741497535
 31
0.0
  0
LINE
  5
90D
330
1F
100
AcDbEntity
  8
0
100
AcDbLine
 10
172.4643428462236
 20
194.0471781497536
 30
0.0
 11
172.4643428462236
 21
193.8670741497535
 31
0.0
  0
LINE
  5
90E
330
1F
100
AcDbEntity
  8
0
100
AcDbLine
 10
172.1243428462236
 20
193.7071261497539
 30
0.0
 11
172.6243428462236
 21
193.7071261497539
 31
0.0
  0
LINE
  5
90F
330
1F
100
AcDbEntity
  8
0
100
AcDbLine
 10
172.2843428462234
 20
193.8670741497535
 30
0.0
 11
172.3743428462236
 21
193.8670741497535
 31
0.0
  0
LINE
  5
910
330
1F
100
AcDbEntity
  8
0
100
AcDbLine
 10
172.2843428462234
 20
193.8670741497535
 30
0.0
 11
172.3743428462236
 21
193.8670741497535
 31
0.0
  0
LINE
  5
911
330
1F
100
AcDbEntity
  8
0
100
AcDbLine
 10
172.4643428462236
 20
193.8670741497535
 30
0.0
 11
172.3743428462236
 21
193.8670741497535
 31
0.0
  0
LINE
  5
912
330
1F
100
AcDbEntity
  8
0
100
AcDbLine
 10
172.4643428462236
 20
193.8670741497535
 30
0.0
 11
172.3743428462236
 21
193.8670741497535
 31
0.0
  0
LINE
  5
913
330
1F
100
AcDbEntity
  8
0
100
AcDbLine
 10
172.1243428462236
 20
194.207126149754
 30
0.0
 11
172.6243428462236
 21
194.207126149754
 31
0.0
  0
LINE
  5
914
330
1F
100
AcDbEntity
  8
0
100
AcDbLine
 10
172.2843428462234
 20
194.0471781497536
 30
0.0
 11
172.3743428462236
 21
194.0471781497536
 31
0.0
  0
LINE
  5
915
330
1F
100
AcDbEntity
  8
0
100
AcDbLine
 10
172.4643428462236
 20
194.0471781497536
 30
0.0
 11
172.3743428462236
 21
194.0471781497536
 31
0.0
  0
LINE
  5
916
330
1F
100
AcDbEntity
  8
0
100
AcDbLine
 10
170.6243428462236
 20
193.7071261497539
 30
0.0
 11
170.6243428462236
 21
194.207126149754
 31
0.0
  0
LINE
  5
917
330
1F
100
AcDbEntity
  8
0
100
AcDbLine
 10
170.1243428462236
 20
194.207126149754
 30
0.0
 11
170.1243428462236
 21
193.7071261497539
 31
0.0
  0
LINE
  5
918
330
1F
100
AcDbEntity
  8
0
100
AcDbLine
 10
170.4643428462236
 20
194.0471781497536
 30
0.0
 11
170.4643428462236
 21
193.8670741497535
 31
0.0
  0
LINE
  5
919
330
1F
100
AcDbEntity
  8
0
100
AcDbLine
 10
170.2843428462234
 20
194.0471781497536
 30
0.0
 11
170.2843428462234
 21
193.8670741497535
 31
0.0
  0
LINE
  5
91A
330
1F
100
AcDbEntity
  8
0
100
AcDbLine
 10
170.1243428462236
 20
193.7071261497539
 30
0.0
 11
170.6243428462236
 21
193.7071261497539
 31
0.0
  0
LINE
  5
91B
330
1F
100
AcDbEntity
  8
0
100
AcDbLine
 10
170.4643428462236
 20
193.8670741497535
 30
0.0
 11
170.3743428462236
 21
193.8670741497535
 31
0.0
  0
LINE
  5
91C
330
1F
100
AcDbEntity
  8
0
100
AcDbLine
 10
170.4643428462236
 20
193.8670741497535
 30
0.0
 11
170.3743428462236
 21
193.8670741497535
 31
0.0
  0
LINE
  5
91D
330
1F
100
AcDbEntity
  8
0
100
AcDbLine
 10
170.2843428462234
 20
193.8670741497535
 30
0.0
 11
170.3743428462236
 21
193.8670741497535
 31
0.0
  0
LINE
  5
91E
330
1F
100
AcDbEntity
  8
0
100
AcDbLine
 10
170.2843428462234
 20
193.8670741497535
 30
0.0
 11
170.3743428462236
 21
193.8670741497535
 31
0.0
  0
LINE
  5
91F
330
1F
100
AcDbEntity
  8
0
100
AcDbLine
 10
170.4643428462236
 20
194.0471781497536
 30
0.0
 11
170.3743428462236
 21
194.0471781497536
 31
0.0
  0
LINE
  5
920
330
1F
100
AcDbEntity
  8
0
100
AcDbLine
 10
170.2843428462234
 20
194.0471781497536
 30
0.0
 11
170.3743428462236
 21
194.0471781497536
 31
0.0
  0
LINE
  5
921
330
1F
100
AcDbEntity
  8
0
100
AcDbLine
 10
170.1243428462236
 20
194.207126149754
 30
0.0
 11
170.6243428462236
 21
194.207126149754
 31
0.0
  0
LINE
  5
922
330
1F
100
AcDbEntity
  8
0
100
AcDbLine
 10
169.2951778462235
 20
189.2531381497534
 30
0.0
 11
171.2600998462235
 21
189.2531381497534
 31
0.0
  0
LINE
  5
923
330
1F
100
AcDbEntity
  8
0
100
AcDbLine
 10
172.1243428462236
 20
204.207126149754
 30
0.0
 11
172.6243428462236
 21
204.207126149754
 31
0.0
  0
LINE
  5
924
330
1F
100
AcDbEntity
  8
0
100
AcDbLine
 10
172.1243428462236
 20
203.707126149754
 30
0.0
 11
172.6243428462236
 21
203.707126149754
 31
0.0
  0
LINE
  5
925
330
1F
100
AcDbEntity
  8
0
100
AcDbLine
 10
172.1243428462236
 20
204.207126149754
 30
0.0
 11
172.1243428462236
 21
203.707126149754
 31
0.0
  0
LINE
  5
926
330
1F
100
AcDbEntity
  8
0
100
AcDbLine
 10
172.6243428462236
 20
203.707126149754
 30
0.0
 11
172.6243428462236
 21
204.207126149754
 31
0.0
  0
LINE
  5
927
330
1F
100
AcDbEntity
  8
0
100
AcDbLine
 10
172.2843428462234
 20
204.0471781497536
 30
0.0
 11
172.2843428462234
 21
203.8670741497535
 31
0.0
  0
LINE
  5
928
330
1F
100
AcDbEntity
  8
0
100
AcDbLine
 10
172.2843428462234
 20
203.8670741497535
 30
0.0
 11
172.3743428462236
 21
203.8670741497535
 31
0.0
  0
LINE
  5
929
330
1F
100
AcDbEntity
  8
0
100
AcDbLine
 10
172.2843428462234
 20
203.8670741497535
 30
0.0
 11
172.3743428462236
 21
203.8670741497535
 31
0.0
  0
LINE
  5
92A
330
1F
100
AcDbEntity
  8
0
100
AcDbLine
 10
172.2843428462234
 20
204.0471781497536
 30
0.0
 11
172.3743428462236
 21
204.0471781497536
 31
0.0
  0
LINE
  5
92B
330
1F
100
AcDbEntity
  8
0
100
AcDbLine
 10
172.4643428462236
 20
204.0471781497536
 30
0.0
 11
172.3743428462236
 21
204.0471781497536
 31
0.0
  0
LINE
  5
92C
330
1F
100
AcDbEntity
  8
0
100
AcDbLine
 10
172.4643428462236
 20
203.8670741497535
 30
0.0
 11
172.3743428462236
 21
203.8670741497535
 31
0.0
  0
LINE
  5
92D
330
1F
100
AcDbEntity
  8
0
100
AcDbLine
 10
172.4643428462236
 20
203.8670741497535
 30
0.0
 11
172.3743428462236
 21
203.8670741497535
 31
0.0
  0
LINE
  5
92E
330
1F
100
AcDbEntity
  8
0
100
AcDbLine
 10
172.4643428462236
 20
204.0471781497536
 30
0.0
 11
172.4643428462236
 21
203.8670741497535
 31
0.0
  0
LINE
  5
92F
330
1F
100
AcDbEntity
  8
0
100
AcDbLine
 10
172.1243428462236
 20
199.707126149754
 30
0.0
 11
172.6243428462236
 21
199.707126149754
 31
0.0
  0
LINE
  5
930
330
1F
100
AcDbEntity
  8
0
100
AcDbLine
 10
172.1243428462236
 20
200.207126149754
 30
0.0
 11
172.6243428462236
 21
200.207126149754
 31
0.0
  0
LINE
  5
931
330
1F
100
AcDbEntity
  8
0
100
AcDbLine
 10
172.1243428462236
 20
202.207126149754
 30
0.0
 11
172.6243428462236
 21
202.207126149754
 31
0.0
  0
LINE
  5
932
330
1F
100
AcDbEntity
  8
0
100
AcDbLine
 10
172.1243428462236
 20
201.707126149754
 30
0.0
 11
172.6243428462236
 21
201.707126149754
 31
0.0
  0
LINE
  5
933
330
1F
100
AcDbEntity
  8
0
100
AcDbLine
 10
172.1243428462236
 20
200.207126149754
 30
0.0
 11
172.1243428462236
 21
199.707126149754
 31
0.0
  0
LINE
  5
934
330
1F
100
AcDbEntity
  8
0
100
AcDbLine
 10
172.1243428462236
 20
202.207126149754
 30
0.0
 11
172.1243428462236
 21
201.707126149754
 31
0.0
  0
LINE
  5
935
330
1F
100
AcDbEntity
  8
0
100
AcDbLine
 10
172.6243428462236
 20
199.707126149754
 30
0.0
 11
172.6243428462236
 21
200.207126149754
 31
0.0
  0
LINE
  5
936
330
1F
100
AcDbEntity
  8
0
100
AcDbLine
 10
172.2843428462234
 20
200.0471781497537
 30
0.0
 11
172.2843428462234
 21
199.8670741497535
 31
0.0
  0
LINE
  5
937
330
1F
100
AcDbEntity
  8
0
100
AcDbLine
 10
172.2843428462234
 20
199.8670741497535
 30
0.0
 11
172.3743428462236
 21
199.8670741497535
 31
0.0
  0
LINE
  5
938
330
1F
100
AcDbEntity
  8
0
100
AcDbLine
 10
172.2843428462234
 20
199.8670741497535
 30
0.0
 11
172.3743428462236
 21
199.8670741497535
 31
0.0
  0
LINE
  5
939
330
1F
100
AcDbEntity
  8
0
100
AcDbLine
 10
172.2843428462234
 20
200.0471781497537
 30
0.0
 11
172.3743428462236
 21
200.0471781497537
 31
0.0
  0
LINE
  5
93A
330
1F
100
AcDbEntity
  8
0
100
AcDbLine
 10
172.4643428462236
 20
200.0471781497537
 30
0.0
 11
172.3743428462236
 21
200.0471781497537
 31
0.0
  0
LINE
  5
93B
330
1F
100
AcDbEntity
  8
0
100
AcDbLine
 10
172.4643428462236
 20
199.8670741497535
 30
0.0
 11
172.3743428462236
 21
199.8670741497535
 31
0.0
  0
LINE
  5
93C
330
1F
100
AcDbEntity
  8
0
100
AcDbLine
 10
172.4643428462236
 20
199.8670741497535
 30
0.0
 11
172.3743428462236
 21
199.8670741497535
 31
0.0
  0
LINE
  5
93D
330
1F
100
AcDbEntity
  8
0
100
AcDbLine
 10
172.4643428462236
 20
200.0471781497537
 30
0.0
 11
172.4643428462236
 21
199.8670741497535
 31
0.0
  0
LINE
  5
93E
330
1F
100
AcDbEntity
  8
0
100
AcDbLine
 10
172.6243428462236
 20
201.707126149754
 30
0.0
 11
172.6243428462236
 21
202.207126149754
 31
0.0
  0
LINE
  5
93F
330
1F
100
AcDbEntity
  8
0
100
AcDbLine
 10
172.2843428462234
 20
202.0471781497536
 30
0.0
 11
172.2843428462234
 21
201.8670741497535
 31
0.0
  0
LINE
  5
940
330
1F
100
AcDbEntity
  8
0
100
AcDbLine
 10
172.2843428462234
 20
201.8670741497535
 30
0.0
 11
172.3743428462236
 21
201.8670741497535
 31
0.0
  0
LINE
  5
941
330
1F
100
AcDbEntity
  8
0
100
AcDbLine
 10
172.2843428462234
 20
201.8670741497535
 30
0.0
 11
172.3743428462236
 21
201.8670741497535
 31
0.0
  0
LINE
  5
942
330
1F
100
AcDbEntity
  8
0
100
AcDbLine
 10
172.2843428462234
 20
202.0471781497536
 30
0.0
 11
172.3743428462236
 21
202.0471781497536
 31
0.0
  0
LINE
  5
943
330
1F
100
AcDbEntity
  8
0
100
AcDbLine
 10
172.4643428462236
 20
202.0471781497536
 30
0.0
 11
172.3743428462236
 21
202.0471781497536
 31
0.0
  0
LINE
  5
944
330
1F
100
AcDbEntity
  8
0
100
AcDbLine
 10
172.4643428462236
 20
201.8670741497535
 30
0.0
 11
172.3743428462236
 21
201.8670741497535
 31
0.0
  0
LINE
  5
945
330
1F
100
AcDbEntity
  8
0
100
AcDbLine
 10
172.4643428462236
 20
201.8670741497535
 30
0.0
 11
172.3743428462236
 21
201.8670741497535
 31
0.0
  0
LINE
  5
946
330
1F
100
AcDbEntity
  8
0
100
AcDbLine
 10
172.4643428462236
 20
202.0471781497536
 30
0.0
 11
172.4643428462236
 21
201.8670741497535
 31
0.0
  0
LINE
  5
947
330
1F
100
AcDbEntity
  8
0
100
AcDbLine
 10
170.1243428462236
 20
203.707126149754
 30
0.0
 11
170.6243428462236
 21
203.707126149754
 31
0.0
  0
LINE
  5
948
330
1F
100
AcDbEntity
  8
0
100
AcDbLine
 10
170.1243428462236
 20
204.207126149754
 30
0.0
 11
170.6243428462236
 21
204.207126149754
 31
0.0
  0
LINE
  5
949
330
1F
100
AcDbEntity
  8
0
100
AcDbLine
 10
170.4643428462236
 20
204.0471781497536
 30
0.0
 11
170.4643428462236
 21
203.8670741497535
 31
0.0
  0
LINE
  5
94A
330
1F
100
AcDbEntity
  8
0
100
AcDbLine
 10
170.4643428462236
 20
203.8670741497535
 30
0.0
 11
170.3743428462236
 21
203.8670741497535
 31
0.0
  0
LINE
  5
94B
330
1F
100
AcDbEntity
  8
0
100
AcDbLine
 10
170.4643428462236
 20
203.8670741497535
 30
0.0
 11
170.3743428462236
 21
203.8670741497535
 31
0.0
  0
LINE
  5
94C
330
1F
100
AcDbEntity
  8
0
100
AcDbLine
 10
170.4643428462236
 20
204.0471781497536
 30
0.0
 11
170.3743428462236
 21
204.0471781497536
 31
0.0
  0
LINE
  5
94D
330
1F
100
AcDbEntity
  8
0
100
AcDbLine
 10
170.2843428462234
 20
204.0471781497536
 30
0.0
 11
170.3743428462236
 21
204.0471781497536
 31
0.0
  0
LINE
  5
94E
330
1F
100
AcDbEntity
  8
0
100
AcDbLine
 10
170.2843428462234
 20
203.8670741497535
 30
0.0
 11
170.3743428462236
 21
203.8670741497535
 31
0.0
  0
LINE
  5
94F
330
1F
100
AcDbEntity
  8
0
100
AcDbLine
 10
170.2843428462234
 20
203.8670741497535
 30
0.0
 11
170.3743428462236
 21
203.8670741497535
 31
0.0
  0
LINE
  5
950
330
1F
100
AcDbEntity
  8
0
100
AcDbLine
 10
170.2843428462234
 20
204.0471781497536
 30
0.0
 11
170.2843428462234
 21
203.8670741497535
 31
0.0
  0
LINE
  5
951
330
1F
100
AcDbEntity
  8
0
100
AcDbLine
 10
170.6243428462236
 20
203.707126149754
 30
0.0
 11
170.6243428462236
 21
204.207126149754
 31
0.0
  0
LINE
  5
952
330
1F
100
AcDbEntity
  8
0
100
AcDbLine
 10
170.1243428462236
 20
204.207126149754
 30
0.0
 11
170.1243428462236
 21
203.707126149754
 31
0.0
  0
LINE
  5
953
330
1F
100
AcDbEntity
  8
0
100
AcDbLine
 10
170.2843428462234
 20
200.0471781497537
 30
0.0
 11
170.2843428462234
 21
199.8670741497535
 31
0.0
  0
LINE
  5
954
330
1F
100
AcDbEntity
  8
0
100
AcDbLine
 10
170.1243428462236
 20
200.207126149754
 30
0.0
 11
170.6243428462236
 21
200.207126149754
 31
0.0
  0
LINE
  5
955
330
1F
100
AcDbEntity
  8
0
100
AcDbLine
 10
170.1243428462236
 20
201.707126149754
 30
0.0
 11
170.6243428462236
 21
201.707126149754
 31
0.0
  0
LINE
  5
956
330
1F
100
AcDbEntity
  8
0
100
AcDbLine
 10
170.1243428462236
 20
202.207126149754
 30
0.0
 11
170.6243428462236
 21
202.207126149754
 31
0.0
  0
LINE
  5
957
330
1F
100
AcDbEntity
  8
0
100
AcDbLine
 10
170.4643428462236
 20
202.0471781497536
 30
0.0
 11
170.4643428462236
 21
201.8670741497535
 31
0.0
  0
LINE
  5
958
330
1F
100
AcDbEntity
  8
0
100
AcDbLine
 10
170.4643428462236
 20
201.8670741497535
 30
0.0
 11
170.3743428462236
 21
201.8670741497535
 31
0.0
  0
LINE
  5
959
330
1F
100
AcDbEntity
  8
0
100
AcDbLine
 10
170.4643428462236
 20
201.8670741497535
 30
0.0
 11
170.3743428462236
 21
201.8670741497535
 31
0.0
  0
LINE
  5
95A
330
1F
100
AcDbEntity
  8
0
100
AcDbLine
 10
170.4643428462236
 20
202.0471781497536
 30
0.0
 11
170.3743428462236
 21
202.0471781497536
 31
0.0
  0
LINE
  5
95B
330
1F
100
AcDbEntity
  8
0
100
AcDbLine
 10
170.2843428462234
 20
202.0471781497536
 30
0.0
 11
170.3743428462236
 21
202.0471781497536
 31
0.0
  0
LINE
  5
95C
330
1F
100
AcDbEntity
  8
0
100
AcDbLine
 10
170.2843428462234
 20
201.8670741497535
 30
0.0
 11
170.3743428462236
 21
201.8670741497535
 31
0.0
  0
LINE
  5
95D
330
1F
100
AcDbEntity
  8
0
100
AcDbLine
 10
170.2843428462234
 20
201.8670741497535
 30
0.0
 11
170.3743428462236
 21
201.8670741497535
 31
0.0
  0
LINE
  5
95E
330
1F
100
AcDbEntity
  8
0
100
AcDbLine
 10
170.2843428462234
 20
202.0471781497536
 30
0.0
 11
170.2843428462234
 21
201.8670741497535
 31
0.0
  0
LINE
  5
95F
330
1F
100
AcDbEntity
  8
0
100
AcDbLine
 10
170.6243428462236
 20
201.707126149754
 30
0.0
 11
170.6243428462236
 21
202.207126149754
 31
0.0
  0
LINE
  5
960
330
1F
100
AcDbEntity
  8
0
100
AcDbLine
 10
170.1243428462236
 20
202.207126149754
 30
0.0
 11
170.1243428462236
 21
201.707126149754
 31
0.0
  0
LINE
  5
961
330
1F
100
AcDbEntity
  8
0
100
AcDbLine
 10
170.6243428462236
 20
199.707126149754
 30
0.0
 11
170.6243428462236
 21
200.207126149754
 31
0.0
  0
LINE
  5
962
330
1F
100
AcDbEntity
  8
0
100
AcDbLine
 10
170.1243428462236
 20
200.207126149754
 30
0.0
 11
170.1243428462236
 21
199.707126149754
 31
0.0
  0
LINE
  5
963
330
1F
100
AcDbEntity
  8
0
100
AcDbLine
 10
170.1243428462236
 20
199.707126149754
 30
0.0
 11
170.6243428462236
 21
199.707126149754
 31
0.0
  0
LINE
  5
964
330
1F
100
AcDbEntity
  8
0
100
AcDbLine
 10
170.4643428462236
 20
200.0471781497537
 30
0.0
 11
170.4643428462236
 21
199.8670741497535
 31
0.0
  0
LINE
  5
965
330
1F
100
AcDbEntity
  8
0
100
AcDbLine
 10
170.4643428462236
 20
199.8670741497535
 30
0.0
 11
170.3743428462236
 21
199.8670741497535
 31
0.0
  0
LINE
  5
966
330
1F
100
AcDbEntity
  8
0
100
AcDbLine
 10
170.4643428462236
 20
199.8670741497535
 30
0.0
 11
170.3743428462236
 21
199.8670741497535
 31
0.0
  0
LINE
  5
967
330
1F
100
AcDbEntity
  8
0
100
AcDbLine
 10
170.4643428462236
 20
200.0471781497537
 30
0.0
 11
170.3743428462236
 21
200.0471781497537
 31
0.0
  0
LINE
  5
968
330
1F
100
AcDbEntity
  8
0
100
AcDbLine
 10
170.2843428462234
 20
200.0471781497537
 30
0.0
 11
170.3743428462236
 21
200.0471781497537
 31
0.0
  0
LINE
  5
969
330
1F
100
AcDbEntity
  8
0
100
AcDbLine
 10
170.2843428462234
 20
199.8670741497535
 30
0.0
 11
170.3743428462236
 21
199.8670741497535
 31
0.0
  0
LINE
  5
96A
330
1F
100
AcDbEntity
  8
0
100
AcDbLine
 10
170.2843428462234
 20
199.8670741497535
 30
0.0
 11
170.3743428462236
 21
199.8670741497535
 31
0.0
  0
LINE
  5
96B
330
1F
100
AcDbEntity
  8
0
100
AcDbLine
 10
168.8743428462236
 20
210.0771114907007
 30
0.0
 11
173.8743428462236
 21
210.0771114907007
 31
0.0
  0
LINE
  5
96C
330
1F
100
AcDbEntity
  8
0
100
AcDbLine
 10
172.1243428462236
 20
208.207126149754
 30
0.0
 11
172.6243428462236
 21
208.207126149754
 31
0.0
  0
LINE
  5
96D
330
1F
100
AcDbEntity
  8
0
100
AcDbLine
 10
172.1243428462236
 20
207.707126149754
 30
0.0
 11
172.6243428462236
 21
207.707126149754
 31
0.0
  0
LINE
  5
96E
330
1F
100
AcDbEntity
  8
0
100
AcDbLine
 10
172.1243428462236
 20
208.207126149754
 30
0.0
 11
172.1243428462236
 21
207.707126149754
 31
0.0
  0
LINE
  5
96F
330
1F
100
AcDbEntity
  8
0
100
AcDbLine
 10
172.6243428462236
 20
207.707126149754
 30
0.0
 11
172.6243428462236
 21
208.207126149754
 31
0.0
  0
LINE
  5
970
330
1F
100
AcDbEntity
  8
0
100
AcDbLine
 10
172.4643428462236
 20
208.0471781497536
 30
0.0
 11
172.4643428462236
 21
207.8670741497535
 31
0.0
  0
LINE
  5
971
330
1F
100
AcDbEntity
  8
0
100
AcDbLine
 10
172.2843428462234
 20
208.0471781497536
 30
0.0
 11
172.2843428462234
 21
207.8670741497535
 31
0.0
  0
LINE
  5
972
330
1F
100
AcDbEntity
  8
0
100
AcDbLine
 10
172.4643428462236
 20
208.0471781497536
 30
0.0
 11
172.3743428462236
 21
208.0471781497536
 31
0.0
  0
LINE
  5
973
330
1F
100
AcDbEntity
  8
0
100
AcDbLine
 10
172.2843428462234
 20
208.0471781497536
 30
0.0
 11
172.3743428462236
 21
208.0471781497536
 31
0.0
  0
LINE
  5
974
330
1F
100
AcDbEntity
  8
0
100
AcDbLine
 10
172.4643428462236
 20
207.8670741497535
 30
0.0
 11
172.3743428462236
 21
207.8670741497535
 31
0.0
  0
LINE
  5
975
330
1F
100
AcDbEntity
  8
0
100
AcDbLine
 10
172.4643428462236
 20
207.8670741497535
 30
0.0
 11
172.3743428462236
 21
207.8670741497535
 31
0.0
  0
LINE
  5
976
330
1F
100
AcDbEntity
  8
0
100
AcDbLine
 10
172.2843428462234
 20
207.8670741497535
 30
0.0
 11
172.3743428462236
 21
207.8670741497535
 31
0.0
  0
LINE
  5
977
330
1F
100
AcDbEntity
  8
0
100
AcDbLine
 10
172.2843428462234
 20
207.8670741497535
 30
0.0
 11
172.3743428462236
 21
207.8670741497535
 31
0.0
  0
LINE
  5
978
330
1F
100
AcDbEntity
  8
0
100
AcDbLine
 10
170.1243428462236
 20
208.207126149754
 30
0.0
 11
170.1243428462236
 21
207.707126149754
 31
0.0
  0
LINE
  5
979
330
1F
100
AcDbEntity
  8
0
100
AcDbLine
 10
170.6243428462236
 20
207.707126149754
 30
0.0
 11
170.6243428462236
 21
208.207126149754
 31
0.0
  0
LINE
  5
97A
330
1F
100
AcDbEntity
  8
0
100
AcDbLine
 10
170.2843428462234
 20
208.0471781497536
 30
0.0
 11
170.2843428462234
 21
207.8670741497535
 31
0.0
  0
LINE
  5
97B
330
1F
100
AcDbEntity
  8
0
100
AcDbLine
 10
170.4643428462236
 20
208.0471781497536
 30
0.0
 11
170.4643428462236
 21
207.8670741497535
 31
0.0
  0
LINE
  5
97C
330
1F
100
AcDbEntity
  8
0
100
AcDbLine
 10
170.2843428462234
 20
208.0471781497536
 30
0.0
 11
170.3743428462236
 21
208.0471781497536
 31
0.0
  0
LINE
  5
97D
330
1F
100
AcDbEntity
  8
0
100
AcDbLine
 10
170.4643428462236
 20
208.0471781497536
 30
0.0
 11
170.3743428462236
 21
208.0471781497536
 31
0.0
  0
LINE
  5
97E
330
1F
100
AcDbEntity
  8
0
100
AcDbLine
 10
170.1243428462236
 20
208.207126149754
 30
0.0
 11
170.6243428462236
 21
208.207126149754
 31
0.0
  0
LINE
  5
97F
330
1F
100
AcDbEntity
  8
0
100
AcDbLine
 10
170.2843428462234
 20
207.8670741497535
 30
0.0
 11
170.3743428462236
 21
207.8670741497535
 31
0.0
  0
LINE
  5
980
330
1F
100
AcDbEntity
  8
0
100
AcDbLine
 10
170.2843428462234
 20
207.8670741497535
 30
0.0
 11
170.3743428462236
 21
207.8670741497535
 31
0.0
  0
LINE
  5
981
330
1F
100
AcDbEntity
  8
0
100
AcDbLine
 10
170.4643428462236
 20
207.8670741497535
 30
0.0
 11
170.3743428462236
 21
207.8670741497535
 31
0.0
  0
LINE
  5
982
330
1F
100
AcDbEntity
  8
0
100
AcDbLine
 10
170.4643428462236
 20
207.8670741497535
 30
0.0
 11
170.3743428462236
 21
207.8670741497535
 31
0.0
  0
LINE
  5
983
330
1F
100
AcDbEntity
  8
0
100
AcDbLine
 10
170.1243428462236
 20
207.707126149754
 30
0.0
 11
170.6243428462236
 21
207.707126149754
 31
0.0
  0
LINE
  5
984
330
1F
100
AcDbEntity
  8
0
100
AcDbLine
 10
167.1356898462236
 20
219.7506731497536
 30
0.0
 11
167.5730448462236
 21
219.3693011497539
 31
0.0
  0
LINE
  5
985
330
1F
100
AcDbEntity
  8
0
100
AcDbLine
 10
167.5735618462234
 20
220.2093871497538
 30
0.0
 11
168.1661188462236
 21
220.2093871497538
 31
0.0
  0
LINE
  5
986
330
1F
100
AcDbEntity
  8
0
100
AcDbLine
 10
167.5735618462234
 20
221.1903781497539
 30
0.0
 11
167.5735618462234
 21
220.2093871497538
 31
0.0
  0
LINE
  5
987
330
1F
100
AcDbEntity
  8
0
100
AcDbLine
 10
168.1661188462236
 20
221.1903781497539
 30
0.0
 11
167.5735618462234
 21
221.1903781497539
 31
0.0
  0
LINE
  5
988
330
1F
100
AcDbEntity
  8
0
100
AcDbLine
 10
168.1661188462236
 20
220.2093871497538
 30
0.0
 11
168.1661188462236
 21
221.1903781497539
 31
0.0
  0
LINE
  5
989
330
1F
100
AcDbEntity
  8
0
100
AcDbLine
 10
167.1356898462236
 20
220.2093871497538
 30
0.0
 11
168.6036458462235
 21
220.2093871497538
 31
0.0
  0
LINE
  5
98A
330
1F
100
AcDbEntity
  8
0
100
AcDbLine
 10
168.6036458462235
 20
219.7506731497536
 30
0.0
 11
168.1661188462236
 21
219.3693011497539
 31
0.0
  0
LINE
  5
98B
330
1F
100
AcDbEntity
  8
0
100
AcDbLine
 10
168.8857988462235
 20
220.2446991497536
 30
0.0
 11
169.3233258462236
 21
219.8636721497536
 31
0.0
  0
LINE
  5
98C
330
1F
100
AcDbEntity
  8
0
100
AcDbLine
 10
170.3537538462236
 20
220.2446991497536
 30
0.0
 11
169.9158828462236
 21
219.8636721497536
 31
0.0
  0
LINE
  5
98D
330
1F
100
AcDbEntity
  8
0
100
AcDbLine
 10
169.9158828462236
 20
218.8825091497538
 30
0.0
 11
169.3233258462236
 21
218.8825091497538
 31
0.0
  0
LINE
  5
98E
330
1F
100
AcDbEntity
  8
0
100
AcDbLine
 10
169.9158828462236
 20
219.8636721497536
 30
0.0
 11
169.9158828462236
 21
218.8825091497538
 31
0.0
  0
LINE
  5
98F
330
1F
100
AcDbEntity
  8
0
100
AcDbLine
 10
169.3233258462236
 20
219.8636721497536
 30
0.0
 11
169.9158828462236
 21
219.8636721497536
 31
0.0
  0
LINE
  5
990
330
1F
100
AcDbEntity
  8
0
100
AcDbLine
 10
169.3233258462236
 20
218.8825091497538
 30
0.0
 11
169.3233258462236
 21
219.8636721497536
 31
0.0
  0
LINE
  5
991
330
1F
100
AcDbEntity
  8
0
100
AcDbLine
 10
170.3537538462236
 20
218.8825091497538
 30
0.0
 11
168.8857988462235
 21
218.8825091497538
 31
0.0
  0
LINE
  5
992
330
1F
100
AcDbEntity
  8
0
100
AcDbLine
 10
170.3537538462236
 20
220.2446991497536
 30
0.0
 11
170.3537538462236
 21
218.8825091497538
 31
0.0
  0
LINE
  5
993
330
1F
100
AcDbEntity
  8
0
100
AcDbLine
 10
168.8857988462235
 20
220.2446991497536
 30
0.0
 11
170.3537538462236
 21
220.2446991497536
 31
0.0
  0
LINE
  5
994
330
1F
100
AcDbEntity
  8
0
100
AcDbLine
 10
168.8857988462235
 20
218.8825091497538
 30
0.0
 11
168.8857988462235
 21
220.2446991497536
 31
0.0
  0
LINE
  5
995
330
1F
100
AcDbEntity
  8
0
100
AcDbLine
 10
168.8857988462235
 20
217.054885149754
 30
0.0
 11
169.3233258462236
 21
217.4357411497537
 31
0.0
  0
LINE
  5
996
330
1F
100
AcDbEntity
  8
0
100
AcDbLine
 10
170.3537538462236
 20
217.054885149754
 30
0.0
 11
169.9158828462236
 21
217.4357411497537
 31
0.0
  0
LINE
  5
997
330
1F
100
AcDbEntity
  8
0
100
AcDbLine
 10
167.1356898462236
 20
215.6644451497536
 30
0.0
 11
168.6036458462235
 21
215.6644451497536
 31
0.0
  0
LINE
  5
998
330
1F
100
AcDbEntity
  8
0
100
AcDbLine
 10
167.1356898462236
 20
217.0266361497538
 30
0.0
 11
167.1356898462236
 21
215.6644451497536
 31
0.0
  0
LINE
  5
999
330
1F
100
AcDbEntity
  8
0
100
AcDbLine
 10
168.6036458462235
 20
217.0266361497538
 30
0.0
 11
167.1356898462236
 21
217.0266361497538
 31
0.0
  0
LINE
  5
99A
330
1F
100
AcDbEntity
  8
0
100
AcDbLine
 10
168.6036458462235
 20
215.6644451497536
 30
0.0
 11
168.6036458462235
 21
217.0266361497538
 31
0.0
  0
LINE
  5
99B
330
1F
100
AcDbEntity
  8
0
100
AcDbLine
 10
169.3233258462236
 20
217.4357411497537
 30
0.0
 11
169.9158828462236
 21
217.4357411497537
 31
0.0
  0
LINE
  5
99C
330
1F
100
AcDbEntity
  8
0
100
AcDbLine
 10
169.3233258462236
 20
218.4169041497536
 30
0.0
 11
169.3233258462236
 21
217.4357411497537
 31
0.0
  0
LINE
  5
99D
330
1F
100
AcDbEntity
  8
0
100
AcDbLine
 10
169.9158828462236
 20
218.4169041497536
 30
0.0
 11
169.3233258462236
 21
218.4169041497536
 31
0.0
  0
LINE
  5
99E
330
1F
100
AcDbEntity
  8
0
100
AcDbLine
 10
169.9158828462236
 20
217.4357411497537
 30
0.0
 11
169.9158828462236
 21
218.4169041497536
 31
0.0
  0
LINE
  5
99F
330
1F
100
AcDbEntity
  8
0
100
AcDbLine
 10
168.8857988462235
 20
217.054885149754
 30
0.0
 11
170.3537538462236
 21
217.054885149754
 31
0.0
  0
LINE
  5
9A0
330
1F
100
AcDbEntity
  8
0
100
AcDbLine
 10
168.8857988462235
 20
218.4169041497536
 30
0.0
 11
168.8857988462235
 21
217.054885149754
 31
0.0
  0
LINE
  5
9A1
330
1F
100
AcDbEntity
  8
0
100
AcDbLine
 10
170.3537538462236
 20
218.4169041497536
 30
0.0
 11
168.8857988462235
 21
218.4169041497536
 31
0.0
  0
LINE
  5
9A2
330
1F
100
AcDbEntity
  8
0
100
AcDbLine
 10
170.3537538462236
 20
217.054885149754
 30
0.0
 11
170.3537538462236
 21
218.4169041497536
 31
0.0
  0
LINE
  5
9A3
330
1F
100
AcDbEntity
  8
0
100
AcDbLine
 10
167.1356898462236
 20
215.6644451497536
 30
0.0
 11
167.5730448462236
 21
216.0454721497535
 31
0.0
  0
LINE
  5
9A4
330
1F
100
AcDbEntity
  8
0
100
AcDbLine
 10
168.6036458462235
 20
215.6644451497536
 30
0.0
 11
168.1657738462235
 21
216.0454721497535
 31
0.0
  0
LINE
  5
9A5
330
1F
100
AcDbEntity
  8
0
100
AcDbLine
 10
167.5730448462236
 20
216.0454721497535
 30
0.0
 11
168.1657738462235
 21
216.0454721497535
 31
0.0
  0
LINE
  5
9A6
330
1F
100
AcDbEntity
  8
0
100
AcDbLine
 10
167.5730448462236
 20
217.0266361497538
 30
0.0
 11
167.5730448462236
 21
216.0454721497535
 31
0.0
  0
LINE
  5
9A7
330
1F
100
AcDbEntity
  8
0
100
AcDbLine
 10
168.1657738462235
 20
217.0266361497538
 30
0.0
 11
167.5730448462236
 21
217.0266361497538
 31
0.0
  0
LINE
  5
9A8
330
1F
100
AcDbEntity
  8
0
100
AcDbLine
 10
168.1657738462235
 20
216.0454721497535
 30
0.0
 11
168.1657738462235
 21
217.0266361497538
 31
0.0
  0
LINE
  5
9A9
330
1F
100
AcDbEntity
  8
0
100
AcDbLine
 10
167.5735618462234
 20
218.3886541497536
 30
0.0
 11
168.1661188462236
 21
218.3886541497536
 31
0.0
  0
LINE
  5
9AA
330
1F
100
AcDbEntity
  8
0
100
AcDbLine
 10
167.5735618462234
 20
219.3696451497536
 30
0.0
 11
167.5735618462234
 21
218.3886541497536
 31
0.0
  0
LINE
  5
9AB
330
1F
100
AcDbEntity
  8
0
100
AcDbLine
 10
168.1661188462236
 20
219.3696451497536
 30
0.0
 11
167.5735618462234
 21
219.3696451497536
 31
0.0
  0
LINE
  5
9AC
330
1F
100
AcDbEntity
  8
0
100
AcDbLine
 10
168.1661188462236
 20
218.3886541497536
 30
0.0
 11
168.1661188462236
 21
219.3696451497536
 31
0.0
  0
LINE
  5
9AD
330
1F
100
AcDbEntity
  8
0
100
AcDbLine
 10
167.1356898462236
 20
218.3886541497536
 30
0.0
 11
168.6036458462235
 21
218.3886541497536
 31
0.0
  0
LINE
  5
9AE
330
1F
100
AcDbEntity
  8
0
100
AcDbLine
 10
167.1356898462236
 20
219.7506731497536
 30
0.0
 11
167.1356898462236
 21
218.3886541497536
 31
0.0
  0
LINE
  5
9AF
330
1F
100
AcDbEntity
  8
0
100
AcDbLine
 10
168.6036458462235
 20
219.7506731497536
 30
0.0
 11
167.1356898462236
 21
219.7506731497536
 31
0.0
  0
LINE
  5
9B0
330
1F
100
AcDbEntity
  8
0
100
AcDbLine
 10
168.6036458462235
 20
218.3886541497536
 30
0.0
 11
168.6036458462235
 21
219.7506731497536
 31
0.0
  0
LINE
  5
9B1
330
1F
100
AcDbEntity
  8
0
100
AcDbLine
 10
168.6036458462235
 20
221.5714061497535
 30
0.0
 11
168.1661188462236
 21
221.1900341497536
 31
0.0
  0
LINE
  5
9B2
330
1F
100
AcDbEntity
  8
0
100
AcDbLine
 10
167.1356898462236
 20
221.5714061497535
 30
0.0
 11
167.5730448462236
 21
221.1900341497536
 31
0.0
  0
LINE
  5
9B3
330
1F
100
AcDbEntity
  8
0
100
AcDbLine
 10
167.1356898462236
 20
221.5714061497535
 30
0.0
 11
167.1356898462236
 21
220.2093871497538
 31
0.0
  0
LINE
  5
9B4
330
1F
100
AcDbEntity
  8
0
100
AcDbLine
 10
168.6036458462235
 20
220.2093871497538
 30
0.0
 11
168.6036458462235
 21
221.5714061497535
 31
0.0
  0
LINE
  5
9B5
330
1F
100
AcDbEntity
  8
0
100
AcDbLine
 10
168.6036458462235
 20
221.5714061497535
 30
0.0
 11
167.1356898462236
 21
221.5714061497535
 31
0.0
  0
LINE
  5
9B6
330
1F
100
AcDbEntity
  8
0
100
AcDbLine
 10
166.8743428462236
 20
226.4071261497537
 30
0.0
 11
173.8743428462236
 21
226.4071261497537
 31
0.0
  0
LINE
  5
9B7
330
1F
100
AcDbEntity
  8
0
100
AcDbLine
 10
166.8743428462236
 20
231.4071261497538
 30
0.0
 11
173.8743428462236
 21
231.4071261497538
 31
0.0
  0
LINE
  5
9B8
330
1F
100
AcDbEntity
  8
0
100
AcDbLine
 10
161.0743428462235
 20
225.6571261497537
 30
0.0
 11
173.8743428462236
 21
225.6571261497537
 31
0.0
  0
LINE
  5
9B9
330
1F
100
AcDbEntity
  8
0
100
AcDbLine
 10
166.2243428462234
 20
232.3571261497539
 30
0.0
 11
173.6243428462236
 21
232.3571261497538
 31
0.0
  0
LINE
  5
9BB
330
1F
100
AcDbEntity
  8
0
100
AcDbLine
 10
166.2243428462234
 20
232.3571261497538
 30
0.0
 11
173.6243428462236
 21
232.3571261497538
 31
0.0
  0
CIRCLE
  5
9BE
330
1F
100
AcDbEntity
  8
0
100
AcDbCircle
 10
169.9243428462235
 20
236.1071261497538
 30
0.0
 40
3.7
  0
CIRCLE
  5
9BF
330
1F
100
AcDbEntity
  8
0
100
AcDbCircle
 10
169.9243428462235
 20
236.1071261497538
 30
0.0
 40
3.7
  0
ARC
  5
9C0
330
1F
100
AcDbEntity
  8
0
100
AcDbCircle
 10
169.9243428462235
 20
236.1071261497538
 30
0.0
 40
3.69999999999993
100
AcDbArc
 50
0.0
 51
180.0
  0
LINE
  5
9C1
330
1F
100
AcDbEntity
  8
0
100
AcDbLine
 10
166.8743428462236
 20
226.4071261497537
 30
0.0
 11
166.8743428462236
 21
231.4071261497538
 31
0.0
  0
LINE
  5
9C2
330
1F
100
AcDbEntity
  8
0
100
AcDbLine
 10
160.5743428462236
 20
226.1331391497538
 30
0.0
 11
166.2243428462236
 21
226.1331391497538
 31
0.0
  0
LINE
  5
9C3
330
1F
100
AcDbEntity
  8
0
100
AcDbLine
 10
166.2243428462236
 20
226.1331391497538
 30
0.0
 11
166.2243428462236
 21
231.4071261497538
 31
0.0
  0
LINE
  5
9C4
330
1F
100
AcDbEntity
  8
0
100
AcDbLine
 10
166.2243428462236
 20
236.1071261497538
 30
0.0
 11
166.2243428462236
 21
231.4071261497538
 31
0.0
  0
LINE
  5
9C5
330
1F
100
AcDbEntity
  8
0
100
AcDbLine
 10
169.2951778462235
 20
230.4071261497537
 30
0.0
 11
169.2951778462235
 21
227.4071261497538
 31
0.0
  0
LINE
  5
9C6
330
1F
100
AcDbEntity
  8
0
100
AcDbLine
 10
171.2600998462235
 20
230.4071261497537
 30
0.0
 11
171.2600998462235
 21
227.4071261497538
 31
0.0
  0
LINE
  5
9C7
330
1F
100
AcDbEntity
  8
0
100
AcDbLine
 10
169.2951778462235
 20
230.4071261497537
 30
0.0
 11
171.2600998462235
 21
230.4071261497537
 31
0.0
  0
LINE
  5
9C8
330
1F
100
AcDbEntity
  8
0
100
AcDbLine
 10
169.2951778462235
 20
227.4071261497538
 30
0.0
 11
171.2600998462235
 21
227.4071261497538
 31
0.0
  0
LINE
  5
9C9
330
1F
100
AcDbEntity
  8
0
100
AcDbLine
 10
173.8743428462236
 20
231.4071261497538
 30
0.0
 11
173.8743428462236
 21
226.4071261497537
 31
0.0
  0
LINE
  5
9CA
330
1F
100
AcDbEntity
  8
0
100
AcDbLine
 10
168.8924138462235
 20
235.9460751497537
 30
0.0
 11
171.7259488462236
 21
235.9460751497537
 31
0.0
  0
LINE
  5
9CB
330
1F
100
AcDbEntity
  8
0
100
AcDbLine
 10
168.0169058462236
 20
236.1071261497538
 30
0.0
 11
168.8924138462235
 21
235.5269361497537
 31
0.0
  0
LINE
  5
9CC
330
1F
100
AcDbEntity
  8
0
100
AcDbLine
 10
168.8924138462235
 20
235.9460751497537
 30
0.0
 11
168.8924138462235
 21
235.5269361497537
 31
0.0
  0
LINE
  5
9CD
330
1F
100
AcDbEntity
  8
0
100
AcDbLine
 10
173.6243428462236
 20
231.8071261497539
 30
0.0
 11
174.3743428462236
 21
231.8071261497539
 31
0.0
  0
LINE
  5
9CE
330
1F
100
AcDbEntity
  8
0
100
AcDbLine
 10
173.4743428462236
 20
235.1172613453756
 30
0.0
 11
173.4743428462236
 21
232.3571261497538
 31
0.0
  0
LINE
  5
9CF
330
1F
100
AcDbEntity
  8
0
100
AcDbLine
 10
173.6243428462236
 20
233.2671261497539
 30
0.0
 11
173.4743428462236
 21
233.2671261497539
 31
0.0
  0
LINE
  5
9D0
330
1F
100
AcDbEntity
  8
0
100
AcDbLine
 10
173.6243428462236
 20
233.8671261497541
 30
0.0
 11
173.4743428462236
 21
233.8671261497538
 31
0.0
  0
LINE
  5
9D6
330
1F
100
AcDbEntity
  8
0
100
AcDbLine
 10
168.0169058138694
 20
236.1071261497538
 30
0.0
 11
168.8924143063781
 21
235.526936117528
 31
0.0
  0
LINE
  5
9D7
330
1F
100
AcDbEntity
  8
0
100
AcDbLine
 10
168.8924143063781
 20
235.9460756735908
 30
0.0
 11
168.8924143063781
 21
235.526936117528
 31
0.0
  0
LINE
  5
9D9
330
1F
100
AcDbEntity
  8
0
100
AcDbLine
 10
168.8924143063781
 20
235.9460756735908
 30
0.0
 11
171.7259487544129
 21
235.9460756735908
 31
0.0
  0
LINE
  5
9DA
330
1F
100
AcDbEntity
  8
0
100
AcDbLine
 10
173.6243428462236
 20
236.1071261497538
 30
0.0
 11
173.6243428462236
 21
231.8071261497539
 31
0.0
  0
LINE
  5
9E1
330
1F
100
AcDbEntity
  8
0
100
AcDbLine
 10
171.7259487544129
 20
236.2681766259131
 30
0.0
 11
171.7259487544129
 21
235.9460756735908
 31
0.0
  0
LINE
  5
9E2
330
1F
100
AcDbEntity
  8
0
100
AcDbLine
 10
168.8924143063781
 20
236.6873161819796
 30
0.0
 11
168.8924143063781
 21
236.2681766259131
 31
0.0
  0
LINE
  5
9E3
330
1F
100
AcDbEntity
  8
0
100
AcDbLine
 10
168.0169058138694
 20
236.1071261497538
 30
0.0
 11
168.8924143063781
 21
236.6873161819796
 31
0.0
  0
LINE
  5
9E4
330
1F
100
AcDbEntity
  8
0
100
AcDbLine
 10
168.8924143063781
 20
236.2681766259131
 30
0.0
 11
171.7259487544129
 21
236.2681766259131
 31
0.0
  0
CIRCLE
  5
9E6
330
1F
100
AcDbEntity
  8
0
100
AcDbCircle
 10
169.9243428462235
 20
236.1071261497538
 30
0.0
 40
1.907437032355004
  0
LINE
  5
9E7
330
1F
100
AcDbEntity
  8
0
100
AcDbLine
 10
168.8924138462235
 20
236.2681761497539
 30
0.0
 11
171.7259488462236
 21
236.2681761497539
 31
0.0
  0
LINE
  5
9E8
330
1F
100
AcDbEntity
  8
0
100
AcDbLine
 10
168.8924138462235
 20
236.6873161497536
 30
0.0
 11
168.8924138462235
 21
236.2681761497539
 31
0.0
  0
LINE
  5
9E9
330
1F
100
AcDbEntity
  8
0
100
AcDbLine
 10
168.0169058462236
 20
236.1071261497538
 30
0.0
 11
168.8924138462235
 21
236.6873161497536
 31
0.0
  0
LINE
  5
9EA
330
1F
100
AcDbEntity
  8
0
100
AcDbLine
 10
171.7259488462236
 20
236.2681761497539
 30
0.0
 11
171.7259488462236
 21
235.9460751497537
 31
0.0
  0
LINE
  5
9EB
330
1F
100
AcDbEntity
  8
0
100
AcDbLine
 10
175.4743428462238
 20
286.3881381497535
 30
0.0
 11
175.4743428462238
 21
284.7881381497535
 31
0.0
  0
LINE
  5
9EC
330
1F
100
AcDbEntity
  8
0
100
AcDbLine
 10
175.2743428462238
 20
284.2331391497538
 30
0.0
 11
176.8743428462238
 21
284.2331391497538
 31
0.0
  0
LINE
  5
9ED
330
1F
100
AcDbEntity
  8
0
100
AcDbLine
 10
175.4743428462238
 20
286.3881381497535
 30
0.0
 11
176.5743428462238
 21
286.3881381497535
 31
0.0
  0
LINE
  5
9EE
330
1F
100
AcDbEntity
  8
0
100
AcDbLine
 10
175.4743428462238
 20
286.3881381497535
 30
0.0
 11
176.5743428462238
 21
286.3881381497535
 31
0.0
  0
LINE
  5
9EF
330
1F
100
AcDbEntity
  8
0
100
AcDbLine
 10
175.4743428462238
 20
284.7881381497535
 30
0.0
 11
176.5743428462238
 21
284.7881381497535
 31
0.0
  0
LINE
  5
9F0
330
1F
100
AcDbEntity
  8
0
100
AcDbLine
 10
175.4743428462238
 20
284.7881381497535
 30
0.0
 11
176.5743428462238
 21
284.7881381497535
 31
0.0
  0
LINE
  5
9F1
330
1F
100
AcDbEntity
  8
0
100
AcDbLine
 10
176.5743428462238
 20
284.7881381497535
 30
0.0
 11
176.5743428462238
 21
286.3881381497535
 31
0.0
  0
LINE
  5
9F2
330
1F
100
AcDbEntity
  8
0
100
AcDbLine
 10
176.5743428462238
 20
284.7881381497535
 30
0.0
 11
176.5743428462238
 21
286.3881381497535
 31
0.0
  0
LINE
  5
9F3
330
1F
100
AcDbEntity
  8
0
100
AcDbLine
 10
176.5743428462238
 20
284.7881381497535
 30
0.0
 11
176.5743428462238
 21
286.3881381497535
 31
0.0
  0
LINE
  5
9F4
330
1F
100
AcDbEntity
  8
0
100
AcDbLine
 10
175.2743428462238
 20
286.9331391497538
 30
0.0
 11
176.8743428462238
 21
286.9331391497538
 31
0.0
  0
LINE
  5
9F5
330
1F
100
AcDbEntity
  8
0
100
AcDbLine
 10
175.2743428462238
 20
286.9331391497538
 30
0.0
 11
175.2743428462238
 21
284.2331391497538
 31
0.0
  0
LINE
  5
9F6
330
1F
100
AcDbEntity
  8
0
100
AcDbLine
 10
176.8743428462238
 20
284.2331391497538
 30
0.0
 11
176.8743428462238
 21
286.9331391497538
 31
0.0
  0
LINE
  5
9F7
330
1F
100
AcDbEntity
  8
外枠
100
AcDbLine
 10
168.8743428462236
 20
210.0771114907007
 30
0.0
 11
173.8743428462236
 21
210.0771114907007
 31
0.0
  0
LINE
  5
9F8
330
1F
100
AcDbEntity
  8
0
100
AcDbLine
 10
168.8743428462236
 20
192.1771114907009
 30
0.0
 11
173.8743428462236
 21
192.1771114907009
 31
0.0
  0
LINE
  5
9F9
330
1F
100
AcDbEntity
  8
外枠
100
AcDbLine
 10
168.8743428462236
 20
192.1771114907009
 30
0.0
 11
173.8743428462236
 21
192.1771114907009
 31
0.0
  0
LINE
  5
9FA
330
1F
100
AcDbEntity
  8
外枠
100
AcDbLine
 10
173.8743428462236
 20
174.3031381497528
 30
0.0
 11
173.8743428462236
 21
143.8331391497538
 31
0.0
  0
LINE
  5
9FB
330
1F
100
AcDbEntity
  8
外枠
100
AcDbLine
 10
173.8743428462236
 20
184.5031381497516
 30
0.0
 11
173.8743428462236
 21
185.2531381497534
 31
0.0
  0
LINE
  5
9FC
330
1F
100
AcDbEntity
  8
外枠
100
AcDbLine
 10
173.8743428462236
 20
190.2531381497534
 30
0.0
 11
173.8743428462236
 21
192.1771114907009
 31
0.0
  0
LINE
  5
9FD
330
1F
100
AcDbEntity
  8
外枠
100
AcDbLine
 10
173.8743428462236
 20
210.0771114907007
 30
0.0
 11
173.8743428462236
 21
211.6571261497537
 31
0.0
  0
LINE
  5
9FE
330
1F
100
AcDbEntity
  8
外枠
100
AcDbLine
 10
173.8743428462236
 20
225.6571261497537
 30
0.0
 11
173.8743428462236
 21
226.4071261497537
 31
0.0
  0
LINE
  5
9FF
330
1F
100
AcDbEntity
  8
外枠
100
AcDbLine
 10
173.8743428462236
 20
231.4071261497538
 30
0.0
 11
173.8743428462236
 21
231.8071261497539
 31
0.0
  0
LINE
  5
A00
330
1F
100
AcDbEntity
  8
0
 62
     0
100
AcDbLine
 10
169.9743862462266
 20
244.5114441121986
 30
0.0
 11
169.9743862462304
 21
276.8114477121961
 31
0.0
  0
LWPOLYLINE
  5
A01
330
1F
100
AcDbEntity
  8
0
 62
     0
100
AcDbPolyline
 90
        4
 70
     0
 43
0.0
 38
6.483974233579615E+99
 10
168.3043862462265
 20
253.5418381067611
 42
0.0023806128275623
 10
168.4543688354999
 20
253.4838348560441
 10
168.5288795497374
 20
253.4556074221836
 10
168.6043862462276
 20
253.4273799893434
  0
LWPOLYLINE
  5
A02
330
1F
100
AcDbEntity
  8
0
 62
     0
100
AcDbPolyline
 90
        4
 70
     0
 43
0.0
 38
6.483974233579615E+99
 10
168.6043862462276
 20
257.7355118350515
 42
0.0021758545420031
 10
168.4543688354108
 20
257.6790569683162
 10
168.3786039633844
 20
257.6499594721553
 10
168.3043862462265
 20
257.6210537176339
  0
LWPOLYLINE
  5
A03
330
1F
100
AcDbEntity
  8
0
 62
     0
100
AcDbPolyline
 90
        4
 70
     0
 43
0.0
 38
6.483974233579615E+99
 10
168.3043862462265
 20
248.4618381067594
 42
0.0023727238869481
 10
168.4543688354108
 20
248.4038348560789
 10
168.5291718473355
 20
248.375497426985
 10
168.6043862462276
 20
248.3473799893435
  0
LWPOLYLINE
  5
A04
330
1F
100
AcDbEntity
  8
0
 62
     0
100
AcDbPolyline
 90
        4
 70
     0
 43
0.0
 38
6.483974233579615E+99
 10
168.3043862462265
 20
268.7818381067609
 42
0.0023806128392038
 10
168.4543688354999
 20
268.7238348560458
 10
168.5288795497355
 20
268.6956074221853
 10
168.6043862462276
 20
268.6673799893433
  0
LWPOLYLINE
  5
A05
330
1F
100
AcDbEntity
  8
0
 62
     0
100
AcDbPolyline
 90
        4
 70
     0
 43
0.0
 38
6.483974233579615E+99
 10
168.6043862462276
 20
272.9755118350511
 42
0.0021758545422339
 10
168.4543688354108
 20
272.919056968316
 10
168.378604018938
 20
272.889959493641
 10
168.3043862462265
 20
272.8610537176355
  0
LWPOLYLINE
  5
A06
330
1F
100
AcDbEntity
  8
0
 62
     0
100
AcDbPolyline
 90
        4
 70
     0
 43
0.0
 38
6.483974233579615E+99
 10
168.6043862462276
 20
267.8955118350513
 42
0.002175854542198
 10
168.4543688354108
 20
267.839056968316
 10
168.3788518558315
 20
267.8100553426228
 10
168.3043862462265
 20
267.7810537176337
  0
LWPOLYLINE
  5
A07
330
1F
100
AcDbEntity
  8
0
 62
     0
100
AcDbPolyline
 90
        4
 70
     0
 43
0.0
 38
6.483974233579615E+99
 10
168.3043862462265
 20
263.7018381067608
 42
0.0023806133042224
 10
168.4543688354999
 20
263.643834856044
 10
168.5288795497355
 20
263.6156074221853
 10
168.6043862462276
 20
263.5873799893451
  0
LWPOLYLINE
  5
A08
330
1F
100
AcDbEntity
  8
0
 62
     0
100
AcDbPolyline
 90
        4
 70
     0
 43
0.0
 38
6.483974233579615E+99
 10
168.6043862462276
 20
262.8155118350514
 42
0.0021842864522573
 10
168.4543688354108
 20
262.759056968316
 10
168.3786039566686
 20
262.7299594695577
 10
168.3043862462265
 20
262.7010537176356
  0
LWPOLYLINE
  5
A09
330
1F
100
AcDbEntity
  8
0
 62
     0
100
AcDbPolyline
 90
        4
 70
     0
 43
0.0
 38
6.483974233579615E+99
 10
168.3043862462265
 20
258.621838106761
 42
0.0023727238881048
 10
168.4543688354999
 20
258.563834856046
 10
168.5288795497355
 20
258.5356074221854
 10
168.6043862462276
 20
258.5073799893434
  0
LINE
  5
A0A
330
1F
100
AcDbEntity
  8
0
 62
     0
100
AcDbLine
 10
169.9743862462266
 20
261.3614459121963
 30
0.0
 11
169.9743862462266
 21
262.1614459121973
 31
0.0
  0
LINE
  5
A0B
330
1F
100
AcDbEntity
  8
0
 62
     0
100
AcDbLine
 10
161.4012249416803
 20
261.266445912197
 30
0.0
 11
161.874386246228
 21
261.6364459121978
 31
0.0
  0
LINE
  5
A0C
330
1F
100
AcDbEntity
  8
0
 62
     0
100
AcDbLine
 10
162.699386246227
 20
261.6364459121978
 30
0.0
 11
163.0109933890845
 21
261.3054570929798
 31
0.0
  0
LINE
  5
A0D
330
1F
100
AcDbEntity
  8
0
 62
     0
100
AcDbLine
 10
163.0109933890845
 20
261.3054570929798
 30
0.0
 11
163.0109933890845
 21
265.097434731415
 31
0.0
  0
ARC
  5
A0E
330
1F
100
AcDbEntity
  8
0
 62
     0
100
AcDbCircle
 10
166.1043862462275
 20
260.6614459121974
 30
0.0
 40
3.299999999999366
100
AcDbArc
 50
319.25094562257
 51
40.74905437742993
  0
ARC
  5
A0F
330
1F
100
AcDbEntity
  8
0
 62
     0
100
AcDbCircle
 10
166.1043862462275
 20
260.6614459121974
 30
0.0
 40
2.999999999999353
100
AcDbArc
 50
317.1665719339523
 51
42.83342806604767
  0
CIRCLE
  5
A10
330
1F
100
AcDbEntity
  8
0
 62
     0
100
AcDbCircle
 10
166.1043862462275
 20
260.6614459121974
 30
0.0
 40
1.40000000000061
  0
LINE
  5
A11
330
1F
100
AcDbEntity
  8
0
 62
     0
100
AcDbLine
 10
161.374386246228
 20
246.9614459121984
 30
0.0
 11
161.3743862462281
 21
274.3614459121963
 31
0.0
  0
LINE
  5
A12
330
1F
100
AcDbEntity
  8
0
 62
     0
100
AcDbLine
 10
169.9743862462266
 20
254.8814459121968
 30
0.0
 11
169.9743862462266
 21
256.2814459121982
 31
0.0
  0
LINE
  5
A13
330
1F
100
AcDbEntity
  8
0
 62
     0
100
AcDbLine
 10
169.9743862462266
 20
256.2814459121982
 30
0.0
 11
169.9743862462266
 21
257.0814459121974
 31
0.0
  0
LINE
  5
A14
330
1F
100
AcDbEntity
  8
0
 62
     0
100
AcDbLine
 10
169.9743862462266
 20
259.1614459121974
 30
0.0
 11
169.9743862462266
 21
259.9614459121984
 31
0.0
  0
LINE
  5
A15
330
1F
100
AcDbEntity
  8
0
 62
     0
100
AcDbLine
 10
169.9743862462266
 20
257.0814459121974
 30
0.0
 11
169.9743862462266
 21
259.1614459121974
 31
0.0
  0
LINE
  5
A16
330
1F
100
AcDbEntity
  8
0
 62
     0
100
AcDbLine
 10
169.9743862462266
 20
259.9614459121984
 30
0.0
 11
169.9743862462266
 21
261.3614459121963
 31
0.0
  0
LINE
  5
A17
330
1F
100
AcDbEntity
  8
0
 62
     0
100
AcDbLine
 10
169.9743862462266
 20
249.0014459121975
 30
0.0
 11
169.9743862462266
 21
249.8014459121987
 31
0.0
  0
LINE
  5
A18
330
1F
100
AcDbEntity
  8
0
 62
     0
100
AcDbLine
 10
169.9743862462266
 20
251.2014459121965
 30
0.0
 11
169.9743862462266
 21
252.0014459121976
 31
0.0
  0
LINE
  5
A19
330
1F
100
AcDbEntity
  8
0
 62
     0
100
AcDbLine
 10
169.9743862462266
 20
254.0814459121974
 30
0.0
 11
169.9743862462266
 21
254.8814459121968
 31
0.0
  0
LINE
  5
A1A
330
1F
100
AcDbEntity
  8
0
 62
     0
100
AcDbLine
 10
169.9743862462266
 20
252.0014459121976
 30
0.0
 11
169.9743862462266
 21
254.0814459121974
 31
0.0
  0
LINE
  5
A1B
330
1F
100
AcDbEntity
  8
0
 62
     0
100
AcDbLine
 10
169.9743862462266
 20
249.8014459121987
 30
0.0
 11
169.9743862462266
 21
251.2014459121965
 31
0.0
  0
LINE
  5
A1C
330
1F
100
AcDbEntity
  8
0
 62
     0
100
AcDbLine
 10
163.0109933890845
 20
256.1864459121971
 30
0.0
 11
163.0109933890845
 21
254.9764459121979
 31
0.0
  0
LINE
  5
A1D
330
1F
100
AcDbEntity
  8
0
 62
     0
100
AcDbLine
 10
161.4012249416803
 20
256.1864459121971
 30
0.0
 11
161.4012249416803
 21
254.9764459121979
 31
0.0
  0
LINE
  5
A1E
330
1F
100
AcDbEntity
  8
0
 62
     0
100
AcDbLine
 10
166.3364370537958
 20
255.8134967197656
 30
0.0
 11
166.3364370537958
 21
255.3493951046293
 31
0.0
  0
LINE
  5
A1F
330
1F
100
AcDbEntity
  8
0
 62
     0
100
AcDbLine
 10
165.8723354386594
 20
255.8134967197656
 30
0.0
 11
165.8723354386594
 21
255.3493951046293
 31
0.0
  0
LINE
  5
A20
330
1F
100
AcDbEntity
  8
0
 62
     0
100
AcDbLine
 10
165.6043862462276
 20
256.0814459121974
 30
0.0
 11
165.6043862462276
 21
255.0814459121975
 31
0.0
  0
LINE
  5
A21
330
1F
100
AcDbEntity
  8
0
 62
     0
100
AcDbLine
 10
166.6043862462276
 20
255.0814459121975
 30
0.0
 11
166.6043862462276
 21
256.0814459121974
 31
0.0
  0
CIRCLE
  5
A22
330
1F
100
AcDbEntity
  8
0
 62
     0
100
AcDbCircle
 10
166.1043862462275
 20
255.5814459121974
 30
0.0
 40
1.399999999999991
  0
ARC
  5
A23
330
1F
100
AcDbEntity
  8
0
 62
     0
100
AcDbCircle
 10
166.1043862462275
 20
255.5814459121974
 30
0.0
 40
2.999999999999806
100
AcDbArc
 50
317.1665719339523
 51
42.83342806604767
  0
ARC
  5
A24
330
1F
100
AcDbEntity
  8
0
 62
     0
100
AcDbCircle
 10
166.1043862462275
 20
255.5814459121974
 30
0.0
 40
3.299999999999816
100
AcDbArc
 50
319.25094562257
 51
40.74905437742993
  0
LINE
  5
A25
330
1F
100
AcDbEntity
  8
0
 62
     0
100
AcDbLine
 10
161.4012249416803
 20
256.1864459121971
 30
0.0
 11
161.874386246228
 21
256.5564459121977
 31
0.0
  0
LINE
  5
A26
330
1F
100
AcDbEntity
  8
0
 62
     0
100
AcDbLine
 10
163.0109933890845
 20
256.2254570929798
 30
0.0
 11
163.0109933890845
 21
256.1864459121971
 31
0.0
  0
LINE
  5
A27
330
1F
100
AcDbEntity
  8
0
 62
     0
100
AcDbLine
 10
162.699386246227
 20
256.5564459121977
 30
0.0
 11
163.0109933890845
 21
256.2254570929798
 31
0.0
  0
LINE
  5
A28
330
1F
100
AcDbEntity
  8
0
 62
     0
100
AcDbLine
 10
161.874386246228
 20
256.5564459121977
 30
0.0
 11
162.699386246227
 21
256.5564459121977
 31
0.0
  0
LINE
  5
A29
330
1F
100
AcDbEntity
  8
0
 62
     0
100
AcDbLine
 10
163.0109933890845
 20
256.1864459121971
 30
0.0
 11
161.4012249416803
 21
256.1864459121971
 31
0.0
  0
LINE
  5
A2A
330
1F
100
AcDbEntity
  8
0
 62
     0
100
AcDbLine
 10
161.4012249416803
 20
260.0564459121977
 30
0.0
 11
161.874386246228
 21
259.6864459121969
 31
0.0
  0
LINE
  5
A2B
330
1F
100
AcDbEntity
  8
0
 62
     0
100
AcDbLine
 10
163.0109933890845
 20
260.0174347314149
 30
0.0
 11
162.699386246227
 21
259.6864459121969
 31
0.0
  0
LINE
  5
A2C
330
1F
100
AcDbEntity
  8
0
 62
     0
100
AcDbLine
 10
163.0109933890845
 20
260.0564459121977
 30
0.0
 11
163.0109933890845
 21
260.0174347314149
 31
0.0
  0
LINE
  5
A2D
330
1F
100
AcDbEntity
  8
0
 62
     0
100
AcDbLine
 10
161.874386246228
 20
259.6864459121969
 30
0.0
 11
162.699386246227
 21
259.6864459121969
 31
0.0
  0
LINE
  5
A2E
330
1F
100
AcDbEntity
  8
0
 62
     0
100
AcDbLine
 10
161.4012249416803
 20
260.0564459121977
 30
0.0
 11
163.0109933890845
 21
260.0564459121977
 31
0.0
  0
LINE
  5
A2F
330
1F
100
AcDbEntity
  8
0
 62
     0
100
AcDbLine
 10
163.0109933890845
 20
256.2254570929798
 30
0.0
 11
163.0109933890845
 21
260.0174347314149
 31
0.0
  0
LINE
  5
A30
330
1F
100
AcDbEntity
  8
0
 62
     0
100
AcDbLine
 10
161.874386246228
 20
256.5564459121977
 30
0.0
 11
161.874386246228
 21
259.6864459121969
 31
0.0
  0
LINE
  5
A31
330
1F
100
AcDbEntity
  8
0
 62
     0
100
AcDbLine
 10
162.699386246227
 20
256.5564459121977
 30
0.0
 11
162.699386246227
 21
259.6864459121969
 31
0.0
  0
LINE
  5
A32
330
1F
100
AcDbEntity
  8
0
 62
     0
100
AcDbLine
 10
165.8723354386594
 20
255.8134967197656
 30
0.0
 11
165.6043862462276
 21
256.0814459121974
 31
0.0
  0
LINE
  5
A33
330
1F
100
AcDbEntity
  8
0
 62
     0
100
AcDbLine
 10
165.6043862462276
 20
260.1614459121973
 30
0.0
 11
165.8723354386594
 21
260.4293951046274
 31
0.0
  0
LINE
  5
A34
330
1F
100
AcDbEntity
  8
0
 62
     0
100
AcDbLine
 10
166.3364370537958
 20
255.8134967197656
 30
0.0
 11
166.6043862462276
 21
256.0814459121974
 31
0.0
  0
LINE
  5
A35
330
1F
100
AcDbEntity
  8
0
 62
     0
100
AcDbLine
 10
166.3364370537958
 20
260.4293951046274
 30
0.0
 11
166.6043862462276
 21
260.1614459121973
 31
0.0
  0
LINE
  5
A36
330
1F
100
AcDbEntity
  8
0
 62
     0
100
AcDbLine
 10
168.3043862462265
 20
257.6210537176339
 30
0.0
 11
168.3043862462265
 21
258.621838106761
 31
0.0
  0
LINE
  5
A37
330
1F
100
AcDbEntity
  8
0
 62
     0
100
AcDbLine
 10
168.6043862462276
 20
257.7355118350515
 30
0.0
 11
168.6043862462276
 21
258.5073799893434
 31
0.0
  0
LINE
  5
A38
330
1F
100
AcDbEntity
  8
0
 62
     0
100
AcDbLine
 10
166.8543862462276
 20
258.3224078065213
 30
0.0
 11
166.8543862462276
 21
257.9204840178754
 31
0.0
  0
LINE
  5
A39
330
1F
100
AcDbEntity
  8
0
 62
     0
100
AcDbLine
 10
165.8723354386594
 20
255.8134967197656
 30
0.0
 11
166.3364370537958
 21
255.8134967197656
 31
0.0
  0
LINE
  5
A3A
330
1F
100
AcDbEntity
  8
0
 62
     0
100
AcDbLine
 10
165.6043862462276
 20
256.0814459121974
 30
0.0
 11
166.6043862462276
 21
256.0814459121974
 31
0.0
  0
LINE
  5
A3B
330
1F
100
AcDbEntity
  8
0
 62
     0
100
AcDbLine
 10
165.8723354386594
 20
260.4293951046274
 30
0.0
 11
166.3364370537958
 21
260.4293951046274
 31
0.0
  0
LINE
  5
A3C
330
1F
100
AcDbEntity
  8
0
 62
     0
100
AcDbLine
 10
165.6043862462276
 20
260.1614459121973
 30
0.0
 11
166.6043862462276
 21
260.1614459121973
 31
0.0
  0
LINE
  5
A3D
330
1F
100
AcDbEntity
  8
0
 62
     0
100
AcDbLine
 10
166.8543862462276
 20
257.9204840178754
 30
0.0
 11
166.1043862462275
 21
258.1214459121984
 31
0.0
  0
LINE
  5
A3E
330
1F
100
AcDbEntity
  8
0
 62
     0
100
AcDbLine
 10
166.1043862462275
 20
258.1214459121984
 30
0.0
 11
166.8543862462276
 21
258.3224078065213
 31
0.0
  0
LINE
  5
A3F
330
1F
100
AcDbEntity
  8
0
 62
     0
100
AcDbLine
 10
163.0109933890845
 20
261.3054570929798
 30
0.0
 11
163.0109933890845
 21
261.266445912197
 31
0.0
  0
LINE
  5
A40
330
1F
100
AcDbEntity
  8
0
 62
     0
100
AcDbLine
 10
163.0109933890845
 20
261.266445912197
 30
0.0
 11
161.4012249416803
 21
261.266445912197
 31
0.0
  0
LINE
  5
A41
330
1F
100
AcDbEntity
  8
0
 62
     0
100
AcDbLine
 10
165.8723354386594
 20
260.8934967197674
 30
0.0
 11
165.6043862462276
 21
261.1614459121974
 31
0.0
  0
LINE
  5
A42
330
1F
100
AcDbEntity
  8
0
 62
     0
100
AcDbLine
 10
166.3364370537958
 20
260.8934967197674
 30
0.0
 11
166.6043862462276
 21
261.1614459121974
 31
0.0
  0
LINE
  5
A43
330
1F
100
AcDbEntity
  8
0
 62
     0
100
AcDbLine
 10
165.8723354386594
 20
260.8934967197674
 30
0.0
 11
166.3364370537958
 21
260.8934967197674
 31
0.0
  0
LINE
  5
A44
330
1F
100
AcDbEntity
  8
0
 62
     0
100
AcDbLine
 10
165.6043862462276
 20
261.1614459121974
 30
0.0
 11
166.6043862462276
 21
261.1614459121974
 31
0.0
  0
LINE
  5
A45
330
1F
100
AcDbEntity
  8
0
 62
     0
100
AcDbLine
 10
165.6043862462276
 20
260.1614459121973
 30
0.0
 11
165.6043862462276
 21
261.1614459121974
 31
0.0
  0
LINE
  5
A46
330
1F
100
AcDbEntity
  8
0
 62
     0
100
AcDbLine
 10
165.8723354386594
 20
260.8934967197674
 30
0.0
 11
165.8723354386594
 21
260.4293951046274
 31
0.0
  0
LINE
  5
A47
330
1F
100
AcDbEntity
  8
0
 62
     0
100
AcDbLine
 10
166.3364370537958
 20
260.4293951046274
 30
0.0
 11
166.3364370537958
 21
260.8934967197674
 31
0.0
  0
LINE
  5
A48
330
1F
100
AcDbEntity
  8
0
 62
     0
100
AcDbLine
 10
166.6043862462276
 20
260.1614459121973
 30
0.0
 11
166.6043862462276
 21
261.1614459121974
 31
0.0
  0
LINE
  5
A49
330
1F
100
AcDbEntity
  8
0
 62
     0
100
AcDbLine
 10
163.0109933890845
 20
261.266445912197
 30
0.0
 11
163.0109933890845
 21
260.0564459121977
 31
0.0
  0
LINE
  5
A4A
330
1F
100
AcDbEntity
  8
0
 62
     0
100
AcDbLine
 10
161.4012249416803
 20
260.0564459121977
 30
0.0
 11
161.4012249416803
 21
261.266445912197
 31
0.0
  0
LINE
  5
A4B
330
1F
100
AcDbEntity
  8
0
 62
     0
100
AcDbLine
 10
163.0109933890845
 20
247.9614459121985
 30
0.0
 11
162.699386246227
 21
247.9614459121985
 31
0.0
  0
LINE
  5
A4C
330
1F
100
AcDbEntity
  8
0
 62
     0
100
AcDbLine
 10
161.874386246228
 20
249.5264459121971
 30
0.0
 11
161.4012249416803
 21
249.8964459121961
 31
0.0
  0
LINE
  5
A4D
330
1F
100
AcDbEntity
  8
0
 62
     0
100
AcDbLine
 10
163.0109933890845
 20
249.8964459121961
 30
0.0
 11
163.0109933890845
 21
249.8574347314151
 31
0.0
  0
LINE
  5
A4E
330
1F
100
AcDbEntity
  8
0
 62
     0
100
AcDbLine
 10
163.0109933890845
 20
249.8574347314151
 30
0.0
 11
162.699386246227
 21
249.5264459121971
 31
0.0
  0
LINE
  5
A4F
330
1F
100
AcDbEntity
  8
0
 62
     0
100
AcDbLine
 10
161.4012249416803
 20
249.8964459121961
 30
0.0
 11
163.0109933890845
 21
249.8964459121961
 31
0.0
  0
LINE
  5
A50
330
1F
100
AcDbEntity
  8
0
 62
     0
100
AcDbLine
 10
162.699386246227
 20
249.5264459121971
 30
0.0
 11
161.874386246228
 21
249.5264459121971
 31
0.0
  0
LINE
  5
A51
330
1F
100
AcDbEntity
  8
0
 62
     0
100
AcDbLine
 10
163.0109933890845
 20
247.9614459121985
 30
0.0
 11
163.0109933890845
 21
249.8574347314151
 31
0.0
  0
LINE
  5
A52
330
1F
100
AcDbEntity
  8
0
 62
     0
100
AcDbLine
 10
162.699386246227
 20
249.5264459121971
 30
0.0
 11
162.699386246227
 21
247.9614459121985
 31
0.0
  0
LINE
  5
A53
330
1F
100
AcDbEntity
  8
0
 62
     0
100
AcDbLine
 10
165.6043862462276
 20
250.0014459121976
 30
0.0
 11
165.8723354386594
 21
250.2693951046276
 31
0.0
  0
LINE
  5
A54
330
1F
100
AcDbEntity
  8
0
 62
     0
100
AcDbLine
 10
165.8723354386594
 20
250.7334967197675
 30
0.0
 11
165.8723354386594
 21
250.2693951046276
 31
0.0
  0
LINE
  5
A55
330
1F
100
AcDbEntity
  8
0
 62
     0
100
AcDbLine
 10
168.3043862462265
 20
247.9614459121985
 30
0.0
 11
168.6043862462276
 21
247.9614459121985
 31
0.0
  0
LINE
  5
A56
330
1F
100
AcDbEntity
  8
0
 62
     0
100
AcDbLine
 10
168.6043862462276
 20
248.3473799893435
 30
0.0
 11
168.6043862462276
 21
247.9614459121985
 31
0.0
  0
LINE
  5
A57
330
1F
100
AcDbEntity
  8
0
 62
     0
100
AcDbLine
 10
166.3364370537958
 20
250.2693951046276
 30
0.0
 11
166.6043862462276
 21
250.0014459121976
 31
0.0
  0
LINE
  5
A58
330
1F
100
AcDbEntity
  8
0
 62
     0
100
AcDbLine
 10
166.3364370537958
 20
250.2693951046276
 30
0.0
 11
166.3364370537958
 21
250.7334967197675
 31
0.0
  0
LINE
  5
A59
330
1F
100
AcDbEntity
  8
0
 62
     0
100
AcDbLine
 10
168.3043862462265
 20
247.9614459121985
 30
0.0
 11
168.3043862462265
 21
248.4618381067594
 31
0.0
  0
LINE
  5
A5A
330
1F
100
AcDbEntity
  8
0
 62
     0
100
AcDbLine
 10
166.6043862462276
 20
250.0014459121976
 30
0.0
 11
165.6043862462276
 21
250.0014459121976
 31
0.0
  0
LINE
  5
A5B
330
1F
100
AcDbEntity
  8
0
 62
     0
100
AcDbLine
 10
166.3364370537958
 20
250.2693951046276
 30
0.0
 11
165.8723354386594
 21
250.2693951046276
 31
0.0
  0
LINE
  5
A5C
330
1F
100
AcDbEntity
  8
0
 62
     0
100
AcDbLine
 10
165.8723354386594
 20
250.7334967197675
 30
0.0
 11
166.3364370537958
 21
250.7334967197675
 31
0.0
  0
LINE
  5
A5D
330
1F
100
AcDbEntity
  8
0
 62
     0
100
AcDbLine
 10
164.8919506809281
 20
249.8014459121987
 30
0.0
 11
167.3168218115254
 21
249.8014459121987
 31
0.0
  0
LINE
  5
A5E
330
1F
100
AcDbEntity
  8
0
 62
     0
100
AcDbLine
 10
163.0109933890845
 20
247.9614459121985
 30
0.0
 11
168.3043862462265
 21
247.9614459121985
 31
0.0
  0
LINE
  5
A5F
330
1F
100
AcDbEntity
  8
0
 62
     0
100
AcDbLine
 10
161.4012249416803
 20
251.106445912197
 30
0.0
 11
161.874386246228
 21
251.4764459121979
 31
0.0
  0
LINE
  5
A60
330
1F
100
AcDbEntity
  8
0
 62
     0
100
AcDbLine
 10
163.0109933890845
 20
251.145457092978
 30
0.0
 11
163.0109933890845
 21
251.106445912197
 31
0.0
  0
LINE
  5
A61
330
1F
100
AcDbEntity
  8
0
 62
     0
100
AcDbLine
 10
162.699386246227
 20
251.4764459121979
 30
0.0
 11
163.0109933890845
 21
251.145457092978
 31
0.0
  0
LINE
  5
A62
330
1F
100
AcDbEntity
  8
0
 62
     0
100
AcDbLine
 10
161.874386246228
 20
251.4764459121979
 30
0.0
 11
162.699386246227
 21
251.4764459121979
 31
0.0
  0
LINE
  5
A63
330
1F
100
AcDbEntity
  8
0
 62
     0
100
AcDbLine
 10
163.0109933890845
 20
251.106445912197
 30
0.0
 11
161.4012249416803
 21
251.106445912197
 31
0.0
  0
LINE
  5
A64
330
1F
100
AcDbEntity
  8
0
 62
     0
100
AcDbLine
 10
161.4012249416803
 20
254.9764459121979
 30
0.0
 11
161.874386246228
 21
254.606445912197
 31
0.0
  0
LINE
  5
A65
330
1F
100
AcDbEntity
  8
0
 62
     0
100
AcDbLine
 10
163.0109933890845
 20
254.9764459121979
 30
0.0
 11
163.0109933890845
 21
254.9374347314151
 31
0.0
  0
LINE
  5
A66
330
1F
100
AcDbEntity
  8
0
 62
     0
100
AcDbLine
 10
163.0109933890845
 20
254.9374347314151
 30
0.0
 11
162.699386246227
 21
254.606445912197
 31
0.0
  0
LINE
  5
A67
330
1F
100
AcDbEntity
  8
0
 62
     0
100
AcDbLine
 10
161.4012249416803
 20
254.9764459121979
 30
0.0
 11
163.0109933890845
 21
254.9764459121979
 31
0.0
  0
LINE
  5
A68
330
1F
100
AcDbEntity
  8
0
 62
     0
100
AcDbLine
 10
161.874386246228
 20
254.606445912197
 30
0.0
 11
162.699386246227
 21
254.606445912197
 31
0.0
  0
LINE
  5
A69
330
1F
100
AcDbEntity
  8
0
 62
     0
100
AcDbLine
 10
163.0109933890845
 20
251.145457092978
 30
0.0
 11
163.0109933890845
 21
254.9374347314151
 31
0.0
  0
LINE
  5
A6A
330
1F
100
AcDbEntity
  8
0
 62
     0
100
AcDbLine
 10
161.874386246228
 20
251.4764459121979
 30
0.0
 11
161.874386246228
 21
254.606445912197
 31
0.0
  0
LINE
  5
A6B
330
1F
100
AcDbEntity
  8
0
 62
     0
100
AcDbLine
 10
162.699386246227
 20
251.4764459121979
 30
0.0
 11
162.699386246227
 21
254.606445912197
 31
0.0
  0
LINE
  5
A6C
330
1F
100
AcDbEntity
  8
0
 62
     0
100
AcDbLine
 10
165.6043862462276
 20
255.0814459121975
 30
0.0
 11
165.8723354386594
 21
255.3493951046293
 31
0.0
  0
LINE
  5
A6D
330
1F
100
AcDbEntity
  8
0
 62
     0
100
AcDbLine
 10
166.8543862462276
 20
253.2424078065195
 30
0.0
 11
166.8543862462276
 21
252.8404840178736
 31
0.0
  0
LWPOLYLINE
  5
A6E
330
1F
100
AcDbEntity
  8
0
 62
     0
100
AcDbPolyline
 90
        4
 70
     0
 43
0.0
 10
168.6043862462276
 20
252.6555118350514
 42
0.0021758545419443
 10
168.4543688354108
 20
252.5990569683163
 10
168.3788518558333
 20
252.5700553426248
 10
168.3043862462265
 20
252.5410537176357
  0
LINE
  5
A6F
330
1F
100
AcDbEntity
  8
0
 62
     0
100
AcDbLine
 10
166.3364370537958
 20
255.3493951046293
 30
0.0
 11
166.6043862462276
 21
255.0814459121975
 31
0.0
  0
LINE
  5
A70
330
1F
100
AcDbEntity
  8
0
 62
     0
100
AcDbLine
 10
168.3043862462265
 20
252.5410537176357
 30
0.0
 11
168.3043862462265
 21
253.5418381067611
 31
0.0
  0
LINE
  5
A71
330
1F
100
AcDbEntity
  8
0
 62
     0
100
AcDbLine
 10
168.6043862462276
 20
252.6555118350514
 30
0.0
 11
168.6043862462276
 21
253.4273799893434
 31
0.0
  0
LINE
  5
A72
330
1F
100
AcDbEntity
  8
0
 62
     0
100
AcDbLine
 10
166.8543862462276
 20
252.8404840178736
 30
0.0
 11
166.1043862462275
 21
253.0414459121965
 31
0.0
  0
LINE
  5
A73
330
1F
100
AcDbEntity
  8
0
 62
     0
100
AcDbLine
 10
166.1043862462275
 20
253.0414459121965
 30
0.0
 11
166.8543862462276
 21
253.2424078065195
 31
0.0
  0
LINE
  5
A74
330
1F
100
AcDbEntity
  8
0
 62
     0
100
AcDbLine
 10
165.6043862462276
 20
251.0014459121975
 30
0.0
 11
166.6043862462276
 21
251.0014459121975
 31
0.0
  0
LINE
  5
A75
330
1F
100
AcDbEntity
  8
0
 62
     0
100
AcDbLine
 10
166.6043862462276
 20
255.0814459121975
 30
0.0
 11
165.6043862462276
 21
255.0814459121975
 31
0.0
  0
LINE
  5
A76
330
1F
100
AcDbEntity
  8
0
 62
     0
100
AcDbLine
 10
165.8723354386594
 20
255.3493951046293
 30
0.0
 11
166.3364370537958
 21
255.3493951046293
 31
0.0
  0
LINE
  5
A77
330
1F
100
AcDbEntity
  8
0
 62
     0
100
AcDbLine
 10
165.6043862462276
 20
250.0014459121976
 30
0.0
 11
165.6043862462276
 21
251.0014459121975
 31
0.0
  0
LINE
  5
A78
330
1F
100
AcDbEntity
  8
0
 62
     0
100
AcDbLine
 10
166.6043862462276
 20
251.0014459121975
 30
0.0
 11
166.6043862462276
 21
250.0014459121976
 31
0.0
  0
LINE
  5
A79
330
1F
100
AcDbEntity
  8
0
 62
     0
100
AcDbLine
 10
166.3364370537958
 20
250.7334967197675
 30
0.0
 11
166.6043862462276
 21
251.0014459121975
 31
0.0
  0
LINE
  5
A7A
330
1F
100
AcDbEntity
  8
0
 62
     0
100
AcDbLine
 10
165.8723354386594
 20
250.7334967197675
 30
0.0
 11
165.6043862462276
 21
251.0014459121975
 31
0.0
  0
LINE
  5
A7B
330
1F
100
AcDbEntity
  8
0
 62
     0
100
AcDbLine
 10
163.0109933890845
 20
251.106445912197
 30
0.0
 11
163.0109933890845
 21
249.8964459121961
 31
0.0
  0
LINE
  5
A7C
330
1F
100
AcDbEntity
  8
0
 62
     0
100
AcDbLine
 10
161.4012249416803
 20
249.8964459121961
 30
0.0
 11
161.4012249416803
 21
251.106445912197
 31
0.0
  0
ARC
  5
A7D
330
1F
100
AcDbEntity
  8
0
 62
     0
100
AcDbCircle
 10
166.1043862462275
 20
250.5014459121976
 30
0.0
 40
1.400000000000003
100
AcDbArc
 50
329.9999999999921
 51
210.0000000000078
  0
ARC
  5
A7E
330
1F
100
AcDbEntity
  8
0
 62
     0
100
AcDbCircle
 10
166.1043862462275
 20
250.5014459121976
 30
0.0
 40
2.999999999999968
100
AcDbArc
 50
317.1665719339523
 51
42.83342806604767
  0
ARC
  5
A7F
330
1F
100
AcDbEntity
  8
0
 62
     0
100
AcDbCircle
 10
166.1043862462275
 20
250.5014459121976
 30
0.0
 40
3.299999999999986
100
AcDbArc
 50
319.25094562257
 51
40.74905437742993
  0
LINE
  5
A80
330
1F
100
AcDbEntity
  8
0
 62
     0
100
AcDbLine
 10
161.874386246228
 20
246.9614459121984
 30
0.0
 11
162.3043862462265
 21
246.9614459121984
 31
0.0
  0
LINE
  5
A81
330
1F
100
AcDbEntity
  8
0
 62
     0
100
AcDbLine
 10
161.374386246228
 20
246.9614459121984
 30
0.0
 11
161.874386246228
 21
246.9614459121984
 31
0.0
  0
LINE
  5
A82
330
1F
100
AcDbEntity
  8
0
 62
     0
100
AcDbLine
 10
165.9034243519046
 20
246.9614459121984
 30
0.0
 11
166.1043862462275
 21
246.9614459121984
 31
0.0
  0
LINE
  5
A83
330
1F
100
AcDbEntity
  8
0
 62
     0
100
AcDbLine
 10
166.1043862462275
 20
246.9614459121984
 30
0.0
 11
166.3053481405506
 21
246.9614459121984
 31
0.0
  0
LINE
  5
A84
330
1F
100
AcDbEntity
  8
0
 62
     0
100
AcDbLine
 10
162.3043862462265
 20
246.9614459121984
 30
0.0
 11
165.9034243519046
 21
246.9614459121984
 31
0.0
  0
LINE
  5
A85
330
1F
100
AcDbEntity
  8
0
 62
     0
100
AcDbLine
 10
166.3053481405506
 20
246.9614459121984
 30
0.0
 11
169.9743862462266
 21
246.9614459121984
 31
0.0
  0
LINE
  5
A86
330
1F
100
AcDbEntity
  8
0
 62
     0
100
AcDbLine
 10
161.874386246228
 20
249.5264459121971
 30
0.0
 11
161.874386246228
 21
246.9614459121984
 31
0.0
  0
LINE
  5
A87
330
1F
100
AcDbEntity
  8
0
 62
     0
100
AcDbLine
 10
169.9743862462266
 20
246.9614459121984
 30
0.0
 11
169.9743862462266
 21
249.0014459121975
 31
0.0
  0
LINE
  5
A88
330
1F
100
AcDbEntity
  8
0
 62
     0
100
AcDbLine
 10
169.9743862462266
 20
272.3214459121972
 30
0.0
 11
169.9743862462268
 21
274.3614459121963
 31
0.0
  0
LINE
  5
A89
330
1F
100
AcDbEntity
  8
0
 62
     0
100
AcDbLine
 10
162.3043862462266
 20
274.3614459121963
 30
0.0
 11
161.8743862462281
 21
274.3614459121963
 31
0.0
  0
LINE
  5
A8A
330
1F
100
AcDbEntity
  8
0
 62
     0
100
AcDbLine
 10
161.8743862462281
 20
274.3614459121963
 30
0.0
 11
161.3743862462281
 21
274.3614459121963
 31
0.0
  0
LINE
  5
A8B
330
1F
100
AcDbEntity
  8
0
 62
     0
100
AcDbLine
 10
163.0109933890845
 20
273.3614459121962
 30
0.0
 11
162.699386246227
 21
273.3614459121962
 31
0.0
  0
LINE
  5
A8C
330
1F
100
AcDbEntity
  8
0
 62
     0
100
AcDbLine
 10
166.8246433280739
 20
274.3614459121963
 30
0.0
 11
166.624387386227
 21
274.3614459121963
 31
0.0
  0
LINE
  5
A8D
330
1F
100
AcDbEntity
  8
0
 62
     0
100
AcDbLine
 10
167.0833373189809
 20
274.3614459121963
 30
0.0
 11
166.9331453625957
 21
274.3614459121963
 31
0.0
  0
LINE
  5
A8E
330
1F
100
AcDbEntity
  8
0
 62
     0
100
AcDbLine
 10
167.3112887312229
 20
274.3614459121963
 30
0.0
 11
167.0833373189809
 21
274.3614459121963
 31
0.0
  0
LINE
  5
A8F
330
1F
100
AcDbEntity
  8
0
 62
     0
100
AcDbLine
 10
167.4464123308638
 20
274.3614459121963
 30
0.0
 11
167.3112887312229
 21
274.3614459121963
 31
0.0
  0
LINE
  5
A90
330
1F
100
AcDbEntity
  8
0
 62
     0
100
AcDbLine
 10
166.9331453625957
 20
274.3614459121963
 30
0.0
 11
166.8246433280739
 21
274.3614459121963
 31
0.0
  0
LINE
  5
A91
330
1F
100
AcDbEntity
  8
0
 62
     0
100
AcDbLine
 10
168.6043862462276
 20
273.3614459121962
 30
0.0
 11
168.6043862462276
 21
272.9755118350511
 31
0.0
  0
LINE
  5
A92
330
1F
100
AcDbEntity
  8
0
 62
     0
100
AcDbLine
 10
168.6043862462276
 20
273.3614459121962
 30
0.0
 11
168.3043862462265
 21
273.3614459121962
 31
0.0
  0
LINE
  5
A93
330
1F
100
AcDbEntity
  8
0
 62
     0
100
AcDbLine
 10
168.0537133334885
 20
274.3614459121963
 30
0.0
 11
167.6198254594885
 21
274.3614459121963
 31
0.0
  0
LINE
  5
A94
330
1F
100
AcDbEntity
  8
0
 62
     0
100
AcDbLine
 10
168.3622500617524
 20
274.3614459121963
 30
0.0
 11
168.2271264621133
 21
274.3614459121963
 31
0.0
  0
LINE
  5
A95
330
1F
100
AcDbEntity
  8
0
 62
     0
100
AcDbLine
 10
168.5902014739961
 20
274.3614459121963
 30
0.0
 11
168.3622500617524
 21
274.3614459121963
 31
0.0
  0
LINE
  5
A96
330
1F
100
AcDbEntity
  8
0
 62
     0
100
AcDbLine
 10
168.7403934303814
 20
274.3614459121963
 30
0.0
 11
168.5902014739961
 21
274.3614459121963
 31
0.0
  0
LINE
  5
A97
330
1F
100
AcDbEntity
  8
0
 62
     0
100
AcDbLine
 10
168.2271264621133
 20
274.3614459121963
 30
0.0
 11
168.0537133334885
 21
274.3614459121963
 31
0.0
  0
LINE
  5
A98
330
1F
100
AcDbEntity
  8
0
 62
     0
100
AcDbLine
 10
167.6198254594885
 20
274.3614459121963
 30
0.0
 11
167.4464123308638
 21
274.3614459121963
 31
0.0
  0
LINE
  5
A99
330
1F
100
AcDbEntity
  8
0
 62
     0
100
AcDbLine
 10
168.3043862462265
 20
272.8610537176355
 30
0.0
 11
168.3043862462265
 21
273.3614459121962
 31
0.0
  0
LINE
  5
A9A
330
1F
100
AcDbEntity
  8
0
 62
     0
100
AcDbLine
 10
168.3043862462265
 20
273.3614459121962
 30
0.0
 11
163.0109933890845
 21
273.3614459121962
 31
0.0
  0
LINE
  5
A9B
330
1F
100
AcDbEntity
  8
0
 62
     0
100
AcDbLine
 10
166.624387386227
 20
274.3614459121963
 30
0.0
 11
162.3043862462266
 21
274.3614459121963
 31
0.0
  0
LINE
  5
A9C
330
1F
100
AcDbEntity
  8
0
 62
     0
100
AcDbLine
 10
169.1656282698508
 20
274.3614459121963
 30
0.0
 11
169.0154363134673
 21
274.3614459121963
 31
0.0
  0
LINE
  5
A9D
330
1F
100
AcDbEntity
  8
0
 62
     0
100
AcDbLine
 10
169.2741303043798
 20
274.3614459121963
 30
0.0
 11
169.1656282698508
 21
274.3614459121963
 31
0.0
  0
LINE
  5
A9E
330
1F
100
AcDbEntity
  8
0
 62
     0
100
AcDbLine
 10
169.4743862462266
 20
274.3614459121963
 30
0.0
 11
169.2741303043798
 21
274.3614459121963
 31
0.0
  0
LINE
  5
A9F
330
1F
100
AcDbEntity
  8
0
 62
     0
100
AcDbLine
 10
169.0154363134673
 20
274.3614459121963
 30
0.0
 11
168.7403934303814
 21
274.3614459121963
 31
0.0
  0
LINE
  5
AA0
330
1F
100
AcDbEntity
  8
0
 62
     0
100
AcDbLine
 10
169.9743862462268
 20
274.3614459121963
 30
0.0
 11
169.4743862462266
 21
274.3614459121963
 31
0.0
  0
LINE
  5
AA1
330
1F
100
AcDbEntity
  8
0
 62
     0
100
AcDbLine
 10
169.9743862462266
 20
264.2414459121973
 30
0.0
 11
169.9743862462266
 21
265.0414459121965
 31
0.0
  0
LINE
  5
AA2
330
1F
100
AcDbEntity
  8
0
 62
     0
100
AcDbLine
 10
169.9743862462266
 20
262.1614459121973
 30
0.0
 11
169.9743862462266
 21
264.2414459121973
 31
0.0
  0
LINE
  5
AA3
330
1F
100
AcDbEntity
  8
0
 62
     0
100
AcDbLine
 10
169.9743862462266
 20
266.4414459121981
 30
0.0
 11
169.9743862462266
 21
267.2414459121973
 31
0.0
  0
LINE
  5
AA4
330
1F
100
AcDbEntity
  8
0
 62
     0
100
AcDbLine
 10
169.9743862462266
 20
269.3214459121973
 30
0.0
 11
169.9743862462266
 21
270.1214459121984
 31
0.0
  0
LINE
  5
AA5
330
1F
100
AcDbEntity
  8
0
 62
     0
100
AcDbLine
 10
169.9743862462266
 20
267.2414459121973
 30
0.0
 11
169.9743862462266
 21
269.3214459121973
 31
0.0
  0
LINE
  5
AA6
330
1F
100
AcDbEntity
  8
0
 62
     0
100
AcDbLine
 10
169.9743862462266
 20
265.0414459121965
 30
0.0
 11
169.9743862462266
 21
266.4414459121981
 31
0.0
  0
LINE
  5
AA7
330
1F
100
AcDbEntity
  8
0
 62
     0
100
AcDbLine
 10
169.9743862462266
 20
270.1214459121984
 30
0.0
 11
169.9743862462266
 21
271.5214459121962
 31
0.0
  0
LINE
  5
AA8
330
1F
100
AcDbEntity
  8
0
 62
     0
100
AcDbLine
 10
161.874386246228
 20
261.6364459121978
 30
0.0
 11
162.699386246227
 21
261.6364459121978
 31
0.0
  0
LINE
  5
AA9
330
1F
100
AcDbEntity
  8
0
 62
     0
100
AcDbLine
 10
161.4012249416803
 20
265.1364459121978
 30
0.0
 11
161.874386246228
 21
264.766445912197
 31
0.0
  0
LINE
  5
AAA
330
1F
100
AcDbEntity
  8
0
 62
     0
100
AcDbLine
 10
163.0109933890845
 20
265.097434731415
 30
0.0
 11
162.699386246227
 21
264.766445912197
 31
0.0
  0
LINE
  5
AAB
330
1F
100
AcDbEntity
  8
0
 62
     0
100
AcDbLine
 10
163.0109933890845
 20
265.1364459121978
 30
0.0
 11
163.0109933890845
 21
265.097434731415
 31
0.0
  0
LINE
  5
AAC
330
1F
100
AcDbEntity
  8
0
 62
     0
100
AcDbLine
 10
161.874386246228
 20
264.766445912197
 30
0.0
 11
162.699386246227
 21
264.766445912197
 31
0.0
  0
LINE
  5
AAD
330
1F
100
AcDbEntity
  8
0
 62
     0
100
AcDbLine
 10
161.4012249416803
 20
265.1364459121978
 30
0.0
 11
163.0109933890845
 21
265.1364459121978
 31
0.0
  0
LINE
  5
AAE
330
1F
100
AcDbEntity
  8
0
 62
     0
100
AcDbLine
 10
162.699386246227
 20
261.6364459121978
 30
0.0
 11
162.699386246227
 21
264.766445912197
 31
0.0
  0
LINE
  5
AAF
330
1F
100
AcDbEntity
  8
0
 62
     0
100
AcDbLine
 10
161.874386246228
 20
261.6364459121978
 30
0.0
 11
161.874386246228
 21
264.766445912197
 31
0.0
  0
LINE
  5
AB0
330
1F
100
AcDbEntity
  8
0
 62
     0
100
AcDbLine
 10
161.4012249416803
 20
266.3464459121969
 30
0.0
 11
161.874386246228
 21
266.7164459121976
 31
0.0
  0
LINE
  5
AB1
330
1F
100
AcDbEntity
  8
0
 62
     0
100
AcDbLine
 10
163.0109933890845
 20
266.3854570929797
 30
0.0
 11
163.0109933890845
 21
266.3464459121969
 31
0.0
  0
LINE
  5
AB2
330
1F
100
AcDbEntity
  8
0
 62
     0
100
AcDbLine
 10
162.699386246227
 20
266.7164459121976
 30
0.0
 11
163.0109933890845
 21
266.3854570929797
 31
0.0
  0
LINE
  5
AB3
330
1F
100
AcDbEntity
  8
0
 62
     0
100
AcDbLine
 10
161.874386246228
 20
266.7164459121976
 30
0.0
 11
162.699386246227
 21
266.7164459121976
 31
0.0
  0
LINE
  5
AB4
330
1F
100
AcDbEntity
  8
0
 62
     0
100
AcDbLine
 10
163.0109933890845
 20
266.3464459121969
 30
0.0
 11
161.4012249416803
 21
266.3464459121969
 31
0.0
  0
LINE
  5
AB5
330
1F
100
AcDbEntity
  8
0
 62
     0
100
AcDbLine
 10
161.4012249416803
 20
270.2164459121977
 30
0.0
 11
161.874386246228
 21
269.8464459121969
 31
0.0
  0
LINE
  5
AB6
330
1F
100
AcDbEntity
  8
0
 62
     0
100
AcDbLine
 10
163.0109933890845
 20
270.1774347314167
 30
0.0
 11
162.699386246227
 21
269.8464459121969
 31
0.0
  0
LINE
  5
AB7
330
1F
100
AcDbEntity
  8
0
 62
     0
100
AcDbLine
 10
163.0109933890845
 20
270.2164459121977
 30
0.0
 11
163.0109933890845
 21
270.1774347314167
 31
0.0
  0
LINE
  5
AB8
330
1F
100
AcDbEntity
  8
0
 62
     0
100
AcDbLine
 10
161.874386246228
 20
269.8464459121969
 30
0.0
 11
162.699386246227
 21
269.8464459121969
 31
0.0
  0
LINE
  5
AB9
330
1F
100
AcDbEntity
  8
0
 62
     0
100
AcDbLine
 10
161.4012249416803
 20
270.2164459121977
 30
0.0
 11
163.0109933890845
 21
270.2164459121977
 31
0.0
  0
LINE
  5
ABA
330
1F
100
AcDbEntity
  8
0
 62
     0
100
AcDbLine
 10
163.0109933890845
 20
270.1774347314167
 30
0.0
 11
163.0109933890845
 21
266.3854570929797
 31
0.0
  0
LINE
  5
ABB
330
1F
100
AcDbEntity
  8
0
 62
     0
100
AcDbLine
 10
162.699386246227
 20
266.7164459121976
 30
0.0
 11
162.699386246227
 21
269.8464459121969
 31
0.0
  0
LINE
  5
ABC
330
1F
100
AcDbEntity
  8
0
 62
     0
100
AcDbLine
 10
161.874386246228
 20
266.7164459121976
 30
0.0
 11
161.874386246228
 21
269.8464459121969
 31
0.0
  0
LINE
  5
ABD
330
1F
100
AcDbEntity
  8
0
 62
     0
100
AcDbLine
 10
163.0109933890845
 20
266.3464459121969
 30
0.0
 11
163.0109933890845
 21
265.1364459121978
 31
0.0
  0
LINE
  5
ABE
330
1F
100
AcDbEntity
  8
0
 62
     0
100
AcDbLine
 10
161.4012249416803
 20
266.3464459121969
 30
0.0
 11
161.4012249416803
 21
265.1364459121978
 31
0.0
  0
LINE
  5
ABF
330
1F
100
AcDbEntity
  8
0
 62
     0
100
AcDbLine
 10
165.6043862462276
 20
265.2414459121974
 30
0.0
 11
165.8723354386594
 21
265.5093951046291
 31
0.0
  0
LINE
  5
AC0
330
1F
100
AcDbEntity
  8
0
 62
     0
100
AcDbLine
 10
166.3364370537958
 20
265.5093951046291
 30
0.0
 11
166.6043862462276
 21
265.2414459121974
 31
0.0
  0
LINE
  5
AC1
330
1F
100
AcDbEntity
  8
0
 62
     0
100
AcDbLine
 10
168.6043862462276
 20
262.8155118350514
 30
0.0
 11
168.6043862462276
 21
263.5873799893451
 31
0.0
  0
LINE
  5
AC2
330
1F
100
AcDbEntity
  8
0
 62
     0
100
AcDbLine
 10
166.8543862462276
 20
263.4024078065194
 30
0.0
 11
166.8543862462276
 21
263.0004840178734
 31
0.0
  0
LINE
  5
AC3
330
1F
100
AcDbEntity
  8
0
 62
     0
100
AcDbLine
 10
168.3043862462265
 20
262.7010537176356
 30
0.0
 11
168.3043862462265
 21
263.7018381067608
 31
0.0
  0
LINE
  5
AC4
330
1F
100
AcDbEntity
  8
0
 62
     0
100
AcDbLine
 10
165.8723354386594
 20
265.5093951046291
 30
0.0
 11
166.3364370537958
 21
265.5093951046291
 31
0.0
  0
LINE
  5
AC5
330
1F
100
AcDbEntity
  8
0
 62
     0
100
AcDbLine
 10
165.6043862462276
 20
265.2414459121974
 30
0.0
 11
166.6043862462276
 21
265.2414459121974
 31
0.0
  0
LINE
  5
AC6
330
1F
100
AcDbEntity
  8
0
 62
     0
100
AcDbLine
 10
166.8543862462276
 20
263.0004840178734
 30
0.0
 11
166.1043862462275
 21
263.2014459121965
 31
0.0
  0
LINE
  5
AC7
330
1F
100
AcDbEntity
  8
0
 62
     0
100
AcDbLine
 10
166.1043862462275
 20
263.2014459121965
 30
0.0
 11
166.8543862462276
 21
263.4024078065194
 31
0.0
  0
LINE
  5
AC8
330
1F
100
AcDbEntity
  8
0
 62
     0
100
AcDbLine
 10
165.8723354386594
 20
265.9734967197655
 30
0.0
 11
165.6043862462276
 21
266.2414459121973
 31
0.0
  0
LINE
  5
AC9
330
1F
100
AcDbEntity
  8
0
 62
     0
100
AcDbLine
 10
166.3364370537958
 20
265.9734967197655
 30
0.0
 11
166.6043862462276
 21
266.2414459121973
 31
0.0
  0
LINE
  5
ACA
330
1F
100
AcDbEntity
  8
0
 62
     0
100
AcDbLine
 10
166.8543862462276
 20
268.0804840178751
 30
0.0
 11
166.8543862462276
 21
268.4824078065211
 31
0.0
  0
LINE
  5
ACB
330
1F
100
AcDbEntity
  8
0
 62
     0
100
AcDbLine
 10
168.6043862462276
 20
267.8955118350513
 30
0.0
 11
168.6043862462276
 21
268.6673799893433
 31
0.0
  0
LINE
  5
ACC
330
1F
100
AcDbEntity
  8
0
 62
     0
100
AcDbLine
 10
168.3043862462265
 20
267.7810537176337
 30
0.0
 11
168.3043862462265
 21
268.7818381067609
 31
0.0
  0
LINE
  5
ACD
330
1F
100
AcDbEntity
  8
0
 62
     0
100
AcDbLine
 10
165.6043862462276
 20
270.3214459121972
 30
0.0
 11
166.6043862462276
 21
270.3214459121972
 31
0.0
  0
LINE
  5
ACE
330
1F
100
AcDbEntity
  8
0
 62
     0
100
AcDbLine
 10
166.1043862462275
 20
268.2814459121981
 30
0.0
 11
166.8543862462276
 21
268.0804840178751
 31
0.0
  0
LINE
  5
ACF
330
1F
100
AcDbEntity
  8
0
 62
     0
100
AcDbLine
 10
166.8543862462276
 20
268.4824078065211
 30
0.0
 11
166.1043862462275
 21
268.2814459121981
 31
0.0
  0
LINE
  5
AD0
330
1F
100
AcDbEntity
  8
0
 62
     0
100
AcDbLine
 10
165.6043862462276
 20
266.2414459121973
 30
0.0
 11
166.6043862462276
 21
266.2414459121973
 31
0.0
  0
LINE
  5
AD1
330
1F
100
AcDbEntity
  8
0
 62
     0
100
AcDbLine
 10
165.8723354386594
 20
265.9734967197655
 30
0.0
 11
166.3364370537958
 21
265.9734967197655
 31
0.0
  0
LINE
  5
AD2
330
1F
100
AcDbEntity
  8
0
 62
     0
100
AcDbLine
 10
166.6043862462276
 20
266.2414459121973
 30
0.0
 11
166.6043862462276
 21
265.2414459121974
 31
0.0
  0
LINE
  5
AD3
330
1F
100
AcDbEntity
  8
0
 62
     0
100
AcDbLine
 10
165.8723354386594
 20
265.9734967197655
 30
0.0
 11
165.8723354386594
 21
265.5093951046291
 31
0.0
  0
LINE
  5
AD4
330
1F
100
AcDbEntity
  8
0
 62
     0
100
AcDbLine
 10
165.6043862462276
 20
265.2414459121974
 30
0.0
 11
165.6043862462276
 21
266.2414459121973
 31
0.0
  0
LINE
  5
AD5
330
1F
100
AcDbEntity
  8
0
 62
     0
100
AcDbLine
 10
166.3364370537958
 20
265.5093951046291
 30
0.0
 11
166.3364370537958
 21
265.9734967197655
 31
0.0
  0
CIRCLE
  5
AD6
330
1F
100
AcDbEntity
  8
0
 62
     0
100
AcDbCircle
 10
166.1043862462275
 20
265.7414459121973
 30
0.0
 40
1.399999999999999
  0
LINE
  5
AD7
330
1F
100
AcDbEntity
  8
0
 62
     0
100
AcDbLine
 10
161.4012249416803
 20
271.4264459121987
 30
0.0
 11
161.874386246228
 21
271.7964459121976
 31
0.0
  0
LINE
  5
AD8
330
1F
100
AcDbEntity
  8
0
 62
     0
100
AcDbLine
 10
163.0109933890845
 20
271.4654570929797
 30
0.0
 11
163.0109933890845
 21
271.4264459121987
 31
0.0
  0
LINE
  5
AD9
330
1F
100
AcDbEntity
  8
0
 62
     0
100
AcDbLine
 10
162.699386246227
 20
271.7964459121976
 30
0.0
 11
163.0109933890845
 21
271.4654570929797
 31
0.0
  0
LINE
  5
ADA
330
1F
100
AcDbEntity
  8
0
 62
     0
100
AcDbLine
 10
161.874386246228
 20
271.7964459121976
 30
0.0
 11
162.699386246227
 21
271.7964459121976
 31
0.0
  0
LINE
  5
ADB
330
1F
100
AcDbEntity
  8
0
 62
     0
100
AcDbLine
 10
163.0109933890845
 20
271.4264459121987
 30
0.0
 11
161.4012249416803
 21
271.4264459121987
 31
0.0
  0
LINE
  5
ADC
330
1F
100
AcDbEntity
  8
0
 62
     0
100
AcDbLine
 10
165.8723354386594
 20
270.5893951046273
 30
0.0
 11
165.8723354386594
 21
271.0534967197673
 31
0.0
  0
LINE
  5
ADD
330
1F
100
AcDbEntity
  8
0
 62
     0
100
AcDbLine
 10
165.6043862462276
 20
271.3214459121973
 30
0.0
 11
165.8723354386594
 21
271.0534967197673
 31
0.0
  0
LINE
  5
ADE
330
1F
100
AcDbEntity
  8
0
 62
     0
100
AcDbLine
 10
166.6043862462276
 20
271.3214459121973
 30
0.0
 11
166.3364370537958
 21
271.0534967197673
 31
0.0
  0
LINE
  5
ADF
330
1F
100
AcDbEntity
  8
0
 62
     0
100
AcDbLine
 10
166.3364370537958
 20
270.5893951046273
 30
0.0
 11
166.3364370537958
 21
271.0534967197673
 31
0.0
  0
LINE
  5
AE0
330
1F
100
AcDbEntity
  8
0
 62
     0
100
AcDbLine
 10
165.8723354386594
 20
271.0534967197673
 30
0.0
 11
166.3364370537958
 21
271.0534967197673
 31
0.0
  0
LINE
  5
AE1
330
1F
100
AcDbEntity
  8
0
 62
     0
100
AcDbLine
 10
165.6043862462276
 20
271.3214459121973
 30
0.0
 11
166.6043862462276
 21
271.3214459121973
 31
0.0
  0
LINE
  5
AE2
330
1F
100
AcDbEntity
  8
0
 62
     0
100
AcDbLine
 10
165.8723354386594
 20
270.5893951046273
 30
0.0
 11
166.3364370537958
 21
270.5893951046273
 31
0.0
  0
LINE
  5
AE3
330
1F
100
AcDbEntity
  8
0
 62
     0
100
AcDbLine
 10
165.6043862462276
 20
270.3214459121972
 30
0.0
 11
165.8723354386594
 21
270.5893951046273
 31
0.0
  0
LINE
  5
AE4
330
1F
100
AcDbEntity
  8
0
 62
     0
100
AcDbLine
 10
166.6043862462276
 20
271.3214459121973
 30
0.0
 11
166.6043862462276
 21
270.3214459121972
 31
0.0
  0
LINE
  5
AE5
330
1F
100
AcDbEntity
  8
0
 62
     0
100
AcDbLine
 10
165.6043862462276
 20
271.3214459121973
 30
0.0
 11
165.6043862462276
 21
270.3214459121972
 31
0.0
  0
LINE
  5
AE6
330
1F
100
AcDbEntity
  8
0
 62
     0
100
AcDbLine
 10
166.3364370537958
 20
270.5893951046273
 30
0.0
 11
166.6043862462276
 21
270.3214459121972
 31
0.0
  0
LINE
  5
AE7
330
1F
100
AcDbEntity
  8
0
 62
     0
100
AcDbLine
 10
163.0109933890845
 20
271.4264459121987
 30
0.0
 11
163.0109933890845
 21
270.2164459121977
 31
0.0
  0
LINE
  5
AE8
330
1F
100
AcDbEntity
  8
0
 62
     0
100
AcDbLine
 10
161.4012249416803
 20
270.2164459121977
 30
0.0
 11
161.4012249416803
 21
271.4264459121987
 31
0.0
  0
ARC
  5
AE9
330
1F
100
AcDbEntity
  8
0
 62
     0
100
AcDbCircle
 10
166.1043862462275
 20
265.7414459121973
 30
0.0
 40
3.299999999999831
100
AcDbArc
 50
319.25094562257
 51
40.74905437742993
  0
ARC
  5
AEA
330
1F
100
AcDbEntity
  8
0
 62
     0
100
AcDbCircle
 10
166.1043862462275
 20
265.7414459121973
 30
0.0
 40
2.999999999999803
100
AcDbArc
 50
317.1665719339523
 51
42.83342806604767
  0
LINE
  5
AEB
330
1F
100
AcDbEntity
  8
0
 62
     0
100
AcDbLine
 10
161.874386246228
 20
271.7964459121976
 30
0.0
 11
161.8743862462281
 21
274.3614459121963
 31
0.0
  0
LINE
  5
AEC
330
1F
100
AcDbEntity
  8
0
 62
     0
100
AcDbLine
 10
162.699386246227
 20
273.3614459121962
 30
0.0
 11
162.699386246227
 21
271.7964459121976
 31
0.0
  0
LINE
  5
AED
330
1F
100
AcDbEntity
  8
0
 62
     0
100
AcDbLine
 10
163.0109933890845
 20
273.3614459121962
 30
0.0
 11
163.0109933890845
 21
271.4654570929797
 31
0.0
  0
CIRCLE
  5
AEE
330
1F
100
AcDbEntity
  8
0
 62
     0
100
AcDbCircle
 10
166.1043862462275
 20
270.8214459121973
 30
0.0
 40
1.399999999999379
  0
LINE
  5
AEF
330
1F
100
AcDbEntity
  8
0
 62
     0
100
AcDbLine
 10
169.9743862462266
 20
271.5214459121962
 30
0.0
 11
169.9743862462266
 21
272.3214459121972
 31
0.0
  0
ARC
  5
AF0
330
1F
100
AcDbEntity
  8
0
 62
     0
100
AcDbCircle
 10
166.1043862462275
 20
270.8214459121973
 30
0.0
 40
3.299999999999366
100
AcDbArc
 50
319.25094562257
 51
40.74905437742993
  0
ARC
  5
AF1
330
1F
100
AcDbEntity
  8
0
 62
     0
100
AcDbCircle
 10
166.1043862462275
 20
270.8214459121973
 30
0.0
 40
2.999999999999353
100
AcDbArc
 50
317.1665719339523
 51
42.83342806604767
  0
LINE
  5
AF2
330
1F
100
AcDbEntity
  8
0
 62
     0
100
AcDbLine
 10
174.0742685336748
 20
286.8940465881096
 30
0.0
 11
174.0742685336748
 21
284.1940465881088
 31
0.0
  0
LINE
  5
AF3
330
1F
100
AcDbEntity
  8
0
 62
     0
100
AcDbLine
 10
172.4742685336743
 20
284.1940465881088
 30
0.0
 11
172.4742685336743
 21
286.8940465881096
 31
0.0
  0
LINE
  5
AF4
330
1F
100
AcDbEntity
  8
0
 62
     0
100
AcDbLine
 10
174.0742685336748
 20
286.8940465881096
 30
0.0
 11
172.4742685336743
 21
286.8940465881096
 31
0.0
  0
LINE
  5
AF5
330
1F
100
AcDbEntity
  8
0
 62
     0
100
AcDbLine
 10
174.0742685336748
 20
284.1940465881088
 30
0.0
 11
172.4742685336743
 21
284.1940465881088
 31
0.0
  0
LINE
  5
AF6
330
1F
100
AcDbEntity
  8
0
 62
     0
100
AcDbLine
 10
174.0742685336748
 20
281.3940505881491
 30
0.0
 11
174.0742685336748
 21
278.6940505881484
 31
0.0
  0
LINE
  5
AF7
330
1F
100
AcDbEntity
  8
0
 62
     0
100
AcDbLine
 10
172.4742685336743
 20
278.6940505881484
 30
0.0
 11
172.4742685336743
 21
281.3940505881491
 31
0.0
  0
LINE
  5
AF8
330
1F
100
AcDbEntity
  8
0
 62
     0
100
AcDbLine
 10
174.0742685336748
 20
281.3940505881491
 30
0.0
 11
172.4742685336743
 21
281.3940505881491
 31
0.0
  0
LINE
  5
AF9
330
1F
100
AcDbEntity
  8
0
 62
     0
100
AcDbLine
 10
174.0742685336748
 20
278.6940505881484
 30
0.0
 11
172.4742685336743
 21
278.6940505881484
 31
0.0
  0
LINE
  5
AFA
330
1F
100
AcDbEntity
  8
外枠
 62
     0
100
AcDbLine
 10
172.774342846221
 20
279.3940505881473
 30
0.0
 11
173.8743428462232
 21
279.3940505881473
 31
0.0
  0
LINE
  5
AFB
330
1F
100
AcDbEntity
  8
外枠
 62
     0
100
AcDbLine
 10
172.774342846221
 20
280.6940505881465
 30
0.0
 11
173.8743428462232
 21
280.6940505881465
 31
0.0
  0
LINE
  5
AFC
330
1F
100
AcDbEntity
  8
外枠
 62
     0
100
AcDbLine
 10
172.774342846221
 20
280.6940505881465
 30
0.0
 11
173.8743428462232
 21
280.6940505881465
 31
0.0
  0
LINE
  5
AFD
330
1F
100
AcDbEntity
  8
外枠
 62
     0
100
AcDbLine
 10
172.774342846221
 20
279.3940505881473
 30
0.0
 11
173.8743428462232
 21
279.3940505881473
 31
0.0
  0
LINE
  5
AFE
330
1F
100
AcDbEntity
  8
外枠
 62
     0
100
AcDbLine
 10
172.774342846221
 20
279.3940505881491
 30
0.0
 11
172.774342846221
 21
280.6940505881484
 31
0.0
  0
LINE
  5
AFF
330
1F
100
AcDbEntity
  8
外枠
 62
     0
100
AcDbLine
 10
172.774342846221
 20
284.8940505881472
 30
0.0
 11
173.8743428462232
 21
284.8940505881472
 31
0.0
  0
LINE
  5
B00
330
1F
100
AcDbEntity
  8
外枠
 62
     0
100
AcDbLine
 10
172.774342846221
 20
286.1940505881466
 30
0.0
 11
173.8743428462232
 21
286.1940505881466
 31
0.0
  0
LINE
  5
B01
330
1F
100
AcDbEntity
  8
外枠
 62
     0
100
AcDbLine
 10
172.774342846221
 20
286.1940505881466
 30
0.0
 11
173.8743428462232
 21
286.1940505881466
 31
0.0
  0
LINE
  5
B02
330
1F
100
AcDbEntity
  8
外枠
 62
     0
100
AcDbLine
 10
172.774342846221
 20
284.8940505881472
 30
0.0
 11
173.8743428462232
 21
284.8940505881472
 31
0.0
  0
LINE
  5
B03
330
1F
100
AcDbEntity
  8
外枠
 62
     0
100
AcDbLine
 10
172.774342846221
 20
284.8940505881492
 30
0.0
 11
172.774342846221
 21
286.1940505881483
 31
0.0
  0
LINE
  5
B04
330
1F
100
AcDbEntity
  8
0
 62
     0
100
AcDbLine
 10
173.8743428462232
 20
286.1940505881466
 30
0.0
 11
173.8743428462232
 21
284.8940505881472
 31
0.0
  0
LINE
  5
B05
330
1F
100
AcDbEntity
  8
0
 62
     0
100
AcDbLine
 10
173.8743428462232
 20
280.6940505881465
 30
0.0
 11
173.8743428462232
 21
279.3940505881473
 31
0.0
  0
LINE
  5
B06
330
1F
100
AcDbEntity
  8
0
100
AcDbLine
 10
170.4742436462231
 20
244.5114441121986
 30
0.0
 11
170.4742436462233
 21
276.8114477121961
 31
0.0
  0
LINE
  5
B07
330
1F
100
AcDbEntity
  8
CLASS1
100
AcDbLine
 10
156.074342846224
 20
244.5114441121986
 30
0.0
 11
156.074342846224
 21
138.9331381497557
 31
0.0
  0
LINE
  5
B08
330
1F
100
AcDbEntity
  8
0
100
AcDbLine
 10
156.074342846224
 20
244.5114441121986
 30
0.0
 11
170.4742436462231
 21
244.5114441121986
 31
0.0
  0
LINE
  5
B09
330
1F
100
AcDbEntity
  8
0
100
AcDbLine
 10
156.0743428462242
 20
276.8114477121961
 30
0.0
 11
170.4742436462233
 21
276.8114477121961
 31
0.0
  0
LINE
  5
B0A
330
1F
100
AcDbEntity
  8
0
 62
     0
100
AcDbLine
 10
156.0743428462242
 20
276.8114477121961
 30
0.0
 11
156.0743428462242
 21
291.7331381497551
 31
0.0
  0
LINE
  5
B10
330
1F
100
AcDbEntity
  8
CLASS1
100
AcDbLine
 10
334.4485651204801
 20
133.8274621497536
 30
0.0
 11
334.4485651204801
 21
138.8287521497536
 31
0.0
  0
LINE
  5
B11
330
1F
100
AcDbEntity
  8
CLASS1
100
AcDbLine
 10
268.8260481204804
 20
135.3054471497537
 30
0.0
 11
334.4485651204801
 21
133.8274621497536
 31
0.0
  0
LINE
  5
B12
330
1F
100
AcDbEntity
  8
CLASS1
100
AcDbLine
 10
336.9485651204803
 20
305.3290111497535
 30
0.0
 11
336.9485651204801
 21
126.8290111497534
 31
0.0
  0
LINE
  5
B13
330
1F
100
AcDbEntity
  8
CLASS1
100
AcDbLine
 10
288.9255633781038
 20
266.4990111497534
 30
0.0
 11
335.4485651204802
 21
267.5790111497535
 31
0.0
  0
LINE
  5
B14
330
1F
100
AcDbEntity
  8
CLASS1
100
AcDbLine
 10
289.4255631204801
 20
266.2701201497536
 30
0.0
 11
335.4485651204802
 21
267.3290111497535
 31
0.0
  0
LINE
  5
B15
330
1F
100
AcDbEntity
  8
CLASS1
100
AcDbLine
 10
310.3278901204804
 20
221.9440111497537
 30
0.0
 11
315.5537401204802
 21
221.9440111497537
 31
0.0
  0
LINE
  5
B16
330
1F
100
AcDbEntity
  8
CLASS1
100
AcDbLine
 10
310.3278901204804
 20
221.9440111497537
 30
0.0
 11
315.5537401204802
 21
221.9440111497537
 31
0.0
  0
LINE
  5
B17
330
1F
100
AcDbEntity
  8
CLASS1
100
AcDbLine
 10
313.1723401204802
 20
208.7140111497534
 30
0.0
 11
318.1335901204803
 21
208.7140111497534
 31
0.0
  0
LINE
  5
B18
330
1F
100
AcDbEntity
  8
CLASS1
100
AcDbLine
 10
313.1723401204802
 20
208.7140111497534
 30
0.0
 11
318.1335901204803
 21
208.7140111497534
 31
0.0
  0
HATCH
  5
B19
330
1F
100
AcDbEntity
  8
CLASS1
100
AcDbHatch
 10
0.0
 20
0.0
 30
0.0
210
0.0
220
0.0
230
1.0
  2
SOLID
 70
     1
 71
     0
 91
        1
 92
        1
 93
       13
 72
     1
 10
307.4243773567995
 20
212.0215109846549
 11
306.2931766189706
 21
210.3131172437101
 72
     2
 10
307.2859669796796
 20
209.6557481831549
 40
1.190699999999956
 50
866.48975
 51
952.2706859999995
 73
     1
 72
     1
 10
306.5573398192188
 20
208.714010984655
 11
301.7945399441798
 21
208.714010984655
 72
     1
 10
301.7945399441798
 20
208.714010984655
 11
310.552843773339
 21
220.6300704586638
 72
     2
 10
309.8066252981797
 20
221.1785410451547
 40
0.9261000000000107
 50
1043.684112999998
 51
1135.746171999999
 73
     1
 72
     1
 10
310.3278900885906
 20
221.944010984655
 11
315.5537399441799
 21
221.944010984655
 72
     1
 10
315.5537399441799
 20
221.944010984655
 11
318.13358994418
 21
208.714010984655
 72
     1
 10
318.13358994418
 20
208.714010984655
 11
313.1723399441801
 21
208.714010984655
 72
     1
 10
313.1723399441801
 20
208.714010984655
 11
312.5273774441801
 21
212.0215109846549
 72
     1
 10
312.5273774441801
 20
212.0215109846549
 11
312.19199694418
 21
213.7414109846549
 72
     1
 10
312.19199694418
 20
213.7414109846549
 11
311.3664449441801
 21
217.9750109846549
 72
     1
 10
311.3664449441801
 20
217.9750109846549
 11
308.5631968820424
 21
213.7414109846549
 72
     1
 10
308.5631968820424
 20
213.7414109846549
 11
307.4243773567995
 21
212.0215109846549
 97
        0
 75
     0
 76
     1
 98
        1
 10
242.5140531204803
 20
195.1147281497537
  0
HATCH
  5
B1A
330
1F
100
AcDbEntity
  8
CLASS1
100
AcDbHatch
 10
0.0
 20
0.0
 30
0.0
210
0.0
220
0.0
230
1.0
  2
SOLID
 70
     1
 71
     0
 91
        1
 92
        1
 93
       13
 72
     1
 10
307.4243773567991
 20
212.0215109846549
 11
306.2931766189705
 21
210.3131172437101
 72
     2
 10
307.2859669796796
 20
209.6557481831549
 40
1.190699999999956
 50
866.48975
 51
952.2706859999995
 73
     1
 72
     1
 10
306.5573398192188
 20
208.714010984655
 11
301.7945399441797
 21
208.714010984655
 72
     1
 10
301.7945399441797
 20
208.714010984655
 11
310.5528437733387
 21
220.6300704586638
 72
     2
 10
309.8066252981797
 20
221.1785410451547
 40
0.9261000000000107
 50
1043.684112999998
 51
1135.746171999999
 73
     1
 72
     1
 10
310.3278900885904
 20
221.944010984655
 11
315.5537399441797
 21
221.944010984655
 72
     1
 10
315.5537399441797
 20
221.944010984655
 11
318.1335899441798
 21
208.714010984655
 72
     1
 10
318.1335899441798
 20
208.714010984655
 11
313.1723399441799
 21
208.714010984655
 72
     1
 10
313.1723399441799
 20
208.714010984655
 11
312.5273774441798
 21
212.0215109846549
 72
     1
 10
312.5273774441798
 20
212.0215109846549
 11
312.1919969441798
 21
213.7414109846549
 72
     1
 10
312.1919969441798
 20
213.7414109846549
 11
311.3664449441798
 21
217.9750109846549
 72
     1
 10
311.3664449441798
 20
217.9750109846549
 11
308.5631968820424
 21
213.7414109846549
 72
     1
 10
308.5631968820424
 20
213.7414109846549
 11
307.4243773567991
 21
212.0215109846549
 97
        0
 75
     0
 76
     1
 98
        1
 10
242.5140531204803
 20
195.1147281497537
  0
LINE
  5
B1B
330
1F
100
AcDbEntity
  8
CLASS1
100
AcDbLine
 10
274.9808371204807
 20
290.4579131497537
 30
0.0
 11
334.4255631204803
 21
291.8256091497535
 31
0.0
  0
LINE
  5
B1C
330
1F
100
AcDbEntity
  8
CLASS1
100
AcDbLine
 10
268.8260481204804
 20
295.3494771497537
 30
0.0
 11
334.4485651204802
 21
296.8274621497536
 31
0.0
  0
LINE
  5
B1D
330
1F
100
AcDbEntity
  8
CLASS1
100
AcDbLine
 10
288.7375458578801
 20
164.1590111497535
 30
0.0
 11
335.4485651204801
 21
163.0790111497534
 31
0.0
  0
LINE
  5
B1E
330
1F
100
AcDbEntity
  8
CLASS1
100
AcDbLine
 10
289.4255631204801
 20
164.3879021497535
 30
0.0
 11
335.4485651204801
 21
163.3290111497534
 31
0.0
  0
LINE
  5
B1F
330
1F
100
AcDbEntity
  8
CLASS1
100
AcDbLine
 10
334.4258441204804
 20
138.8292691497534
 30
0.0
 11
274.9811171204803
 21
140.1802861497535
 31
0.0
  0
LINE
  5
B20
330
1F
100
AcDbEntity
  8
CLASS1
100
AcDbLine
 10
287.9485651204802
 20
265.5016674801016
 30
0.0
 11
287.9485651204801
 21
165.1414376768856
 31
0.0
  0
LINE
  5
B21
330
1F
100
AcDbEntity
  8
CLASS1
100
AcDbLine
 10
288.4485651204801
 20
165.3876371497534
 30
0.0
 11
288.4485651204802
 21
265.2703851497534
 31
0.0
  0
LINE
  5
B22
330
1F
100
AcDbEntity
  8
CLASS1
100
AcDbLine
 10
274.0038391204805
 20
289.4581781497537
 30
0.0
 11
274.0038391204805
 21
141.1800281497536
 31
0.0
  0
LINE
  5
B23
330
1F
100
AcDbEntity
  8
CLASS1
100
AcDbLine
 10
268.1485651204805
 20
137.8274621497536
 30
0.0
 11
268.1485651204805
 21
292.8274621497537
 31
0.0
  0
LINE
  5
B24
330
1F
100
AcDbEntity
  8
CLASS1
100
AcDbLine
 10
268.6328911204801
 20
137.8274621497536
 30
0.0
 11
268.6328911204804
 21
292.8274621497537
 31
0.0
  0
LINE
  5
B25
330
1F
100
AcDbEntity
  8
CLASS1
100
AcDbLine
 10
268.9040421204802
 20
136.2814211497535
 30
0.0
 11
268.9040421204803
 21
294.3735031497536
 31
0.0
  0
ARC
  5
B26
330
1F
100
AcDbEntity
  8
CLASS1
100
AcDbCircle
 10
268.8485651204806
 20
294.3497311497536
 30
0.0
 40
1.0
100
AcDbArc
 50
91.29022700000518
 51
180.0
  0
LINE
  5
B27
330
1F
100
AcDbEntity
  8
CLASS1
100
AcDbLine
 10
268.6328911204804
 20
292.8274621497537
 30
0.0
 11
267.8485651204804
 21
292.8274621497537
 31
0.0
  0
LINE
  5
B28
330
1F
100
AcDbEntity
  8
CLASS1
100
AcDbLine
 10
267.8485651204804
 20
294.3497311497539
 30
0.0
 11
267.8485651204804
 21
292.8274621497537
 31
0.0
  0
ARC
  5
B29
330
1F
100
AcDbEntity
  8
CLASS1
100
AcDbCircle
 10
269.9040421204804
 20
294.3735031497535
 30
0.0
 40
1.0
100
AcDbArc
 50
91.29022700000518
 51
180.0
  0
ARC
  5
B2A
330
1F
100
AcDbEntity
  8
CLASS1
100
AcDbCircle
 10
275.0038391204808
 20
289.4581781497535
 30
0.0
 40
1.0
100
AcDbArc
 50
91.31802100000404
 51
180.0
  0
ARC
  5
B2B
330
1F
100
AcDbEntity
  8
CLASS1
100
AcDbCircle
 10
288.9485622600708
 20
265.4992756584272
 30
0.0
 40
1.0
100
AcDbArc
 50
91.31801900000615
 51
180.0
  0
ARC
  5
B2C
330
1F
100
AcDbEntity
  8
CLASS1
100
AcDbCircle
 10
289.4485651204803
 20
265.2703851497538
 30
0.0
 40
1.0
100
AcDbArc
 50
91.31801899999313
 51
180.0
  0
LINE
  5
B2D
330
1F
100
AcDbEntity
  8
0
100
AcDbLine
 10
267.6485651204805
 20
227.4071261497538
 30
0.0
 11
267.6485651204806
 21
230.4071261497537
 31
0.0
  0
LINE
  5
B2E
330
1F
100
AcDbEntity
  8
0
100
AcDbLine
 10
267.6485651204805
 20
227.4071261497538
 30
0.0
 11
268.6328911204804
 21
227.4071261497538
 31
0.0
  0
LINE
  5
B2F
330
1F
100
AcDbEntity
  8
0
100
AcDbLine
 10
267.6485651204806
 20
230.4071261497537
 30
0.0
 11
268.6328911204804
 21
230.4071261497537
 31
0.0
  0
LINE
  5
B30
330
1F
100
AcDbEntity
  8
0
100
AcDbLine
 10
267.6485651204805
 20
186.2531381497534
 30
0.0
 11
267.6485651204805
 21
189.2531381497534
 31
0.0
  0
LINE
  5
B31
330
1F
100
AcDbEntity
  8
0
100
AcDbLine
 10
267.6485651204805
 20
186.2531381497534
 30
0.0
 11
268.6328911204804
 21
186.2531381497534
 31
0.0
  0
LINE
  5
B32
330
1F
100
AcDbEntity
  8
0
100
AcDbLine
 10
267.6485651204805
 20
189.2531381497534
 30
0.0
 11
268.6328911204804
 21
189.2531381497534
 31
0.0
  0
LINE
  5
B33
330
1F
100
AcDbEntity
  8
CLASS1
100
AcDbLine
 10
268.6328911204801
 20
137.8274621497536
 30
0.0
 11
267.8485651204803
 21
137.8274621497536
 31
0.0
  0
LINE
  5
B34
330
1F
100
AcDbEntity
  8
CLASS1
100
AcDbLine
 10
267.8485651204803
 20
136.3051931497536
 30
0.0
 11
267.8485651204803
 21
137.8274621497536
 31
0.0
  0
ARC
  5
B35
330
1F
100
AcDbEntity
  8
CLASS1
100
AcDbCircle
 10
268.8485651204802
 20
136.3051931497536
 30
0.0
 40
1.0
100
AcDbArc
 50
180.0
 51
268.7097729999947
  0
ARC
  5
B36
330
1F
100
AcDbEntity
  8
CLASS1
100
AcDbCircle
 10
269.9040421204799
 20
136.2814211497535
 30
0.0
 40
1.0
100
AcDbArc
 50
180.0
 51
268.7097729999947
  0
LINE
  5
B37
330
1F
100
AcDbEntity
  8
CLASS1
100
AcDbLine
 10
301.9268401204802
 20
221.9440111497537
 30
0.0
 11
299.1485401204803
 21
208.7140111497534
 31
0.0
  0
LINE
  5
B38
330
1F
100
AcDbEntity
  8
CLASS1
100
AcDbLine
 10
301.9268401204802
 20
221.9440111497537
 30
0.0
 11
299.1485401204803
 21
208.7140111497534
 31
0.0
  0
HATCH
  5
B39
330
1F
100
AcDbEntity
  8
CLASS1
100
AcDbHatch
 10
0.0
 20
0.0
 30
0.0
210
0.0
220
0.0
230
1.0
  2
SOLID
 70
     1
 71
     0
 91
        1
 92
        1
 93
        5
 72
     1
 10
294.3857399441798
 20
208.714010984655
 11
296.8400822708866
 21
220.4013581380432
 72
     2
 10
295.4158482506798
 20
220.7004472121548
 40
1.455300000000043
 50
1068.140224
 51
1138.705292999999
 73
     1
 72
     1
 10
296.1717895405466
 20
221.944010984655
 11
301.9268399441802
 21
221.944010984655
 72
     1
 10
301.9268399441802
 20
221.944010984655
 11
299.1485399441796
 21
208.714010984655
 72
     1
 10
299.1485399441796
 20
208.714010984655
 11
294.3857399441798
 21
208.714010984655
 97
        0
 75
     0
 76
     1
 98
        1
 10
242.5140531204803
 20
195.1147281497537
  0
LINE
  5
B3A
330
1F
100
AcDbEntity
  8
CLASS1
100
AcDbLine
 10
296.8400821204803
 20
220.4013581497536
 30
0.0
 11
294.3857401204803
 21
208.7140111497534
 31
0.0
  0
LINE
  5
B3B
330
1F
100
AcDbEntity
  8
CLASS1
100
AcDbLine
 10
296.8400821204803
 20
220.4013581497536
 30
0.0
 11
294.3857401204803
 21
208.7140111497534
 31
0.0
  0
HATCH
  5
B3C
330
1F
100
AcDbEntity
  8
CLASS1
100
AcDbHatch
 10
0.0
 20
0.0
 30
0.0
210
0.0
220
0.0
230
1.0
  2
SOLID
 70
     1
 71
     0
 91
        1
 92
        1
 93
        5
 72
     1
 10
294.3857399441798
 20
208.714010984655
 11
296.8400822708863
 21
220.4013581380432
 72
     2
 10
295.4158482506798
 20
220.7004472121548
 40
1.455300000000043
 50
1068.140224
 51
1138.705292999999
 73
     1
 72
     1
 10
296.1717895405466
 20
221.944010984655
 11
301.9268399441799
 21
221.944010984655
 72
     1
 10
301.9268399441799
 20
221.944010984655
 11
299.1485399441796
 21
208.714010984655
 72
     1
 10
299.1485399441796
 20
208.714010984655
 11
294.3857399441798
 21
208.714010984655
 97
        0
 75
     0
 76
     1
 98
        1
 10
242.5140531204803
 20
195.1147281497537
  0
LINE
  5
B3D
330
1F
100
AcDbEntity
  8
CLASS1
100
AcDbLine
 10
310.5528431204803
 20
220.6300701497537
 30
0.0
 11
301.7945401204801
 21
208.7140111497534
 31
0.0
  0
LINE
  5
B3E
330
1F
100
AcDbEntity
  8
CLASS1
100
AcDbLine
 10
310.5528431204803
 20
220.6300701497537
 30
0.0
 11
301.7945401204801
 21
208.7140111497534
 31
0.0
  0
LINE
  5
B3F
330
1F
100
AcDbEntity
  8
CLASS1
100
AcDbLine
 10
301.9268401204802
 20
221.9440111497537
 30
0.0
 11
296.1717901204803
 21
221.9440111497537
 31
0.0
  0
LINE
  5
B40
330
1F
100
AcDbEntity
  8
CLASS1
100
AcDbLine
 10
301.9268401204802
 20
221.9440111497537
 30
0.0
 11
296.1717901204803
 21
221.9440111497537
 31
0.0
  0
ARC
  5
B41
330
1F
100
AcDbEntity
  8
CLASS1
100
AcDbCircle
 10
295.4158481204799
 20
220.7004471497539
 30
0.0
 40
1.4553
100
AcDbArc
 50
348.1402210000033
 51
58.70528200000129
  0
ARC
  5
B42
330
1F
100
AcDbEntity
  8
CLASS1
100
AcDbCircle
 10
295.4158481204799
 20
220.7004471497539
 30
0.0
 40
1.4553
100
AcDbArc
 50
348.1402210000033
 51
58.70528200000129
  0
ARC
  5
B43
330
1F
100
AcDbEntity
  8
CLASS1
100
AcDbCircle
 10
309.8066251204801
 20
221.1785411497536
 30
0.0
 40
0.9261000000000001
100
AcDbArc
 50
323.6841139999937
 51
55.74619900000392
  0
ARC
  5
B44
330
1F
100
AcDbEntity
  8
CLASS1
100
AcDbCircle
 10
309.8066251204801
 20
221.1785411497536
 30
0.0
 40
0.9261000000000001
100
AcDbArc
 50
323.6841139999937
 51
55.74619900000392
  0
LINE
  5
B45
330
1F
100
AcDbEntity
  8
CLASS1
100
AcDbLine
 10
301.7945401204801
 20
208.7140111497534
 30
0.0
 11
306.5573401204801
 21
208.7140111497534
 31
0.0
  0
LINE
  5
B46
330
1F
100
AcDbEntity
  8
CLASS1
100
AcDbLine
 10
301.7945401204801
 20
208.7140111497534
 30
0.0
 11
306.5573401204801
 21
208.7140111497534
 31
0.0
  0
ARC
  5
B47
330
1F
100
AcDbEntity
  8
CLASS1
100
AcDbCircle
 10
305.1251751204801
 20
209.7603851497539
 30
0.0
 40
1.323
100
AcDbArc
 50
146.4897499999914
 51
232.2706919999944
  0
ARC
  5
B48
330
1F
100
AcDbEntity
  8
CLASS1
100
AcDbCircle
 10
305.1251751204801
 20
209.7603851497539
 30
0.0
 40
1.323
100
AcDbArc
 50
146.4897499999914
 51
232.2706919999944
  0
LINE
  5
B49
330
1F
100
AcDbEntity
  8
CLASS1
100
AcDbLine
 10
299.1485401204803
 20
208.7140111497534
 30
0.0
 11
294.3857401204803
 21
208.7140111497534
 31
0.0
  0
LINE
  5
B4A
330
1F
100
AcDbEntity
  8
CLASS1
100
AcDbLine
 10
299.1485401204803
 20
208.7140111497534
 30
0.0
 11
294.3857401204803
 21
208.7140111497534
 31
0.0
  0
LINE
  5
B4B
330
1F
100
AcDbEntity
  8
CLASS1
100
AcDbLine
 10
311.3664451204803
 20
217.9750111497536
 30
0.0
 11
313.1723401204802
 21
208.7140111497534
 31
0.0
  0
LINE
  5
B4C
330
1F
100
AcDbEntity
  8
CLASS1
100
AcDbLine
 10
311.3664451204803
 20
217.9750111497536
 30
0.0
 11
313.1723401204802
 21
208.7140111497534
 31
0.0
  0
SOLID
  5
B4D
330
1F
100
AcDbEntity
  8
CLASS1
100
AcDbTrace
 10
307.4243771204799
 20
212.0215111497539
 30
0.0
 11
308.5631971204801
 21
213.7414111497538
 31
0.0
 12
312.5273771204799
 22
212.0215111497539
 32
0.0
 13
312.1919971204801
 23
213.7414111497538
 33
0.0
  0
SOLID
  5
B4E
330
1F
100
AcDbEntity
  8
CLASS1
100
AcDbTrace
 10
307.4243771204799
 20
212.0215111497539
 30
0.0
 11
308.5631971204801
 21
213.7414111497538
 31
0.0
 12
312.5273771204799
 22
212.0215111497539
 32
0.0
 13
312.1919971204801
 23
213.7414111497538
 33
0.0
  0
LINE
  5
B4F
330
1F
100
AcDbEntity
  8
CLASS1
100
AcDbLine
 10
311.3664451204803
 20
217.9750111497536
 30
0.0
 11
306.2931761204803
 21
210.3131171497536
 31
0.0
  0
LINE
  5
B50
330
1F
100
AcDbEntity
  8
CLASS1
100
AcDbLine
 10
311.3664451204803
 20
217.9750111497536
 30
0.0
 11
306.2931761204803
 21
210.3131171497536
 31
0.0
  0
ARC
  5
B51
330
1F
100
AcDbEntity
  8
CLASS1
100
AcDbCircle
 10
288.9483338123013
 20
165.1363197339561
 30
0.0
 40
0.9997817914353085
100
AcDbArc
 50
179.706698188669
 51
257.828771090005
  0
ARC
  5
B52
330
1F
100
AcDbEntity
  8
CLASS1
100
AcDbCircle
 10
289.4485651204801
 20
165.3876371497536
 30
0.0
 40
1.0
100
AcDbArc
 50
180.0
 51
268.6819809999938
  0
ARC
  5
B53
330
1F
100
AcDbEntity
  8
CLASS1
100
AcDbCircle
 10
275.0038391204804
 20
141.1800281497536
 30
0.0
 40
1.0
100
AcDbArc
 50
180.0
 51
268.6980460000063
  0
LINE
  5
B54
330
1F
100
AcDbEntity
  8
CLASS1
100
AcDbLine
 10
335.4485651204802
 20
290.8258741497535
 30
0.0
 11
335.4485651204801
 21
139.8290111497534
 31
0.0
  0
LINE
  5
B55
330
1F
100
AcDbEntity
  8
CLASS1
100
AcDbLine
 10
335.4485651204801
 20
163.3290111497534
 30
0.0
 11
335.4485651204802
 21
267.3290111497535
 31
0.0
  0
LINE
  5
B56
330
1F
100
AcDbEntity
  8
CLASS1
100
AcDbLine
 10
335.4485651204801
 20
152.3261001497535
 30
0.0
 11
335.4485651204802
 21
278.3319221497535
 31
0.0
  0
LINE
  5
B57
330
1F
100
AcDbEntity
  8
0
100
AcDbLine
 10
334.4485651204802
 20
296.8274621497536
 30
0.0
 11
334.4485651204802
 21
305.3290111497535
 31
0.0
  0
LINE
  5
B58
330
1F
100
AcDbEntity
  8
CLASS1
100
AcDbLine
 10
334.4485651204802
 20
305.3290111497535
 30
0.0
 11
336.9485651204803
 21
305.3290111497535
 31
0.0
  0
ARC
  5
B59
330
1F
100
AcDbEntity
  8
CLASS1
100
AcDbCircle
 10
334.4485651204804
 20
290.8258741497535
 30
0.0
 40
1.0
100
AcDbArc
 50
0.0
 51
91.31802100000404
  0
LINE
  5
B5A
330
1F
100
AcDbEntity
  8
CLASS1
100
AcDbLine
 10
325.9485651204802
 20
269.8290111497535
 30
0.0
 11
325.9485651204804
 21
275.8290111497535
 31
0.0
  0
LINE
  5
B5B
330
1F
100
AcDbEntity
  8
CLASS1
100
AcDbLine
 10
329.4485651204802
 20
269.8290111497535
 30
0.0
 11
329.4485651204802
 21
275.8290111497535
 31
0.0
  0
LINE
  5
B5C
330
1F
100
AcDbEntity
  8
CLASS1
100
AcDbLine
 10
326.9381711204803
 20
275.3290111497534
 30
0.0
 11
326.9381711204802
 21
270.3290111497535
 31
0.0
  0
LINE
  5
B5D
330
1F
100
AcDbEntity
  8
CLASS1
100
AcDbLine
 10
328.9485651204802
 20
275.3290111497534
 30
0.0
 11
328.9485651204802
 21
270.3290111497535
 31
0.0
  0
LINE
  5
B5E
330
1F
100
AcDbEntity
  8
CLASS1
100
AcDbLine
 10
329.4485651204802
 20
275.3290111497534
 30
0.0
 11
329.4485651204802
 21
270.3290111497535
 31
0.0
  0
LINE
  5
B5F
330
1F
100
AcDbEntity
  8
CLASS1
100
AcDbLine
 10
334.4485651204802
 20
296.8274621497536
 30
0.0
 11
334.4485651204802
 21
291.8261381497536
 31
0.0
  0
LINE
  5
B60
330
1F
100
AcDbEntity
  8
CLASS1
100
AcDbLine
 10
325.9485651204804
 20
275.8290111497535
 30
0.0
 11
329.4485651204802
 21
275.8290111497535
 31
0.0
  0
LINE
  5
B61
330
1F
100
AcDbEntity
  8
CLASS1
100
AcDbLine
 10
329.4485651204802
 20
275.3290111497534
 30
0.0
 11
326.9381711204803
 21
275.3290111497534
 31
0.0
  0
LINE
  5
B62
330
1F
100
AcDbEntity
  8
CLASS1
100
AcDbLine
 10
325.9485651204802
 20
269.8290111497535
 30
0.0
 11
329.4485651204802
 21
269.8290111497535
 31
0.0
  0
LINE
  5
B63
330
1F
100
AcDbEntity
  8
CLASS1
100
AcDbLine
 10
326.9381711204802
 20
270.3290111497535
 30
0.0
 11
329.4485651204802
 21
270.3290111497535
 31
0.0
  0
LINE
  5
B64
330
1F
100
AcDbEntity
  8
CLASS1
100
AcDbLine
 10
315.5537401204802
 20
221.9440111497537
 30
0.0
 11
318.1335901204803
 21
208.7140111497534
 31
0.0
  0
LINE
  5
B65
330
1F
100
AcDbEntity
  8
CLASS1
100
AcDbLine
 10
315.5537401204802
 20
221.9440111497537
 30
0.0
 11
318.1335901204803
 21
208.7140111497534
 31
0.0
  0
LINE
  5
B66
330
1F
100
AcDbEntity
  8
CLASS1
100
AcDbLine
 10
329.5113901204803
 20
221.9440111497537
 30
0.0
 11
326.7330901204803
 21
208.7140111497534
 31
0.0
  0
LINE
  5
B67
330
1F
100
AcDbEntity
  8
CLASS1
100
AcDbLine
 10
329.5113901204803
 20
221.9440111497537
 30
0.0
 11
326.7330901204803
 21
208.7140111497534
 31
0.0
  0
HATCH
  5
B68
330
1F
100
AcDbEntity
  8
CLASS1
100
AcDbHatch
 10
0.0
 20
0.0
 30
0.0
210
0.0
220
0.0
230
1.0
  2
SOLID
 70
     1
 71
     0
 91
        1
 92
        1
 93
        5
 72
     1
 10
321.9702899441798
 20
208.714010984655
 11
324.4246322708866
 21
220.4013581380432
 72
     2
 10
323.0003982506798
 20
220.7004472121548
 40
1.455300000000043
 50
1068.140224
 51
1138.705292999999
 73
     1
 72
     1
 10
323.7563395405466
 20
221.944010984655
 11
329.5113899441797
 21
221.944010984655
 72
     1
 10
329.5113899441797
 20
221.944010984655
 11
326.7330899441798
 21
208.714010984655
 72
     1
 10
326.7330899441798
 20
208.714010984655
 11
321.9702899441798
 21
208.714010984655
 97
        0
 75
     0
 76
     1
 98
        1
 10
242.5140531204803
 20
195.1147281497537
  0
HATCH
  5
B69
330
1F
100
AcDbEntity
  8
CLASS1
100
AcDbHatch
 10
0.0
 20
0.0
 30
0.0
210
0.0
220
0.0
230
1.0
  2
SOLID
 70
     1
 71
     0
 91
        1
 92
        1
 93
        5
 72
     1
 10
321.9702899441796
 20
208.714010984655
 11
324.4246322708864
 21
220.4013581380432
 72
     2
 10
323.0003982506797
 20
220.7004472121548
 40
1.455300000000043
 50
1068.140224
 51
1138.705292999999
 73
     1
 72
     1
 10
323.7563395405466
 20
221.944010984655
 11
329.5113899441795
 21
221.944010984655
 72
     1
 10
329.5113899441797
 20
221.944010984655
 11
326.7330899441799
 21
208.714010984655
 72
     1
 10
326.7330899441798
 20
208.714010984655
 11
321.9702899441796
 21
208.714010984655
 97
        0
 75
     0
 76
     1
 98
        1
 10
242.5140531204803
 20
195.1147281497537
  0
LINE
  5
B6A
330
1F
100
AcDbEntity
  8
CLASS1
100
AcDbLine
 10
324.4246321204801
 20
220.4013581497536
 30
0.0
 11
321.9702901204801
 21
208.7140111497534
 31
0.0
  0
LINE
  5
B6B
330
1F
100
AcDbEntity
  8
CLASS1
100
AcDbLine
 10
324.4246321204801
 20
220.4013581497536
 30
0.0
 11
321.9702901204801
 21
208.7140111497534
 31
0.0
  0
LINE
  5
B6C
330
1F
100
AcDbEntity
  8
CLASS1
100
AcDbLine
 10
329.5113901204803
 20
221.9440111497537
 30
0.0
 11
323.7563401204803
 21
221.9440111497537
 31
0.0
  0
LINE
  5
B6D
330
1F
100
AcDbEntity
  8
CLASS1
100
AcDbLine
 10
329.5113901204803
 20
221.9440111497537
 30
0.0
 11
323.7563401204803
 21
221.9440111497537
 31
0.0
  0
ARC
  5
B6E
330
1F
100
AcDbEntity
  8
CLASS1
100
AcDbCircle
 10
323.00039812048
 20
220.7004471497539
 30
0.0
 40
1.4553
100
AcDbArc
 50
348.1402210000033
 51
58.70528200000129
  0
ARC
  5
B6F
330
1F
100
AcDbEntity
  8
CLASS1
100
AcDbCircle
 10
323.00039812048
 20
220.7004471497539
 30
0.0
 40
1.4553
100
AcDbArc
 50
348.1402210000033
 51
58.70528200000129
  0
LINE
  5
B70
330
1F
100
AcDbEntity
  8
CLASS1
100
AcDbLine
 10
326.7330901204803
 20
208.7140111497534
 30
0.0
 11
321.9702901204801
 21
208.7140111497534
 31
0.0
  0
LINE
  5
B71
330
1F
100
AcDbEntity
  8
CLASS1
100
AcDbLine
 10
326.7330901204803
 20
208.7140111497534
 30
0.0
 11
321.9702901204801
 21
208.7140111497534
 31
0.0
  0
ARC
  5
B72
330
1F
100
AcDbEntity
  8
CLASS1
100
AcDbCircle
 10
334.4485651204801
 20
139.8290111497534
 30
0.0
 40
1.0
100
AcDbArc
 50
268.6980469999988
 51
0.0
  0
LINE
  5
B73
330
1F
100
AcDbEntity
  8
CLASS1
100
AcDbLine
 10
325.9485651204801
 20
160.8290111497534
 30
0.0
 11
325.9485651204801
 21
154.8290111497534
 31
0.0
  0
LINE
  5
B74
330
1F
100
AcDbEntity
  8
CLASS1
100
AcDbLine
 10
326.93817112048
 20
155.3290111497534
 30
0.0
 11
326.93817112048
 21
160.3290111497534
 31
0.0
  0
LINE
  5
B75
330
1F
100
AcDbEntity
  8
CLASS1
100
AcDbLine
 10
328.9485651204801
 20
155.3290111497534
 30
0.0
 11
328.9485651204801
 21
160.3290111497534
 31
0.0
  0
LINE
  5
B76
330
1F
100
AcDbEntity
  8
CLASS1
100
AcDbLine
 10
329.4485651204801
 20
160.8290111497534
 30
0.0
 11
329.4485651204801
 21
154.8290111497534
 31
0.0
  0
LINE
  5
B77
330
1F
100
AcDbEntity
  8
CLASS1
100
AcDbLine
 10
329.4485651204801
 20
155.3290111497534
 30
0.0
 11
329.4485651204801
 21
160.3290111497534
 31
0.0
  0
LINE
  5
B78
330
1F
100
AcDbEntity
  8
CLASS1
100
AcDbLine
 10
325.9485651204801
 20
154.8290111497534
 30
0.0
 11
329.4485651204801
 21
154.8290111497534
 31
0.0
  0
LINE
  5
B79
330
1F
100
AcDbEntity
  8
CLASS1
100
AcDbLine
 10
325.9485651204801
 20
160.8290111497534
 30
0.0
 11
329.4485651204801
 21
160.8290111497534
 31
0.0
  0
LINE
  5
B7A
330
1F
100
AcDbEntity
  8
CLASS1
100
AcDbLine
 10
326.93817112048
 20
160.3290111497534
 30
0.0
 11
329.4485651204801
 21
160.3290111497534
 31
0.0
  0
LINE
  5
B7B
330
1F
100
AcDbEntity
  8
CLASS1
100
AcDbLine
 10
329.4485651204801
 20
155.3290111497534
 30
0.0
 11
326.93817112048
 21
155.3290111497534
 31
0.0
  0
LINE
  5
B7C
330
1F
100
AcDbEntity
  8
CLASS1
100
AcDbLine
 10
334.4485651204801
 20
126.8290111497534
 30
0.0
 11
336.9485651204801
 21
126.8290111497534
 31
0.0
  0
LINE
  5
B7D
330
1F
100
AcDbEntity
  8
0
100
AcDbLine
 10
334.4485651204801
 20
126.8290111497534
 30
0.0
 11
334.4485651204801
 21
133.8274621497536
 31
0.0
  0
LINE
  5
B80
330
1F
100
AcDbEntity
  8
CLASS1
  6
CONTINUOUS
 62
     0
100
AcDbLine
 10
163.9740595336765
 20
35.1000003719746
 30
0.0
 11
163.9740595336765
 21
33.1000003719746
 31
0.0
  0
LINE
  5
B81
330
1F
100
AcDbEntity
  8
CLASS1
  6
CONTINUOUS
 62
     0
100
AcDbLine
 10
162.4740595336765
 20
35.1000003719746
 30
0.0
 11
162.4740595336765
 21
33.1000003719746
 31
0.0
  0
LINE
  5
B82
330
1F
100
AcDbEntity
  8
CLASS1
  6
CONTINUOUS
 62
     0
100
AcDbLine
 10
175.4740595336766
 20
35.90000037197432
 30
0.0
 11
175.4740595336766
 21
25.90000037197432
 31
0.0
  0
LINE
  5
B83
330
1F
100
AcDbEntity
  8
CLASS1
  6
CONTINUOUS
 62
     0
100
AcDbLine
 10
165.4740595336765
 20
25.90000037197432
 30
0.0
 11
165.4740595336765
 21
35.90000037197432
 31
0.0
  0
LINE
  5
B84
330
1F
100
AcDbEntity
  8
CLASS1
  6
CONTINUOUS
 62
     0
100
AcDbLine
 10
166.9740595336765
 20
27.90000037197433
 30
0.0
 11
166.9740595336765
 21
33.90000037197433
 31
0.0
  0
LINE
  5
B85
330
1F
100
AcDbEntity
  8
CLASS1
  6
CONTINUOUS
 62
     0
100
AcDbLine
 10
173.9740595336766
 20
33.90000037197433
 30
0.0
 11
173.9740595336766
 21
27.90000037197433
 31
0.0
  0
LINE
  5
B86
330
1F
100
AcDbEntity
  8
CLASS1
  6
CONTINUOUS
 62
     0
100
AcDbLine
 10
185.0589345336765
 20
61.96012637197441
 30
0.0
 11
185.9744605336763
 21
2.515399371974353
 31
0.0
  0
LINE
  5
B87
330
1F
100
AcDbEntity
  8
CLASS1
  6
CONTINUOUS
 62
     0
100
AcDbLine
 10
151.8891835336764
 20
61.96012637197441
 30
0.0
 11
150.9736585336763
 21
2.515399371974353
 31
0.0
  0
LINE
  5
B88
330
1F
100
AcDbEntity
  8
CLASS1
  6
CONTINUOUS
 62
     0
100
AcDbLine
 10
178.5604905336765
 20
61.7965853719745
 30
0.0
 11
179.4737345336766
 21
2.500000371974465
 31
0.0
  0
LINE
  5
B89
330
1F
100
AcDbEntity
  8
CLASS1
  6
CONTINUOUS
 62
     0
100
AcDbLine
 10
158.3876595336764
 20
61.79859537197422
 30
0.0
 11
157.4743845336764
 21
2.500000371974465
 31
0.0
  0
LINE
  5
B8A
330
1F
100
AcDbEntity
  8
CLASS1
  6
CONTINUOUS
 62
     0
100
AcDbLine
 10
182.9779579554838
 20
68.19007279809511
 30
0.0
 11
183.9742685336764
 21
2.500000371974465
 31
0.0
  0
LINE
  5
B8B
330
1F
100
AcDbEntity
  8
CLASS1
  6
CONTINUOUS
 62
     0
100
AcDbLine
 10
153.9701611118695
 20
68.190073798095
 30
0.0
 11
152.9738505336764
 21
2.500000371974465
 31
0.0
  0
INSERT
  5
B8C
330
1F
100
AcDbEntity
  8
0
100
AcDbBlockReference
  2
A$C51C20FFB
 10
152.9742685336764
 20
0.0000017092966118
 30
0.0
  0
LINE
  5
B8D
330
1F
100
AcDbEntity
  8
CLASS1
  6
CONTINUOUS
 62
     0
100
AcDbLine
 10
152.9738505336764
 20
2.500000371974465
 30
0.0
 11
183.9742685336764
 21
2.500000371974465
 31
0.0
  0
LINE
  5
B8E
330
1F
100
AcDbEntity
  8
CLASS1
  6
CONTINUOUS
 62
     0
100
AcDbLine
 10
183.9742685336764
 20
1.500000371974465
 30
0.0
 11
184.9745795336765
 21
1.500000371974465
 31
0.0
  0
ARC
  5
B8F
330
1F
100
AcDbEntity
  8
CLASS1
  6
CONTINUOUS
 62
     0
100
AcDbCircle
 10
184.9745795336765
 20
2.500000371974691
 30
0.0
 40
1.0
100
AcDbArc
 50
270.0
 51
0.8823590000053204
  0
LINE
  5
B90
330
1F
100
AcDbEntity
  8
CLASS1
  6
CONTINUOUS
 62
     0
100
AcDbLine
 10
183.9742685336764
 20
1.500000371974465
 30
0.0
 11
183.9742685336764
 21
2.500000371974465
 31
0.0
  0
LINE
  5
B91
330
1F
100
AcDbEntity
  8
CLASS1
  6
CONTINUOUS
 62
     0
100
AcDbLine
 10
173.4740595336766
 20
27.40000037197432
 30
0.0
 11
167.4740595336765
 21
27.40000037197432
 31
0.0
  0
LINE
  5
B92
330
1F
100
AcDbEntity
  8
CLASS1
  6
CONTINUOUS
 62
     0
100
AcDbLine
 10
175.4740595336766
 20
25.90000037197432
 30
0.0
 11
165.4740595336765
 21
25.90000037197432
 31
0.0
  0
LINE
  5
B93
330
1F
100
AcDbEntity
  8
CLASS1
  6
CONTINUOUS
 62
     0
100
AcDbLine
 10
174.4740595336766
 20
23.1000003719746
 30
0.0
 11
162.4740595336765
 21
23.1000003719746
 31
0.0
  0
LINE
  5
B94
330
1F
100
AcDbEntity
  8
CLASS1
  6
CONTINUOUS
 62
     0
100
AcDbLine
 10
162.4740595336765
 20
21.1000003719746
 30
0.0
 11
174.4740595336766
 21
21.1000003719746
 31
0.0
  0
LINE
  5
B95
330
1F
100
AcDbEntity
  8
CLASS1
  6
CONTINUOUS
 62
     0
100
AcDbLine
 10
174.4740595336766
 20
19.1000003719746
 30
0.0
 11
162.4740595336765
 21
19.1000003719746
 31
0.0
  0
LINE
  5
B96
330
1F
100
AcDbEntity
  8
CLASS1
  6
CONTINUOUS
 62
     0
100
AcDbLine
 10
162.4740595336765
 20
17.1000003719746
 30
0.0
 11
174.4740595336766
 21
17.1000003719746
 31
0.0
  0
LINE
  5
B97
330
1F
100
AcDbEntity
  8
CLASS1
  6
CONTINUOUS
 62
     0
100
AcDbLine
 10
174.4740595336766
 20
11.1000003719746
 30
0.0
 11
162.4740595336765
 21
11.1000003719746
 31
0.0
  0
LINE
  5
B98
330
1F
100
AcDbEntity
  8
CLASS1
  6
CONTINUOUS
 62
     0
100
AcDbLine
 10
162.4740595336765
 20
13.1000003719746
 30
0.0
 11
174.4740595336766
 21
13.1000003719746
 31
0.0
  0
LINE
  5
B99
330
1F
100
AcDbEntity
  8
CLASS1
  6
CONTINUOUS
 62
     0
100
AcDbLine
 10
174.4740595336766
 20
15.1000003719746
 30
0.0
 11
162.4740595336765
 21
15.1000003719746
 31
0.0
  0
LINE
  5
B9A
330
1F
100
AcDbEntity
  8
CLASS1
  6
CONTINUOUS
 62
     0
100
AcDbLine
 10
162.4740595336765
 20
9.1000003719746
 30
0.0
 11
174.4740595336766
 21
9.1000003719746
 31
0.0
  0
LINE
  5
B9B
330
1F
100
AcDbEntity
  8
CLASS1
  6
CONTINUOUS
 62
     0
100
AcDbLine
 10
174.4740595336766
 20
17.1000003719746
 30
0.0
 11
174.4740595336766
 21
19.1000003719746
 31
0.0
  0
LINE
  5
B9C
330
1F
100
AcDbEntity
  8
CLASS1
  6
CONTINUOUS
 62
     0
100
AcDbLine
 10
174.4740595336766
 20
13.1000003719746
 30
0.0
 11
174.4740595336766
 21
15.1000003719746
 31
0.0
  0
LINE
  5
B9D
330
1F
100
AcDbEntity
  8
CLASS1
  6
CONTINUOUS
 62
     0
100
AcDbLine
 10
174.4740595336766
 20
9.1000003719746
 30
0.0
 11
174.4740595336766
 21
11.1000003719746
 31
0.0
  0
LINE
  5
B9E
330
1F
100
AcDbEntity
  8
CLASS1
  6
CONTINUOUS
 62
     0
100
AcDbLine
 10
175.4740595336766
 20
30.15000037197433
 30
0.0
 11
173.9740595336766
 21
30.15000037197433
 31
0.0
  0
LINE
  5
B9F
330
1F
100
AcDbEntity
  8
CLASS1
  6
CONTINUOUS
 62
     0
100
AcDbLine
 10
175.4740595336766
 20
31.65000037197433
 30
0.0
 11
173.9740595336766
 21
31.65000037197433
 31
0.0
  0
ARC
  5
BA0
330
1F
100
AcDbEntity
  8
CLASS1
  6
CONTINUOUS
 62
     0
100
AcDbCircle
 10
173.4740595336766
 20
27.90000037197454
 30
0.0
 40
0.5
100
AcDbArc
 50
270.0
 51
0.0
  0
LINE
  5
BA1
330
1F
100
AcDbEntity
  8
CLASS1
  6
CONTINUOUS
 62
     0
100
AcDbLine
 10
174.4740595336766
 20
21.1000003719746
 30
0.0
 11
174.4740595336766
 21
23.1000003719746
 31
0.0
  0
LINE
  5
BA2
330
1F
100
AcDbEntity
  8
CLASS1
  6
CONTINUOUS
 62
     0
100
AcDbLine
 10
162.4740595336765
 20
19.1000003719746
 30
0.0
 11
162.4740595336765
 21
17.1000003719746
 31
0.0
  0
LINE
  5
BA3
330
1F
100
AcDbEntity
  8
CLASS1
  6
CONTINUOUS
 62
     0
100
AcDbLine
 10
162.4740595336765
 20
15.1000003719746
 30
0.0
 11
162.4740595336765
 21
13.1000003719746
 31
0.0
  0
LINE
  5
BA4
330
1F
100
AcDbEntity
  8
CLASS1
  6
CONTINUOUS
 62
     0
100
AcDbLine
 10
162.4740595336765
 20
11.1000003719746
 30
0.0
 11
162.4740595336765
 21
9.1000003719746
 31
0.0
  0
LINE
  5
BA5
330
1F
100
AcDbEntity
  8
CLASS1
  6
CONTINUOUS
 62
     0
100
AcDbLine
 10
162.4740595336765
 20
33.1000003719746
 30
0.0
 11
163.9740595336765
 21
33.1000003719746
 31
0.0
  0
LINE
  5
BA6
330
1F
100
AcDbEntity
  8
CLASS1
  6
CONTINUOUS
 62
     0
100
AcDbLine
 10
162.4740595336765
 20
31.1000003719746
 30
0.0
 11
162.4740595336765
 21
29.1000003719746
 31
0.0
  0
LINE
  5
BA7
330
1F
100
AcDbEntity
  8
CLASS1
  6
CONTINUOUS
 62
     0
100
AcDbLine
 10
163.9740595336765
 20
31.1000003719746
 30
0.0
 11
163.9740595336765
 21
29.1000003719746
 31
0.0
  0
LINE
  5
BA8
330
1F
100
AcDbEntity
  8
CLASS1
  6
CONTINUOUS
 62
     0
100
AcDbLine
 10
162.4740595336765
 20
29.1000003719746
 30
0.0
 11
163.9740595336765
 21
29.1000003719746
 31
0.0
  0
LINE
  5
BA9
330
1F
100
AcDbEntity
  8
CLASS1
  6
CONTINUOUS
 62
     0
100
AcDbLine
 10
163.9740595336765
 20
31.1000003719746
 30
0.0
 11
162.4740595336765
 21
31.1000003719746
 31
0.0
  0
LINE
  5
BAA
330
1F
100
AcDbEntity
  8
CLASS1
  6
CONTINUOUS
 62
     0
100
AcDbLine
 10
166.9740595336765
 20
30.15000037197433
 30
0.0
 11
165.4740595336765
 21
30.15000037197433
 31
0.0
  0
LINE
  5
BAB
330
1F
100
AcDbEntity
  8
CLASS1
  6
CONTINUOUS
 62
     0
100
AcDbLine
 10
166.9740595336765
 20
31.65000037197433
 30
0.0
 11
165.4740595336765
 21
31.65000037197433
 31
0.0
  0
ARC
  5
BAC
330
1F
100
AcDbEntity
  8
CLASS1
  6
CONTINUOUS
 62
     0
100
AcDbCircle
 10
167.4740595336765
 20
27.90000037197454
 30
0.0
 40
0.5
100
AcDbArc
 50
180.0
 51
270.0
  0
LINE
  5
BAD
330
1F
100
AcDbEntity
  8
CLASS1
  6
CONTINUOUS
 62
     0
100
AcDbLine
 10
162.4740595336765
 20
27.1000003719746
 30
0.0
 11
162.4740595336765
 21
25.1000003719746
 31
0.0
  0
LINE
  5
BAE
330
1F
100
AcDbEntity
  8
CLASS1
  6
CONTINUOUS
 62
     0
100
AcDbLine
 10
163.9740595336765
 20
27.1000003719746
 30
0.0
 11
163.9740595336765
 21
25.1000003719746
 31
0.0
  0
LINE
  5
BAF
330
1F
100
AcDbEntity
  8
CLASS1
  6
CONTINUOUS
 62
     0
100
AcDbLine
 10
163.9740595336765
 20
27.1000003719746
 30
0.0
 11
162.4740595336765
 21
27.1000003719746
 31
0.0
  0
LINE
  5
BB0
330
1F
100
AcDbEntity
  8
CLASS1
  6
CONTINUOUS
 62
     0
100
AcDbLine
 10
162.4740595336765
 20
25.1000003719746
 30
0.0
 11
163.9740595336765
 21
25.1000003719746
 31
0.0
  0
LINE
  5
BB1
330
1F
100
AcDbEntity
  8
CLASS1
  6
CONTINUOUS
 62
     0
100
AcDbLine
 10
162.4740595336765
 20
23.1000003719746
 30
0.0
 11
162.4740595336765
 21
21.1000003719746
 31
0.0
  0
LINE
  5
BB2
330
1F
100
AcDbEntity
  8
CLASS1
  6
CONTINUOUS
 62
     0
100
AcDbLine
 10
152.9738505336764
 20
1.500000371974465
 30
0.0
 11
151.9735405336764
 21
1.500000371974465
 31
0.0
  0
LINE
  5
BB3
330
1F
100
AcDbEntity
  8
CLASS1
  6
CONTINUOUS
 62
     0
100
AcDbLine
 10
152.9738505336764
 20
2.500000371974465
 30
0.0
 11
152.9738505336764
 21
1.500000371974465
 31
0.0
  0
ARC
  5
BB4
330
1F
100
AcDbEntity
  8
CLASS1
  6
CONTINUOUS
 62
     0
100
AcDbCircle
 10
151.9735405336764
 20
2.500000371974691
 30
0.0
 40
1.0
100
AcDbArc
 50
179.1176409999945
 51
270.0
  0
LINE
  5
BB5
330
1F
100
AcDbEntity
  8
CLASS1
  6
CONTINUOUS
 62
     0
100
AcDbLine
 10
184.0590525336764
 20
62.94472637197419
 30
0.0
 11
183.0433405336766
 21
62.94472637197419
 31
0.0
  0
ARC
  5
BB6
330
1F
100
AcDbEntity
  8
CLASS1
  6
CONTINUOUS
 62
     0
100
AcDbCircle
 10
184.0590525336764
 20
61.94472637197441
 30
0.0
 40
1.0
100
AcDbArc
 50
0.8823590000053204
 51
90.0
  0
ARC
  5
BB7
330
1F
100
AcDbEntity
  8
CLASS1
  6
CONTINUOUS
 62
     0
100
AcDbCircle
 10
160.3873905336764
 20
61.76578637197462
 30
0.0
 40
2.0
100
AcDbArc
 50
94.73325899999677
 51
179.1176409999945
  0
LINE
  5
BB8
330
1F
100
AcDbEntity
  8
CLASS1
  6
CONTINUOUS
 62
     0
100
AcDbLine
 10
162.4740595336765
 20
57.1000003719746
 30
0.0
 11
174.4740595336766
 21
57.1000003719746
 31
0.0
  0
LINE
  5
BB9
330
1F
100
AcDbEntity
  8
CLASS1
  6
CONTINUOUS
 62
     0
100
AcDbLine
 10
174.4740595336766
 20
59.1000003719746
 30
0.0
 11
162.4740595336765
 21
59.1000003719746
 31
0.0
  0
LINE
  5
BBA
330
1F
100
AcDbEntity
  8
CLASS1
  6
CONTINUOUS
 62
     0
100
AcDbLine
 10
174.4740595336766
 20
55.1000003719746
 30
0.0
 11
162.4740595336765
 21
55.1000003719746
 31
0.0
  0
LINE
  5
BBB
330
1F
100
AcDbEntity
  8
CLASS1
  6
CONTINUOUS
 62
     0
100
AcDbLine
 10
162.4740595336765
 20
53.1000003719746
 30
0.0
 11
174.4740595336766
 21
53.1000003719746
 31
0.0
  0
LINE
  5
BBC
330
1F
100
AcDbEntity
  8
CLASS1
  6
CONTINUOUS
 62
     0
100
AcDbLine
 10
174.4740595336766
 20
51.1000003719746
 30
0.0
 11
162.4740595336765
 21
51.1000003719746
 31
0.0
  0
LINE
  5
BBD
330
1F
100
AcDbEntity
  8
CLASS1
  6
CONTINUOUS
 62
     0
100
AcDbLine
 10
162.4740595336765
 20
49.1000003719746
 30
0.0
 11
174.4740595336766
 21
49.1000003719746
 31
0.0
  0
LINE
  5
BBE
330
1F
100
AcDbEntity
  8
CLASS1
  6
CONTINUOUS
 62
     0
100
AcDbLine
 10
174.4740595336766
 20
43.1000003719746
 30
0.0
 11
162.4740595336765
 21
43.1000003719746
 31
0.0
  0
LINE
  5
BBF
330
1F
100
AcDbEntity
  8
CLASS1
  6
CONTINUOUS
 62
     0
100
AcDbLine
 10
162.4740595336765
 20
45.1000003719746
 30
0.0
 11
174.4740595336766
 21
45.1000003719746
 31
0.0
  0
LINE
  5
BC0
330
1F
100
AcDbEntity
  8
CLASS1
  6
CONTINUOUS
 62
     0
100
AcDbLine
 10
174.4740595336766
 20
47.1000003719746
 30
0.0
 11
162.4740595336765
 21
47.1000003719746
 31
0.0
  0
LINE
  5
BC1
330
1F
100
AcDbEntity
  8
CLASS1
  6
CONTINUOUS
 62
     0
100
AcDbLine
 10
162.4740595336765
 20
41.1000003719746
 30
0.0
 11
174.4740595336766
 21
41.1000003719746
 31
0.0
  0
LINE
  5
BC2
330
1F
100
AcDbEntity
  8
CLASS1
  6
CONTINUOUS
 62
     0
100
AcDbLine
 10
165.4740595336765
 20
35.90000037197432
 30
0.0
 11
175.4740595336766
 21
35.90000037197432
 31
0.0
  0
LINE
  5
BC3
330
1F
100
AcDbEntity
  8
CLASS1
  6
CONTINUOUS
 62
     0
100
AcDbLine
 10
162.4740595336765
 20
37.1000003719746
 30
0.0
 11
174.4740595336766
 21
37.1000003719746
 31
0.0
  0
LINE
  5
BC4
330
1F
100
AcDbEntity
  8
CLASS1
  6
CONTINUOUS
 62
     0
100
AcDbLine
 10
174.4740595336766
 20
39.1000003719746
 30
0.0
 11
162.4740595336765
 21
39.1000003719746
 31
0.0
  0
LINE
  5
BC5
330
1F
100
AcDbEntity
  8
CLASS1
  6
CONTINUOUS
 62
     0
100
AcDbLine
 10
167.4740595336765
 20
34.40000037197433
 30
0.0
 11
173.4740595336766
 21
34.40000037197433
 31
0.0
  0
LINE
  5
BC6
330
1F
100
AcDbEntity
  8
CLASS1
  6
CONTINUOUS
 62
     0
100
AcDbLine
 10
174.4740595336766
 20
45.1000003719746
 30
0.0
 11
174.4740595336766
 21
47.1000003719746
 31
0.0
  0
LINE
  5
BC7
330
1F
100
AcDbEntity
  8
CLASS1
  6
CONTINUOUS
 62
     0
100
AcDbLine
 10
174.4740595336766
 20
37.1000003719746
 30
0.0
 11
174.4740595336766
 21
39.1000003719746
 31
0.0
  0
ARC
  5
BC8
330
1F
100
AcDbEntity
  8
CLASS1
  6
CONTINUOUS
 62
     0
100
AcDbCircle
 10
173.4740595336766
 20
33.90000037197455
 30
0.0
 40
0.5
100
AcDbArc
 50
0.0
 51
90.0
  0
LINE
  5
BC9
330
1F
100
AcDbEntity
  8
CLASS1
  6
CONTINUOUS
 62
     0
100
AcDbLine
 10
174.4740595336766
 20
41.1000003719746
 30
0.0
 11
174.4740595336766
 21
43.1000003719746
 31
0.0
  0
LINE
  5
BCA
330
1F
100
AcDbEntity
  8
CLASS1
  6
CONTINUOUS
 62
     0
100
AcDbLine
 10
174.4740595336766
 20
57.1000003719746
 30
0.0
 11
174.4740595336766
 21
59.1000003719746
 31
0.0
  0
LINE
  5
BCB
330
1F
100
AcDbEntity
  8
CLASS1
  6
CONTINUOUS
 62
     0
100
AcDbLine
 10
174.4740595336766
 20
49.1000003719746
 30
0.0
 11
174.4740595336766
 21
51.1000003719746
 31
0.0
  0
LINE
  5
BCC
330
1F
100
AcDbEntity
  8
CLASS1
  6
CONTINUOUS
 62
     0
100
AcDbLine
 10
174.4740595336766
 20
53.1000003719746
 30
0.0
 11
174.4740595336766
 21
55.1000003719746
 31
0.0
  0
LINE
  5
BCD
330
1F
100
AcDbEntity
  8
CLASS1
  6
CONTINUOUS
 62
     0
100
AcDbLine
 10
162.4740595336765
 20
47.1000003719746
 30
0.0
 11
162.4740595336765
 21
45.1000003719746
 31
0.0
  0
LINE
  5
BCE
330
1F
100
AcDbEntity
  8
CLASS1
  6
CONTINUOUS
 62
     0
100
AcDbLine
 10
162.4740595336765
 20
39.1000003719746
 30
0.0
 11
162.4740595336765
 21
37.1000003719746
 31
0.0
  0
ARC
  5
BCF
330
1F
100
AcDbEntity
  8
CLASS1
  6
CONTINUOUS
 62
     0
100
AcDbCircle
 10
167.4740595336765
 20
33.90000037197455
 30
0.0
 40
0.5
100
AcDbArc
 50
90.0
 51
180.0
  0
LINE
  5
BD0
330
1F
100
AcDbEntity
  8
CLASS1
  6
CONTINUOUS
 62
     0
100
AcDbLine
 10
163.9740595336765
 20
35.1000003719746
 30
0.0
 11
162.4740595336765
 21
35.1000003719746
 31
0.0
  0
LINE
  5
BD1
330
1F
100
AcDbEntity
  8
CLASS1
  6
CONTINUOUS
 62
     0
100
AcDbLine
 10
162.4740595336765
 20
43.1000003719746
 30
0.0
 11
162.4740595336765
 21
41.1000003719746
 31
0.0
  0
LINE
  5
BD2
330
1F
100
AcDbEntity
  8
CLASS1
  6
CONTINUOUS
 62
     0
100
AcDbLine
 10
162.4740595336765
 20
59.1000003719746
 30
0.0
 11
162.4740595336765
 21
57.1000003719746
 31
0.0
  0
LINE
  5
BD3
330
1F
100
AcDbEntity
  8
CLASS1
  6
CONTINUOUS
 62
     0
100
AcDbLine
 10
162.4740595336765
 20
51.1000003719746
 30
0.0
 11
162.4740595336765
 21
49.1000003719746
 31
0.0
  0
LINE
  5
BD4
330
1F
100
AcDbEntity
  8
CLASS1
  6
CONTINUOUS
 62
     0
100
AcDbLine
 10
162.4740595336765
 20
55.1000003719746
 30
0.0
 11
162.4740595336765
 21
53.1000003719746
 31
0.0
  0
ARC
  5
BD5
330
1F
100
AcDbEntity
  8
CLASS1
  6
CONTINUOUS
 62
     0
100
AcDbCircle
 10
168.4740595336765
 20
-35.8999996280254
 30
0.0
 40
100.0
100
AcDbArc
 50
85.2667410000032
 51
94.73325899999677
  0
ARC
  5
BD6
330
1F
100
AcDbEntity
  8
CLASS1
  6
CONTINUOUS
 62
     0
100
AcDbCircle
 10
176.5607265336766
 20
61.7657873719745
 30
0.0
 40
2.0
100
AcDbArc
 50
0.8823600000015774
 51
85.2667410000032
  0
LINE
  5
BD7
330
1F
100
AcDbEntity
  8
CLASS1
  6
CONTINUOUS
 62
     0
100
AcDbLine
 10
152.8890655336764
 20
62.94472637197419
 30
0.0
 11
153.9047765336764
 21
62.94472637197419
 31
0.0
  0
ARC
  5
BD8
330
1F
100
AcDbEntity
  8
CLASS1
  6
CONTINUOUS
 62
     0
100
AcDbCircle
 10
152.8890655336764
 20
61.94472637197441
 30
0.0
 40
1.0
100
AcDbArc
 50
90.0
 51
179.1176409999945
  0
LINE
  5
BD9
330
1F
100
AcDbEntity
  8
CLASS1
  6
CONTINUOUS
 62
     0
100
AcDbLine
 10
152.9738514063361
 20
435.3181809718968
 30
0.0
 11
183.974269406336
 21
435.3181809718968
 31
0.0
  0
INSERT
  5
BDA
330
1F
100
AcDbEntity
  8
0
100
AcDbBlockReference
  2
A$C51C20FFB
 10
183.9742694063359
 20
438.8181796345749
 30
0.0
 50
180.0
  0
LINE
  5
BDB
330
1F
100
AcDbEntity
  8
CLASS1
  6
CONTINUOUS
 62
     0
100
AcDbLine
 10
178.560492406336
 20
376.0215959718968
 30
0.0
 11
179.473735406336
 21
435.3181809718968
 31
0.0
  0
LINE
  5
BDC
330
1F
100
AcDbEntity
  8
CLASS1
  6
CONTINUOUS
 62
     0
100
AcDbLine
 10
185.0589364063361
 20
375.858054971897
 30
0.0
 11
185.9744614063361
 21
435.302781971897
 31
0.0
  0
LINE
  5
BDD
330
1F
100
AcDbEntity
  8
CLASS1
  6
CONTINUOUS
 62
     0
100
AcDbLine
 10
182.9779594063361
 20
370.6281069718972
 30
0.0
 11
183.974269406336
 21
435.3181809718968
 31
0.0
  0
ARC
  5
BDE
330
1F
100
AcDbEntity
  8
CLASS1
  6
CONTINUOUS
 62
     0
100
AcDbCircle
 10
184.0590544063359
 20
375.8734549718972
 30
0.0
 40
1.0
100
AcDbArc
 50
270.0
 51
359.1176409999946
  0
LINE
  5
BDF
330
1F
100
AcDbEntity
  8
CLASS1
  6
CONTINUOUS
 62
     0
100
AcDbLine
 10
184.0590544063361
 20
374.8734549718972
 30
0.0
 11
183.0433424063361
 21
374.8734549718972
 31
0.0
  0
ARC
  5
BE0
330
1F
100
AcDbEntity
  8
CLASS1
  6
CONTINUOUS
 62
     0
100
AcDbCircle
 10
184.9745804063359
 20
435.3181809718968
 30
0.0
 40
1.0
100
AcDbArc
 50
359.1176409999946
 51
90.0
  0
LINE
  5
BE1
330
1F
100
AcDbEntity
  8
CLASS1
  6
CONTINUOUS
 62
     0
100
AcDbLine
 10
183.974269406336
 20
436.3181809718969
 30
0.0
 11
183.974269406336
 21
435.3181809718968
 31
0.0
  0
LINE
  5
BE2
330
1F
100
AcDbEntity
  8
CLASS1
  6
CONTINUOUS
 62
     0
100
AcDbLine
 10
183.974269406336
 20
436.3181809718969
 30
0.0
 11
184.9745804063361
 21
436.3181809718969
 31
0.0
  0
LINE
  5
BE3
330
1F
100
AcDbEntity
  8
CLASS1
  6
CONTINUOUS
 62
     0
100
AcDbLine
 10
162.4740604063361
 20
391.7181809718969
 30
0.0
 11
162.4740604063361
 21
393.7181809718969
 31
0.0
  0
LINE
  5
BE4
330
1F
100
AcDbEntity
  8
CLASS1
  6
CONTINUOUS
 62
     0
100
AcDbLine
 10
174.4740604063361
 20
393.7181809718969
 30
0.0
 11
174.4740604063361
 21
391.7181809718969
 31
0.0
  0
LINE
  5
BE5
330
1F
100
AcDbEntity
  8
CLASS1
  6
CONTINUOUS
 62
     0
100
AcDbLine
 10
151.889185406336
 20
375.858054971897
 30
0.0
 11
150.9736594063363
 21
435.302781971897
 31
0.0
  0
LINE
  5
BE6
330
1F
100
AcDbEntity
  8
CLASS1
  6
CONTINUOUS
 62
     0
100
AcDbLine
 10
158.3876304063362
 20
376.0215959718968
 30
0.0
 11
157.474385406336
 21
435.3181809718968
 31
0.0
  0
LINE
  5
BE7
330
1F
100
AcDbEntity
  8
CLASS1
  6
CONTINUOUS
 62
     0
100
AcDbLine
 10
153.970189406336
 20
370.6264279718972
 30
0.0
 11
152.9738514063361
 21
435.3181809718968
 31
0.0
  0
ARC
  5
BE8
330
1F
100
AcDbEntity
  8
CLASS1
  6
CONTINUOUS
 62
     0
100
AcDbCircle
 10
160.387393406336
 20
376.0523939718971
 30
0.0
 40
2.0
100
AcDbArc
 50
180.8823600000014
 51
265.2667410000032
  0
LINE
  5
BE9
330
1F
100
AcDbEntity
  8
CLASS1
  6
CONTINUOUS
 62
     0
100
AcDbLine
 10
174.4740604063361
 20
391.7181809718969
 30
0.0
 11
162.4740604063361
 21
391.7181809718969
 31
0.0
  0
LINE
  5
BEA
330
1F
100
AcDbEntity
  8
CLASS1
  6
CONTINUOUS
 62
     0
100
AcDbLine
 10
174.4740604063361
 20
387.7181809718969
 30
0.0
 11
162.4740604063361
 21
387.7181809718969
 31
0.0
  0
LINE
  5
BEB
330
1F
100
AcDbEntity
  8
CLASS1
  6
CONTINUOUS
 62
     0
100
AcDbLine
 10
162.4740604063361
 20
389.7181809718969
 30
0.0
 11
174.4740604063361
 21
389.7181809718969
 31
0.0
  0
LINE
  5
BEC
330
1F
100
AcDbEntity
  8
CLASS1
  6
CONTINUOUS
 62
     0
100
AcDbLine
 10
162.4740604063361
 20
385.7181809718969
 30
0.0
 11
174.4740604063361
 21
385.7181809718969
 31
0.0
  0
LINE
  5
BED
330
1F
100
AcDbEntity
  8
CLASS1
  6
CONTINUOUS
 62
     0
100
AcDbLine
 10
174.4740604063361
 20
383.7181809718969
 30
0.0
 11
162.4740604063361
 21
383.7181809718969
 31
0.0
  0
LINE
  5
BEE
330
1F
100
AcDbEntity
  8
CLASS1
  6
CONTINUOUS
 62
     0
100
AcDbLine
 10
162.4740604063361
 20
381.7181809718969
 30
0.0
 11
174.4740604063361
 21
381.7181809718969
 31
0.0
  0
LINE
  5
BEF
330
1F
100
AcDbEntity
  8
CLASS1
  6
CONTINUOUS
 62
     0
100
AcDbLine
 10
174.4740604063361
 20
379.7181809718969
 30
0.0
 11
162.4740604063361
 21
379.7181809718969
 31
0.0
  0
ARC
  5
BF0
330
1F
100
AcDbEntity
  8
CLASS1
  6
CONTINUOUS
 62
     0
100
AcDbCircle
 10
168.4740604063362
 20
473.7181809718969
 30
0.0
 40
100.0
100
AcDbArc
 50
265.2667410000032
 51
274.7332589999968
  0
ARC
  5
BF1
330
1F
100
AcDbEntity
  8
CLASS1
  6
CONTINUOUS
 62
     0
100
AcDbCircle
 10
176.5607294063358
 20
376.0523949718969
 30
0.0
 40
2.0
100
AcDbArc
 50
274.7332589999968
 51
359.1176409999946
  0
LINE
  5
BF2
330
1F
100
AcDbEntity
  8
CLASS1
  6
CONTINUOUS
 62
     0
100
AcDbLine
 10
174.4740604063361
 20
389.7181809718969
 30
0.0
 11
174.4740604063361
 21
387.7181809718969
 31
0.0
  0
LINE
  5
BF3
330
1F
100
AcDbEntity
  8
CLASS1
  6
CONTINUOUS
 62
     0
100
AcDbLine
 10
174.4740604063361
 20
385.7181809718969
 30
0.0
 11
174.4740604063361
 21
383.7181809718969
 31
0.0
  0
LINE
  5
BF4
330
1F
100
AcDbEntity
  8
CLASS1
  6
CONTINUOUS
 62
     0
100
AcDbLine
 10
174.4740604063361
 20
381.7181809718969
 30
0.0
 11
174.4740604063361
 21
379.7181809718969
 31
0.0
  0
LINE
  5
BF5
330
1F
100
AcDbEntity
  8
CLASS1
  6
CONTINUOUS
 62
     0
100
AcDbLine
 10
162.4740604063361
 20
387.7181809718969
 30
0.0
 11
162.4740604063361
 21
389.7181809718969
 31
0.0
  0
LINE
  5
BF6
330
1F
100
AcDbEntity
  8
CLASS1
  6
CONTINUOUS
 62
     0
100
AcDbLine
 10
162.4740604063361
 20
383.7181809718969
 30
0.0
 11
162.4740604063361
 21
385.7181809718969
 31
0.0
  0
LINE
  5
BF7
330
1F
100
AcDbEntity
  8
CLASS1
  6
CONTINUOUS
 62
     0
100
AcDbLine
 10
162.4740604063361
 20
379.7181809718969
 30
0.0
 11
162.4740604063361
 21
381.7181809718969
 31
0.0
  0
ARC
  5
BF8
330
1F
100
AcDbEntity
  8
CLASS1
  6
CONTINUOUS
 62
     0
100
AcDbCircle
 10
152.8890674063358
 20
375.8734549718972
 30
0.0
 40
1.0
100
AcDbArc
 50
180.8823590000052
 51
270.0
  0
LINE
  5
BF9
330
1F
100
AcDbEntity
  8
CLASS1
  6
CONTINUOUS
 62
     0
100
AcDbLine
 10
152.8890674063361
 20
374.8734549718972
 30
0.0
 11
153.9047784063361
 21
374.8734549718972
 31
0.0
  0
LINE
  5
BFA
330
1F
100
AcDbEntity
  8
CLASS1
  6
CONTINUOUS
 62
     0
100
AcDbLine
 10
162.4740604063361
 20
421.718180971897
 30
0.0
 11
174.4740604063361
 21
421.718180971897
 31
0.0
  0
LINE
  5
BFB
330
1F
100
AcDbEntity
  8
CLASS1
  6
CONTINUOUS
 62
     0
100
AcDbLine
 10
174.4740604063361
 20
419.7181809718969
 30
0.0
 11
162.4740604063361
 21
419.7181809718969
 31
0.0
  0
LINE
  5
BFC
330
1F
100
AcDbEntity
  8
CLASS1
  6
CONTINUOUS
 62
     0
100
AcDbLine
 10
162.4740604063361
 20
417.718180971897
 30
0.0
 11
174.4740604063361
 21
417.718180971897
 31
0.0
  0
LINE
  5
BFD
330
1F
100
AcDbEntity
  8
CLASS1
  6
CONTINUOUS
 62
     0
100
AcDbLine
 10
174.4740604063361
 20
415.7181809718969
 30
0.0
 11
162.4740604063361
 21
415.7181809718969
 31
0.0
  0
LINE
  5
BFE
330
1F
100
AcDbEntity
  8
CLASS1
  6
CONTINUOUS
 62
     0
100
AcDbLine
 10
168.9490604063362
 20
410.8681809718971
 30
0.0
 11
164.7990604063361
 21
410.8681809718971
 31
0.0
  0
LINE
  5
BFF
330
1F
100
AcDbEntity
  8
CLASS1
  6
CONTINUOUS
 62
     0
100
AcDbLine
 10
169.5740604063361
 20
404.1181809718969
 30
0.0
 11
167.8740604063361
 21
404.1181809718969
 31
0.0
  0
LINE
  5
C00
330
1F
100
AcDbEntity
  8
CLASS1
  6
CONTINUOUS
 62
     0
100
AcDbLine
 10
169.5740604063361
 20
405.3181809718968
 30
0.0
 11
167.8740604063361
 21
405.3181809718968
 31
0.0
  0
LINE
  5
C01
330
1F
100
AcDbEntity
  8
CLASS1
  6
CONTINUOUS
 62
     0
100
AcDbLine
 10
168.9490604063362
 20
398.5681809718968
 30
0.0
 11
164.7990604063361
 21
398.5681809718968
 31
0.0
  0
LINE
  5
C02
330
1F
100
AcDbEntity
  8
CLASS1
  6
CONTINUOUS
 62
     0
100
AcDbLine
 10
162.4740604063361
 20
413.718180971897
 30
0.0
 11
174.4740604063361
 21
413.718180971897
 31
0.0
  0
LINE
  5
C03
330
1F
100
AcDbEntity
  8
CLASS1
  6
CONTINUOUS
 62
     0
100
AcDbLine
 10
162.4740604063361
 20
412.7181809718969
 30
0.0
 11
171.374060406336
 21
412.7181809718969
 31
0.0
  0
LINE
  5
C04
330
1F
100
AcDbEntity
  8
CLASS1
  6
CONTINUOUS
 62
     0
100
AcDbLine
 10
171.374060406336
 20
396.7181809718969
 30
0.0
 11
162.4740604063361
 21
396.7181809718969
 31
0.0
  0
LINE
  5
C05
330
1F
100
AcDbEntity
  8
CLASS1
  6
CONTINUOUS
 62
     0
100
AcDbLine
 10
174.4740604063361
 20
395.7181809718969
 30
0.0
 11
162.4740604063361
 21
395.7181809718969
 31
0.0
  0
LINE
  5
C06
330
1F
100
AcDbEntity
  8
CLASS1
  6
CONTINUOUS
 62
     0
100
AcDbLine
 10
162.4740604063361
 20
393.7181809718969
 30
0.0
 11
174.4740604063361
 21
393.7181809718969
 31
0.0
  0
LINE
  5
C07
330
1F
100
AcDbEntity
  8
CLASS1
  6
CONTINUOUS
 62
     0
100
AcDbLine
 10
169.5740604063361
 20
399.8181809718968
 30
0.0
 11
169.5740604063361
 21
409.6181809718971
 31
0.0
  0
LINE
  5
C08
330
1F
100
AcDbEntity
  8
CLASS1
  6
CONTINUOUS
 62
     0
100
AcDbLine
 10
171.374060406336
 20
409.718180971897
 30
0.0
 11
171.374060406336
 21
407.7181809718969
 31
0.0
  0
LINE
  5
C09
330
1F
100
AcDbEntity
  8
CLASS1
  6
CONTINUOUS
 62
     0
100
AcDbLine
 10
174.4740604063361
 20
409.718180971897
 30
0.0
 11
174.4740604063361
 21
407.7181809718969
 31
0.0
  0
LINE
  5
C0A
330
1F
100
AcDbEntity
  8
CLASS1
  6
CONTINUOUS
 62
     0
100
AcDbLine
 10
168.9490604063362
 20
398.5681809718968
 30
0.0
 11
168.9490604063362
 21
399.8181809718968
 31
0.0
  0
LINE
  5
C0B
330
1F
100
AcDbEntity
  8
CLASS1
  6
CONTINUOUS
 62
     0
100
AcDbLine
 10
169.5740604063361
 20
399.8181809718968
 30
0.0
 11
168.9490604063362
 21
399.8181809718968
 31
0.0
  0
LINE
  5
C0C
330
1F
100
AcDbEntity
  8
CLASS1
  6
CONTINUOUS
 62
     0
100
AcDbLine
 10
174.4740604063361
 20
407.7181809718969
 30
0.0
 11
171.374060406336
 21
407.7181809718969
 31
0.0
  0
LINE
  5
C0D
330
1F
100
AcDbEntity
  8
CLASS1
  6
CONTINUOUS
 62
     0
100
AcDbLine
 10
174.4740604063361
 20
403.7181809718969
 30
0.0
 11
171.374060406336
 21
403.7181809718969
 31
0.0
  0
LINE
  5
C0E
330
1F
100
AcDbEntity
  8
CLASS1
  6
CONTINUOUS
 62
     0
100
AcDbLine
 10
171.374060406336
 20
405.718180971897
 30
0.0
 11
171.374060406336
 21
403.7181809718969
 31
0.0
  0
LINE
  5
C0F
330
1F
100
AcDbEntity
  8
CLASS1
  6
CONTINUOUS
 62
     0
100
AcDbLine
 10
174.4740604063361
 20
405.718180971897
 30
0.0
 11
174.4740604063361
 21
403.7181809718969
 31
0.0
  0
LINE
  5
C10
330
1F
100
AcDbEntity
  8
CLASS1
  6
CONTINUOUS
 62
     0
100
AcDbLine
 10
171.374060406336
 20
405.718180971897
 30
0.0
 11
174.4740604063361
 21
405.718180971897
 31
0.0
  0
LINE
  5
C11
330
1F
100
AcDbEntity
  8
CLASS1
  6
CONTINUOUS
 62
     0
100
AcDbLine
 10
174.4740604063361
 20
401.7181809718969
 30
0.0
 11
174.4740604063361
 21
399.718180971897
 31
0.0
  0
LINE
  5
C12
330
1F
100
AcDbEntity
  8
CLASS1
  6
CONTINUOUS
 62
     0
100
AcDbLine
 10
171.374060406336
 20
401.7181809718969
 30
0.0
 11
171.374060406336
 21
399.718180971897
 31
0.0
  0
LINE
  5
C13
330
1F
100
AcDbEntity
  8
CLASS1
  6
CONTINUOUS
 62
     0
100
AcDbLine
 10
171.374060406336
 20
401.7181809718969
 30
0.0
 11
174.4740604063361
 21
401.7181809718969
 31
0.0
  0
LINE
  5
C14
330
1F
100
AcDbEntity
  8
CLASS1
  6
CONTINUOUS
 62
     0
100
AcDbLine
 10
174.4740604063361
 20
399.718180971897
 30
0.0
 11
171.374060406336
 21
399.718180971897
 31
0.0
  0
LINE
  5
C15
330
1F
100
AcDbEntity
  8
CLASS1
  6
CONTINUOUS
 62
     0
100
AcDbLine
 10
171.374060406336
 20
397.7181809718969
 30
0.0
 11
174.4740604063361
 21
397.7181809718969
 31
0.0
  0
LINE
  5
C16
330
1F
100
AcDbEntity
  8
CLASS1
  6
CONTINUOUS
 62
     0
100
AcDbLine
 10
171.374060406336
 20
397.7181809718969
 30
0.0
 11
171.374060406336
 21
396.7181809718969
 31
0.0
  0
LINE
  5
C17
330
1F
100
AcDbEntity
  8
CLASS1
  6
CONTINUOUS
 62
     0
100
AcDbLine
 10
174.4740604063361
 20
397.7181809718969
 30
0.0
 11
174.4740604063361
 21
395.7181809718969
 31
0.0
  0
LINE
  5
C18
330
1F
100
AcDbEntity
  8
CLASS1
  6
CONTINUOUS
 62
     0
100
AcDbLine
 10
174.4740604063361
 20
421.718180971897
 30
0.0
 11
174.4740604063361
 21
419.7181809718969
 31
0.0
  0
LINE
  5
C19
330
1F
100
AcDbEntity
  8
CLASS1
  6
CONTINUOUS
 62
     0
100
AcDbLine
 10
174.4740604063361
 20
417.718180971897
 30
0.0
 11
174.4740604063361
 21
415.7181809718969
 31
0.0
  0
LINE
  5
C1A
330
1F
100
AcDbEntity
  8
CLASS1
  6
CONTINUOUS
 62
     0
100
AcDbLine
 10
169.5740604063361
 20
409.6181809718971
 30
0.0
 11
168.9490604063362
 21
409.6181809718971
 31
0.0
  0
LINE
  5
C1B
330
1F
100
AcDbEntity
  8
CLASS1
  6
CONTINUOUS
 62
     0
100
AcDbLine
 10
168.9490604063362
 20
409.6181809718971
 30
0.0
 11
168.9490604063362
 21
410.8681809718971
 31
0.0
  0
LINE
  5
C1C
330
1F
100
AcDbEntity
  8
CLASS1
  6
CONTINUOUS
 62
     0
100
AcDbLine
 10
174.4740604063361
 20
413.718180971897
 30
0.0
 11
174.4740604063361
 21
411.7181809718969
 31
0.0
  0
LINE
  5
C1D
330
1F
100
AcDbEntity
  8
CLASS1
  6
CONTINUOUS
 62
     0
100
AcDbLine
 10
174.4740604063361
 20
411.7181809718969
 30
0.0
 11
171.374060406336
 21
411.7181809718969
 31
0.0
  0
LINE
  5
C1E
330
1F
100
AcDbEntity
  8
CLASS1
  6
CONTINUOUS
 62
     0
100
AcDbLine
 10
171.374060406336
 20
412.7181809718969
 30
0.0
 11
171.374060406336
 21
411.7181809718969
 31
0.0
  0
LINE
  5
C1F
330
1F
100
AcDbEntity
  8
CLASS1
  6
CONTINUOUS
 62
     0
100
AcDbLine
 10
171.374060406336
 20
409.718180971897
 30
0.0
 11
174.4740604063361
 21
409.718180971897
 31
0.0
  0
LINE
  5
C20
330
1F
100
AcDbEntity
  8
CLASS1
  6
CONTINUOUS
 62
     0
100
AcDbLine
 10
167.8740604063361
 20
401.218180971897
 30
0.0
 11
167.8740604063361
 21
408.2181809718969
 31
0.0
  0
LINE
  5
C21
330
1F
100
AcDbEntity
  8
CLASS1
  6
CONTINUOUS
 62
     0
100
AcDbLine
 10
165.874060406336
 20
401.218180971897
 30
0.0
 11
165.874060406336
 21
408.2181809718969
 31
0.0
  0
LINE
  5
C22
330
1F
100
AcDbEntity
  8
CLASS1
  6
CENTER
 62
     0
100
AcDbLine
 10
166.874060406336
 20
399.718180971897
 30
0.0
 11
166.874060406336
 21
411.7519229718969
 31
0.0
  0
LINE
  5
C23
330
1F
100
AcDbEntity
  8
CLASS1
  6
CONTINUOUS
 62
     0
100
AcDbLine
 10
164.2740604063361
 20
406.7181809718969
 30
0.0
 11
164.2740604063361
 21
409.6181809718971
 31
0.0
  0
LINE
  5
C24
330
1F
100
AcDbEntity
  8
CLASS1
  6
CONTINUOUS
 62
     0
100
AcDbLine
 10
162.5740604063361
 20
402.7181809718969
 30
0.0
 11
162.5740604063361
 21
406.7181809718969
 31
0.0
  0
LINE
  5
C25
330
1F
100
AcDbEntity
  8
CLASS1
  6
CONTINUOUS
 62
     0
100
AcDbLine
 10
164.2740604063361
 20
406.7181809718969
 30
0.0
 11
162.5740604063361
 21
406.7181809718969
 31
0.0
  0
LINE
  5
C26
330
1F
100
AcDbEntity
  8
CLASS1
  6
CONTINUOUS
 62
     0
100
AcDbLine
 10
165.874060406336
 20
405.3181809718968
 30
0.0
 11
162.5740604063361
 21
405.3181809718968
 31
0.0
  0
LINE
  5
C27
330
1F
100
AcDbEntity
  8
CLASS1
  6
CONTINUOUS
 62
     0
100
AcDbLine
 10
165.874060406336
 20
404.1181809718969
 30
0.0
 11
162.5740604063361
 21
404.1181809718969
 31
0.0
  0
LINE
  5
C28
330
1F
100
AcDbEntity
  8
CLASS1
  6
CONTINUOUS
 62
     0
100
AcDbLine
 10
164.2990604063361
 20
402.7181809718969
 30
0.0
 11
162.5740604063361
 21
402.7181809718969
 31
0.0
  0
ARC
  5
C29
330
1F
100
AcDbEntity
  8
CLASS1
  6
CONTINUOUS
 62
     0
100
AcDbCircle
 10
167.3740604063359
 20
401.218180971897
 30
0.0
 40
0.5
100
AcDbArc
 50
270.0
 51
0.0
  0
ARC
  5
C2A
330
1F
100
AcDbEntity
  8
CLASS1
  6
CONTINUOUS
 62
     0
100
AcDbCircle
 10
166.3740604063359
 20
401.218180971897
 30
0.0
 40
0.5
100
AcDbArc
 50
180.0
 51
270.0
  0
LINE
  5
C2B
330
1F
100
AcDbEntity
  8
CLASS1
  6
CONTINUOUS
 62
     0
100
AcDbLine
 10
164.7990604063361
 20
399.8181809718968
 30
0.0
 11
164.2990604063361
 21
399.8181809718968
 31
0.0
  0
LINE
  5
C2C
330
1F
100
AcDbEntity
  8
CLASS1
  6
CONTINUOUS
 62
     0
100
AcDbLine
 10
164.2990604063361
 20
399.8181809718968
 30
0.0
 11
164.2990604063361
 21
402.7181809718969
 31
0.0
  0
LINE
  5
C2D
330
1F
100
AcDbEntity
  8
CLASS1
  6
CONTINUOUS
 62
     0
100
AcDbLine
 10
164.7990604063361
 20
398.5681809718968
 30
0.0
 11
164.7990604063361
 21
399.8181809718968
 31
0.0
  0
LINE
  5
C2E
330
1F
100
AcDbEntity
  8
CLASS1
  6
CONTINUOUS
 62
     0
100
AcDbLine
 10
167.3740604063361
 20
400.718180971897
 30
0.0
 11
166.3740604063361
 21
400.718180971897
 31
0.0
  0
LINE
  5
C2F
330
1F
100
AcDbEntity
  8
CLASS1
  6
CONTINUOUS
 62
     0
100
AcDbLine
 10
162.4740604063361
 20
395.7181809718969
 30
0.0
 11
162.4740604063361
 21
396.7181809718969
 31
0.0
  0
LINE
  5
C30
330
1F
100
AcDbEntity
  8
CLASS1
  6
CONTINUOUS
 62
     0
100
AcDbLine
 10
162.4740604063361
 20
419.7181809718969
 30
0.0
 11
162.4740604063361
 21
421.718180971897
 31
0.0
  0
LINE
  5
C31
330
1F
100
AcDbEntity
  8
CLASS1
  6
CONTINUOUS
 62
     0
100
AcDbLine
 10
162.4740604063361
 20
415.7181809718969
 30
0.0
 11
162.4740604063361
 21
417.718180971897
 31
0.0
  0
LINE
  5
C32
330
1F
100
AcDbEntity
  8
CLASS1
  6
CONTINUOUS
 62
     0
100
AcDbLine
 10
162.4740604063361
 20
412.7181809718969
 30
0.0
 11
162.4740604063361
 21
413.718180971897
 31
0.0
  0
ARC
  5
C33
330
1F
100
AcDbEntity
  8
CLASS1
  6
CONTINUOUS
 62
     0
100
AcDbCircle
 10
167.3740604063359
 20
408.2181809718969
 30
0.0
 40
0.5
100
AcDbArc
 50
0.0
 51
90.0
  0
LINE
  5
C34
330
1F
100
AcDbEntity
  8
CLASS1
  6
CONTINUOUS
 62
     0
100
AcDbLine
 10
167.3740604063361
 20
408.7181809718969
 30
0.0
 11
166.3740604063361
 21
408.7181809718969
 31
0.0
  0
LINE
  5
C35
330
1F
100
AcDbEntity
  8
CLASS1
  6
CONTINUOUS
 62
     0
100
AcDbLine
 10
164.7990604063361
 20
409.6181809718971
 30
0.0
 11
164.2740604063361
 21
409.6181809718971
 31
0.0
  0
LINE
  5
C36
330
1F
100
AcDbEntity
  8
CLASS1
  6
CONTINUOUS
 62
     0
100
AcDbLine
 10
164.7990604063361
 20
409.6181809718971
 30
0.0
 11
164.7990604063361
 21
410.8681809718971
 31
0.0
  0
ARC
  5
C37
330
1F
100
AcDbEntity
  8
CLASS1
  6
CONTINUOUS
 62
     0
100
AcDbCircle
 10
166.3740604063359
 20
408.2181809718969
 30
0.0
 40
0.5
100
AcDbArc
 50
90.0
 51
180.0
  0
LINE
  5
C38
330
1F
100
AcDbEntity
  8
CLASS1
  6
CONTINUOUS
 62
     0
100
AcDbLine
 10
162.4740604063361
 20
429.718180971897
 30
0.0
 11
174.4740604063361
 21
429.718180971897
 31
0.0
  0
LINE
  5
C39
330
1F
100
AcDbEntity
  8
CLASS1
  6
CONTINUOUS
 62
     0
100
AcDbLine
 10
174.4740604063361
 20
427.7181809718969
 30
0.0
 11
162.4740604063361
 21
427.7181809718969
 31
0.0
  0
LINE
  5
C3A
330
1F
100
AcDbEntity
  8
CLASS1
  6
CONTINUOUS
 62
     0
100
AcDbLine
 10
162.4740604063361
 20
425.718180971897
 30
0.0
 11
174.4740604063361
 21
425.718180971897
 31
0.0
  0
LINE
  5
C3B
330
1F
100
AcDbEntity
  8
CLASS1
  6
CONTINUOUS
 62
     0
100
AcDbLine
 10
174.4740604063361
 20
423.7181809718969
 30
0.0
 11
162.4740604063361
 21
423.7181809718969
 31
0.0
  0
LINE
  5
C3C
330
1F
100
AcDbEntity
  8
CLASS1
  6
CONTINUOUS
 62
     0
100
AcDbLine
 10
174.4740604063361
 20
429.718180971897
 30
0.0
 11
174.4740604063361
 21
427.7181809718969
 31
0.0
  0
LINE
  5
C3D
330
1F
100
AcDbEntity
  8
CLASS1
  6
CONTINUOUS
 62
     0
100
AcDbLine
 10
174.4740604063361
 20
425.718180971897
 30
0.0
 11
174.4740604063361
 21
423.7181809718969
 31
0.0
  0
LINE
  5
C3E
330
1F
100
AcDbEntity
  8
CLASS1
  6
CONTINUOUS
 62
     0
100
AcDbLine
 10
162.4740604063361
 20
427.7181809718969
 30
0.0
 11
162.4740604063361
 21
429.718180971897
 31
0.0
  0
LINE
  5
C3F
330
1F
100
AcDbEntity
  8
CLASS1
  6
CONTINUOUS
 62
     0
100
AcDbLine
 10
162.4740604063361
 20
423.7181809718969
 30
0.0
 11
162.4740604063361
 21
425.718180971897
 31
0.0
  0
ARC
  5
C40
330
1F
100
AcDbEntity
  8
CLASS1
  6
CONTINUOUS
 62
     0
100
AcDbCircle
 10
151.973541406336
 20
435.3181809718968
 30
0.0
 40
1.0
100
AcDbArc
 50
90.0
 51
180.8823590000052
  0
LINE
  5
C41
330
1F
100
AcDbEntity
  8
CLASS1
  6
CONTINUOUS
 62
     0
100
AcDbLine
 10
152.9738514063361
 20
435.3181809718968
 30
0.0
 11
152.9738514063361
 21
436.3181809718969
 31
0.0
  0
LINE
  5
C42
330
1F
100
AcDbEntity
  8
CLASS1
  6
CONTINUOUS
 62
     0
100
AcDbLine
 10
152.9738514063361
 20
436.3181809718969
 30
0.0
 11
151.9735414063361
 21
436.3181809718969
 31
0.0
  0
ARC
  5
C43
330
1F
100
AcDbEntity
  8
0
100
AcDbCircle
 10
168.4740604063358
 20
468.7181809718969
 30
0.0
 40
100.0
100
AcDbArc
 50
262.160173000003
 51
277.8398260000031
  0
ARC
  5
C44
330
1F
100
AcDbEntity
  8
0
100
AcDbCircle
 10
181.9780774063359
 20
370.6435069718969
 30
0.0
 40
1.0
100
AcDbArc
 50
277.8398260000031
 51
359.117643
  0
ARC
  5
C45
330
1F
100
AcDbEntity
  8
0
100
AcDbCircle
 10
154.970043406336
 20
370.6435079718969
 30
0.0
 40
1.0
100
AcDbArc
 50
180.8823569999998
 51
262.160173000003
  0
POINT
  5
C46
330
1F
100
AcDbEntity
  8
0
100
AcDbPoint
 10
153.9833214063361
 20
369.7736579718969
 30
0.0
  0
ARC
  5
C47
330
1F
100
AcDbEntity
  8
0
100
AcDbCircle
 10
168.4740595336768
 20
-29.89999962802539
 30
0.0
 40
100.0
100
AcDbArc
 50
82.16017300000308
 51
97.83982600000328
  0
ARC
  5
C48
330
1F
100
AcDbEntity
  8
0
100
AcDbCircle
 10
154.9700425336767
 20
68.17467437197456
 30
0.0
 40
1.0
100
AcDbArc
 50
97.83982600000328
 51
179.117643
  0
ARC
  5
C49
330
1F
100
AcDbEntity
  8
0
100
AcDbCircle
 10
181.9780765336766
 20
68.17467337197467
 30
0.0
 40
1.0
100
AcDbArc
 50
0.8823569999998801
 51
82.16017300000308
  0
LINE
  5
C4A
330
1F
100
AcDbEntity
  8
外枠
  6
BYBLOCK
100
AcDbLine
 10
169.2951035336766
 20
70.60000037197458
 30
0.0
 11
171.2600255336766
 21
70.60000037197458
 31
0.0
  0
LINE
  5
C4B
330
1F
100
AcDbEntity
  8
外枠
  6
BYBLOCK
100
AcDbLine
 10
169.2951035336766
 20
70.60000037197458
 30
0.0
 11
169.2951035336766
 21
70.09662974891944
 31
0.0
  0
LINE
  5
C4C
330
1F
100
AcDbEntity
  8
外枠
  6
BYBLOCK
100
AcDbLine
 10
171.2600255336766
 20
70.60000037197458
 30
0.0
 11
171.2600255336766
 21
70.03614585128253
 31
0.0
  0
LINE
  5
C4D
330
1F
100
AcDbEntity
  8
外枠
  6
BYBLOCK
100
AcDbLine
 10
169.2951035336766
 20
368.2181809718969
 30
0.0
 11
171.2600255336766
 21
368.2181809718969
 31
0.0
  0
LINE
  5
C4E
330
1F
100
AcDbEntity
  8
外枠
  6
BYBLOCK
100
AcDbLine
 10
169.2951035336766
 20
368.2181809718969
 30
0.0
 11
169.2951035336766
 21
368.721551587787
 31
0.0
  0
LINE
  5
C4F
330
1F
100
AcDbEntity
  8
外枠
  6
BYBLOCK
100
AcDbLine
 10
171.2600255336766
 20
368.2181809718969
 30
0.0
 11
171.2600255336766
 21
368.7569965135821
 31
0.0
  0
LINE
  5
C57
330
1F
100
AcDbEntity
  8
0
100
AcDbLine
 10
170.881285275407
 20
284.9676546806271
 30
0.0
 11
170.881285275407
 21
279.4676586806667
 31
0.0
  0
LINE
  5
C58
330
1F
100
AcDbEntity
  8
0
100
AcDbLine
 10
170.881285275407
 20
284.9676546806271
 30
0.0
 11
170.881285275407
 21
285.9676546806271
 31
0.0
  0
ENDSEC
  0
SECTION
  2
OBJECTS
  0
DICTIONARY
  5
C
330
0
100
AcDbDictionary
  3
ACAD_GROUP
350
D
  3
ACAD_LAYOUT
350
1A
  3
ACAD_MLINESTYLE
350
17
  3
ACAD_PLOTSETTINGS
350
19
  3
ACAD_PLOTSTYLENAME
350
E
  3
ACDBHEADERROUNDTRIPXREC
350
D14
  3
ACDBVARIABLEDICTIONARY
350
CE1
  0
DICTIONARY
  5
84
330
2
100
AcDbDictionary
280
     1
  3
ACAD_LAYERSTATES
360
85
  0
DICTIONARY
  5
D07
330
1F
100
AcDbDictionary
280
     1
  3
ACAD_LAYOUTSELFREF
360
D35
  0
DICTIONARY
  5
D05
330
1B
100
AcDbDictionary
280
     1
  3
ACAD_LAYOUTSELFREF
360
D34
  0
DICTIONARY
  5
D
102
{ACAD_REACTORS
330
C
102
}
330
C
100
AcDbDictionary
  0
DICTIONARY
  5
1A
102
{ACAD_REACTORS
330
C
102
}
330
C
100
AcDbDictionary
  0
DICTIONARY
  5
17
102
{ACAD_REACTORS
330
C
102
}
330
C
100
AcDbDictionary
  3
STANDARD
350
18
  0
DICTIONARY
  5
19
102
{ACAD_REACTORS
330
C
102
}
330
C
100
AcDbDictionary
  0
ACDBDICTIONARYWDFLT
  5
E
102
{ACAD_REACTORS
330
C
102
}
330
C
100
AcDbDictionary
281
     1
  3
Normal
350
F
100
AcDbDictionaryWithDefault
340
F
  0
DICTIONARY
  5
D14
102
{ACAD_REACTORS
330
C
102
}
330
C
100
AcDbDictionary
  3
CEPSNTYPE
350
D1E
  3
FINGERPRINTGUID
350
D1F
  3
HYPERLINKBASE
350
D17
  3
INSUNITS
350
D1D
  3
LAYOUTDICT
350
D19
  3
LWETCUNION
350
D1C
  3
PLOTSETDICT
350
D1A
  3
PLOTSTYLNAMDICT
350
D1B
  3
PSVPSCALE
350
D21
  3
PUCSBASE
350
D24
  3
PUCSORGBACK
350
D2A
  3
PUCSORGBOTTOM
350
D26
  3
PUCSORGFRONT
350
D29
  3
PUCSORGLEFT
350
D27
  3
PUCSORGRIGHT
350
D28
  3
PUCSORGTOP
350
D25
  3
PUCSORTHOREF
350
D22
  3
PUCSORTHOVIEW
350
D23
  3
STYLESHEET
350
D18
  3
TSTACKALIGN
350
D15
  3
TSTACKSIZE
350
D16
  3
UCSBASE
350
D2D
  3
UCSORGBACK
350
D33
  3
UCSORGBOTTOM
350
D2F
  3
UCSORGFRONT
350
D32
  3
UCSORGLEFT
350
D30
  3
UCSORGRIGHT
350
D31
  3
UCSORGTOP
350
D2E
  3
UCSORTHOREF
350
D2B
  3
UCSORTHOVIEW
350
D2C
  3
VERSIONGUID
350
D20
  0
DICTIONARY
  5
CE1
102
{ACAD_REACTORS
330
C
102
}
330
C
100
AcDbDictionary
  3
DIMASSOC
350
CE3
  3
HIDETEXT
350
CE2
  0
DICTIONARY
  5
85
102
{ACAD_REACTORS
330
84
102
}
330
84
100
AcDbDictionary
  0
XRECORD
  5
D35
102
{ACAD_REACTORS
330
D07
102
}
330
D07
100
AcDbXrecord
340
1F
  0
XRECORD
  5
D34
102
{ACAD_REACTORS
330
D05
102
}
330
D05
100
AcDbXrecord
340
1B
  0
MLINESTYLE
  5
18
102
{ACAD_REACTORS
330
17
102
}
330
17
100
AcDbMlineStyle
  2
STANDARD
 70
     0
  3

 62
   256
 51
90.0
 52
90.0
 71
     2
 49
0.5
 62
   256
  6
BYLAYER
 49
-0.5
 62
   256
  6
BYLAYER
  0
ACDBPLACEHOLDER
  5
F
102
{ACAD_REACTORS
330
E
102
}
330
E
100
AcDbPlaceHolder
280
     0
  0
XRECORD
  5
D1E
102
{ACAD_REACTORS
330
D14
102
}
330
D14
100
AcDbXrecord
 90
        0
  0
XRECORD
  5
D1F
102
{ACAD_REACTORS
330
D14
102
}
330
D14
100
AcDbXrecord
  1
{BF677DA5-D172-4496-90B7-264771A25816}
  0
XRECORD
  5
D17
102
{ACAD_REACTORS
330
D14
102
}
330
D14
100
AcDbXrecord
  1

  0
XRECORD
  5
D1D
102
{ACAD_REACTORS
330
D14
102
}
330
D14
100
AcDbXrecord
 90
        4
  0
XRECORD
  5
D19
102
{ACAD_REACTORS
330
D14
102
}
330
D14
100
AcDbXrecord
340
1A
  0
XRECORD
  5
D1C
102
{ACAD_REACTORS
330
D14
102
}
330
D14
100
AcDbXrecord
 90
    10781
  0
XRECORD
  5
D1A
102
{ACAD_REACTORS
330
D14
102
}
330
D14
100
AcDbXrecord
340
19
  0
XRECORD
  5
D1B
102
{ACAD_REACTORS
330
D14
102
}
330
D14
100
AcDbXrecord
340
E
  0
XRECORD
  5
D21
102
{ACAD_REACTORS
330
D14
102
}
330
D14
100
AcDbXrecord
 40
0.0
  0
XRECORD
  5
D24
102
{ACAD_REACTORS
330
D14
102
}
330
D14
100
AcDbXrecord
340
0
  0
XRECORD
  5
D2A
102
{ACAD_REACTORS
330
D14
102
}
330
D14
100
AcDbXrecord
 10
0.0
 20
0.0
 30
0.0
  0
XRECORD
  5
D26
102
{ACAD_REACTORS
330
D14
102
}
330
D14
100
AcDbXrecord
 10
0.0
 20
0.0
 30
0.0
  0
XRECORD
  5
D29
102
{ACAD_REACTORS
330
D14
102
}
330
D14
100
AcDbXrecord
 10
0.0
 20
0.0
 30
0.0
  0
XRECORD
  5
D27
102
{ACAD_REACTORS
330
D14
102
}
330
D14
100
AcDbXrecord
 10
0.0
 20
0.0
 30
0.0
  0
XRECORD
  5
D28
102
{ACAD_REACTORS
330
D14
102
}
330
D14
100
AcDbXrecord
 10
0.0
 20
0.0
 30
0.0
  0
XRECORD
  5
D25
102
{ACAD_REACTORS
330
D14
102
}
330
D14
100
AcDbXrecord
 10
0.0
 20
0.0
 30
0.0
  0
XRECORD
  5
D22
102
{ACAD_REACTORS
330
D14
102
}
330
D14
100
AcDbXrecord
340
0
  0
XRECORD
  5
D23
102
{ACAD_REACTORS
330
D14
102
}
330
D14
100
AcDbXrecord
 70
     0
  0
XRECORD
  5
D18
102
{ACAD_REACTORS
330
D14
102
}
330
D14
100
AcDbXrecord
  1

  0
XRECORD
  5
D15
102
{ACAD_REACTORS
330
D14
102
}
330
D14
100
AcDbXrecord
 90
        1
  0
XRECORD
  5
D16
102
{ACAD_REACTORS
330
D14
102
}
330
D14
100
AcDbXrecord
 90
       70
  0
XRECORD
  5
D2D
102
{ACAD_REACTORS
330
D14
102
}
330
D14
100
AcDbXrecord
340
0
  0
XRECORD
  5
D33
102
{ACAD_REACTORS
330
D14
102
}
330
D14
100
AcDbXrecord
 10
0.0
 20
0.0
 30
0.0
  0
XRECORD
  5
D2F
102
{ACAD_REACTORS
330
D14
102
}
330
D14
100
AcDbXrecord
 10
0.0
 20
0.0
 30
0.0
  0
XRECORD
  5
D32
102
{ACAD_REACTORS
330
D14
102
}
330
D14
100
AcDbXrecord
 10
0.0
 20
0.0
 30
0.0
  0
XRECORD
  5
D30
102
{ACAD_REACTORS
330
D14
102
}
330
D14
100
AcDbXrecord
 10
0.0
 20
0.0
 30
0.0
  0
XRECORD
  5
D31
102
{ACAD_REACTORS
330
D14
102
}
330
D14
100
AcDbXrecord
 10
0.0
 20
0.0
 30
0.0
  0
XRECORD
  5
D2E
102
{ACAD_REACTORS
330
D14
102
}
330
D14
100
AcDbXrecord
 10
0.0
 20
0.0
 30
0.0
  0
XRECORD
  5
D2B
102
{ACAD_REACTORS
330
D14
102
}
330
D14
100
AcDbXrecord
340
0
  0
XRECORD
  5
D2C
102
{ACAD_REACTORS
330
D14
102
}
330
D14
100
AcDbXrecord
 70
     0
  0
XRECORD
  5
D20
102
{ACAD_REACTORS
330
D14
102
}
330
D14
100
AcDbXrecord
  1
{8CDB5147-FA2C-430B-9FFB-C05C79D74FE3}
  0
DICTIONARYVAR
  5
CE3
102
{ACAD_REACTORS
330
CE1
102
}
330
CE1
100
DictionaryVariables
280
     0
  1
2
  0
DICTIONARYVAR
  5
CE2
102
{ACAD_REACTORS
330
CE1
102
}
330
CE1
100
DictionaryVariables
280
     0
  1
1
  0
ENDSEC
  0
EOF
