  0
SECTION
  2
HEADER
  9
$ACADVER
  1
AC1014
  9
$ACADMAINTVER
 70
     9
  9
$DWGCODEPAGE
  3
ANSI_932
  9
$INSBASE
 10
0.0
 20
0.0
 30
0.0
  9
$EXTMIN
 10
-0.025633200973175
 20
-0.022454423761701
 30
-0.0000000349181948
  9
$EXTMAX
 10
336.9536435360372
 20
438.8470277175501
 30
0.0000000814935747
  9
$LIMMIN
 10
0.0
 20
0.0
  9
$LIMMAX
 10
420.0
 20
297.0
  9
$ORTHOMODE
 70
     0
  9
$REGENMODE
 70
     1
  9
$FILLMODE
 70
     1
  9
$QTEXTMODE
 70
     0
  9
$MIRRTEXT
 70
     1
  9
$DRAGMODE
 70
     2
  9
$LTSCALE
 40
1.0
  9
$OSMODE
 70
    55
  9
$ATTMODE
 70
     1
  9
$TEXTSIZE
 40
2.5
  9
$TRACEWID
 40
1.0
  9
$TEXTSTYLE
  7
STANDARD
  9
$CLAYER
  8
0
  9
$CELTYPE
  6
BYLAYER
  9
$CECOLOR
 62
   256
  9
$CELTSCALE
 40
1.0
  9
$DELOBJ
 70
     1
  9
$DISPSILH
 70
     0
  9
$DIMSCALE
 40
1.0
  9
$DIMASZ
 40
2.5
  9
$DIMEXO
 40
0.625
  9
$DIMDLI
 40
3.75
  9
$DIMRND
 40
0.0
  9
$DIMDLE
 40
0.0
  9
$DIMEXE
 40
1.25
  9
$DIMTP
 40
0.0
  9
$DIMTM
 40
0.0
  9
$DIMTXT
 40
2.5
  9
$DIMCEN
 40
2.5
  9
$DIMTSZ
 40
0.0
  9
$DIMTOL
 70
     0
  9
$DIMLIM
 70
     0
  9
$DIMTIH
 70
     0
  9
$DIMTOH
 70
     0
  9
$DIMSE1
 70
     0
  9
$DIMSE2
 70
     0
  9
$DIMTAD
 70
     1
  9
$DIMZIN
 70
     8
  9
$DIMBLK
  1

  9
$DIMASO
 70
     1
  9
$DIMSHO
 70
     1
  9
$DIMPOST
  1

  9
$DIMAPOST
  1

  9
$DIMALT
 70
     0
  9
$DIMALTD
 70
     3
  9
$DIMALTF
 40
0.03937007874016
  9
$DIMLFAC
 40
1.0
  9
$DIMTOFL
 70
     1
  9
$DIMTVP
 40
0.0
  9
$DIMTIX
 70
     0
  9
$DIMSOXD
 70
     0
  9
$DIMSAH
 70
     0
  9
$DIMBLK1
  1

  9
$DIMBLK2
  1

  9
$DIMSTYLE
  2
ISO-25
  9
$DIMCLRD
 70
     0
  9
$DIMCLRE
 70
     0
  9
$DIMCLRT
 70
     0
  9
$DIMTFAC
 40
1.0
  9
$DIMGAP
 40
0.625
  9
$DIMJUST
 70
     0
  9
$DIMSD1
 70
     0
  9
$DIMSD2
 70
     0
  9
$DIMTOLJ
 70
     0
  9
$DIMTZIN
 70
     8
  9
$DIMALTZ
 70
     0
  9
$DIMALTTZ
 70
     0
  9
$DIMFIT
 70
     3
  9
$DIMUPT
 70
     0
  9
$DIMUNIT
 70
     2
  9
$DIMDEC
 70
     2
  9
$DIMTDEC
 70
     2
  9
$DIMALTU
 70
     2
  9
$DIMALTTD
 70
     3
  9
$DIMTXSTY
  7
STANDARD
  9
$DIMAUNIT
 70
     0
  9
$LUNITS
 70
     2
  9
$LUPREC
 70
     4
  9
$SKETCHINC
 40
1.0
  9
$FILLETRAD
 40
10.0
  9
$AUNITS
 70
     0
  9
$AUPREC
 70
     0
  9
$MENU
  1
.
  9
$ELEVATION
 40
0.0
  9
$PELEVATION
 40
0.0
  9
$THICKNESS
 40
0.0
  9
$LIMCHECK
 70
     0
  9
$BLIPMODE
 70
     0
  9
$CHAMFERA
 40
10.0
  9
$CHAMFERB
 40
10.0
  9
$CHAMFERC
 40
20.0
  9
$CHAMFERD
 40
0.0
  9
$SKPOLY
 70
     0
  9
$TDCREATE
 40
2455006.432903877
  9
$TDUPDATE
 40
2455006.466803866
  9
$TDINDWG
 40
0.0028515856
  9
$TDUSRTIMER
 40
0.0028499537
  9
$USRTIMER
 70
     1
  9
$ANGBASE
 50
0.0
  9
$ANGDIR
 70
     0
  9
$PDMODE
 70
     0
  9
$PDSIZE
 40
0.0
  9
$PLINEWID
 40
0.0
  9
$COORDS
 70
     1
  9
$SPLFRAME
 70
     0
  9
$SPLINETYPE
 70
     6
  9
$SPLINESEGS
 70
     8
  9
$ATTDIA
 70
     0
  9
$ATTREQ
 70
     1
  9
$HANDLING
 70
 22529
  9
$HANDSEED
  5
DEA
  9
$SURFTAB1
 70
     6
  9
$SURFTAB2
 70
     6
  9
$SURFTYPE
 70
     6
  9
$SURFU
 70
     6
  9
$SURFV
 70
     6
  9
$UCSNAME
  2

  9
$UCSORG
 10
0.0
 20
0.0
 30
0.0
  9
$UCSXDIR
 10
1.0
 20
0.0
 30
0.0
  9
$UCSYDIR
 10
0.0
 20
1.0
 30
0.0
  9
$PUCSNAME
  2

  9
$PUCSORG
 10
0.0
 20
0.0
 30
0.0
  9
$PUCSXDIR
 10
1.0
 20
0.0
 30
0.0
  9
$PUCSYDIR
 10
0.0
 20
1.0
 30
0.0
  9
$USERI1
 70
     0
  9
$USERI2
 70
     0
  9
$USERI3
 70
     0
  9
$USERI4
 70
     0
  9
$USERI5
 70
     0
  9
$USERR1
 40
0.0
  9
$USERR2
 40
0.0
  9
$USERR3
 40
0.0
  9
$USERR4
 40
0.0
  9
$USERR5
 40
0.0
  9
$WORLDVIEW
 70
     1
  9
$SHADEDGE
 70
     3
  9
$SHADEDIF
 70
    70
  9
$TILEMODE
 70
     1
  9
$MAXACTVP
 70
    64
  9
$PINSBASE
 10
0.0
 20
0.0
 30
0.0
  9
$PLIMCHECK
 70
     0
  9
$PEXTMIN
 10
1.000000000000000E+20
 20
1.000000000000000E+20
 30
1.000000000000000E+20
  9
$PEXTMAX
 10
-1.000000000000000E+20
 20
-1.000000000000000E+20
 30
-1.000000000000000E+20
  9
$PLIMMIN
 10
0.0
 20
0.0
  9
$PLIMMAX
 10
420.0
 20
297.0
  9
$UNITMODE
 70
     0
  9
$VISRETAIN
 70
     1
  9
$PLINEGEN
 70
     0
  9
$PSLTSCALE
 70
     1
  9
$TREEDEPTH
 70
  3020
  9
$PICKSTYLE
 70
     1
  9
$CMLSTYLE
  2
STANDARD
  9
$CMLJUST
 70
     0
  9
$CMLSCALE
 40
20.0
  9
$PROXYGRAPHICS
 70
     1
  9
$MEASUREMENT
 70
     1
  0
ENDSEC
  0
SECTION
  2
CLASSES
  0
CLASS
  1
ACDBDICTIONARYWDFLT
  2
AcDbDictionaryWithDefault
  3
AutoCAD 2000
 90
        0
280
     0
281
     0
  0
CLASS
  1
ACDBPLACEHOLDER
  2
AcDbPlaceHolder
  3
AutoCAD 2000
 90
        0
280
     0
281
     0
  0
CLASS
  1
LAYOUT
  2
AcDbLayout
  3
AutoCAD 2000
 90
        0
280
     0
281
     0
  0
CLASS
  1
DICTIONARYVAR
  2
AcDbDictionaryVar
  3
AutoCAD 2000
 90
        0
280
     0
281
     0
  0
CLASS
  1
LONG_TRANSACTION
  2
AcDbLongTransaction
  3
AutoCAD 2000
 90
        0
280
     0
281
     0
  0
CLASS
  1
LWPOLYLINE
  2
AcDbPolyline
  3
AutoCAD 2000
 90
        0
280
     0
281
     1
  0
CLASS
  1
HATCH
  2
AcDbHatch
  3
AutoCAD 2000
 90
        0
280
     0
281
     1
  0
CLASS
  1
XRECORD
  2
AcDbXrecord
  3
AutoCAD 2000
 90
        0
280
     0
281
     0
  0
CLASS
  1
LONG_TRANSACTION
  2
AcDbLongTransaction
  3
AutoCAD 2000
 90
        0
280
     0
281
     0
  0
CLASS
  1
LWPOLYLINE
  2
AcDbPolyline
  3
AutoCAD 2000
 90
        0
280
     0
281
     1
  0
CLASS
  1
HATCH
  2
AcDbHatch
  3
AutoCAD 2000
 90
        0
280
     0
281
     1
  0
CLASS
  1
XRECORD
  2
AcDbXrecord
  3
AutoCAD 2000
 90
        0
280
     0
281
     0
  0
ENDSEC
  0
SECTION
  2
TABLES
  0
TABLE
  2
VPORT
  5
8
330
0
100
AcDbSymbolTable
 70
     2
  0
VPORT
  5
DC7
330
8
100
AcDbSymbolTableRecord
100
AcDbViewportTableRecord
  2
*ACTIVE
 70
     0
 10
0.0
 20
0.0
 11
1.0
 21
1.0
 12
168.464005167532
 22
219.4122866468942
 13
0.0
 23
0.0
 14
10.0
 24
10.0
 15
10.0
 25
10.0
 16
0.0
 26
0.0
 36
1.0
 17
0.0
 27
0.0
 37
0.0
 40
442.5115525325261
 41
1.668975069252077
 42
50.0
 43
0.0
 44
0.0
 50
0.0
 51
0.0
 71
     0
 72
   100
 73
     1
 74
     3
 75
     0
 76
     0
 77
     0
 78
     0
  0
ENDTAB
  0
TABLE
  2
LTYPE
  5
5
330
0
100
AcDbSymbolTable
 70
     3
  0
LTYPE
  5
14
330
5
100
AcDbSymbolTableRecord
100
AcDbLinetypeTableRecord
  2
BYBLOCK
 70
     0
  3

 72
    65
 73
     0
 40
0.0
  0
LTYPE
  5
15
330
5
100
AcDbSymbolTableRecord
100
AcDbLinetypeTableRecord
  2
BYLAYER
 70
     0
  3

 72
    65
 73
     0
 40
0.0
  0
LTYPE
  5
16
330
5
100
AcDbSymbolTableRecord
100
AcDbLinetypeTableRecord
  2
CONTINUOUS
 70
     0
  3
Solid line
 72
    65
 73
     0
 40
0.0
  0
LTYPE
  5
82
330
5
100
AcDbSymbolTableRecord
100
AcDbLinetypeTableRecord
  2
CENTER
 70
     0
  3
____ _ ____ _ ____ _ ____ _ ____ _ ____ _ ____
 72
    65
 73
     4
 40
2.0
 49
1.25
 74
     0
 49
-0.25
 74
     0
 49
0.25
 74
     0
 49
-0.25
 74
     0
  0
LTYPE
  5
83
330
5
100
AcDbSymbolTableRecord
100
AcDbLinetypeTableRecord
  2
CENTERX2
 70
     0
  3
Center (2x) ________  __  ________  __  _____
 72
    65
 73
     4
 40
20.32
 49
12.7
 74
     0
 49
-2.54
 74
     0
 49
2.54
 74
     0
 49
-2.54
 74
     0
  0
ENDTAB
  0
TABLE
  2
LAYER
  5
2
102
{ACAD_XDICTIONARY
360
8F
102
}
330
0
100
AcDbSymbolTable
 70
     4
  0
LAYER
  5
10
330
2
100
AcDbSymbolTableRecord
100
AcDbLayerTableRecord
  2
0
 70
     0
 62
     7
  6
CONTINUOUS
  0
LAYER
  5
84
330
2
100
AcDbSymbolTableRecord
100
AcDbLayerTableRecord
  2
外枠
 70
     0
 62
     7
  6
CONTINUOUS
  0
LAYER
  5
86
330
2
100
AcDbSymbolTableRecord
100
AcDbLayerTableRecord
  2
DEFPOINTS
 70
     0
 62
     7
  6
CONTINUOUS
  0
LAYER
  5
87
330
2
100
AcDbSymbolTableRecord
100
AcDbLayerTableRecord
  2
CLASS1
 70
     0
 62
     7
  6
CONTINUOUS
  0
ENDTAB
  0
TABLE
  2
STYLE
  5
3
330
0
100
AcDbSymbolTable
 70
     1
  0
STYLE
  5
11
330
3
100
AcDbSymbolTableRecord
100
AcDbTextStyleTableRecord
  2
STANDARD
 70
     0
 40
0.0
 41
1.0
 50
0.0
 71
     0
 42
2.5
  3
txt
  4

  0
ENDTAB
  0
TABLE
  2
VIEW
  5
6
330
0
100
AcDbSymbolTable
 70
     0
  0
ENDTAB
  0
TABLE
  2
UCS
  5
7
330
0
100
AcDbSymbolTable
 70
     0
  0
ENDTAB
  0
TABLE
  2
APPID
  5
9
330
0
100
AcDbSymbolTable
 70
     1
  0
APPID
  5
12
330
9
100
AcDbSymbolTableRecord
100
AcDbRegAppTableRecord
  2
ACAD
 70
     0
  0
ENDTAB
  0
TABLE
  2
DIMSTYLE
  5
A
330
0
100
AcDbSymbolTable
 70
     1
  0
DIMSTYLE
105
27
330
A
100
AcDbSymbolTableRecord
100
AcDbDimStyleTableRecord
  2
ISO-25
 70
     0
  3

  4

  5

  6

  7

 40
1.0
 41
2.5
 42
0.625
 43
3.75
 44
1.25
 45
0.0
 46
0.0
 47
0.0
 48
0.0
140
2.5
141
2.5
142
0.0
143
0.03937007874016
144
1.0
145
0.0
146
1.0
147
0.625
 71
     0
 72
     0
 73
     0
 74
     0
 75
     0
 76
     0
 77
     1
 78
     8
170
     0
171
     3
172
     1
173
     0
174
     0
175
     0
176
     0
177
     0
178
     0
270
     2
271
     2
272
     2
273
     2
274
     3
340
11
275
     0
280
     0
281
     0
282
     0
283
     0
284
     8
285
     0
286
     0
287
     3
288
     0
  0
ENDTAB
  0
TABLE
  2
BLOCK_RECORD
  5
1
330
0
100
AcDbSymbolTable
 70
     1
  0
BLOCK_RECORD
  5
1F
102
{ACAD_XDICTIONARY
360
DBC
102
}
330
1
100
AcDbSymbolTableRecord
100
AcDbBlockTableRecord
  2
*MODEL_SPACE
  0
BLOCK_RECORD
  5
1B
102
{ACAD_XDICTIONARY
360
DBA
102
}
330
1
100
AcDbSymbolTableRecord
100
AcDbBlockTableRecord
  2
*PAPER_SPACE
  0
BLOCK_RECORD
  5
31
330
1
100
AcDbSymbolTableRecord
100
AcDbBlockTableRecord
  2
A$C51C20FFB
  0
ENDTAB
  0
ENDSEC
  0
SECTION
  2
BLOCKS
  0
BLOCK
  5
20
330
1F
100
AcDbEntity
  8
0
100
AcDbBlockBegin
  2
*MODEL_SPACE
 70
     0
 10
0.0
 20
0.0
 30
0.0
  3
*MODEL_SPACE
  1

  0
ENDBLK
  5
21
330
1F
100
AcDbEntity
  8
0
100
AcDbBlockEnd
  0
BLOCK
  5
1C
330
1B
100
AcDbEntity
 67
     1
  8
0
100
AcDbBlockBegin
  2
*PAPER_SPACE
 70
     0
 10
0.0
 20
0.0
 30
0.0
  3
*PAPER_SPACE
  1

  0
ENDBLK
  5
1D
330
1B
100
AcDbEntity
 67
     1
  8
0
100
AcDbBlockEnd
  0
BLOCK
  5
36
330
31
100
AcDbEntity
  8
0
100
AcDbBlockBegin
  2
A$C51C20FFB
 70
     0
 10
0.0
 20
0.0
 30
0.0
  3
A$C51C20FFB
  1

  0
LINE
  5
32
330
31
100
AcDbEntity
  8
0
100
AcDbLine
 10
31.0
 20
2.499998662678081
 30
0.0
 11
0.0
 21
2.499998662678081
 31
0.0
  0
LINE
  5
33
330
31
100
AcDbEntity
  8
0
100
AcDbLine
 10
31.0
 20
-0.000001337321919
 30
0.0
 11
31.0
 21
2.499998662678081
 31
0.0
  0
LINE
  5
34
330
31
100
AcDbEntity
  8
0
100
AcDbLine
 10
0.0
 20
-0.000001337321919
 30
0.0
 11
31.0
 21
-0.000001337321919
 31
0.0
  0
LINE
  5
35
330
31
100
AcDbEntity
  8
0
100
AcDbLine
 10
0.0
 20
2.499998662678081
 30
0.0
 11
0.0
 21
-0.000001337321919
 31
0.0
  0
ENDBLK
  5
37
330
31
100
AcDbEntity
  8
0
100
AcDbBlockEnd
  0
ENDSEC
  0
SECTION
  2
ENTITIES
  0
LINE
  5
6CF
330
1F
100
AcDbEntity
  8
CLASS1
100
AcDbLine
 10
2.500001101165934
 20
298.3305604683176
 30
0.0
 11
2.500001101165934
 21
293.329270468318
 31
0.0
  0
LINE
  5
6D0
330
1F
100
AcDbEntity
  8
CLASS1
100
AcDbLine
 10
68.1225181011657
 20
296.8525754683179
 30
0.0
 11
2.500001101165934
 21
298.3305604683176
 31
0.0
  0
LINE
  5
6D1
330
1F
100
AcDbEntity
  8
CLASS1
100
AcDbLine
 10
0.000001101166049
 20
126.8290114683179
 30
0.0
 11
0.000001101166049
 21
305.3290114683178
 31
0.0
  0
LINE
  5
6D2
330
1F
100
AcDbEntity
  8
0
100
AcDbLine
 10
152.9741343754224
 20
295.8292704683178
 30
0.0
 11
152.9741343754224
 21
303.8290114683178
 31
0.0
  0
LINE
  5
6D3
330
1F
100
AcDbEntity
  8
0
100
AcDbLine
 10
183.9745523754224
 20
294.8881384683179
 30
0.0
 11
183.9745523754224
 21
303.8290114683178
 31
0.0
  0
LINE
  5
6D4
330
1F
100
AcDbEntity
  8
0
  6
CENTER
 62
     5
100
AcDbLine
 10
168.4743433754228
 20
308.0790114683177
 30
0.0
 11
168.4743433754228
 21
293.0790114683178
 31
0.0
  0
LINE
  5
6D6
330
1F
100
AcDbEntity
  8
CLASS1
100
AcDbLine
 10
61.96772910116578
 20
141.7001094683178
 30
0.0
 11
2.523003101165727
 21
140.3324134683181
 31
0.0
  0
LINE
  5
6D7
330
1F
100
AcDbEntity
  8
CLASS1
100
AcDbLine
 10
68.1225181011657
 20
136.8085454683177
 30
0.0
 11
2.500001101165934
 21
135.3305604683176
 31
0.0
  0
LINE
  5
6D8
330
1F
100
AcDbEntity
  8
CLASS1
100
AcDbLine
 10
2.522722101165753
 20
293.3287534683179
 30
0.0
 11
61.96744910116592
 21
291.9777364683182
 31
0.0
  0
LINE
  5
6D9
330
1F
100
AcDbEntity
  8
CLASS1
100
AcDbLine
 10
62.94472710116565
 20
142.6998444683178
 30
0.0
 11
62.94472710116565
 21
290.9779944683179
 31
0.0
  0
LINE
  5
6DA
330
1F
100
AcDbEntity
  8
CLASS1
100
AcDbLine
 10
68.80000110116577
 20
294.3305604683176
 30
0.0
 11
68.80000110116577
 21
139.3305604683176
 31
0.0
  0
LINE
  5
6DB
330
1F
100
AcDbEntity
  8
CLASS1
100
AcDbLine
 10
68.31567510116588
 20
294.3305604683176
 30
0.0
 11
68.31567510116588
 21
139.3305604683176
 31
0.0
  0
LINE
  5
6DC
330
1F
100
AcDbEntity
  8
CLASS1
100
AcDbLine
 10
68.04452410116606
 20
295.8766014683178
 30
0.0
 11
68.04452410116606
 21
137.784519468318
 31
0.0
  0
ARC
  5
6DD
330
1F
100
AcDbEntity
  8
CLASS1
100
AcDbCircle
 10
68.1000011011656
 20
137.8082914683177
 30
0.0
 40
1.0
100
AcDbArc
 50
271.2902270000052
 51
0.0
  0
LINE
  5
6DE
330
1F
100
AcDbEntity
  8
CLASS1
100
AcDbLine
 10
68.31567510116588
 20
139.3305604683176
 30
0.0
 11
69.10000110116607
 21
139.3305604683176
 31
0.0
  0
LINE
  5
6DF
330
1F
100
AcDbEntity
  8
CLASS1
100
AcDbLine
 10
69.10000110116607
 20
137.8082914683177
 30
0.0
 11
69.10000110116607
 21
139.3305604683176
 31
0.0
  0
ARC
  5
6E0
330
1F
100
AcDbEntity
  8
CLASS1
100
AcDbCircle
 10
67.04452410116572
 20
137.784519468318
 30
0.0
 40
1.0
100
AcDbArc
 50
271.2902270000052
 51
0.0
  0
ARC
  5
6E1
330
1F
100
AcDbEntity
  8
CLASS1
100
AcDbCircle
 10
61.94472710116542
 20
142.6998444683178
 30
0.0
 40
1.0
100
AcDbArc
 50
271.318021000004
 51
0.0
  0
LINE
  5
6E2
330
1F
100
AcDbEntity
  8
0
100
AcDbLine
 10
69.30000110116577
 20
189.2544294683178
 30
0.0
 11
69.30000110116544
 21
186.2544294683178
 31
0.0
  0
LINE
  5
6E3
330
1F
100
AcDbEntity
  8
0
100
AcDbLine
 10
69.30000110116577
 20
189.2544294683178
 30
0.0
 11
68.31567510116588
 21
189.254429468318
 31
0.0
  0
LINE
  5
6E4
330
1F
100
AcDbEntity
  8
0
100
AcDbLine
 10
69.30000110116544
 20
186.2544294683178
 30
0.0
 11
68.31567510116577
 21
186.254429468318
 31
0.0
  0
LINE
  5
6E5
330
1F
100
AcDbEntity
  8
0
100
AcDbLine
 10
69.30000110116577
 20
230.4084174683181
 30
0.0
 11
69.30000110116577
 21
227.4084174683181
 31
0.0
  0
LINE
  5
6E6
330
1F
100
AcDbEntity
  8
0
100
AcDbLine
 10
69.30000110116577
 20
230.4084174683181
 30
0.0
 11
68.31567510116588
 21
230.4084174683183
 31
0.0
  0
LINE
  5
6E7
330
1F
100
AcDbEntity
  8
0
100
AcDbLine
 10
69.30000110116577
 20
227.4084174683181
 30
0.0
 11
68.31567510116588
 21
227.4084174683181
 31
0.0
  0
LINE
  5
6E8
330
1F
100
AcDbEntity
  8
CLASS1
100
AcDbLine
 10
68.31567510116588
 20
294.3305604683176
 30
0.0
 11
69.10000110116607
 21
294.3305604683176
 31
0.0
  0
LINE
  5
6E9
330
1F
100
AcDbEntity
  8
CLASS1
100
AcDbLine
 10
69.10000110116607
 20
295.8528294683178
 30
0.0
 11
69.10000110116607
 21
294.3305604683176
 31
0.0
  0
ARC
  5
6EA
330
1F
100
AcDbEntity
  8
CLASS1
100
AcDbCircle
 10
68.10000110116607
 20
295.8528294683178
 30
0.0
 40
1.0
100
AcDbArc
 50
0.0
 51
88.70977299999479
  0
ARC
  5
6EB
330
1F
100
AcDbEntity
  8
CLASS1
100
AcDbCircle
 10
67.04452410116619
 20
295.8766014683178
 30
0.0
 40
1.0
100
AcDbArc
 50
0.0
 51
88.70977299999479
  0
ARC
  5
6EC
330
1F
100
AcDbEntity
  8
CLASS1
100
AcDbCircle
 10
61.94472710116588
 20
290.9779944683179
 30
0.0
 40
1.0
100
AcDbArc
 50
0.0
 51
88.69804600000644
  0
LINE
  5
6ED
330
1F
100
AcDbEntity
  8
0
100
AcDbLine
 10
178.8465123754226
 20
295.8954984683181
 30
0.0
 11
179.4740183754225
 21
296.8292704683178
 31
0.0
  0
LINE
  5
6EE
330
1F
100
AcDbEntity
  8
0
100
AcDbLine
 10
154.9820613754224
 20
295.3179074683181
 30
0.0
 11
181.9666263754226
 21
295.3179074683181
 31
0.0
  0
LINE
  5
6EF
330
1F
100
AcDbEntity
  8
0
100
AcDbLine
 10
156.9743433754223
 20
292.8292704683178
 30
0.0
 11
179.9743433754226
 21
292.8292704683178
 31
0.0
  0
LINE
  5
6F0
330
1F
100
AcDbEntity
  8
0
100
AcDbLine
 10
157.0743433754225
 20
292.7331394683178
 30
0.0
 11
179.8743433754225
 21
292.7331394683178
 31
0.0
  0
LINE
  5
6F1
330
1F
100
AcDbEntity
  8
0
100
AcDbLine
 10
178.8465123754226
 20
134.7630424683184
 30
0.0
 11
179.4740183754221
 21
133.8292704683182
 31
0.0
  0
LINE
  5
6F2
330
1F
100
AcDbEntity
  8
0
100
AcDbLine
 10
172.4743433754223
 20
126.8290054683182
 30
0.0
 11
182.4745523754224
 21
126.8290054683182
 31
0.0
  0
LINE
  5
6F3
330
1F
100
AcDbEntity
  8
0
100
AcDbLine
 10
154.9820613754224
 20
135.3523914683181
 30
0.0
 11
181.9666263754221
 21
135.3523914683181
 31
0.0
  0
LINE
  5
6F4
330
1F
100
AcDbEntity
  8
0
100
AcDbLine
 10
157.0743433754222
 20
137.9331394683181
 30
0.0
 11
179.8743433754223
 21
137.9331394683181
 31
0.0
  0
LINE
  5
6F5
330
1F
100
AcDbEntity
  8
0
100
AcDbLine
 10
156.9743433754223
 20
137.8292704683182
 30
0.0
 11
179.9743433754223
 21
137.8292704683182
 31
0.0
  0
LINE
  5
6F6
330
1F
100
AcDbEntity
  8
CLASS1
100
AcDbLine
 10
1.500001101165935
 20
141.3321484683176
 30
0.0
 11
1.500001101165935
 21
292.3290114683178
 31
0.0
  0
LINE
  5
6F7
330
1F
100
AcDbEntity
  8
0
100
AcDbLine
 10
182.9666263754226
 20
294.3179074683182
 30
0.0
 11
182.9666263754221
 21
136.3523914683181
 31
0.0
  0
LINE
  5
6F8
330
1F
100
AcDbEntity
  8
0
100
AcDbLine
 10
180.8743433754226
 20
291.7331394683182
 30
0.0
 11
180.8743433754223
 21
138.8331394683182
 31
0.0
  0
LINE
  5
6F9
330
1F
100
AcDbEntity
  8
0
100
AcDbLine
 10
185.9593423754224
 20
139.8658454683183
 30
0.0
 11
185.9593423754224
 21
290.8049934683183
 31
0.0
  0
LINE
  5
6FA
330
1F
100
AcDbEntity
  8
0
100
AcDbLine
 10
185.0440543754225
 20
289.4542354683181
 30
0.0
 11
185.0440543754223
 21
141.2043064683181
 31
0.0
  0
LINE
  5
6FB
330
1F
100
AcDbEntity
  8
0
100
AcDbLine
 10
180.9743433754223
 20
138.8292704683181
 30
0.0
 11
180.9743433754228
 21
291.8292704683178
 31
0.0
  0
LINE
  5
6FC
330
1F
100
AcDbEntity
  8
0
100
AcDbLine
 10
2.500001101165934
 20
135.3305604683176
 30
0.0
 11
2.500001101165934
 21
126.8290114683179
 31
0.0
  0
LINE
  5
6FD
330
1F
100
AcDbEntity
  8
CLASS1
100
AcDbLine
 10
2.500001101165934
 20
126.8290114683179
 30
0.0
 11
0.000001101166049
 21
126.8290114683179
 31
0.0
  0
ARC
  5
6FE
330
1F
100
AcDbEntity
  8
CLASS1
100
AcDbCircle
 10
2.500001101165934
 20
141.3321484683176
 30
0.0
 40
1.0
100
AcDbArc
 50
180.0
 51
271.318021000004
  0
LINE
  5
6FF
330
1F
100
AcDbEntity
  8
CLASS1
100
AcDbLine
 10
2.500001101165934
 20
135.3305604683176
 30
0.0
 11
2.500001101165934
 21
140.3318844683179
 31
0.0
  0
LINE
  5
700
330
1F
100
AcDbEntity
  8
0
100
AcDbLine
 10
183.9745523754224
 20
128.3290054683182
 30
0.0
 11
183.9745523754224
 21
138.888138468318
 31
0.0
  0
ARC
  5
701
330
1F
100
AcDbEntity
  8
0
100
AcDbCircle
 10
182.4745523754224
 20
128.3290054683182
 30
0.0
 40
1.5
100
AcDbArc
 50
270.0
 51
0.0
  0
ARC
  5
702
330
1F
100
AcDbEntity
  8
0
100
AcDbCircle
 10
184.0440543754223
 20
141.2043064683176
 30
0.0
 40
1.0
100
AcDbArc
 50
270.0
 51
0.0
  0
LINE
  5
703
330
1F
100
AcDbEntity
  8
0
100
AcDbLine
 10
184.0440543754223
 20
140.204306468318
 30
0.0
 11
183.0436263754224
 21
140.204306468318
 31
0.0
  0
LINE
  5
704
330
1F
100
AcDbEntity
  8
0
100
AcDbLine
 10
183.9745513754223
 20
134.829270468318
 30
0.0
 11
183.9745513754223
 21
138.8658454683183
 31
0.0
  0
ARC
  5
705
330
1F
100
AcDbEntity
  8
0
100
AcDbCircle
 10
181.9666263754223
 20
136.3523914683181
 30
0.0
 40
1.0
100
AcDbArc
 50
270.0
 51
0.0
  0
LINE
  5
706
330
1F
100
AcDbEntity
  8
0
100
AcDbLine
 10
183.9745513754223
 20
138.8658454683183
 30
0.0
 11
184.9593423754224
 21
138.8658454683183
 31
0.0
  0
LINE
  5
707
330
1F
100
AcDbEntity
  8
0
100
AcDbLine
 10
183.9745523754224
 20
138.8535474683181
 30
0.0
 11
183.0436263754224
 21
140.204306468318
 31
0.0
  0
ARC
  5
708
330
1F
100
AcDbEntity
  8
0
100
AcDbCircle
 10
184.9593423754224
 20
139.8658454683181
 30
0.0
 40
1.0
100
AcDbArc
 50
270.0
 51
0.0
  0
ARC
  5
709
330
1F
100
AcDbEntity
  8
0
100
AcDbCircle
 10
182.9745513754223
 20
134.829270468318
 30
0.0
 40
1.0
100
AcDbArc
 50
270.0
 51
0.0
  0
LINE
  5
70A
330
1F
100
AcDbEntity
  8
0
100
AcDbLine
 10
179.4740183754221
 20
133.8292704683182
 30
0.0
 11
182.9745513754223
 21
133.8292704683182
 31
0.0
  0
ARC
  5
70B
330
1F
100
AcDbEntity
  8
0
100
AcDbCircle
 10
179.8743433754223
 20
138.9331394683181
 30
0.0
 40
1.0
100
AcDbArc
 50
270.0
 51
0.0
  0
ARC
  5
70C
330
1F
100
AcDbEntity
  8
0
100
AcDbCircle
 10
179.9743433754225
 20
138.8292704683181
 30
0.0
 40
1.0
100
AcDbArc
 50
270.0
 51
0.0
  0
ARC
  5
70D
330
1F
100
AcDbEntity
  8
CLASS1
100
AcDbCircle
 10
2.500001101166275
 20
292.3290114683178
 30
0.0
 40
1.0
100
AcDbArc
 50
88.69804699999894
 51
180.0
  0
ARC
  5
70E
330
1F
100
AcDbEntity
  8
0
100
AcDbCircle
 10
181.9666263754226
 20
294.3179074683182
 30
0.0
 40
1.0
100
AcDbArc
 50
0.0
 51
90.0
  0
ARC
  5
70F
330
1F
100
AcDbEntity
  8
0
100
AcDbCircle
 10
182.9745513754226
 20
295.8292704683178
 30
0.0
 40
1.0
100
AcDbArc
 50
0.0
 51
90.0
  0
LINE
  5
710
330
1F
100
AcDbEntity
  8
0
100
AcDbLine
 10
184.0440543754226
 20
290.4542354683183
 30
0.0
 11
183.0436263754224
 21
290.4542354683183
 31
0.0
  0
LINE
  5
711
330
1F
100
AcDbEntity
  8
0
100
AcDbLine
 10
184.0440543754226
 20
290.4542354683183
 30
0.0
 11
183.0436263754224
 21
290.4542354683183
 31
0.0
  0
LINE
  5
712
330
1F
100
AcDbEntity
  8
0
100
AcDbLine
 10
183.9745523754224
 20
291.8049934683183
 30
0.0
 11
184.9593423754224
 21
291.8049934683183
 31
0.0
  0
ARC
  5
713
330
1F
100
AcDbEntity
  8
0
100
AcDbCircle
 10
184.9593423754225
 20
290.8049934683183
 30
0.0
 40
1.0
100
AcDbArc
 50
0.0
 51
90.0
  0
ARC
  5
714
330
1F
100
AcDbEntity
  8
0
100
AcDbCircle
 10
184.0440543754226
 20
289.4542354683181
 30
0.0
 40
1.0
100
AcDbArc
 50
0.0
 51
90.0
  0
ARC
  5
715
330
1F
100
AcDbEntity
  8
0
100
AcDbCircle
 10
184.0440543754226
 20
289.4542354683181
 30
0.0
 40
1.0
100
AcDbArc
 50
0.0
 51
90.0
  0
LINE
  5
716
330
1F
100
AcDbEntity
  8
0
100
AcDbLine
 10
183.9745523754224
 20
291.8049934683183
 30
0.0
 11
183.0436263754224
 21
290.4542354683183
 31
0.0
  0
LINE
  5
717
330
1F
100
AcDbEntity
  8
0
100
AcDbLine
 10
183.9745523754224
 20
291.8049934683183
 30
0.0
 11
183.0436263754224
 21
290.4542354683183
 31
0.0
  0
LINE
  5
718
330
1F
100
AcDbEntity
  8
0
100
AcDbLine
 10
183.9745513754226
 20
295.8292704683178
 30
0.0
 11
183.9745513754226
 21
291.8049934683183
 31
0.0
  0
ARC
  5
719
330
1F
100
AcDbEntity
  8
0
100
AcDbCircle
 10
179.8743433754225
 20
291.7331394683182
 30
0.0
 40
1.0
100
AcDbArc
 50
0.0
 51
90.0
  0
ARC
  5
71A
330
1F
100
AcDbEntity
  8
0
100
AcDbCircle
 10
179.9743433754226
 20
291.8292704683178
 30
0.0
 40
1.0
100
AcDbArc
 50
0.0
 51
90.0
  0
LINE
  5
71B
330
1F
100
AcDbEntity
  8
0
100
AcDbLine
 10
179.4740183754225
 20
296.8292704683178
 30
0.0
 11
182.9745513754226
 21
296.8292704683178
 31
0.0
  0
LINE
  5
71C
330
1F
100
AcDbEntity
  8
0
100
AcDbLine
 10
156.0743433754231
 20
243.2321204265064
 30
0.0
 11
156.0743433754225
 21
138.9331394683183
 31
0.0
  0
LINE
  5
71D
330
1F
100
AcDbEntity
  8
0
100
AcDbLine
 10
151.9046323754225
 20
289.4542354683181
 30
0.0
 11
151.9046323754225
 21
141.2043064683181
 31
0.0
  0
LINE
  5
71E
330
1F
100
AcDbEntity
  8
0
100
AcDbLine
 10
155.9743433754223
 20
138.8292704683181
 30
0.0
 11
155.9743433754228
 21
291.8292704683178
 31
0.0
  0
LINE
  5
71F
330
1F
100
AcDbEntity
  8
0
100
AcDbLine
 10
150.9892243754225
 20
139.8658454683183
 30
0.0
 11
150.9892243754226
 21
290.8049934683183
 31
0.0
  0
LINE
  5
720
330
1F
100
AcDbEntity
  8
0
100
AcDbLine
 10
153.9820613754226
 20
294.3179074683182
 30
0.0
 11
153.9820613754226
 21
136.3523914683181
 31
0.0
  0
LINE
  5
721
330
1F
100
AcDbEntity
  8
0
100
AcDbLine
 10
152.9741343754224
 20
128.3290054683182
 30
0.0
 11
152.9741343754224
 21
134.829270468318
 31
0.0
  0
LINE
  5
722
330
1F
100
AcDbEntity
  8
0
100
AcDbLine
 10
165.9743433754223
 20
130.0790054683182
 30
0.0
 11
165.9743433754223
 21
128.3290054683182
 31
0.0
  0
LINE
  5
723
330
1F
100
AcDbEntity
  8
0
100
AcDbLine
 10
170.9743433754223
 20
130.0790054683182
 30
0.0
 11
170.9743433754223
 21
128.3290054683182
 31
0.0
  0
LINE
  5
724
330
1F
100
AcDbEntity
  8
0
  6
CENTER
 62
     5
100
AcDbLine
 10
168.4743433754223
 20
137.5790054683182
 30
0.0
 11
168.4743433754223
 21
122.5790054683182
 31
0.0
  0
LINE
  5
725
330
1F
100
AcDbEntity
  8
0
100
AcDbLine
 10
154.4741343754224
 20
126.8290054683182
 30
0.0
 11
164.4743433754223
 21
126.8290054683182
 31
0.0
  0
ARC
  5
726
330
1F
100
AcDbEntity
  8
0
100
AcDbCircle
 10
172.4743433754223
 20
128.3290054683182
 30
0.0
 40
1.5
100
AcDbArc
 50
180.0
 51
270.0
  0
ARC
  5
727
330
1F
100
AcDbEntity
  8
0
100
AcDbCircle
 10
164.4743433754223
 20
128.3290054683182
 30
0.0
 40
1.5
100
AcDbArc
 50
270.0
 51
0.0
  0
ARC
  5
728
330
1F
100
AcDbEntity
  8
0
100
AcDbCircle
 10
154.4741343754224
 20
128.3290054683182
 30
0.0
 40
1.5
100
AcDbArc
 50
180.0
 51
270.0
  0
ARC
  5
729
330
1F
100
AcDbEntity
  8
0
100
AcDbCircle
 10
158.9321713754224
 20
134.205274468318
 30
0.0
 40
1.0
100
AcDbArc
 50
90.12440899999431
 51
146.0984159999927
  0
LINE
  5
72A
330
1F
100
AcDbEntity
  8
0
100
AcDbLine
 10
158.1507443754223
 20
134.829270468318
 30
0.0
 11
178.8020063754221
 21
134.829270468318
 31
0.0
  0
ARC
  5
72B
330
1F
100
AcDbEntity
  8
0
100
AcDbCircle
 10
168.4743433754223
 20
130.0790054683182
 30
0.0
 40
2.5
100
AcDbArc
 50
0.0
 51
180.0
  0
ARC
  5
72C
330
1F
100
AcDbEntity
  8
0
100
AcDbCircle
 10
168.4743433754204
 20
-4260.380024531682
 30
0.0
 40
4395.595658
100
AcDbArc
 50
89.8755910000057
 51
90.12440899999431
  0
LINE
  5
72D
330
1F
100
AcDbEntity
  8
0
  6
CENTER
 62
     5
100
AcDbLine
 10
175.9743433754223
 20
130.0790054683182
 30
0.0
 11
160.9743433754223
 21
130.0790054683182
 31
0.0
  0
ARC
  5
72E
330
1F
100
AcDbEntity
  8
0
100
AcDbCircle
 10
178.0165153754223
 20
134.2052744683176
 30
0.0
 40
1.0
100
AcDbArc
 50
33.90158400000709
 51
89.8755910000057
  0
ARC
  5
72F
330
1F
100
AcDbEntity
  8
0
100
AcDbCircle
 10
152.9046323754221
 20
141.2043064683181
 30
0.0
 40
1.0
100
AcDbArc
 50
180.0
 51
270.0
  0
LINE
  5
730
330
1F
100
AcDbEntity
  8
0
100
AcDbLine
 10
152.9046323754225
 20
140.204306468318
 30
0.0
 11
153.9050613754224
 21
140.204306468318
 31
0.0
  0
LINE
  5
731
330
1F
100
AcDbEntity
  8
0
100
AcDbLine
 10
152.9741343754224
 20
134.829270468318
 30
0.0
 11
152.9741343754224
 21
138.8658454683183
 31
0.0
  0
LINE
  5
732
330
1F
100
AcDbEntity
  8
0
100
AcDbLine
 10
152.9741343754224
 20
138.8658454683183
 30
0.0
 11
151.9892243754225
 21
138.8658454683183
 31
0.0
  0
LINE
  5
733
330
1F
100
AcDbEntity
  8
0
100
AcDbLine
 10
152.9741343754224
 20
138.8535474683181
 30
0.0
 11
153.9050613754224
 21
140.204306468318
 31
0.0
  0
ARC
  5
734
330
1F
100
AcDbEntity
  8
0
100
AcDbCircle
 10
151.9892243754225
 20
139.8658454683183
 30
0.0
 40
1.0
100
AcDbArc
 50
180.0
 51
270.0
  0
ARC
  5
735
330
1F
100
AcDbEntity
  8
0
100
AcDbCircle
 10
153.9741343754224
 20
134.829270468318
 30
0.0
 40
1.0
100
AcDbArc
 50
180.0
 51
270.0
  0
ARC
  5
736
330
1F
100
AcDbEntity
  8
0
100
AcDbCircle
 10
157.0743433754222
 20
138.9331394683183
 30
0.0
 40
1.0
100
AcDbArc
 50
180.0
 51
270.0
  0
ARC
  5
737
330
1F
100
AcDbEntity
  8
0
100
AcDbCircle
 10
156.9743433754223
 20
138.8292704683181
 30
0.0
 40
1.0
100
AcDbArc
 50
180.0
 51
270.0
  0
LINE
  5
738
330
1F
100
AcDbEntity
  8
0
100
AcDbLine
 10
158.1021743754224
 20
134.7630424683184
 30
0.0
 11
157.4746673754223
 21
133.8292704683182
 31
0.0
  0
ARC
  5
739
330
1F
100
AcDbEntity
  8
0
100
AcDbCircle
 10
154.9820613754224
 20
136.3523914683181
 30
0.0
 40
1.0
100
AcDbArc
 50
180.0
 51
270.0
  0
LINE
  5
73A
330
1F
100
AcDbEntity
  8
0
100
AcDbLine
 10
153.9741343754224
 20
133.8292704683182
 30
0.0
 11
157.4746673754223
 21
133.8292704683182
 31
0.0
  0
ARC
  5
73B
330
1F
100
AcDbEntity
  8
0
100
AcDbCircle
 10
158.9321713754226
 20
296.4532664683181
 30
0.0
 40
1.0
100
AcDbArc
 50
213.9015840000071
 51
269.8755909999925
  0
LINE
  5
73C
330
1F
100
AcDbEntity
  8
0
100
AcDbLine
 10
158.1507443754226
 20
295.8292704683178
 30
0.0
 11
178.8020063754226
 21
295.8292704683178
 31
0.0
  0
ARC
  5
73D
330
1F
100
AcDbEntity
  8
0
100
AcDbCircle
 10
168.4743433754248
 20
4691.038565468317
 30
0.0
 40
4395.595658
100
AcDbArc
 50
269.8755909999925
 51
270.1244089999942
  0
ARC
  5
73E
330
1F
100
AcDbEntity
  8
0
100
AcDbCircle
 10
178.0165153754225
 20
296.4532664683181
 30
0.0
 40
1.0
100
AcDbArc
 50
270.1244089999942
 51
326.0984159999928
  0
LINE
  5
73F
330
1F
100
AcDbEntity
  8
0
100
AcDbLine
 10
155.9743433754228
 20
291.8292704683178
 30
0.0
 11
155.9743433754228
 21
277.8881394683184
 31
0.0
  0
ARC
  5
740
330
1F
100
AcDbEntity
  8
0
100
AcDbCircle
 10
153.9741343754224
 20
295.8292704683178
 30
0.0
 40
1.0
100
AcDbArc
 50
90.0
 51
180.0
  0
LINE
  5
741
330
1F
100
AcDbEntity
  8
0
100
AcDbLine
 10
152.9741343754224
 20
291.8049934683183
 30
0.0
 11
151.9892243754226
 21
291.8049934683183
 31
0.0
  0
ARC
  5
742
330
1F
100
AcDbEntity
  8
0
100
AcDbCircle
 10
152.9046323754225
 20
289.4542354683181
 30
0.0
 40
1.0
100
AcDbArc
 50
90.0
 51
180.0
  0
ARC
  5
743
330
1F
100
AcDbEntity
  8
0
100
AcDbCircle
 10
152.9046323754225
 20
289.4542354683181
 30
0.0
 40
1.0
100
AcDbArc
 50
90.0
 51
180.0
  0
LINE
  5
744
330
1F
100
AcDbEntity
  8
0
100
AcDbLine
 10
152.9046323754225
 20
290.4542354683183
 30
0.0
 11
153.9050613754227
 21
290.4542354683183
 31
0.0
  0
LINE
  5
745
330
1F
100
AcDbEntity
  8
0
100
AcDbLine
 10
152.9046323754225
 20
290.4542354683183
 30
0.0
 11
153.9050613754227
 21
290.4542354683183
 31
0.0
  0
LINE
  5
746
330
1F
100
AcDbEntity
  8
0
100
AcDbLine
 10
152.9741343754224
 20
291.8049934683183
 30
0.0
 11
153.9050613754227
 21
290.4542354683183
 31
0.0
  0
LINE
  5
747
330
1F
100
AcDbEntity
  8
0
100
AcDbLine
 10
152.9741343754224
 20
291.8049934683183
 30
0.0
 11
153.9050613754227
 21
290.4542354683183
 31
0.0
  0
ARC
  5
748
330
1F
100
AcDbEntity
  8
0
100
AcDbCircle
 10
151.9892243754226
 20
290.8049934683183
 30
0.0
 40
1.0
100
AcDbArc
 50
90.0
 51
180.0
  0
LINE
  5
749
330
1F
100
AcDbEntity
  8
0
100
AcDbLine
 10
152.9741343754224
 20
295.8292704683178
 30
0.0
 11
152.9741343754224
 21
291.8049934683183
 31
0.0
  0
LINE
  5
74A
330
1F
100
AcDbEntity
  8
0
100
AcDbLine
 10
158.1021743754224
 20
295.8954984683181
 30
0.0
 11
157.4746673754226
 21
296.8292704683178
 31
0.0
  0
ARC
  5
74B
330
1F
100
AcDbEntity
  8
0
100
AcDbCircle
 10
157.0743433754225
 20
291.7331394683182
 30
0.0
 40
1.0
100
AcDbArc
 50
90.0
 51
180.0
  0
ARC
  5
74C
330
1F
100
AcDbEntity
  8
0
100
AcDbCircle
 10
156.9743433754226
 20
291.8292704683178
 30
0.0
 40
1.0
100
AcDbArc
 50
90.0
 51
180.0
  0
ARC
  5
74D
330
1F
100
AcDbEntity
  8
0
100
AcDbCircle
 10
154.9820613754224
 20
294.3179074683182
 30
0.0
 40
1.0
100
AcDbArc
 50
90.0
 51
180.0
  0
LINE
  5
74E
330
1F
100
AcDbEntity
  8
0
100
AcDbLine
 10
153.9741343754224
 20
296.8292704683178
 30
0.0
 11
157.4746673754226
 21
296.8292704683178
 31
0.0
  0
LINE
  5
74F
330
1F
100
AcDbEntity
  8
0
100
AcDbLine
 10
154.4741343754224
 20
305.3290114683178
 30
0.0
 11
182.4745523754224
 21
305.3290114683178
 31
0.0
  0
LINE
  5
750
330
1F
100
AcDbEntity
  8
CLASS1
100
AcDbLine
 10
2.500001101165934
 20
305.3290114683178
 30
0.0
 11
0.000001101166049
 21
305.3290114683178
 31
0.0
  0
LINE
  5
751
330
1F
100
AcDbEntity
  8
0
100
AcDbLine
 10
2.500001101165934
 20
305.3290114683178
 30
0.0
 11
2.500001101165934
 21
298.3305604683176
 31
0.0
  0
ARC
  5
752
330
1F
100
AcDbEntity
  8
0
100
AcDbCircle
 10
182.4745523754224
 20
303.8290114683178
 30
0.0
 40
1.5
100
AcDbArc
 50
0.0
 51
90.0
  0
LINE
  5
753
330
1F
100
AcDbEntity
  8
0
  6
CENTER
 62
     5
100
AcDbLine
 10
175.9743433754226
 20
300.5790114683178
 30
0.0
 11
160.9743433754228
 21
300.5790114683178
 31
0.0
  0
CIRCLE
  5
754
330
1F
100
AcDbEntity
  8
0
100
AcDbCircle
 10
168.4743433754228
 20
300.5790114683178
 30
0.0
 40
2.5
  0
ARC
  5
755
330
1F
100
AcDbEntity
  8
0
100
AcDbCircle
 10
154.4741343754224
 20
303.8290114683178
 30
0.0
 40
1.5
100
AcDbArc
 50
90.0
 51
180.0
  0
LINE
  5
756
330
1F
100
AcDbEntity
  8
0
100
AcDbLine
 10
174.3743433754223
 20
231.8071264683183
 30
0.0
 11
174.3743433754223
 21
143.8331394683183
 31
0.0
  0
LINE
  5
757
330
1F
100
AcDbEntity
  8
0
100
AcDbLine
 10
161.0743433754227
 20
225.6571264683183
 30
0.0
 11
161.0743433754227
 21
211.6571264683183
 31
0.0
  0
LINE
  5
758
330
1F
100
AcDbEntity
  8
0
100
AcDbLine
 10
160.5743433754227
 20
226.1331394683181
 30
0.0
 11
160.5743433754227
 21
211.1331394683181
 31
0.0
  0
LINE
  5
759
330
1F
100
AcDbEntity
  8
0
100
AcDbLine
 10
173.8743433754223
 20
211.6571264683183
 30
0.0
 11
173.8743433754223
 21
225.6571264683183
 31
0.0
  0
LINE
  5
75A
330
1F
100
AcDbEntity
  8
0
100
AcDbLine
 10
168.5043433754225
 20
155.813138468318
 30
0.0
 11
168.5043433754225
 21
152.0031384683178
 31
0.0
  0
LINE
  5
75B
330
1F
100
AcDbEntity
  8
0
100
AcDbLine
 10
173.3743433754223
 20
173.5531384683181
 30
0.0
 11
173.3743433754223
 21
144.4931384683179
 31
0.0
  0
LINE
  5
75C
330
1F
100
AcDbEntity
  8
0
100
AcDbLine
 10
160.1743433754224
 20
143.8331394683183
 30
0.0
 11
160.1743433754224
 21
173.7331394683184
 31
0.0
  0
ARC
  5
75D
330
1F
100
AcDbEntity
  8
0
100
AcDbCircle
 10
165.4743433754223
 20
153.9081384683181
 30
0.0
 40
0.85
100
AcDbArc
 50
0.0
 51
323.269604999999
  0
LINE
  5
75E
330
1F
100
AcDbEntity
  8
0
100
AcDbLine
 10
160.6743433754225
 20
152.3431384683179
 30
0.0
 11
160.6743433754225
 21
155.443138468318
 31
0.0
  0
LINE
  5
75F
330
1F
100
AcDbEntity
  8
0
100
AcDbLine
 10
161.3243433754225
 20
155.7431384683178
 30
0.0
 11
161.3243433754225
 21
152.9431384683181
 31
0.0
  0
LINE
  5
760
330
1F
100
AcDbEntity
  8
0
100
AcDbLine
 10
162.5243433754224
 20
152.9431384683181
 30
0.0
 11
162.5243433754224
 21
155.7431384683178
 31
0.0
  0
LINE
  5
761
330
1F
100
AcDbEntity
  8
0
100
AcDbLine
 10
163.1743433754223
 20
152.3431384683179
 30
0.0
 11
163.1743433754223
 21
155.043138468318
 31
0.0
  0
LINE
  5
762
330
1F
100
AcDbEntity
  8
0
100
AcDbLine
 10
163.3243433754225
 20
155.043138468318
 30
0.0
 11
163.3243433754225
 21
152.0031384683178
 31
0.0
  0
CIRCLE
  5
763
330
1F
100
AcDbEntity
  8
0
100
AcDbCircle
 10
165.4743433754223
 20
153.9081384683181
 30
0.0
 40
1.564999999999999
  0
LINE
  5
764
330
1F
100
AcDbEntity
  8
0
100
AcDbLine
 10
163.8243433754227
 20
152.0031384683178
 30
0.0
 11
167.5443433754223
 21
152.0031384683178
 31
0.0
  0
LINE
  5
765
330
1F
100
AcDbEntity
  8
0
100
AcDbLine
 10
163.8243433754227
 20
152.0031384683178
 30
0.0
 11
168.3043433754226
 21
152.0031384683178
 31
0.0
  0
LINE
  5
766
330
1F
100
AcDbEntity
  8
0
100
AcDbLine
 10
163.8243433754227
 20
144.383138468318
 30
0.0
 11
168.3043433754226
 21
144.383138468318
 31
0.0
  0
LINE
  5
767
330
1F
100
AcDbEntity
  8
0
100
AcDbLine
 10
163.8243433754227
 20
148.193138468318
 30
0.0
 11
167.5443433754223
 21
148.193138468318
 31
0.0
  0
LINE
  5
768
330
1F
100
AcDbEntity
  8
0
100
AcDbLine
 10
163.8243433754227
 20
148.193138468318
 30
0.0
 11
168.3043433754226
 21
148.193138468318
 31
0.0
  0
LINE
  5
769
330
1F
100
AcDbEntity
  8
0
100
AcDbLine
 10
160.1743433754224
 20
143.8331394683183
 30
0.0
 11
174.3743433754223
 21
143.8331394683183
 31
0.0
  0
ARC
  5
76A
330
1F
100
AcDbEntity
  8
0
100
AcDbCircle
 10
160.9743433754223
 20
151.633138468318
 30
0.0
 40
0.3
100
AcDbArc
 50
90.0
 51
180.0
  0
LINE
  5
76B
330
1F
100
AcDbEntity
  8
0
100
AcDbLine
 10
163.3243433754225
 20
152.0031384683178
 30
0.0
 11
163.3243433754225
 21
151.9331384683179
 31
0.0
  0
ARC
  5
76C
330
1F
100
AcDbEntity
  8
0
100
AcDbCircle
 10
165.4743433754223
 20
150.0981384683178
 30
0.0
 40
0.85
100
AcDbArc
 50
0.0
 51
323.269604999999
  0
ARC
  5
76D
330
1F
100
AcDbEntity
  8
0
100
AcDbCircle
 10
165.4743433754223
 20
146.2881384683178
 30
0.0
 40
0.85
100
AcDbArc
 50
0.0
 51
323.269604999999
  0
LINE
  5
76E
330
1F
100
AcDbEntity
  8
0
100
AcDbLine
 10
163.3243433754225
 20
147.423138468318
 30
0.0
 11
163.3243433754225
 21
144.383138468318
 31
0.0
  0
LINE
  5
76F
330
1F
100
AcDbEntity
  8
0
100
AcDbLine
 10
163.1743433754223
 20
144.723138468318
 30
0.0
 11
163.1743433754223
 21
147.423138468318
 31
0.0
  0
LINE
  5
770
330
1F
100
AcDbEntity
  8
0
100
AcDbLine
 10
160.6743433754225
 20
144.723138468318
 30
0.0
 11
160.6743433754225
 21
147.8231384683183
 31
0.0
  0
ARC
  5
771
330
1F
100
AcDbEntity
  8
0
100
AcDbCircle
 10
162.2243433754223
 20
145.3231384683181
 30
0.0
 40
0.3
100
AcDbArc
 50
270.0
 51
0.0
  0
ARC
  5
772
330
1F
100
AcDbEntity
  8
0
100
AcDbCircle
 10
161.6243433754223
 20
145.3231384683181
 30
0.0
 40
0.3
100
AcDbArc
 50
180.0
 51
270.0
  0
LINE
  5
773
330
1F
100
AcDbEntity
  8
0
100
AcDbLine
 10
163.8243433754227
 20
144.383138468318
 30
0.0
 11
163.3243433754225
 21
144.383138468318
 31
0.0
  0
LINE
  5
774
330
1F
100
AcDbEntity
  8
0
100
AcDbLine
 10
162.7743433754224
 20
144.4231384683179
 30
0.0
 11
162.8743433754223
 21
144.4231384683179
 31
0.0
  0
LINE
  5
775
330
1F
100
AcDbEntity
  8
0
100
AcDbLine
 10
161.6243433754223
 20
145.0231384683181
 30
0.0
 11
162.2243433754223
 21
145.0231384683181
 31
0.0
  0
LINE
  5
776
330
1F
100
AcDbEntity
  8
0
100
AcDbLine
 10
163.8243433754227
 20
152.0031384683178
 30
0.0
 11
163.3243433754225
 21
152.0031384683178
 31
0.0
  0
ARC
  5
777
330
1F
100
AcDbEntity
  8
0
100
AcDbCircle
 10
161.6243433754223
 20
152.9431384683181
 30
0.0
 40
0.3
100
AcDbArc
 50
180.0
 51
270.0
  0
ARC
  5
778
330
1F
100
AcDbEntity
  8
0
100
AcDbCircle
 10
160.9743433754223
 20
152.3431384683179
 30
0.0
 40
0.3
100
AcDbArc
 50
180.0
 51
270.0
  0
ARC
  5
779
330
1F
100
AcDbEntity
  8
0
100
AcDbCircle
 10
162.8743433754223
 20
152.3431384683179
 30
0.0
 40
0.3
100
AcDbArc
 50
270.0
 51
0.0
  0
ARC
  5
77A
330
1F
100
AcDbEntity
  8
0
100
AcDbCircle
 10
162.2243433754223
 20
152.9431384683181
 30
0.0
 40
0.3
100
AcDbArc
 50
270.0
 51
0.0
  0
LINE
  5
77B
330
1F
100
AcDbEntity
  8
0
100
AcDbLine
 10
160.9743433754223
 20
152.0431384683182
 30
0.0
 11
161.0743433754227
 21
152.0431384683182
 31
0.0
  0
LINE
  5
77C
330
1F
100
AcDbEntity
  8
0
100
AcDbLine
 10
161.0743433754227
 20
152.0431384683182
 30
0.0
 11
162.7743433754224
 21
152.0431384683182
 31
0.0
  0
LINE
  5
77D
330
1F
100
AcDbEntity
  8
0
100
AcDbLine
 10
161.6243433754223
 20
152.643138468318
 30
0.0
 11
162.2243433754223
 21
152.643138468318
 31
0.0
  0
LINE
  5
77E
330
1F
100
AcDbEntity
  8
0
100
AcDbLine
 10
162.7743433754224
 20
152.0431384683182
 30
0.0
 11
162.8743433754223
 21
152.0431384683182
 31
0.0
  0
LINE
  5
77F
330
1F
100
AcDbEntity
  8
0
100
AcDbLine
 10
163.8243433754227
 20
152.0031384683178
 30
0.0
 11
163.3243433754225
 21
152.0031384683178
 31
0.0
  0
ARC
  5
780
330
1F
100
AcDbEntity
  8
0
100
AcDbCircle
 10
165.4743433754223
 20
153.9081384683181
 30
0.0
 40
0.85
100
AcDbArc
 50
323.269604999999
 51
0.0
  0
LINE
  5
781
330
1F
100
AcDbEntity
  8
0
100
AcDbLine
 10
161.0743433754227
 20
144.4231384683179
 30
0.0
 11
162.7743433754224
 21
144.4231384683179
 31
0.0
  0
LINE
  5
782
330
1F
100
AcDbEntity
  8
0
100
AcDbLine
 10
160.9743433754223
 20
144.4231384683179
 30
0.0
 11
161.0743433754227
 21
144.4231384683179
 31
0.0
  0
ARC
  5
783
330
1F
100
AcDbEntity
  8
0
100
AcDbCircle
 10
162.8743433754223
 20
144.723138468318
 30
0.0
 40
0.3
100
AcDbArc
 50
270.0
 51
0.0
  0
ARC
  5
784
330
1F
100
AcDbEntity
  8
0
100
AcDbCircle
 10
160.9743433754223
 20
144.723138468318
 30
0.0
 40
0.3
100
AcDbArc
 50
180.0
 51
270.0
  0
LINE
  5
785
330
1F
100
AcDbEntity
  8
0
100
AcDbLine
 10
163.3243433754225
 20
151.9331384683179
 30
0.0
 11
163.3243433754225
 21
151.2331384683179
 31
0.0
  0
LINE
  5
786
330
1F
100
AcDbEntity
  8
0
100
AcDbLine
 10
161.3243433754225
 20
151.9331384683179
 30
0.0
 11
161.3243433754225
 21
149.1331384683181
 31
0.0
  0
LINE
  5
787
330
1F
100
AcDbEntity
  8
0
100
AcDbLine
 10
163.1743433754223
 20
151.2331384683179
 30
0.0
 11
163.1743433754223
 21
151.9331384683179
 31
0.0
  0
LINE
  5
788
330
1F
100
AcDbEntity
  8
0
100
AcDbLine
 10
162.5243433754224
 20
149.1331384683181
 30
0.0
 11
162.5243433754224
 21
151.9331384683179
 31
0.0
  0
ARC
  5
789
330
1F
100
AcDbEntity
  8
0
100
AcDbCircle
 10
161.6243433754223
 20
149.1331384683181
 30
0.0
 40
0.3
100
AcDbArc
 50
180.0
 51
270.0
  0
ARC
  5
78A
330
1F
100
AcDbEntity
  8
0
100
AcDbCircle
 10
162.2243433754223
 20
149.1331384683181
 30
0.0
 40
0.3
100
AcDbArc
 50
270.0
 51
0.0
  0
LINE
  5
78B
330
1F
100
AcDbEntity
  8
0
100
AcDbLine
 10
160.9743433754223
 20
148.2331384683178
 30
0.0
 11
161.0743433754227
 21
148.2331384683178
 31
0.0
  0
LINE
  5
78C
330
1F
100
AcDbEntity
  8
0
100
AcDbLine
 10
161.0743433754227
 20
148.2331384683178
 30
0.0
 11
162.7743433754224
 21
148.2331384683178
 31
0.0
  0
LINE
  5
78D
330
1F
100
AcDbEntity
  8
0
100
AcDbLine
 10
160.6743433754225
 20
148.5331384683181
 30
0.0
 11
160.6743433754225
 21
151.633138468318
 31
0.0
  0
LINE
  5
78E
330
1F
100
AcDbEntity
  8
0
100
AcDbLine
 10
161.6243433754223
 20
148.833138468318
 30
0.0
 11
162.2243433754223
 21
148.833138468318
 31
0.0
  0
LINE
  5
78F
330
1F
100
AcDbEntity
  8
0
100
AcDbLine
 10
162.7743433754224
 20
148.2331384683178
 30
0.0
 11
162.8743433754223
 21
148.2331384683178
 31
0.0
  0
LINE
  5
790
330
1F
100
AcDbEntity
  8
0
100
AcDbLine
 10
163.1743433754223
 20
151.2331384683179
 30
0.0
 11
163.3243433754225
 21
151.2331384683179
 31
0.0
  0
LINE
  5
791
330
1F
100
AcDbEntity
  8
0
100
AcDbLine
 10
163.1743433754223
 20
148.5331384683181
 30
0.0
 11
163.1743433754223
 21
151.2331384683179
 31
0.0
  0
LINE
  5
792
330
1F
100
AcDbEntity
  8
0
100
AcDbLine
 10
160.9743433754223
 20
151.9331384683179
 30
0.0
 11
161.0743433754227
 21
151.9331384683179
 31
0.0
  0
LINE
  5
793
330
1F
100
AcDbEntity
  8
0
100
AcDbLine
 10
161.6243433754223
 20
151.9331384683179
 30
0.0
 11
162.2243433754223
 21
151.9331384683179
 31
0.0
  0
LINE
  5
794
330
1F
100
AcDbEntity
  8
0
100
AcDbLine
 10
161.0743433754227
 20
151.9331384683179
 30
0.0
 11
161.3243433754225
 21
151.9331384683179
 31
0.0
  0
LINE
  5
795
330
1F
100
AcDbEntity
  8
0
100
AcDbLine
 10
161.6243433754223
 20
151.9331384683179
 30
0.0
 11
161.3243433754225
 21
151.9331384683179
 31
0.0
  0
LINE
  5
796
330
1F
100
AcDbEntity
  8
0
100
AcDbLine
 10
162.7743433754224
 20
151.9331384683179
 30
0.0
 11
163.1743433754223
 21
151.9331384683179
 31
0.0
  0
LINE
  5
797
330
1F
100
AcDbEntity
  8
0
100
AcDbLine
 10
163.1743433754223
 20
151.9331384683179
 30
0.0
 11
163.3243433754225
 21
151.9331384683179
 31
0.0
  0
LINE
  5
798
330
1F
100
AcDbEntity
  8
0
100
AcDbLine
 10
162.5243433754224
 20
151.9331384683179
 30
0.0
 11
162.7743433754224
 21
151.9331384683179
 31
0.0
  0
LINE
  5
799
330
1F
100
AcDbEntity
  8
0
100
AcDbLine
 10
162.5243433754224
 20
151.9331384683179
 30
0.0
 11
162.2243433754223
 21
151.9331384683179
 31
0.0
  0
LINE
  5
79A
330
1F
100
AcDbEntity
  8
0
100
AcDbLine
 10
163.3243433754225
 20
148.193138468318
 30
0.0
 11
163.3243433754225
 21
148.1231384683181
 31
0.0
  0
LINE
  5
79B
330
1F
100
AcDbEntity
  8
0
100
AcDbLine
 10
163.3243433754225
 20
148.1231384683181
 30
0.0
 11
163.3243433754225
 21
147.423138468318
 31
0.0
  0
LINE
  5
79C
330
1F
100
AcDbEntity
  8
0
100
AcDbLine
 10
163.8243433754227
 20
148.193138468318
 30
0.0
 11
163.3243433754225
 21
148.193138468318
 31
0.0
  0
LINE
  5
79D
330
1F
100
AcDbEntity
  8
0
100
AcDbLine
 10
162.5243433754224
 20
148.1231384683181
 30
0.0
 11
162.2243433754223
 21
148.1231384683181
 31
0.0
  0
LINE
  5
79E
330
1F
100
AcDbEntity
  8
0
100
AcDbLine
 10
162.5243433754224
 20
148.1231384683181
 30
0.0
 11
162.7743433754224
 21
148.1231384683181
 31
0.0
  0
LINE
  5
79F
330
1F
100
AcDbEntity
  8
0
100
AcDbLine
 10
163.1743433754223
 20
148.1231384683181
 30
0.0
 11
163.3243433754225
 21
148.1231384683181
 31
0.0
  0
LINE
  5
7A0
330
1F
100
AcDbEntity
  8
0
100
AcDbLine
 10
162.7743433754224
 20
148.1231384683181
 30
0.0
 11
163.1743433754223
 21
148.1231384683181
 31
0.0
  0
LINE
  5
7A1
330
1F
100
AcDbEntity
  8
0
100
AcDbLine
 10
162.5243433754224
 20
145.3231384683181
 30
0.0
 11
162.5243433754224
 21
148.1231384683181
 31
0.0
  0
LINE
  5
7A2
330
1F
100
AcDbEntity
  8
0
100
AcDbLine
 10
163.1743433754223
 20
147.423138468318
 30
0.0
 11
163.3243433754225
 21
147.423138468318
 31
0.0
  0
LINE
  5
7A3
330
1F
100
AcDbEntity
  8
0
100
AcDbLine
 10
163.1743433754223
 20
147.423138468318
 30
0.0
 11
163.1743433754223
 21
148.1231384683181
 31
0.0
  0
LINE
  5
7A4
330
1F
100
AcDbEntity
  8
0
100
AcDbLine
 10
161.6243433754223
 20
148.1231384683181
 30
0.0
 11
161.3243433754225
 21
148.1231384683181
 31
0.0
  0
LINE
  5
7A5
330
1F
100
AcDbEntity
  8
0
100
AcDbLine
 10
161.0743433754227
 20
148.1231384683181
 30
0.0
 11
161.3243433754225
 21
148.1231384683181
 31
0.0
  0
LINE
  5
7A6
330
1F
100
AcDbEntity
  8
0
100
AcDbLine
 10
161.3243433754225
 20
148.1231384683181
 30
0.0
 11
161.3243433754225
 21
145.3231384683181
 31
0.0
  0
LINE
  5
7A7
330
1F
100
AcDbEntity
  8
0
100
AcDbLine
 10
161.6243433754223
 20
148.1231384683181
 30
0.0
 11
162.2243433754223
 21
148.1231384683181
 31
0.0
  0
LINE
  5
7A8
330
1F
100
AcDbEntity
  8
0
100
AcDbLine
 10
160.9743433754223
 20
148.1231384683181
 30
0.0
 11
161.0743433754227
 21
148.1231384683181
 31
0.0
  0
ARC
  5
7A9
330
1F
100
AcDbEntity
  8
0
100
AcDbCircle
 10
160.9743433754223
 20
147.8231384683183
 30
0.0
 40
0.3
100
AcDbArc
 50
90.0
 51
180.0
  0
LINE
  5
7AA
330
1F
100
AcDbEntity
  8
0
100
AcDbLine
 10
163.8243433754227
 20
148.193138468318
 30
0.0
 11
163.3243433754225
 21
148.193138468318
 31
0.0
  0
LINE
  5
7AB
330
1F
100
AcDbEntity
  8
0
100
AcDbLine
 10
163.3243433754225
 20
151.2331384683179
 30
0.0
 11
163.3243433754225
 21
148.193138468318
 31
0.0
  0
ARC
  5
7AC
330
1F
100
AcDbEntity
  8
0
100
AcDbCircle
 10
160.9743433754223
 20
148.5331384683181
 30
0.0
 40
0.3
100
AcDbArc
 50
180.0
 51
270.0
  0
ARC
  5
7AD
330
1F
100
AcDbEntity
  8
0
100
AcDbCircle
 10
162.8743433754223
 20
148.5331384683181
 30
0.0
 40
0.3
100
AcDbArc
 50
270.0
 51
0.0
  0
ARC
  5
7AE
330
1F
100
AcDbEntity
  8
0
100
AcDbCircle
 10
165.4743433754223
 20
150.0981384683178
 30
0.0
 40
0.85
100
AcDbArc
 50
323.269604999999
 51
0.0
  0
ARC
  5
7AF
330
1F
100
AcDbEntity
  8
0
100
AcDbCircle
 10
165.4743433754223
 20
146.2881384683178
 30
0.0
 40
0.85
100
AcDbArc
 50
323.269604999999
 51
0.0
  0
CIRCLE
  5
7B0
330
1F
100
AcDbEntity
  8
0
100
AcDbCircle
 10
165.4743433754223
 20
150.0981384683178
 30
0.0
 40
1.564999999999999
  0
CIRCLE
  5
7B1
330
1F
100
AcDbEntity
  8
0
100
AcDbCircle
 10
165.4743433754223
 20
146.2881384683178
 30
0.0
 40
1.564999999999999
  0
LINE
  5
7B2
330
1F
100
AcDbEntity
  8
0
100
AcDbLine
 10
173.3743433754223
 20
152.0031384683178
 30
0.0
 11
172.8743433754223
 21
152.0031384683178
 31
0.0
  0
LINE
  5
7B3
330
1F
100
AcDbEntity
  8
0
100
AcDbLine
 10
173.3743433754223
 20
152.0031384683178
 30
0.0
 11
172.8743433754223
 21
152.0031384683178
 31
0.0
  0
LINE
  5
7B4
330
1F
100
AcDbEntity
  8
0
100
AcDbLine
 10
167.5443433754223
 20
152.0031384683178
 30
0.0
 11
168.3043433754226
 21
152.0031384683178
 31
0.0
  0
LINE
  5
7B5
330
1F
100
AcDbEntity
  8
0
100
AcDbLine
 10
168.5043433754225
 20
152.0031384683178
 30
0.0
 11
168.3043433754226
 21
152.0031384683178
 31
0.0
  0
LINE
  5
7B6
330
1F
100
AcDbEntity
  8
0
100
AcDbLine
 10
169.0743433754227
 20
152.0031384683178
 30
0.0
 11
170.4743433754225
 21
152.0031384683178
 31
0.0
  0
LINE
  5
7B7
330
1F
100
AcDbEntity
  8
0
100
AcDbLine
 10
168.9443433754223
 20
152.0031384683178
 30
0.0
 11
169.0743433754227
 21
152.0031384683178
 31
0.0
  0
LINE
  5
7B8
330
1F
100
AcDbEntity
  8
0
100
AcDbLine
 10
168.5043433754225
 20
152.0031384683178
 30
0.0
 11
168.9443433754223
 21
152.0031384683178
 31
0.0
  0
LINE
  5
7B9
330
1F
100
AcDbEntity
  8
0
100
AcDbLine
 10
168.5043433754225
 20
152.0031384683178
 30
0.0
 11
168.3043433754226
 21
152.0031384683178
 31
0.0
  0
LINE
  5
7BA
330
1F
100
AcDbEntity
  8
0
100
AcDbLine
 10
170.4743433754225
 20
152.0031384683178
 30
0.0
 11
172.8743433754223
 21
152.0031384683178
 31
0.0
  0
LINE
  5
7BB
330
1F
100
AcDbEntity
  8
0
100
AcDbLine
 10
168.5043433754225
 20
152.0031384683178
 30
0.0
 11
172.8743433754223
 21
152.0031384683178
 31
0.0
  0
LINE
  5
7BC
330
1F
100
AcDbEntity
  8
0
100
AcDbLine
 10
173.3743433754223
 20
153.413138468318
 30
0.0
 11
173.8743433754223
 21
153.413138468318
 31
0.0
  0
LINE
  5
7BD
330
1F
100
AcDbEntity
  8
0
100
AcDbLine
 10
173.3743433754223
 20
152.1131384683181
 30
0.0
 11
173.8743433754223
 21
152.1131384683181
 31
0.0
  0
LINE
  5
7BE
330
1F
100
AcDbEntity
  8
0
100
AcDbLine
 10
173.8743433754223
 20
153.413138468318
 30
0.0
 11
173.8743433754223
 21
153.0131384683179
 31
0.0
  0
LINE
  5
7BF
330
1F
100
AcDbEntity
  8
0
100
AcDbLine
 10
173.8743433754223
 20
153.0131384683179
 30
0.0
 11
173.8743433754223
 21
152.5131384683177
 31
0.0
  0
LINE
  5
7C0
330
1F
100
AcDbEntity
  8
0
100
AcDbLine
 10
173.8743433754223
 20
152.5131384683177
 30
0.0
 11
173.8743433754223
 21
152.1131384683181
 31
0.0
  0
LINE
  5
7C1
330
1F
100
AcDbEntity
  8
0
100
AcDbLine
 10
173.3743433754223
 20
152.1131384683181
 30
0.0
 11
173.3743433754223
 21
152.0031384683178
 31
0.0
  0
LINE
  5
7C2
330
1F
100
AcDbEntity
  8
0
100
AcDbLine
 10
168.5043433754225
 20
152.0031384683178
 30
0.0
 11
168.5043433754225
 21
148.193138468318
 31
0.0
  0
LINE
  5
7C3
330
1F
100
AcDbEntity
  8
0
100
AcDbLine
 10
173.8743433754223
 20
145.3931384683181
 30
0.0
 11
173.8743433754223
 21
144.8931384683181
 31
0.0
  0
LINE
  5
7C4
330
1F
100
AcDbEntity
  8
0
100
AcDbLine
 10
168.5043433754225
 20
148.193138468318
 30
0.0
 11
168.5043433754225
 21
144.383138468318
 31
0.0
  0
LINE
  5
7C5
330
1F
100
AcDbEntity
  8
0
100
AcDbLine
 10
173.3743433754223
 20
144.383138468318
 30
0.0
 11
172.8743433754223
 21
144.383138468318
 31
0.0
  0
LINE
  5
7C6
330
1F
100
AcDbEntity
  8
0
100
AcDbLine
 10
168.5043433754225
 20
144.383138468318
 30
0.0
 11
168.3043433754226
 21
144.383138468318
 31
0.0
  0
LINE
  5
7C7
330
1F
100
AcDbEntity
  8
0
100
AcDbLine
 10
168.5043433754225
 20
144.383138468318
 30
0.0
 11
172.8743433754223
 21
144.383138468318
 31
0.0
  0
LINE
  5
7C8
330
1F
100
AcDbEntity
  8
0
100
AcDbLine
 10
173.3743433754223
 20
144.4931384683179
 30
0.0
 11
173.3743433754223
 21
144.383138468318
 31
0.0
  0
LINE
  5
7C9
330
1F
100
AcDbEntity
  8
0
100
AcDbLine
 10
173.8743433754223
 20
144.8931384683181
 30
0.0
 11
173.8743433754223
 21
144.4931384683179
 31
0.0
  0
LINE
  5
7CA
330
1F
100
AcDbEntity
  8
0
100
AcDbLine
 10
173.3743433754223
 20
144.4931384683179
 30
0.0
 11
173.8743433754223
 21
144.4931384683179
 31
0.0
  0
LINE
  5
7CB
330
1F
100
AcDbEntity
  8
0
100
AcDbLine
 10
173.3743433754223
 20
148.193138468318
 30
0.0
 11
172.8743433754223
 21
148.193138468318
 31
0.0
  0
LINE
  5
7CC
330
1F
100
AcDbEntity
  8
0
100
AcDbLine
 10
173.3743433754223
 20
148.193138468318
 30
0.0
 11
172.8743433754223
 21
148.193138468318
 31
0.0
  0
LINE
  5
7CD
330
1F
100
AcDbEntity
  8
0
100
AcDbLine
 10
167.5443433754223
 20
148.193138468318
 30
0.0
 11
168.3043433754226
 21
148.193138468318
 31
0.0
  0
LINE
  5
7CE
330
1F
100
AcDbEntity
  8
0
100
AcDbLine
 10
168.5043433754225
 20
148.193138468318
 30
0.0
 11
168.9443433754223
 21
148.193138468318
 31
0.0
  0
LINE
  5
7CF
330
1F
100
AcDbEntity
  8
0
100
AcDbLine
 10
168.9443433754223
 20
148.193138468318
 30
0.0
 11
169.0743433754227
 21
148.193138468318
 31
0.0
  0
LINE
  5
7D0
330
1F
100
AcDbEntity
  8
0
100
AcDbLine
 10
169.0743433754227
 20
148.193138468318
 30
0.0
 11
170.4743433754225
 21
148.193138468318
 31
0.0
  0
LINE
  5
7D1
330
1F
100
AcDbEntity
  8
0
100
AcDbLine
 10
168.5043433754225
 20
148.193138468318
 30
0.0
 11
168.3043433754226
 21
148.193138468318
 31
0.0
  0
LINE
  5
7D2
330
1F
100
AcDbEntity
  8
0
100
AcDbLine
 10
168.5043433754225
 20
148.193138468318
 30
0.0
 11
168.3043433754226
 21
148.193138468318
 31
0.0
  0
LINE
  5
7D3
330
1F
100
AcDbEntity
  8
0
100
AcDbLine
 10
170.4743433754225
 20
148.193138468318
 30
0.0
 11
172.8743433754223
 21
148.193138468318
 31
0.0
  0
LINE
  5
7D4
330
1F
100
AcDbEntity
  8
0
100
AcDbLine
 10
168.5043433754225
 20
148.193138468318
 30
0.0
 11
172.8743433754223
 21
148.193138468318
 31
0.0
  0
LINE
  5
7D5
330
1F
100
AcDbEntity
  8
0
100
AcDbLine
 10
173.3743433754223
 20
149.6031384683182
 30
0.0
 11
173.8743433754223
 21
149.6031384683182
 31
0.0
  0
LINE
  5
7D6
330
1F
100
AcDbEntity
  8
0
100
AcDbLine
 10
173.3743433754223
 20
148.3031384683179
 30
0.0
 11
173.8743433754223
 21
148.3031384683179
 31
0.0
  0
LINE
  5
7D7
330
1F
100
AcDbEntity
  8
0
100
AcDbLine
 10
173.8743433754223
 20
149.6031384683182
 30
0.0
 11
173.8743433754223
 21
149.203138468318
 31
0.0
  0
LINE
  5
7D8
330
1F
100
AcDbEntity
  8
0
100
AcDbLine
 10
173.8743433754223
 20
149.203138468318
 30
0.0
 11
173.8743433754223
 21
148.7031384683179
 31
0.0
  0
LINE
  5
7D9
330
1F
100
AcDbEntity
  8
0
100
AcDbLine
 10
173.8743433754223
 20
148.7031384683179
 30
0.0
 11
173.8743433754223
 21
148.3031384683179
 31
0.0
  0
LINE
  5
7DA
330
1F
100
AcDbEntity
  8
0
100
AcDbLine
 10
173.8743433754223
 20
145.7931384683182
 30
0.0
 11
173.8743433754223
 21
145.3931384683181
 31
0.0
  0
LINE
  5
7DB
330
1F
100
AcDbEntity
  8
0
100
AcDbLine
 10
173.3743433754223
 20
145.7931384683182
 30
0.0
 11
173.8743433754223
 21
145.7931384683182
 31
0.0
  0
LINE
  5
7DC
330
1F
100
AcDbEntity
  8
0
100
AcDbLine
 10
173.3743433754223
 20
148.3031384683179
 30
0.0
 11
173.3743433754223
 21
148.193138468318
 31
0.0
  0
LINE
  5
7DD
330
1F
100
AcDbEntity
  8
0
100
AcDbLine
 10
169.2951783754225
 20
189.2531384683179
 30
0.0
 11
169.2951783754225
 21
186.2531384683179
 31
0.0
  0
LINE
  5
7DE
330
1F
100
AcDbEntity
  8
0
100
AcDbLine
 10
171.2601003754222
 20
189.2531384683179
 30
0.0
 11
171.2601003754222
 21
186.2531384683179
 31
0.0
  0
LINE
  5
7DF
330
1F
100
AcDbEntity
  8
0
100
AcDbLine
 10
166.8743433754223
 20
185.2531384683178
 30
0.0
 11
166.8743433754223
 21
190.2531384683179
 31
0.0
  0
LINE
  5
7E0
330
1F
100
AcDbEntity
  8
0
100
AcDbLine
 10
166.3743433754223
 20
185.033139468318
 30
0.0
 11
166.3743433754223
 21
190.7331394683184
 31
0.0
  0
LINE
  5
7E1
330
1F
100
AcDbEntity
  8
0
100
AcDbLine
 10
173.8743433754223
 20
190.2531384683179
 30
0.0
 11
173.8743433754223
 21
185.2531384683178
 31
0.0
  0
LINE
  5
7E2
330
1F
100
AcDbEntity
  8
0
100
AcDbLine
 10
171.4743433754208
 20
174.8031384683171
 30
0.0
 11
160.0743433754229
 21
174.8031384683171
 31
0.0
  0
LINE
  5
7E3
330
1F
100
AcDbEntity
  8
0
100
AcDbLine
 10
160.0743433754229
 20
184.0031384683179
 30
0.0
 11
171.4743433754208
 21
184.0031384683163
 31
0.0
  0
LINE
  5
7E4
330
1F
100
AcDbEntity
  8
0
100
AcDbLine
 10
159.6951754546115
 20
174.3031384683171
 30
0.0
 11
171.8743433754223
 21
174.3031384683171
 31
0.0
  0
LINE
  5
7E5
330
1F
100
AcDbEntity
  8
0
100
AcDbLine
 10
159.6951754546115
 20
184.5031384683163
 30
0.0
 11
171.8743433754223
 21
184.5031384683163
 31
0.0
  0
LINE
  5
7E6
330
1F
100
AcDbEntity
  8
0
100
AcDbLine
 10
166.8743433754223
 20
185.2531384683178
 30
0.0
 11
173.8743433754223
 21
185.2531384683178
 31
0.0
  0
LINE
  5
7E7
330
1F
100
AcDbEntity
  8
0
100
AcDbLine
 10
173.3743433754223
 20
171.053138468318
 30
0.0
 11
163.3243433754225
 21
171.053138468318
 31
0.0
  0
LINE
  5
7E8
330
1F
100
AcDbEntity
  8
0
100
AcDbLine
 10
173.3743433754223
 20
173.5531384683181
 30
0.0
 11
163.3243433754225
 21
173.5531384683181
 31
0.0
  0
LINE
  5
7E9
330
1F
100
AcDbEntity
  8
0
100
AcDbLine
 10
163.8243433754227
 20
159.623138468318
 30
0.0
 11
167.5443433754223
 21
159.623138468318
 31
0.0
  0
LINE
  5
7EA
330
1F
100
AcDbEntity
  8
0
100
AcDbLine
 10
163.8243433754227
 20
159.623138468318
 30
0.0
 11
168.3043433754226
 21
159.623138468318
 31
0.0
  0
LINE
  5
7EB
330
1F
100
AcDbEntity
  8
0
100
AcDbLine
 10
163.8243433754227
 20
155.813138468318
 30
0.0
 11
168.3043433754226
 21
155.813138468318
 31
0.0
  0
LINE
  5
7EC
330
1F
100
AcDbEntity
  8
0
100
AcDbLine
 10
163.8243433754227
 20
155.813138468318
 30
0.0
 11
167.5443433754223
 21
155.813138468318
 31
0.0
  0
LINE
  5
7ED
330
1F
100
AcDbEntity
  8
0
100
AcDbLine
 10
163.8243433754227
 20
163.4331384683179
 30
0.0
 11
168.3043433754226
 21
163.4331384683179
 31
0.0
  0
LINE
  5
7EE
330
1F
100
AcDbEntity
  8
0
100
AcDbLine
 10
163.8243433754227
 20
163.4331384683179
 30
0.0
 11
167.5443433754223
 21
163.4331384683179
 31
0.0
  0
LINE
  5
7EF
330
1F
100
AcDbEntity
  8
0
100
AcDbLine
 10
163.8243433754227
 20
167.2431384683179
 30
0.0
 11
168.3043433754226
 21
167.2431384683179
 31
0.0
  0
LINE
  5
7F0
330
1F
100
AcDbEntity
  8
0
100
AcDbLine
 10
163.8243433754227
 20
167.2431384683179
 30
0.0
 11
167.5443433754223
 21
167.2431384683179
 31
0.0
  0
LINE
  5
7F1
330
1F
100
AcDbEntity
  8
0
100
AcDbLine
 10
163.3243433754225
 20
171.053138468318
 30
0.0
 11
163.3243433754225
 21
173.5531384683181
 31
0.0
  0
LINE
  5
7F2
330
1F
100
AcDbEntity
  8
0
100
AcDbLine
 10
163.3243433754225
 20
170.9831384683178
 30
0.0
 11
163.3243433754225
 21
170.2831384683181
 31
0.0
  0
LINE
  5
7F3
330
1F
100
AcDbEntity
  8
0
100
AcDbLine
 10
162.5243433754224
 20
170.9831384683178
 30
0.0
 11
162.2243433754223
 21
170.9831384683178
 31
0.0
  0
LINE
  5
7F4
330
1F
100
AcDbEntity
  8
0
100
AcDbLine
 10
162.5243433754224
 20
170.9831384683178
 30
0.0
 11
162.7743433754224
 21
170.9831384683178
 31
0.0
  0
LINE
  5
7F5
330
1F
100
AcDbEntity
  8
0
100
AcDbLine
 10
163.1743433754223
 20
170.9831384683178
 30
0.0
 11
163.3243433754225
 21
170.9831384683178
 31
0.0
  0
LINE
  5
7F6
330
1F
100
AcDbEntity
  8
0
100
AcDbLine
 10
162.7743433754224
 20
170.9831384683178
 30
0.0
 11
163.1743433754223
 21
170.9831384683178
 31
0.0
  0
LINE
  5
7F7
330
1F
100
AcDbEntity
  8
0
100
AcDbLine
 10
163.1743433754223
 20
170.2831384683181
 30
0.0
 11
163.3243433754225
 21
170.2831384683181
 31
0.0
  0
LINE
  5
7F8
330
1F
100
AcDbEntity
  8
0
100
AcDbLine
 10
163.1743433754223
 20
170.2831384683181
 30
0.0
 11
163.1743433754223
 21
170.9831384683178
 31
0.0
  0
LINE
  5
7F9
330
1F
100
AcDbEntity
  8
0
100
AcDbLine
 10
161.6243433754223
 20
170.9831384683178
 30
0.0
 11
161.3243433754225
 21
170.9831384683178
 31
0.0
  0
LINE
  5
7FA
330
1F
100
AcDbEntity
  8
0
100
AcDbLine
 10
161.0743433754227
 20
170.9831384683178
 30
0.0
 11
161.3243433754225
 21
170.9831384683178
 31
0.0
  0
LINE
  5
7FB
330
1F
100
AcDbEntity
  8
0
100
AcDbLine
 10
161.6243433754223
 20
170.9831384683178
 30
0.0
 11
162.2243433754223
 21
170.9831384683178
 31
0.0
  0
LINE
  5
7FC
330
1F
100
AcDbEntity
  8
0
100
AcDbLine
 10
160.9743433754223
 20
170.9831384683178
 30
0.0
 11
161.0743433754227
 21
170.9831384683178
 31
0.0
  0
LINE
  5
7FD
330
1F
100
AcDbEntity
  8
0
100
AcDbLine
 10
163.3243433754225
 20
171.053138468318
 30
0.0
 11
163.3243433754225
 21
170.9831384683178
 31
0.0
  0
ARC
  5
7FE
330
1F
100
AcDbEntity
  8
0
100
AcDbCircle
 10
160.9743433754223
 20
170.6831384683179
 30
0.0
 40
0.3
100
AcDbArc
 50
90.0
 51
180.0
  0
LINE
  5
7FF
330
1F
100
AcDbEntity
  8
0
100
AcDbLine
 10
161.3243433754225
 20
163.3631384683182
 30
0.0
 11
161.3243433754225
 21
160.5631384683183
 31
0.0
  0
LINE
  5
800
330
1F
100
AcDbEntity
  8
0
100
AcDbLine
 10
162.5243433754224
 20
160.5631384683183
 30
0.0
 11
162.5243433754224
 21
163.3631384683182
 31
0.0
  0
LINE
  5
801
330
1F
100
AcDbEntity
  8
0
100
AcDbLine
 10
160.6743433754225
 20
159.963138468318
 30
0.0
 11
160.6743433754225
 21
163.0631384683183
 31
0.0
  0
LINE
  5
802
330
1F
100
AcDbEntity
  8
0
100
AcDbLine
 10
163.1743433754223
 20
159.963138468318
 30
0.0
 11
163.1743433754223
 21
162.6631384683181
 31
0.0
  0
LINE
  5
803
330
1F
100
AcDbEntity
  8
0
100
AcDbLine
 10
163.3243433754225
 20
162.6631384683181
 30
0.0
 11
163.3243433754225
 21
159.623138468318
 31
0.0
  0
ARC
  5
804
330
1F
100
AcDbEntity
  8
0
100
AcDbCircle
 10
165.4743433754223
 20
157.7181384683179
 30
0.0
 40
0.85
100
AcDbArc
 50
0.0
 51
323.269604999999
  0
ARC
  5
805
330
1F
100
AcDbEntity
  8
0
100
AcDbCircle
 10
165.4743433754223
 20
161.5281384683179
 30
0.0
 40
0.85
100
AcDbArc
 50
0.0
 51
323.269604999999
  0
LINE
  5
806
330
1F
100
AcDbEntity
  8
0
100
AcDbLine
 10
161.6243433754223
 20
160.2631384683179
 30
0.0
 11
162.2243433754223
 21
160.2631384683179
 31
0.0
  0
LINE
  5
807
330
1F
100
AcDbEntity
  8
0
100
AcDbLine
 10
163.1743433754223
 20
156.1531384683179
 30
0.0
 11
163.1743433754223
 21
158.8531384683182
 31
0.0
  0
LINE
  5
808
330
1F
100
AcDbEntity
  8
0
100
AcDbLine
 10
162.5243433754224
 20
159.5531384683182
 30
0.0
 11
162.2243433754223
 21
159.5531384683182
 31
0.0
  0
LINE
  5
809
330
1F
100
AcDbEntity
  8
0
100
AcDbLine
 10
162.5243433754224
 20
159.5531384683182
 30
0.0
 11
162.7743433754224
 21
159.5531384683182
 31
0.0
  0
LINE
  5
80A
330
1F
100
AcDbEntity
  8
0
100
AcDbLine
 10
163.1743433754223
 20
159.5531384683182
 30
0.0
 11
163.3243433754225
 21
159.5531384683182
 31
0.0
  0
LINE
  5
80B
330
1F
100
AcDbEntity
  8
0
100
AcDbLine
 10
162.7743433754224
 20
159.5531384683182
 30
0.0
 11
163.1743433754223
 21
159.5531384683182
 31
0.0
  0
LINE
  5
80C
330
1F
100
AcDbEntity
  8
0
100
AcDbLine
 10
162.5243433754224
 20
156.7531384683179
 30
0.0
 11
162.5243433754224
 21
159.5531384683182
 31
0.0
  0
LINE
  5
80D
330
1F
100
AcDbEntity
  8
0
100
AcDbLine
 10
163.1743433754223
 20
158.8531384683182
 30
0.0
 11
163.3243433754225
 21
158.8531384683182
 31
0.0
  0
LINE
  5
80E
330
1F
100
AcDbEntity
  8
0
100
AcDbLine
 10
163.1743433754223
 20
158.8531384683182
 30
0.0
 11
163.1743433754223
 21
159.5531384683182
 31
0.0
  0
LINE
  5
80F
330
1F
100
AcDbEntity
  8
0
100
AcDbLine
 10
162.7743433754224
 20
155.8531384683182
 30
0.0
 11
162.8743433754223
 21
155.8531384683182
 31
0.0
  0
LINE
  5
810
330
1F
100
AcDbEntity
  8
0
100
AcDbLine
 10
161.6243433754223
 20
156.453138468318
 30
0.0
 11
162.2243433754223
 21
156.453138468318
 31
0.0
  0
LINE
  5
811
330
1F
100
AcDbEntity
  8
0
100
AcDbLine
 10
161.6243433754223
 20
159.5531384683182
 30
0.0
 11
161.3243433754225
 21
159.5531384683182
 31
0.0
  0
LINE
  5
812
330
1F
100
AcDbEntity
  8
0
100
AcDbLine
 10
161.0743433754227
 20
159.5531384683182
 30
0.0
 11
161.3243433754225
 21
159.5531384683182
 31
0.0
  0
LINE
  5
813
330
1F
100
AcDbEntity
  8
0
100
AcDbLine
 10
161.3243433754225
 20
159.5531384683182
 30
0.0
 11
161.3243433754225
 21
156.7531384683179
 31
0.0
  0
LINE
  5
814
330
1F
100
AcDbEntity
  8
0
100
AcDbLine
 10
161.6243433754223
 20
159.5531384683182
 30
0.0
 11
162.2243433754223
 21
159.5531384683182
 31
0.0
  0
LINE
  5
815
330
1F
100
AcDbEntity
  8
0
100
AcDbLine
 10
160.6743433754225
 20
156.1531384683179
 30
0.0
 11
160.6743433754225
 21
159.2531384683178
 31
0.0
  0
LINE
  5
816
330
1F
100
AcDbEntity
  8
0
100
AcDbLine
 10
161.0743433754227
 20
155.8531384683182
 30
0.0
 11
162.7743433754224
 21
155.8531384683182
 31
0.0
  0
LINE
  5
817
330
1F
100
AcDbEntity
  8
0
100
AcDbLine
 10
160.9743433754223
 20
155.8531384683182
 30
0.0
 11
161.0743433754227
 21
155.8531384683182
 31
0.0
  0
LINE
  5
818
330
1F
100
AcDbEntity
  8
0
100
AcDbLine
 10
160.9743433754223
 20
159.5531384683182
 30
0.0
 11
161.0743433754227
 21
159.5531384683182
 31
0.0
  0
ARC
  5
819
330
1F
100
AcDbEntity
  8
0
100
AcDbCircle
 10
162.2243433754223
 20
156.7531384683179
 30
0.0
 40
0.3
100
AcDbArc
 50
270.0
 51
0.0
  0
ARC
  5
81A
330
1F
100
AcDbEntity
  8
0
100
AcDbCircle
 10
161.6243433754223
 20
156.7531384683179
 30
0.0
 40
0.3
100
AcDbArc
 50
180.0
 51
270.0
  0
ARC
  5
81B
330
1F
100
AcDbEntity
  8
0
100
AcDbCircle
 10
160.9743433754223
 20
159.2531384683178
 30
0.0
 40
0.3
100
AcDbArc
 50
90.0
 51
180.0
  0
LINE
  5
81C
330
1F
100
AcDbEntity
  8
0
100
AcDbLine
 10
163.3243433754225
 20
159.623138468318
 30
0.0
 11
163.3243433754225
 21
159.5531384683182
 31
0.0
  0
LINE
  5
81D
330
1F
100
AcDbEntity
  8
0
100
AcDbLine
 10
163.3243433754225
 20
159.5531384683182
 30
0.0
 11
163.3243433754225
 21
158.8531384683182
 31
0.0
  0
LINE
  5
81E
330
1F
100
AcDbEntity
  8
0
100
AcDbLine
 10
163.8243433754227
 20
159.623138468318
 30
0.0
 11
163.3243433754225
 21
159.623138468318
 31
0.0
  0
ARC
  5
81F
330
1F
100
AcDbEntity
  8
0
100
AcDbCircle
 10
160.9743433754223
 20
159.963138468318
 30
0.0
 40
0.3
100
AcDbArc
 50
180.0
 51
270.0
  0
ARC
  5
820
330
1F
100
AcDbEntity
  8
0
100
AcDbCircle
 10
162.8743433754223
 20
159.963138468318
 30
0.0
 40
0.3
100
AcDbArc
 50
270.0
 51
0.0
  0
LINE
  5
821
330
1F
100
AcDbEntity
  8
0
100
AcDbLine
 10
160.9743433754223
 20
159.663138468318
 30
0.0
 11
161.0743433754227
 21
159.663138468318
 31
0.0
  0
LINE
  5
822
330
1F
100
AcDbEntity
  8
0
100
AcDbLine
 10
161.0743433754227
 20
159.663138468318
 30
0.0
 11
162.7743433754224
 21
159.663138468318
 31
0.0
  0
LINE
  5
823
330
1F
100
AcDbEntity
  8
0
100
AcDbLine
 10
162.7743433754224
 20
159.663138468318
 30
0.0
 11
162.8743433754223
 21
159.663138468318
 31
0.0
  0
LINE
  5
824
330
1F
100
AcDbEntity
  8
0
100
AcDbLine
 10
163.8243433754227
 20
159.623138468318
 30
0.0
 11
163.3243433754225
 21
159.623138468318
 31
0.0
  0
ARC
  5
825
330
1F
100
AcDbEntity
  8
0
100
AcDbCircle
 10
161.6243433754223
 20
160.5631384683183
 30
0.0
 40
0.3
100
AcDbArc
 50
180.0
 51
270.0
  0
ARC
  5
826
330
1F
100
AcDbEntity
  8
0
100
AcDbCircle
 10
162.2243433754223
 20
160.5631384683183
 30
0.0
 40
0.3
100
AcDbArc
 50
270.0
 51
0.0
  0
LINE
  5
827
330
1F
100
AcDbEntity
  8
0
100
AcDbLine
 10
163.8243433754227
 20
155.813138468318
 30
0.0
 11
163.3243433754225
 21
155.813138468318
 31
0.0
  0
ARC
  5
828
330
1F
100
AcDbEntity
  8
0
100
AcDbCircle
 10
160.9743433754223
 20
155.443138468318
 30
0.0
 40
0.3
100
AcDbArc
 50
90.0
 51
180.0
  0
LINE
  5
829
330
1F
100
AcDbEntity
  8
0
100
AcDbLine
 10
160.9743433754223
 20
155.7431384683178
 30
0.0
 11
161.0743433754227
 21
155.7431384683178
 31
0.0
  0
LINE
  5
82A
330
1F
100
AcDbEntity
  8
0
100
AcDbLine
 10
161.6243433754223
 20
155.7431384683178
 30
0.0
 11
162.2243433754223
 21
155.7431384683178
 31
0.0
  0
LINE
  5
82B
330
1F
100
AcDbEntity
  8
0
100
AcDbLine
 10
161.0743433754227
 20
155.7431384683178
 30
0.0
 11
161.3243433754225
 21
155.7431384683178
 31
0.0
  0
LINE
  5
82C
330
1F
100
AcDbEntity
  8
0
100
AcDbLine
 10
161.6243433754223
 20
155.7431384683178
 30
0.0
 11
161.3243433754225
 21
155.7431384683178
 31
0.0
  0
LINE
  5
82D
330
1F
100
AcDbEntity
  8
0
100
AcDbLine
 10
163.1743433754223
 20
155.043138468318
 30
0.0
 11
163.1743433754223
 21
155.7431384683178
 31
0.0
  0
LINE
  5
82E
330
1F
100
AcDbEntity
  8
0
100
AcDbLine
 10
163.1743433754223
 20
155.043138468318
 30
0.0
 11
163.3243433754225
 21
155.043138468318
 31
0.0
  0
LINE
  5
82F
330
1F
100
AcDbEntity
  8
0
100
AcDbLine
 10
162.7743433754224
 20
155.7431384683178
 30
0.0
 11
163.1743433754223
 21
155.7431384683178
 31
0.0
  0
LINE
  5
830
330
1F
100
AcDbEntity
  8
0
100
AcDbLine
 10
163.1743433754223
 20
155.7431384683178
 30
0.0
 11
163.3243433754225
 21
155.7431384683178
 31
0.0
  0
LINE
  5
831
330
1F
100
AcDbEntity
  8
0
100
AcDbLine
 10
162.5243433754224
 20
155.7431384683178
 30
0.0
 11
162.7743433754224
 21
155.7431384683178
 31
0.0
  0
LINE
  5
832
330
1F
100
AcDbEntity
  8
0
100
AcDbLine
 10
162.5243433754224
 20
155.7431384683178
 30
0.0
 11
162.2243433754223
 21
155.7431384683178
 31
0.0
  0
LINE
  5
833
330
1F
100
AcDbEntity
  8
0
100
AcDbLine
 10
163.8243433754227
 20
155.813138468318
 30
0.0
 11
163.3243433754225
 21
155.813138468318
 31
0.0
  0
LINE
  5
834
330
1F
100
AcDbEntity
  8
0
100
AcDbLine
 10
163.3243433754225
 20
155.7431384683178
 30
0.0
 11
163.3243433754225
 21
155.043138468318
 31
0.0
  0
LINE
  5
835
330
1F
100
AcDbEntity
  8
0
100
AcDbLine
 10
163.3243433754225
 20
155.813138468318
 30
0.0
 11
163.3243433754225
 21
155.7431384683178
 31
0.0
  0
ARC
  5
836
330
1F
100
AcDbEntity
  8
0
100
AcDbCircle
 10
162.8743433754223
 20
156.1531384683179
 30
0.0
 40
0.3
100
AcDbArc
 50
270.0
 51
0.0
  0
ARC
  5
837
330
1F
100
AcDbEntity
  8
0
100
AcDbCircle
 10
160.9743433754223
 20
156.1531384683179
 30
0.0
 40
0.3
100
AcDbArc
 50
180.0
 51
270.0
  0
LINE
  5
838
330
1F
100
AcDbEntity
  8
0
100
AcDbLine
 10
163.3243433754225
 20
158.8531384683182
 30
0.0
 11
163.3243433754225
 21
155.813138468318
 31
0.0
  0
ARC
  5
839
330
1F
100
AcDbEntity
  8
0
100
AcDbCircle
 10
165.4743433754223
 20
157.7181384683179
 30
0.0
 40
0.85
100
AcDbArc
 50
323.269604999999
 51
0.0
  0
ARC
  5
83A
330
1F
100
AcDbEntity
  8
0
100
AcDbCircle
 10
165.4743433754223
 20
161.5281384683179
 30
0.0
 40
0.85
100
AcDbArc
 50
323.269604999999
 51
0.0
  0
ARC
  5
83B
330
1F
100
AcDbEntity
  8
0
100
AcDbCircle
 10
165.4743433754223
 20
165.3381384683179
 30
0.0
 40
0.85
100
AcDbArc
 50
0.0
 51
323.269604999999
  0
LINE
  5
83C
330
1F
100
AcDbEntity
  8
0
100
AcDbLine
 10
161.3243433754225
 20
167.173138468318
 30
0.0
 11
161.3243433754225
 21
164.3731384683182
 31
0.0
  0
LINE
  5
83D
330
1F
100
AcDbEntity
  8
0
100
AcDbLine
 10
163.1743433754223
 20
163.7731384683181
 30
0.0
 11
163.1743433754223
 21
166.4731384683179
 31
0.0
  0
LINE
  5
83E
330
1F
100
AcDbEntity
  8
0
100
AcDbLine
 10
160.6743433754225
 20
163.7731384683181
 30
0.0
 11
160.6743433754225
 21
166.8731384683181
 31
0.0
  0
LINE
  5
83F
330
1F
100
AcDbEntity
  8
0
100
AcDbLine
 10
163.3243433754225
 20
166.4731384683179
 30
0.0
 11
163.3243433754225
 21
163.4331384683179
 31
0.0
  0
LINE
  5
840
330
1F
100
AcDbEntity
  8
0
100
AcDbLine
 10
162.5243433754224
 20
164.3731384683182
 30
0.0
 11
162.5243433754224
 21
167.173138468318
 31
0.0
  0
LINE
  5
841
330
1F
100
AcDbEntity
  8
0
100
AcDbLine
 10
162.7743433754224
 20
163.4731384683179
 30
0.0
 11
162.8743433754223
 21
163.4731384683179
 31
0.0
  0
LINE
  5
842
330
1F
100
AcDbEntity
  8
0
100
AcDbLine
 10
161.0743433754227
 20
163.4731384683179
 30
0.0
 11
162.7743433754224
 21
163.4731384683179
 31
0.0
  0
LINE
  5
843
330
1F
100
AcDbEntity
  8
0
100
AcDbLine
 10
160.9743433754223
 20
163.4731384683179
 30
0.0
 11
161.0743433754227
 21
163.4731384683179
 31
0.0
  0
LINE
  5
844
330
1F
100
AcDbEntity
  8
0
100
AcDbLine
 10
163.8243433754227
 20
163.4331384683179
 30
0.0
 11
163.3243433754225
 21
163.4331384683179
 31
0.0
  0
LINE
  5
845
330
1F
100
AcDbEntity
  8
0
100
AcDbLine
 10
163.8243433754227
 20
163.4331384683179
 30
0.0
 11
163.3243433754225
 21
163.4331384683179
 31
0.0
  0
ARC
  5
846
330
1F
100
AcDbEntity
  8
0
100
AcDbCircle
 10
162.2243433754223
 20
164.3731384683182
 30
0.0
 40
0.3
100
AcDbArc
 50
270.0
 51
0.0
  0
ARC
  5
847
330
1F
100
AcDbEntity
  8
0
100
AcDbCircle
 10
161.6243433754223
 20
164.3731384683182
 30
0.0
 40
0.3
100
AcDbArc
 50
180.0
 51
270.0
  0
LINE
  5
848
330
1F
100
AcDbEntity
  8
0
100
AcDbLine
 10
161.6243433754223
 20
164.0731384683181
 30
0.0
 11
162.2243433754223
 21
164.0731384683181
 31
0.0
  0
LINE
  5
849
330
1F
100
AcDbEntity
  8
0
100
AcDbLine
 10
161.6243433754223
 20
167.173138468318
 30
0.0
 11
161.3243433754225
 21
167.173138468318
 31
0.0
  0
LINE
  5
84A
330
1F
100
AcDbEntity
  8
0
100
AcDbLine
 10
161.0743433754227
 20
167.173138468318
 30
0.0
 11
161.3243433754225
 21
167.173138468318
 31
0.0
  0
LINE
  5
84B
330
1F
100
AcDbEntity
  8
0
100
AcDbLine
 10
161.6243433754223
 20
167.173138468318
 30
0.0
 11
162.2243433754223
 21
167.173138468318
 31
0.0
  0
LINE
  5
84C
330
1F
100
AcDbEntity
  8
0
100
AcDbLine
 10
160.9743433754223
 20
167.173138468318
 30
0.0
 11
161.0743433754227
 21
167.173138468318
 31
0.0
  0
ARC
  5
84D
330
1F
100
AcDbEntity
  8
0
100
AcDbCircle
 10
160.9743433754223
 20
166.8731384683181
 30
0.0
 40
0.3
100
AcDbArc
 50
90.0
 51
180.0
  0
LINE
  5
84E
330
1F
100
AcDbEntity
  8
0
100
AcDbLine
 10
163.3243433754225
 20
167.2431384683179
 30
0.0
 11
163.3243433754225
 21
167.173138468318
 31
0.0
  0
LINE
  5
84F
330
1F
100
AcDbEntity
  8
0
100
AcDbLine
 10
163.3243433754225
 20
167.173138468318
 30
0.0
 11
163.3243433754225
 21
166.4731384683179
 31
0.0
  0
LINE
  5
850
330
1F
100
AcDbEntity
  8
0
100
AcDbLine
 10
163.8243433754227
 20
167.2431384683179
 30
0.0
 11
163.3243433754225
 21
167.2431384683179
 31
0.0
  0
LINE
  5
851
330
1F
100
AcDbEntity
  8
0
100
AcDbLine
 10
163.8243433754227
 20
167.2431384683179
 30
0.0
 11
163.3243433754225
 21
167.2431384683179
 31
0.0
  0
LINE
  5
852
330
1F
100
AcDbEntity
  8
0
100
AcDbLine
 10
162.7743433754224
 20
167.2831384683181
 30
0.0
 11
162.8743433754223
 21
167.2831384683181
 31
0.0
  0
LINE
  5
853
330
1F
100
AcDbEntity
  8
0
100
AcDbLine
 10
161.6243433754223
 20
167.8831384683181
 30
0.0
 11
162.2243433754223
 21
167.8831384683181
 31
0.0
  0
LINE
  5
854
330
1F
100
AcDbEntity
  8
0
100
AcDbLine
 10
161.0743433754227
 20
167.2831384683181
 30
0.0
 11
162.7743433754224
 21
167.2831384683181
 31
0.0
  0
LINE
  5
855
330
1F
100
AcDbEntity
  8
0
100
AcDbLine
 10
160.9743433754223
 20
167.2831384683181
 30
0.0
 11
161.0743433754227
 21
167.2831384683181
 31
0.0
  0
ARC
  5
856
330
1F
100
AcDbEntity
  8
0
100
AcDbCircle
 10
162.2243433754223
 20
168.1831384683181
 30
0.0
 40
0.3
100
AcDbArc
 50
270.0
 51
0.0
  0
ARC
  5
857
330
1F
100
AcDbEntity
  8
0
100
AcDbCircle
 10
162.8743433754223
 20
167.583138468318
 30
0.0
 40
0.3
100
AcDbArc
 50
270.0
 51
0.0
  0
ARC
  5
858
330
1F
100
AcDbEntity
  8
0
100
AcDbCircle
 10
160.9743433754223
 20
167.583138468318
 30
0.0
 40
0.3
100
AcDbArc
 50
180.0
 51
270.0
  0
ARC
  5
859
330
1F
100
AcDbEntity
  8
0
100
AcDbCircle
 10
161.6243433754223
 20
168.1831384683181
 30
0.0
 40
0.3
100
AcDbArc
 50
180.0
 51
270.0
  0
LINE
  5
85A
330
1F
100
AcDbEntity
  8
0
100
AcDbLine
 10
162.5243433754224
 20
167.173138468318
 30
0.0
 11
162.2243433754223
 21
167.173138468318
 31
0.0
  0
LINE
  5
85B
330
1F
100
AcDbEntity
  8
0
100
AcDbLine
 10
162.5243433754224
 20
167.173138468318
 30
0.0
 11
162.7743433754224
 21
167.173138468318
 31
0.0
  0
LINE
  5
85C
330
1F
100
AcDbEntity
  8
0
100
AcDbLine
 10
163.1743433754223
 20
167.173138468318
 30
0.0
 11
163.3243433754225
 21
167.173138468318
 31
0.0
  0
LINE
  5
85D
330
1F
100
AcDbEntity
  8
0
100
AcDbLine
 10
162.7743433754224
 20
167.173138468318
 30
0.0
 11
163.1743433754223
 21
167.173138468318
 31
0.0
  0
LINE
  5
85E
330
1F
100
AcDbEntity
  8
0
100
AcDbLine
 10
163.1743433754223
 20
166.4731384683179
 30
0.0
 11
163.3243433754225
 21
166.4731384683179
 31
0.0
  0
LINE
  5
85F
330
1F
100
AcDbEntity
  8
0
100
AcDbLine
 10
163.1743433754223
 20
166.4731384683179
 30
0.0
 11
163.1743433754223
 21
167.173138468318
 31
0.0
  0
ARC
  5
860
330
1F
100
AcDbEntity
  8
0
100
AcDbCircle
 10
160.9743433754223
 20
163.0631384683183
 30
0.0
 40
0.3
100
AcDbArc
 50
90.0
 51
180.0
  0
LINE
  5
861
330
1F
100
AcDbEntity
  8
0
100
AcDbLine
 10
160.9743433754223
 20
163.3631384683182
 30
0.0
 11
161.0743433754227
 21
163.3631384683182
 31
0.0
  0
LINE
  5
862
330
1F
100
AcDbEntity
  8
0
100
AcDbLine
 10
161.6243433754223
 20
163.3631384683182
 30
0.0
 11
162.2243433754223
 21
163.3631384683182
 31
0.0
  0
LINE
  5
863
330
1F
100
AcDbEntity
  8
0
100
AcDbLine
 10
161.0743433754227
 20
163.3631384683182
 30
0.0
 11
161.3243433754225
 21
163.3631384683182
 31
0.0
  0
LINE
  5
864
330
1F
100
AcDbEntity
  8
0
100
AcDbLine
 10
161.6243433754223
 20
163.3631384683182
 30
0.0
 11
161.3243433754225
 21
163.3631384683182
 31
0.0
  0
LINE
  5
865
330
1F
100
AcDbEntity
  8
0
100
AcDbLine
 10
163.1743433754223
 20
162.6631384683181
 30
0.0
 11
163.1743433754223
 21
163.3631384683182
 31
0.0
  0
LINE
  5
866
330
1F
100
AcDbEntity
  8
0
100
AcDbLine
 10
163.1743433754223
 20
162.6631384683181
 30
0.0
 11
163.3243433754225
 21
162.6631384683181
 31
0.0
  0
LINE
  5
867
330
1F
100
AcDbEntity
  8
0
100
AcDbLine
 10
162.7743433754224
 20
163.3631384683182
 30
0.0
 11
163.1743433754223
 21
163.3631384683182
 31
0.0
  0
LINE
  5
868
330
1F
100
AcDbEntity
  8
0
100
AcDbLine
 10
163.1743433754223
 20
163.3631384683182
 30
0.0
 11
163.3243433754225
 21
163.3631384683182
 31
0.0
  0
LINE
  5
869
330
1F
100
AcDbEntity
  8
0
100
AcDbLine
 10
162.5243433754224
 20
163.3631384683182
 30
0.0
 11
162.7743433754224
 21
163.3631384683182
 31
0.0
  0
LINE
  5
86A
330
1F
100
AcDbEntity
  8
0
100
AcDbLine
 10
162.5243433754224
 20
163.3631384683182
 30
0.0
 11
162.2243433754223
 21
163.3631384683182
 31
0.0
  0
LINE
  5
86B
330
1F
100
AcDbEntity
  8
0
100
AcDbLine
 10
163.3243433754225
 20
163.3631384683182
 30
0.0
 11
163.3243433754225
 21
162.6631384683181
 31
0.0
  0
ARC
  5
86C
330
1F
100
AcDbEntity
  8
0
100
AcDbCircle
 10
162.8743433754223
 20
163.7731384683181
 30
0.0
 40
0.3
100
AcDbArc
 50
270.0
 51
0.0
  0
ARC
  5
86D
330
1F
100
AcDbEntity
  8
0
100
AcDbCircle
 10
160.9743433754223
 20
163.7731384683181
 30
0.0
 40
0.3
100
AcDbArc
 50
180.0
 51
270.0
  0
LINE
  5
86E
330
1F
100
AcDbEntity
  8
0
100
AcDbLine
 10
163.3243433754225
 20
163.4331384683179
 30
0.0
 11
163.3243433754225
 21
163.3631384683182
 31
0.0
  0
ARC
  5
86F
330
1F
100
AcDbEntity
  8
0
100
AcDbCircle
 10
165.4743433754223
 20
169.1481384683181
 30
0.0
 40
0.85
100
AcDbArc
 50
323.269604999999
 51
0.0
  0
ARC
  5
870
330
1F
100
AcDbEntity
  8
0
100
AcDbCircle
 10
165.4743433754223
 20
165.3381384683179
 30
0.0
 40
0.85
100
AcDbArc
 50
323.269604999999
 51
0.0
  0
CIRCLE
  5
871
330
1F
100
AcDbEntity
  8
0
100
AcDbCircle
 10
165.4743433754223
 20
161.5281384683179
 30
0.0
 40
1.564999999999999
  0
CIRCLE
  5
872
330
1F
100
AcDbEntity
  8
0
100
AcDbCircle
 10
165.4743433754223
 20
157.7181384683179
 30
0.0
 40
1.564999999999999
  0
CIRCLE
  5
873
330
1F
100
AcDbEntity
  8
0
100
AcDbCircle
 10
165.4743433754223
 20
165.3381384683179
 30
0.0
 40
1.564999999999999
  0
CIRCLE
  5
874
330
1F
100
AcDbEntity
  8
0
100
AcDbCircle
 10
165.4743433754223
 20
169.1481384683181
 30
0.0
 40
1.564999999999999
  0
ARC
  5
875
330
1F
100
AcDbEntity
  8
0
100
AcDbCircle
 10
165.4743433754223
 20
169.1481384683181
 30
0.0
 40
0.85
100
AcDbArc
 50
0.0
 51
323.269604999999
  0
LINE
  5
876
330
1F
100
AcDbEntity
  8
0
100
AcDbLine
 10
163.3243433754225
 20
170.2831384683181
 30
0.0
 11
163.3243433754225
 21
167.2431384683179
 31
0.0
  0
LINE
  5
877
330
1F
100
AcDbEntity
  8
0
100
AcDbLine
 10
163.1743433754223
 20
167.583138468318
 30
0.0
 11
163.1743433754223
 21
170.2831384683181
 31
0.0
  0
LINE
  5
878
330
1F
100
AcDbEntity
  8
0
100
AcDbLine
 10
162.5243433754224
 20
168.1831384683181
 30
0.0
 11
162.5243433754224
 21
170.9831384683178
 31
0.0
  0
LINE
  5
879
330
1F
100
AcDbEntity
  8
0
100
AcDbLine
 10
161.3243433754225
 20
170.9831384683178
 30
0.0
 11
161.3243433754225
 21
168.1831384683181
 31
0.0
  0
LINE
  5
87A
330
1F
100
AcDbEntity
  8
0
100
AcDbLine
 10
160.6743433754225
 20
167.583138468318
 30
0.0
 11
160.6743433754225
 21
170.6831384683179
 31
0.0
  0
LINE
  5
87B
330
1F
100
AcDbEntity
  8
0
100
AcDbLine
 10
159.1743433754217
 20
175.0113836239553
 30
0.0
 11
159.6951754546115
 21
174.3031384683171
 31
0.0
  0
LINE
  5
87C
330
1F
100
AcDbEntity
  8
0
100
AcDbLine
 10
159.1743433754217
 20
183.8929983136795
 30
0.0
 11
159.6951754546115
 21
184.5031384683163
 31
0.0
  0
LINE
  5
87D
330
1F
100
AcDbEntity
  8
0
100
AcDbLine
 10
166.3743433754223
 20
185.033139468318
 30
0.0
 11
158.6743433754224
 21
185.033139468318
 31
0.0
  0
LINE
  5
87E
330
1F
100
AcDbEntity
  8
0
100
AcDbLine
 10
158.6743433754224
 20
173.7331394683184
 30
0.0
 11
160.1743433754224
 21
173.7331394683184
 31
0.0
  0
LINE
  5
87F
330
1F
100
AcDbEntity
  8
0
100
AcDbLine
 10
159.1743433754217
 20
183.8929983136795
 30
0.0
 11
159.1743433754217
 21
175.0113836239553
 31
0.0
  0
LINE
  5
880
330
1F
100
AcDbEntity
  8
0
100
AcDbLine
 10
158.6743433754224
 20
185.033139468318
 30
0.0
 11
158.6743433754224
 21
173.7331394683184
 31
0.0
  0
LINE
  5
881
330
1F
100
AcDbEntity
  8
0
100
AcDbLine
 10
160.0743433754229
 20
174.8031384683171
 30
0.0
 11
160.0743433754229
 21
184.0031384683179
 31
0.0
  0
LINE
  5
882
330
1F
100
AcDbEntity
  8
0
100
AcDbLine
 10
164.5743433754231
 20
175.9031384683176
 30
0.0
 11
164.5743433754231
 21
177.9031384683176
 31
0.0
  0
LINE
  5
883
330
1F
100
AcDbEntity
  8
0
100
AcDbLine
 10
164.5743433754231
 20
177.9031384683176
 30
0.0
 11
165.0743433754231
 21
177.9031384683176
 31
0.0
  0
LINE
  5
884
330
1F
100
AcDbEntity
  8
0
100
AcDbLine
 10
164.5743433754231
 20
175.9031384683176
 30
0.0
 11
165.0743433754231
 21
175.9031384683176
 31
0.0
  0
LINE
  5
885
330
1F
100
AcDbEntity
  8
0
100
AcDbLine
 10
165.0743433754231
 20
175.9031384683176
 30
0.0
 11
165.0743433754231
 21
177.9031384683176
 31
0.0
  0
LINE
  5
886
330
1F
100
AcDbEntity
  8
0
100
AcDbLine
 10
164.5743433754231
 20
178.4031384683176
 30
0.0
 11
164.5743433754231
 21
180.4031384683177
 31
0.0
  0
LINE
  5
887
330
1F
100
AcDbEntity
  8
0
100
AcDbLine
 10
164.5743433754231
 20
180.4031384683177
 30
0.0
 11
165.0743433754231
 21
180.4031384683177
 31
0.0
  0
LINE
  5
888
330
1F
100
AcDbEntity
  8
0
100
AcDbLine
 10
164.5743433754231
 20
178.4031384683176
 30
0.0
 11
165.0743433754231
 21
178.4031384683176
 31
0.0
  0
LINE
  5
889
330
1F
100
AcDbEntity
  8
0
100
AcDbLine
 10
165.0743433754231
 20
178.4031384683176
 30
0.0
 11
165.0743433754231
 21
180.4031384683177
 31
0.0
  0
LINE
  5
88A
330
1F
100
AcDbEntity
  8
0
100
AcDbLine
 10
165.0743433754231
 20
180.9031384683176
 30
0.0
 11
165.0743433754231
 21
182.9031384683176
 31
0.0
  0
LINE
  5
88B
330
1F
100
AcDbEntity
  8
0
100
AcDbLine
 10
164.5743433754231
 20
180.9031384683176
 30
0.0
 11
165.0743433754231
 21
180.9031384683176
 31
0.0
  0
LINE
  5
88C
330
1F
100
AcDbEntity
  8
0
100
AcDbLine
 10
164.5743433754231
 20
182.9031384683176
 30
0.0
 11
165.0743433754231
 21
182.9031384683176
 31
0.0
  0
LINE
  5
88D
330
1F
100
AcDbEntity
  8
0
100
AcDbLine
 10
164.5743433754231
 20
180.9031384683176
 30
0.0
 11
164.5743433754231
 21
182.9031384683176
 31
0.0
  0
LINE
  5
88E
330
1F
100
AcDbEntity
  8
0
100
AcDbLine
 10
168.5043433754225
 20
171.053138468318
 30
0.0
 11
168.5043433754225
 21
173.5531384683181
 31
0.0
  0
LINE
  5
88F
330
1F
100
AcDbEntity
  8
0
100
AcDbLine
 10
168.5043433754225
 20
163.4331384683179
 30
0.0
 11
168.5043433754225
 21
159.623138468318
 31
0.0
  0
LINE
  5
890
330
1F
100
AcDbEntity
  8
0
100
AcDbLine
 10
173.3743433754223
 20
159.623138468318
 30
0.0
 11
172.8743433754223
 21
159.623138468318
 31
0.0
  0
LINE
  5
891
330
1F
100
AcDbEntity
  8
0
100
AcDbLine
 10
173.3743433754223
 20
159.623138468318
 30
0.0
 11
172.8743433754223
 21
159.623138468318
 31
0.0
  0
LINE
  5
892
330
1F
100
AcDbEntity
  8
0
100
AcDbLine
 10
173.3743433754223
 20
155.813138468318
 30
0.0
 11
172.8743433754223
 21
155.813138468318
 31
0.0
  0
LINE
  5
893
330
1F
100
AcDbEntity
  8
0
100
AcDbLine
 10
173.3743433754223
 20
155.813138468318
 30
0.0
 11
172.8743433754223
 21
155.813138468318
 31
0.0
  0
LINE
  5
894
330
1F
100
AcDbEntity
  8
0
100
AcDbLine
 10
168.5043433754225
 20
159.623138468318
 30
0.0
 11
168.9443433754223
 21
159.623138468318
 31
0.0
  0
LINE
  5
895
330
1F
100
AcDbEntity
  8
0
100
AcDbLine
 10
168.9443433754223
 20
159.623138468318
 30
0.0
 11
169.0743433754227
 21
159.623138468318
 31
0.0
  0
LINE
  5
896
330
1F
100
AcDbEntity
  8
0
100
AcDbLine
 10
169.0743433754227
 20
159.623138468318
 30
0.0
 11
170.4743433754225
 21
159.623138468318
 31
0.0
  0
LINE
  5
897
330
1F
100
AcDbEntity
  8
0
100
AcDbLine
 10
168.5043433754225
 20
159.623138468318
 30
0.0
 11
168.3043433754226
 21
159.623138468318
 31
0.0
  0
LINE
  5
898
330
1F
100
AcDbEntity
  8
0
100
AcDbLine
 10
167.5443433754223
 20
159.623138468318
 30
0.0
 11
168.3043433754226
 21
159.623138468318
 31
0.0
  0
LINE
  5
899
330
1F
100
AcDbEntity
  8
0
100
AcDbLine
 10
168.5043433754225
 20
159.623138468318
 30
0.0
 11
168.3043433754226
 21
159.623138468318
 31
0.0
  0
LINE
  5
89A
330
1F
100
AcDbEntity
  8
0
100
AcDbLine
 10
168.5043433754225
 20
155.813138468318
 30
0.0
 11
168.3043433754226
 21
155.813138468318
 31
0.0
  0
LINE
  5
89B
330
1F
100
AcDbEntity
  8
0
100
AcDbLine
 10
168.5043433754225
 20
155.813138468318
 30
0.0
 11
168.3043433754226
 21
155.813138468318
 31
0.0
  0
LINE
  5
89C
330
1F
100
AcDbEntity
  8
0
100
AcDbLine
 10
169.0743433754227
 20
155.813138468318
 30
0.0
 11
170.4743433754225
 21
155.813138468318
 31
0.0
  0
LINE
  5
89D
330
1F
100
AcDbEntity
  8
0
100
AcDbLine
 10
168.9443433754223
 20
155.813138468318
 30
0.0
 11
169.0743433754227
 21
155.813138468318
 31
0.0
  0
LINE
  5
89E
330
1F
100
AcDbEntity
  8
0
100
AcDbLine
 10
168.5043433754225
 20
155.813138468318
 30
0.0
 11
168.9443433754223
 21
155.813138468318
 31
0.0
  0
LINE
  5
89F
330
1F
100
AcDbEntity
  8
0
100
AcDbLine
 10
167.5443433754223
 20
155.813138468318
 30
0.0
 11
168.3043433754226
 21
155.813138468318
 31
0.0
  0
LINE
  5
8A0
330
1F
100
AcDbEntity
  8
0
100
AcDbLine
 10
168.5043433754225
 20
159.623138468318
 30
0.0
 11
168.5043433754225
 21
155.813138468318
 31
0.0
  0
LINE
  5
8A1
330
1F
100
AcDbEntity
  8
0
100
AcDbLine
 10
170.4743433754225
 20
159.623138468318
 30
0.0
 11
172.8743433754223
 21
159.623138468318
 31
0.0
  0
LINE
  5
8A2
330
1F
100
AcDbEntity
  8
0
100
AcDbLine
 10
168.5043433754225
 20
155.813138468318
 30
0.0
 11
172.8743433754223
 21
155.813138468318
 31
0.0
  0
LINE
  5
8A3
330
1F
100
AcDbEntity
  8
0
100
AcDbLine
 10
170.4743433754225
 20
155.813138468318
 30
0.0
 11
172.8743433754223
 21
155.813138468318
 31
0.0
  0
LINE
  5
8A4
330
1F
100
AcDbEntity
  8
0
100
AcDbLine
 10
168.5043433754225
 20
159.623138468318
 30
0.0
 11
172.8743433754223
 21
159.623138468318
 31
0.0
  0
LINE
  5
8A5
330
1F
100
AcDbEntity
  8
0
100
AcDbLine
 10
173.3743433754223
 20
161.0331384683181
 30
0.0
 11
173.8743433754223
 21
161.0331384683181
 31
0.0
  0
LINE
  5
8A6
330
1F
100
AcDbEntity
  8
0
100
AcDbLine
 10
173.8743433754223
 20
161.0331384683181
 30
0.0
 11
173.8743433754223
 21
160.6331384683181
 31
0.0
  0
LINE
  5
8A7
330
1F
100
AcDbEntity
  8
0
100
AcDbLine
 10
173.8743433754223
 20
156.3231384683183
 30
0.0
 11
173.8743433754223
 21
155.923138468318
 31
0.0
  0
LINE
  5
8A8
330
1F
100
AcDbEntity
  8
0
100
AcDbLine
 10
173.8743433754223
 20
156.8231384683183
 30
0.0
 11
173.8743433754223
 21
156.3231384683183
 31
0.0
  0
LINE
  5
8A9
330
1F
100
AcDbEntity
  8
0
100
AcDbLine
 10
173.8743433754223
 20
157.2231384683179
 30
0.0
 11
173.8743433754223
 21
156.8231384683183
 31
0.0
  0
LINE
  5
8AA
330
1F
100
AcDbEntity
  8
0
100
AcDbLine
 10
173.3743433754223
 20
155.923138468318
 30
0.0
 11
173.8743433754223
 21
155.923138468318
 31
0.0
  0
LINE
  5
8AB
330
1F
100
AcDbEntity
  8
0
100
AcDbLine
 10
173.3743433754223
 20
157.2231384683179
 30
0.0
 11
173.8743433754223
 21
157.2231384683179
 31
0.0
  0
LINE
  5
8AC
330
1F
100
AcDbEntity
  8
0
100
AcDbLine
 10
173.3743433754223
 20
159.7331384683179
 30
0.0
 11
173.8743433754223
 21
159.7331384683179
 31
0.0
  0
LINE
  5
8AD
330
1F
100
AcDbEntity
  8
0
100
AcDbLine
 10
173.8743433754223
 20
160.133138468318
 30
0.0
 11
173.8743433754223
 21
159.7331384683179
 31
0.0
  0
LINE
  5
8AE
330
1F
100
AcDbEntity
  8
0
100
AcDbLine
 10
173.3743433754223
 20
159.7331384683179
 30
0.0
 11
173.3743433754223
 21
159.623138468318
 31
0.0
  0
LINE
  5
8AF
330
1F
100
AcDbEntity
  8
0
100
AcDbLine
 10
173.8743433754223
 20
160.6331384683181
 30
0.0
 11
173.8743433754223
 21
160.133138468318
 31
0.0
  0
LINE
  5
8B0
330
1F
100
AcDbEntity
  8
0
100
AcDbLine
 10
173.3743433754223
 20
155.923138468318
 30
0.0
 11
173.3743433754223
 21
155.813138468318
 31
0.0
  0
LINE
  5
8B1
330
1F
100
AcDbEntity
  8
0
100
AcDbLine
 10
173.3743433754223
 20
163.4331384683179
 30
0.0
 11
172.8743433754223
 21
163.4331384683179
 31
0.0
  0
LINE
  5
8B2
330
1F
100
AcDbEntity
  8
0
100
AcDbLine
 10
173.3743433754223
 20
163.4331384683179
 30
0.0
 11
172.8743433754223
 21
163.4331384683179
 31
0.0
  0
LINE
  5
8B3
330
1F
100
AcDbEntity
  8
0
100
AcDbLine
 10
173.3743433754223
 20
167.2431384683179
 30
0.0
 11
172.8743433754223
 21
167.2431384683179
 31
0.0
  0
LINE
  5
8B4
330
1F
100
AcDbEntity
  8
0
100
AcDbLine
 10
173.3743433754223
 20
167.2431384683179
 30
0.0
 11
172.8743433754223
 21
167.2431384683179
 31
0.0
  0
LINE
  5
8B5
330
1F
100
AcDbEntity
  8
0
100
AcDbLine
 10
168.5043433754225
 20
167.2431384683179
 30
0.0
 11
168.5043433754225
 21
163.4331384683179
 31
0.0
  0
LINE
  5
8B6
330
1F
100
AcDbEntity
  8
0
100
AcDbLine
 10
168.5043433754225
 20
163.4331384683179
 30
0.0
 11
168.3043433754226
 21
163.4331384683179
 31
0.0
  0
LINE
  5
8B7
330
1F
100
AcDbEntity
  8
0
100
AcDbLine
 10
168.5043433754225
 20
163.4331384683179
 30
0.0
 11
168.3043433754226
 21
163.4331384683179
 31
0.0
  0
LINE
  5
8B8
330
1F
100
AcDbEntity
  8
0
100
AcDbLine
 10
169.0743433754227
 20
163.4331384683179
 30
0.0
 11
170.4743433754225
 21
163.4331384683179
 31
0.0
  0
LINE
  5
8B9
330
1F
100
AcDbEntity
  8
0
100
AcDbLine
 10
168.9443433754223
 20
163.4331384683179
 30
0.0
 11
169.0743433754227
 21
163.4331384683179
 31
0.0
  0
LINE
  5
8BA
330
1F
100
AcDbEntity
  8
0
100
AcDbLine
 10
168.5043433754225
 20
163.4331384683179
 30
0.0
 11
168.9443433754223
 21
163.4331384683179
 31
0.0
  0
LINE
  5
8BB
330
1F
100
AcDbEntity
  8
0
100
AcDbLine
 10
167.5443433754223
 20
163.4331384683179
 30
0.0
 11
168.3043433754226
 21
163.4331384683179
 31
0.0
  0
LINE
  5
8BC
330
1F
100
AcDbEntity
  8
0
100
AcDbLine
 10
168.5043433754225
 20
167.2431384683179
 30
0.0
 11
168.3043433754226
 21
167.2431384683179
 31
0.0
  0
LINE
  5
8BD
330
1F
100
AcDbEntity
  8
0
100
AcDbLine
 10
168.5043433754225
 20
167.2431384683179
 30
0.0
 11
168.9443433754223
 21
167.2431384683179
 31
0.0
  0
LINE
  5
8BE
330
1F
100
AcDbEntity
  8
0
100
AcDbLine
 10
168.9443433754223
 20
167.2431384683179
 30
0.0
 11
169.0743433754227
 21
167.2431384683179
 31
0.0
  0
LINE
  5
8BF
330
1F
100
AcDbEntity
  8
0
100
AcDbLine
 10
169.0743433754227
 20
167.2431384683179
 30
0.0
 11
170.4743433754225
 21
167.2431384683179
 31
0.0
  0
LINE
  5
8C0
330
1F
100
AcDbEntity
  8
0
100
AcDbLine
 10
168.5043433754225
 20
167.2431384683179
 30
0.0
 11
168.3043433754226
 21
167.2431384683179
 31
0.0
  0
LINE
  5
8C1
330
1F
100
AcDbEntity
  8
0
100
AcDbLine
 10
167.5443433754223
 20
167.2431384683179
 30
0.0
 11
168.3043433754226
 21
167.2431384683179
 31
0.0
  0
LINE
  5
8C2
330
1F
100
AcDbEntity
  8
0
100
AcDbLine
 10
168.5043433754225
 20
163.4331384683179
 30
0.0
 11
172.8743433754223
 21
163.4331384683179
 31
0.0
  0
LINE
  5
8C3
330
1F
100
AcDbEntity
  8
0
100
AcDbLine
 10
170.4743433754225
 20
163.4331384683179
 30
0.0
 11
172.8743433754223
 21
163.4331384683179
 31
0.0
  0
LINE
  5
8C4
330
1F
100
AcDbEntity
  8
0
100
AcDbLine
 10
168.5043433754225
 20
167.2431384683179
 30
0.0
 11
172.8743433754223
 21
167.2431384683179
 31
0.0
  0
LINE
  5
8C5
330
1F
100
AcDbEntity
  8
0
100
AcDbLine
 10
170.4743433754225
 20
167.2431384683179
 30
0.0
 11
172.8743433754223
 21
167.2431384683179
 31
0.0
  0
LINE
  5
8C6
330
1F
100
AcDbEntity
  8
0
100
AcDbLine
 10
173.8743433754223
 20
164.8431384683179
 30
0.0
 11
173.8743433754223
 21
164.443138468318
 31
0.0
  0
LINE
  5
8C7
330
1F
100
AcDbEntity
  8
0
100
AcDbLine
 10
173.3743433754223
 20
163.543138468318
 30
0.0
 11
173.3743433754223
 21
163.4331384683179
 31
0.0
  0
LINE
  5
8C8
330
1F
100
AcDbEntity
  8
0
100
AcDbLine
 10
173.8743433754223
 20
163.943138468318
 30
0.0
 11
173.8743433754223
 21
163.543138468318
 31
0.0
  0
LINE
  5
8C9
330
1F
100
AcDbEntity
  8
0
100
AcDbLine
 10
173.3743433754223
 20
163.543138468318
 30
0.0
 11
173.8743433754223
 21
163.543138468318
 31
0.0
  0
LINE
  5
8CA
330
1F
100
AcDbEntity
  8
0
100
AcDbLine
 10
173.8743433754223
 20
164.443138468318
 30
0.0
 11
173.8743433754223
 21
163.943138468318
 31
0.0
  0
LINE
  5
8CB
330
1F
100
AcDbEntity
  8
0
100
AcDbLine
 10
173.3743433754223
 20
167.3531384683182
 30
0.0
 11
173.3743433754223
 21
167.2431384683179
 31
0.0
  0
LINE
  5
8CC
330
1F
100
AcDbEntity
  8
0
100
AcDbLine
 10
173.3743433754223
 20
168.6531384683179
 30
0.0
 11
173.3743433754223
 21
167.3531384683182
 31
0.0
  0
LINE
  5
8CD
330
1F
100
AcDbEntity
  8
0
100
AcDbLine
 10
173.8743433754223
 20
167.7531384683178
 30
0.0
 11
173.8743433754223
 21
167.3531384683182
 31
0.0
  0
LINE
  5
8CE
330
1F
100
AcDbEntity
  8
0
100
AcDbLine
 10
173.8743433754223
 20
168.2531384683179
 30
0.0
 11
173.8743433754223
 21
167.7531384683178
 31
0.0
  0
LINE
  5
8CF
330
1F
100
AcDbEntity
  8
0
100
AcDbLine
 10
173.8743433754223
 20
168.6531384683179
 30
0.0
 11
173.8743433754223
 21
168.2531384683179
 31
0.0
  0
LINE
  5
8D0
330
1F
100
AcDbEntity
  8
0
100
AcDbLine
 10
173.3743433754223
 20
167.3531384683182
 30
0.0
 11
173.8743433754223
 21
167.3531384683182
 31
0.0
  0
LINE
  5
8D1
330
1F
100
AcDbEntity
  8
0
100
AcDbLine
 10
173.3743433754223
 20
168.6531384683179
 30
0.0
 11
173.8743433754223
 21
168.6531384683179
 31
0.0
  0
LINE
  5
8D2
330
1F
100
AcDbEntity
  8
0
100
AcDbLine
 10
173.3743433754223
 20
164.8431384683179
 30
0.0
 11
173.8743433754223
 21
164.8431384683179
 31
0.0
  0
LINE
  5
8D3
330
1F
100
AcDbEntity
  8
0
100
AcDbLine
 10
168.5043433754225
 20
171.053138468318
 30
0.0
 11
168.5043433754225
 21
167.2431384683179
 31
0.0
  0
LINE
  5
8D4
330
1F
100
AcDbEntity
  8
0
100
AcDbLine
 10
173.8743433754223
 20
174.3031384683171
 30
0.0
 11
173.8743433754223
 21
184.5031384683163
 31
0.0
  0
LINE
  5
8D5
330
1F
100
AcDbEntity
  8
0
100
AcDbLine
 10
173.7213477261408
 20
180.9540859678173
 30
0.0
 11
173.8743433754223
 21
181.1070816170985
 31
0.0
  0
LINE
  5
8D6
330
1F
100
AcDbEntity
  8
0
100
AcDbLine
 10
173.7213477261408
 20
177.7540859678166
 30
0.0
 11
173.8743433754223
 21
177.6010903185351
 31
0.0
  0
LINE
  5
8D7
330
1F
100
AcDbEntity
  8
0
100
AcDbLine
 10
172.2743433754237
 20
177.7540859678166
 30
0.0
 11
173.7213477261408
 21
177.7540859678166
 31
0.0
  0
LINE
  5
8D8
330
1F
100
AcDbEntity
  8
0
100
AcDbLine
 10
172.2743433754237
 20
180.9540859678173
 30
0.0
 11
173.7213477261408
 21
180.9540859678173
 31
0.0
  0
LINE
  5
8D9
330
1F
100
AcDbEntity
  8
0
100
AcDbLine
 10
173.8743433754223
 20
174.3031384683171
 30
0.0
 11
171.8743433754223
 21
174.3031384683171
 31
0.0
  0
LINE
  5
8DA
330
1F
100
AcDbEntity
  8
0
100
AcDbLine
 10
173.8743433754223
 20
184.5031384683163
 30
0.0
 11
171.8743433754223
 21
184.5031384683163
 31
0.0
  0
ARC
  5
8DB
330
1F
100
AcDbEntity
  8
0
100
AcDbCircle
 10
171.4743433754208
 20
175.2031384683169
 30
0.0
 40
0.4
100
AcDbArc
 50
270.0
 51
0.0
  0
ARC
  5
8DC
330
1F
100
AcDbEntity
  8
0
100
AcDbCircle
 10
171.4743433754208
 20
183.6031384683184
 30
0.0
 40
0.4
100
AcDbArc
 50
0.0
 51
90.0
  0
LINE
  5
8DD
330
1F
100
AcDbEntity
  8
0
100
AcDbLine
 10
171.8743433754223
 20
183.6031384683184
 30
0.0
 11
171.8743433754223
 21
175.2031384683169
 31
0.0
  0
ARC
  5
8DE
330
1F
100
AcDbEntity
  8
0
100
AcDbCircle
 10
171.8743433754223
 20
174.7031384683169
 30
0.0
 40
0.4
100
AcDbArc
 50
270.0
 51
0.0
  0
ARC
  5
8DF
330
1F
100
AcDbEntity
  8
0
100
AcDbCircle
 10
171.8743433754223
 20
184.1031384683166
 30
0.0
 40
0.4
100
AcDbArc
 50
0.0
 51
90.0
  0
LINE
  5
8E0
330
1F
100
AcDbEntity
  8
0
100
AcDbLine
 10
172.2743433754237
 20
184.1031384683166
 30
0.0
 11
172.2743433754237
 21
174.7031384683169
 31
0.0
  0
LINE
  5
8E1
330
1F
100
AcDbEntity
  8
0
100
AcDbLine
 10
168.5743433754231
 20
180.9031384683176
 30
0.0
 11
168.5743433754231
 21
182.9031384683176
 31
0.0
  0
LINE
  5
8E2
330
1F
100
AcDbEntity
  8
0
100
AcDbLine
 10
168.5743433754231
 20
182.9031384683176
 30
0.0
 11
169.0743433754231
 21
182.9031384683176
 31
0.0
  0
LINE
  5
8E3
330
1F
100
AcDbEntity
  8
0
100
AcDbLine
 10
168.5743433754231
 20
180.9031384683176
 30
0.0
 11
169.0743433754231
 21
180.9031384683176
 31
0.0
  0
LINE
  5
8E4
330
1F
100
AcDbEntity
  8
0
100
AcDbLine
 10
169.0743433754231
 20
180.9031384683176
 30
0.0
 11
169.0743433754231
 21
182.9031384683176
 31
0.0
  0
LINE
  5
8E5
330
1F
100
AcDbEntity
  8
0
100
AcDbLine
 10
169.0743433754231
 20
178.4031384683176
 30
0.0
 11
169.0743433754231
 21
180.4031384683177
 31
0.0
  0
LINE
  5
8E6
330
1F
100
AcDbEntity
  8
0
100
AcDbLine
 10
168.5743433754231
 20
178.4031384683176
 30
0.0
 11
169.0743433754231
 21
178.4031384683176
 31
0.0
  0
LINE
  5
8E7
330
1F
100
AcDbEntity
  8
0
100
AcDbLine
 10
168.5743433754231
 20
180.4031384683177
 30
0.0
 11
169.0743433754231
 21
180.4031384683177
 31
0.0
  0
LINE
  5
8E8
330
1F
100
AcDbEntity
  8
0
100
AcDbLine
 10
168.5743433754231
 20
178.4031384683176
 30
0.0
 11
168.5743433754231
 21
180.4031384683177
 31
0.0
  0
LINE
  5
8E9
330
1F
100
AcDbEntity
  8
0
100
AcDbLine
 10
169.0743433754231
 20
175.9031384683176
 30
0.0
 11
169.0743433754231
 21
177.9031384683176
 31
0.0
  0
LINE
  5
8EA
330
1F
100
AcDbEntity
  8
0
100
AcDbLine
 10
168.5743433754231
 20
175.9031384683176
 30
0.0
 11
169.0743433754231
 21
175.9031384683176
 31
0.0
  0
LINE
  5
8EB
330
1F
100
AcDbEntity
  8
0
100
AcDbLine
 10
168.5743433754231
 20
177.9031384683176
 30
0.0
 11
169.0743433754231
 21
177.9031384683176
 31
0.0
  0
LINE
  5
8EC
330
1F
100
AcDbEntity
  8
0
100
AcDbLine
 10
168.5743433754231
 20
175.9031384683176
 30
0.0
 11
168.5743433754231
 21
177.9031384683176
 31
0.0
  0
LINE
  5
8ED
330
1F
100
AcDbEntity
  8
0
100
AcDbLine
 10
169.2951783754225
 20
186.2531384683179
 30
0.0
 11
171.2601003754222
 21
186.2531384683179
 31
0.0
  0
LINE
  5
8EE
330
1F
100
AcDbEntity
  8
0
100
AcDbLine
 10
161.0743433754227
 20
211.6571264683183
 30
0.0
 11
173.8743433754223
 21
211.6571264683183
 31
0.0
  0
LINE
  5
8EF
330
1F
100
AcDbEntity
  8
0
100
AcDbLine
 10
160.5743433754227
 20
211.1331394683181
 30
0.0
 11
168.3743433754223
 21
211.1331394683181
 31
0.0
  0
LINE
  5
8F0
330
1F
100
AcDbEntity
  8
0
100
AcDbLine
 10
166.8743433754223
 20
190.2531384683179
 30
0.0
 11
173.8743433754223
 21
190.2531384683179
 31
0.0
  0
LINE
  5
8F1
330
1F
100
AcDbEntity
  8
0
100
AcDbLine
 10
166.3743433754223
 20
190.7331394683184
 30
0.0
 11
168.3743433754223
 21
190.7331394683184
 31
0.0
  0
CIRCLE
  5
8F2
330
1F
100
AcDbEntity
  8
0
100
AcDbCircle
 10
167.4743433754225
 20
218.6568554683184
 30
0.0
 40
5.029838999999999
  0
CIRCLE
  5
8F3
330
1F
100
AcDbEntity
  8
0
100
AcDbCircle
 10
167.4743433754225
 20
218.6568554683184
 30
0.0
 40
5.029838999999999
  0
CIRCLE
  5
8F4
330
1F
100
AcDbEntity
  8
0
100
AcDbCircle
 10
167.4740853754226
 20
218.6568554683184
 30
0.0
 40
4.448566
  0
LINE
  5
8F5
330
1F
100
AcDbEntity
  8
0
100
AcDbLine
 10
166.7190063754225
 20
220.2376374683184
 30
0.0
 11
166.7190063754225
 21
220.8301934683182
 31
0.0
  0
LINE
  5
8F6
330
1F
100
AcDbEntity
  8
0
100
AcDbLine
 10
166.7190063754225
 20
219.8001104683181
 30
0.0
 11
166.7190063754225
 21
221.2680654683179
 31
0.0
  0
LINE
  5
8F7
330
1F
100
AcDbEntity
  8
0
100
AcDbLine
 10
166.7190063754225
 20
216.5537964683183
 30
0.0
 11
166.7190063754225
 21
217.1465254683181
 31
0.0
  0
LINE
  5
8F8
330
1F
100
AcDbEntity
  8
0
100
AcDbLine
 10
166.7190063754225
 20
216.1160974683181
 30
0.0
 11
166.7190063754225
 21
217.584052468318
 31
0.0
  0
LINE
  5
8F9
330
1F
100
AcDbEntity
  8
0
100
AcDbLine
 10
166.7190063754225
 20
218.3957174683181
 30
0.0
 11
166.7190063754225
 21
218.9884454683181
 31
0.0
  0
LINE
  5
8FA
330
1F
100
AcDbEntity
  8
0
100
AcDbLine
 10
166.7190063754225
 20
217.9578454683181
 30
0.0
 11
166.7190063754225
 21
219.4258004683183
 31
0.0
  0
LINE
  5
8FB
330
1F
100
AcDbEntity
  8
0
100
AcDbLine
 10
162.8165743754223
 20
217.9227054683184
 30
0.0
 11
164.7360093754224
 21
217.9227054683184
 31
0.0
  0
LINE
  5
8FC
330
1F
100
AcDbEntity
  8
0
100
AcDbLine
 10
162.8165743754223
 20
219.3904884683181
 30
0.0
 11
162.8165743754223
 21
217.9227054683184
 31
0.0
  0
LINE
  5
8FD
330
1F
100
AcDbEntity
  8
0
100
AcDbLine
 10
164.7360093754224
 20
219.3904884683181
 30
0.0
 11
162.8165743754223
 21
219.3904884683181
 31
0.0
  0
LINE
  5
8FE
330
1F
100
AcDbEntity
  8
0
100
AcDbLine
 10
164.7360093754224
 20
217.9227054683184
 30
0.0
 11
164.7360093754224
 21
219.3904884683181
 31
0.0
  0
LINE
  5
8FF
330
1F
100
AcDbEntity
  8
0
100
AcDbLine
 10
162.8165743754223
 20
217.9227054683184
 30
0.0
 11
164.7360093754224
 21
217.9227054683184
 31
0.0
  0
LINE
  5
900
330
1F
100
AcDbEntity
  8
0
100
AcDbLine
 10
162.8165743754223
 20
219.3904884683181
 30
0.0
 11
162.8165743754223
 21
217.9227054683184
 31
0.0
  0
LINE
  5
901
330
1F
100
AcDbEntity
  8
0
100
AcDbLine
 10
164.7360093754224
 20
219.3904884683181
 30
0.0
 11
162.8165743754223
 21
219.3904884683181
 31
0.0
  0
LINE
  5
902
330
1F
100
AcDbEntity
  8
0
100
AcDbLine
 10
164.7360093754224
 20
217.9227054683184
 30
0.0
 11
164.7360093754224
 21
219.3904884683181
 31
0.0
  0
LINE
  5
903
330
1F
100
AcDbEntity
  8
0
100
AcDbLine
 10
165.3573323754224
 20
221.2677204683179
 30
0.0
 11
165.7383603754223
 21
220.8301934683182
 31
0.0
  0
LINE
  5
904
330
1F
100
AcDbEntity
  8
0
100
AcDbLine
 10
165.3573323754224
 20
219.8001104683181
 30
0.0
 11
165.7383603754223
 21
220.2376374683184
 31
0.0
  0
LINE
  5
905
330
1F
100
AcDbEntity
  8
0
100
AcDbLine
 10
165.7380153754225
 20
220.8301934683182
 30
0.0
 11
165.7380153754225
 21
220.2376374683184
 31
0.0
  0
LINE
  5
906
330
1F
100
AcDbEntity
  8
0
100
AcDbLine
 10
165.3569883754221
 20
221.2680654683179
 30
0.0
 11
165.3569883754221
 21
219.8001104683181
 31
0.0
  0
LINE
  5
907
330
1F
100
AcDbEntity
  8
0
100
AcDbLine
 10
165.3573323754224
 20
219.4258004683183
 30
0.0
 11
165.7383603754223
 21
218.9884454683181
 31
0.0
  0
LINE
  5
908
330
1F
100
AcDbEntity
  8
0
100
AcDbLine
 10
165.3573323754224
 20
217.584052468318
 30
0.0
 11
165.7383603754223
 21
217.1465254683181
 31
0.0
  0
LINE
  5
909
330
1F
100
AcDbEntity
  8
0
100
AcDbLine
 10
165.3573323754224
 20
216.1160974683181
 30
0.0
 11
165.7383603754223
 21
216.5537964683183
 31
0.0
  0
LINE
  5
90A
330
1F
100
AcDbEntity
  8
0
100
AcDbLine
 10
165.7380153754225
 20
217.1465254683181
 30
0.0
 11
165.7380153754225
 21
216.5537964683183
 31
0.0
  0
LINE
  5
90B
330
1F
100
AcDbEntity
  8
0
100
AcDbLine
 10
165.3569883754221
 20
217.584052468318
 30
0.0
 11
165.3569883754221
 21
216.1160974683181
 31
0.0
  0
LINE
  5
90C
330
1F
100
AcDbEntity
  8
0
100
AcDbLine
 10
165.3573323754224
 20
217.9578454683181
 30
0.0
 11
165.7383603754223
 21
218.3957174683181
 31
0.0
  0
LINE
  5
90D
330
1F
100
AcDbEntity
  8
0
100
AcDbLine
 10
165.7380153754225
 20
218.9884454683181
 30
0.0
 11
165.7380153754225
 21
218.3957174683181
 31
0.0
  0
LINE
  5
90E
330
1F
100
AcDbEntity
  8
0
100
AcDbLine
 10
165.3569883754221
 20
219.4258004683183
 30
0.0
 11
165.3569883754221
 21
217.9578454683181
 31
0.0
  0
LINE
  5
90F
330
1F
100
AcDbEntity
  8
0
100
AcDbLine
 10
165.7380153754225
 20
220.2376374683184
 30
0.0
 11
166.7190063754225
 21
220.2376374683184
 31
0.0
  0
LINE
  5
910
330
1F
100
AcDbEntity
  8
0
100
AcDbLine
 10
166.7190063754225
 20
220.8301934683182
 30
0.0
 11
165.7380153754225
 21
220.8301934683182
 31
0.0
  0
LINE
  5
911
330
1F
100
AcDbEntity
  8
0
100
AcDbLine
 10
165.3569883754221
 20
219.8001104683181
 30
0.0
 11
166.7190063754225
 21
219.8001104683181
 31
0.0
  0
LINE
  5
912
330
1F
100
AcDbEntity
  8
0
100
AcDbLine
 10
166.7190063754225
 20
221.2680654683179
 30
0.0
 11
165.3569883754221
 21
221.2680654683179
 31
0.0
  0
LINE
  5
913
330
1F
100
AcDbEntity
  8
0
100
AcDbLine
 10
165.7380153754225
 20
216.5537964683183
 30
0.0
 11
166.7190063754225
 21
216.5537964683183
 31
0.0
  0
LINE
  5
914
330
1F
100
AcDbEntity
  8
0
100
AcDbLine
 10
166.7190063754225
 20
217.1465254683181
 30
0.0
 11
165.7380153754225
 21
217.1465254683181
 31
0.0
  0
LINE
  5
915
330
1F
100
AcDbEntity
  8
0
100
AcDbLine
 10
165.3569883754221
 20
216.1160974683181
 30
0.0
 11
166.7190063754225
 21
216.1160974683181
 31
0.0
  0
LINE
  5
916
330
1F
100
AcDbEntity
  8
0
100
AcDbLine
 10
166.7190063754225
 20
217.584052468318
 30
0.0
 11
165.3569883754221
 21
217.584052468318
 31
0.0
  0
LINE
  5
917
330
1F
100
AcDbEntity
  8
0
100
AcDbLine
 10
165.7380153754225
 20
218.3957174683181
 30
0.0
 11
166.7190063754225
 21
218.3957174683181
 31
0.0
  0
LINE
  5
918
330
1F
100
AcDbEntity
  8
0
100
AcDbLine
 10
166.7190063754225
 20
218.9884454683181
 30
0.0
 11
165.7380153754225
 21
218.9884454683181
 31
0.0
  0
LINE
  5
919
330
1F
100
AcDbEntity
  8
0
100
AcDbLine
 10
165.3569883754221
 20
217.9578454683181
 30
0.0
 11
166.7190063754225
 21
217.9578454683181
 31
0.0
  0
LINE
  5
91A
330
1F
100
AcDbEntity
  8
0
100
AcDbLine
 10
166.7190063754225
 20
219.4258004683183
 30
0.0
 11
165.3569883754221
 21
219.4258004683183
 31
0.0
  0
LINE
  5
91B
330
1F
100
AcDbEntity
  8
0
100
AcDbLine
 10
173.8743433754223
 20
210.0771118092651
 30
0.0
 11
173.8743433754223
 21
192.1771118092651
 31
0.0
  0
LINE
  5
91C
330
1F
100
AcDbEntity
  8
0
100
AcDbLine
 10
168.8743433754223
 20
210.0771118092651
 30
0.0
 11
168.8743433754223
 21
192.1771118092651
 31
0.0
  0
LINE
  5
91D
330
1F
100
AcDbEntity
  8
0
100
AcDbLine
 10
168.3743433754223
 20
211.1331394683181
 30
0.0
 11
168.3743433754223
 21
190.7331394683184
 31
0.0
  0
LINE
  5
91E
330
1F
100
AcDbEntity
  8
0
100
AcDbLine
 10
172.1243433754223
 20
206.2071264683184
 30
0.0
 11
172.6243433754223
 21
206.2071264683184
 31
0.0
  0
LINE
  5
91F
330
1F
100
AcDbEntity
  8
0
100
AcDbLine
 10
172.1243433754223
 20
205.7071264683184
 30
0.0
 11
172.6243433754223
 21
205.7071264683184
 31
0.0
  0
LINE
  5
920
330
1F
100
AcDbEntity
  8
0
100
AcDbLine
 10
172.1243433754223
 20
206.2071264683184
 30
0.0
 11
172.1243433754223
 21
205.7071264683184
 31
0.0
  0
LINE
  5
921
330
1F
100
AcDbEntity
  8
0
100
AcDbLine
 10
172.6243433754223
 20
205.7071264683184
 30
0.0
 11
172.6243433754223
 21
206.2071264683184
 31
0.0
  0
LINE
  5
922
330
1F
100
AcDbEntity
  8
0
100
AcDbLine
 10
172.2843433754223
 20
206.0471784683183
 30
0.0
 11
172.2843433754223
 21
205.8670744683179
 31
0.0
  0
LINE
  5
923
330
1F
100
AcDbEntity
  8
0
100
AcDbLine
 10
172.2843433754223
 20
205.8670744683179
 30
0.0
 11
172.3743433754223
 21
205.8670744683179
 31
0.0
  0
LINE
  5
924
330
1F
100
AcDbEntity
  8
0
100
AcDbLine
 10
172.2843433754223
 20
205.8670744683179
 30
0.0
 11
172.3743433754223
 21
205.8670744683179
 31
0.0
  0
LINE
  5
925
330
1F
100
AcDbEntity
  8
0
100
AcDbLine
 10
172.2843433754223
 20
206.0471784683183
 30
0.0
 11
172.3743433754223
 21
206.0471784683183
 31
0.0
  0
LINE
  5
926
330
1F
100
AcDbEntity
  8
0
100
AcDbLine
 10
172.4643433754225
 20
206.0471784683183
 30
0.0
 11
172.3743433754223
 21
206.0471784683183
 31
0.0
  0
LINE
  5
927
330
1F
100
AcDbEntity
  8
0
100
AcDbLine
 10
172.4643433754225
 20
205.8670744683179
 30
0.0
 11
172.3743433754223
 21
205.8670744683179
 31
0.0
  0
LINE
  5
928
330
1F
100
AcDbEntity
  8
0
100
AcDbLine
 10
172.4643433754225
 20
205.8670744683179
 30
0.0
 11
172.3743433754223
 21
205.8670744683179
 31
0.0
  0
LINE
  5
929
330
1F
100
AcDbEntity
  8
0
100
AcDbLine
 10
172.4643433754225
 20
206.0471784683183
 30
0.0
 11
172.4643433754225
 21
205.8670744683179
 31
0.0
  0
LINE
  5
92A
330
1F
100
AcDbEntity
  8
0
100
AcDbLine
 10
170.1243433754223
 20
205.7071264683184
 30
0.0
 11
170.6243433754223
 21
205.7071264683184
 31
0.0
  0
LINE
  5
92B
330
1F
100
AcDbEntity
  8
0
100
AcDbLine
 10
170.1243433754223
 20
206.2071264683184
 30
0.0
 11
170.6243433754223
 21
206.2071264683184
 31
0.0
  0
LINE
  5
92C
330
1F
100
AcDbEntity
  8
0
100
AcDbLine
 10
170.4643433754226
 20
206.0471784683183
 30
0.0
 11
170.4643433754226
 21
205.8670744683179
 31
0.0
  0
LINE
  5
92D
330
1F
100
AcDbEntity
  8
0
100
AcDbLine
 10
170.4643433754226
 20
205.8670744683179
 30
0.0
 11
170.3743433754223
 21
205.8670744683179
 31
0.0
  0
LINE
  5
92E
330
1F
100
AcDbEntity
  8
0
100
AcDbLine
 10
170.4643433754226
 20
205.8670744683179
 30
0.0
 11
170.3743433754223
 21
205.8670744683179
 31
0.0
  0
LINE
  5
92F
330
1F
100
AcDbEntity
  8
0
100
AcDbLine
 10
170.4643433754226
 20
206.0471784683183
 30
0.0
 11
170.3743433754223
 21
206.0471784683183
 31
0.0
  0
LINE
  5
930
330
1F
100
AcDbEntity
  8
0
100
AcDbLine
 10
170.2843433754224
 20
206.0471784683183
 30
0.0
 11
170.3743433754223
 21
206.0471784683183
 31
0.0
  0
LINE
  5
931
330
1F
100
AcDbEntity
  8
0
100
AcDbLine
 10
170.2843433754224
 20
205.8670744683179
 30
0.0
 11
170.3743433754223
 21
205.8670744683179
 31
0.0
  0
LINE
  5
932
330
1F
100
AcDbEntity
  8
0
100
AcDbLine
 10
170.2843433754224
 20
205.8670744683179
 30
0.0
 11
170.3743433754223
 21
205.8670744683179
 31
0.0
  0
LINE
  5
933
330
1F
100
AcDbEntity
  8
0
100
AcDbLine
 10
170.2843433754224
 20
206.0471784683183
 30
0.0
 11
170.2843433754224
 21
205.8670744683179
 31
0.0
  0
LINE
  5
934
330
1F
100
AcDbEntity
  8
0
100
AcDbLine
 10
170.6243433754223
 20
205.7071264683184
 30
0.0
 11
170.6243433754223
 21
206.2071264683184
 31
0.0
  0
LINE
  5
935
330
1F
100
AcDbEntity
  8
0
100
AcDbLine
 10
170.1243433754223
 20
206.2071264683184
 30
0.0
 11
170.1243433754223
 21
205.7071264683184
 31
0.0
  0
LINE
  5
936
330
1F
100
AcDbEntity
  8
0
100
AcDbLine
 10
172.4643433754225
 20
198.0471784683181
 30
0.0
 11
172.4643433754225
 21
197.8670744683179
 31
0.0
  0
LINE
  5
937
330
1F
100
AcDbEntity
  8
0
100
AcDbLine
 10
172.2843433754223
 20
198.0471784683181
 30
0.0
 11
172.2843433754223
 21
197.8670744683179
 31
0.0
  0
LINE
  5
938
330
1F
100
AcDbEntity
  8
0
100
AcDbLine
 10
172.4643433754225
 20
197.8670744683179
 30
0.0
 11
172.3743433754223
 21
197.8670744683179
 31
0.0
  0
LINE
  5
939
330
1F
100
AcDbEntity
  8
0
100
AcDbLine
 10
172.4643433754225
 20
197.8670744683179
 30
0.0
 11
172.3743433754223
 21
197.8670744683179
 31
0.0
  0
LINE
  5
93A
330
1F
100
AcDbEntity
  8
0
100
AcDbLine
 10
172.2843433754223
 20
197.8670744683179
 30
0.0
 11
172.3743433754223
 21
197.8670744683179
 31
0.0
  0
LINE
  5
93B
330
1F
100
AcDbEntity
  8
0
100
AcDbLine
 10
172.2843433754223
 20
197.8670744683179
 30
0.0
 11
172.3743433754223
 21
197.8670744683179
 31
0.0
  0
LINE
  5
93C
330
1F
100
AcDbEntity
  8
0
100
AcDbLine
 10
172.1243433754223
 20
198.2071264683185
 30
0.0
 11
172.6243433754223
 21
198.2071264683185
 31
0.0
  0
LINE
  5
93D
330
1F
100
AcDbEntity
  8
0
100
AcDbLine
 10
172.4643433754225
 20
198.0471784683181
 30
0.0
 11
172.3743433754223
 21
198.0471784683181
 31
0.0
  0
LINE
  5
93E
330
1F
100
AcDbEntity
  8
0
100
AcDbLine
 10
172.2843433754223
 20
198.0471784683181
 30
0.0
 11
172.3743433754223
 21
198.0471784683181
 31
0.0
  0
LINE
  5
93F
330
1F
100
AcDbEntity
  8
0
100
AcDbLine
 10
172.1243433754223
 20
197.7071264683184
 30
0.0
 11
172.6243433754223
 21
197.7071264683184
 31
0.0
  0
LINE
  5
940
330
1F
100
AcDbEntity
  8
0
100
AcDbLine
 10
172.1243433754223
 20
198.2071264683185
 30
0.0
 11
172.1243433754223
 21
197.7071264683184
 31
0.0
  0
LINE
  5
941
330
1F
100
AcDbEntity
  8
0
100
AcDbLine
 10
172.6243433754223
 20
197.7071264683184
 30
0.0
 11
172.6243433754223
 21
198.2071264683185
 31
0.0
  0
LINE
  5
942
330
1F
100
AcDbEntity
  8
0
100
AcDbLine
 10
172.4643433754225
 20
196.0471784683181
 30
0.0
 11
172.4643433754225
 21
195.8670744683179
 31
0.0
  0
LINE
  5
943
330
1F
100
AcDbEntity
  8
0
100
AcDbLine
 10
172.2843433754223
 20
196.0471784683181
 30
0.0
 11
172.2843433754223
 21
195.8670744683179
 31
0.0
  0
LINE
  5
944
330
1F
100
AcDbEntity
  8
0
100
AcDbLine
 10
172.4643433754225
 20
195.8670744683179
 30
0.0
 11
172.3743433754223
 21
195.8670744683179
 31
0.0
  0
LINE
  5
945
330
1F
100
AcDbEntity
  8
0
100
AcDbLine
 10
172.4643433754225
 20
195.8670744683179
 30
0.0
 11
172.3743433754223
 21
195.8670744683179
 31
0.0
  0
LINE
  5
946
330
1F
100
AcDbEntity
  8
0
100
AcDbLine
 10
172.2843433754223
 20
195.8670744683179
 30
0.0
 11
172.3743433754223
 21
195.8670744683179
 31
0.0
  0
LINE
  5
947
330
1F
100
AcDbEntity
  8
0
100
AcDbLine
 10
172.2843433754223
 20
195.8670744683179
 30
0.0
 11
172.3743433754223
 21
195.8670744683179
 31
0.0
  0
LINE
  5
948
330
1F
100
AcDbEntity
  8
0
100
AcDbLine
 10
172.1243433754223
 20
196.2071264683184
 30
0.0
 11
172.6243433754223
 21
196.2071264683184
 31
0.0
  0
LINE
  5
949
330
1F
100
AcDbEntity
  8
0
100
AcDbLine
 10
172.4643433754225
 20
196.0471784683181
 30
0.0
 11
172.3743433754223
 21
196.0471784683181
 31
0.0
  0
LINE
  5
94A
330
1F
100
AcDbEntity
  8
0
100
AcDbLine
 10
172.2843433754223
 20
196.0471784683181
 30
0.0
 11
172.3743433754223
 21
196.0471784683181
 31
0.0
  0
LINE
  5
94B
330
1F
100
AcDbEntity
  8
0
100
AcDbLine
 10
172.1243433754223
 20
195.7071264683184
 30
0.0
 11
172.6243433754223
 21
195.7071264683184
 31
0.0
  0
LINE
  5
94C
330
1F
100
AcDbEntity
  8
0
100
AcDbLine
 10
172.1243433754223
 20
196.2071264683184
 30
0.0
 11
172.1243433754223
 21
195.7071264683184
 31
0.0
  0
LINE
  5
94D
330
1F
100
AcDbEntity
  8
0
100
AcDbLine
 10
172.6243433754223
 20
195.7071264683184
 30
0.0
 11
172.6243433754223
 21
196.2071264683184
 31
0.0
  0
LINE
  5
94E
330
1F
100
AcDbEntity
  8
0
100
AcDbLine
 10
170.2843433754224
 20
198.0471784683181
 30
0.0
 11
170.2843433754224
 21
197.8670744683179
 31
0.0
  0
LINE
  5
94F
330
1F
100
AcDbEntity
  8
0
100
AcDbLine
 10
170.4643433754226
 20
198.0471784683181
 30
0.0
 11
170.4643433754226
 21
197.8670744683179
 31
0.0
  0
LINE
  5
950
330
1F
100
AcDbEntity
  8
0
100
AcDbLine
 10
170.2843433754224
 20
197.8670744683179
 30
0.0
 11
170.3743433754223
 21
197.8670744683179
 31
0.0
  0
LINE
  5
951
330
1F
100
AcDbEntity
  8
0
100
AcDbLine
 10
170.2843433754224
 20
197.8670744683179
 30
0.0
 11
170.3743433754223
 21
197.8670744683179
 31
0.0
  0
LINE
  5
952
330
1F
100
AcDbEntity
  8
0
100
AcDbLine
 10
170.4643433754226
 20
197.8670744683179
 30
0.0
 11
170.3743433754223
 21
197.8670744683179
 31
0.0
  0
LINE
  5
953
330
1F
100
AcDbEntity
  8
0
100
AcDbLine
 10
170.4643433754226
 20
197.8670744683179
 30
0.0
 11
170.3743433754223
 21
197.8670744683179
 31
0.0
  0
LINE
  5
954
330
1F
100
AcDbEntity
  8
0
100
AcDbLine
 10
170.1243433754223
 20
198.2071264683185
 30
0.0
 11
170.6243433754223
 21
198.2071264683185
 31
0.0
  0
LINE
  5
955
330
1F
100
AcDbEntity
  8
0
100
AcDbLine
 10
170.2843433754224
 20
198.0471784683181
 30
0.0
 11
170.3743433754223
 21
198.0471784683181
 31
0.0
  0
LINE
  5
956
330
1F
100
AcDbEntity
  8
0
100
AcDbLine
 10
170.4643433754226
 20
198.0471784683181
 30
0.0
 11
170.3743433754223
 21
198.0471784683181
 31
0.0
  0
LINE
  5
957
330
1F
100
AcDbEntity
  8
0
100
AcDbLine
 10
170.1243433754223
 20
197.7071264683184
 30
0.0
 11
170.6243433754223
 21
197.7071264683184
 31
0.0
  0
LINE
  5
958
330
1F
100
AcDbEntity
  8
0
100
AcDbLine
 10
170.1243433754223
 20
198.2071264683185
 30
0.0
 11
170.1243433754223
 21
197.7071264683184
 31
0.0
  0
LINE
  5
959
330
1F
100
AcDbEntity
  8
0
100
AcDbLine
 10
170.6243433754223
 20
197.7071264683184
 30
0.0
 11
170.6243433754223
 21
198.2071264683185
 31
0.0
  0
LINE
  5
95A
330
1F
100
AcDbEntity
  8
0
100
AcDbLine
 10
170.2843433754224
 20
196.0471784683181
 30
0.0
 11
170.2843433754224
 21
195.8670744683179
 31
0.0
  0
LINE
  5
95B
330
1F
100
AcDbEntity
  8
0
100
AcDbLine
 10
170.4643433754226
 20
196.0471784683181
 30
0.0
 11
170.4643433754226
 21
195.8670744683179
 31
0.0
  0
LINE
  5
95C
330
1F
100
AcDbEntity
  8
0
100
AcDbLine
 10
170.2843433754224
 20
195.8670744683179
 30
0.0
 11
170.3743433754223
 21
195.8670744683179
 31
0.0
  0
LINE
  5
95D
330
1F
100
AcDbEntity
  8
0
100
AcDbLine
 10
170.2843433754224
 20
195.8670744683179
 30
0.0
 11
170.3743433754223
 21
195.8670744683179
 31
0.0
  0
LINE
  5
95E
330
1F
100
AcDbEntity
  8
0
100
AcDbLine
 10
170.4643433754226
 20
195.8670744683179
 30
0.0
 11
170.3743433754223
 21
195.8670744683179
 31
0.0
  0
LINE
  5
95F
330
1F
100
AcDbEntity
  8
0
100
AcDbLine
 10
170.4643433754226
 20
195.8670744683179
 30
0.0
 11
170.3743433754223
 21
195.8670744683179
 31
0.0
  0
LINE
  5
960
330
1F
100
AcDbEntity
  8
0
100
AcDbLine
 10
170.1243433754223
 20
196.2071264683184
 30
0.0
 11
170.6243433754223
 21
196.2071264683184
 31
0.0
  0
LINE
  5
961
330
1F
100
AcDbEntity
  8
0
100
AcDbLine
 10
170.2843433754224
 20
196.0471784683181
 30
0.0
 11
170.3743433754223
 21
196.0471784683181
 31
0.0
  0
LINE
  5
962
330
1F
100
AcDbEntity
  8
0
100
AcDbLine
 10
170.4643433754226
 20
196.0471784683181
 30
0.0
 11
170.3743433754223
 21
196.0471784683181
 31
0.0
  0
LINE
  5
963
330
1F
100
AcDbEntity
  8
0
100
AcDbLine
 10
170.1243433754223
 20
195.7071264683184
 30
0.0
 11
170.6243433754223
 21
195.7071264683184
 31
0.0
  0
LINE
  5
964
330
1F
100
AcDbEntity
  8
0
100
AcDbLine
 10
170.1243433754223
 20
196.2071264683184
 30
0.0
 11
170.1243433754223
 21
195.7071264683184
 31
0.0
  0
LINE
  5
965
330
1F
100
AcDbEntity
  8
0
100
AcDbLine
 10
170.6243433754223
 20
195.7071264683184
 30
0.0
 11
170.6243433754223
 21
196.2071264683184
 31
0.0
  0
LINE
  5
966
330
1F
100
AcDbEntity
  8
0
100
AcDbLine
 10
172.1243433754223
 20
194.2071264683185
 30
0.0
 11
172.1243433754223
 21
193.7071264683184
 31
0.0
  0
LINE
  5
967
330
1F
100
AcDbEntity
  8
0
100
AcDbLine
 10
172.6243433754223
 20
193.7071264683184
 30
0.0
 11
172.6243433754223
 21
194.2071264683185
 31
0.0
  0
LINE
  5
968
330
1F
100
AcDbEntity
  8
0
100
AcDbLine
 10
172.2843433754223
 20
194.0471784683181
 30
0.0
 11
172.2843433754223
 21
193.8670744683179
 31
0.0
  0
LINE
  5
969
330
1F
100
AcDbEntity
  8
0
100
AcDbLine
 10
172.4643433754225
 20
194.0471784683181
 30
0.0
 11
172.4643433754225
 21
193.8670744683179
 31
0.0
  0
LINE
  5
96A
330
1F
100
AcDbEntity
  8
0
100
AcDbLine
 10
172.1243433754223
 20
193.7071264683184
 30
0.0
 11
172.6243433754223
 21
193.7071264683184
 31
0.0
  0
LINE
  5
96B
330
1F
100
AcDbEntity
  8
0
100
AcDbLine
 10
172.2843433754223
 20
193.8670744683179
 30
0.0
 11
172.3743433754223
 21
193.8670744683179
 31
0.0
  0
LINE
  5
96C
330
1F
100
AcDbEntity
  8
0
100
AcDbLine
 10
172.2843433754223
 20
193.8670744683179
 30
0.0
 11
172.3743433754223
 21
193.8670744683179
 31
0.0
  0
LINE
  5
96D
330
1F
100
AcDbEntity
  8
0
100
AcDbLine
 10
172.4643433754225
 20
193.8670744683179
 30
0.0
 11
172.3743433754223
 21
193.8670744683179
 31
0.0
  0
LINE
  5
96E
330
1F
100
AcDbEntity
  8
0
100
AcDbLine
 10
172.4643433754225
 20
193.8670744683179
 30
0.0
 11
172.3743433754223
 21
193.8670744683179
 31
0.0
  0
LINE
  5
96F
330
1F
100
AcDbEntity
  8
0
100
AcDbLine
 10
172.1243433754223
 20
194.2071264683185
 30
0.0
 11
172.6243433754223
 21
194.2071264683185
 31
0.0
  0
LINE
  5
970
330
1F
100
AcDbEntity
  8
0
100
AcDbLine
 10
172.2843433754223
 20
194.0471784683181
 30
0.0
 11
172.3743433754223
 21
194.0471784683181
 31
0.0
  0
LINE
  5
971
330
1F
100
AcDbEntity
  8
0
100
AcDbLine
 10
172.4643433754225
 20
194.0471784683181
 30
0.0
 11
172.3743433754223
 21
194.0471784683181
 31
0.0
  0
LINE
  5
972
330
1F
100
AcDbEntity
  8
0
100
AcDbLine
 10
170.6243433754223
 20
193.7071264683184
 30
0.0
 11
170.6243433754223
 21
194.2071264683185
 31
0.0
  0
LINE
  5
973
330
1F
100
AcDbEntity
  8
0
100
AcDbLine
 10
170.1243433754223
 20
194.2071264683185
 30
0.0
 11
170.1243433754223
 21
193.7071264683184
 31
0.0
  0
LINE
  5
974
330
1F
100
AcDbEntity
  8
0
100
AcDbLine
 10
170.4643433754226
 20
194.0471784683181
 30
0.0
 11
170.4643433754226
 21
193.8670744683179
 31
0.0
  0
LINE
  5
975
330
1F
100
AcDbEntity
  8
0
100
AcDbLine
 10
170.2843433754224
 20
194.0471784683181
 30
0.0
 11
170.2843433754224
 21
193.8670744683179
 31
0.0
  0
LINE
  5
976
330
1F
100
AcDbEntity
  8
0
100
AcDbLine
 10
170.1243433754223
 20
193.7071264683184
 30
0.0
 11
170.6243433754223
 21
193.7071264683184
 31
0.0
  0
LINE
  5
977
330
1F
100
AcDbEntity
  8
0
100
AcDbLine
 10
170.4643433754226
 20
193.8670744683179
 30
0.0
 11
170.3743433754223
 21
193.8670744683179
 31
0.0
  0
LINE
  5
978
330
1F
100
AcDbEntity
  8
0
100
AcDbLine
 10
170.4643433754226
 20
193.8670744683179
 30
0.0
 11
170.3743433754223
 21
193.8670744683179
 31
0.0
  0
LINE
  5
979
330
1F
100
AcDbEntity
  8
0
100
AcDbLine
 10
170.2843433754224
 20
193.8670744683179
 30
0.0
 11
170.3743433754223
 21
193.8670744683179
 31
0.0
  0
LINE
  5
97A
330
1F
100
AcDbEntity
  8
0
100
AcDbLine
 10
170.2843433754224
 20
193.8670744683179
 30
0.0
 11
170.3743433754223
 21
193.8670744683179
 31
0.0
  0
LINE
  5
97B
330
1F
100
AcDbEntity
  8
0
100
AcDbLine
 10
170.4643433754226
 20
194.0471784683181
 30
0.0
 11
170.3743433754223
 21
194.0471784683181
 31
0.0
  0
LINE
  5
97C
330
1F
100
AcDbEntity
  8
0
100
AcDbLine
 10
170.2843433754224
 20
194.0471784683181
 30
0.0
 11
170.3743433754223
 21
194.0471784683181
 31
0.0
  0
LINE
  5
97D
330
1F
100
AcDbEntity
  8
0
100
AcDbLine
 10
170.1243433754223
 20
194.2071264683185
 30
0.0
 11
170.6243433754223
 21
194.2071264683185
 31
0.0
  0
LINE
  5
97E
330
1F
100
AcDbEntity
  8
0
100
AcDbLine
 10
169.2951783754225
 20
189.2531384683179
 30
0.0
 11
171.2601003754222
 21
189.2531384683179
 31
0.0
  0
LINE
  5
97F
330
1F
100
AcDbEntity
  8
0
100
AcDbLine
 10
172.1243433754223
 20
204.2071264683184
 30
0.0
 11
172.6243433754223
 21
204.2071264683184
 31
0.0
  0
LINE
  5
980
330
1F
100
AcDbEntity
  8
0
100
AcDbLine
 10
172.1243433754223
 20
203.7071264683184
 30
0.0
 11
172.6243433754223
 21
203.7071264683184
 31
0.0
  0
LINE
  5
981
330
1F
100
AcDbEntity
  8
0
100
AcDbLine
 10
172.1243433754223
 20
204.2071264683184
 30
0.0
 11
172.1243433754223
 21
203.7071264683184
 31
0.0
  0
LINE
  5
982
330
1F
100
AcDbEntity
  8
0
100
AcDbLine
 10
172.6243433754223
 20
203.7071264683184
 30
0.0
 11
172.6243433754223
 21
204.2071264683184
 31
0.0
  0
LINE
  5
983
330
1F
100
AcDbEntity
  8
0
100
AcDbLine
 10
172.2843433754223
 20
204.0471784683183
 30
0.0
 11
172.2843433754223
 21
203.8670744683179
 31
0.0
  0
LINE
  5
984
330
1F
100
AcDbEntity
  8
0
100
AcDbLine
 10
172.2843433754223
 20
203.8670744683179
 30
0.0
 11
172.3743433754223
 21
203.8670744683179
 31
0.0
  0
LINE
  5
985
330
1F
100
AcDbEntity
  8
0
100
AcDbLine
 10
172.2843433754223
 20
203.8670744683179
 30
0.0
 11
172.3743433754223
 21
203.8670744683179
 31
0.0
  0
LINE
  5
986
330
1F
100
AcDbEntity
  8
0
100
AcDbLine
 10
172.2843433754223
 20
204.0471784683183
 30
0.0
 11
172.3743433754223
 21
204.0471784683183
 31
0.0
  0
LINE
  5
987
330
1F
100
AcDbEntity
  8
0
100
AcDbLine
 10
172.4643433754225
 20
204.0471784683183
 30
0.0
 11
172.3743433754223
 21
204.0471784683183
 31
0.0
  0
LINE
  5
988
330
1F
100
AcDbEntity
  8
0
100
AcDbLine
 10
172.4643433754225
 20
203.8670744683179
 30
0.0
 11
172.3743433754223
 21
203.8670744683179
 31
0.0
  0
LINE
  5
989
330
1F
100
AcDbEntity
  8
0
100
AcDbLine
 10
172.4643433754225
 20
203.8670744683179
 30
0.0
 11
172.3743433754223
 21
203.8670744683179
 31
0.0
  0
LINE
  5
98A
330
1F
100
AcDbEntity
  8
0
100
AcDbLine
 10
172.4643433754225
 20
204.0471784683183
 30
0.0
 11
172.4643433754225
 21
203.8670744683179
 31
0.0
  0
LINE
  5
98B
330
1F
100
AcDbEntity
  8
0
100
AcDbLine
 10
172.1243433754223
 20
199.7071264683184
 30
0.0
 11
172.6243433754223
 21
199.7071264683184
 31
0.0
  0
LINE
  5
98C
330
1F
100
AcDbEntity
  8
0
100
AcDbLine
 10
172.1243433754223
 20
200.2071264683184
 30
0.0
 11
172.6243433754223
 21
200.2071264683184
 31
0.0
  0
LINE
  5
98D
330
1F
100
AcDbEntity
  8
0
100
AcDbLine
 10
172.1243433754223
 20
202.2071264683184
 30
0.0
 11
172.6243433754223
 21
202.2071264683184
 31
0.0
  0
LINE
  5
98E
330
1F
100
AcDbEntity
  8
0
100
AcDbLine
 10
172.1243433754223
 20
201.7071264683184
 30
0.0
 11
172.6243433754223
 21
201.7071264683184
 31
0.0
  0
LINE
  5
98F
330
1F
100
AcDbEntity
  8
0
100
AcDbLine
 10
172.1243433754223
 20
200.2071264683184
 30
0.0
 11
172.1243433754223
 21
199.7071264683184
 31
0.0
  0
LINE
  5
990
330
1F
100
AcDbEntity
  8
0
100
AcDbLine
 10
172.1243433754223
 20
202.2071264683184
 30
0.0
 11
172.1243433754223
 21
201.7071264683184
 31
0.0
  0
LINE
  5
991
330
1F
100
AcDbEntity
  8
0
100
AcDbLine
 10
172.6243433754223
 20
199.7071264683184
 30
0.0
 11
172.6243433754223
 21
200.2071264683184
 31
0.0
  0
LINE
  5
992
330
1F
100
AcDbEntity
  8
0
100
AcDbLine
 10
172.2843433754223
 20
200.0471784683181
 30
0.0
 11
172.2843433754223
 21
199.8670744683179
 31
0.0
  0
LINE
  5
993
330
1F
100
AcDbEntity
  8
0
100
AcDbLine
 10
172.2843433754223
 20
199.8670744683179
 30
0.0
 11
172.3743433754223
 21
199.8670744683179
 31
0.0
  0
LINE
  5
994
330
1F
100
AcDbEntity
  8
0
100
AcDbLine
 10
172.2843433754223
 20
199.8670744683179
 30
0.0
 11
172.3743433754223
 21
199.8670744683179
 31
0.0
  0
LINE
  5
995
330
1F
100
AcDbEntity
  8
0
100
AcDbLine
 10
172.2843433754223
 20
200.0471784683181
 30
0.0
 11
172.3743433754223
 21
200.0471784683181
 31
0.0
  0
LINE
  5
996
330
1F
100
AcDbEntity
  8
0
100
AcDbLine
 10
172.4643433754225
 20
200.0471784683181
 30
0.0
 11
172.3743433754223
 21
200.0471784683181
 31
0.0
  0
LINE
  5
997
330
1F
100
AcDbEntity
  8
0
100
AcDbLine
 10
172.4643433754225
 20
199.8670744683179
 30
0.0
 11
172.3743433754223
 21
199.8670744683179
 31
0.0
  0
LINE
  5
998
330
1F
100
AcDbEntity
  8
0
100
AcDbLine
 10
172.4643433754225
 20
199.8670744683179
 30
0.0
 11
172.3743433754223
 21
199.8670744683179
 31
0.0
  0
LINE
  5
999
330
1F
100
AcDbEntity
  8
0
100
AcDbLine
 10
172.4643433754225
 20
200.0471784683181
 30
0.0
 11
172.4643433754225
 21
199.8670744683179
 31
0.0
  0
LINE
  5
99A
330
1F
100
AcDbEntity
  8
0
100
AcDbLine
 10
172.6243433754223
 20
201.7071264683184
 30
0.0
 11
172.6243433754223
 21
202.2071264683184
 31
0.0
  0
LINE
  5
99B
330
1F
100
AcDbEntity
  8
0
100
AcDbLine
 10
172.2843433754223
 20
202.0471784683183
 30
0.0
 11
172.2843433754223
 21
201.8670744683179
 31
0.0
  0
LINE
  5
99C
330
1F
100
AcDbEntity
  8
0
100
AcDbLine
 10
172.2843433754223
 20
201.8670744683179
 30
0.0
 11
172.3743433754223
 21
201.8670744683179
 31
0.0
  0
LINE
  5
99D
330
1F
100
AcDbEntity
  8
0
100
AcDbLine
 10
172.2843433754223
 20
201.8670744683179
 30
0.0
 11
172.3743433754223
 21
201.8670744683179
 31
0.0
  0
LINE
  5
99E
330
1F
100
AcDbEntity
  8
0
100
AcDbLine
 10
172.2843433754223
 20
202.0471784683183
 30
0.0
 11
172.3743433754223
 21
202.0471784683183
 31
0.0
  0
LINE
  5
99F
330
1F
100
AcDbEntity
  8
0
100
AcDbLine
 10
172.4643433754225
 20
202.0471784683183
 30
0.0
 11
172.3743433754223
 21
202.0471784683183
 31
0.0
  0
LINE
  5
9A0
330
1F
100
AcDbEntity
  8
0
100
AcDbLine
 10
172.4643433754225
 20
201.8670744683179
 30
0.0
 11
172.3743433754223
 21
201.8670744683179
 31
0.0
  0
LINE
  5
9A1
330
1F
100
AcDbEntity
  8
0
100
AcDbLine
 10
172.4643433754225
 20
201.8670744683179
 30
0.0
 11
172.3743433754223
 21
201.8670744683179
 31
0.0
  0
LINE
  5
9A2
330
1F
100
AcDbEntity
  8
0
100
AcDbLine
 10
172.4643433754225
 20
202.0471784683183
 30
0.0
 11
172.4643433754225
 21
201.8670744683179
 31
0.0
  0
LINE
  5
9A3
330
1F
100
AcDbEntity
  8
0
100
AcDbLine
 10
170.1243433754223
 20
203.7071264683184
 30
0.0
 11
170.6243433754223
 21
203.7071264683184
 31
0.0
  0
LINE
  5
9A4
330
1F
100
AcDbEntity
  8
0
100
AcDbLine
 10
170.1243433754223
 20
204.2071264683184
 30
0.0
 11
170.6243433754223
 21
204.2071264683184
 31
0.0
  0
LINE
  5
9A5
330
1F
100
AcDbEntity
  8
0
100
AcDbLine
 10
170.4643433754226
 20
204.0471784683183
 30
0.0
 11
170.4643433754226
 21
203.8670744683179
 31
0.0
  0
LINE
  5
9A6
330
1F
100
AcDbEntity
  8
0
100
AcDbLine
 10
170.4643433754226
 20
203.8670744683179
 30
0.0
 11
170.3743433754223
 21
203.8670744683179
 31
0.0
  0
LINE
  5
9A7
330
1F
100
AcDbEntity
  8
0
100
AcDbLine
 10
170.4643433754226
 20
203.8670744683179
 30
0.0
 11
170.3743433754223
 21
203.8670744683179
 31
0.0
  0
LINE
  5
9A8
330
1F
100
AcDbEntity
  8
0
100
AcDbLine
 10
170.4643433754226
 20
204.0471784683183
 30
0.0
 11
170.3743433754223
 21
204.0471784683183
 31
0.0
  0
LINE
  5
9A9
330
1F
100
AcDbEntity
  8
0
100
AcDbLine
 10
170.2843433754224
 20
204.0471784683183
 30
0.0
 11
170.3743433754223
 21
204.0471784683183
 31
0.0
  0
LINE
  5
9AA
330
1F
100
AcDbEntity
  8
0
100
AcDbLine
 10
170.2843433754224
 20
203.8670744683179
 30
0.0
 11
170.3743433754223
 21
203.8670744683179
 31
0.0
  0
LINE
  5
9AB
330
1F
100
AcDbEntity
  8
0
100
AcDbLine
 10
170.2843433754224
 20
203.8670744683179
 30
0.0
 11
170.3743433754223
 21
203.8670744683179
 31
0.0
  0
LINE
  5
9AC
330
1F
100
AcDbEntity
  8
0
100
AcDbLine
 10
170.2843433754224
 20
204.0471784683183
 30
0.0
 11
170.2843433754224
 21
203.8670744683179
 31
0.0
  0
LINE
  5
9AD
330
1F
100
AcDbEntity
  8
0
100
AcDbLine
 10
170.6243433754223
 20
203.7071264683184
 30
0.0
 11
170.6243433754223
 21
204.2071264683184
 31
0.0
  0
LINE
  5
9AE
330
1F
100
AcDbEntity
  8
0
100
AcDbLine
 10
170.1243433754223
 20
204.2071264683184
 30
0.0
 11
170.1243433754223
 21
203.7071264683184
 31
0.0
  0
LINE
  5
9AF
330
1F
100
AcDbEntity
  8
0
100
AcDbLine
 10
170.2843433754224
 20
200.0471784683181
 30
0.0
 11
170.2843433754224
 21
199.8670744683179
 31
0.0
  0
LINE
  5
9B0
330
1F
100
AcDbEntity
  8
0
100
AcDbLine
 10
170.1243433754223
 20
200.2071264683184
 30
0.0
 11
170.6243433754223
 21
200.2071264683184
 31
0.0
  0
LINE
  5
9B1
330
1F
100
AcDbEntity
  8
0
100
AcDbLine
 10
170.1243433754223
 20
201.7071264683184
 30
0.0
 11
170.6243433754223
 21
201.7071264683184
 31
0.0
  0
LINE
  5
9B2
330
1F
100
AcDbEntity
  8
0
100
AcDbLine
 10
170.1243433754223
 20
202.2071264683184
 30
0.0
 11
170.6243433754223
 21
202.2071264683184
 31
0.0
  0
LINE
  5
9B3
330
1F
100
AcDbEntity
  8
0
100
AcDbLine
 10
170.4643433754226
 20
202.0471784683183
 30
0.0
 11
170.4643433754226
 21
201.8670744683179
 31
0.0
  0
LINE
  5
9B4
330
1F
100
AcDbEntity
  8
0
100
AcDbLine
 10
170.4643433754226
 20
201.8670744683179
 30
0.0
 11
170.3743433754223
 21
201.8670744683179
 31
0.0
  0
LINE
  5
9B5
330
1F
100
AcDbEntity
  8
0
100
AcDbLine
 10
170.4643433754226
 20
201.8670744683179
 30
0.0
 11
170.3743433754223
 21
201.8670744683179
 31
0.0
  0
LINE
  5
9B6
330
1F
100
AcDbEntity
  8
0
100
AcDbLine
 10
170.4643433754226
 20
202.0471784683183
 30
0.0
 11
170.3743433754223
 21
202.0471784683183
 31
0.0
  0
LINE
  5
9B7
330
1F
100
AcDbEntity
  8
0
100
AcDbLine
 10
170.2843433754224
 20
202.0471784683183
 30
0.0
 11
170.3743433754223
 21
202.0471784683183
 31
0.0
  0
LINE
  5
9B8
330
1F
100
AcDbEntity
  8
0
100
AcDbLine
 10
170.2843433754224
 20
201.8670744683179
 30
0.0
 11
170.3743433754223
 21
201.8670744683179
 31
0.0
  0
LINE
  5
9B9
330
1F
100
AcDbEntity
  8
0
100
AcDbLine
 10
170.2843433754224
 20
201.8670744683179
 30
0.0
 11
170.3743433754223
 21
201.8670744683179
 31
0.0
  0
LINE
  5
9BA
330
1F
100
AcDbEntity
  8
0
100
AcDbLine
 10
170.2843433754224
 20
202.0471784683183
 30
0.0
 11
170.2843433754224
 21
201.8670744683179
 31
0.0
  0
LINE
  5
9BB
330
1F
100
AcDbEntity
  8
0
100
AcDbLine
 10
170.6243433754223
 20
201.7071264683184
 30
0.0
 11
170.6243433754223
 21
202.2071264683184
 31
0.0
  0
LINE
  5
9BC
330
1F
100
AcDbEntity
  8
0
100
AcDbLine
 10
170.1243433754223
 20
202.2071264683184
 30
0.0
 11
170.1243433754223
 21
201.7071264683184
 31
0.0
  0
LINE
  5
9BD
330
1F
100
AcDbEntity
  8
0
100
AcDbLine
 10
170.6243433754223
 20
199.7071264683184
 30
0.0
 11
170.6243433754223
 21
200.2071264683184
 31
0.0
  0
LINE
  5
9BE
330
1F
100
AcDbEntity
  8
0
100
AcDbLine
 10
170.1243433754223
 20
200.2071264683184
 30
0.0
 11
170.1243433754223
 21
199.7071264683184
 31
0.0
  0
LINE
  5
9BF
330
1F
100
AcDbEntity
  8
0
100
AcDbLine
 10
170.1243433754223
 20
199.7071264683184
 30
0.0
 11
170.6243433754223
 21
199.7071264683184
 31
0.0
  0
LINE
  5
9C0
330
1F
100
AcDbEntity
  8
0
100
AcDbLine
 10
170.4643433754226
 20
200.0471784683181
 30
0.0
 11
170.4643433754226
 21
199.8670744683179
 31
0.0
  0
LINE
  5
9C1
330
1F
100
AcDbEntity
  8
0
100
AcDbLine
 10
170.4643433754226
 20
199.8670744683179
 30
0.0
 11
170.3743433754223
 21
199.8670744683179
 31
0.0
  0
LINE
  5
9C2
330
1F
100
AcDbEntity
  8
0
100
AcDbLine
 10
170.4643433754226
 20
199.8670744683179
 30
0.0
 11
170.3743433754223
 21
199.8670744683179
 31
0.0
  0
LINE
  5
9C3
330
1F
100
AcDbEntity
  8
0
100
AcDbLine
 10
170.4643433754226
 20
200.0471784683181
 30
0.0
 11
170.3743433754223
 21
200.0471784683181
 31
0.0
  0
LINE
  5
9C4
330
1F
100
AcDbEntity
  8
0
100
AcDbLine
 10
170.2843433754224
 20
200.0471784683181
 30
0.0
 11
170.3743433754223
 21
200.0471784683181
 31
0.0
  0
LINE
  5
9C5
330
1F
100
AcDbEntity
  8
0
100
AcDbLine
 10
170.2843433754224
 20
199.8670744683179
 30
0.0
 11
170.3743433754223
 21
199.8670744683179
 31
0.0
  0
LINE
  5
9C6
330
1F
100
AcDbEntity
  8
0
100
AcDbLine
 10
170.2843433754224
 20
199.8670744683179
 30
0.0
 11
170.3743433754223
 21
199.8670744683179
 31
0.0
  0
LINE
  5
9C7
330
1F
100
AcDbEntity
  8
0
100
AcDbLine
 10
168.8743433754223
 20
210.0771118092651
 30
0.0
 11
173.8743433754223
 21
210.0771118092651
 31
0.0
  0
LINE
  5
9C8
330
1F
100
AcDbEntity
  8
0
100
AcDbLine
 10
172.1243433754223
 20
208.2071264683184
 30
0.0
 11
172.6243433754223
 21
208.2071264683184
 31
0.0
  0
LINE
  5
9C9
330
1F
100
AcDbEntity
  8
0
100
AcDbLine
 10
172.1243433754223
 20
207.7071264683184
 30
0.0
 11
172.6243433754223
 21
207.7071264683184
 31
0.0
  0
LINE
  5
9CA
330
1F
100
AcDbEntity
  8
0
100
AcDbLine
 10
172.1243433754223
 20
208.2071264683184
 30
0.0
 11
172.1243433754223
 21
207.7071264683184
 31
0.0
  0
LINE
  5
9CB
330
1F
100
AcDbEntity
  8
0
100
AcDbLine
 10
172.6243433754223
 20
207.7071264683184
 30
0.0
 11
172.6243433754223
 21
208.2071264683184
 31
0.0
  0
LINE
  5
9CC
330
1F
100
AcDbEntity
  8
0
100
AcDbLine
 10
172.4643433754225
 20
208.0471784683183
 30
0.0
 11
172.4643433754225
 21
207.8670744683179
 31
0.0
  0
LINE
  5
9CD
330
1F
100
AcDbEntity
  8
0
100
AcDbLine
 10
172.2843433754223
 20
208.0471784683183
 30
0.0
 11
172.2843433754223
 21
207.8670744683179
 31
0.0
  0
LINE
  5
9CE
330
1F
100
AcDbEntity
  8
0
100
AcDbLine
 10
172.4643433754225
 20
208.0471784683183
 30
0.0
 11
172.3743433754223
 21
208.0471784683183
 31
0.0
  0
LINE
  5
9CF
330
1F
100
AcDbEntity
  8
0
100
AcDbLine
 10
172.2843433754223
 20
208.0471784683183
 30
0.0
 11
172.3743433754223
 21
208.0471784683183
 31
0.0
  0
LINE
  5
9D0
330
1F
100
AcDbEntity
  8
0
100
AcDbLine
 10
172.4643433754225
 20
207.8670744683179
 30
0.0
 11
172.3743433754223
 21
207.8670744683179
 31
0.0
  0
LINE
  5
9D1
330
1F
100
AcDbEntity
  8
0
100
AcDbLine
 10
172.4643433754225
 20
207.8670744683179
 30
0.0
 11
172.3743433754223
 21
207.8670744683179
 31
0.0
  0
LINE
  5
9D2
330
1F
100
AcDbEntity
  8
0
100
AcDbLine
 10
172.2843433754223
 20
207.8670744683179
 30
0.0
 11
172.3743433754223
 21
207.8670744683179
 31
0.0
  0
LINE
  5
9D3
330
1F
100
AcDbEntity
  8
0
100
AcDbLine
 10
172.2843433754223
 20
207.8670744683179
 30
0.0
 11
172.3743433754223
 21
207.8670744683179
 31
0.0
  0
LINE
  5
9D4
330
1F
100
AcDbEntity
  8
0
100
AcDbLine
 10
170.1243433754223
 20
208.2071264683184
 30
0.0
 11
170.1243433754223
 21
207.7071264683184
 31
0.0
  0
LINE
  5
9D5
330
1F
100
AcDbEntity
  8
0
100
AcDbLine
 10
170.6243433754223
 20
207.7071264683184
 30
0.0
 11
170.6243433754223
 21
208.2071264683184
 31
0.0
  0
LINE
  5
9D6
330
1F
100
AcDbEntity
  8
0
100
AcDbLine
 10
170.2843433754224
 20
208.0471784683183
 30
0.0
 11
170.2843433754224
 21
207.8670744683179
 31
0.0
  0
LINE
  5
9D7
330
1F
100
AcDbEntity
  8
0
100
AcDbLine
 10
170.4643433754226
 20
208.0471784683183
 30
0.0
 11
170.4643433754226
 21
207.8670744683179
 31
0.0
  0
LINE
  5
9D8
330
1F
100
AcDbEntity
  8
0
100
AcDbLine
 10
170.2843433754224
 20
208.0471784683183
 30
0.0
 11
170.3743433754223
 21
208.0471784683183
 31
0.0
  0
LINE
  5
9D9
330
1F
100
AcDbEntity
  8
0
100
AcDbLine
 10
170.4643433754226
 20
208.0471784683183
 30
0.0
 11
170.3743433754223
 21
208.0471784683183
 31
0.0
  0
LINE
  5
9DA
330
1F
100
AcDbEntity
  8
0
100
AcDbLine
 10
170.1243433754223
 20
208.2071264683184
 30
0.0
 11
170.6243433754223
 21
208.2071264683184
 31
0.0
  0
LINE
  5
9DB
330
1F
100
AcDbEntity
  8
0
100
AcDbLine
 10
170.2843433754224
 20
207.8670744683179
 30
0.0
 11
170.3743433754223
 21
207.8670744683179
 31
0.0
  0
LINE
  5
9DC
330
1F
100
AcDbEntity
  8
0
100
AcDbLine
 10
170.2843433754224
 20
207.8670744683179
 30
0.0
 11
170.3743433754223
 21
207.8670744683179
 31
0.0
  0
LINE
  5
9DD
330
1F
100
AcDbEntity
  8
0
100
AcDbLine
 10
170.4643433754226
 20
207.8670744683179
 30
0.0
 11
170.3743433754223
 21
207.8670744683179
 31
0.0
  0
LINE
  5
9DE
330
1F
100
AcDbEntity
  8
0
100
AcDbLine
 10
170.4643433754226
 20
207.8670744683179
 30
0.0
 11
170.3743433754223
 21
207.8670744683179
 31
0.0
  0
LINE
  5
9DF
330
1F
100
AcDbEntity
  8
0
100
AcDbLine
 10
170.1243433754223
 20
207.7071264683184
 30
0.0
 11
170.6243433754223
 21
207.7071264683184
 31
0.0
  0
LINE
  5
9E0
330
1F
100
AcDbEntity
  8
0
100
AcDbLine
 10
167.1356903754223
 20
219.7506734683182
 30
0.0
 11
167.5730453754225
 21
219.3693014683184
 31
0.0
  0
LINE
  5
9E1
330
1F
100
AcDbEntity
  8
0
100
AcDbLine
 10
167.5735623754223
 20
220.2093874683181
 30
0.0
 11
168.1661193754223
 21
220.2093874683181
 31
0.0
  0
LINE
  5
9E2
330
1F
100
AcDbEntity
  8
0
100
AcDbLine
 10
167.5735623754223
 20
221.1903784683184
 30
0.0
 11
167.5735623754223
 21
220.2093874683181
 31
0.0
  0
LINE
  5
9E3
330
1F
100
AcDbEntity
  8
0
100
AcDbLine
 10
168.1661193754223
 20
221.1903784683184
 30
0.0
 11
167.5735623754223
 21
221.1903784683184
 31
0.0
  0
LINE
  5
9E4
330
1F
100
AcDbEntity
  8
0
100
AcDbLine
 10
168.1661193754223
 20
220.2093874683181
 30
0.0
 11
168.1661193754223
 21
221.1903784683184
 31
0.0
  0
LINE
  5
9E5
330
1F
100
AcDbEntity
  8
0
100
AcDbLine
 10
167.1356903754223
 20
220.2093874683181
 30
0.0
 11
168.6036463754224
 21
220.2093874683181
 31
0.0
  0
LINE
  5
9E6
330
1F
100
AcDbEntity
  8
0
100
AcDbLine
 10
168.6036463754224
 20
219.7506734683182
 30
0.0
 11
168.1661193754223
 21
219.3693014683184
 31
0.0
  0
LINE
  5
9E7
330
1F
100
AcDbEntity
  8
0
100
AcDbLine
 10
168.8857993754225
 20
220.2446994683179
 30
0.0
 11
169.3233263754225
 21
219.8636724683179
 31
0.0
  0
LINE
  5
9E8
330
1F
100
AcDbEntity
  8
0
100
AcDbLine
 10
170.3537543754226
 20
220.2446994683179
 30
0.0
 11
169.9158833754224
 21
219.8636724683179
 31
0.0
  0
LINE
  5
9E9
330
1F
100
AcDbEntity
  8
0
100
AcDbLine
 10
169.9158833754224
 20
218.8825094683183
 30
0.0
 11
169.3233263754225
 21
218.8825094683183
 31
0.0
  0
LINE
  5
9EA
330
1F
100
AcDbEntity
  8
0
100
AcDbLine
 10
169.9158833754224
 20
219.8636724683179
 30
0.0
 11
169.9158833754224
 21
218.8825094683183
 31
0.0
  0
LINE
  5
9EB
330
1F
100
AcDbEntity
  8
0
100
AcDbLine
 10
169.3233263754225
 20
219.8636724683179
 30
0.0
 11
169.9158833754224
 21
219.8636724683179
 31
0.0
  0
LINE
  5
9EC
330
1F
100
AcDbEntity
  8
0
100
AcDbLine
 10
169.3233263754225
 20
218.8825094683183
 30
0.0
 11
169.3233263754225
 21
219.8636724683179
 31
0.0
  0
LINE
  5
9ED
330
1F
100
AcDbEntity
  8
0
100
AcDbLine
 10
170.3537543754226
 20
218.8825094683183
 30
0.0
 11
168.8857993754225
 21
218.8825094683183
 31
0.0
  0
LINE
  5
9EE
330
1F
100
AcDbEntity
  8
0
100
AcDbLine
 10
170.3537543754226
 20
220.2446994683179
 30
0.0
 11
170.3537543754226
 21
218.8825094683183
 31
0.0
  0
LINE
  5
9EF
330
1F
100
AcDbEntity
  8
0
100
AcDbLine
 10
168.8857993754225
 20
220.2446994683179
 30
0.0
 11
170.3537543754226
 21
220.2446994683179
 31
0.0
  0
LINE
  5
9F0
330
1F
100
AcDbEntity
  8
0
100
AcDbLine
 10
168.8857993754225
 20
218.8825094683183
 30
0.0
 11
168.8857993754225
 21
220.2446994683179
 31
0.0
  0
LINE
  5
9F1
330
1F
100
AcDbEntity
  8
0
100
AcDbLine
 10
168.8857993754225
 20
217.0548854683184
 30
0.0
 11
169.3233263754225
 21
217.4357414683182
 31
0.0
  0
LINE
  5
9F2
330
1F
100
AcDbEntity
  8
0
100
AcDbLine
 10
170.3537543754226
 20
217.0548854683184
 30
0.0
 11
169.9158833754224
 21
217.4357414683182
 31
0.0
  0
LINE
  5
9F3
330
1F
100
AcDbEntity
  8
0
100
AcDbLine
 10
167.1356903754223
 20
215.664445468318
 30
0.0
 11
168.6036463754224
 21
215.664445468318
 31
0.0
  0
LINE
  5
9F4
330
1F
100
AcDbEntity
  8
0
100
AcDbLine
 10
167.1356903754223
 20
217.0266364683183
 30
0.0
 11
167.1356903754223
 21
215.664445468318
 31
0.0
  0
LINE
  5
9F5
330
1F
100
AcDbEntity
  8
0
100
AcDbLine
 10
168.6036463754224
 20
217.0266364683183
 30
0.0
 11
167.1356903754223
 21
217.0266364683183
 31
0.0
  0
LINE
  5
9F6
330
1F
100
AcDbEntity
  8
0
100
AcDbLine
 10
168.6036463754224
 20
215.664445468318
 30
0.0
 11
168.6036463754224
 21
217.0266364683183
 31
0.0
  0
LINE
  5
9F7
330
1F
100
AcDbEntity
  8
0
100
AcDbLine
 10
169.3233263754225
 20
217.4357414683182
 30
0.0
 11
169.9158833754224
 21
217.4357414683182
 31
0.0
  0
LINE
  5
9F8
330
1F
100
AcDbEntity
  8
0
100
AcDbLine
 10
169.3233263754225
 20
218.416904468318
 30
0.0
 11
169.3233263754225
 21
217.4357414683182
 31
0.0
  0
LINE
  5
9F9
330
1F
100
AcDbEntity
  8
0
100
AcDbLine
 10
169.9158833754224
 20
218.416904468318
 30
0.0
 11
169.3233263754225
 21
218.416904468318
 31
0.0
  0
LINE
  5
9FA
330
1F
100
AcDbEntity
  8
0
100
AcDbLine
 10
169.9158833754224
 20
217.4357414683182
 30
0.0
 11
169.9158833754224
 21
218.416904468318
 31
0.0
  0
LINE
  5
9FB
330
1F
100
AcDbEntity
  8
0
100
AcDbLine
 10
168.8857993754225
 20
217.0548854683184
 30
0.0
 11
170.3537543754226
 21
217.0548854683184
 31
0.0
  0
LINE
  5
9FC
330
1F
100
AcDbEntity
  8
0
100
AcDbLine
 10
168.8857993754225
 20
218.416904468318
 30
0.0
 11
168.8857993754225
 21
217.0548854683184
 31
0.0
  0
LINE
  5
9FD
330
1F
100
AcDbEntity
  8
0
100
AcDbLine
 10
170.3537543754226
 20
218.416904468318
 30
0.0
 11
168.8857993754225
 21
218.416904468318
 31
0.0
  0
LINE
  5
9FE
330
1F
100
AcDbEntity
  8
0
100
AcDbLine
 10
170.3537543754226
 20
217.0548854683184
 30
0.0
 11
170.3537543754226
 21
218.416904468318
 31
0.0
  0
LINE
  5
9FF
330
1F
100
AcDbEntity
  8
0
100
AcDbLine
 10
167.1356903754223
 20
215.664445468318
 30
0.0
 11
167.5730453754225
 21
216.045472468318
 31
0.0
  0
LINE
  5
A00
330
1F
100
AcDbEntity
  8
0
100
AcDbLine
 10
168.6036463754224
 20
215.664445468318
 30
0.0
 11
168.1657743754225
 21
216.045472468318
 31
0.0
  0
LINE
  5
A01
330
1F
100
AcDbEntity
  8
0
100
AcDbLine
 10
167.5730453754225
 20
216.045472468318
 30
0.0
 11
168.1657743754225
 21
216.045472468318
 31
0.0
  0
LINE
  5
A02
330
1F
100
AcDbEntity
  8
0
100
AcDbLine
 10
167.5730453754225
 20
217.0266364683183
 30
0.0
 11
167.5730453754225
 21
216.045472468318
 31
0.0
  0
LINE
  5
A03
330
1F
100
AcDbEntity
  8
0
100
AcDbLine
 10
168.1657743754225
 20
217.0266364683183
 30
0.0
 11
167.5730453754225
 21
217.0266364683183
 31
0.0
  0
LINE
  5
A04
330
1F
100
AcDbEntity
  8
0
100
AcDbLine
 10
168.1657743754225
 20
216.045472468318
 30
0.0
 11
168.1657743754225
 21
217.0266364683183
 31
0.0
  0
LINE
  5
A05
330
1F
100
AcDbEntity
  8
0
100
AcDbLine
 10
167.5735623754223
 20
218.3886544683179
 30
0.0
 11
168.1661193754223
 21
218.3886544683179
 31
0.0
  0
LINE
  5
A06
330
1F
100
AcDbEntity
  8
0
100
AcDbLine
 10
167.5735623754223
 20
219.369645468318
 30
0.0
 11
167.5735623754223
 21
218.3886544683179
 31
0.0
  0
LINE
  5
A07
330
1F
100
AcDbEntity
  8
0
100
AcDbLine
 10
168.1661193754223
 20
219.369645468318
 30
0.0
 11
167.5735623754223
 21
219.369645468318
 31
0.0
  0
LINE
  5
A08
330
1F
100
AcDbEntity
  8
0
100
AcDbLine
 10
168.1661193754223
 20
218.3886544683179
 30
0.0
 11
168.1661193754223
 21
219.369645468318
 31
0.0
  0
LINE
  5
A09
330
1F
100
AcDbEntity
  8
0
100
AcDbLine
 10
167.1356903754223
 20
218.3886544683179
 30
0.0
 11
168.6036463754224
 21
218.3886544683179
 31
0.0
  0
LINE
  5
A0A
330
1F
100
AcDbEntity
  8
0
100
AcDbLine
 10
167.1356903754223
 20
219.7506734683182
 30
0.0
 11
167.1356903754223
 21
218.3886544683179
 31
0.0
  0
LINE
  5
A0B
330
1F
100
AcDbEntity
  8
0
100
AcDbLine
 10
168.6036463754224
 20
219.7506734683182
 30
0.0
 11
167.1356903754223
 21
219.7506734683182
 31
0.0
  0
LINE
  5
A0C
330
1F
100
AcDbEntity
  8
0
100
AcDbLine
 10
168.6036463754224
 20
218.3886544683179
 30
0.0
 11
168.6036463754224
 21
219.7506734683182
 31
0.0
  0
LINE
  5
A0D
330
1F
100
AcDbEntity
  8
0
100
AcDbLine
 10
168.6036463754224
 20
221.5714064683179
 30
0.0
 11
168.1661193754223
 21
221.1900344683179
 31
0.0
  0
LINE
  5
A0E
330
1F
100
AcDbEntity
  8
0
100
AcDbLine
 10
167.1356903754223
 20
221.5714064683179
 30
0.0
 11
167.5730453754225
 21
221.1900344683179
 31
0.0
  0
LINE
  5
A0F
330
1F
100
AcDbEntity
  8
0
100
AcDbLine
 10
167.1356903754223
 20
221.5714064683179
 30
0.0
 11
167.1356903754223
 21
220.2093874683181
 31
0.0
  0
LINE
  5
A10
330
1F
100
AcDbEntity
  8
0
100
AcDbLine
 10
168.6036463754224
 20
220.2093874683181
 30
0.0
 11
168.6036463754224
 21
221.5714064683179
 31
0.0
  0
LINE
  5
A11
330
1F
100
AcDbEntity
  8
0
100
AcDbLine
 10
168.6036463754224
 20
221.5714064683179
 30
0.0
 11
167.1356903754223
 21
221.5714064683179
 31
0.0
  0
LINE
  5
A12
330
1F
100
AcDbEntity
  8
0
100
AcDbLine
 10
166.8743433754223
 20
226.4071264683183
 30
0.0
 11
173.8743433754223
 21
226.4071264683183
 31
0.0
  0
LINE
  5
A13
330
1F
100
AcDbEntity
  8
0
100
AcDbLine
 10
166.8743433754223
 20
231.4071264683183
 30
0.0
 11
173.8743433754223
 21
231.4071264683183
 31
0.0
  0
LINE
  5
A14
330
1F
100
AcDbEntity
  8
0
100
AcDbLine
 10
161.0743433754227
 20
225.6571264683183
 30
0.0
 11
173.8743433754223
 21
225.6571264683183
 31
0.0
  0
LINE
  5
A15
330
1F
100
AcDbEntity
  8
0
100
AcDbLine
 10
166.2243433754223
 20
232.3571264683184
 30
0.0
 11
173.6243433754223
 21
232.3571264683181
 31
0.0
  0
LINE
  5
A17
330
1F
100
AcDbEntity
  8
0
100
AcDbLine
 10
166.2243433754223
 20
232.3571264683181
 30
0.0
 11
173.6243433754223
 21
232.3571264683181
 31
0.0
  0
CIRCLE
  5
A1A
330
1F
100
AcDbEntity
  8
0
100
AcDbCircle
 10
169.9243433754225
 20
236.1071264683181
 30
0.0
 40
3.7
  0
CIRCLE
  5
A1B
330
1F
100
AcDbEntity
  8
0
100
AcDbCircle
 10
169.9243433754225
 20
236.1071264683181
 30
0.0
 40
3.7
  0
ARC
  5
A1C
330
1F
100
AcDbEntity
  8
0
100
AcDbCircle
 10
169.9243433754225
 20
236.1071264683181
 30
0.0
 40
3.69999999999993
100
AcDbArc
 50
0.0
 51
180.0
  0
LINE
  5
A1D
330
1F
100
AcDbEntity
  8
0
100
AcDbLine
 10
166.8743433754223
 20
226.4071264683183
 30
0.0
 11
166.8743433754223
 21
231.4071264683183
 31
0.0
  0
LINE
  5
A1E
330
1F
100
AcDbEntity
  8
0
100
AcDbLine
 10
160.5743433754227
 20
226.1331394683181
 30
0.0
 11
166.2243433754223
 21
226.1331394683181
 31
0.0
  0
LINE
  5
A1F
330
1F
100
AcDbEntity
  8
0
100
AcDbLine
 10
166.2243433754223
 20
226.1331394683181
 30
0.0
 11
166.2243433754223
 21
231.4071264683183
 31
0.0
  0
LINE
  5
A20
330
1F
100
AcDbEntity
  8
0
100
AcDbLine
 10
166.2243433754223
 20
236.1071264683181
 30
0.0
 11
166.2243433754223
 21
231.4071264683183
 31
0.0
  0
LINE
  5
A21
330
1F
100
AcDbEntity
  8
0
100
AcDbLine
 10
169.2951783754225
 20
230.4071264683183
 30
0.0
 11
169.2951783754225
 21
227.4071264683183
 31
0.0
  0
LINE
  5
A22
330
1F
100
AcDbEntity
  8
0
100
AcDbLine
 10
171.2601003754222
 20
230.4071264683183
 30
0.0
 11
171.2601003754222
 21
227.4071264683183
 31
0.0
  0
LINE
  5
A23
330
1F
100
AcDbEntity
  8
0
100
AcDbLine
 10
169.2951783754225
 20
230.4071264683183
 30
0.0
 11
171.2601003754222
 21
230.4071264683183
 31
0.0
  0
LINE
  5
A24
330
1F
100
AcDbEntity
  8
0
100
AcDbLine
 10
169.2951783754225
 20
227.4071264683183
 30
0.0
 11
171.2601003754222
 21
227.4071264683183
 31
0.0
  0
LINE
  5
A25
330
1F
100
AcDbEntity
  8
0
100
AcDbLine
 10
173.8743433754223
 20
231.4071264683183
 30
0.0
 11
173.8743433754223
 21
226.4071264683183
 31
0.0
  0
LINE
  5
A26
330
1F
100
AcDbEntity
  8
0
100
AcDbLine
 10
168.8924143754225
 20
235.9460754683183
 30
0.0
 11
171.7259493754224
 21
235.9460754683183
 31
0.0
  0
LINE
  5
A27
330
1F
100
AcDbEntity
  8
0
100
AcDbLine
 10
168.0169063754226
 20
236.1071264683181
 30
0.0
 11
168.8924143754225
 21
235.5269364683183
 31
0.0
  0
LINE
  5
A28
330
1F
100
AcDbEntity
  8
0
100
AcDbLine
 10
168.8924143754225
 20
235.9460754683183
 30
0.0
 11
168.8924143754225
 21
235.5269364683183
 31
0.0
  0
LINE
  5
A29
330
1F
100
AcDbEntity
  8
0
100
AcDbLine
 10
173.6243433754223
 20
231.8071264683183
 30
0.0
 11
174.3743433754223
 21
231.8071264683183
 31
0.0
  0
LINE
  5
A2A
330
1F
100
AcDbEntity
  8
0
100
AcDbLine
 10
173.4743433754223
 20
235.11726166394
 30
0.0
 11
173.4743433754223
 21
232.3571264683181
 31
0.0
  0
LINE
  5
A2B
330
1F
100
AcDbEntity
  8
0
100
AcDbLine
 10
173.6243433754223
 20
233.2671264683184
 30
0.0
 11
173.4743433754223
 21
233.2671264683184
 31
0.0
  0
LINE
  5
A2C
330
1F
100
AcDbEntity
  8
0
100
AcDbLine
 10
173.6243433754223
 20
233.8671264683184
 30
0.0
 11
173.4743433754223
 21
233.8671264683183
 31
0.0
  0
LINE
  5
A32
330
1F
100
AcDbEntity
  8
0
100
AcDbLine
 10
168.0169063430681
 20
236.1071264683181
 30
0.0
 11
168.8924148355769
 21
235.5269364360923
 31
0.0
  0
LINE
  5
A33
330
1F
100
AcDbEntity
  8
0
100
AcDbLine
 10
168.8924148355769
 20
235.9460759921554
 30
0.0
 11
168.8924148355769
 21
235.5269364360923
 31
0.0
  0
LINE
  5
A35
330
1F
100
AcDbEntity
  8
0
100
AcDbLine
 10
168.8924148355769
 20
235.9460759921554
 30
0.0
 11
171.7259492836116
 21
235.9460759921554
 31
0.0
  0
LINE
  5
A36
330
1F
100
AcDbEntity
  8
0
100
AcDbLine
 10
173.6243433754225
 20
236.1071264683181
 30
0.0
 11
173.6243433754223
 21
231.8071264683183
 31
0.0
  0
LINE
  5
A3D
330
1F
100
AcDbEntity
  8
0
100
AcDbLine
 10
171.7259492836116
 20
236.2681769444775
 30
0.0
 11
171.7259492836116
 21
235.9460759921554
 31
0.0
  0
LINE
  5
A3E
330
1F
100
AcDbEntity
  8
0
100
AcDbLine
 10
168.8924148355769
 20
236.6873165005439
 30
0.0
 11
168.8924148355769
 21
236.2681769444775
 31
0.0
  0
LINE
  5
A3F
330
1F
100
AcDbEntity
  8
0
100
AcDbLine
 10
168.0169063430681
 20
236.1071264683181
 30
0.0
 11
168.8924148355769
 21
236.6873165005439
 31
0.0
  0
LINE
  5
A40
330
1F
100
AcDbEntity
  8
0
100
AcDbLine
 10
168.8924148355769
 20
236.2681769444775
 30
0.0
 11
171.7259492836116
 21
236.2681769444775
 31
0.0
  0
CIRCLE
  5
A42
330
1F
100
AcDbEntity
  8
0
100
AcDbCircle
 10
169.9243433754225
 20
236.1071264683181
 30
0.0
 40
1.907437032355004
  0
LINE
  5
A43
330
1F
100
AcDbEntity
  8
0
100
AcDbLine
 10
168.8924143754225
 20
236.2681764683183
 30
0.0
 11
171.7259493754224
 21
236.2681764683183
 31
0.0
  0
LINE
  5
A44
330
1F
100
AcDbEntity
  8
0
100
AcDbLine
 10
168.8924143754225
 20
236.6873164683181
 30
0.0
 11
168.8924143754225
 21
236.2681764683183
 31
0.0
  0
LINE
  5
A45
330
1F
100
AcDbEntity
  8
0
100
AcDbLine
 10
168.0169063754226
 20
236.1071264683181
 30
0.0
 11
168.8924143754225
 21
236.6873164683181
 31
0.0
  0
LINE
  5
A46
330
1F
100
AcDbEntity
  8
0
100
AcDbLine
 10
171.7259493754224
 20
236.2681764683183
 30
0.0
 11
171.7259493754224
 21
235.9460754683183
 31
0.0
  0
LINE
  5
A47
330
1F
100
AcDbEntity
  8
0
100
AcDbLine
 10
175.4743433754225
 20
286.3881384683177
 30
0.0
 11
175.4743433754225
 21
284.788138468318
 31
0.0
  0
LINE
  5
A48
330
1F
100
AcDbEntity
  8
0
100
AcDbLine
 10
175.2743433754226
 20
284.2331394683181
 30
0.0
 11
176.8743433754226
 21
284.2331394683181
 31
0.0
  0
LINE
  5
A49
330
1F
100
AcDbEntity
  8
0
100
AcDbLine
 10
175.4743433754225
 20
286.3881384683177
 30
0.0
 11
176.5743433754225
 21
286.3881384683177
 31
0.0
  0
LINE
  5
A4A
330
1F
100
AcDbEntity
  8
0
100
AcDbLine
 10
175.4743433754225
 20
286.3881384683177
 30
0.0
 11
176.5743433754225
 21
286.3881384683177
 31
0.0
  0
LINE
  5
A4B
330
1F
100
AcDbEntity
  8
0
100
AcDbLine
 10
175.4743433754225
 20
284.788138468318
 30
0.0
 11
176.5743433754225
 21
284.788138468318
 31
0.0
  0
LINE
  5
A4C
330
1F
100
AcDbEntity
  8
0
100
AcDbLine
 10
175.4743433754225
 20
284.788138468318
 30
0.0
 11
176.5743433754225
 21
284.788138468318
 31
0.0
  0
LINE
  5
A4D
330
1F
100
AcDbEntity
  8
0
100
AcDbLine
 10
176.5743433754225
 20
284.788138468318
 30
0.0
 11
176.5743433754225
 21
286.3881384683177
 31
0.0
  0
LINE
  5
A4E
330
1F
100
AcDbEntity
  8
0
100
AcDbLine
 10
176.5743433754225
 20
284.788138468318
 30
0.0
 11
176.5743433754225
 21
286.3881384683177
 31
0.0
  0
LINE
  5
A4F
330
1F
100
AcDbEntity
  8
0
100
AcDbLine
 10
176.5743433754225
 20
284.788138468318
 30
0.0
 11
176.5743433754225
 21
286.3881384683177
 31
0.0
  0
LINE
  5
A50
330
1F
100
AcDbEntity
  8
0
100
AcDbLine
 10
175.2743433754226
 20
286.9331394683183
 30
0.0
 11
176.8743433754226
 21
286.9331394683183
 31
0.0
  0
LINE
  5
A51
330
1F
100
AcDbEntity
  8
0
100
AcDbLine
 10
175.2743433754226
 20
286.9331394683183
 30
0.0
 11
175.2743433754226
 21
284.2331394683181
 31
0.0
  0
LINE
  5
A52
330
1F
100
AcDbEntity
  8
0
100
AcDbLine
 10
176.8743433754226
 20
284.2331394683181
 30
0.0
 11
176.8743433754226
 21
286.9331394683183
 31
0.0
  0
LINE
  5
A53
330
1F
100
AcDbEntity
  8
外枠
100
AcDbLine
 10
168.8743433754223
 20
210.0771118092651
 30
0.0
 11
173.8743433754223
 21
210.0771118092651
 31
0.0
  0
LINE
  5
A54
330
1F
100
AcDbEntity
  8
0
100
AcDbLine
 10
168.8743433754223
 20
192.1771118092651
 30
0.0
 11
173.8743433754223
 21
192.1771118092651
 31
0.0
  0
LINE
  5
A55
330
1F
100
AcDbEntity
  8
外枠
100
AcDbLine
 10
168.8743433754223
 20
192.1771118092651
 30
0.0
 11
173.8743433754223
 21
192.1771118092651
 31
0.0
  0
LINE
  5
A56
330
1F
100
AcDbEntity
  8
外枠
100
AcDbLine
 10
173.8743433754223
 20
174.3031384683171
 30
0.0
 11
173.8743433754223
 21
143.8331394683183
 31
0.0
  0
LINE
  5
A57
330
1F
100
AcDbEntity
  8
外枠
100
AcDbLine
 10
173.8743433754223
 20
184.5031384683163
 30
0.0
 11
173.8743433754223
 21
185.2531384683178
 31
0.0
  0
LINE
  5
A58
330
1F
100
AcDbEntity
  8
外枠
100
AcDbLine
 10
173.8743433754223
 20
190.2531384683179
 30
0.0
 11
173.8743433754223
 21
192.1771118092651
 31
0.0
  0
LINE
  5
A59
330
1F
100
AcDbEntity
  8
外枠
100
AcDbLine
 10
173.8743433754223
 20
210.0771118092651
 30
0.0
 11
173.8743433754223
 21
211.6571264683183
 31
0.0
  0
LINE
  5
A5A
330
1F
100
AcDbEntity
  8
外枠
100
AcDbLine
 10
173.8743433754223
 20
225.6571264683183
 30
0.0
 11
173.8743433754223
 21
226.4071264683183
 31
0.0
  0
LINE
  5
A5B
330
1F
100
AcDbEntity
  8
外枠
100
AcDbLine
 10
173.8743433754223
 20
231.4071264683183
 30
0.0
 11
173.8743433754223
 21
231.8071264683183
 31
0.0
  0
LINE
  5
A5C
330
1F
100
AcDbEntity
  8
0
 62
     0
100
AcDbLine
 10
174.0742690628737
 20
286.8940469066741
 30
0.0
 11
174.0742690628737
 21
284.1940469066733
 31
0.0
  0
LINE
  5
A5D
330
1F
100
AcDbEntity
  8
0
 62
     0
100
AcDbLine
 10
172.4742690628734
 20
284.1940469066733
 30
0.0
 11
172.4742690628734
 21
286.8940469066741
 31
0.0
  0
LINE
  5
A5E
330
1F
100
AcDbEntity
  8
0
 62
     0
100
AcDbLine
 10
174.0742690628737
 20
286.8940469066741
 30
0.0
 11
172.4742690628734
 21
286.8940469066741
 31
0.0
  0
LINE
  5
A5F
330
1F
100
AcDbEntity
  8
0
 62
     0
100
AcDbLine
 10
174.0742690628737
 20
284.1940469066733
 30
0.0
 11
172.4742690628734
 21
284.1940469066733
 31
0.0
  0
LINE
  5
A60
330
1F
100
AcDbEntity
  8
0
100
AcDbLine
 10
174.0742690628737
 20
281.3940509067134
 30
0.0
 11
174.0742690628737
 21
278.6940509067128
 31
0.0
  0
LINE
  5
A61
330
1F
100
AcDbEntity
  8
0
100
AcDbLine
 10
172.4742690628734
 20
278.6940509067128
 30
0.0
 11
172.4742690628734
 21
281.3940509067134
 31
0.0
  0
LINE
  5
A62
330
1F
100
AcDbEntity
  8
0
 62
     0
100
AcDbLine
 10
174.0742690628737
 20
281.3940509067134
 30
0.0
 11
172.4742690628734
 21
281.3940509067134
 31
0.0
  0
LINE
  5
A63
330
1F
100
AcDbEntity
  8
0
100
AcDbLine
 10
174.0742690628737
 20
278.6940509067128
 30
0.0
 11
172.4742690628734
 21
278.6940509067128
 31
0.0
  0
LINE
  5
A64
330
1F
100
AcDbEntity
  8
0
100
AcDbLine
 10
172.77434337542
 20
279.3940509067118
 30
0.0
 11
173.8743433754223
 21
279.3940509067118
 31
0.0
  0
LINE
  5
A65
330
1F
100
AcDbEntity
  8
0
100
AcDbLine
 10
172.77434337542
 20
280.6940509067112
 30
0.0
 11
173.8743433754223
 21
280.6940509067112
 31
0.0
  0
LINE
  5
A66
330
1F
100
AcDbEntity
  8
0
100
AcDbLine
 10
172.77434337542
 20
280.6940509067112
 30
0.0
 11
173.8743433754223
 21
280.6940509067112
 31
0.0
  0
LINE
  5
A67
330
1F
100
AcDbEntity
  8
0
100
AcDbLine
 10
172.77434337542
 20
279.3940509067118
 30
0.0
 11
173.8743433754223
 21
279.3940509067118
 31
0.0
  0
LINE
  5
A68
330
1F
100
AcDbEntity
  8
0
100
AcDbLine
 10
172.77434337542
 20
279.3940509067135
 30
0.0
 11
172.77434337542
 21
280.6940509067126
 31
0.0
  0
LINE
  5
A69
330
1F
100
AcDbEntity
  8
外枠
 62
     0
100
AcDbLine
 10
172.77434337542
 20
284.8940509067118
 30
0.0
 11
173.8743433754223
 21
284.8940509067118
 31
0.0
  0
LINE
  5
A6A
330
1F
100
AcDbEntity
  8
外枠
 62
     0
100
AcDbLine
 10
172.77434337542
 20
286.1940509067111
 30
0.0
 11
173.8743433754223
 21
286.1940509067111
 31
0.0
  0
LINE
  5
A6B
330
1F
100
AcDbEntity
  8
外枠
 62
     0
100
AcDbLine
 10
172.77434337542
 20
286.1940509067111
 30
0.0
 11
173.8743433754223
 21
286.1940509067111
 31
0.0
  0
LINE
  5
A6C
330
1F
100
AcDbEntity
  8
外枠
 62
     0
100
AcDbLine
 10
172.77434337542
 20
284.8940509067118
 30
0.0
 11
173.8743433754223
 21
284.8940509067118
 31
0.0
  0
LINE
  5
A6D
330
1F
100
AcDbEntity
  8
外枠
 62
     0
100
AcDbLine
 10
172.77434337542
 20
284.8940509067134
 30
0.0
 11
172.77434337542
 21
286.1940509067126
 31
0.0
  0
LINE
  5
A6E
330
1F
100
AcDbEntity
  8
0
 62
     0
100
AcDbLine
 10
173.8743433754223
 20
286.1940509067111
 30
0.0
 11
173.8743433754223
 21
284.8940509067118
 31
0.0
  0
LINE
  5
A6F
330
1F
100
AcDbEntity
  8
0
100
AcDbLine
 10
173.8743433754223
 20
280.6940509067112
 30
0.0
 11
173.8743433754223
 21
279.3940509067118
 31
0.0
  0
LINE
  5
A70
330
1F
100
AcDbEntity
  8
0
100
AcDbLine
 10
170.4742441754223
 20
244.511444430763
 30
0.0
 11
170.4742441754223
 21
276.8114480307606
 31
0.0
  0
LINE
  5
A71
330
1F
100
AcDbEntity
  8
0
100
AcDbLine
 10
156.0743433754231
 20
243.2321204265064
 30
0.0
 11
156.0743433754231
 21
138.9331384683202
 31
0.0
  0
LINE
  5
A72
330
1F
100
AcDbEntity
  8
0
100
AcDbLine
 10
156.0743433754231
 20
277.8902890265044
 30
0.0
 11
156.0743433754231
 21
291.7331384683196
 31
0.0
  0
LINE
  5
A78
330
1F
100
AcDbEntity
  8
CLASS1
100
AcDbLine
 10
334.4485656496792
 20
133.827462468318
 30
0.0
 11
334.4485656496792
 21
138.828752468318
 31
0.0
  0
LINE
  5
A79
330
1F
100
AcDbEntity
  8
CLASS1
100
AcDbLine
 10
268.8260486496793
 20
135.3054474683181
 30
0.0
 11
334.4485656496792
 21
133.827462468318
 31
0.0
  0
LINE
  5
A7A
330
1F
100
AcDbEntity
  8
CLASS1
100
AcDbLine
 10
336.9485656496793
 20
305.3290114683178
 30
0.0
 11
336.9485656496791
 21
126.8290114683179
 31
0.0
  0
LINE
  5
A7B
330
1F
100
AcDbEntity
  8
CLASS1
100
AcDbLine
 10
288.9255639073028
 20
266.4990114683178
 30
0.0
 11
335.4485656496793
 21
267.5790114683179
 31
0.0
  0
LINE
  5
A7C
330
1F
100
AcDbEntity
  8
CLASS1
100
AcDbLine
 10
289.425563649679
 20
266.2701204683179
 30
0.0
 11
335.4485656496793
 21
267.3290114683179
 31
0.0
  0
LINE
  5
A7D
330
1F
100
AcDbEntity
  8
CLASS1
100
AcDbLine
 10
310.3278906496793
 20
221.9440114683183
 30
0.0
 11
315.553740649679
 21
221.9440114683183
 31
0.0
  0
LINE
  5
A7E
330
1F
100
AcDbEntity
  8
CLASS1
100
AcDbLine
 10
310.3278906496793
 20
221.9440114683183
 30
0.0
 11
315.553740649679
 21
221.9440114683183
 31
0.0
  0
LINE
  5
A7F
330
1F
100
AcDbEntity
  8
CLASS1
100
AcDbLine
 10
313.1723406496792
 20
208.7140114683179
 30
0.0
 11
318.1335906496789
 21
208.7140114683179
 31
0.0
  0
LINE
  5
A80
330
1F
100
AcDbEntity
  8
CLASS1
100
AcDbLine
 10
313.1723406496792
 20
208.7140114683179
 30
0.0
 11
318.1335906496789
 21
208.7140114683179
 31
0.0
  0
HATCH
  5
A81
330
1F
100
AcDbEntity
  8
CLASS1
100
AcDbHatch
 10
0.0
 20
0.0
 30
0.0
210
0.0
220
0.0
230
1.0
  2
SOLID
 70
     1
 71
     0
 91
        1
 92
        1
 93
       13
 72
     1
 10
307.4243778859984
 20
212.0215113032194
 11
306.2931771481698
 21
210.3131175622745
 72
     2
 10
307.2859675088786
 20
209.6557485017193
 40
1.190699999999956
 50
866.48975
 51
952.2706859999995
 73
     1
 72
     1
 10
306.5573403484181
 20
208.7140113032194
 11
301.7945404733788
 21
208.7140113032194
 72
     1
 10
301.7945404733788
 20
208.7140113032194
 11
310.552844302538
 21
220.6300707772284
 72
     2
 10
309.8066258273786
 20
221.1785413637193
 40
0.9261000000000107
 50
1043.684112999998
 51
1135.746171999999
 73
     1
 72
     1
 10
310.3278906177894
 20
221.9440113032193
 11
315.5537404733788
 21
221.9440113032193
 72
     1
 10
315.5537404733788
 20
221.9440113032193
 11
318.1335904733791
 21
208.7140113032194
 72
     1
 10
318.1335904733791
 20
208.7140113032194
 11
313.172340473379
 21
208.7140113032194
 72
     1
 10
313.172340473379
 20
208.7140113032194
 11
312.5273779733791
 21
212.0215113032194
 72
     1
 10
312.5273779733791
 20
212.0215113032194
 11
312.1919974733789
 21
213.7414113032194
 72
     1
 10
312.1919974733789
 20
213.7414113032194
 11
311.3664454733793
 21
217.9750113032191
 72
     1
 10
311.3664454733793
 20
217.9750113032191
 11
308.5631974112414
 21
213.7414113032194
 72
     1
 10
308.5631974112414
 20
213.7414113032194
 11
307.4243778859984
 21
212.0215113032194
 97
        0
 75
     0
 76
     1
 98
        1
 10
242.5140536496789
 20
195.1147284683181
  0
HATCH
  5
A82
330
1F
100
AcDbEntity
  8
CLASS1
100
AcDbHatch
 10
0.0
 20
0.0
 30
0.0
210
0.0
220
0.0
230
1.0
  2
SOLID
 70
     1
 71
     0
 91
        1
 92
        1
 93
       13
 72
     1
 10
307.424377885998
 20
212.0215113032194
 11
306.2931771481691
 21
210.3131175622745
 72
     2
 10
307.2859675088786
 20
209.6557485017193
 40
1.190699999999956
 50
866.48975
 51
952.2706859999995
 73
     1
 72
     1
 10
306.5573403484181
 20
208.7140113032194
 11
301.7945404733787
 21
208.7140113032194
 72
     1
 10
301.7945404733785
 20
208.7140113032194
 11
310.5528443025376
 21
220.6300707772284
 72
     2
 10
309.8066258273786
 20
221.1785413637193
 40
0.9261000000000107
 50
1043.684112999998
 51
1135.746171999999
 73
     1
 72
     1
 10
310.3278906177891
 20
221.9440113032193
 11
315.5537404733783
 21
221.9440113032193
 72
     1
 10
315.5537404733783
 20
221.9440113032193
 11
318.1335904733785
 21
208.7140113032194
 72
     1
 10
318.1335904733785
 20
208.7140113032194
 11
313.1723404733786
 21
208.7140113032194
 72
     1
 10
313.1723404733786
 20
208.7140113032194
 11
312.5273779733788
 21
212.0215113032194
 72
     1
 10
312.5273779733788
 20
212.0215113032194
 11
312.1919974733784
 21
213.7414113032194
 72
     1
 10
312.1919974733784
 20
213.7414113032194
 11
311.3664454733787
 21
217.9750113032191
 72
     1
 10
311.3664454733787
 20
217.9750113032191
 11
308.5631974112411
 21
213.7414113032194
 72
     1
 10
308.5631974112414
 20
213.7414113032194
 11
307.4243778859983
 21
212.0215113032194
 97
        0
 75
     0
 76
     1
 98
        1
 10
242.5140536496789
 20
195.1147284683181
  0
LINE
  5
A83
330
1F
100
AcDbEntity
  8
CLASS1
100
AcDbLine
 10
274.9808376496797
 20
290.4579134683183
 30
0.0
 11
334.4255636496793
 21
291.8256094683179
 31
0.0
  0
LINE
  5
A84
330
1F
100
AcDbEntity
  8
CLASS1
100
AcDbLine
 10
268.8260486496794
 20
295.3494774683183
 30
0.0
 11
334.4485656496792
 21
296.8274624683183
 31
0.0
  0
LINE
  5
A85
330
1F
100
AcDbEntity
  8
CLASS1
100
AcDbLine
 10
288.737546387079
 20
164.1590114683179
 30
0.0
 11
335.4485656496789
 21
163.0790114683179
 31
0.0
  0
LINE
  5
A86
330
1F
100
AcDbEntity
  8
CLASS1
100
AcDbLine
 10
289.425563649679
 20
164.387902468318
 30
0.0
 11
335.4485656496789
 21
163.3290114683179
 31
0.0
  0
LINE
  5
A87
330
1F
100
AcDbEntity
  8
CLASS1
100
AcDbLine
 10
334.4258446496791
 20
138.8292694683181
 30
0.0
 11
274.9811176496791
 21
140.1802864683179
 31
0.0
  0
LINE
  5
A88
330
1F
100
AcDbEntity
  8
CLASS1
100
AcDbLine
 10
287.9485656496793
 20
265.5016677986663
 30
0.0
 11
287.9485656496791
 21
165.1414379954502
 31
0.0
  0
LINE
  5
A89
330
1F
100
AcDbEntity
  8
CLASS1
100
AcDbLine
 10
288.4485656496792
 20
165.3876374683179
 30
0.0
 11
288.4485656496792
 21
265.2703854683177
 31
0.0
  0
LINE
  5
A8A
330
1F
100
AcDbEntity
  8
CLASS1
100
AcDbLine
 10
274.0038396496794
 20
289.4581784683181
 30
0.0
 11
274.0038396496794
 21
141.1800284683182
 31
0.0
  0
LINE
  5
A8B
330
1F
100
AcDbEntity
  8
CLASS1
100
AcDbLine
 10
268.1485656496793
 20
137.827462468318
 30
0.0
 11
268.1485656496796
 21
292.8274624683183
 31
0.0
  0
LINE
  5
A8C
330
1F
100
AcDbEntity
  8
CLASS1
100
AcDbLine
 10
268.632891649679
 20
137.827462468318
 30
0.0
 11
268.6328916496793
 21
292.8274624683183
 31
0.0
  0
LINE
  5
A8D
330
1F
100
AcDbEntity
  8
CLASS1
100
AcDbLine
 10
268.904042649679
 20
136.281421468318
 30
0.0
 11
268.9040426496794
 21
294.3735034683181
 31
0.0
  0
ARC
  5
A8E
330
1F
100
AcDbEntity
  8
CLASS1
100
AcDbCircle
 10
268.8485656496792
 20
294.3497314683181
 30
0.0
 40
1.0
100
AcDbArc
 50
91.29022700000518
 51
180.0
  0
LINE
  5
A8F
330
1F
100
AcDbEntity
  8
CLASS1
100
AcDbLine
 10
268.6328916496793
 20
292.8274624683183
 30
0.0
 11
267.8485656496793
 21
292.8274624683183
 31
0.0
  0
LINE
  5
A90
330
1F
100
AcDbEntity
  8
CLASS1
100
AcDbLine
 10
267.8485656496793
 20
294.3497314683181
 30
0.0
 11
267.8485656496793
 21
292.8274624683183
 31
0.0
  0
ARC
  5
A91
330
1F
100
AcDbEntity
  8
CLASS1
100
AcDbCircle
 10
269.9040426496791
 20
294.3735034683181
 30
0.0
 40
1.0
100
AcDbArc
 50
91.29022700000518
 51
180.0
  0
ARC
  5
A92
330
1F
100
AcDbEntity
  8
CLASS1
100
AcDbCircle
 10
275.0038396496796
 20
289.4581784683181
 30
0.0
 40
1.0
100
AcDbArc
 50
91.31802100000404
 51
180.0
  0
ARC
  5
A93
330
1F
100
AcDbEntity
  8
CLASS1
100
AcDbCircle
 10
288.9485627892698
 20
265.4992759769916
 30
0.0
 40
1.0
100
AcDbArc
 50
91.31801900000615
 51
180.0
  0
ARC
  5
A94
330
1F
100
AcDbEntity
  8
CLASS1
100
AcDbCircle
 10
289.4485656496793
 20
265.2703854683181
 30
0.0
 40
1.0
100
AcDbArc
 50
91.31801899999313
 51
180.0
  0
LINE
  5
A95
330
1F
100
AcDbEntity
  8
0
100
AcDbLine
 10
267.6485656496796
 20
227.4071264683183
 30
0.0
 11
267.6485656496796
 21
230.4071264683183
 31
0.0
  0
LINE
  5
A96
330
1F
100
AcDbEntity
  8
0
100
AcDbLine
 10
267.6485656496796
 20
227.4071264683183
 30
0.0
 11
268.6328916496793
 21
227.4071264683183
 31
0.0
  0
LINE
  5
A97
330
1F
100
AcDbEntity
  8
0
100
AcDbLine
 10
267.6485656496796
 20
230.4071264683183
 30
0.0
 11
268.6328916496793
 21
230.4071264683183
 31
0.0
  0
LINE
  5
A98
330
1F
100
AcDbEntity
  8
0
100
AcDbLine
 10
267.6485656496796
 20
186.2531384683179
 30
0.0
 11
267.6485656496796
 21
189.2531384683179
 31
0.0
  0
LINE
  5
A99
330
1F
100
AcDbEntity
  8
0
100
AcDbLine
 10
267.6485656496796
 20
186.2531384683179
 30
0.0
 11
268.6328916496793
 21
186.2531384683179
 31
0.0
  0
LINE
  5
A9A
330
1F
100
AcDbEntity
  8
0
100
AcDbLine
 10
267.6485656496796
 20
189.2531384683179
 30
0.0
 11
268.6328916496793
 21
189.2531384683179
 31
0.0
  0
LINE
  5
A9B
330
1F
100
AcDbEntity
  8
CLASS1
100
AcDbLine
 10
268.632891649679
 20
137.827462468318
 30
0.0
 11
267.8485656496791
 21
137.827462468318
 31
0.0
  0
LINE
  5
A9C
330
1F
100
AcDbEntity
  8
CLASS1
100
AcDbLine
 10
267.8485656496791
 20
136.305193468318
 30
0.0
 11
267.8485656496791
 21
137.827462468318
 31
0.0
  0
ARC
  5
A9D
330
1F
100
AcDbEntity
  8
CLASS1
100
AcDbCircle
 10
268.8485656496788
 20
136.305193468318
 30
0.0
 40
1.0
100
AcDbArc
 50
180.0
 51
268.7097729999947
  0
ARC
  5
A9E
330
1F
100
AcDbEntity
  8
CLASS1
100
AcDbCircle
 10
269.9040426496786
 20
136.281421468318
 30
0.0
 40
1.0
100
AcDbArc
 50
180.0
 51
268.7097729999947
  0
LINE
  5
A9F
330
1F
100
AcDbEntity
  8
CLASS1
100
AcDbLine
 10
301.9268406496792
 20
221.9440114683183
 30
0.0
 11
299.1485406496792
 21
208.7140114683179
 31
0.0
  0
LINE
  5
AA0
330
1F
100
AcDbEntity
  8
CLASS1
100
AcDbLine
 10
301.9268406496792
 20
221.9440114683183
 30
0.0
 11
299.1485406496792
 21
208.7140114683179
 31
0.0
  0
HATCH
  5
AA1
330
1F
100
AcDbEntity
  8
CLASS1
100
AcDbHatch
 10
0.0
 20
0.0
 30
0.0
210
0.0
220
0.0
230
1.0
  2
SOLID
 70
     1
 71
     0
 91
        1
 92
        1
 93
        5
 72
     1
 10
294.3857404733788
 20
208.7140113032194
 11
296.8400828000856
 21
220.4013584566076
 72
     2
 10
295.4158487798788
 20
220.7004475307193
 40
1.455300000000043
 50
1068.140224
 51
1138.705292999999
 73
     1
 72
     1
 10
296.1717900697456
 20
221.9440113032193
 11
301.9268404733791
 21
221.9440113032193
 72
     1
 10
301.9268404733791
 20
221.9440113032193
 11
299.1485404733788
 21
208.7140113032194
 72
     1
 10
299.1485404733788
 20
208.7140113032194
 11
294.3857404733788
 21
208.7140113032194
 97
        0
 75
     0
 76
     1
 98
        1
 10
242.5140536496789
 20
195.1147284683181
  0
LINE
  5
AA2
330
1F
100
AcDbEntity
  8
CLASS1
100
AcDbLine
 10
296.8400826496793
 20
220.4013584683178
 30
0.0
 11
294.3857406496793
 21
208.7140114683179
 31
0.0
  0
LINE
  5
AA3
330
1F
100
AcDbEntity
  8
CLASS1
100
AcDbLine
 10
296.8400826496793
 20
220.4013584683178
 30
0.0
 11
294.3857406496793
 21
208.7140114683179
 31
0.0
  0
HATCH
  5
AA4
330
1F
100
AcDbEntity
  8
CLASS1
100
AcDbHatch
 10
0.0
 20
0.0
 30
0.0
210
0.0
220
0.0
230
1.0
  2
SOLID
 70
     1
 71
     0
 91
        1
 92
        1
 93
        5
 72
     1
 10
294.3857404733788
 20
208.7140113032194
 11
296.8400828000854
 21
220.4013584566076
 72
     2
 10
295.4158487798788
 20
220.7004475307193
 40
1.455300000000043
 50
1068.140224
 51
1138.705292999999
 73
     1
 72
     1
 10
296.1717900697456
 20
221.9440113032193
 11
301.9268404733788
 21
221.9440113032193
 72
     1
 10
301.9268404733786
 20
221.9440113032193
 11
299.1485404733786
 21
208.7140113032194
 72
     1
 10
299.1485404733788
 20
208.7140113032194
 11
294.3857404733788
 21
208.7140113032194
 97
        0
 75
     0
 76
     1
 98
        1
 10
242.5140536496789
 20
195.1147284683181
  0
LINE
  5
AA5
330
1F
100
AcDbEntity
  8
CLASS1
100
AcDbLine
 10
310.5528436496791
 20
220.6300704683181
 30
0.0
 11
301.794540649679
 21
208.7140114683179
 31
0.0
  0
LINE
  5
AA6
330
1F
100
AcDbEntity
  8
CLASS1
100
AcDbLine
 10
310.5528436496791
 20
220.6300704683181
 30
0.0
 11
301.794540649679
 21
208.7140114683179
 31
0.0
  0
LINE
  5
AA7
330
1F
100
AcDbEntity
  8
CLASS1
100
AcDbLine
 10
301.9268406496792
 20
221.9440114683183
 30
0.0
 11
296.171790649679
 21
221.9440114683183
 31
0.0
  0
LINE
  5
AA8
330
1F
100
AcDbEntity
  8
CLASS1
100
AcDbLine
 10
301.9268406496792
 20
221.9440114683183
 30
0.0
 11
296.171790649679
 21
221.9440114683183
 31
0.0
  0
ARC
  5
AA9
330
1F
100
AcDbEntity
  8
CLASS1
100
AcDbCircle
 10
295.4158486496788
 20
220.7004474683183
 30
0.0
 40
1.4553
100
AcDbArc
 50
348.1402210000033
 51
58.70528200000129
  0
ARC
  5
AAA
330
1F
100
AcDbEntity
  8
CLASS1
100
AcDbCircle
 10
295.4158486496788
 20
220.7004474683183
 30
0.0
 40
1.4553
100
AcDbArc
 50
348.1402210000033
 51
58.70528200000129
  0
ARC
  5
AAB
330
1F
100
AcDbEntity
  8
CLASS1
100
AcDbCircle
 10
309.8066256496788
 20
221.1785414683181
 30
0.0
 40
0.9261000000000001
100
AcDbArc
 50
323.6841139999957
 51
55.74619900000929
  0
ARC
  5
AAC
330
1F
100
AcDbEntity
  8
CLASS1
100
AcDbCircle
 10
309.8066256496788
 20
221.1785414683181
 30
0.0
 40
0.9261000000000001
100
AcDbArc
 50
323.6841139999957
 51
55.74619900000929
  0
LINE
  5
AAD
330
1F
100
AcDbEntity
  8
CLASS1
100
AcDbLine
 10
301.794540649679
 20
208.7140114683179
 30
0.0
 11
306.5573406496789
 21
208.7140114683179
 31
0.0
  0
LINE
  5
AAE
330
1F
100
AcDbEntity
  8
CLASS1
100
AcDbLine
 10
301.794540649679
 20
208.7140114683179
 30
0.0
 11
306.5573406496789
 21
208.7140114683179
 31
0.0
  0
ARC
  5
AAF
330
1F
100
AcDbEntity
  8
CLASS1
100
AcDbCircle
 10
305.1251756496788
 20
209.7603854683185
 30
0.0
 40
1.323
100
AcDbArc
 50
146.4897499999914
 51
232.2706919999894
  0
ARC
  5
AB0
330
1F
100
AcDbEntity
  8
CLASS1
100
AcDbCircle
 10
305.1251756496788
 20
209.7603854683185
 30
0.0
 40
1.323
100
AcDbArc
 50
146.4897499999914
 51
232.2706919999894
  0
LINE
  5
AB1
330
1F
100
AcDbEntity
  8
CLASS1
100
AcDbLine
 10
299.1485406496792
 20
208.7140114683179
 30
0.0
 11
294.3857406496793
 21
208.7140114683179
 31
0.0
  0
LINE
  5
AB2
330
1F
100
AcDbEntity
  8
CLASS1
100
AcDbLine
 10
299.1485406496792
 20
208.7140114683179
 30
0.0
 11
294.3857406496793
 21
208.7140114683179
 31
0.0
  0
LINE
  5
AB3
330
1F
100
AcDbEntity
  8
CLASS1
100
AcDbLine
 10
311.3664456496791
 20
217.9750114683181
 30
0.0
 11
313.1723406496792
 21
208.7140114683179
 31
0.0
  0
LINE
  5
AB4
330
1F
100
AcDbEntity
  8
CLASS1
100
AcDbLine
 10
311.3664456496791
 20
217.9750114683181
 30
0.0
 11
313.1723406496792
 21
208.7140114683179
 31
0.0
  0
SOLID
  5
AB5
330
1F
100
AcDbEntity
  8
CLASS1
100
AcDbTrace
 10
307.4243776496789
 20
212.0215114683182
 30
0.0
 11
308.5631976496791
 21
213.7414114683183
 31
0.0
 12
312.527377649679
 22
212.0215114683182
 32
0.0
 13
312.1919976496789
 23
213.7414114683183
 33
0.0
  0
SOLID
  5
AB6
330
1F
100
AcDbEntity
  8
CLASS1
100
AcDbTrace
 10
307.4243776496789
 20
212.0215114683182
 30
0.0
 11
308.5631976496791
 21
213.7414114683183
 31
0.0
 12
312.527377649679
 22
212.0215114683182
 32
0.0
 13
312.1919976496789
 23
213.7414114683183
 33
0.0
  0
LINE
  5
AB7
330
1F
100
AcDbEntity
  8
CLASS1
100
AcDbLine
 10
311.3664456496791
 20
217.9750114683181
 30
0.0
 11
306.2931766496793
 21
210.3131174683182
 31
0.0
  0
LINE
  5
AB8
330
1F
100
AcDbEntity
  8
CLASS1
100
AcDbLine
 10
311.3664456496791
 20
217.9750114683181
 30
0.0
 11
306.2931766496793
 21
210.3131174683182
 31
0.0
  0
ARC
  5
AB9
330
1F
100
AcDbEntity
  8
CLASS1
100
AcDbCircle
 10
288.9483343415001
 20
165.1363200525207
 30
0.0
 40
0.9997817914353085
100
AcDbArc
 50
179.706698188669
 51
257.828771090005
  0
ARC
  5
ABA
330
1F
100
AcDbEntity
  8
CLASS1
100
AcDbCircle
 10
289.4485656496788
 20
165.3876374683183
 30
0.0
 40
1.0
100
AcDbArc
 50
180.0
 51
268.6819809999938
  0
ARC
  5
ABB
330
1F
100
AcDbEntity
  8
CLASS1
100
AcDbCircle
 10
275.003839649679
 20
141.1800284683182
 30
0.0
 40
1.0
100
AcDbArc
 50
180.0
 51
268.6980460000063
  0
LINE
  5
ABC
330
1F
100
AcDbEntity
  8
CLASS1
100
AcDbLine
 10
335.4485656496793
 20
290.825874468318
 30
0.0
 11
335.4485656496789
 21
139.829011468318
 31
0.0
  0
LINE
  5
ABD
330
1F
100
AcDbEntity
  8
CLASS1
100
AcDbLine
 10
335.4485656496789
 20
163.3290114683179
 30
0.0
 11
335.4485656496793
 21
267.3290114683179
 31
0.0
  0
LINE
  5
ABE
330
1F
100
AcDbEntity
  8
CLASS1
100
AcDbLine
 10
335.4485656496789
 20
152.3261004683179
 30
0.0
 11
335.4485656496793
 21
278.3319224683181
 31
0.0
  0
LINE
  5
ABF
330
1F
100
AcDbEntity
  8
0
100
AcDbLine
 10
334.4485656496792
 20
296.8274624683183
 30
0.0
 11
334.4485656496792
 21
305.3290114683178
 31
0.0
  0
LINE
  5
AC0
330
1F
100
AcDbEntity
  8
CLASS1
100
AcDbLine
 10
334.4485656496792
 20
305.3290114683178
 30
0.0
 11
336.9485656496793
 21
305.3290114683178
 31
0.0
  0
ARC
  5
AC1
330
1F
100
AcDbEntity
  8
CLASS1
100
AcDbCircle
 10
334.4485656496792
 20
290.825874468318
 30
0.0
 40
1.0
100
AcDbArc
 50
0.0
 51
91.31802100000404
  0
LINE
  5
AC2
330
1F
100
AcDbEntity
  8
CLASS1
100
AcDbLine
 10
325.9485656496792
 20
269.8290114683178
 30
0.0
 11
325.9485656496792
 21
275.8290114683179
 31
0.0
  0
LINE
  5
AC3
330
1F
100
AcDbEntity
  8
CLASS1
100
AcDbLine
 10
329.4485656496793
 20
269.8290114683178
 30
0.0
 11
329.4485656496793
 21
275.8290114683179
 31
0.0
  0
LINE
  5
AC4
330
1F
100
AcDbEntity
  8
CLASS1
100
AcDbLine
 10
326.9381716496791
 20
275.3290114683177
 30
0.0
 11
326.9381716496789
 21
270.3290114683182
 31
0.0
  0
LINE
  5
AC5
330
1F
100
AcDbEntity
  8
CLASS1
100
AcDbLine
 10
328.9485656496793
 20
275.3290114683177
 30
0.0
 11
328.9485656496793
 21
270.3290114683182
 31
0.0
  0
LINE
  5
AC6
330
1F
100
AcDbEntity
  8
CLASS1
100
AcDbLine
 10
329.4485656496793
 20
275.3290114683177
 30
0.0
 11
329.4485656496793
 21
270.3290114683182
 31
0.0
  0
LINE
  5
AC7
330
1F
100
AcDbEntity
  8
CLASS1
100
AcDbLine
 10
334.4485656496792
 20
296.8274624683183
 30
0.0
 11
334.4485656496792
 21
291.826138468318
 31
0.0
  0
LINE
  5
AC8
330
1F
100
AcDbEntity
  8
CLASS1
100
AcDbLine
 10
325.9485656496792
 20
275.8290114683179
 30
0.0
 11
329.4485656496793
 21
275.8290114683179
 31
0.0
  0
LINE
  5
AC9
330
1F
100
AcDbEntity
  8
CLASS1
100
AcDbLine
 10
329.4485656496793
 20
275.3290114683177
 30
0.0
 11
326.9381716496791
 21
275.3290114683177
 31
0.0
  0
LINE
  5
ACA
330
1F
100
AcDbEntity
  8
CLASS1
100
AcDbLine
 10
325.9485656496792
 20
269.8290114683178
 30
0.0
 11
329.4485656496793
 21
269.8290114683178
 31
0.0
  0
LINE
  5
ACB
330
1F
100
AcDbEntity
  8
CLASS1
100
AcDbLine
 10
326.9381716496789
 20
270.3290114683182
 30
0.0
 11
329.4485656496793
 21
270.3290114683182
 31
0.0
  0
LINE
  5
ACC
330
1F
100
AcDbEntity
  8
CLASS1
100
AcDbLine
 10
315.553740649679
 20
221.9440114683183
 30
0.0
 11
318.1335906496789
 21
208.7140114683179
 31
0.0
  0
LINE
  5
ACD
330
1F
100
AcDbEntity
  8
CLASS1
100
AcDbLine
 10
315.553740649679
 20
221.9440114683183
 30
0.0
 11
318.1335906496789
 21
208.7140114683179
 31
0.0
  0
LINE
  5
ACE
330
1F
100
AcDbEntity
  8
CLASS1
100
AcDbLine
 10
329.5113906496793
 20
221.9440114683183
 30
0.0
 11
326.7330906496793
 21
208.7140114683179
 31
0.0
  0
LINE
  5
ACF
330
1F
100
AcDbEntity
  8
CLASS1
100
AcDbLine
 10
329.5113906496793
 20
221.9440114683183
 30
0.0
 11
326.7330906496793
 21
208.7140114683179
 31
0.0
  0
HATCH
  5
AD0
330
1F
100
AcDbEntity
  8
CLASS1
100
AcDbHatch
 10
0.0
 20
0.0
 30
0.0
210
0.0
220
0.0
230
1.0
  2
SOLID
 70
     1
 71
     0
 91
        1
 92
        1
 93
        5
 72
     1
 10
321.9702904733789
 20
208.7140113032194
 11
324.4246328000857
 21
220.4013584566076
 72
     2
 10
323.0003987798788
 20
220.7004475307193
 40
1.455300000000043
 50
1068.140224
 51
1138.705292999999
 73
     1
 72
     1
 10
323.7563400697456
 20
221.9440113032193
 11
329.5113904733787
 21
221.9440113032193
 72
     1
 10
329.5113904733787
 20
221.9440113032193
 11
326.7330904733788
 21
208.7140113032194
 72
     1
 10
326.7330904733788
 20
208.7140113032194
 11
321.9702904733789
 21
208.7140113032194
 97
        0
 75
     0
 76
     1
 98
        1
 10
242.5140536496789
 20
195.1147284683181
  0
HATCH
  5
AD1
330
1F
100
AcDbEntity
  8
CLASS1
100
AcDbHatch
 10
0.0
 20
0.0
 30
0.0
210
0.0
220
0.0
230
1.0
  2
SOLID
 70
     1
 71
     0
 91
        1
 92
        1
 93
        5
 72
     1
 10
321.9702904733782
 20
208.7140113032194
 11
324.4246328000851
 21
220.4013584566076
 72
     2
 10
323.0003987798784
 20
220.7004475307193
 40
1.455300000000043
 50
1068.140224
 51
1138.705292999999
 73
     1
 72
     1
 10
323.7563400697456
 20
221.9440113032193
 11
329.5113904733784
 21
221.9440113032193
 72
     1
 10
329.5113904733787
 20
221.9440113032193
 11
326.7330904733789
 21
208.7140113032194
 72
     1
 10
326.7330904733788
 20
208.7140113032194
 11
321.9702904733785
 21
208.7140113032194
 97
        0
 75
     0
 76
     1
 98
        1
 10
242.5140536496789
 20
195.1147284683181
  0
LINE
  5
AD2
330
1F
100
AcDbEntity
  8
CLASS1
100
AcDbLine
 10
324.4246326496788
 20
220.4013584683178
 30
0.0
 11
321.9702906496788
 21
208.7140114683179
 31
0.0
  0
LINE
  5
AD3
330
1F
100
AcDbEntity
  8
CLASS1
100
AcDbLine
 10
324.4246326496788
 20
220.4013584683178
 30
0.0
 11
321.9702906496788
 21
208.7140114683179
 31
0.0
  0
LINE
  5
AD4
330
1F
100
AcDbEntity
  8
CLASS1
100
AcDbLine
 10
329.5113906496793
 20
221.9440114683183
 30
0.0
 11
323.7563406496789
 21
221.9440114683183
 31
0.0
  0
LINE
  5
AD5
330
1F
100
AcDbEntity
  8
CLASS1
100
AcDbLine
 10
329.5113906496793
 20
221.9440114683183
 30
0.0
 11
323.7563406496789
 21
221.9440114683183
 31
0.0
  0
ARC
  5
AD6
330
1F
100
AcDbEntity
  8
CLASS1
100
AcDbCircle
 10
323.0003986496788
 20
220.7004474683183
 30
0.0
 40
1.4553
100
AcDbArc
 50
348.1402210000033
 51
58.70528200000129
  0
ARC
  5
AD7
330
1F
100
AcDbEntity
  8
CLASS1
100
AcDbCircle
 10
323.0003986496788
 20
220.7004474683183
 30
0.0
 40
1.4553
100
AcDbArc
 50
348.1402210000033
 51
58.70528200000129
  0
LINE
  5
AD8
330
1F
100
AcDbEntity
  8
CLASS1
100
AcDbLine
 10
326.7330906496793
 20
208.7140114683179
 30
0.0
 11
321.9702906496788
 21
208.7140114683179
 31
0.0
  0
LINE
  5
AD9
330
1F
100
AcDbEntity
  8
CLASS1
100
AcDbLine
 10
326.7330906496793
 20
208.7140114683179
 30
0.0
 11
321.9702906496788
 21
208.7140114683179
 31
0.0
  0
ARC
  5
ADA
330
1F
100
AcDbEntity
  8
CLASS1
100
AcDbCircle
 10
334.4485656496788
 20
139.829011468318
 30
0.0
 40
1.0
100
AcDbArc
 50
268.6980469999988
 51
0.0
  0
LINE
  5
ADB
330
1F
100
AcDbEntity
  8
CLASS1
100
AcDbLine
 10
325.9485656496792
 20
160.8290114683178
 30
0.0
 11
325.9485656496792
 21
154.8290114683179
 31
0.0
  0
LINE
  5
ADC
330
1F
100
AcDbEntity
  8
CLASS1
100
AcDbLine
 10
326.9381716496789
 20
155.3290114683179
 30
0.0
 11
326.9381716496789
 21
160.3290114683178
 31
0.0
  0
LINE
  5
ADD
330
1F
100
AcDbEntity
  8
CLASS1
100
AcDbLine
 10
328.9485656496791
 20
155.3290114683179
 30
0.0
 11
328.9485656496791
 21
160.3290114683178
 31
0.0
  0
LINE
  5
ADE
330
1F
100
AcDbEntity
  8
CLASS1
100
AcDbLine
 10
329.4485656496791
 20
160.8290114683178
 30
0.0
 11
329.4485656496791
 21
154.8290114683179
 31
0.0
  0
LINE
  5
ADF
330
1F
100
AcDbEntity
  8
CLASS1
100
AcDbLine
 10
329.4485656496791
 20
155.3290114683179
 30
0.0
 11
329.4485656496791
 21
160.3290114683178
 31
0.0
  0
LINE
  5
AE0
330
1F
100
AcDbEntity
  8
CLASS1
100
AcDbLine
 10
325.9485656496792
 20
154.8290114683179
 30
0.0
 11
329.4485656496791
 21
154.8290114683179
 31
0.0
  0
LINE
  5
AE1
330
1F
100
AcDbEntity
  8
CLASS1
100
AcDbLine
 10
325.9485656496792
 20
160.8290114683178
 30
0.0
 11
329.4485656496791
 21
160.8290114683178
 31
0.0
  0
LINE
  5
AE2
330
1F
100
AcDbEntity
  8
CLASS1
100
AcDbLine
 10
326.9381716496789
 20
160.3290114683178
 30
0.0
 11
329.4485656496791
 21
160.3290114683178
 31
0.0
  0
LINE
  5
AE3
330
1F
100
AcDbEntity
  8
CLASS1
100
AcDbLine
 10
329.4485656496791
 20
155.3290114683179
 30
0.0
 11
326.9381716496789
 21
155.3290114683179
 31
0.0
  0
LINE
  5
AE4
330
1F
100
AcDbEntity
  8
CLASS1
100
AcDbLine
 10
334.4485656496792
 20
126.8290114683179
 30
0.0
 11
336.9485656496791
 21
126.8290114683179
 31
0.0
  0
LINE
  5
AE5
330
1F
100
AcDbEntity
  8
0
100
AcDbLine
 10
334.4485656496792
 20
126.8290114683179
 30
0.0
 11
334.4485656496792
 21
133.827462468318
 31
0.0
  0
LINE
  5
AE8
330
1F
100
AcDbEntity
  8
CLASS1
  6
CONTINUOUS
 62
     0
100
AcDbLine
 10
163.9740600628754
 20
35.1000006905391
 30
0.0
 11
163.9740600628754
 21
33.1000006905391
 31
0.0
  0
LINE
  5
AE9
330
1F
100
AcDbEntity
  8
CLASS1
  6
CONTINUOUS
 62
     0
100
AcDbLine
 10
162.4740600628754
 20
35.1000006905391
 30
0.0
 11
162.4740600628754
 21
33.1000006905391
 31
0.0
  0
LINE
  5
AEA
330
1F
100
AcDbEntity
  8
CLASS1
  6
CONTINUOUS
 62
     0
100
AcDbLine
 10
175.4740600628753
 20
35.90000069053871
 30
0.0
 11
175.4740600628753
 21
25.90000069053871
 31
0.0
  0
LINE
  5
AEB
330
1F
100
AcDbEntity
  8
CLASS1
  6
CONTINUOUS
 62
     0
100
AcDbLine
 10
165.4740600628753
 20
25.90000069053871
 30
0.0
 11
165.4740600628753
 21
35.90000069053871
 31
0.0
  0
LINE
  5
AEC
330
1F
100
AcDbEntity
  8
CLASS1
  6
CONTINUOUS
 62
     0
100
AcDbLine
 10
166.9740600628755
 20
27.90000069053871
 30
0.0
 11
166.9740600628755
 21
33.90000069053872
 31
0.0
  0
LINE
  5
AED
330
1F
100
AcDbEntity
  8
CLASS1
  6
CONTINUOUS
 62
     0
100
AcDbLine
 10
173.9740600628755
 20
33.90000069053872
 30
0.0
 11
173.9740600628755
 21
27.90000069053871
 31
0.0
  0
LINE
  5
AEE
330
1F
100
AcDbEntity
  8
CLASS1
  6
CONTINUOUS
 62
     0
100
AcDbLine
 10
185.0589350628755
 20
61.9601266905388
 30
0.0
 11
185.9744610628753
 21
2.515399690538856
 31
0.0
  0
LINE
  5
AEF
330
1F
100
AcDbEntity
  8
CLASS1
  6
CONTINUOUS
 62
     0
100
AcDbLine
 10
151.8891840628753
 20
61.9601266905388
 30
0.0
 11
150.9736590628753
 21
2.515399690538856
 31
0.0
  0
LINE
  5
AF0
330
1F
100
AcDbEntity
  8
CLASS1
  6
CONTINUOUS
 62
     0
100
AcDbLine
 10
178.5604910628753
 20
61.79658569053902
 30
0.0
 11
179.4737350628755
 21
2.500000690538968
 31
0.0
  0
LINE
  5
AF1
330
1F
100
AcDbEntity
  8
CLASS1
  6
CONTINUOUS
 62
     0
100
AcDbLine
 10
158.3876600628752
 20
61.79859569053872
 30
0.0
 11
157.4743850628755
 21
2.500000690538968
 31
0.0
  0
LINE
  5
AF2
330
1F
100
AcDbEntity
  8
CLASS1
  6
CONTINUOUS
 62
     0
100
AcDbLine
 10
182.9779584846825
 20
68.1900731166595
 30
0.0
 11
183.9742690628751
 21
2.500000690538968
 31
0.0
  0
LINE
  5
AF3
330
1F
100
AcDbEntity
  8
CLASS1
  6
CONTINUOUS
 62
     0
100
AcDbLine
 10
153.9701616410681
 20
68.1900741166595
 30
0.0
 11
152.9738510628753
 21
2.500000690538968
 31
0.0
  0
INSERT
  5
AF4
330
1F
100
AcDbEntity
  8
0
100
AcDbBlockReference
  2
A$C51C20FFB
 10
152.9742690628752
 20
0.0000020278611146
 30
0.0
  0
LINE
  5
AF5
330
1F
100
AcDbEntity
  8
CLASS1
  6
CONTINUOUS
 62
     0
100
AcDbLine
 10
152.9738510628753
 20
2.500000690538968
 30
0.0
 11
183.9742690628751
 21
2.500000690538968
 31
0.0
  0
LINE
  5
AF6
330
1F
100
AcDbEntity
  8
CLASS1
  6
CONTINUOUS
 62
     0
100
AcDbLine
 10
183.9742690628751
 20
1.500000690538739
 30
0.0
 11
184.9745800628754
 21
1.500000690538739
 31
0.0
  0
ARC
  5
AF7
330
1F
100
AcDbEntity
  8
CLASS1
  6
CONTINUOUS
 62
     0
100
AcDbCircle
 10
184.9745800628754
 20
2.500000690539195
 30
0.0
 40
1.0
100
AcDbArc
 50
270.0
 51
0.8823590000053707
  0
LINE
  5
AF8
330
1F
100
AcDbEntity
  8
CLASS1
  6
CONTINUOUS
 62
     0
100
AcDbLine
 10
183.9742690628751
 20
1.500000690538739
 30
0.0
 11
183.9742690628751
 21
2.500000690538968
 31
0.0
  0
LINE
  5
AF9
330
1F
100
AcDbEntity
  8
CLASS1
  6
CONTINUOUS
 62
     0
100
AcDbLine
 10
173.4740600628754
 20
27.40000069053872
 30
0.0
 11
167.4740600628753
 21
27.40000069053872
 31
0.0
  0
LINE
  5
AFA
330
1F
100
AcDbEntity
  8
CLASS1
  6
CONTINUOUS
 62
     0
100
AcDbLine
 10
175.4740600628753
 20
25.90000069053871
 30
0.0
 11
165.4740600628753
 21
25.90000069053871
 31
0.0
  0
LINE
  5
AFB
330
1F
100
AcDbEntity
  8
CLASS1
  6
CONTINUOUS
 62
     0
100
AcDbLine
 10
174.4740600628755
 20
23.1000006905391
 30
0.0
 11
162.4740600628754
 21
23.1000006905391
 31
0.0
  0
LINE
  5
AFC
330
1F
100
AcDbEntity
  8
CLASS1
  6
CONTINUOUS
 62
     0
100
AcDbLine
 10
162.4740600628754
 20
21.1000006905391
 30
0.0
 11
174.4740600628755
 21
21.1000006905391
 31
0.0
  0
LINE
  5
AFD
330
1F
100
AcDbEntity
  8
CLASS1
  6
CONTINUOUS
 62
     0
100
AcDbLine
 10
174.4740600628755
 20
19.1000006905391
 30
0.0
 11
162.4740600628754
 21
19.1000006905391
 31
0.0
  0
LINE
  5
AFE
330
1F
100
AcDbEntity
  8
CLASS1
  6
CONTINUOUS
 62
     0
100
AcDbLine
 10
162.4740600628754
 20
17.1000006905391
 30
0.0
 11
174.4740600628755
 21
17.1000006905391
 31
0.0
  0
LINE
  5
AFF
330
1F
100
AcDbEntity
  8
CLASS1
  6
CONTINUOUS
 62
     0
100
AcDbLine
 10
174.4740600628755
 20
11.1000006905391
 30
0.0
 11
162.4740600628754
 21
11.1000006905391
 31
0.0
  0
LINE
  5
B00
330
1F
100
AcDbEntity
  8
CLASS1
  6
CONTINUOUS
 62
     0
100
AcDbLine
 10
162.4740600628754
 20
13.10000069053909
 30
0.0
 11
174.4740600628755
 21
13.10000069053909
 31
0.0
  0
LINE
  5
B01
330
1F
100
AcDbEntity
  8
CLASS1
  6
CONTINUOUS
 62
     0
100
AcDbLine
 10
174.4740600628755
 20
15.10000069053909
 30
0.0
 11
162.4740600628754
 21
15.10000069053909
 31
0.0
  0
LINE
  5
B02
330
1F
100
AcDbEntity
  8
CLASS1
  6
CONTINUOUS
 62
     0
100
AcDbLine
 10
162.4740600628754
 20
9.100000690539102
 30
0.0
 11
174.4740600628755
 21
9.100000690539102
 31
0.0
  0
LINE
  5
B03
330
1F
100
AcDbEntity
  8
CLASS1
  6
CONTINUOUS
 62
     0
100
AcDbLine
 10
174.4740600628755
 20
17.1000006905391
 30
0.0
 11
174.4740600628755
 21
19.1000006905391
 31
0.0
  0
LINE
  5
B04
330
1F
100
AcDbEntity
  8
CLASS1
  6
CONTINUOUS
 62
     0
100
AcDbLine
 10
174.4740600628755
 20
13.10000069053909
 30
0.0
 11
174.4740600628755
 21
15.10000069053909
 31
0.0
  0
LINE
  5
B05
330
1F
100
AcDbEntity
  8
CLASS1
  6
CONTINUOUS
 62
     0
100
AcDbLine
 10
174.4740600628755
 20
9.100000690539102
 30
0.0
 11
174.4740600628755
 21
11.1000006905391
 31
0.0
  0
LINE
  5
B06
330
1F
100
AcDbEntity
  8
CLASS1
  6
CONTINUOUS
 62
     0
100
AcDbLine
 10
175.4740600628753
 20
30.15000069053872
 30
0.0
 11
173.9740600628755
 21
30.15000069053872
 31
0.0
  0
LINE
  5
B07
330
1F
100
AcDbEntity
  8
CLASS1
  6
CONTINUOUS
 62
     0
100
AcDbLine
 10
175.4740600628753
 20
31.65000069053871
 30
0.0
 11
173.9740600628755
 21
31.65000069053871
 31
0.0
  0
ARC
  5
B08
330
1F
100
AcDbEntity
  8
CLASS1
  6
CONTINUOUS
 62
     0
100
AcDbCircle
 10
173.4740600628754
 20
27.90000069053894
 30
0.0
 40
0.5
100
AcDbArc
 50
270.0
 51
0.0
  0
LINE
  5
B09
330
1F
100
AcDbEntity
  8
CLASS1
  6
CONTINUOUS
 62
     0
100
AcDbLine
 10
174.4740600628755
 20
21.1000006905391
 30
0.0
 11
174.4740600628755
 21
23.1000006905391
 31
0.0
  0
LINE
  5
B0A
330
1F
100
AcDbEntity
  8
CLASS1
  6
CONTINUOUS
 62
     0
100
AcDbLine
 10
162.4740600628754
 20
19.1000006905391
 30
0.0
 11
162.4740600628754
 21
17.1000006905391
 31
0.0
  0
LINE
  5
B0B
330
1F
100
AcDbEntity
  8
CLASS1
  6
CONTINUOUS
 62
     0
100
AcDbLine
 10
162.4740600628754
 20
15.10000069053909
 30
0.0
 11
162.4740600628754
 21
13.10000069053909
 31
0.0
  0
LINE
  5
B0C
330
1F
100
AcDbEntity
  8
CLASS1
  6
CONTINUOUS
 62
     0
100
AcDbLine
 10
162.4740600628754
 20
11.1000006905391
 30
0.0
 11
162.4740600628754
 21
9.100000690539102
 31
0.0
  0
LINE
  5
B0D
330
1F
100
AcDbEntity
  8
CLASS1
  6
CONTINUOUS
 62
     0
100
AcDbLine
 10
162.4740600628754
 20
33.1000006905391
 30
0.0
 11
163.9740600628754
 21
33.1000006905391
 31
0.0
  0
LINE
  5
B0E
330
1F
100
AcDbEntity
  8
CLASS1
  6
CONTINUOUS
 62
     0
100
AcDbLine
 10
162.4740600628754
 20
31.1000006905391
 30
0.0
 11
162.4740600628754
 21
29.1000006905391
 31
0.0
  0
LINE
  5
B0F
330
1F
100
AcDbEntity
  8
CLASS1
  6
CONTINUOUS
 62
     0
100
AcDbLine
 10
163.9740600628754
 20
31.1000006905391
 30
0.0
 11
163.9740600628754
 21
29.1000006905391
 31
0.0
  0
LINE
  5
B10
330
1F
100
AcDbEntity
  8
CLASS1
  6
CONTINUOUS
 62
     0
100
AcDbLine
 10
162.4740600628754
 20
29.1000006905391
 30
0.0
 11
163.9740600628754
 21
29.1000006905391
 31
0.0
  0
LINE
  5
B11
330
1F
100
AcDbEntity
  8
CLASS1
  6
CONTINUOUS
 62
     0
100
AcDbLine
 10
163.9740600628754
 20
31.1000006905391
 30
0.0
 11
162.4740600628754
 21
31.1000006905391
 31
0.0
  0
LINE
  5
B12
330
1F
100
AcDbEntity
  8
CLASS1
  6
CONTINUOUS
 62
     0
100
AcDbLine
 10
166.9740600628755
 20
30.15000069053872
 30
0.0
 11
165.4740600628753
 21
30.15000069053872
 31
0.0
  0
LINE
  5
B13
330
1F
100
AcDbEntity
  8
CLASS1
  6
CONTINUOUS
 62
     0
100
AcDbLine
 10
166.9740600628755
 20
31.65000069053871
 30
0.0
 11
165.4740600628753
 21
31.65000069053871
 31
0.0
  0
ARC
  5
B14
330
1F
100
AcDbEntity
  8
CLASS1
  6
CONTINUOUS
 62
     0
100
AcDbCircle
 10
167.4740600628753
 20
27.90000069053894
 30
0.0
 40
0.5
100
AcDbArc
 50
180.0
 51
270.0
  0
LINE
  5
B15
330
1F
100
AcDbEntity
  8
CLASS1
  6
CONTINUOUS
 62
     0
100
AcDbLine
 10
162.4740600628754
 20
27.1000006905391
 30
0.0
 11
162.4740600628754
 21
25.1000006905391
 31
0.0
  0
LINE
  5
B16
330
1F
100
AcDbEntity
  8
CLASS1
  6
CONTINUOUS
 62
     0
100
AcDbLine
 10
163.9740600628754
 20
27.1000006905391
 30
0.0
 11
163.9740600628754
 21
25.1000006905391
 31
0.0
  0
LINE
  5
B17
330
1F
100
AcDbEntity
  8
CLASS1
  6
CONTINUOUS
 62
     0
100
AcDbLine
 10
163.9740600628754
 20
27.1000006905391
 30
0.0
 11
162.4740600628754
 21
27.1000006905391
 31
0.0
  0
LINE
  5
B18
330
1F
100
AcDbEntity
  8
CLASS1
  6
CONTINUOUS
 62
     0
100
AcDbLine
 10
162.4740600628754
 20
25.1000006905391
 30
0.0
 11
163.9740600628754
 21
25.1000006905391
 31
0.0
  0
LINE
  5
B19
330
1F
100
AcDbEntity
  8
CLASS1
  6
CONTINUOUS
 62
     0
100
AcDbLine
 10
162.4740600628754
 20
23.1000006905391
 30
0.0
 11
162.4740600628754
 21
21.1000006905391
 31
0.0
  0
LINE
  5
B1A
330
1F
100
AcDbEntity
  8
CLASS1
  6
CONTINUOUS
 62
     0
100
AcDbLine
 10
152.9738510628753
 20
1.500000690538739
 30
0.0
 11
151.9735410628751
 21
1.500000690538739
 31
0.0
  0
LINE
  5
B1B
330
1F
100
AcDbEntity
  8
CLASS1
  6
CONTINUOUS
 62
     0
100
AcDbLine
 10
152.9738510628753
 20
2.500000690538968
 30
0.0
 11
152.9738510628753
 21
1.500000690538739
 31
0.0
  0
ARC
  5
B1C
330
1F
100
AcDbEntity
  8
CLASS1
  6
CONTINUOUS
 62
     0
100
AcDbCircle
 10
151.9735410628751
 20
2.500000690539195
 30
0.0
 40
1.0
100
AcDbArc
 50
179.1176409999945
 51
270.0
  0
LINE
  5
B1D
330
1F
100
AcDbEntity
  8
CLASS1
  6
CONTINUOUS
 62
     0
100
AcDbLine
 10
184.0590530628753
 20
62.94472669053868
 30
0.0
 11
183.0433410628754
 21
62.94472669053868
 31
0.0
  0
ARC
  5
B1E
330
1F
100
AcDbEntity
  8
CLASS1
  6
CONTINUOUS
 62
     0
100
AcDbCircle
 10
184.0590530628753
 20
61.9447266905388
 30
0.0
 40
1.0
100
AcDbArc
 50
0.8823590000053707
 51
90.0
  0
ARC
  5
B1F
330
1F
100
AcDbEntity
  8
CLASS1
  6
CONTINUOUS
 62
     0
100
AcDbCircle
 10
160.3873910628755
 20
61.7657866905389
 30
0.0
 40
2.0
100
AcDbArc
 50
94.73325899999677
 51
179.1176409999945
  0
LINE
  5
B20
330
1F
100
AcDbEntity
  8
CLASS1
  6
CONTINUOUS
 62
     0
100
AcDbLine
 10
162.4740600628754
 20
57.1000006905391
 30
0.0
 11
174.4740600628755
 21
57.1000006905391
 31
0.0
  0
LINE
  5
B21
330
1F
100
AcDbEntity
  8
CLASS1
  6
CONTINUOUS
 62
     0
100
AcDbLine
 10
174.4740600628755
 20
59.10000069053911
 30
0.0
 11
162.4740600628754
 21
59.10000069053911
 31
0.0
  0
LINE
  5
B22
330
1F
100
AcDbEntity
  8
CLASS1
  6
CONTINUOUS
 62
     0
100
AcDbLine
 10
174.4740600628755
 20
55.1000006905391
 30
0.0
 11
162.4740600628754
 21
55.1000006905391
 31
0.0
  0
LINE
  5
B23
330
1F
100
AcDbEntity
  8
CLASS1
  6
CONTINUOUS
 62
     0
100
AcDbLine
 10
162.4740600628754
 20
53.1000006905391
 30
0.0
 11
174.4740600628755
 21
53.1000006905391
 31
0.0
  0
LINE
  5
B24
330
1F
100
AcDbEntity
  8
CLASS1
  6
CONTINUOUS
 62
     0
100
AcDbLine
 10
174.4740600628755
 20
51.1000006905391
 30
0.0
 11
162.4740600628754
 21
51.1000006905391
 31
0.0
  0
LINE
  5
B25
330
1F
100
AcDbEntity
  8
CLASS1
  6
CONTINUOUS
 62
     0
100
AcDbLine
 10
162.4740600628754
 20
49.10000069053911
 30
0.0
 11
174.4740600628755
 21
49.10000069053911
 31
0.0
  0
LINE
  5
B26
330
1F
100
AcDbEntity
  8
CLASS1
  6
CONTINUOUS
 62
     0
100
AcDbLine
 10
174.4740600628755
 20
43.1000006905391
 30
0.0
 11
162.4740600628754
 21
43.1000006905391
 31
0.0
  0
LINE
  5
B27
330
1F
100
AcDbEntity
  8
CLASS1
  6
CONTINUOUS
 62
     0
100
AcDbLine
 10
162.4740600628754
 20
45.1000006905391
 30
0.0
 11
174.4740600628755
 21
45.1000006905391
 31
0.0
  0
LINE
  5
B28
330
1F
100
AcDbEntity
  8
CLASS1
  6
CONTINUOUS
 62
     0
100
AcDbLine
 10
174.4740600628755
 20
47.1000006905391
 30
0.0
 11
162.4740600628754
 21
47.1000006905391
 31
0.0
  0
LINE
  5
B29
330
1F
100
AcDbEntity
  8
CLASS1
  6
CONTINUOUS
 62
     0
100
AcDbLine
 10
162.4740600628754
 20
41.1000006905391
 30
0.0
 11
174.4740600628755
 21
41.1000006905391
 31
0.0
  0
LINE
  5
B2A
330
1F
100
AcDbEntity
  8
CLASS1
  6
CONTINUOUS
 62
     0
100
AcDbLine
 10
165.4740600628753
 20
35.90000069053871
 30
0.0
 11
175.4740600628753
 21
35.90000069053871
 31
0.0
  0
LINE
  5
B2B
330
1F
100
AcDbEntity
  8
CLASS1
  6
CONTINUOUS
 62
     0
100
AcDbLine
 10
162.4740600628754
 20
37.1000006905391
 30
0.0
 11
174.4740600628755
 21
37.1000006905391
 31
0.0
  0
LINE
  5
B2C
330
1F
100
AcDbEntity
  8
CLASS1
  6
CONTINUOUS
 62
     0
100
AcDbLine
 10
174.4740600628755
 20
39.1000006905391
 30
0.0
 11
162.4740600628754
 21
39.1000006905391
 31
0.0
  0
LINE
  5
B2D
330
1F
100
AcDbEntity
  8
CLASS1
  6
CONTINUOUS
 62
     0
100
AcDbLine
 10
167.4740600628753
 20
34.40000069053871
 30
0.0
 11
173.4740600628754
 21
34.40000069053871
 31
0.0
  0
LINE
  5
B2E
330
1F
100
AcDbEntity
  8
CLASS1
  6
CONTINUOUS
 62
     0
100
AcDbLine
 10
174.4740600628755
 20
45.1000006905391
 30
0.0
 11
174.4740600628755
 21
47.1000006905391
 31
0.0
  0
LINE
  5
B2F
330
1F
100
AcDbEntity
  8
CLASS1
  6
CONTINUOUS
 62
     0
100
AcDbLine
 10
174.4740600628755
 20
37.1000006905391
 30
0.0
 11
174.4740600628755
 21
39.1000006905391
 31
0.0
  0
ARC
  5
B30
330
1F
100
AcDbEntity
  8
CLASS1
  6
CONTINUOUS
 62
     0
100
AcDbCircle
 10
173.4740600628754
 20
33.90000069053906
 30
0.0
 40
0.5
100
AcDbArc
 50
0.0
 51
90.0
  0
LINE
  5
B31
330
1F
100
AcDbEntity
  8
CLASS1
  6
CONTINUOUS
 62
     0
100
AcDbLine
 10
174.4740600628755
 20
41.1000006905391
 30
0.0
 11
174.4740600628755
 21
43.1000006905391
 31
0.0
  0
LINE
  5
B32
330
1F
100
AcDbEntity
  8
CLASS1
  6
CONTINUOUS
 62
     0
100
AcDbLine
 10
174.4740600628755
 20
57.1000006905391
 30
0.0
 11
174.4740600628755
 21
59.10000069053911
 31
0.0
  0
LINE
  5
B33
330
1F
100
AcDbEntity
  8
CLASS1
  6
CONTINUOUS
 62
     0
100
AcDbLine
 10
174.4740600628755
 20
49.10000069053911
 30
0.0
 11
174.4740600628755
 21
51.1000006905391
 31
0.0
  0
LINE
  5
B34
330
1F
100
AcDbEntity
  8
CLASS1
  6
CONTINUOUS
 62
     0
100
AcDbLine
 10
174.4740600628755
 20
53.1000006905391
 30
0.0
 11
174.4740600628755
 21
55.1000006905391
 31
0.0
  0
LINE
  5
B35
330
1F
100
AcDbEntity
  8
CLASS1
  6
CONTINUOUS
 62
     0
100
AcDbLine
 10
162.4740600628754
 20
47.1000006905391
 30
0.0
 11
162.4740600628754
 21
45.1000006905391
 31
0.0
  0
LINE
  5
B36
330
1F
100
AcDbEntity
  8
CLASS1
  6
CONTINUOUS
 62
     0
100
AcDbLine
 10
162.4740600628754
 20
39.1000006905391
 30
0.0
 11
162.4740600628754
 21
37.1000006905391
 31
0.0
  0
ARC
  5
B37
330
1F
100
AcDbEntity
  8
CLASS1
  6
CONTINUOUS
 62
     0
100
AcDbCircle
 10
167.4740600628753
 20
33.90000069053906
 30
0.0
 40
0.5
100
AcDbArc
 50
90.0
 51
180.0
  0
LINE
  5
B38
330
1F
100
AcDbEntity
  8
CLASS1
  6
CONTINUOUS
 62
     0
100
AcDbLine
 10
163.9740600628754
 20
35.1000006905391
 30
0.0
 11
162.4740600628754
 21
35.1000006905391
 31
0.0
  0
LINE
  5
B39
330
1F
100
AcDbEntity
  8
CLASS1
  6
CONTINUOUS
 62
     0
100
AcDbLine
 10
162.4740600628754
 20
43.1000006905391
 30
0.0
 11
162.4740600628754
 21
41.1000006905391
 31
0.0
  0
LINE
  5
B3A
330
1F
100
AcDbEntity
  8
CLASS1
  6
CONTINUOUS
 62
     0
100
AcDbLine
 10
162.4740600628754
 20
59.10000069053911
 30
0.0
 11
162.4740600628754
 21
57.1000006905391
 31
0.0
  0
LINE
  5
B3B
330
1F
100
AcDbEntity
  8
CLASS1
  6
CONTINUOUS
 62
     0
100
AcDbLine
 10
162.4740600628754
 20
51.1000006905391
 30
0.0
 11
162.4740600628754
 21
49.10000069053911
 31
0.0
  0
LINE
  5
B3C
330
1F
100
AcDbEntity
  8
CLASS1
  6
CONTINUOUS
 62
     0
100
AcDbLine
 10
162.4740600628754
 20
55.1000006905391
 30
0.0
 11
162.4740600628754
 21
53.1000006905391
 31
0.0
  0
ARC
  5
B3D
330
1F
100
AcDbEntity
  8
CLASS1
  6
CONTINUOUS
 62
     0
100
AcDbCircle
 10
168.4740600628753
 20
-35.89999930946095
 30
0.0
 40
100.0
100
AcDbArc
 50
85.2667410000032
 51
94.73325899999677
  0
ARC
  5
B3E
330
1F
100
AcDbEntity
  8
CLASS1
  6
CONTINUOUS
 62
     0
100
AcDbCircle
 10
176.5607270628755
 20
61.76578769053879
 30
0.0
 40
2.0
100
AcDbArc
 50
0.8823600000015774
 51
85.2667410000032
  0
LINE
  5
B3F
330
1F
100
AcDbEntity
  8
CLASS1
  6
CONTINUOUS
 62
     0
100
AcDbLine
 10
152.8890660628753
 20
62.94472669053868
 30
0.0
 11
153.9047770628753
 21
62.94472669053868
 31
0.0
  0
ARC
  5
B40
330
1F
100
AcDbEntity
  8
CLASS1
  6
CONTINUOUS
 62
     0
100
AcDbCircle
 10
152.8890660628753
 20
61.9447266905388
 30
0.0
 40
1.0
100
AcDbArc
 50
90.0
 51
179.1176409999945
  0
LINE
  5
B41
330
1F
100
AcDbEntity
  8
CLASS1
  6
CONTINUOUS
 62
     0
100
AcDbLine
 10
152.9738519355349
 20
435.3181812904613
 30
0.0
 11
183.974269935535
 21
435.3181812904613
 31
0.0
  0
INSERT
  5
B42
330
1F
100
AcDbEntity
  8
0
100
AcDbBlockReference
  2
A$C51C20FFB
 10
183.974269935535
 20
438.8181799531396
 30
0.0
 50
180.0
  0
LINE
  5
B43
330
1F
100
AcDbEntity
  8
CLASS1
  6
CONTINUOUS
 62
     0
100
AcDbLine
 10
178.560492935535
 20
376.0215962904613
 30
0.0
 11
179.4737359355349
 21
435.3181812904613
 31
0.0
  0
LINE
  5
B44
330
1F
100
AcDbEntity
  8
CLASS1
  6
CONTINUOUS
 62
     0
100
AcDbLine
 10
185.0589369355352
 20
375.8580552904612
 30
0.0
 11
185.9744619355348
 21
435.3027822904613
 31
0.0
  0
LINE
  5
B45
330
1F
100
AcDbEntity
  8
CLASS1
  6
CONTINUOUS
 62
     0
100
AcDbLine
 10
182.9779599355348
 20
370.6281072904618
 30
0.0
 11
183.974269935535
 21
435.3181812904613
 31
0.0
  0
ARC
  5
B46
330
1F
100
AcDbEntity
  8
CLASS1
  6
CONTINUOUS
 62
     0
100
AcDbCircle
 10
184.0590549355347
 20
375.8734552904616
 30
0.0
 40
1.0
100
AcDbArc
 50
270.0
 51
359.1176409999945
  0
LINE
  5
B47
330
1F
100
AcDbEntity
  8
CLASS1
  6
CONTINUOUS
 62
     0
100
AcDbLine
 10
184.059054935535
 20
374.8734552904616
 30
0.0
 11
183.043342935535
 21
374.8734552904616
 31
0.0
  0
ARC
  5
B48
330
1F
100
AcDbEntity
  8
CLASS1
  6
CONTINUOUS
 62
     0
100
AcDbCircle
 10
184.9745809355347
 20
435.3181812904613
 30
0.0
 40
1.0
100
AcDbArc
 50
359.1176409999945
 51
90.0
  0
LINE
  5
B49
330
1F
100
AcDbEntity
  8
CLASS1
  6
CONTINUOUS
 62
     0
100
AcDbLine
 10
183.974269935535
 20
436.3181812904612
 30
0.0
 11
183.974269935535
 21
435.3181812904613
 31
0.0
  0
LINE
  5
B4A
330
1F
100
AcDbEntity
  8
CLASS1
  6
CONTINUOUS
 62
     0
100
AcDbLine
 10
183.974269935535
 20
436.3181812904612
 30
0.0
 11
184.974580935535
 21
436.3181812904612
 31
0.0
  0
LINE
  5
B4B
330
1F
100
AcDbEntity
  8
CLASS1
  6
CONTINUOUS
 62
     0
100
AcDbLine
 10
162.4740609355349
 20
391.7181812904613
 30
0.0
 11
162.4740609355349
 21
393.7181812904616
 31
0.0
  0
LINE
  5
B4C
330
1F
100
AcDbEntity
  8
CLASS1
  6
CONTINUOUS
 62
     0
100
AcDbLine
 10
174.4740609355349
 20
393.7181812904616
 30
0.0
 11
174.4740609355349
 21
391.7181812904613
 31
0.0
  0
LINE
  5
B4D
330
1F
100
AcDbEntity
  8
CLASS1
  6
CONTINUOUS
 62
     0
100
AcDbLine
 10
151.8891859355349
 20
375.8580552904612
 30
0.0
 11
150.9736599355351
 21
435.3027822904613
 31
0.0
  0
LINE
  5
B4E
330
1F
100
AcDbEntity
  8
CLASS1
  6
CONTINUOUS
 62
     0
100
AcDbLine
 10
158.3876309355349
 20
376.0215962904613
 30
0.0
 11
157.4743859355348
 21
435.3181812904613
 31
0.0
  0
LINE
  5
B4F
330
1F
100
AcDbEntity
  8
CLASS1
  6
CONTINUOUS
 62
     0
100
AcDbLine
 10
153.970189935535
 20
370.6264282904616
 30
0.0
 11
152.9738519355349
 21
435.3181812904613
 31
0.0
  0
ARC
  5
B50
330
1F
100
AcDbEntity
  8
CLASS1
  6
CONTINUOUS
 62
     0
100
AcDbCircle
 10
160.3873939355348
 20
376.0523942904616
 30
0.0
 40
2.0
100
AcDbArc
 50
180.8823600000014
 51
265.2667410000032
  0
LINE
  5
B51
330
1F
100
AcDbEntity
  8
CLASS1
  6
CONTINUOUS
 62
     0
100
AcDbLine
 10
174.4740609355349
 20
391.7181812904613
 30
0.0
 11
162.4740609355349
 21
391.7181812904613
 31
0.0
  0
LINE
  5
B52
330
1F
100
AcDbEntity
  8
CLASS1
  6
CONTINUOUS
 62
     0
100
AcDbLine
 10
174.4740609355349
 20
387.7181812904613
 30
0.0
 11
162.4740609355349
 21
387.7181812904613
 31
0.0
  0
LINE
  5
B53
330
1F
100
AcDbEntity
  8
CLASS1
  6
CONTINUOUS
 62
     0
100
AcDbLine
 10
162.4740609355349
 20
389.7181812904613
 30
0.0
 11
174.4740609355349
 21
389.7181812904613
 31
0.0
  0
LINE
  5
B54
330
1F
100
AcDbEntity
  8
CLASS1
  6
CONTINUOUS
 62
     0
100
AcDbLine
 10
162.4740609355349
 20
385.7181812904616
 30
0.0
 11
174.4740609355349
 21
385.7181812904616
 31
0.0
  0
LINE
  5
B55
330
1F
100
AcDbEntity
  8
CLASS1
  6
CONTINUOUS
 62
     0
100
AcDbLine
 10
174.4740609355349
 20
383.7181812904616
 30
0.0
 11
162.4740609355349
 21
383.7181812904616
 31
0.0
  0
LINE
  5
B56
330
1F
100
AcDbEntity
  8
CLASS1
  6
CONTINUOUS
 62
     0
100
AcDbLine
 10
162.4740609355349
 20
381.7181812904613
 30
0.0
 11
174.4740609355349
 21
381.7181812904613
 31
0.0
  0
LINE
  5
B57
330
1F
100
AcDbEntity
  8
CLASS1
  6
CONTINUOUS
 62
     0
100
AcDbLine
 10
174.4740609355349
 20
379.7181812904613
 30
0.0
 11
162.4740609355349
 21
379.7181812904613
 31
0.0
  0
ARC
  5
B58
330
1F
100
AcDbEntity
  8
CLASS1
  6
CONTINUOUS
 62
     0
100
AcDbCircle
 10
168.474060935535
 20
473.7181812904609
 30
0.0
 40
100.0
100
AcDbArc
 50
265.2667410000032
 51
274.7332589999968
  0
ARC
  5
B59
330
1F
100
AcDbEntity
  8
CLASS1
  6
CONTINUOUS
 62
     0
100
AcDbCircle
 10
176.5607299355347
 20
376.0523952904613
 30
0.0
 40
2.0
100
AcDbArc
 50
274.7332589999968
 51
359.1176409999945
  0
LINE
  5
B5A
330
1F
100
AcDbEntity
  8
CLASS1
  6
CONTINUOUS
 62
     0
100
AcDbLine
 10
174.4740609355349
 20
389.7181812904613
 30
0.0
 11
174.4740609355349
 21
387.7181812904613
 31
0.0
  0
LINE
  5
B5B
330
1F
100
AcDbEntity
  8
CLASS1
  6
CONTINUOUS
 62
     0
100
AcDbLine
 10
174.4740609355349
 20
385.7181812904616
 30
0.0
 11
174.4740609355349
 21
383.7181812904616
 31
0.0
  0
LINE
  5
B5C
330
1F
100
AcDbEntity
  8
CLASS1
  6
CONTINUOUS
 62
     0
100
AcDbLine
 10
174.4740609355349
 20
381.7181812904613
 30
0.0
 11
174.4740609355349
 21
379.7181812904613
 31
0.0
  0
LINE
  5
B5D
330
1F
100
AcDbEntity
  8
CLASS1
  6
CONTINUOUS
 62
     0
100
AcDbLine
 10
162.4740609355349
 20
387.7181812904613
 30
0.0
 11
162.4740609355349
 21
389.7181812904613
 31
0.0
  0
LINE
  5
B5E
330
1F
100
AcDbEntity
  8
CLASS1
  6
CONTINUOUS
 62
     0
100
AcDbLine
 10
162.4740609355349
 20
383.7181812904616
 30
0.0
 11
162.4740609355349
 21
385.7181812904616
 31
0.0
  0
LINE
  5
B5F
330
1F
100
AcDbEntity
  8
CLASS1
  6
CONTINUOUS
 62
     0
100
AcDbLine
 10
162.4740609355349
 20
379.7181812904613
 30
0.0
 11
162.4740609355349
 21
381.7181812904613
 31
0.0
  0
ARC
  5
B60
330
1F
100
AcDbEntity
  8
CLASS1
  6
CONTINUOUS
 62
     0
100
AcDbCircle
 10
152.8890679355346
 20
375.8734552904616
 30
0.0
 40
1.0
100
AcDbArc
 50
180.8823590000052
 51
270.0
  0
LINE
  5
B61
330
1F
100
AcDbEntity
  8
CLASS1
  6
CONTINUOUS
 62
     0
100
AcDbLine
 10
152.889067935535
 20
374.8734552904616
 30
0.0
 11
153.904778935535
 21
374.8734552904616
 31
0.0
  0
LINE
  5
B62
330
1F
100
AcDbEntity
  8
CLASS1
  6
CONTINUOUS
 62
     0
100
AcDbLine
 10
162.4740609355349
 20
421.7181812904613
 30
0.0
 11
174.4740609355349
 21
421.7181812904613
 31
0.0
  0
LINE
  5
B63
330
1F
100
AcDbEntity
  8
CLASS1
  6
CONTINUOUS
 62
     0
100
AcDbLine
 10
174.4740609355349
 20
419.7181812904616
 30
0.0
 11
162.4740609355349
 21
419.7181812904616
 31
0.0
  0
LINE
  5
B64
330
1F
100
AcDbEntity
  8
CLASS1
  6
CONTINUOUS
 62
     0
100
AcDbLine
 10
162.4740609355349
 20
417.7181812904616
 30
0.0
 11
174.4740609355349
 21
417.7181812904616
 31
0.0
  0
LINE
  5
B65
330
1F
100
AcDbEntity
  8
CLASS1
  6
CONTINUOUS
 62
     0
100
AcDbLine
 10
174.4740609355349
 20
415.7181812904613
 30
0.0
 11
162.4740609355349
 21
415.7181812904613
 31
0.0
  0
LINE
  5
B66
330
1F
100
AcDbEntity
  8
CLASS1
  6
CONTINUOUS
 62
     0
100
AcDbLine
 10
168.9490609355351
 20
410.8681812904617
 30
0.0
 11
164.799060935535
 21
410.8681812904617
 31
0.0
  0
LINE
  5
B67
330
1F
100
AcDbEntity
  8
CLASS1
  6
CONTINUOUS
 62
     0
100
AcDbLine
 10
169.5740609355351
 20
404.1181812904616
 30
0.0
 11
167.874060935535
 21
404.1181812904616
 31
0.0
  0
LINE
  5
B68
330
1F
100
AcDbEntity
  8
CLASS1
  6
CONTINUOUS
 62
     0
100
AcDbLine
 10
169.5740609355351
 20
405.3181812904612
 30
0.0
 11
167.874060935535
 21
405.3181812904612
 31
0.0
  0
LINE
  5
B69
330
1F
100
AcDbEntity
  8
CLASS1
  6
CONTINUOUS
 62
     0
100
AcDbLine
 10
168.9490609355351
 20
398.5681812904613
 30
0.0
 11
164.799060935535
 21
398.5681812904613
 31
0.0
  0
LINE
  5
B6A
330
1F
100
AcDbEntity
  8
CLASS1
  6
CONTINUOUS
 62
     0
100
AcDbLine
 10
162.4740609355349
 20
413.7181812904612
 30
0.0
 11
174.4740609355349
 21
413.7181812904612
 31
0.0
  0
LINE
  5
B6B
330
1F
100
AcDbEntity
  8
CLASS1
  6
CONTINUOUS
 62
     0
100
AcDbLine
 10
162.4740609355349
 20
412.7181812904614
 30
0.0
 11
171.3740609355348
 21
412.7181812904614
 31
0.0
  0
LINE
  5
B6C
330
1F
100
AcDbEntity
  8
CLASS1
  6
CONTINUOUS
 62
     0
100
AcDbLine
 10
171.3740609355348
 20
396.7181812904613
 30
0.0
 11
162.4740609355349
 21
396.7181812904613
 31
0.0
  0
LINE
  5
B6D
330
1F
100
AcDbEntity
  8
CLASS1
  6
CONTINUOUS
 62
     0
100
AcDbLine
 10
174.4740609355349
 20
395.7181812904616
 30
0.0
 11
162.4740609355349
 21
395.7181812904616
 31
0.0
  0
LINE
  5
B6E
330
1F
100
AcDbEntity
  8
CLASS1
  6
CONTINUOUS
 62
     0
100
AcDbLine
 10
162.4740609355349
 20
393.7181812904616
 30
0.0
 11
174.4740609355349
 21
393.7181812904616
 31
0.0
  0
LINE
  5
B6F
330
1F
100
AcDbEntity
  8
CLASS1
  6
CONTINUOUS
 62
     0
100
AcDbLine
 10
169.5740609355351
 20
399.8181812904612
 30
0.0
 11
169.5740609355351
 21
409.6181812904617
 31
0.0
  0
LINE
  5
B70
330
1F
100
AcDbEntity
  8
CLASS1
  6
CONTINUOUS
 62
     0
100
AcDbLine
 10
171.3740609355348
 20
409.7181812904616
 30
0.0
 11
171.3740609355348
 21
407.7181812904613
 31
0.0
  0
LINE
  5
B71
330
1F
100
AcDbEntity
  8
CLASS1
  6
CONTINUOUS
 62
     0
100
AcDbLine
 10
174.4740609355349
 20
409.7181812904616
 30
0.0
 11
174.4740609355349
 21
407.7181812904613
 31
0.0
  0
LINE
  5
B72
330
1F
100
AcDbEntity
  8
CLASS1
  6
CONTINUOUS
 62
     0
100
AcDbLine
 10
168.9490609355351
 20
398.5681812904613
 30
0.0
 11
168.9490609355351
 21
399.8181812904612
 31
0.0
  0
LINE
  5
B73
330
1F
100
AcDbEntity
  8
CLASS1
  6
CONTINUOUS
 62
     0
100
AcDbLine
 10
169.5740609355351
 20
399.8181812904612
 30
0.0
 11
168.9490609355351
 21
399.8181812904612
 31
0.0
  0
LINE
  5
B74
330
1F
100
AcDbEntity
  8
CLASS1
  6
CONTINUOUS
 62
     0
100
AcDbLine
 10
174.4740609355349
 20
407.7181812904613
 30
0.0
 11
171.3740609355348
 21
407.7181812904613
 31
0.0
  0
LINE
  5
B75
330
1F
100
AcDbEntity
  8
CLASS1
  6
CONTINUOUS
 62
     0
100
AcDbLine
 10
174.4740609355349
 20
403.7181812904616
 30
0.0
 11
171.3740609355348
 21
403.7181812904616
 31
0.0
  0
LINE
  5
B76
330
1F
100
AcDbEntity
  8
CLASS1
  6
CONTINUOUS
 62
     0
100
AcDbLine
 10
171.3740609355348
 20
405.7181812904613
 30
0.0
 11
171.3740609355348
 21
403.7181812904616
 31
0.0
  0
LINE
  5
B77
330
1F
100
AcDbEntity
  8
CLASS1
  6
CONTINUOUS
 62
     0
100
AcDbLine
 10
174.4740609355349
 20
405.7181812904613
 30
0.0
 11
174.4740609355349
 21
403.7181812904616
 31
0.0
  0
LINE
  5
B78
330
1F
100
AcDbEntity
  8
CLASS1
  6
CONTINUOUS
 62
     0
100
AcDbLine
 10
171.3740609355348
 20
405.7181812904613
 30
0.0
 11
174.4740609355349
 21
405.7181812904613
 31
0.0
  0
LINE
  5
B79
330
1F
100
AcDbEntity
  8
CLASS1
  6
CONTINUOUS
 62
     0
100
AcDbLine
 10
174.4740609355349
 20
401.7181812904616
 30
0.0
 11
174.4740609355349
 21
399.7181812904613
 31
0.0
  0
LINE
  5
B7A
330
1F
100
AcDbEntity
  8
CLASS1
  6
CONTINUOUS
 62
     0
100
AcDbLine
 10
171.3740609355348
 20
401.7181812904616
 30
0.0
 11
171.3740609355348
 21
399.7181812904613
 31
0.0
  0
LINE
  5
B7B
330
1F
100
AcDbEntity
  8
CLASS1
  6
CONTINUOUS
 62
     0
100
AcDbLine
 10
171.3740609355348
 20
401.7181812904616
 30
0.0
 11
174.4740609355349
 21
401.7181812904616
 31
0.0
  0
LINE
  5
B7C
330
1F
100
AcDbEntity
  8
CLASS1
  6
CONTINUOUS
 62
     0
100
AcDbLine
 10
174.4740609355349
 20
399.7181812904613
 30
0.0
 11
171.3740609355348
 21
399.7181812904613
 31
0.0
  0
LINE
  5
B7D
330
1F
100
AcDbEntity
  8
CLASS1
  6
CONTINUOUS
 62
     0
100
AcDbLine
 10
171.3740609355348
 20
397.7181812904613
 30
0.0
 11
174.4740609355349
 21
397.7181812904613
 31
0.0
  0
LINE
  5
B7E
330
1F
100
AcDbEntity
  8
CLASS1
  6
CONTINUOUS
 62
     0
100
AcDbLine
 10
171.3740609355348
 20
397.7181812904613
 30
0.0
 11
171.3740609355348
 21
396.7181812904613
 31
0.0
  0
LINE
  5
B7F
330
1F
100
AcDbEntity
  8
CLASS1
  6
CONTINUOUS
 62
     0
100
AcDbLine
 10
174.4740609355349
 20
397.7181812904613
 30
0.0
 11
174.4740609355349
 21
395.7181812904616
 31
0.0
  0
LINE
  5
B80
330
1F
100
AcDbEntity
  8
CLASS1
  6
CONTINUOUS
 62
     0
100
AcDbLine
 10
174.4740609355349
 20
421.7181812904613
 30
0.0
 11
174.4740609355349
 21
419.7181812904616
 31
0.0
  0
LINE
  5
B81
330
1F
100
AcDbEntity
  8
CLASS1
  6
CONTINUOUS
 62
     0
100
AcDbLine
 10
174.4740609355349
 20
417.7181812904616
 30
0.0
 11
174.4740609355349
 21
415.7181812904613
 31
0.0
  0
LINE
  5
B82
330
1F
100
AcDbEntity
  8
CLASS1
  6
CONTINUOUS
 62
     0
100
AcDbLine
 10
169.5740609355351
 20
409.6181812904617
 30
0.0
 11
168.9490609355351
 21
409.6181812904617
 31
0.0
  0
LINE
  5
B83
330
1F
100
AcDbEntity
  8
CLASS1
  6
CONTINUOUS
 62
     0
100
AcDbLine
 10
168.9490609355351
 20
409.6181812904617
 30
0.0
 11
168.9490609355351
 21
410.8681812904617
 31
0.0
  0
LINE
  5
B84
330
1F
100
AcDbEntity
  8
CLASS1
  6
CONTINUOUS
 62
     0
100
AcDbLine
 10
174.4740609355349
 20
413.7181812904612
 30
0.0
 11
174.4740609355349
 21
411.7181812904616
 31
0.0
  0
LINE
  5
B85
330
1F
100
AcDbEntity
  8
CLASS1
  6
CONTINUOUS
 62
     0
100
AcDbLine
 10
174.4740609355349
 20
411.7181812904616
 30
0.0
 11
171.3740609355348
 21
411.7181812904616
 31
0.0
  0
LINE
  5
B86
330
1F
100
AcDbEntity
  8
CLASS1
  6
CONTINUOUS
 62
     0
100
AcDbLine
 10
171.3740609355348
 20
412.7181812904614
 30
0.0
 11
171.3740609355348
 21
411.7181812904616
 31
0.0
  0
LINE
  5
B87
330
1F
100
AcDbEntity
  8
CLASS1
  6
CONTINUOUS
 62
     0
100
AcDbLine
 10
171.3740609355348
 20
409.7181812904616
 30
0.0
 11
174.4740609355349
 21
409.7181812904616
 31
0.0
  0
LINE
  5
B88
330
1F
100
AcDbEntity
  8
CLASS1
  6
CONTINUOUS
 62
     0
100
AcDbLine
 10
167.874060935535
 20
401.2181812904612
 30
0.0
 11
167.874060935535
 21
408.2181812904616
 31
0.0
  0
LINE
  5
B89
330
1F
100
AcDbEntity
  8
CLASS1
  6
CONTINUOUS
 62
     0
100
AcDbLine
 10
165.874060935535
 20
401.2181812904612
 30
0.0
 11
165.874060935535
 21
408.2181812904616
 31
0.0
  0
LINE
  5
B8A
330
1F
100
AcDbEntity
  8
CLASS1
  6
CENTER
 62
     0
100
AcDbLine
 10
166.874060935535
 20
399.7181812904613
 30
0.0
 11
166.874060935535
 21
411.7519232904617
 31
0.0
  0
LINE
  5
B8B
330
1F
100
AcDbEntity
  8
CLASS1
  6
CONTINUOUS
 62
     0
100
AcDbLine
 10
164.274060935535
 20
406.7181812904613
 30
0.0
 11
164.274060935535
 21
409.6181812904617
 31
0.0
  0
LINE
  5
B8C
330
1F
100
AcDbEntity
  8
CLASS1
  6
CONTINUOUS
 62
     0
100
AcDbLine
 10
162.5740609355349
 20
402.7181812904616
 30
0.0
 11
162.5740609355349
 21
406.7181812904613
 31
0.0
  0
LINE
  5
B8D
330
1F
100
AcDbEntity
  8
CLASS1
  6
CONTINUOUS
 62
     0
100
AcDbLine
 10
164.274060935535
 20
406.7181812904613
 30
0.0
 11
162.5740609355349
 21
406.7181812904613
 31
0.0
  0
LINE
  5
B8E
330
1F
100
AcDbEntity
  8
CLASS1
  6
CONTINUOUS
 62
     0
100
AcDbLine
 10
165.874060935535
 20
405.3181812904612
 30
0.0
 11
162.5740609355349
 21
405.3181812904612
 31
0.0
  0
LINE
  5
B8F
330
1F
100
AcDbEntity
  8
CLASS1
  6
CONTINUOUS
 62
     0
100
AcDbLine
 10
165.874060935535
 20
404.1181812904616
 30
0.0
 11
162.5740609355349
 21
404.1181812904616
 31
0.0
  0
LINE
  5
B90
330
1F
100
AcDbEntity
  8
CLASS1
  6
CONTINUOUS
 62
     0
100
AcDbLine
 10
164.2990609355349
 20
402.7181812904616
 30
0.0
 11
162.5740609355349
 21
402.7181812904616
 31
0.0
  0
ARC
  5
B91
330
1F
100
AcDbEntity
  8
CLASS1
  6
CONTINUOUS
 62
     0
100
AcDbCircle
 10
167.3740609355346
 20
401.2181812904612
 30
0.0
 40
0.5
100
AcDbArc
 50
270.0
 51
0.0
  0
ARC
  5
B92
330
1F
100
AcDbEntity
  8
CLASS1
  6
CONTINUOUS
 62
     0
100
AcDbCircle
 10
166.3740609355346
 20
401.2181812904612
 30
0.0
 40
0.5
100
AcDbArc
 50
180.0
 51
270.0
  0
LINE
  5
B93
330
1F
100
AcDbEntity
  8
CLASS1
  6
CONTINUOUS
 62
     0
100
AcDbLine
 10
164.799060935535
 20
399.8181812904612
 30
0.0
 11
164.2990609355349
 21
399.8181812904612
 31
0.0
  0
LINE
  5
B94
330
1F
100
AcDbEntity
  8
CLASS1
  6
CONTINUOUS
 62
     0
100
AcDbLine
 10
164.2990609355349
 20
399.8181812904612
 30
0.0
 11
164.2990609355349
 21
402.7181812904616
 31
0.0
  0
LINE
  5
B95
330
1F
100
AcDbEntity
  8
CLASS1
  6
CONTINUOUS
 62
     0
100
AcDbLine
 10
164.799060935535
 20
398.5681812904613
 30
0.0
 11
164.799060935535
 21
399.8181812904612
 31
0.0
  0
LINE
  5
B96
330
1F
100
AcDbEntity
  8
CLASS1
  6
CONTINUOUS
 62
     0
100
AcDbLine
 10
167.3740609355348
 20
400.7181812904616
 30
0.0
 11
166.3740609355348
 21
400.7181812904616
 31
0.0
  0
LINE
  5
B97
330
1F
100
AcDbEntity
  8
CLASS1
  6
CONTINUOUS
 62
     0
100
AcDbLine
 10
162.4740609355349
 20
395.7181812904616
 30
0.0
 11
162.4740609355349
 21
396.7181812904613
 31
0.0
  0
LINE
  5
B98
330
1F
100
AcDbEntity
  8
CLASS1
  6
CONTINUOUS
 62
     0
100
AcDbLine
 10
162.4740609355349
 20
419.7181812904616
 30
0.0
 11
162.4740609355349
 21
421.7181812904613
 31
0.0
  0
LINE
  5
B99
330
1F
100
AcDbEntity
  8
CLASS1
  6
CONTINUOUS
 62
     0
100
AcDbLine
 10
162.4740609355349
 20
415.7181812904613
 30
0.0
 11
162.4740609355349
 21
417.7181812904616
 31
0.0
  0
LINE
  5
B9A
330
1F
100
AcDbEntity
  8
CLASS1
  6
CONTINUOUS
 62
     0
100
AcDbLine
 10
162.4740609355349
 20
412.7181812904614
 30
0.0
 11
162.4740609355349
 21
413.7181812904612
 31
0.0
  0
ARC
  5
B9B
330
1F
100
AcDbEntity
  8
CLASS1
  6
CONTINUOUS
 62
     0
100
AcDbCircle
 10
167.3740609355346
 20
408.2181812904616
 30
0.0
 40
0.5
100
AcDbArc
 50
0.0
 51
90.0
  0
LINE
  5
B9C
330
1F
100
AcDbEntity
  8
CLASS1
  6
CONTINUOUS
 62
     0
100
AcDbLine
 10
167.3740609355348
 20
408.7181812904616
 30
0.0
 11
166.3740609355348
 21
408.7181812904616
 31
0.0
  0
LINE
  5
B9D
330
1F
100
AcDbEntity
  8
CLASS1
  6
CONTINUOUS
 62
     0
100
AcDbLine
 10
164.799060935535
 20
409.6181812904617
 30
0.0
 11
164.274060935535
 21
409.6181812904617
 31
0.0
  0
LINE
  5
B9E
330
1F
100
AcDbEntity
  8
CLASS1
  6
CONTINUOUS
 62
     0
100
AcDbLine
 10
164.799060935535
 20
409.6181812904617
 30
0.0
 11
164.799060935535
 21
410.8681812904617
 31
0.0
  0
ARC
  5
B9F
330
1F
100
AcDbEntity
  8
CLASS1
  6
CONTINUOUS
 62
     0
100
AcDbCircle
 10
166.3740609355346
 20
408.2181812904616
 30
0.0
 40
0.5
100
AcDbArc
 50
90.0
 51
180.0
  0
LINE
  5
BA0
330
1F
100
AcDbEntity
  8
CLASS1
  6
CONTINUOUS
 62
     0
100
AcDbLine
 10
162.4740609355349
 20
429.7181812904613
 30
0.0
 11
174.4740609355349
 21
429.7181812904613
 31
0.0
  0
LINE
  5
BA1
330
1F
100
AcDbEntity
  8
CLASS1
  6
CONTINUOUS
 62
     0
100
AcDbLine
 10
174.4740609355349
 20
427.7181812904616
 30
0.0
 11
162.4740609355349
 21
427.7181812904616
 31
0.0
  0
LINE
  5
BA2
330
1F
100
AcDbEntity
  8
CLASS1
  6
CONTINUOUS
 62
     0
100
AcDbLine
 10
162.4740609355349
 20
425.7181812904616
 30
0.0
 11
174.4740609355349
 21
425.7181812904616
 31
0.0
  0
LINE
  5
BA3
330
1F
100
AcDbEntity
  8
CLASS1
  6
CONTINUOUS
 62
     0
100
AcDbLine
 10
174.4740609355349
 20
423.7181812904613
 30
0.0
 11
162.4740609355349
 21
423.7181812904613
 31
0.0
  0
LINE
  5
BA4
330
1F
100
AcDbEntity
  8
CLASS1
  6
CONTINUOUS
 62
     0
100
AcDbLine
 10
174.4740609355349
 20
429.7181812904613
 30
0.0
 11
174.4740609355349
 21
427.7181812904616
 31
0.0
  0
LINE
  5
BA5
330
1F
100
AcDbEntity
  8
CLASS1
  6
CONTINUOUS
 62
     0
100
AcDbLine
 10
174.4740609355349
 20
425.7181812904616
 30
0.0
 11
174.4740609355349
 21
423.7181812904613
 31
0.0
  0
LINE
  5
BA6
330
1F
100
AcDbEntity
  8
CLASS1
  6
CONTINUOUS
 62
     0
100
AcDbLine
 10
162.4740609355349
 20
427.7181812904616
 30
0.0
 11
162.4740609355349
 21
429.7181812904613
 31
0.0
  0
LINE
  5
BA7
330
1F
100
AcDbEntity
  8
CLASS1
  6
CONTINUOUS
 62
     0
100
AcDbLine
 10
162.4740609355349
 20
423.7181812904613
 30
0.0
 11
162.4740609355349
 21
425.7181812904616
 31
0.0
  0
ARC
  5
BA8
330
1F
100
AcDbEntity
  8
CLASS1
  6
CONTINUOUS
 62
     0
100
AcDbCircle
 10
151.973541935535
 20
435.3181812904613
 30
0.0
 40
1.0
100
AcDbArc
 50
90.0
 51
180.8823590000052
  0
LINE
  5
BA9
330
1F
100
AcDbEntity
  8
CLASS1
  6
CONTINUOUS
 62
     0
100
AcDbLine
 10
152.9738519355349
 20
435.3181812904613
 30
0.0
 11
152.9738519355349
 21
436.3181812904612
 31
0.0
  0
LINE
  5
BAA
330
1F
100
AcDbEntity
  8
CLASS1
  6
CONTINUOUS
 62
     0
100
AcDbLine
 10
152.9738519355349
 20
436.3181812904612
 30
0.0
 11
151.973541935535
 21
436.3181812904612
 31
0.0
  0
ARC
  5
BAB
330
1F
100
AcDbEntity
  8
0
100
AcDbCircle
 10
168.4740609355348
 20
468.7181812904611
 30
0.0
 40
100.0
100
AcDbArc
 50
262.1601729999956
 51
277.8398260000031
  0
ARC
  5
BAC
330
1F
100
AcDbEntity
  8
0
100
AcDbCircle
 10
181.9780779355348
 20
370.6435072904613
 30
0.0
 40
1.0
100
AcDbArc
 50
277.8398260000031
 51
359.1176430000001
  0
ARC
  5
BAD
330
1F
100
AcDbEntity
  8
0
100
AcDbCircle
 10
154.970043935535
 20
370.6435082904611
 30
0.0
 40
1.0
100
AcDbArc
 50
180.8823569999998
 51
262.1601729999956
  0
POINT
  5
BAE
330
1F
100
AcDbEntity
  8
0
100
AcDbPoint
 10
153.983321935535
 20
369.7736582904613
 30
0.0
  0
ARC
  5
BAF
330
1F
100
AcDbEntity
  8
0
100
AcDbCircle
 10
168.4740600628756
 20
-29.89999930946106
 30
0.0
 40
100.0
100
AcDbArc
 50
82.16017299999576
 51
97.83982600000328
  0
ARC
  5
BB0
330
1F
100
AcDbEntity
  8
0
100
AcDbCircle
 10
154.9700430628757
 20
68.17467469053906
 30
0.0
 40
1.0
100
AcDbArc
 50
97.83982600000328
 51
179.117643
  0
ARC
  5
BB1
330
1F
100
AcDbEntity
  8
0
100
AcDbCircle
 10
181.9780770628756
 20
68.17467369053918
 30
0.0
 40
1.0
100
AcDbArc
 50
0.88235699999983
 51
82.16017299999576
  0
LINE
  5
BB2
330
1F
100
AcDbEntity
  8
外枠
  6
BYBLOCK
100
AcDbLine
 10
169.9740595628756
 20
70.60000069053909
 30
0.0
 11
171.2600260628756
 21
70.60000069053909
 31
0.0
  0
LINE
  5
BB3
330
1F
100
AcDbEntity
  8
外枠
  6
BYBLOCK
100
AcDbLine
 10
171.2600260628756
 20
70.60000069053909
 30
0.0
 11
171.2600260628756
 21
70.03614616984679
 31
0.0
  0
LINE
  5
BB4
330
1F
100
AcDbEntity
  8
0
  6
BYBLOCK
100
AcDbLine
 10
169.974060435535
 20
368.2181812904613
 30
0.0
 11
171.2600260628756
 21
368.2181812904613
 31
0.0
  0
LINE
  5
BB5
330
1F
100
AcDbEntity
  8
0
  6
BYBLOCK
100
AcDbLine
 10
171.2600260628756
 20
368.2181812904613
 30
0.0
 11
171.2600260628756
 21
368.7569968321466
 31
0.0
  0
LINE
  5
BB6
330
1F
100
AcDbEntity
  8
0
  6
BYBLOCK
100
AcDbLine
 10
156.0743433754218
 20
277.8902890265044
 30
0.0
 11
162.5743432232451
 21
277.8920033639625
 31
0.0
  0
LINE
  5
BB7
330
1F
100
AcDbEntity
  8
0
  6
BYBLOCK
100
AcDbLine
 10
162.5743432232451
 20
277.8920033639625
 30
0.0
 11
162.5743432232451
 21
280.5920033639622
 31
0.0
  0
LINE
  5
BB8
330
1F
100
AcDbEntity
  8
0
  6
BYBLOCK
100
AcDbLine
 10
162.5743432232451
 20
280.5920033639622
 30
0.0
 11
166.8743432232454
 21
280.5920033639622
 31
0.0
  0
LINE
  5
BB9
330
1F
100
AcDbEntity
  8
0
  6
BYBLOCK
100
AcDbLine
 10
166.8743432232454
 20
280.5920033639622
 30
0.0
 11
166.8743432232454
 21
277.8920033639625
 31
0.0
  0
LINE
  5
BBA
330
1F
100
AcDbEntity
  8
0
  6
BYBLOCK
100
AcDbLine
 10
166.8743432232454
 20
277.8920033639625
 30
0.0
 11
170.4743432232448
 21
277.8920033639625
 31
0.0
  0
LINE
  5
BBB
330
1F
100
AcDbEntity
  8
0
  6
BYBLOCK
100
AcDbLine
 10
170.4743432232448
 20
277.8920033639625
 30
0.0
 11
170.4743432232448
 21
243.2321204265064
 31
0.0
  0
LINE
  5
BBC
330
1F
100
AcDbEntity
  8
0
  6
BYBLOCK
100
AcDbLine
 10
170.4743432232448
 20
243.2321204265064
 30
0.0
 11
166.874343375422
 21
243.2321204265064
 31
0.0
  0
LINE
  5
BBD
330
1F
100
AcDbEntity
  8
0
  6
BYBLOCK
100
AcDbLine
 10
166.874343375422
 20
243.2321204265064
 30
0.0
 11
166.874343375422
 21
240.5321204265064
 31
0.0
  0
LINE
  5
BBE
330
1F
100
AcDbEntity
  8
0
  6
BYBLOCK
100
AcDbLine
 10
166.874343375422
 20
240.5321204265064
 30
0.0
 11
162.5743433754219
 21
240.5321204265064
 31
0.0
  0
LINE
  5
BBF
330
1F
100
AcDbEntity
  8
0
  6
BYBLOCK
100
AcDbLine
 10
162.5743433754219
 20
240.5321204265064
 30
0.0
 11
162.5743433754219
 21
243.2321204265064
 31
0.0
  0
LINE
  5
BC0
330
1F
100
AcDbEntity
  8
0
  6
BYBLOCK
100
AcDbLine
 10
162.5743433754219
 20
243.2321204265064
 30
0.0
 11
156.0743433754218
 21
243.2321204265064
 31
0.0
  0
LINE
  5
BC1
330
1F
100
AcDbEntity
  8
0
100
AcDbLine
 10
169.9743867754255
 20
243.2321204265064
 30
0.0
 11
169.9743867754293
 21
277.8920033639625
 31
0.0
  0
LINE
  5
BC2
330
1F
100
AcDbEntity
  8
0
  6
CONTINUOUS
100
AcDbLine
 10
161.4243434640731
 20
269.4290053357184
 30
0.0
 11
161.4243434640729
 21
251.7290056009183
 31
0.0
  0
LINE
  5
BC3
330
1F
100
AcDbEntity
  8
0
  6
CONTINUOUS
100
AcDbLine
 10
159.9743435989229
 20
269.4290053357184
 30
0.0
 11
159.9743435989229
 21
251.7290056009183
 31
0.0
  0
LINE
  5
BC4
330
1F
100
AcDbEntity
  8
0
  6
CONTINUOUS
100
AcDbLine
 10
161.124343508023
 20
251.7290056009183
 30
0.0
 11
161.124343508023
 21
269.4290053357184
 31
0.0
  0
LINE
  5
BC5
330
1F
100
AcDbEntity
  8
0
  6
CONTINUOUS
100
AcDbLine
 10
168.5243435102733
 20
267.0790056024185
 30
0.0
 11
168.5243435102733
 21
268.4290051717685
 31
0.0
  0
LINE
  5
BC6
330
1F
100
AcDbEntity
  8
0
  6
CONTINUOUS
100
AcDbLine
 10
168.8243434663229
 20
268.7290055934685
 30
0.0
 11
168.8243434663229
 21
267.3790055584685
 31
0.0
  0
LINE
  5
BC7
330
1F
100
AcDbEntity
  8
0
  6
CONTINUOUS
100
AcDbLine
 10
169.974343375423
 20
267.3790055584685
 30
0.0
 11
169.974343375423
 21
272.8790050630184
 31
0.0
  0
LINE
  5
BC8
330
1F
100
AcDbEntity
  8
0
  6
CONTINUOUS
100
AcDbLine
 10
166.7243435411732
 20
250.2790052701181
 30
0.0
 11
166.7243435411732
 21
252.7290057648683
 31
0.0
  0
LINE
  5
BC9
330
1F
100
AcDbEntity
  8
0
  6
CONTINUOUS
100
AcDbLine
 10
163.224343433173
 20
251.7290056009183
 30
0.0
 11
163.224343433173
 21
250.2790052701181
 31
0.0
  0
LINE
  5
BCA
330
1F
100
AcDbEntity
  8
0
  6
CONTINUOUS
100
AcDbLine
 10
159.9743435989229
 20
251.4290051792181
 30
0.0
 11
159.9743435989229
 21
251.7290056009183
 31
0.0
  0
LINE
  5
BCB
330
1F
100
AcDbEntity
  8
0
  6
CONTINUOUS
100
AcDbLine
 10
162.9243434771231
 20
251.4290051792181
 30
0.0
 11
163.224343433173
 21
251.7290056009183
 31
0.0
  0
LINE
  5
BCC
330
1F
100
AcDbEntity
  8
0
  6
CONTINUOUS
100
AcDbLine
 10
169.974343375423
 20
248.2790058736187
 30
0.0
 11
169.974343375423
 21
253.7790053781685
 31
0.0
  0
LINE
  5
BCD
330
1F
100
AcDbEntity
  8
0
  6
CONTINUOUS
100
AcDbLine
 10
167.0243434972233
 20
252.4290053431684
 30
0.0
 11
167.0243434972233
 21
249.9790057797685
 31
0.0
  0
LINE
  5
BCE
330
1F
100
AcDbEntity
  8
0
  6
CONTINUOUS
100
AcDbLine
 10
160.274343554973
 20
243.9490059648185
 30
0.0
 11
169.6743434193728
 21
243.9490059648185
 31
0.0
  0
LINE
  5
BCF
330
1F
100
AcDbEntity
  8
0
  6
CONTINUOUS
100
AcDbLine
 10
169.974343375423
 20
248.2790058736187
 30
0.0
 11
159.9743435989229
 21
248.2790058736187
 31
0.0
  0
LINE
  5
BD0
330
1F
100
AcDbEntity
  8
0
  6
CONTINUOUS
100
AcDbLine
 10
169.974343375423
 20
244.2490054552183
 30
0.0
 11
169.974343375423
 21
248.2790058736187
 31
0.0
  0
LINE
  5
BD1
330
1F
100
AcDbEntity
  8
0
  6
CONTINUOUS
100
AcDbLine
 10
169.6743434193728
 20
243.9490059648185
 30
0.0
 11
169.974343375423
 21
244.2490054552183
 31
0.0
  0
LINE
  5
BD2
330
1F
100
AcDbEntity
  8
0
  6
CONTINUOUS
100
AcDbLine
 10
162.9243434771231
 20
251.4290051792181
 30
0.0
 11
159.9743435989229
 21
251.4290051792181
 31
0.0
  0
LINE
  5
BD3
330
1F
100
AcDbEntity
  8
0
  6
CONTINUOUS
100
AcDbLine
 10
163.224343433173
 20
250.2790052701181
 30
0.0
 11
166.7243435411732
 21
250.2790052701181
 31
0.0
  0
LINE
  5
BD4
330
1F
100
AcDbEntity
  8
0
  6
CONTINUOUS
100
AcDbLine
 10
167.0243434972233
 20
249.9790057797685
 30
0.0
 11
162.9243434771231
 21
249.9790057797685
 31
0.0
  0
LINE
  5
BD5
330
1F
100
AcDbEntity
  8
0
  6
CONTINUOUS
100
AcDbLine
 10
167.0243434972233
 20
249.9790057797685
 30
0.0
 11
166.7243435411732
 21
250.2790052701181
 31
0.0
  0
LINE
  5
BD6
330
1F
100
AcDbEntity
  8
0
  6
CONTINUOUS
100
AcDbLine
 10
162.9243434771231
 20
249.9790057797685
 30
0.0
 11
163.224343433173
 21
250.2790052701181
 31
0.0
  0
LINE
  5
BD7
330
1F
100
AcDbEntity
  8
0
  6
CONTINUOUS
100
AcDbLine
 10
162.9243434771231
 20
249.9790057797685
 30
0.0
 11
162.9243434771231
 21
251.4290051792181
 31
0.0
  0
LINE
  5
BD8
330
1F
100
AcDbEntity
  8
0
  6
CONTINUOUS
100
AcDbLine
 10
159.9743435989229
 20
248.2790058736187
 30
0.0
 11
159.9743435989229
 21
244.2490054552183
 31
0.0
  0
LINE
  5
BD9
330
1F
100
AcDbEntity
  8
0
  6
CONTINUOUS
100
AcDbLine
 10
159.9743435989229
 20
244.2490054552183
 30
0.0
 11
160.274343554973
 21
243.9490059648185
 31
0.0
  0
LINE
  5
BDA
330
1F
100
AcDbEntity
  8
0
  6
CONTINUOUS
100
AcDbLine
 10
159.9743435989229
 20
251.4290051792181
 30
0.0
 11
159.9743435989229
 21
248.2790058736187
 31
0.0
  0
LINE
  5
BDB
330
1F
100
AcDbEntity
  8
0
  6
CONTINUOUS
100
AcDbLine
 10
166.7243435411732
 20
252.7290057648683
 30
0.0
 11
168.5243435102733
 21
252.7290057648683
 31
0.0
  0
LINE
  5
BDC
330
1F
100
AcDbEntity
  8
0
  6
CONTINUOUS
100
AcDbLine
 10
168.8243434663229
 20
252.4290053431684
 30
0.0
 11
167.0243434972233
 21
252.4290053431684
 31
0.0
  0
LINE
  5
BDD
330
1F
100
AcDbEntity
  8
0
  6
CONTINUOUS
100
AcDbLine
 10
169.974343375423
 20
254.0790053342184
 30
0.0
 11
169.974343375423
 21
267.0790056024185
 31
0.0
  0
LINE
  5
BDE
330
1F
100
AcDbEntity
  8
0
  6
CONTINUOUS
100
AcDbLine
 10
168.5243435102733
 20
254.0790053342184
 30
0.0
 11
168.5243435102733
 21
267.0790056024185
 31
0.0
  0
LINE
  5
BDF
330
1F
100
AcDbEntity
  8
0
  6
CONTINUOUS
100
AcDbLine
 10
168.8243434663229
 20
267.0790056024185
 30
0.0
 11
168.8243434663229
 21
254.0790053342184
 31
0.0
  0
LINE
  5
BE0
330
1F
100
AcDbEntity
  8
0
  6
CONTINUOUS
100
AcDbLine
 10
168.5243435102733
 20
252.7290057648683
 30
0.0
 11
168.5243435102733
 21
254.0790053342184
 31
0.0
  0
LINE
  5
BE1
330
1F
100
AcDbEntity
  8
0
  6
CONTINUOUS
100
AcDbLine
 10
168.8243434663229
 20
253.7790053781685
 30
0.0
 11
168.8243434663229
 21
252.4290053431684
 31
0.0
  0
LINE
  5
BE2
330
1F
100
AcDbEntity
  8
0
  6
CONTINUOUS
100
AcDbLine
 10
168.8243434663229
 20
252.4290053431684
 30
0.0
 11
168.5243435102733
 21
252.7290057648683
 31
0.0
  0
LINE
  5
BE3
330
1F
100
AcDbEntity
  8
0
  6
CONTINUOUS
100
AcDbLine
 10
169.974343375423
 20
254.0790053342184
 30
0.0
 11
169.974343375423
 21
253.7790053781685
 31
0.0
  0
LINE
  5
BE4
330
1F
100
AcDbEntity
  8
0
  6
CONTINUOUS
100
AcDbLine
 10
168.5243435102733
 20
254.0790053342184
 30
0.0
 11
169.974343375423
 21
254.0790053342184
 31
0.0
  0
LINE
  5
BE5
330
1F
100
AcDbEntity
  8
0
  6
CONTINUOUS
100
AcDbLine
 10
168.8243434663229
 20
253.7790053781685
 30
0.0
 11
168.5243435102733
 21
254.0790053342184
 31
0.0
  0
LINE
  5
BE6
330
1F
100
AcDbEntity
  8
0
  6
CONTINUOUS
100
AcDbLine
 10
169.974343375423
 20
253.7790053781685
 30
0.0
 11
168.8243434663229
 21
253.7790053781685
 31
0.0
  0
LINE
  5
BE7
330
1F
100
AcDbEntity
  8
0
  6
CONTINUOUS
100
AcDbLine
 10
169.974343375423
 20
267.3790055584685
 30
0.0
 11
169.974343375423
 21
267.0790056024185
 31
0.0
  0
LINE
  5
BE8
330
1F
100
AcDbEntity
  8
0
  6
CONTINUOUS
100
AcDbLine
 10
169.974343375423
 20
267.0790056024185
 30
0.0
 11
168.5243435102733
 21
267.0790056024185
 31
0.0
  0
LINE
  5
BE9
330
1F
100
AcDbEntity
  8
0
  6
CONTINUOUS
100
AcDbLine
 10
168.5243435102733
 20
267.0790056024185
 30
0.0
 11
168.8243434663229
 21
267.3790055584685
 31
0.0
  0
LINE
  5
BEA
330
1F
100
AcDbEntity
  8
0
  6
CONTINUOUS
100
AcDbLine
 10
168.8243434663229
 20
267.3790055584685
 30
0.0
 11
169.974343375423
 21
267.3790055584685
 31
0.0
  0
LINE
  5
BEB
330
1F
100
AcDbEntity
  8
0
  6
CONTINUOUS
100
AcDbLine
 10
164.3743434586731
 20
260.2090054740181
 30
0.0
 11
164.6743434729231
 21
259.9090054888682
 31
0.0
  0
LINE
  5
BEC
330
1F
100
AcDbEntity
  8
0
  6
CONTINUOUS
100
AcDbLine
 10
165.574343515673
 20
260.2090054740181
 30
0.0
 11
165.2743435014228
 21
259.9090054888682
 31
0.0
  0
LINE
  5
BED
330
1F
100
AcDbEntity
  8
0
  6
CONTINUOUS
100
AcDbLine
 10
166.899343476723
 20
267.1290055174685
 30
0.0
 11
166.899343476723
 21
254.0290054191685
 31
0.0
  0
LINE
  5
BEE
330
1F
100
AcDbEntity
  8
0
  6
CONTINUOUS
100
AcDbLine
 10
166.5993435206733
 20
254.3290053751682
 30
0.0
 11
166.5993435206733
 21
266.8290055614684
 31
0.0
  0
LINE
  5
BEF
330
1F
100
AcDbEntity
  8
0
  6
CONTINUOUS
100
AcDbLine
 10
165.574343515673
 20
260.2090054740181
 30
0.0
 11
165.574343515673
 21
258.4090054758183
 31
0.0
  0
LINE
  5
BF0
330
1F
100
AcDbEntity
  8
0
  6
CONTINUOUS
100
AcDbLine
 10
164.3743434586731
 20
258.4090054758183
 30
0.0
 11
164.3743434586731
 21
260.2090054740181
 31
0.0
  0
LINE
  5
BF1
330
1F
100
AcDbEntity
  8
0
  6
CONTINUOUS
100
AcDbLine
 10
163.349343453623
 20
266.8290055614684
 30
0.0
 11
163.349343453623
 21
254.3290053751682
 31
0.0
  0
LINE
  5
BF2
330
1F
100
AcDbEntity
  8
0
  6
CONTINUOUS
100
AcDbLine
 10
163.0493434976231
 20
254.0290054191685
 30
0.0
 11
163.0493434976231
 21
267.1290055174685
 31
0.0
  0
LINE
  5
BF3
330
1F
100
AcDbEntity
  8
0
  6
CONTINUOUS
100
AcDbLine
 10
159.9743435989229
 20
251.7290056009183
 30
0.0
 11
163.224343433173
 21
251.7290056009183
 31
0.0
  0
LINE
  5
BF4
330
1F
100
AcDbEntity
  8
0
  6
CONTINUOUS
100
AcDbLine
 10
166.7243435411732
 20
251.7290056009183
 30
0.0
 11
163.224343433173
 21
251.7290056009183
 31
0.0
  0
LINE
  5
BF5
330
1F
100
AcDbEntity
  8
0
  6
CONTINUOUS
100
AcDbLine
 10
166.899343476723
 20
254.0290054191685
 30
0.0
 11
163.0493434976231
 21
254.0290054191685
 31
0.0
  0
LINE
  5
BF6
330
1F
100
AcDbEntity
  8
0
  6
CONTINUOUS
100
AcDbLine
 10
163.349343453623
 20
254.3290053751682
 30
0.0
 11
166.5993435206733
 21
254.3290053751682
 31
0.0
  0
LINE
  5
BF7
330
1F
100
AcDbEntity
  8
0
  6
CONTINUOUS
100
AcDbLine
 10
167.0243434972233
 20
252.4290053431684
 30
0.0
 11
166.7243435411732
 21
252.7290057648683
 31
0.0
  0
LINE
  5
BF8
330
1F
100
AcDbEntity
  8
0
  6
CONTINUOUS
100
AcDbLine
 10
166.5993435206733
 20
254.3290053751682
 30
0.0
 11
166.899343476723
 21
254.0290054191685
 31
0.0
  0
LINE
  5
BF9
330
1F
100
AcDbEntity
  8
0
  6
CONTINUOUS
100
AcDbLine
 10
163.0493434976231
 20
254.0290054191685
 30
0.0
 11
163.349343453623
 21
254.3290053751682
 31
0.0
  0
LINE
  5
BFA
330
1F
100
AcDbEntity
  8
0
  6
CONTINUOUS
100
AcDbLine
 10
164.6743434729231
 20
256.1690054160184
 30
0.0
 11
165.2743435014228
 21
256.1690054160184
 31
0.0
  0
LINE
  5
BFB
330
1F
100
AcDbEntity
  8
0
  6
CONTINUOUS
100
AcDbLine
 10
165.2743435014228
 20
257.3690054730184
 30
0.0
 11
164.6743434729231
 21
257.3690054730184
 31
0.0
  0
LINE
  5
BFC
330
1F
100
AcDbEntity
  8
0
  6
CONTINUOUS
100
AcDbLine
 10
164.6743434729231
 20
258.7090054318681
 30
0.0
 11
165.2743435014228
 21
258.7090054318681
 31
0.0
  0
LINE
  5
BFD
330
1F
100
AcDbEntity
  8
0
  6
CONTINUOUS
100
AcDbLine
 10
165.2743435014228
 20
259.9090054888682
 30
0.0
 11
164.6743434729231
 21
259.9090054888682
 31
0.0
  0
LINE
  5
BFE
330
1F
100
AcDbEntity
  8
0
  6
CONTINUOUS
100
AcDbLine
 10
165.574343515673
 20
258.4090054758183
 30
0.0
 11
164.3743434586731
 21
258.4090054758183
 31
0.0
  0
LINE
  5
BFF
330
1F
100
AcDbEntity
  8
0
  6
CONTINUOUS
100
AcDbLine
 10
164.3743434586731
 20
257.6690054290684
 30
0.0
 11
165.574343515673
 21
257.6690054290684
 31
0.0
  0
LINE
  5
C00
330
1F
100
AcDbEntity
  8
0
  6
CONTINUOUS
100
AcDbLine
 10
165.574343515673
 20
255.8690054599685
 30
0.0
 11
164.3743434586731
 21
255.8690054599685
 31
0.0
  0
ARC
  5
C01
330
1F
100
AcDbEntity
  8
0
  6
CONTINUOUS
100
AcDbCircle
 10
164.674343487173
 20
258.9990054683183
 30
0.0
 40
0.1000000000000041
100
AcDbArc
 50
303.1270179968003
 51
0.0
  0
LINE
  5
C02
330
1F
100
AcDbEntity
  8
0
  6
CONTINUOUS
100
AcDbLine
 10
164.7276203337729
 20
258.8990054816683
 30
0.0
 11
164.8822920077229
 21
258.8990054816683
 31
0.0
  0
LINE
  5
C03
330
1F
100
AcDbEntity
  8
0
  6
CONTINUOUS
100
AcDbLine
 10
164.854343490223
 20
259.4990055101685
 30
0.0
 11
164.7067793427229
 21
259.4990055101685
 31
0.0
  0
LINE
  5
C04
330
1F
100
AcDbEntity
  8
0
  6
CONTINUOUS
100
AcDbLine
 10
164.854343490223
 20
259.0990054911683
 30
0.0
 11
164.7067793427229
 21
259.0990054911683
 31
0.0
  0
ARC
  5
C05
330
1F
100
AcDbEntity
  8
0
  6
CONTINUOUS
100
AcDbCircle
 10
164.674343487173
 20
256.4590054683185
 30
0.0
 40
0.1000000000000041
100
AcDbArc
 50
303.1270179968003
 51
0.0
  0
LINE
  5
C06
330
1F
100
AcDbEntity
  8
0
  6
CONTINUOUS
100
AcDbLine
 10
164.7276203337729
 20
256.3590054657685
 30
0.0
 11
164.8822920077229
 21
256.3590054657685
 31
0.0
  0
LINE
  5
C07
330
1F
100
AcDbEntity
  8
0
  6
CONTINUOUS
100
AcDbLine
 10
164.854343490223
 20
256.9590053778684
 30
0.0
 11
164.7067793427229
 21
256.9590053778684
 31
0.0
  0
LINE
  5
C08
330
1F
100
AcDbEntity
  8
0
  6
CONTINUOUS
100
AcDbLine
 10
164.854343490223
 20
256.5590055917184
 30
0.0
 11
164.7067793427229
 21
256.5590055917184
 31
0.0
  0
LINE
  5
C09
330
1F
100
AcDbEntity
  8
0
  6
CONTINUOUS
100
AcDbLine
 10
165.2743435014228
 20
256.1690054160184
 30
0.0
 11
165.2743435014228
 21
257.3690054730184
 31
0.0
  0
LINE
  5
C0A
330
1F
100
AcDbEntity
  8
0
  6
CONTINUOUS
100
AcDbLine
 10
165.2743435014228
 20
256.1690054160184
 30
0.0
 11
165.574343515673
 21
255.8690054599685
 31
0.0
  0
LINE
  5
C0B
330
1F
100
AcDbEntity
  8
0
  6
CONTINUOUS
100
AcDbLine
 10
165.574343515673
 20
257.6690054290684
 30
0.0
 11
165.2743435014228
 21
257.3690054730184
 31
0.0
  0
LINE
  5
C0C
330
1F
100
AcDbEntity
  8
0
  6
CONTINUOUS
100
AcDbLine
 10
165.574343515673
 20
257.6690054290684
 30
0.0
 11
165.574343515673
 21
255.8690054599685
 31
0.0
  0
LINE
  5
C0D
330
1F
100
AcDbEntity
  8
0
  6
CONTINUOUS
100
AcDbLine
 10
165.1743434821231
 20
257.1690055799184
 30
0.0
 11
165.2743435014228
 21
257.1690055799184
 31
0.0
  0
LINE
  5
C0E
330
1F
100
AcDbEntity
  8
0
  6
CONTINUOUS
100
AcDbLine
 10
165.1743434821231
 20
256.3690055419184
 30
0.0
 11
165.2202220183229
 21
256.3690055419184
 31
0.0
  0
LINE
  5
C0F
330
1F
100
AcDbEntity
  8
0
  6
CONTINUOUS
100
AcDbLine
 10
164.7743434922229
 20
257.1690055799184
 30
0.0
 11
165.1743434821231
 21
257.1690055799184
 31
0.0
  0
LINE
  5
C10
330
1F
100
AcDbEntity
  8
0
  6
CONTINUOUS
100
AcDbLine
 10
164.7743434922229
 20
256.9590053778684
 30
0.0
 11
164.7743434922229
 21
257.1690055799184
 31
0.0
  0
LINE
  5
C11
330
1F
100
AcDbEntity
  8
0
  6
CONTINUOUS
100
AcDbLine
 10
164.7743434922229
 20
256.4590052959181
 30
0.0
 11
164.7743434922229
 21
256.5590055917184
 31
0.0
  0
LINE
  5
C12
330
1F
100
AcDbEntity
  8
0
  6
CONTINUOUS
100
AcDbLine
 10
165.166176787223
 20
256.3690055419184
 30
0.0
 11
165.1642414407232
 21
256.3590054657685
 31
0.0
  0
LINE
  5
C13
330
1F
100
AcDbEntity
  8
0
  6
CONTINUOUS
100
AcDbLine
 10
165.1743434821231
 20
256.3690055419184
 30
0.0
 11
165.166176787223
 21
256.3690055419184
 31
0.0
  0
LINE
  5
C14
330
1F
100
AcDbEntity
  8
0
  6
CONTINUOUS
100
AcDbLine
 10
165.1743434821231
 20
256.9590053778684
 30
0.0
 11
165.1743434821231
 21
257.1690055799184
 31
0.0
  0
LINE
  5
C15
330
1F
100
AcDbEntity
  8
0
  6
CONTINUOUS
100
AcDbLine
 10
165.1743434821231
 20
256.3690055419184
 30
0.0
 11
165.1743434821231
 21
256.5590055917184
 31
0.0
  0
LINE
  5
C16
330
1F
100
AcDbEntity
  8
0
  6
CONTINUOUS
100
AcDbLine
 10
165.0663949666229
 20
256.3590054657685
 30
0.0
 11
164.8822920077229
 21
256.3590054657685
 31
0.0
  0
LINE
  5
C17
330
1F
100
AcDbEntity
  8
0
  6
CONTINUOUS
100
AcDbLine
 10
165.0663949666229
 20
256.3590054657685
 30
0.0
 11
165.221066640573
 21
256.3590054657685
 31
0.0
  0
LINE
  5
C18
330
1F
100
AcDbEntity
  8
0
  6
CONTINUOUS
100
AcDbLine
 10
165.237114667323
 20
256.1690054160184
 30
0.0
 11
165.2041739915731
 21
256.5590055917184
 31
0.0
  0
LINE
  5
C19
330
1F
100
AcDbEntity
  8
0
  6
CONTINUOUS
100
AcDbLine
 10
165.0943434841231
 20
256.9590053778684
 30
0.0
 11
165.241907631623
 21
256.9590053778684
 31
0.0
  0
LINE
  5
C1A
330
1F
100
AcDbEntity
  8
0
  6
CONTINUOUS
100
AcDbLine
 10
165.0943434841231
 20
256.5590055917184
 30
0.0
 11
165.241907631623
 21
256.5590055917184
 31
0.0
  0
LINE
  5
C1B
330
1F
100
AcDbEntity
  8
0
  6
CONTINUOUS
100
AcDbLine
 10
165.241907631623
 20
256.9590053778684
 30
0.0
 11
165.2743435014228
 21
256.9590053778684
 31
0.0
  0
LINE
  5
C1C
330
1F
100
AcDbEntity
  8
0
  6
CONTINUOUS
100
AcDbLine
 10
165.241907631623
 20
256.5590055917184
 30
0.0
 11
165.2743435014228
 21
256.5590055917184
 31
0.0
  0
LINE
  5
C1D
330
1F
100
AcDbEntity
  8
0
  6
CONTINUOUS
100
AcDbLine
 10
165.0943434841231
 20
256.9590053778684
 30
0.0
 11
165.0943434841231
 21
256.5590055917184
 31
0.0
  0
LINE
  5
C1E
330
1F
100
AcDbEntity
  8
0
  6
CONTINUOUS
100
AcDbLine
 10
164.854343490223
 20
256.5590055917184
 30
0.0
 11
164.854343490223
 21
256.9590053778684
 31
0.0
  0
LINE
  5
C1F
330
1F
100
AcDbEntity
  8
0
  6
CONTINUOUS
100
AcDbLine
 10
165.2743435014228
 20
258.7090054318681
 30
0.0
 11
165.2743435014228
 21
259.9090054888682
 31
0.0
  0
LINE
  5
C20
330
1F
100
AcDbEntity
  8
0
  6
CONTINUOUS
100
AcDbLine
 10
165.2743435014228
 20
258.7090054318681
 30
0.0
 11
165.574343515673
 21
258.4090054758183
 31
0.0
  0
LINE
  5
C21
330
1F
100
AcDbEntity
  8
0
  6
CONTINUOUS
100
AcDbLine
 10
165.1743434821231
 20
259.7090054793685
 30
0.0
 11
165.2743435014228
 21
259.7090054793685
 31
0.0
  0
LINE
  5
C22
330
1F
100
AcDbEntity
  8
0
  6
CONTINUOUS
100
AcDbLine
 10
165.1743434821231
 20
258.9090054413681
 30
0.0
 11
165.2202220183229
 21
258.9090054413681
 31
0.0
  0
LINE
  5
C23
330
1F
100
AcDbEntity
  8
0
  6
CONTINUOUS
100
AcDbLine
 10
164.7743434922229
 20
259.7090054793685
 30
0.0
 11
165.1743434821231
 21
259.7090054793685
 31
0.0
  0
LINE
  5
C24
330
1F
100
AcDbEntity
  8
0
  6
CONTINUOUS
100
AcDbLine
 10
164.7743434922229
 20
259.4990055101685
 30
0.0
 11
164.7743434922229
 21
259.7090054793685
 31
0.0
  0
LINE
  5
C25
330
1F
100
AcDbEntity
  8
0
  6
CONTINUOUS
100
AcDbLine
 10
164.7743434922229
 20
258.9990054282184
 30
0.0
 11
164.7743434922229
 21
259.0990054911683
 31
0.0
  0
LINE
  5
C26
330
1F
100
AcDbEntity
  8
0
  6
CONTINUOUS
100
AcDbLine
 10
165.166176787223
 20
258.9090054413681
 30
0.0
 11
165.1642414407232
 21
258.8990054816683
 31
0.0
  0
LINE
  5
C27
330
1F
100
AcDbEntity
  8
0
  6
CONTINUOUS
100
AcDbLine
 10
165.1743434821231
 20
258.9090054413681
 30
0.0
 11
165.166176787223
 21
258.9090054413681
 31
0.0
  0
LINE
  5
C28
330
1F
100
AcDbEntity
  8
0
  6
CONTINUOUS
100
AcDbLine
 10
165.1743434821231
 20
259.4990055101685
 30
0.0
 11
165.1743434821231
 21
259.7090054793685
 31
0.0
  0
LINE
  5
C29
330
1F
100
AcDbEntity
  8
0
  6
CONTINUOUS
100
AcDbLine
 10
165.1743434821231
 20
258.9090054413681
 30
0.0
 11
165.1743434821231
 21
259.0990054911683
 31
0.0
  0
LINE
  5
C2A
330
1F
100
AcDbEntity
  8
0
  6
CONTINUOUS
100
AcDbLine
 10
165.0663949666229
 20
258.8990054816683
 30
0.0
 11
164.8822920077229
 21
258.8990054816683
 31
0.0
  0
LINE
  5
C2B
330
1F
100
AcDbEntity
  8
0
  6
CONTINUOUS
100
AcDbLine
 10
165.0663949666229
 20
258.8990054816683
 30
0.0
 11
165.221066640573
 21
258.8990054816683
 31
0.0
  0
LINE
  5
C2C
330
1F
100
AcDbEntity
  8
0
  6
CONTINUOUS
100
AcDbLine
 10
165.237114667323
 20
258.7090054318681
 30
0.0
 11
165.2041739915731
 21
259.0990054911683
 31
0.0
  0
LINE
  5
C2D
330
1F
100
AcDbEntity
  8
0
  6
CONTINUOUS
100
AcDbLine
 10
165.0943434841231
 20
259.4990055101685
 30
0.0
 11
165.241907631623
 21
259.4990055101685
 31
0.0
  0
LINE
  5
C2E
330
1F
100
AcDbEntity
  8
0
  6
CONTINUOUS
100
AcDbLine
 10
165.0943434841231
 20
259.0990054911683
 30
0.0
 11
165.241907631623
 21
259.0990054911683
 31
0.0
  0
LINE
  5
C2F
330
1F
100
AcDbEntity
  8
0
  6
CONTINUOUS
100
AcDbLine
 10
165.241907631623
 20
259.4990055101685
 30
0.0
 11
165.2743435014228
 21
259.4990055101685
 31
0.0
  0
LINE
  5
C30
330
1F
100
AcDbEntity
  8
0
  6
CONTINUOUS
100
AcDbLine
 10
165.241907631623
 20
259.0990054911683
 30
0.0
 11
165.2743435014228
 21
259.0990054911683
 31
0.0
  0
LINE
  5
C31
330
1F
100
AcDbEntity
  8
0
  6
CONTINUOUS
100
AcDbLine
 10
165.0943434841231
 20
259.4990055101685
 30
0.0
 11
165.0943434841231
 21
259.0990054911683
 31
0.0
  0
LINE
  5
C32
330
1F
100
AcDbEntity
  8
0
  6
CONTINUOUS
100
AcDbLine
 10
164.854343490223
 20
259.0990054911683
 30
0.0
 11
164.854343490223
 21
259.4990055101685
 31
0.0
  0
LINE
  5
C33
330
1F
100
AcDbEntity
  8
0
  6
CONTINUOUS
100
AcDbLine
 10
164.6743434729231
 20
256.1690054160184
 30
0.0
 11
164.3743434586731
 21
255.8690054599685
 31
0.0
  0
LINE
  5
C34
330
1F
100
AcDbEntity
  8
0
  6
CONTINUOUS
100
AcDbLine
 10
164.6743434729231
 20
257.3690054730184
 30
0.0
 11
164.6743434729231
 21
256.1690054160184
 31
0.0
  0
LINE
  5
C35
330
1F
100
AcDbEntity
  8
0
  6
CONTINUOUS
100
AcDbLine
 10
164.3743434586731
 20
257.6690054290684
 30
0.0
 11
164.6743434729231
 21
257.3690054730184
 31
0.0
  0
LINE
  5
C36
330
1F
100
AcDbEntity
  8
0
  6
CONTINUOUS
100
AcDbLine
 10
164.3743434586731
 20
255.8690054599685
 30
0.0
 11
164.3743434586731
 21
257.6690054290684
 31
0.0
  0
LINE
  5
C37
330
1F
100
AcDbEntity
  8
0
  6
CONTINUOUS
100
AcDbLine
 10
164.7115723070229
 20
256.1690054160184
 30
0.0
 11
164.7445129827731
 21
256.5590055917184
 31
0.0
  0
LINE
  5
C38
330
1F
100
AcDbEntity
  8
0
  6
CONTINUOUS
100
AcDbLine
 10
164.7067793427229
 20
256.9590053778684
 30
0.0
 11
164.6743434729231
 21
256.9590053778684
 31
0.0
  0
LINE
  5
C39
330
1F
100
AcDbEntity
  8
0
  6
CONTINUOUS
100
AcDbLine
 10
164.7067793427229
 20
256.5590055917184
 30
0.0
 11
164.6743434729231
 21
256.5590055917184
 31
0.0
  0
LINE
  5
C3A
330
1F
100
AcDbEntity
  8
0
  6
CONTINUOUS
100
AcDbLine
 10
164.6743434729231
 20
258.7090054318681
 30
0.0
 11
164.3743434586731
 21
258.4090054758183
 31
0.0
  0
LINE
  5
C3B
330
1F
100
AcDbEntity
  8
0
  6
CONTINUOUS
100
AcDbLine
 10
164.6743434729231
 20
259.9090054888682
 30
0.0
 11
164.6743434729231
 21
258.7090054318681
 31
0.0
  0
LINE
  5
C3C
330
1F
100
AcDbEntity
  8
0
  6
CONTINUOUS
100
AcDbLine
 10
164.7115723070229
 20
258.7090054318681
 30
0.0
 11
164.7445129827731
 21
259.0990054911683
 31
0.0
  0
LINE
  5
C3D
330
1F
100
AcDbEntity
  8
0
  6
CONTINUOUS
100
AcDbLine
 10
164.7067793427229
 20
259.4990055101685
 30
0.0
 11
164.6743434729231
 21
259.4990055101685
 31
0.0
  0
LINE
  5
C3E
330
1F
100
AcDbEntity
  8
0
  6
CONTINUOUS
100
AcDbLine
 10
164.7067793427229
 20
259.0990054911683
 30
0.0
 11
164.6743434729231
 21
259.0990054911683
 31
0.0
  0
LINE
  5
C3F
330
1F
100
AcDbEntity
  8
0
  6
CONTINUOUS
100
AcDbLine
 10
165.2743435014228
 20
263.7890054636183
 30
0.0
 11
165.2743435014228
 21
264.9890055206185
 31
0.0
  0
LINE
  5
C40
330
1F
100
AcDbEntity
  8
0
  6
CONTINUOUS
100
AcDbLine
 10
164.6743434729231
 20
264.9890055206185
 30
0.0
 11
164.6743434729231
 21
263.7890054636183
 31
0.0
  0
LINE
  5
C41
330
1F
100
AcDbEntity
  8
0
  6
CONTINUOUS
100
AcDbLine
 10
165.574343515673
 20
265.2890054766684
 30
0.0
 11
165.574343515673
 21
263.4890055075683
 31
0.0
  0
LINE
  5
C42
330
1F
100
AcDbEntity
  8
0
  6
CONTINUOUS
100
AcDbLine
 10
164.3743434586731
 20
263.4890055075683
 30
0.0
 11
164.3743434586731
 21
265.2890054766684
 31
0.0
  0
ARC
  5
C43
330
1F
100
AcDbEntity
  8
0
  6
CONTINUOUS
100
AcDbCircle
 10
164.674343487173
 20
264.0790054683185
 30
0.0
 40
0.0999999999999804
100
AcDbArc
 50
303.1270179968003
 51
0.0
  0
LINE
  5
C44
330
1F
100
AcDbEntity
  8
0
  6
CONTINUOUS
100
AcDbLine
 10
165.1743434821231
 20
263.9890053567181
 30
0.0
 11
165.1743434821231
 21
264.1790054064683
 31
0.0
  0
LINE
  5
C45
330
1F
100
AcDbEntity
  8
0
  6
CONTINUOUS
100
AcDbLine
 10
165.237114667323
 20
263.7890054636183
 30
0.0
 11
165.2041739915731
 21
264.1790054064683
 31
0.0
  0
LINE
  5
C46
330
1F
100
AcDbEntity
  8
0
  6
CONTINUOUS
100
AcDbLine
 10
164.7115723070229
 20
263.7890054636183
 30
0.0
 11
164.7445129827731
 21
264.1790054064683
 31
0.0
  0
LINE
  5
C47
330
1F
100
AcDbEntity
  8
0
  6
CONTINUOUS
100
AcDbLine
 10
164.6743434729231
 20
261.2490054477685
 30
0.0
 11
165.2743435014228
 21
261.2490054477685
 31
0.0
  0
LINE
  5
C48
330
1F
100
AcDbEntity
  8
0
  6
CONTINUOUS
100
AcDbLine
 10
165.2743435014228
 20
262.4490055047683
 30
0.0
 11
164.6743434729231
 21
262.4490055047683
 31
0.0
  0
LINE
  5
C49
330
1F
100
AcDbEntity
  8
0
  6
CONTINUOUS
100
AcDbLine
 10
164.6743434729231
 20
263.7890054636183
 30
0.0
 11
165.2743435014228
 21
263.7890054636183
 31
0.0
  0
LINE
  5
C4A
330
1F
100
AcDbEntity
  8
0
  6
CONTINUOUS
100
AcDbLine
 10
165.574343515673
 20
263.4890055075683
 30
0.0
 11
164.3743434586731
 21
263.4890055075683
 31
0.0
  0
LINE
  5
C4B
330
1F
100
AcDbEntity
  8
0
  6
CONTINUOUS
100
AcDbLine
 10
164.3743434586731
 20
262.7490054607684
 30
0.0
 11
165.574343515673
 21
262.7490054607684
 31
0.0
  0
LINE
  5
C4C
330
1F
100
AcDbEntity
  8
0
  6
CONTINUOUS
100
AcDbLine
 10
165.574343515673
 20
260.9490054626184
 30
0.0
 11
164.3743434586731
 21
260.9490054626184
 31
0.0
  0
LINE
  5
C4D
330
1F
100
AcDbEntity
  8
0
  6
CONTINUOUS
100
AcDbLine
 10
164.3743434586731
 20
260.2090054740181
 30
0.0
 11
165.574343515673
 21
260.2090054740181
 31
0.0
  0
ARC
  5
C4E
330
1F
100
AcDbEntity
  8
0
  6
CONTINUOUS
100
AcDbCircle
 10
164.674343487173
 20
261.5390054683184
 30
0.0
 40
0.1000000000000041
100
AcDbArc
 50
303.1270179968003
 51
0.0
  0
LINE
  5
C4F
330
1F
100
AcDbEntity
  8
0
  6
CONTINUOUS
100
AcDbLine
 10
164.7276203337729
 20
261.4390054393185
 30
0.0
 11
164.8822920077229
 21
261.4390054393185
 31
0.0
  0
LINE
  5
C50
330
1F
100
AcDbEntity
  8
0
  6
CONTINUOUS
100
AcDbLine
 10
164.854343490223
 20
262.0390055260185
 30
0.0
 11
164.7067793427229
 21
262.0390055260185
 31
0.0
  0
LINE
  5
C51
330
1F
100
AcDbEntity
  8
0
  6
CONTINUOUS
100
AcDbLine
 10
164.854343490223
 20
261.6390055070183
 30
0.0
 11
164.7067793427229
 21
261.6390055070183
 31
0.0
  0
LINE
  5
C52
330
1F
100
AcDbEntity
  8
0
  6
CONTINUOUS
100
AcDbLine
 10
164.7276203337729
 20
263.9790055134182
 30
0.0
 11
164.8822920077229
 21
263.9790055134182
 31
0.0
  0
LINE
  5
C53
330
1F
100
AcDbEntity
  8
0
  6
CONTINUOUS
100
AcDbLine
 10
165.2743435014228
 20
261.2490054477685
 30
0.0
 11
165.2743435014228
 21
262.4490055047683
 31
0.0
  0
LINE
  5
C54
330
1F
100
AcDbEntity
  8
0
  6
CONTINUOUS
100
AcDbLine
 10
165.574343515673
 20
262.7490054607684
 30
0.0
 11
165.574343515673
 21
260.9490054626184
 31
0.0
  0
LINE
  5
C55
330
1F
100
AcDbEntity
  8
0
  6
CONTINUOUS
100
AcDbLine
 10
165.0943434841231
 20
262.0390055260185
 30
0.0
 11
165.0943434841231
 21
261.6390055070183
 31
0.0
  0
LINE
  5
C56
330
1F
100
AcDbEntity
  8
0
  6
CONTINUOUS
100
AcDbLine
 10
164.854343490223
 20
261.6390055070183
 30
0.0
 11
164.854343490223
 21
262.0390055260185
 31
0.0
  0
LINE
  5
C57
330
1F
100
AcDbEntity
  8
0
  6
CONTINUOUS
100
AcDbLine
 10
165.2743435014228
 20
261.2490054477685
 30
0.0
 11
165.574343515673
 21
260.9490054626184
 31
0.0
  0
LINE
  5
C58
330
1F
100
AcDbEntity
  8
0
  6
CONTINUOUS
100
AcDbLine
 10
165.1743434821231
 20
261.4490054572684
 30
0.0
 11
165.2202220183229
 21
261.4490054572684
 31
0.0
  0
LINE
  5
C59
330
1F
100
AcDbEntity
  8
0
  6
CONTINUOUS
100
AcDbLine
 10
164.7743434922229
 20
261.5390054440682
 30
0.0
 11
164.7743434922229
 21
261.6390055070183
 31
0.0
  0
LINE
  5
C5A
330
1F
100
AcDbEntity
  8
0
  6
CONTINUOUS
100
AcDbLine
 10
165.166176787223
 20
261.4490054572684
 30
0.0
 11
165.1642414407232
 21
261.4390054393185
 31
0.0
  0
LINE
  5
C5B
330
1F
100
AcDbEntity
  8
0
  6
CONTINUOUS
100
AcDbLine
 10
165.1743434821231
 20
261.4490054572684
 30
0.0
 11
165.166176787223
 21
261.4490054572684
 31
0.0
  0
LINE
  5
C5C
330
1F
100
AcDbEntity
  8
0
  6
CONTINUOUS
100
AcDbLine
 10
165.1743434821231
 20
261.4490054572684
 30
0.0
 11
165.1743434821231
 21
261.6390055070183
 31
0.0
  0
LINE
  5
C5D
330
1F
100
AcDbEntity
  8
0
  6
CONTINUOUS
100
AcDbLine
 10
165.0663949666229
 20
261.4390054393185
 30
0.0
 11
164.8822920077229
 21
261.4390054393185
 31
0.0
  0
LINE
  5
C5E
330
1F
100
AcDbEntity
  8
0
  6
CONTINUOUS
100
AcDbLine
 10
165.0663949666229
 20
261.4390054393185
 30
0.0
 11
165.221066640573
 21
261.4390054393185
 31
0.0
  0
LINE
  5
C5F
330
1F
100
AcDbEntity
  8
0
  6
CONTINUOUS
100
AcDbLine
 10
165.237114667323
 20
261.2490054477685
 30
0.0
 11
165.2041739915731
 21
261.6390055070183
 31
0.0
  0
LINE
  5
C60
330
1F
100
AcDbEntity
  8
0
  6
CONTINUOUS
100
AcDbLine
 10
165.0943434841231
 20
261.6390055070183
 30
0.0
 11
165.241907631623
 21
261.6390055070183
 31
0.0
  0
LINE
  5
C61
330
1F
100
AcDbEntity
  8
0
  6
CONTINUOUS
100
AcDbLine
 10
165.241907631623
 20
261.6390055070183
 30
0.0
 11
165.2743435014228
 21
261.6390055070183
 31
0.0
  0
LINE
  5
C62
330
1F
100
AcDbEntity
  8
0
  6
CONTINUOUS
100
AcDbLine
 10
165.574343515673
 20
262.7490054607684
 30
0.0
 11
165.2743435014228
 21
262.4490055047683
 31
0.0
  0
LINE
  5
C63
330
1F
100
AcDbEntity
  8
0
  6
CONTINUOUS
100
AcDbLine
 10
165.2743435014228
 20
263.7890054636183
 30
0.0
 11
165.574343515673
 21
263.4890055075683
 31
0.0
  0
LINE
  5
C64
330
1F
100
AcDbEntity
  8
0
  6
CONTINUOUS
100
AcDbLine
 10
165.1743434821231
 20
262.2490054952685
 30
0.0
 11
165.2743435014228
 21
262.2490054952685
 31
0.0
  0
LINE
  5
C65
330
1F
100
AcDbEntity
  8
0
  6
CONTINUOUS
100
AcDbLine
 10
164.7743434922229
 20
262.2490054952685
 30
0.0
 11
165.1743434821231
 21
262.2490054952685
 31
0.0
  0
LINE
  5
C66
330
1F
100
AcDbEntity
  8
0
  6
CONTINUOUS
100
AcDbLine
 10
164.7743434922229
 20
262.0390055260185
 30
0.0
 11
164.7743434922229
 21
262.2490054952685
 31
0.0
  0
LINE
  5
C67
330
1F
100
AcDbEntity
  8
0
  6
CONTINUOUS
100
AcDbLine
 10
165.1743434821231
 20
262.0390055260185
 30
0.0
 11
165.1743434821231
 21
262.2490054952685
 31
0.0
  0
LINE
  5
C68
330
1F
100
AcDbEntity
  8
0
  6
CONTINUOUS
100
AcDbLine
 10
165.0943434841231
 20
262.0390055260185
 30
0.0
 11
165.241907631623
 21
262.0390055260185
 31
0.0
  0
LINE
  5
C69
330
1F
100
AcDbEntity
  8
0
  6
CONTINUOUS
100
AcDbLine
 10
165.241907631623
 20
262.0390055260185
 30
0.0
 11
165.2743435014228
 21
262.0390055260185
 31
0.0
  0
LINE
  5
C6A
330
1F
100
AcDbEntity
  8
0
  6
CONTINUOUS
100
AcDbLine
 10
165.1743434821231
 20
263.9890053567181
 30
0.0
 11
165.2202220183229
 21
263.9890053567181
 31
0.0
  0
LINE
  5
C6B
330
1F
100
AcDbEntity
  8
0
  6
CONTINUOUS
100
AcDbLine
 10
165.166176787223
 20
263.9890053567181
 30
0.0
 11
165.1642414407232
 21
263.9790055134182
 31
0.0
  0
LINE
  5
C6C
330
1F
100
AcDbEntity
  8
0
  6
CONTINUOUS
100
AcDbLine
 10
165.1743434821231
 20
263.9890053567181
 30
0.0
 11
165.166176787223
 21
263.9890053567181
 31
0.0
  0
LINE
  5
C6D
330
1F
100
AcDbEntity
  8
0
  6
CONTINUOUS
100
AcDbLine
 10
165.0663949666229
 20
263.9790055134182
 30
0.0
 11
164.8822920077229
 21
263.9790055134182
 31
0.0
  0
LINE
  5
C6E
330
1F
100
AcDbEntity
  8
0
  6
CONTINUOUS
100
AcDbLine
 10
165.0663949666229
 20
263.9790055134182
 30
0.0
 11
165.221066640573
 21
263.9790055134182
 31
0.0
  0
LINE
  5
C6F
330
1F
100
AcDbEntity
  8
0
  6
CONTINUOUS
100
AcDbLine
 10
164.6743434729231
 20
262.4490055047683
 30
0.0
 11
164.6743434729231
 21
261.2490054477685
 31
0.0
  0
LINE
  5
C70
330
1F
100
AcDbEntity
  8
0
  6
CONTINUOUS
100
AcDbLine
 10
164.3743434586731
 20
260.9490054626184
 30
0.0
 11
164.3743434586731
 21
262.7490054607684
 31
0.0
  0
LINE
  5
C71
330
1F
100
AcDbEntity
  8
0
  6
CONTINUOUS
100
AcDbLine
 10
164.6743434729231
 20
261.2490054477685
 30
0.0
 11
164.3743434586731
 21
260.9490054626184
 31
0.0
  0
LINE
  5
C72
330
1F
100
AcDbEntity
  8
0
  6
CONTINUOUS
100
AcDbLine
 10
164.7115723070229
 20
261.2490054477685
 30
0.0
 11
164.7445129827731
 21
261.6390055070183
 31
0.0
  0
LINE
  5
C73
330
1F
100
AcDbEntity
  8
0
  6
CONTINUOUS
100
AcDbLine
 10
164.7067793427229
 20
261.6390055070183
 30
0.0
 11
164.6743434729231
 21
261.6390055070183
 31
0.0
  0
LINE
  5
C74
330
1F
100
AcDbEntity
  8
0
  6
CONTINUOUS
100
AcDbLine
 10
164.3743434586731
 20
262.7490054607684
 30
0.0
 11
164.6743434729231
 21
262.4490055047683
 31
0.0
  0
LINE
  5
C75
330
1F
100
AcDbEntity
  8
0
  6
CONTINUOUS
100
AcDbLine
 10
164.6743434729231
 20
263.7890054636183
 30
0.0
 11
164.3743434586731
 21
263.4890055075683
 31
0.0
  0
LINE
  5
C76
330
1F
100
AcDbEntity
  8
0
  6
CONTINUOUS
100
AcDbLine
 10
164.7067793427229
 20
262.0390055260185
 30
0.0
 11
164.6743434729231
 21
262.0390055260185
 31
0.0
  0
LINE
  5
C77
330
1F
100
AcDbEntity
  8
0
  6
CONTINUOUS
100
AcDbLine
 10
165.2743435014228
 20
264.9890055206185
 30
0.0
 11
164.6743434729231
 21
264.9890055206185
 31
0.0
  0
LINE
  5
C78
330
1F
100
AcDbEntity
  8
0
  6
CONTINUOUS
100
AcDbLine
 10
164.3743434586731
 20
265.2890054766684
 30
0.0
 11
165.574343515673
 21
265.2890054766684
 31
0.0
  0
LINE
  5
C79
330
1F
100
AcDbEntity
  8
0
  6
CONTINUOUS
100
AcDbLine
 10
163.0493434976231
 20
267.1290055174685
 30
0.0
 11
166.899343476723
 21
267.1290055174685
 31
0.0
  0
LINE
  5
C7A
330
1F
100
AcDbEntity
  8
0
  6
CONTINUOUS
100
AcDbLine
 10
166.5993435206733
 20
266.8290055614684
 30
0.0
 11
163.349343453623
 21
266.8290055614684
 31
0.0
  0
LINE
  5
C7B
330
1F
100
AcDbEntity
  8
0
  6
CONTINUOUS
100
AcDbLine
 10
164.854343490223
 20
264.5790056583186
 30
0.0
 11
164.7067793427229
 21
264.5790056583186
 31
0.0
  0
LINE
  5
C7C
330
1F
100
AcDbEntity
  8
0
  6
CONTINUOUS
100
AcDbLine
 10
164.854343490223
 20
264.1790054064683
 30
0.0
 11
164.7067793427229
 21
264.1790054064683
 31
0.0
  0
LINE
  5
C7D
330
1F
100
AcDbEntity
  8
0
  6
CONTINUOUS
100
AcDbLine
 10
165.574343515673
 20
265.2890054766684
 30
0.0
 11
165.2743435014228
 21
264.9890055206185
 31
0.0
  0
LINE
  5
C7E
330
1F
100
AcDbEntity
  8
0
  6
CONTINUOUS
100
AcDbLine
 10
165.1743434821231
 20
264.7890053947183
 30
0.0
 11
165.2743435014228
 21
264.7890053947183
 31
0.0
  0
LINE
  5
C7F
330
1F
100
AcDbEntity
  8
0
  6
CONTINUOUS
100
AcDbLine
 10
164.7743434922229
 20
264.7890053947183
 30
0.0
 11
165.1743434821231
 21
264.7890053947183
 31
0.0
  0
LINE
  5
C80
330
1F
100
AcDbEntity
  8
0
  6
CONTINUOUS
100
AcDbLine
 10
164.7743434922229
 20
264.5790056583186
 30
0.0
 11
164.7743434922229
 21
264.7890053947183
 31
0.0
  0
LINE
  5
C81
330
1F
100
AcDbEntity
  8
0
  6
CONTINUOUS
100
AcDbLine
 10
164.7743434922229
 20
264.0790055763681
 30
0.0
 11
164.7743434922229
 21
264.1790054064683
 31
0.0
  0
LINE
  5
C82
330
1F
100
AcDbEntity
  8
0
  6
CONTINUOUS
100
AcDbLine
 10
165.1743434821231
 20
264.5790056583186
 30
0.0
 11
165.1743434821231
 21
264.7890053947183
 31
0.0
  0
LINE
  5
C83
330
1F
100
AcDbEntity
  8
0
  6
CONTINUOUS
100
AcDbLine
 10
165.0943434841231
 20
264.5790056583186
 30
0.0
 11
165.241907631623
 21
264.5790056583186
 31
0.0
  0
LINE
  5
C84
330
1F
100
AcDbEntity
  8
0
  6
CONTINUOUS
100
AcDbLine
 10
165.0943434841231
 20
264.1790054064683
 30
0.0
 11
165.241907631623
 21
264.1790054064683
 31
0.0
  0
LINE
  5
C85
330
1F
100
AcDbEntity
  8
0
  6
CONTINUOUS
100
AcDbLine
 10
165.241907631623
 20
264.5790056583186
 30
0.0
 11
165.2743435014228
 21
264.5790056583186
 31
0.0
  0
LINE
  5
C86
330
1F
100
AcDbEntity
  8
0
  6
CONTINUOUS
100
AcDbLine
 10
165.241907631623
 20
264.1790054064683
 30
0.0
 11
165.2743435014228
 21
264.1790054064683
 31
0.0
  0
LINE
  5
C87
330
1F
100
AcDbEntity
  8
0
  6
CONTINUOUS
100
AcDbLine
 10
165.0943434841231
 20
264.5790056583186
 30
0.0
 11
165.0943434841231
 21
264.1790054064683
 31
0.0
  0
LINE
  5
C88
330
1F
100
AcDbEntity
  8
0
  6
CONTINUOUS
100
AcDbLine
 10
164.854343490223
 20
264.1790054064683
 30
0.0
 11
164.854343490223
 21
264.5790056583186
 31
0.0
  0
LINE
  5
C89
330
1F
100
AcDbEntity
  8
0
  6
CONTINUOUS
100
AcDbLine
 10
166.5993435206733
 20
266.8290055614684
 30
0.0
 11
166.899343476723
 21
267.1290055174685
 31
0.0
  0
LINE
  5
C8A
330
1F
100
AcDbEntity
  8
0
  6
CONTINUOUS
100
AcDbLine
 10
164.3743434586731
 20
265.2890054766684
 30
0.0
 11
164.6743434729231
 21
264.9890055206185
 31
0.0
  0
LINE
  5
C8B
330
1F
100
AcDbEntity
  8
0
  6
CONTINUOUS
100
AcDbLine
 10
164.7067793427229
 20
264.5790056583186
 30
0.0
 11
164.6743434729231
 21
264.5790056583186
 31
0.0
  0
LINE
  5
C8C
330
1F
100
AcDbEntity
  8
0
  6
CONTINUOUS
100
AcDbLine
 10
164.7067793427229
 20
264.1790054064683
 30
0.0
 11
164.6743434729231
 21
264.1790054064683
 31
0.0
  0
LINE
  5
C8D
330
1F
100
AcDbEntity
  8
0
  6
CONTINUOUS
100
AcDbLine
 10
163.0493434976231
 20
267.1290055174685
 30
0.0
 11
163.349343453623
 21
266.8290055614684
 31
0.0
  0
LINE
  5
C8E
330
1F
100
AcDbEntity
  8
0
  6
CONTINUOUS
100
AcDbLine
 10
169.6743434193728
 20
277.2090049718185
 30
0.0
 11
160.274343554973
 21
277.2090049718185
 31
0.0
  0
LINE
  5
C8F
330
1F
100
AcDbEntity
  8
0
  6
CONTINUOUS
100
AcDbLine
 10
168.5243435102733
 20
268.4290051717685
 30
0.0
 11
166.7243435411732
 21
268.4290051717685
 31
0.0
  0
LINE
  5
C90
330
1F
100
AcDbEntity
  8
0
  6
CONTINUOUS
100
AcDbLine
 10
167.0243434972233
 20
268.7290055934685
 30
0.0
 11
168.8243434663229
 21
268.7290055934685
 31
0.0
  0
LINE
  5
C91
330
1F
100
AcDbEntity
  8
0
  6
CONTINUOUS
100
AcDbLine
 10
169.974343375423
 20
272.8790050630184
 30
0.0
 11
169.974343375423
 21
276.9090054814181
 31
0.0
  0
LINE
  5
C92
330
1F
100
AcDbEntity
  8
0
  6
CONTINUOUS
100
AcDbLine
 10
168.5243435102733
 20
268.4290051717685
 30
0.0
 11
168.8243434663229
 21
268.7290055934685
 31
0.0
  0
LINE
  5
C93
330
1F
100
AcDbEntity
  8
0
  6
CONTINUOUS
100
AcDbLine
 10
169.974343375423
 20
276.9090054814181
 30
0.0
 11
169.6743434193728
 21
277.2090049718185
 31
0.0
  0
LINE
  5
C94
330
1F
100
AcDbEntity
  8
0
  6
CONTINUOUS
100
AcDbLine
 10
159.9743435989229
 20
276.9090054814181
 30
0.0
 11
159.9743435989229
 21
272.8790050630184
 31
0.0
  0
LINE
  5
C95
330
1F
100
AcDbEntity
  8
0
  6
CONTINUOUS
100
AcDbLine
 10
163.224343433173
 20
269.4290053357184
 30
0.0
 11
159.9743435989229
 21
269.4290053357184
 31
0.0
  0
LINE
  5
C96
330
1F
100
AcDbEntity
  8
0
  6
CONTINUOUS
100
AcDbLine
 10
159.9743435989229
 20
269.7290057574185
 30
0.0
 11
162.9243434771231
 21
269.7290057574185
 31
0.0
  0
LINE
  5
C97
330
1F
100
AcDbEntity
  8
0
  6
CONTINUOUS
100
AcDbLine
 10
166.7243435411732
 20
269.4290053357184
 30
0.0
 11
163.224343433173
 21
269.4290053357184
 31
0.0
  0
LINE
  5
C98
330
1F
100
AcDbEntity
  8
0
  6
CONTINUOUS
100
AcDbLine
 10
166.7243435411732
 20
270.8790056665185
 30
0.0
 11
163.224343433173
 21
270.8790056665185
 31
0.0
  0
LINE
  5
C99
330
1F
100
AcDbEntity
  8
0
  6
CONTINUOUS
100
AcDbLine
 10
162.9243434771231
 20
271.1790051568684
 30
0.0
 11
167.0243434972233
 21
271.1790051568684
 31
0.0
  0
LINE
  5
C9A
330
1F
100
AcDbEntity
  8
0
  6
CONTINUOUS
100
AcDbLine
 10
166.7243435411732
 20
268.4290051717685
 30
0.0
 11
166.7243435411732
 21
270.8790056665185
 31
0.0
  0
LINE
  5
C9B
330
1F
100
AcDbEntity
  8
0
  6
CONTINUOUS
100
AcDbLine
 10
167.0243434972233
 20
271.1790051568684
 30
0.0
 11
167.0243434972233
 21
268.7290055934685
 31
0.0
  0
LINE
  5
C9C
330
1F
100
AcDbEntity
  8
0
  6
CONTINUOUS
100
AcDbLine
 10
166.7243435411732
 20
268.4290051717685
 30
0.0
 11
167.0243434972233
 21
268.7290055934685
 31
0.0
  0
LINE
  5
C9D
330
1F
100
AcDbEntity
  8
0
  6
CONTINUOUS
100
AcDbLine
 10
166.7243435411732
 20
270.8790056665185
 30
0.0
 11
167.0243434972233
 21
271.1790051568684
 31
0.0
  0
LINE
  5
C9E
330
1F
100
AcDbEntity
  8
0
  6
CONTINUOUS
100
AcDbLine
 10
163.224343433173
 20
270.8790056665185
 30
0.0
 11
163.224343433173
 21
269.4290053357184
 31
0.0
  0
LINE
  5
C9F
330
1F
100
AcDbEntity
  8
0
  6
CONTINUOUS
100
AcDbLine
 10
162.9243434771231
 20
269.7290057574185
 30
0.0
 11
162.9243434771231
 21
271.1790051568684
 31
0.0
  0
LINE
  5
CA0
330
1F
100
AcDbEntity
  8
0
  6
CONTINUOUS
100
AcDbLine
 10
163.224343433173
 20
269.4290053357184
 30
0.0
 11
162.9243434771231
 21
269.7290057574185
 31
0.0
  0
LINE
  5
CA1
330
1F
100
AcDbEntity
  8
0
  6
CONTINUOUS
100
AcDbLine
 10
163.224343433173
 20
270.8790056665185
 30
0.0
 11
162.9243434771231
 21
271.1790051568684
 31
0.0
  0
LINE
  5
CA2
330
1F
100
AcDbEntity
  8
0
  6
CONTINUOUS
100
AcDbLine
 10
159.9743435989229
 20
272.8790050630184
 30
0.0
 11
159.9743435989229
 21
269.7290057574185
 31
0.0
  0
LINE
  5
CA3
330
1F
100
AcDbEntity
  8
0
  6
CONTINUOUS
100
AcDbLine
 10
159.9743435989229
 20
269.4290053357184
 30
0.0
 11
159.9743435989229
 21
269.7290057574185
 31
0.0
  0
LINE
  5
CA4
330
1F
100
AcDbEntity
  8
0
  6
CONTINUOUS
100
AcDbLine
 10
160.274343554973
 20
277.2090049718185
 30
0.0
 11
159.9743435989229
 21
276.9090054814181
 31
0.0
  0
LINE
  5
CA5
330
1F
100
AcDbEntity
  8
0
100
AcDbLine
 10
266.4486259671282
 20
254.3523288341911
 30
0.0
 11
266.4486259671282
 21
267.3523291024411
 31
0.0
  0
LINE
  5
CA6
330
1F
100
AcDbEntity
  8
0
100
AcDbLine
 10
268.1156397755763
 20
275.0523289683163
 30
0.0
 11
268.1485656496791
 21
275.0523289683166
 31
0.0
  0
LINE
  5
CA7
330
1F
100
AcDbEntity
  8
0
100
AcDbLine
 10
263.8485657271761
 20
252.7023288431663
 30
0.0
 11
263.8485657271761
 21
254.0523288781663
 31
0.0
  0
LINE
  5
CA8
330
1F
100
AcDbEntity
  8
0
100
AcDbLine
 10
264.1485652175761
 20
254.3523288342165
 30
0.0
 11
264.1485652175761
 21
253.0023292648663
 31
0.0
  0
LINE
  5
CA9
330
1F
100
AcDbEntity
  8
0
100
AcDbLine
 10
266.6485656273763
 20
252.0023291009163
 30
0.0
 11
266.6485656273763
 21
269.7023288357163
 31
0.0
  0
LINE
  5
CAA
330
1F
100
AcDbEntity
  8
0
100
AcDbLine
 10
264.8485658911261
 20
277.4823284718161
 30
0.0
 11
268.1485656496791
 21
277.4823284718161
 31
0.0
  0
LINE
  5
CAB
330
1F
100
AcDbEntity
  8
0
100
AcDbLine
 10
268.1485656496791
 20
277.1823289814165
 30
0.0
 11
264.8485658911261
 21
277.1823289814161
 31
0.0
  0
LINE
  5
CAC
330
1F
100
AcDbEntity
  8
0
100
AcDbLine
 10
263.8485657271761
 20
269.0023290934663
 30
0.0
 11
263.8485657271761
 21
270.0023292574162
 31
0.0
  0
LINE
  5
CAD
330
1F
100
AcDbEntity
  8
0
100
AcDbLine
 10
263.8485657271761
 20
270.0023292574162
 30
0.0
 11
264.1485652175761
 21
269.7023288357163
 31
0.0
  0
LINE
  5
CAE
330
1F
100
AcDbEntity
  8
0
100
AcDbLine
 10
264.8485658911261
 20
273.1523285630163
 30
0.0
 11
264.8485658911261
 21
277.1823289814161
 31
0.0
  0
LINE
  5
CAF
330
1F
100
AcDbEntity
  8
0
100
AcDbLine
 10
264.8485658911261
 20
277.1823289814161
 30
0.0
 11
264.8485658911261
 21
277.4823284718161
 31
0.0
  0
LINE
  5
CB0
330
1F
100
AcDbEntity
  8
0
100
AcDbLine
 10
263.8485657271761
 20
270.0023292574162
 30
0.0
 11
263.8485657271761
 21
273.1523285630163
 31
0.0
  0
LINE
  5
CB1
330
1F
100
AcDbEntity
  8
0
100
AcDbLine
 10
264.8485658911261
 20
273.1523285630163
 30
0.0
 11
263.8485657271761
 21
273.1523285630163
 31
0.0
  0
LINE
  5
CB2
330
1F
100
AcDbEntity
  8
0
100
AcDbLine
 10
266.6485656273763
 20
267.3523291024163
 30
0.0
 11
264.1485652175761
 21
267.3523291024163
 31
0.0
  0
LINE
  5
CB3
330
1F
100
AcDbEntity
  8
0
100
AcDbLine
 10
264.1485652175761
 20
254.3523288342165
 30
0.0
 11
266.6485656273763
 21
254.3523288342165
 31
0.0
  0
LINE
  5
CB4
330
1F
100
AcDbEntity
  8
0
100
AcDbLine
 10
264.1485652175761
 20
268.7023286717662
 30
0.0
 11
266.6485656273763
 21
268.7023286717662
 31
0.0
  0
LINE
  5
CB5
330
1F
100
AcDbEntity
  8
0
100
AcDbLine
 10
266.6485656273763
 20
269.7023288357163
 30
0.0
 11
264.1485652175761
 21
269.7023288357163
 31
0.0
  0
LINE
  5
CB6
330
1F
100
AcDbEntity
  8
0
100
AcDbLine
 10
263.8485657271761
 20
267.6523290584666
 30
0.0
 11
263.8485657271761
 21
269.0023290934663
 31
0.0
  0
LINE
  5
CB7
330
1F
100
AcDbEntity
  8
0
100
AcDbLine
 10
264.1485652175761
 20
268.7023286717662
 30
0.0
 11
264.1485652175761
 21
267.3523291024163
 31
0.0
  0
LINE
  5
CB8
330
1F
100
AcDbEntity
  8
0
100
AcDbLine
 10
263.8485657271761
 20
269.0023290934663
 30
0.0
 11
264.1485652175761
 21
268.7023286717662
 31
0.0
  0
LINE
  5
CB9
330
1F
100
AcDbEntity
  8
0
100
AcDbLine
 10
264.1485652175761
 20
269.7023288357163
 30
0.0
 11
264.1485652175761
 21
268.7023286717662
 31
0.0
  0
LINE
  5
CBA
330
1F
100
AcDbEntity
  8
0
100
AcDbLine
 10
263.8485657271761
 20
267.6523290584666
 30
0.0
 11
264.1485652175761
 21
267.3523291024163
 31
0.0
  0
LINE
  5
CBB
330
1F
100
AcDbEntity
  8
0
100
AcDbLine
 10
264.1485652175761
 20
254.3523288342165
 30
0.0
 11
263.8485657271761
 21
254.0523288781663
 31
0.0
  0
LINE
  5
CBC
330
1F
100
AcDbEntity
  8
0
100
AcDbLine
 10
266.448565967126
 20
254.3523288342165
 30
0.0
 11
266.448565967126
 21
267.3523291024163
 31
0.0
  0
LINE
  5
CBD
330
1F
100
AcDbEntity
  8
0
100
AcDbLine
 10
268.1485656496791
 20
244.2223294648168
 30
0.0
 11
264.8485658911261
 21
244.2223294648163
 31
0.0
  0
LINE
  5
CBE
330
1F
100
AcDbEntity
  8
0
100
AcDbLine
 10
264.8485658911261
 20
244.5223289552163
 30
0.0
 11
268.1485656496791
 21
244.5223289552163
 31
0.0
  0
LINE
  5
CBF
330
1F
100
AcDbEntity
  8
0
100
AcDbLine
 10
264.1485652175761
 20
253.0023292648663
 30
0.0
 11
266.6485656273763
 21
253.0023292648663
 31
0.0
  0
LINE
  5
CC0
330
1F
100
AcDbEntity
  8
0
100
AcDbLine
 10
264.1485652175761
 20
252.0023291009163
 30
0.0
 11
266.6485656273763
 21
252.0023291009163
 31
0.0
  0
LINE
  5
CC1
330
1F
100
AcDbEntity
  8
0
100
AcDbLine
 10
264.8485658911261
 20
244.5223289552163
 30
0.0
 11
264.8485658911261
 21
248.5523293736163
 31
0.0
  0
LINE
  5
CC2
330
1F
100
AcDbEntity
  8
0
100
AcDbLine
 10
263.8485657271761
 20
248.5523293736163
 30
0.0
 11
263.8485657271761
 21
251.7023286792166
 31
0.0
  0
LINE
  5
CC3
330
1F
100
AcDbEntity
  8
0
100
AcDbLine
 10
263.8485657271761
 20
251.7023286792166
 30
0.0
 11
263.8485657271761
 21
252.7023288431663
 31
0.0
  0
LINE
  5
CC4
330
1F
100
AcDbEntity
  8
0
100
AcDbLine
 10
264.1485652175761
 20
253.0023292648663
 30
0.0
 11
263.8485657271761
 21
252.7023288431663
 31
0.0
  0
LINE
  5
CC5
330
1F
100
AcDbEntity
  8
0
100
AcDbLine
 10
264.1485652175761
 20
253.0023292648663
 30
0.0
 11
264.1485652175761
 21
252.0023291009163
 31
0.0
  0
LINE
  5
CC6
330
1F
100
AcDbEntity
  8
0
100
AcDbLine
 10
264.1485652175761
 20
252.0023291009163
 30
0.0
 11
263.8485657271761
 21
251.7023286792166
 31
0.0
  0
LINE
  5
CC7
330
1F
100
AcDbEntity
  8
0
100
AcDbLine
 10
264.8485658911261
 20
248.5523293736163
 30
0.0
 11
263.8485657271761
 21
248.5523293736163
 31
0.0
  0
LINE
  5
CC8
330
1F
100
AcDbEntity
  8
0
100
AcDbLine
 10
264.8485658911261
 20
244.2223294648163
 30
0.0
 11
264.8485658911261
 21
244.5223289552163
 31
0.0
  0
LINE
  5
CC9
330
1F
100
AcDbEntity
  8
0
  6
CENTERX2
100
AcDbLine
 10
68.83292697526826
 20
274.7790114683179
 30
0.0
 11
68.80000110116589
 21
274.779011468318
 31
0.0
  0
LINE
  5
CCA
330
1F
100
AcDbEntity
  8
0
  6
CONTINUOUS
100
AcDbLine
 10
73.10000102366825
 20
252.4290113431678
 30
0.0
 11
73.10000102366825
 21
253.7790113781678
 31
0.0
  0
LINE
  5
CCB
330
1F
100
AcDbEntity
  8
0
  6
CONTINUOUS
100
AcDbLine
 10
72.8000015332683
 20
254.0790113342179
 30
0.0
 11
72.8000015332683
 21
252.7290117648679
 31
0.0
  0
LINE
  5
CCC
330
1F
100
AcDbEntity
  8
0
  6
CONTINUOUS
100
AcDbLine
 10
70.30000112346829
 20
251.7290116009178
 30
0.0
 11
70.30000112346829
 21
269.4290113357181
 31
0.0
  0
LINE
  5
CCD
330
1F
100
AcDbEntity
  8
0
  6
CONTINUOUS
100
AcDbLine
 10
72.10000085971831
 20
277.2090109718177
 30
0.0
 11
68.80000110116577
 21
277.2090109718183
 31
0.0
  0
LINE
  5
CCE
330
1F
100
AcDbEntity
  8
0
  6
CONTINUOUS
100
AcDbLine
 10
68.80000110116577
 20
276.9090114814176
 30
0.0
 11
72.10000085971831
 21
276.9090114814176
 31
0.0
  0
LINE
  5
CCF
330
1F
100
AcDbEntity
  8
0
  6
CONTINUOUS
100
AcDbLine
 10
73.10000102366825
 20
268.729011593468
 30
0.0
 11
73.10000102366825
 21
269.7290117574176
 31
0.0
  0
LINE
  5
CD0
330
1F
100
AcDbEntity
  8
0
  6
CONTINUOUS
100
AcDbLine
 10
73.10000102366825
 20
269.7290117574176
 30
0.0
 11
72.8000015332683
 21
269.4290113357181
 31
0.0
  0
LINE
  5
CD1
330
1F
100
AcDbEntity
  8
0
  6
CONTINUOUS
100
AcDbLine
 10
72.10000085971831
 20
272.8790110630177
 30
0.0
 11
72.10000085971831
 21
276.9090114814176
 31
0.0
  0
LINE
  5
CD2
330
1F
100
AcDbEntity
  8
0
  6
CONTINUOUS
100
AcDbLine
 10
72.10000085971831
 20
276.9090114814176
 30
0.0
 11
72.10000085971831
 21
277.2090109718177
 31
0.0
  0
LINE
  5
CD3
330
1F
100
AcDbEntity
  8
0
  6
CONTINUOUS
100
AcDbLine
 10
73.10000102366825
 20
269.7290117574176
 30
0.0
 11
73.10000102366825
 21
272.8790110630177
 31
0.0
  0
LINE
  5
CD4
330
1F
100
AcDbEntity
  8
0
  6
CONTINUOUS
100
AcDbLine
 10
72.10000085971831
 20
272.8790110630177
 30
0.0
 11
73.10000102366825
 21
272.8790110630177
 31
0.0
  0
LINE
  5
CD5
330
1F
100
AcDbEntity
  8
0
  6
CONTINUOUS
100
AcDbLine
 10
70.30000112346829
 20
267.079011602418
 30
0.0
 11
72.8000015332683
 21
267.079011602418
 31
0.0
  0
LINE
  5
CD6
330
1F
100
AcDbEntity
  8
0
  6
CONTINUOUS
100
AcDbLine
 10
72.8000015332683
 20
254.0790113342179
 30
0.0
 11
70.30000112346829
 21
254.0790113342179
 31
0.0
  0
LINE
  5
CD7
330
1F
100
AcDbEntity
  8
0
  6
CONTINUOUS
100
AcDbLine
 10
72.8000015332683
 20
268.4290111717678
 30
0.0
 11
70.30000112346829
 21
268.4290111717678
 31
0.0
  0
LINE
  5
CD8
330
1F
100
AcDbEntity
  8
0
  6
CONTINUOUS
100
AcDbLine
 10
70.30000112346829
 20
269.4290113357181
 30
0.0
 11
72.8000015332683
 21
269.4290113357181
 31
0.0
  0
LINE
  5
CD9
330
1F
100
AcDbEntity
  8
0
  6
CONTINUOUS
100
AcDbLine
 10
73.10000102366825
 20
267.3790115584679
 30
0.0
 11
73.10000102366825
 21
268.729011593468
 31
0.0
  0
LINE
  5
CDA
330
1F
100
AcDbEntity
  8
0
  6
CONTINUOUS
100
AcDbLine
 10
72.8000015332683
 20
268.4290111717678
 30
0.0
 11
72.8000015332683
 21
267.079011602418
 31
0.0
  0
LINE
  5
CDB
330
1F
100
AcDbEntity
  8
0
  6
CONTINUOUS
100
AcDbLine
 10
73.10000102366825
 20
268.729011593468
 30
0.0
 11
72.8000015332683
 21
268.4290111717678
 31
0.0
  0
LINE
  5
CDC
330
1F
100
AcDbEntity
  8
0
  6
CONTINUOUS
100
AcDbLine
 10
72.8000015332683
 20
269.4290113357181
 30
0.0
 11
72.8000015332683
 21
268.4290111717678
 31
0.0
  0
LINE
  5
CDD
330
1F
100
AcDbEntity
  8
0
  6
CONTINUOUS
100
AcDbLine
 10
73.10000102366825
 20
267.3790115584679
 30
0.0
 11
72.8000015332683
 21
267.079011602418
 31
0.0
  0
LINE
  5
CDE
330
1F
100
AcDbEntity
  8
0
  6
CONTINUOUS
100
AcDbLine
 10
72.8000015332683
 20
254.0790113342179
 30
0.0
 11
73.10000102366825
 21
253.7790113781678
 31
0.0
  0
LINE
  5
CDF
330
1F
100
AcDbEntity
  8
0
  6
CONTINUOUS
100
AcDbLine
 10
70.5000007837183
 20
254.0790113342179
 30
0.0
 11
70.5000007837183
 21
267.079011602418
 31
0.0
  0
LINE
  5
CE0
330
1F
100
AcDbEntity
  8
0
  6
CONTINUOUS
100
AcDbLine
 10
68.80000110116577
 20
243.9490119648183
 30
0.0
 11
72.10000085971831
 21
243.9490119648178
 31
0.0
  0
LINE
  5
CE1
330
1F
100
AcDbEntity
  8
0
  6
CONTINUOUS
100
AcDbLine
 10
72.10000085971831
 20
244.2490114552179
 30
0.0
 11
68.80000110116577
 21
244.2490114552183
 31
0.0
  0
LINE
  5
CE2
330
1F
100
AcDbEntity
  8
0
  6
CONTINUOUS
100
AcDbLine
 10
72.8000015332683
 20
252.7290117648679
 30
0.0
 11
70.30000112346829
 21
252.7290117648679
 31
0.0
  0
LINE
  5
CE3
330
1F
100
AcDbEntity
  8
0
  6
CONTINUOUS
100
AcDbLine
 10
72.8000015332683
 20
251.7290116009178
 30
0.0
 11
70.30000112346829
 21
251.7290116009178
 31
0.0
  0
LINE
  5
CE4
330
1F
100
AcDbEntity
  8
0
  6
CONTINUOUS
100
AcDbLine
 10
72.10000085971831
 20
244.2490114552179
 30
0.0
 11
72.10000085971831
 21
248.2790118736178
 31
0.0
  0
LINE
  5
CE5
330
1F
100
AcDbEntity
  8
0
  6
CONTINUOUS
100
AcDbLine
 10
73.10000102366825
 20
248.2790118736178
 30
0.0
 11
73.10000102366825
 21
251.4290111792179
 31
0.0
  0
LINE
  5
CE6
330
1F
100
AcDbEntity
  8
0
  6
CONTINUOUS
100
AcDbLine
 10
73.10000102366825
 20
251.4290111792179
 30
0.0
 11
73.10000102366825
 21
252.4290113431678
 31
0.0
  0
LINE
  5
CE7
330
1F
100
AcDbEntity
  8
0
  6
CONTINUOUS
100
AcDbLine
 10
72.8000015332683
 20
252.7290117648679
 30
0.0
 11
73.10000102366825
 21
252.4290113431678
 31
0.0
  0
LINE
  5
CE8
330
1F
100
AcDbEntity
  8
0
  6
CONTINUOUS
100
AcDbLine
 10
72.8000015332683
 20
252.7290117648679
 30
0.0
 11
72.8000015332683
 21
251.7290116009178
 31
0.0
  0
LINE
  5
CE9
330
1F
100
AcDbEntity
  8
0
  6
CONTINUOUS
100
AcDbLine
 10
72.8000015332683
 20
251.7290116009178
 30
0.0
 11
73.10000102366825
 21
251.4290111792179
 31
0.0
  0
LINE
  5
CEA
330
1F
100
AcDbEntity
  8
0
  6
CONTINUOUS
100
AcDbLine
 10
72.10000085971831
 20
248.2790118736178
 30
0.0
 11
73.10000102366825
 21
248.2790118736178
 31
0.0
  0
LINE
  5
CEB
330
1F
100
AcDbEntity
  8
0
  6
CONTINUOUS
100
AcDbLine
 10
72.10000085971831
 20
243.9490119648178
 30
0.0
 11
72.10000085971831
 21
244.2490114552179
 31
0.0
  0
LINE
  5
CEC
330
1F
100
AcDbEntity
  8
0
  6
CONTINUOUS
100
AcDbLine
 10
169.9740595628753
 20
73.10000044909077
 30
0.0
 11
169.9740595628753
 21
74.10000061304083
 31
0.0
  0
LINE
  5
CED
330
1F
100
AcDbEntity
  8
0
  6
CONTINUOUS
100
AcDbLine
 10
159.9740597863755
 20
73.10000044909077
 30
0.0
 11
159.9740597863755
 21
74.10000061304083
 31
0.0
  0
LINE
  5
CEE
330
1F
100
AcDbEntity
  8
0
  6
CONTINUOUS
100
AcDbLine
 10
159.9740597863755
 20
74.10000061304083
 30
0.0
 11
169.9740595628753
 21
74.10000061304083
 31
0.0
  0
LINE
  5
CEF
330
1F
100
AcDbEntity
  8
0
  6
CONTINUOUS
100
AcDbLine
 10
169.6740596068254
 20
73.10000044909077
 30
0.0
 11
160.2740597424254
 21
73.10000044909077
 31
0.0
  0
LINE
  5
CF0
330
1F
100
AcDbEntity
  8
0
  6
CONTINUOUS
100
AcDbLine
 10
169.9740595628756
 20
70.0887500651562
 30
0.0
 11
169.9740595628753
 21
73.10000044909077
 31
0.0
  0
LINE
  5
CF1
330
1F
100
AcDbEntity
  8
0
  6
CONTINUOUS
100
AcDbLine
 10
169.6740596068254
 20
73.10000044909077
 30
0.0
 11
169.6740596068256
 21
70.09280043679325
 31
0.0
  0
LINE
  5
CF2
330
1F
100
AcDbEntity
  8
0
  6
CONTINUOUS
100
AcDbLine
 10
169.9740595628753
 20
73.10000044909077
 30
0.0
 11
169.6740596068254
 21
73.10000044909077
 31
0.0
  0
LINE
  5
CF3
330
1F
100
AcDbEntity
  8
0
  6
CONTINUOUS
100
AcDbLine
 10
159.9740597863755
 20
73.10000044909077
 30
0.0
 11
159.9740597863755
 21
69.73809579125577
 31
0.0
  0
LINE
  5
CF4
330
1F
100
AcDbEntity
  8
0
  6
CONTINUOUS
100
AcDbLine
 10
160.2740597424254
 20
69.76323360390903
 30
0.0
 11
160.2740597424254
 21
73.10000044909077
 31
0.0
  0
LINE
  5
CF5
330
1F
100
AcDbEntity
  8
0
  6
CONTINUOUS
100
AcDbLine
 10
166.7240597286254
 20
71.30000071284077
 30
0.0
 11
166.7240597286254
 21
70.08468701214588
 31
0.0
  0
LINE
  5
CF6
330
1F
100
AcDbEntity
  8
0
  6
CONTINUOUS
100
AcDbLine
 10
163.2240596206256
 20
71.30000071284077
 30
0.0
 11
163.2240596206256
 21
69.96209307476863
 31
0.0
  0
LINE
  5
CF7
330
1F
100
AcDbEntity
  8
0
  6
CONTINUOUS
100
AcDbLine
 10
166.7240597286254
 20
71.30000071284077
 30
0.0
 11
163.2240596206256
 21
71.30000071284077
 31
0.0
  0
LINE
  5
CF8
330
1F
100
AcDbEntity
  8
0
  6
CONTINUOUS
100
AcDbLine
 10
160.2740597424254
 20
73.10000044909077
 30
0.0
 11
159.9740597863755
 21
73.10000044909077
 31
0.0
  0
LINE
  5
CFA
330
1F
100
AcDbEntity
  8
0
  6
CONTINUOUS
100
AcDbLine
 10
169.974060435535
 20
365.7181815319096
 30
0.0
 11
169.974060435535
 21
364.7181813679599
 31
0.0
  0
LINE
  5
CFB
330
1F
100
AcDbEntity
  8
0
  6
CONTINUOUS
100
AcDbLine
 10
159.9740606590349
 20
365.7181815319096
 30
0.0
 11
159.9740606590349
 21
364.7181813679599
 31
0.0
  0
LINE
  5
CFC
330
1F
100
AcDbEntity
  8
0
  6
CONTINUOUS
100
AcDbLine
 10
159.9740606590349
 20
364.7181813679599
 30
0.0
 11
169.974060435535
 21
364.7181813679599
 31
0.0
  0
LINE
  5
CFD
330
1F
100
AcDbEntity
  8
0
  6
CONTINUOUS
100
AcDbLine
 10
169.6740604794849
 20
365.7181815319096
 30
0.0
 11
160.274060615085
 21
365.7181815319096
 31
0.0
  0
LINE
  5
CFE
330
1F
100
AcDbEntity
  8
0
  6
CONTINUOUS
100
AcDbLine
 10
169.974060435535
 20
368.7294319158443
 30
0.0
 11
169.974060435535
 21
365.7181815319096
 31
0.0
  0
LINE
  5
CFF
330
1F
100
AcDbEntity
  8
0
  6
CONTINUOUS
100
AcDbLine
 10
169.6740604794849
 20
365.7181815319096
 30
0.0
 11
169.6740604794851
 21
368.7253815442071
 31
0.0
  0
LINE
  5
D00
330
1F
100
AcDbEntity
  8
0
  6
CONTINUOUS
100
AcDbLine
 10
169.974060435535
 20
365.7181815319096
 30
0.0
 11
169.6740604794849
 21
365.7181815319096
 31
0.0
  0
LINE
  5
D01
330
1F
100
AcDbEntity
  8
0
  6
CONTINUOUS
100
AcDbLine
 10
159.9740606590349
 20
365.7181815319096
 30
0.0
 11
159.9740606590349
 21
369.0800861897447
 31
0.0
  0
LINE
  5
D02
330
1F
100
AcDbEntity
  8
0
  6
CONTINUOUS
100
AcDbLine
 10
160.274060615085
 20
369.0549483770916
 30
0.0
 11
160.274060615085
 21
365.7181815319096
 31
0.0
  0
LINE
  5
D03
330
1F
100
AcDbEntity
  8
0
  6
CONTINUOUS
100
AcDbLine
 10
166.7240606012851
 20
367.5181812681596
 30
0.0
 11
166.7240606012851
 21
368.7334949688545
 31
0.0
  0
LINE
  5
D04
330
1F
100
AcDbEntity
  8
0
  6
CONTINUOUS
100
AcDbLine
 10
163.2240604932851
 20
367.5181812681596
 30
0.0
 11
163.2240604932851
 21
368.8560889062321
 31
0.0
  0
LINE
  5
D05
330
1F
100
AcDbEntity
  8
0
  6
CONTINUOUS
100
AcDbLine
 10
166.7240606012851
 20
367.5181812681596
 30
0.0
 11
163.2240604932851
 21
367.5181812681596
 31
0.0
  0
LINE
  5
D06
330
1F
100
AcDbEntity
  8
0
  6
CONTINUOUS
100
AcDbLine
 10
160.274060615085
 20
365.7181815319096
 30
0.0
 11
159.9740606590349
 21
365.7181815319096
 31
0.0
  0
ENDSEC
  0
SECTION
  2
OBJECTS
  0
DICTIONARY
  5
C
330
0
100
AcDbDictionary
  3
ACAD_GROUP
350
D
  3
ACAD_LAYOUT
350
1A
  3
ACAD_MLINESTYLE
350
17
  3
ACAD_PLOTSETTINGS
350
19
  3
ACAD_PLOTSTYLENAME
350
E
  3
ACDBHEADERROUNDTRIPXREC
350
DC8
  3
ACDBVARIABLEDICTIONARY
350
D96
  0
DICTIONARY
  5
8F
330
2
100
AcDbDictionary
280
     1
  3
ACAD_LAYERSTATES
360
90
  0
DICTIONARY
  5
DBC
330
1F
100
AcDbDictionary
280
     1
  3
ACAD_LAYOUTSELFREF
360
DE9
  0
DICTIONARY
  5
DBA
330
1B
100
AcDbDictionary
280
     1
  3
ACAD_LAYOUTSELFREF
360
DE8
  0
DICTIONARY
  5
D
102
{ACAD_REACTORS
330
C
102
}
330
C
100
AcDbDictionary
  0
DICTIONARY
  5
1A
102
{ACAD_REACTORS
330
C
102
}
330
C
100
AcDbDictionary
  0
DICTIONARY
  5
17
102
{ACAD_REACTORS
330
C
102
}
330
C
100
AcDbDictionary
  3
STANDARD
350
18
  0
DICTIONARY
  5
19
102
{ACAD_REACTORS
330
C
102
}
330
C
100
AcDbDictionary
  0
ACDBDICTIONARYWDFLT
  5
E
102
{ACAD_REACTORS
330
C
102
}
330
C
100
AcDbDictionary
281
     1
  3
Normal
350
F
100
AcDbDictionaryWithDefault
340
F
  0
DICTIONARY
  5
DC8
102
{ACAD_REACTORS
330
C
102
}
330
C
100
AcDbDictionary
  3
CEPSNTYPE
350
DD2
  3
FINGERPRINTGUID
350
DD3
  3
HYPERLINKBASE
350
DCB
  3
INSUNITS
350
DD1
  3
LAYOUTDICT
350
DCD
  3
LWETCUNION
350
DD0
  3
PLOTSETDICT
350
DCE
  3
PLOTSTYLNAMDICT
350
DCF
  3
PSVPSCALE
350
DD5
  3
PUCSBASE
350
DD8
  3
PUCSORGBACK
350
DDE
  3
PUCSORGBOTTOM
350
DDA
  3
PUCSORGFRONT
350
DDD
  3
PUCSORGLEFT
350
DDB
  3
PUCSORGRIGHT
350
DDC
  3
PUCSORGTOP
350
DD9
  3
PUCSORTHOREF
350
DD6
  3
PUCSORTHOVIEW
350
DD7
  3
STYLESHEET
350
DCC
  3
TSTACKALIGN
350
DC9
  3
TSTACKSIZE
350
DCA
  3
UCSBASE
350
DE1
  3
UCSORGBACK
350
DE7
  3
UCSORGBOTTOM
350
DE3
  3
UCSORGFRONT
350
DE6
  3
UCSORGLEFT
350
DE4
  3
UCSORGRIGHT
350
DE5
  3
UCSORGTOP
350
DE2
  3
UCSORTHOREF
350
DDF
  3
UCSORTHOVIEW
350
DE0
  3
VERSIONGUID
350
DD4
  0
DICTIONARY
  5
D96
102
{ACAD_REACTORS
330
C
102
}
330
C
100
AcDbDictionary
  3
DIMASSOC
350
D98
  3
HIDETEXT
350
D97
  0
DICTIONARY
  5
90
102
{ACAD_REACTORS
330
8F
102
}
330
8F
100
AcDbDictionary
  0
XRECORD
  5
DE9
102
{ACAD_REACTORS
330
DBC
102
}
330
DBC
100
AcDbXrecord
340
1F
  0
XRECORD
  5
DE8
102
{ACAD_REACTORS
330
DBA
102
}
330
DBA
100
AcDbXrecord
340
1B
  0
MLINESTYLE
  5
18
102
{ACAD_REACTORS
330
17
102
}
330
17
100
AcDbMlineStyle
  2
STANDARD
 70
     0
  3

 62
   256
 51
90.0
 52
90.0
 71
     2
 49
0.5
 62
   256
  6
BYLAYER
 49
-0.5
 62
   256
  6
BYLAYER
  0
ACDBPLACEHOLDER
  5
F
102
{ACAD_REACTORS
330
E
102
}
330
E
100
AcDbPlaceHolder
280
     0
  0
XRECORD
  5
DD2
102
{ACAD_REACTORS
330
DC8
102
}
330
DC8
100
AcDbXrecord
 90
        0
  0
XRECORD
  5
DD3
102
{ACAD_REACTORS
330
DC8
102
}
330
DC8
100
AcDbXrecord
  1
{45014731-50F4-4B36-819F-82832A628DEC}
  0
XRECORD
  5
DCB
102
{ACAD_REACTORS
330
DC8
102
}
330
DC8
100
AcDbXrecord
  1

  0
XRECORD
  5
DD1
102
{ACAD_REACTORS
330
DC8
102
}
330
DC8
100
AcDbXrecord
 90
        4
  0
XRECORD
  5
DCD
102
{ACAD_REACTORS
330
DC8
102
}
330
DC8
100
AcDbXrecord
340
1A
  0
XRECORD
  5
DD0
102
{ACAD_REACTORS
330
DC8
102
}
330
DC8
100
AcDbXrecord
 90
    10781
  0
XRECORD
  5
DCE
102
{ACAD_REACTORS
330
DC8
102
}
330
DC8
100
AcDbXrecord
340
19
  0
XRECORD
  5
DCF
102
{ACAD_REACTORS
330
DC8
102
}
330
DC8
100
AcDbXrecord
340
E
  0
XRECORD
  5
DD5
102
{ACAD_REACTORS
330
DC8
102
}
330
DC8
100
AcDbXrecord
 40
0.0
  0
XRECORD
  5
DD8
102
{ACAD_REACTORS
330
DC8
102
}
330
DC8
100
AcDbXrecord
340
0
  0
XRECORD
  5
DDE
102
{ACAD_REACTORS
330
DC8
102
}
330
DC8
100
AcDbXrecord
 10
0.0
 20
0.0
 30
0.0
  0
XRECORD
  5
DDA
102
{ACAD_REACTORS
330
DC8
102
}
330
DC8
100
AcDbXrecord
 10
0.0
 20
0.0
 30
0.0
  0
XRECORD
  5
DDD
102
{ACAD_REACTORS
330
DC8
102
}
330
DC8
100
AcDbXrecord
 10
0.0
 20
0.0
 30
0.0
  0
XRECORD
  5
DDB
102
{ACAD_REACTORS
330
DC8
102
}
330
DC8
100
AcDbXrecord
 10
0.0
 20
0.0
 30
0.0
  0
XRECORD
  5
DDC
102
{ACAD_REACTORS
330
DC8
102
}
330
DC8
100
AcDbXrecord
 10
0.0
 20
0.0
 30
0.0
  0
XRECORD
  5
DD9
102
{ACAD_REACTORS
330
DC8
102
}
330
DC8
100
AcDbXrecord
 10
0.0
 20
0.0
 30
0.0
  0
XRECORD
  5
DD6
102
{ACAD_REACTORS
330
DC8
102
}
330
DC8
100
AcDbXrecord
340
0
  0
XRECORD
  5
DD7
102
{ACAD_REACTORS
330
DC8
102
}
330
DC8
100
AcDbXrecord
 70
     0
  0
XRECORD
  5
DCC
102
{ACAD_REACTORS
330
DC8
102
}
330
DC8
100
AcDbXrecord
  1

  0
XRECORD
  5
DC9
102
{ACAD_REACTORS
330
DC8
102
}
330
DC8
100
AcDbXrecord
 90
        1
  0
XRECORD
  5
DCA
102
{ACAD_REACTORS
330
DC8
102
}
330
DC8
100
AcDbXrecord
 90
       70
  0
XRECORD
  5
DE1
102
{ACAD_REACTORS
330
DC8
102
}
330
DC8
100
AcDbXrecord
340
0
  0
XRECORD
  5
DE7
102
{ACAD_REACTORS
330
DC8
102
}
330
DC8
100
AcDbXrecord
 10
0.0
 20
0.0
 30
0.0
  0
XRECORD
  5
DE3
102
{ACAD_REACTORS
330
DC8
102
}
330
DC8
100
AcDbXrecord
 10
0.0
 20
0.0
 30
0.0
  0
XRECORD
  5
DE6
102
{ACAD_REACTORS
330
DC8
102
}
330
DC8
100
AcDbXrecord
 10
0.0
 20
0.0
 30
0.0
  0
XRECORD
  5
DE4
102
{ACAD_REACTORS
330
DC8
102
}
330
DC8
100
AcDbXrecord
 10
0.0
 20
0.0
 30
0.0
  0
XRECORD
  5
DE5
102
{ACAD_REACTORS
330
DC8
102
}
330
DC8
100
AcDbXrecord
 10
0.0
 20
0.0
 30
0.0
  0
XRECORD
  5
DE2
102
{ACAD_REACTORS
330
DC8
102
}
330
DC8
100
AcDbXrecord
 10
0.0
 20
0.0
 30
0.0
  0
XRECORD
  5
DDF
102
{ACAD_REACTORS
330
DC8
102
}
330
DC8
100
AcDbXrecord
340
0
  0
XRECORD
  5
DE0
102
{ACAD_REACTORS
330
DC8
102
}
330
DC8
100
AcDbXrecord
 70
     0
  0
XRECORD
  5
DD4
102
{ACAD_REACTORS
330
DC8
102
}
330
DC8
100
AcDbXrecord
  1
{43162C86-C570-4998-B9D8-E24D534DE8E3}
  0
DICTIONARYVAR
  5
D98
102
{ACAD_REACTORS
330
D96
102
}
330
D96
100
DictionaryVariables
280
     0
  1
2
  0
DICTIONARYVAR
  5
D97
102
{ACAD_REACTORS
330
D96
102
}
330
D96
100
DictionaryVariables
280
     0
  1
1
  0
ENDSEC
  0
EOF
