  0
SECTION
  2
HEADER
  9
$ACADVER
  1
AC1014
  9
$ACADMAINTVER
 70
     9
  9
$DWGCODEPAGE
  3
ANSI_932
  9
$INSBASE
 10
0.0
 20
0.0
 30
0.0
  9
$EXTMIN
 10
-0.0000013854028111
 20
0.0000002116108817
 30
0.0
  9
$EXTMAX
 10
336.9485631631105
 20
438.8181808115331
 30
6.483974233579617E+99
  9
$LIMMIN
 10
0.0
 20
0.0
  9
$LIMMAX
 10
420.0
 20
297.0
  9
$ORTHOMODE
 70
     0
  9
$REGENMODE
 70
     1
  9
$FILLMODE
 70
     1
  9
$QTEXTMODE
 70
     0
  9
$MIRRTEXT
 70
     1
  9
$DRAGMODE
 70
     2
  9
$LTSCALE
 40
1.0
  9
$OSMODE
 70
   567
  9
$ATTMODE
 70
     1
  9
$TEXTSIZE
 40
2.5
  9
$TRACEWID
 40
1.0
  9
$TEXTSTYLE
  7
STANDARD
  9
$CLAYER
  8
0
  9
$CELTYPE
  6
BYLAYER
  9
$CECOLOR
 62
   256
  9
$CELTSCALE
 40
1.0
  9
$DELOBJ
 70
     1
  9
$DISPSILH
 70
     0
  9
$DIMSCALE
 40
1.0
  9
$DIMASZ
 40
2.5
  9
$DIMEXO
 40
0.625
  9
$DIMDLI
 40
3.75
  9
$DIMRND
 40
0.0
  9
$DIMDLE
 40
0.0
  9
$DIMEXE
 40
1.25
  9
$DIMTP
 40
0.0
  9
$DIMTM
 40
0.0
  9
$DIMTXT
 40
2.5
  9
$DIMCEN
 40
2.5
  9
$DIMTSZ
 40
0.0
  9
$DIMTOL
 70
     0
  9
$DIMLIM
 70
     0
  9
$DIMTIH
 70
     0
  9
$DIMTOH
 70
     0
  9
$DIMSE1
 70
     0
  9
$DIMSE2
 70
     0
  9
$DIMTAD
 70
     1
  9
$DIMZIN
 70
     8
  9
$DIMBLK
  1

  9
$DIMASO
 70
     1
  9
$DIMSHO
 70
     1
  9
$DIMPOST
  1

  9
$DIMAPOST
  1

  9
$DIMALT
 70
     0
  9
$DIMALTD
 70
     3
  9
$DIMALTF
 40
0.03937007874016
  9
$DIMLFAC
 40
1.0
  9
$DIMTOFL
 70
     1
  9
$DIMTVP
 40
0.0
  9
$DIMTIX
 70
     0
  9
$DIMSOXD
 70
     0
  9
$DIMSAH
 70
     0
  9
$DIMBLK1
  1

  9
$DIMBLK2
  1

  9
$DIMSTYLE
  2
ISO-25
  9
$DIMCLRD
 70
     0
  9
$DIMCLRE
 70
     0
  9
$DIMCLRT
 70
     0
  9
$DIMTFAC
 40
1.0
  9
$DIMGAP
 40
0.625
  9
$DIMJUST
 70
     0
  9
$DIMSD1
 70
     0
  9
$DIMSD2
 70
     0
  9
$DIMTOLJ
 70
     0
  9
$DIMTZIN
 70
     8
  9
$DIMALTZ
 70
     0
  9
$DIMALTTZ
 70
     0
  9
$DIMFIT
 70
     3
  9
$DIMUPT
 70
     0
  9
$DIMUNIT
 70
     2
  9
$DIMDEC
 70
     2
  9
$DIMTDEC
 70
     2
  9
$DIMALTU
 70
     2
  9
$DIMALTTD
 70
     3
  9
$DIMTXSTY
  7
STANDARD
  9
$DIMAUNIT
 70
     0
  9
$LUNITS
 70
     2
  9
$LUPREC
 70
     4
  9
$SKETCHINC
 40
1.0
  9
$FILLETRAD
 40
10.0
  9
$AUNITS
 70
     0
  9
$AUPREC
 70
     0
  9
$MENU
  1
.
  9
$ELEVATION
 40
0.0
  9
$PELEVATION
 40
0.0
  9
$THICKNESS
 40
0.0
  9
$LIMCHECK
 70
     0
  9
$BLIPMODE
 70
     0
  9
$CHAMFERA
 40
10.0
  9
$CHAMFERB
 40
10.0
  9
$CHAMFERC
 40
20.0
  9
$CHAMFERD
 40
0.0
  9
$SKPOLY
 70
     0
  9
$TDCREATE
 40
2455162.810614907
  9
$TDUPDATE
 40
2455162.812859329
  9
$TDINDWG
 40
0.0022453241
  9
$TDUSRTIMER
 40
0.0022451389
  9
$USRTIMER
 70
     1
  9
$ANGBASE
 50
0.0
  9
$ANGDIR
 70
     0
  9
$PDMODE
 70
     0
  9
$PDSIZE
 40
0.0
  9
$PLINEWID
 40
0.0
  9
$COORDS
 70
     0
  9
$SPLFRAME
 70
     0
  9
$SPLINETYPE
 70
     6
  9
$SPLINESEGS
 70
     8
  9
$ATTDIA
 70
     0
  9
$ATTREQ
 70
     1
  9
$HANDLING
 70
 22529
  9
$HANDSEED
  5
D20
  9
$SURFTAB1
 70
     6
  9
$SURFTAB2
 70
     6
  9
$SURFTYPE
 70
     6
  9
$SURFU
 70
     6
  9
$SURFV
 70
     6
  9
$UCSNAME
  2

  9
$UCSORG
 10
0.0
 20
0.0
 30
0.0
  9
$UCSXDIR
 10
1.0
 20
0.0
 30
0.0
  9
$UCSYDIR
 10
0.0
 20
1.0
 30
0.0
  9
$PUCSNAME
  2

  9
$PUCSORG
 10
0.0
 20
0.0
 30
0.0
  9
$PUCSXDIR
 10
1.0
 20
0.0
 30
0.0
  9
$PUCSYDIR
 10
0.0
 20
1.0
 30
0.0
  9
$USERI1
 70
     0
  9
$USERI2
 70
     0
  9
$USERI3
 70
     0
  9
$USERI4
 70
     0
  9
$USERI5
 70
     0
  9
$USERR1
 40
0.0
  9
$USERR2
 40
0.0
  9
$USERR3
 40
0.0
  9
$USERR4
 40
0.0
  9
$USERR5
 40
0.0
  9
$WORLDVIEW
 70
     1
  9
$SHADEDGE
 70
     3
  9
$SHADEDIF
 70
    70
  9
$TILEMODE
 70
     1
  9
$MAXACTVP
 70
    64
  9
$PINSBASE
 10
0.0
 20
0.0
 30
0.0
  9
$PLIMCHECK
 70
     0
  9
$PEXTMIN
 10
1.000000000000000E+20
 20
1.000000000000000E+20
 30
1.000000000000000E+20
  9
$PEXTMAX
 10
-1.000000000000000E+20
 20
-1.000000000000000E+20
 30
-1.000000000000000E+20
  9
$PLIMMIN
 10
0.0
 20
0.0
  9
$PLIMMAX
 10
420.0
 20
297.0
  9
$UNITMODE
 70
     0
  9
$VISRETAIN
 70
     1
  9
$PLINEGEN
 70
     0
  9
$PSLTSCALE
 70
     1
  9
$TREEDEPTH
 70
  3020
  9
$PICKSTYLE
 70
     1
  9
$CMLSTYLE
  2
STANDARD
  9
$CMLJUST
 70
     0
  9
$CMLSCALE
 40
20.0
  9
$PROXYGRAPHICS
 70
     1
  9
$MEASUREMENT
 70
     1
  0
ENDSEC
  0
SECTION
  2
CLASSES
  0
CLASS
  1
ACDBDICTIONARYWDFLT
  2
AcDbDictionaryWithDefault
  3
AutoCAD 2000
 90
        0
280
     0
281
     0
  0
CLASS
  1
ACDBPLACEHOLDER
  2
AcDbPlaceHolder
  3
AutoCAD 2000
 90
        0
280
     0
281
     0
  0
CLASS
  1
LAYOUT
  2
AcDbLayout
  3
AutoCAD 2000
 90
        0
280
     0
281
     0
  0
CLASS
  1
DICTIONARYVAR
  2
AcDbDictionaryVar
  3
AutoCAD 2000
 90
        0
280
     0
281
     0
  0
CLASS
  1
LONG_TRANSACTION
  2
AcDbLongTransaction
  3
AutoCAD 2000
 90
        0
280
     0
281
     0
  0
CLASS
  1
LWPOLYLINE
  2
AcDbPolyline
  3
AutoCAD 2000
 90
        0
280
     0
281
     1
  0
CLASS
  1
HATCH
  2
AcDbHatch
  3
AutoCAD 2000
 90
        0
280
     0
281
     1
  0
CLASS
  1
XRECORD
  2
AcDbXrecord
  3
AutoCAD 2000
 90
        0
280
     0
281
     0
  0
ENDSEC
  0
SECTION
  2
TABLES
  0
TABLE
  2
VPORT
  5
8
330
0
100
AcDbSymbolTable
 70
     3
  0
VPORT
  5
CF9
330
8
100
AcDbSymbolTableRecord
100
AcDbViewportTableRecord
  2
*ACTIVE
 70
     0
 10
0.0
 20
0.0
 11
1.0
 21
1.0
 12
168.4742808888538
 22
219.4090905115719
 13
0.0
 23
0.0
 14
10.0
 24
10.0
 15
10.0
 25
10.0
 16
0.0
 26
0.0
 36
1.0
 17
0.0
 27
0.0
 37
0.0
 40
442.4598252522037
 41
1.668975069252077
 42
50.0
 43
0.0
 44
0.0
 50
0.0
 51
0.0
 71
     0
 72
   100
 73
     1
 74
     3
 75
     0
 76
     0
 77
     0
 78
     0
  0
ENDTAB
  0
TABLE
  2
LTYPE
  5
5
330
0
100
AcDbSymbolTable
 70
     2
  0
LTYPE
  5
14
330
5
100
AcDbSymbolTableRecord
100
AcDbLinetypeTableRecord
  2
BYBLOCK
 70
     0
  3

 72
    65
 73
     0
 40
0.0
  0
LTYPE
  5
15
330
5
100
AcDbSymbolTableRecord
100
AcDbLinetypeTableRecord
  2
BYLAYER
 70
     0
  3

 72
    65
 73
     0
 40
0.0
  0
LTYPE
  5
16
330
5
100
AcDbSymbolTableRecord
100
AcDbLinetypeTableRecord
  2
CONTINUOUS
 70
     0
  3
Solid line
 72
    65
 73
     0
 40
0.0
  0
LTYPE
  5
76
330
5
100
AcDbSymbolTableRecord
100
AcDbLinetypeTableRecord
  2
CENTER
 70
     0
  3
____ _ ____ _ ____ _ ____ _ ____ _ ____ _ ____
 72
    65
 73
     4
 40
2.0
 49
1.25
 74
     0
 49
-0.25
 74
     0
 49
0.25
 74
     0
 49
-0.25
 74
     0
  0
ENDTAB
  0
TABLE
  2
LAYER
  5
2
102
{ACAD_XDICTIONARY
360
83
102
}
330
0
100
AcDbSymbolTable
 70
     6
  0
LAYER
  5
10
330
2
100
AcDbSymbolTableRecord
100
AcDbLayerTableRecord
  2
0
 70
     0
 62
     7
  6
CONTINUOUS
  0
LAYER
  5
77
330
2
100
AcDbSymbolTableRecord
100
AcDbLayerTableRecord
  2
外枠
 70
     0
 62
     7
  6
CONTINUOUS
  0
LAYER
  5
79
330
2
100
AcDbSymbolTableRecord
100
AcDbLayerTableRecord
  2
1
 70
     0
 62
     7
  6
CONTINUOUS
  0
LAYER
  5
7A
330
2
100
AcDbSymbolTableRecord
100
AcDbLayerTableRecord
  2
DEFPOINTS
 70
     0
 62
     7
  6
CONTINUOUS
  0
LAYER
  5
7B
330
2
100
AcDbSymbolTableRecord
100
AcDbLayerTableRecord
  2
CLASS1
 70
     0
 62
     7
  6
CONTINUOUS
  0
ENDTAB
  0
TABLE
  2
STYLE
  5
3
330
0
100
AcDbSymbolTable
 70
     2
  0
STYLE
  5
11
330
3
100
AcDbSymbolTableRecord
100
AcDbTextStyleTableRecord
  2
STANDARD
 70
     0
 40
0.0
 41
1.0
 50
0.0
 71
     0
 42
2.5
  3
txt
  4

  0
ENDTAB
  0
TABLE
  2
VIEW
  5
6
330
0
100
AcDbSymbolTable
 70
     0
  0
ENDTAB
  0
TABLE
  2
UCS
  5
7
330
0
100
AcDbSymbolTable
 70
     0
  0
ENDTAB
  0
TABLE
  2
APPID
  5
9
330
0
100
AcDbSymbolTable
 70
     1
  0
APPID
  5
12
330
9
100
AcDbSymbolTableRecord
100
AcDbRegAppTableRecord
  2
ACAD
 70
     0
  0
ENDTAB
  0
TABLE
  2
DIMSTYLE
  5
A
330
0
100
AcDbSymbolTable
 70
     7
  0
DIMSTYLE
105
27
330
A
100
AcDbSymbolTableRecord
100
AcDbDimStyleTableRecord
  2
ISO-25
 70
     0
  3

  4

  5

  6

  7

 40
1.0
 41
2.5
 42
0.625
 43
3.75
 44
1.25
 45
0.0
 46
0.0
 47
0.0
 48
0.0
140
2.5
141
2.5
142
0.0
143
0.03937007874016
144
1.0
145
0.0
146
1.0
147
0.625
 71
     0
 72
     0
 73
     0
 74
     0
 75
     0
 76
     0
 77
     1
 78
     8
170
     0
171
     3
172
     1
173
     0
174
     0
175
     0
176
     0
177
     0
178
     0
270
     2
271
     2
272
     2
273
     2
274
     3
340
11
275
     0
280
     0
281
     0
282
     0
283
     0
284
     8
285
     0
286
     0
287
     3
288
     0
  0
ENDTAB
  0
TABLE
  2
BLOCK_RECORD
  5
1
330
0
100
AcDbSymbolTable
 70
    14
  0
BLOCK_RECORD
  5
1F
102
{ACAD_XDICTIONARY
360
D1C
102
}
330
1
100
AcDbSymbolTableRecord
100
AcDbBlockTableRecord
  2
*MODEL_SPACE
  0
BLOCK_RECORD
  5
1B
102
{ACAD_XDICTIONARY
360
D1A
102
}
330
1
100
AcDbSymbolTableRecord
100
AcDbBlockTableRecord
  2
*PAPER_SPACE
  0
BLOCK_RECORD
  5
31
330
1
100
AcDbSymbolTableRecord
100
AcDbBlockTableRecord
  2
A$C51C20FFB
  0
ENDTAB
  0
ENDSEC
  0
SECTION
  2
BLOCKS
  0
BLOCK
  5
20
330
1F
100
AcDbEntity
  8
0
100
AcDbBlockBegin
  2
*MODEL_SPACE
 70
     0
 10
0.0
 20
0.0
 30
0.0
  3
*MODEL_SPACE
  1

  0
ENDBLK
  5
21
330
1F
100
AcDbEntity
  8
0
100
AcDbBlockEnd
  0
BLOCK
  5
1C
330
1B
100
AcDbEntity
 67
     1
  8
0
100
AcDbBlockBegin
  2
*PAPER_SPACE
 70
     0
 10
0.0
 20
0.0
 30
0.0
  3
*PAPER_SPACE
  1

  0
ENDBLK
  5
1D
330
1B
100
AcDbEntity
 67
     1
  8
0
100
AcDbBlockEnd
  0
BLOCK
  5
36
330
31
100
AcDbEntity
  8
0
100
AcDbBlockBegin
  2
A$C51C20FFB
 70
     0
 10
0.0
 20
0.0
 30
0.0
  3
A$C51C20FFB
  1

  0
LINE
  5
32
330
31
100
AcDbEntity
  8
0
100
AcDbLine
 10
31.0
 20
2.499998662678081
 30
0.0
 11
0.0
 21
2.499998662678081
 31
0.0
  0
LINE
  5
33
330
31
100
AcDbEntity
  8
0
100
AcDbLine
 10
31.0
 20
-0.000001337321919
 30
0.0
 11
31.0
 21
2.499998662678081
 31
0.0
  0
LINE
  5
34
330
31
100
AcDbEntity
  8
0
100
AcDbLine
 10
0.0
 20
-0.000001337321919
 30
0.0
 11
31.0
 21
-0.000001337321919
 31
0.0
  0
LINE
  5
35
330
31
100
AcDbEntity
  8
0
100
AcDbLine
 10
0.0
 20
2.499998662678081
 30
0.0
 11
0.0
 21
-0.000001337321919
 31
0.0
  0
ENDBLK
  5
37
330
31
100
AcDbEntity
  8
0
100
AcDbBlockEnd
  0
ENDSEC
  0
SECTION
  2
ENTITIES
  0
LINE
  5
68A
330
1F
100
AcDbEntity
  8
1
  6
CONTINUOUS
 62
     0
100
AcDbLine
 10
172.9092632752922
 20
249.2514457518332
 30
0.0
 11
171.0142632752922
 21
251.1464457518333
 31
0.0
  0
LINE
  5
68B
330
1F
100
AcDbEntity
  8
1
  6
CONTINUOUS
 62
     0
100
AcDbLine
 10
173.5142632752922
 20
250.0624457518333
 30
0.0
 11
171.8252632752921
 21
251.7514457518332
 31
0.0
  0
LINE
  5
68C
330
1F
100
AcDbEntity
  8
1
  6
CONTINUOUS
 62
     0
100
AcDbLine
 10
173.5142632752922
 20
251.7514457518332
 30
0.0
 11
171.0142632752922
 21
251.7514457518332
 31
0.0
  0
LINE
  5
68D
330
1F
100
AcDbEntity
  8
1
  6
CONTINUOUS
 62
     0
100
AcDbLine
 10
173.5142632752922
 20
249.2514457518332
 30
0.0
 11
171.0142632752922
 21
249.2514457518332
 31
0.0
  0
LINE
  5
68E
330
1F
100
AcDbEntity
  8
1
  6
CONTINUOUS
 62
     0
100
AcDbLine
 10
172.9092632752922
 20
254.3314457518333
 30
0.0
 11
171.0142632752922
 21
256.2264457518333
 31
0.0
  0
LINE
  5
68F
330
1F
100
AcDbEntity
  8
1
  6
CONTINUOUS
 62
     0
100
AcDbLine
 10
173.5142632752922
 20
255.1424457518332
 30
0.0
 11
171.8252632752921
 21
256.8314457518333
 31
0.0
  0
LINE
  5
690
330
1F
100
AcDbEntity
  8
1
  6
CONTINUOUS
 62
     0
100
AcDbLine
 10
173.5142632752922
 20
256.8314457518333
 30
0.0
 11
171.0142632752922
 21
256.8314457518333
 31
0.0
  0
LINE
  5
691
330
1F
100
AcDbEntity
  8
1
  6
CONTINUOUS
 62
     0
100
AcDbLine
 10
173.5142632752922
 20
254.3314457518333
 30
0.0
 11
171.0142632752922
 21
254.3314457518333
 31
0.0
  0
LINE
  5
692
330
1F
100
AcDbEntity
  8
1
  6
CONTINUOUS
 62
     0
100
AcDbLine
 10
172.9092632752922
 20
269.5714457518334
 30
0.0
 11
171.0142632752922
 21
271.4664457518333
 31
0.0
  0
LINE
  5
693
330
1F
100
AcDbEntity
  8
1
  6
CONTINUOUS
 62
     0
100
AcDbLine
 10
173.5142632752922
 20
270.3824457518333
 30
0.0
 11
171.8252632752921
 21
272.0714457518333
 31
0.0
  0
LINE
  5
694
330
1F
100
AcDbEntity
  8
1
  6
CONTINUOUS
 62
     0
100
AcDbLine
 10
173.5142632752922
 20
272.0714457518333
 30
0.0
 11
171.0142632752922
 21
272.0714457518333
 31
0.0
  0
LINE
  5
695
330
1F
100
AcDbEntity
  8
1
  6
CONTINUOUS
 62
     0
100
AcDbLine
 10
173.5142632752922
 20
269.5714457518334
 30
0.0
 11
171.0142632752922
 21
269.5714457518334
 31
0.0
  0
LINE
  5
696
330
1F
100
AcDbEntity
  8
1
  6
CONTINUOUS
 62
     0
100
AcDbLine
 10
172.9092632752922
 20
264.4914457518332
 30
0.0
 11
171.0142632752922
 21
266.3864457518332
 31
0.0
  0
LINE
  5
697
330
1F
100
AcDbEntity
  8
1
  6
CONTINUOUS
 62
     0
100
AcDbLine
 10
173.5142632752922
 20
265.3024457518333
 30
0.0
 11
171.8252632752921
 21
266.9914457518332
 31
0.0
  0
LINE
  5
698
330
1F
100
AcDbEntity
  8
1
  6
CONTINUOUS
 62
     0
100
AcDbLine
 10
173.5142632752922
 20
266.9914457518332
 30
0.0
 11
171.0142632752922
 21
266.9914457518332
 31
0.0
  0
LINE
  5
699
330
1F
100
AcDbEntity
  8
1
  6
CONTINUOUS
 62
     0
100
AcDbLine
 10
173.5142632752922
 20
264.4914457518332
 30
0.0
 11
171.0142632752922
 21
264.4914457518332
 31
0.0
  0
LINE
  5
69A
330
1F
100
AcDbEntity
  8
1
  6
CONTINUOUS
 62
     0
100
AcDbLine
 10
173.5142632752922
 20
251.4784457518333
 30
0.0
 11
173.2412632752921
 21
251.7514457518332
 31
0.0
  0
LINE
  5
69B
330
1F
100
AcDbEntity
  8
1
  6
CONTINUOUS
 62
     0
100
AcDbLine
 10
173.5142632752922
 20
256.5584457518332
 30
0.0
 11
173.2412632752921
 21
256.8314457518333
 31
0.0
  0
LINE
  5
69C
330
1F
100
AcDbEntity
  8
1
  6
CONTINUOUS
 62
     0
100
AcDbLine
 10
173.5142632752922
 20
266.7184457518333
 30
0.0
 11
173.2412632752921
 21
266.9914457518332
 31
0.0
  0
LINE
  5
69D
330
1F
100
AcDbEntity
  8
1
  6
CONTINUOUS
 62
     0
100
AcDbLine
 10
173.5142632752922
 20
271.7984457518332
 30
0.0
 11
173.2412632752921
 21
272.0714457518333
 31
0.0
  0
LINE
  5
69E
330
1F
100
AcDbEntity
  8
1
  6
CONTINUOUS
 62
     0
100
AcDbLine
 10
171.493263275292
 20
249.2514457518332
 30
0.0
 11
171.0142632752922
 21
249.7304457518332
 31
0.0
  0
LINE
  5
69F
330
1F
100
AcDbEntity
  8
1
  6
CONTINUOUS
 62
     0
100
AcDbLine
 10
171.493263275292
 20
254.3314457518333
 30
0.0
 11
171.0142632752922
 21
254.8104457518332
 31
0.0
  0
LINE
  5
6A0
330
1F
100
AcDbEntity
  8
1
  6
CONTINUOUS
 62
     0
100
AcDbLine
 10
171.493263275292
 20
264.4914457518332
 30
0.0
 11
171.0142632752922
 21
264.9704457518332
 31
0.0
  0
LINE
  5
6A1
330
1F
100
AcDbEntity
  8
1
  6
CONTINUOUS
 62
     0
100
AcDbLine
 10
171.493263275292
 20
269.5714457518334
 30
0.0
 11
171.0142632752922
 21
270.0504457518333
 31
0.0
  0
LINE
  5
6A2
330
1F
100
AcDbEntity
  8
CLASS1
100
AcDbLine
 10
2.499998614597416
 20
298.3305599893895
 30
0.0
 11
2.499998614597416
 21
293.3292699893896
 31
0.0
  0
LINE
  5
6A3
330
1F
100
AcDbEntity
  8
CLASS1
100
AcDbLine
 10
68.12251561459698
 20
296.8525749893895
 30
0.0
 11
2.499998614597416
 21
298.3305599893895
 31
0.0
  0
LINE
  5
6A4
330
1F
100
AcDbEntity
  8
CLASS1
100
AcDbLine
 10
-0.0000013854028111
 20
126.8290109893897
 30
0.0
 11
-0.0000013854026975
 21
305.3290109893897
 31
0.0
  0
LINE
  5
6A5
330
1F
100
AcDbEntity
  8
0
100
AcDbLine
 10
152.9741318888536
 20
295.8292699893896
 30
0.0
 11
152.9741318888536
 21
303.8290109893897
 31
0.0
  0
LINE
  5
6A6
330
1F
100
AcDbEntity
  8
0
100
AcDbLine
 10
183.9745498888537
 20
294.8881379893897
 30
0.0
 11
183.9745498888537
 21
303.8290109893897
 31
0.0
  0
LINE
  5
6A7
330
1F
100
AcDbEntity
  8
0
  6
CENTER
 62
     5
100
AcDbLine
 10
168.4743408888539
 20
308.0790109893897
 30
0.0
 11
168.4743408888539
 21
293.0790109893897
 31
0.0
  0
LINE
  5
6A9
330
1F
100
AcDbEntity
  8
CLASS1
100
AcDbLine
 10
61.96772661459681
 20
141.7001089893896
 30
0.0
 11
2.523000614597094
 21
140.3324129893898
 31
0.0
  0
LINE
  5
6AA
330
1F
100
AcDbEntity
  8
CLASS1
100
AcDbLine
 10
68.12251561459698
 20
136.8085449893895
 30
0.0
 11
2.499998614597188
 21
135.3305599893896
 31
0.0
  0
LINE
  5
6AB
330
1F
100
AcDbEntity
  8
CLASS1
100
AcDbLine
 10
2.522719614597235
 20
293.3287529893897
 30
0.0
 11
61.96744661459707
 21
291.9777359893897
 31
0.0
  0
LINE
  5
6AC
330
1F
100
AcDbEntity
  8
CLASS1
100
AcDbLine
 10
62.9447246145969
 20
142.6998439893897
 30
0.0
 11
62.9447246145969
 21
290.9779939893896
 31
0.0
  0
LINE
  5
6AD
330
1F
100
AcDbEntity
  8
CLASS1
100
AcDbLine
 10
68.79999861459691
 20
294.3305599893895
 30
0.0
 11
68.79999861459691
 21
139.3305599893895
 31
0.0
  0
LINE
  5
6AE
330
1F
100
AcDbEntity
  8
CLASS1
100
AcDbLine
 10
68.31567261459714
 20
294.3305599893895
 30
0.0
 11
68.31567261459714
 21
139.3305599893895
 31
0.0
  0
LINE
  5
6AF
330
1F
100
AcDbEntity
  8
CLASS1
100
AcDbLine
 10
68.04452161459721
 20
295.8766009893896
 30
0.0
 11
68.04452161459721
 21
137.7845189893897
 31
0.0
  0
ARC
  5
6B0
330
1F
100
AcDbEntity
  8
CLASS1
100
AcDbCircle
 10
68.09999861459687
 20
137.8082909893895
 30
0.0
 40
1.0
100
AcDbArc
 50
271.2902270000052
 51
0.0
  0
LINE
  5
6B1
330
1F
100
AcDbEntity
  8
CLASS1
100
AcDbLine
 10
68.31567261459714
 20
139.3305599893895
 30
0.0
 11
69.09999861459709
 21
139.3305599893895
 31
0.0
  0
LINE
  5
6B2
330
1F
100
AcDbEntity
  8
CLASS1
100
AcDbLine
 10
69.09999861459709
 20
137.8082909893895
 30
0.0
 11
69.09999861459709
 21
139.3305599893895
 31
0.0
  0
ARC
  5
6B3
330
1F
100
AcDbEntity
  8
CLASS1
100
AcDbCircle
 10
67.04452161459698
 20
137.7845189893897
 30
0.0
 40
1.0
100
AcDbArc
 50
271.2902270000052
 51
0.0
  0
ARC
  5
6B4
330
1F
100
AcDbEntity
  8
CLASS1
100
AcDbCircle
 10
61.94472461459668
 20
142.6998439893897
 30
0.0
 40
1.0
100
AcDbArc
 50
271.318021000004
 51
0.0
  0
LINE
  5
6B5
330
1F
100
AcDbEntity
  8
0
100
AcDbLine
 10
69.29999861459691
 20
189.2544289893895
 30
0.0
 11
69.29999861459669
 21
186.2544289893895
 31
0.0
  0
LINE
  5
6B6
330
1F
100
AcDbEntity
  8
0
100
AcDbLine
 10
69.29999861459691
 20
189.2544289893895
 30
0.0
 11
68.31567261459714
 21
189.2544289893896
 31
0.0
  0
LINE
  5
6B7
330
1F
100
AcDbEntity
  8
0
100
AcDbLine
 10
69.29999861459669
 20
186.2544289893895
 30
0.0
 11
68.3156726145969
 21
186.2544289893896
 31
0.0
  0
LINE
  5
6B8
330
1F
100
AcDbEntity
  8
0
100
AcDbLine
 10
69.29999861459691
 20
230.4084169893898
 30
0.0
 11
69.29999861459691
 21
227.4084169893898
 31
0.0
  0
LINE
  5
6B9
330
1F
100
AcDbEntity
  8
0
100
AcDbLine
 10
69.29999861459691
 20
230.4084169893898
 30
0.0
 11
68.31567261459714
 21
230.4084169893899
 31
0.0
  0
LINE
  5
6BA
330
1F
100
AcDbEntity
  8
0
100
AcDbLine
 10
69.29999861459691
 20
227.4084169893898
 30
0.0
 11
68.31567261459714
 21
227.4084169893899
 31
0.0
  0
LINE
  5
6BB
330
1F
100
AcDbEntity
  8
CLASS1
100
AcDbLine
 10
68.31567261459714
 20
294.3305599893895
 30
0.0
 11
69.09999861459709
 21
294.3305599893895
 31
0.0
  0
LINE
  5
6BC
330
1F
100
AcDbEntity
  8
CLASS1
100
AcDbLine
 10
69.09999861459709
 20
295.8528289893896
 30
0.0
 11
69.09999861459709
 21
294.3305599893895
 31
0.0
  0
ARC
  5
6BD
330
1F
100
AcDbEntity
  8
CLASS1
100
AcDbCircle
 10
68.09999861459733
 20
295.8528289893896
 30
0.0
 40
1.0
100
AcDbArc
 50
0.0
 51
88.70977299999479
  0
ARC
  5
6BE
330
1F
100
AcDbEntity
  8
CLASS1
100
AcDbCircle
 10
67.04452161459744
 20
295.8766009893896
 30
0.0
 40
1.0
100
AcDbArc
 50
0.0
 51
88.70977299999479
  0
ARC
  5
6BF
330
1F
100
AcDbEntity
  8
CLASS1
100
AcDbCircle
 10
61.94472461459714
 20
290.9779939893896
 30
0.0
 40
1.0
100
AcDbArc
 50
0.0
 51
88.69804600000646
  0
LINE
  5
6C0
330
1F
100
AcDbEntity
  8
0
100
AcDbLine
 10
178.8465098888536
 20
295.8954979893898
 30
0.0
 11
179.4740158888539
 21
296.8292699893897
 31
0.0
  0
LINE
  5
6C1
330
1F
100
AcDbEntity
  8
0
100
AcDbLine
 10
154.9820588888537
 20
295.31790698939
 30
0.0
 11
181.9666238888539
 21
295.31790698939
 31
0.0
  0
LINE
  5
6C2
330
1F
100
AcDbEntity
  8
0
100
AcDbLine
 10
156.9743408888537
 20
292.8292699893896
 30
0.0
 11
179.9743408888539
 21
292.8292699893896
 31
0.0
  0
LINE
  5
6C3
330
1F
100
AcDbEntity
  8
0
100
AcDbLine
 10
157.0743408888538
 20
292.7331389893899
 30
0.0
 11
179.8743408888537
 21
292.7331389893899
 31
0.0
  0
LINE
  5
6C4
330
1F
100
AcDbEntity
  8
0
100
AcDbLine
 10
178.8465098888536
 20
134.7630419893902
 30
0.0
 11
179.4740158888535
 21
133.8292699893899
 31
0.0
  0
LINE
  5
6C5
330
1F
100
AcDbEntity
  8
0
100
AcDbLine
 10
172.4743408888534
 20
126.82900498939
 30
0.0
 11
182.4745498888537
 21
126.82900498939
 31
0.0
  0
LINE
  5
6C6
330
1F
100
AcDbEntity
  8
0
100
AcDbLine
 10
154.9820588888537
 20
135.35239098939
 30
0.0
 11
181.9666238888535
 21
135.35239098939
 31
0.0
  0
LINE
  5
6C7
330
1F
100
AcDbEntity
  8
0
100
AcDbLine
 10
157.0743408888536
 20
137.9331389893899
 30
0.0
 11
179.8743408888535
 21
137.9331389893899
 31
0.0
  0
LINE
  5
6C8
330
1F
100
AcDbEntity
  8
0
100
AcDbLine
 10
156.9743408888534
 20
137.8292699893899
 30
0.0
 11
179.9743408888534
 21
137.8292699893899
 31
0.0
  0
LINE
  5
6C9
330
1F
100
AcDbEntity
  8
CLASS1
100
AcDbLine
 10
1.499998614597188
 20
141.3321479893896
 30
0.0
 11
1.499998614597302
 21
292.3290109893897
 31
0.0
  0
LINE
  5
6CA
330
1F
100
AcDbEntity
  8
0
100
AcDbLine
 10
182.9666238888539
 20
294.31790698939
 30
0.0
 11
182.9666238888535
 21
136.35239098939
 31
0.0
  0
LINE
  5
6CB
330
1F
100
AcDbEntity
  8
0
100
AcDbLine
 10
180.8743408888537
 20
291.7331389893898
 30
0.0
 11
180.8743408888535
 21
138.83313898939
 31
0.0
  0
LINE
  5
6CC
330
1F
100
AcDbEntity
  8
0
100
AcDbLine
 10
185.9593398888537
 20
139.8658449893899
 30
0.0
 11
185.9593398888537
 21
290.8049929893901
 31
0.0
  0
LINE
  5
6CD
330
1F
100
AcDbEntity
  8
0
100
AcDbLine
 10
185.0440518888538
 20
289.45423498939
 30
0.0
 11
185.0440518888535
 21
141.2043059893898
 31
0.0
  0
LINE
  5
6CE
330
1F
100
AcDbEntity
  8
0
100
AcDbLine
 10
180.9743408888534
 20
138.8292699893898
 30
0.0
 11
180.9743408888539
 21
291.8292699893896
 31
0.0
  0
LINE
  5
6CF
330
1F
100
AcDbEntity
  8
0
100
AcDbLine
 10
2.499998614597188
 20
135.3305599893896
 30
0.0
 11
2.499998614597188
 21
126.8290109893897
 31
0.0
  0
LINE
  5
6D0
330
1F
100
AcDbEntity
  8
CLASS1
100
AcDbLine
 10
2.499998614597188
 20
126.8290109893897
 30
0.0
 11
-0.0000013854028111
 21
126.8290109893897
 31
0.0
  0
ARC
  5
6D1
330
1F
100
AcDbEntity
  8
CLASS1
100
AcDbCircle
 10
2.499998614597188
 20
141.3321479893896
 30
0.0
 40
1.0
100
AcDbArc
 50
180.0
 51
271.318021000004
  0
LINE
  5
6D2
330
1F
100
AcDbEntity
  8
CLASS1
100
AcDbLine
 10
2.499998614597188
 20
135.3305599893896
 30
0.0
 11
2.499998614597188
 21
140.3318839893896
 31
0.0
  0
LINE
  5
6D3
330
1F
100
AcDbEntity
  8
0
100
AcDbLine
 10
183.9745498888537
 20
128.3290049893899
 30
0.0
 11
183.9745498888537
 21
138.8881379893897
 31
0.0
  0
ARC
  5
6D4
330
1F
100
AcDbEntity
  8
0
100
AcDbCircle
 10
182.4745498888537
 20
128.3290049893898
 30
0.0
 40
1.5
100
AcDbArc
 50
270.0
 51
0.0
  0
ARC
  5
6D5
330
1F
100
AcDbEntity
  8
0
100
AcDbCircle
 10
184.0440518888535
 20
141.2043059893896
 30
0.0
 40
1.0
100
AcDbArc
 50
270.0
 51
0.0
  0
LINE
  5
6D6
330
1F
100
AcDbEntity
  8
0
100
AcDbLine
 10
184.0440518888535
 20
140.2043059893898
 30
0.0
 11
183.0436238888537
 21
140.2043059893898
 31
0.0
  0
LINE
  5
6D7
330
1F
100
AcDbEntity
  8
0
100
AcDbLine
 10
183.9745488888536
 20
134.8292699893899
 30
0.0
 11
183.9745488888536
 21
138.8658449893899
 31
0.0
  0
ARC
  5
6D8
330
1F
100
AcDbEntity
  8
0
100
AcDbCircle
 10
181.9666238888537
 20
136.3523909893899
 30
0.0
 40
1.0
100
AcDbArc
 50
270.0
 51
0.0
  0
LINE
  5
6D9
330
1F
100
AcDbEntity
  8
0
100
AcDbLine
 10
183.9745488888536
 20
138.8658449893899
 30
0.0
 11
184.9593398888537
 21
138.8658449893899
 31
0.0
  0
LINE
  5
6DA
330
1F
100
AcDbEntity
  8
0
100
AcDbLine
 10
183.9745498888537
 20
138.8535469893898
 30
0.0
 11
183.0436238888537
 21
140.2043059893898
 31
0.0
  0
ARC
  5
6DB
330
1F
100
AcDbEntity
  8
0
100
AcDbCircle
 10
184.9593398888537
 20
139.8658449893898
 30
0.0
 40
1.0
100
AcDbArc
 50
270.0
 51
0.0
  0
ARC
  5
6DC
330
1F
100
AcDbEntity
  8
0
100
AcDbCircle
 10
182.9745488888536
 20
134.8292699893897
 30
0.0
 40
1.0
100
AcDbArc
 50
270.0
 51
0.0
  0
LINE
  5
6DD
330
1F
100
AcDbEntity
  8
0
100
AcDbLine
 10
179.4740158888535
 20
133.8292699893899
 30
0.0
 11
182.9745488888536
 21
133.8292699893899
 31
0.0
  0
ARC
  5
6DE
330
1F
100
AcDbEntity
  8
0
100
AcDbCircle
 10
179.8743408888535
 20
138.9331389893898
 30
0.0
 40
1.0
100
AcDbArc
 50
270.0
 51
0.0
  0
ARC
  5
6DF
330
1F
100
AcDbEntity
  8
0
100
AcDbCircle
 10
179.9743408888537
 20
138.8292699893897
 30
0.0
 40
1.0
100
AcDbArc
 50
270.0
 51
0.0
  0
ARC
  5
6E0
330
1F
100
AcDbEntity
  8
CLASS1
100
AcDbCircle
 10
2.499998614597416
 20
292.3290109893897
 30
0.0
 40
1.0
100
AcDbArc
 50
88.69804699999894
 51
180.0
  0
ARC
  5
6E1
330
1F
100
AcDbEntity
  8
0
100
AcDbCircle
 10
181.9666238888539
 20
294.31790698939
 30
0.0
 40
1.0
100
AcDbArc
 50
0.0
 51
90.0
  0
ARC
  5
6E2
330
1F
100
AcDbEntity
  8
0
100
AcDbCircle
 10
182.9745488888538
 20
295.8292699893896
 30
0.0
 40
1.0
100
AcDbArc
 50
0.0
 51
90.0
  0
LINE
  5
6E3
330
1F
100
AcDbEntity
  8
0
100
AcDbLine
 10
184.0440518888538
 20
290.4542349893901
 30
0.0
 11
183.0436238888537
 21
290.4542349893901
 31
0.0
  0
LINE
  5
6E4
330
1F
100
AcDbEntity
  8
0
100
AcDbLine
 10
184.0440518888538
 20
290.4542349893901
 30
0.0
 11
183.0436238888537
 21
290.4542349893901
 31
0.0
  0
LINE
  5
6E5
330
1F
100
AcDbEntity
  8
0
100
AcDbLine
 10
183.9745498888537
 20
291.8049929893901
 30
0.0
 11
184.9593398888537
 21
291.8049929893901
 31
0.0
  0
ARC
  5
6E6
330
1F
100
AcDbEntity
  8
0
100
AcDbCircle
 10
184.9593398888539
 20
290.8049929893901
 30
0.0
 40
1.0
100
AcDbArc
 50
0.0
 51
90.0
  0
ARC
  5
6E7
330
1F
100
AcDbEntity
  8
0
100
AcDbCircle
 10
184.0440518888538
 20
289.45423498939
 30
0.0
 40
1.0
100
AcDbArc
 50
0.0
 51
90.0
  0
ARC
  5
6E8
330
1F
100
AcDbEntity
  8
0
100
AcDbCircle
 10
184.0440518888538
 20
289.45423498939
 30
0.0
 40
1.0
100
AcDbArc
 50
0.0
 51
90.0
  0
LINE
  5
6E9
330
1F
100
AcDbEntity
  8
0
100
AcDbLine
 10
183.9745498888537
 20
291.8049929893901
 30
0.0
 11
183.0436238888537
 21
290.4542349893901
 31
0.0
  0
LINE
  5
6EA
330
1F
100
AcDbEntity
  8
0
100
AcDbLine
 10
183.9745498888537
 20
291.8049929893901
 30
0.0
 11
183.0436238888537
 21
290.4542349893901
 31
0.0
  0
LINE
  5
6EB
330
1F
100
AcDbEntity
  8
0
100
AcDbLine
 10
183.9745488888538
 20
295.8292699893896
 30
0.0
 11
183.9745488888538
 21
291.8049929893901
 31
0.0
  0
ARC
  5
6EC
330
1F
100
AcDbEntity
  8
0
100
AcDbCircle
 10
179.8743408888537
 20
291.7331389893898
 30
0.0
 40
1.0
100
AcDbArc
 50
0.0
 51
90.0
  0
ARC
  5
6ED
330
1F
100
AcDbEntity
  8
0
100
AcDbCircle
 10
179.9743408888539
 20
291.8292699893896
 30
0.0
 40
1.0
100
AcDbArc
 50
0.0
 51
90.0
  0
LINE
  5
6EE
330
1F
100
AcDbEntity
  8
0
100
AcDbLine
 10
179.4740158888539
 20
296.8292699893897
 30
0.0
 11
182.9745488888538
 21
296.8292699893897
 31
0.0
  0
LINE
  5
6EF
330
1F
100
AcDbEntity
  8
0
100
AcDbLine
 10
156.0743408888543
 20
244.5114439518348
 30
0.0
 11
156.0743408888538
 21
138.9331389893899
 31
0.0
  0
LINE
  5
6F0
330
1F
100
AcDbEntity
  8
0
100
AcDbLine
 10
151.9046298888538
 20
289.45423498939
 30
0.0
 11
151.9046298888538
 21
141.2043059893898
 31
0.0
  0
LINE
  5
6F1
330
1F
100
AcDbEntity
  8
0
100
AcDbLine
 10
155.9743408888537
 20
138.8292699893898
 30
0.0
 11
155.9743408888539
 21
291.8292699893896
 31
0.0
  0
LINE
  5
6F2
330
1F
100
AcDbEntity
  8
0
100
AcDbLine
 10
150.9892218888537
 20
139.8658449893899
 30
0.0
 11
150.9892218888539
 21
290.8049929893901
 31
0.0
  0
LINE
  5
6F3
330
1F
100
AcDbEntity
  8
0
100
AcDbLine
 10
153.9820588888537
 20
294.31790698939
 30
0.0
 11
153.9820588888537
 21
136.35239098939
 31
0.0
  0
LINE
  5
6F4
330
1F
100
AcDbEntity
  8
0
100
AcDbLine
 10
152.9741318888536
 20
128.3290049893899
 30
0.0
 11
152.9741318888536
 21
134.8292699893899
 31
0.0
  0
LINE
  5
6F5
330
1F
100
AcDbEntity
  8
0
100
AcDbLine
 10
165.9743408888534
 20
130.07900498939
 30
0.0
 11
165.9743408888534
 21
128.3290049893899
 31
0.0
  0
LINE
  5
6F6
330
1F
100
AcDbEntity
  8
0
100
AcDbLine
 10
170.9743408888534
 20
130.07900498939
 30
0.0
 11
170.9743408888534
 21
128.3290049893899
 31
0.0
  0
LINE
  5
6F7
330
1F
100
AcDbEntity
  8
0
  6
CENTER
 62
     5
100
AcDbLine
 10
168.4743408888534
 20
137.5790049893899
 30
0.0
 11
168.4743408888534
 21
122.57900498939
 31
0.0
  0
LINE
  5
6F8
330
1F
100
AcDbEntity
  8
0
100
AcDbLine
 10
154.4741318888536
 20
126.82900498939
 30
0.0
 11
164.4743408888534
 21
126.82900498939
 31
0.0
  0
ARC
  5
6F9
330
1F
100
AcDbEntity
  8
0
100
AcDbCircle
 10
172.4743408888537
 20
128.3290049893898
 30
0.0
 40
1.5
100
AcDbArc
 50
180.0
 51
270.0
  0
ARC
  5
6FA
330
1F
100
AcDbEntity
  8
0
100
AcDbCircle
 10
164.4743408888537
 20
128.3290049893899
 30
0.0
 40
1.5
100
AcDbArc
 50
270.0
 51
0.0
  0
ARC
  5
6FB
330
1F
100
AcDbEntity
  8
0
100
AcDbCircle
 10
154.4741318888536
 20
128.3290049893899
 30
0.0
 40
1.5
100
AcDbArc
 50
180.0
 51
270.0
  0
ARC
  5
6FC
330
1F
100
AcDbEntity
  8
0
100
AcDbCircle
 10
158.9321688888537
 20
134.2052739893898
 30
0.0
 40
1.0
100
AcDbArc
 50
90.12440900000083
 51
146.0984159999965
  0
LINE
  5
6FD
330
1F
100
AcDbEntity
  8
0
100
AcDbLine
 10
158.1507418888536
 20
134.8292699893899
 30
0.0
 11
178.8020038888535
 21
134.8292699893899
 31
0.0
  0
ARC
  5
6FE
330
1F
100
AcDbEntity
  8
0
100
AcDbCircle
 10
168.4743408888537
 20
130.0790049893898
 30
0.0
 40
2.5
100
AcDbArc
 50
0.0
 51
180.0
  0
ARC
  5
6FF
330
1F
100
AcDbEntity
  8
0
100
AcDbCircle
 10
168.4743408888516
 20
-4260.380025010611
 30
0.0
 40
4395.595658
100
AcDbArc
 50
89.87559099999918
 51
90.12440900000083
  0
LINE
  5
700
330
1F
100
AcDbEntity
  8
0
  6
CENTER
 62
     5
100
AcDbLine
 10
175.9743408888534
 20
130.07900498939
 30
0.0
 11
160.9743408888534
 21
130.07900498939
 31
0.0
  0
ARC
  5
701
330
1F
100
AcDbEntity
  8
0
100
AcDbCircle
 10
178.0165128888536
 20
134.2052739893897
 30
0.0
 40
1.0
100
AcDbArc
 50
33.90158400000346
 51
89.87559099999918
  0
ARC
  5
702
330
1F
100
AcDbEntity
  8
0
100
AcDbCircle
 10
152.9046298888536
 20
141.2043059893898
 30
0.0
 40
1.0
100
AcDbArc
 50
180.0
 51
270.0
  0
LINE
  5
703
330
1F
100
AcDbEntity
  8
0
100
AcDbLine
 10
152.9046298888538
 20
140.2043059893898
 30
0.0
 11
153.9050588888537
 21
140.2043059893898
 31
0.0
  0
LINE
  5
704
330
1F
100
AcDbEntity
  8
0
100
AcDbLine
 10
152.9741318888536
 20
134.8292699893899
 30
0.0
 11
152.9741318888536
 21
138.8658449893899
 31
0.0
  0
LINE
  5
705
330
1F
100
AcDbEntity
  8
0
100
AcDbLine
 10
152.9741318888536
 20
138.8658449893899
 30
0.0
 11
151.9892218888537
 21
138.8658449893899
 31
0.0
  0
LINE
  5
706
330
1F
100
AcDbEntity
  8
0
100
AcDbLine
 10
152.9741318888536
 20
138.8535469893898
 30
0.0
 11
153.9050588888537
 21
140.2043059893898
 31
0.0
  0
ARC
  5
707
330
1F
100
AcDbEntity
  8
0
100
AcDbCircle
 10
151.9892218888537
 20
139.8658449893899
 30
0.0
 40
1.0
100
AcDbArc
 50
180.0
 51
270.0
  0
ARC
  5
708
330
1F
100
AcDbEntity
  8
0
100
AcDbCircle
 10
153.9741318888536
 20
134.8292699893899
 30
0.0
 40
1.0
100
AcDbArc
 50
180.0
 51
270.0
  0
ARC
  5
709
330
1F
100
AcDbEntity
  8
0
100
AcDbCircle
 10
157.0743408888536
 20
138.9331389893899
 30
0.0
 40
1.0
100
AcDbArc
 50
180.0
 51
270.0
  0
ARC
  5
70A
330
1F
100
AcDbEntity
  8
0
100
AcDbCircle
 10
156.9743408888537
 20
138.8292699893898
 30
0.0
 40
1.0
100
AcDbArc
 50
180.0
 51
270.0
  0
LINE
  5
70B
330
1F
100
AcDbEntity
  8
0
100
AcDbLine
 10
158.1021718888537
 20
134.7630419893902
 30
0.0
 11
157.4746648888535
 21
133.8292699893899
 31
0.0
  0
ARC
  5
70C
330
1F
100
AcDbEntity
  8
0
100
AcDbCircle
 10
154.9820588888537
 20
136.35239098939
 30
0.0
 40
1.0
100
AcDbArc
 50
180.0
 51
270.0
  0
LINE
  5
70D
330
1F
100
AcDbEntity
  8
0
100
AcDbLine
 10
153.9741318888536
 20
133.8292699893899
 30
0.0
 11
157.4746648888535
 21
133.8292699893899
 31
0.0
  0
ARC
  5
70E
330
1F
100
AcDbEntity
  8
0
100
AcDbCircle
 10
158.9321688888539
 20
296.4532659893899
 30
0.0
 40
1.0
100
AcDbArc
 50
213.9015840000034
 51
269.8755909999992
  0
LINE
  5
70F
330
1F
100
AcDbEntity
  8
0
100
AcDbLine
 10
158.1507418888538
 20
295.8292699893896
 30
0.0
 11
178.8020038888539
 21
295.8292699893896
 31
0.0
  0
ARC
  5
710
330
1F
100
AcDbEntity
  8
0
100
AcDbCircle
 10
168.4743408888559
 20
4691.038564989389
 30
0.0
 40
4395.595658
100
AcDbArc
 50
269.8755909999992
 51
270.1244089999942
  0
ARC
  5
711
330
1F
100
AcDbEntity
  8
0
100
AcDbCircle
 10
178.0165128888538
 20
296.4532659893899
 30
0.0
 40
1.0
100
AcDbArc
 50
270.1244089999942
 51
326.0984159999965
  0
LINE
  5
712
330
1F
100
AcDbEntity
  8
0
100
AcDbLine
 10
155.9743408888539
 20
291.8292699893896
 30
0.0
 11
155.9743408888539
 21
277.88813898939
 31
0.0
  0
ARC
  5
713
330
1F
100
AcDbEntity
  8
0
100
AcDbCircle
 10
153.9741318888536
 20
295.8292699893896
 30
0.0
 40
1.0
100
AcDbArc
 50
90.0
 51
180.0
  0
LINE
  5
714
330
1F
100
AcDbEntity
  8
0
100
AcDbLine
 10
152.9741318888536
 20
291.8049929893901
 30
0.0
 11
151.9892218888539
 21
291.8049929893901
 31
0.0
  0
ARC
  5
715
330
1F
100
AcDbEntity
  8
0
100
AcDbCircle
 10
152.9046298888538
 20
289.45423498939
 30
0.0
 40
1.0
100
AcDbArc
 50
90.0
 51
180.0
  0
ARC
  5
716
330
1F
100
AcDbEntity
  8
0
100
AcDbCircle
 10
152.9046298888538
 20
289.45423498939
 30
0.0
 40
1.0
100
AcDbArc
 50
90.0
 51
180.0
  0
LINE
  5
717
330
1F
100
AcDbEntity
  8
0
100
AcDbLine
 10
152.9046298888538
 20
290.4542349893901
 30
0.0
 11
153.905058888854
 21
290.4542349893901
 31
0.0
  0
LINE
  5
718
330
1F
100
AcDbEntity
  8
0
100
AcDbLine
 10
152.9046298888538
 20
290.4542349893901
 30
0.0
 11
153.905058888854
 21
290.4542349893901
 31
0.0
  0
LINE
  5
719
330
1F
100
AcDbEntity
  8
0
100
AcDbLine
 10
152.9741318888536
 20
291.8049929893901
 30
0.0
 11
153.905058888854
 21
290.4542349893901
 31
0.0
  0
LINE
  5
71A
330
1F
100
AcDbEntity
  8
0
100
AcDbLine
 10
152.9741318888536
 20
291.8049929893901
 30
0.0
 11
153.905058888854
 21
290.4542349893901
 31
0.0
  0
ARC
  5
71B
330
1F
100
AcDbEntity
  8
0
100
AcDbCircle
 10
151.9892218888539
 20
290.8049929893901
 30
0.0
 40
1.0
100
AcDbArc
 50
90.0
 51
180.0
  0
LINE
  5
71C
330
1F
100
AcDbEntity
  8
0
100
AcDbLine
 10
152.9741318888536
 20
295.8292699893896
 30
0.0
 11
152.9741318888536
 21
291.8049929893901
 31
0.0
  0
LINE
  5
71D
330
1F
100
AcDbEntity
  8
0
100
AcDbLine
 10
158.1021718888537
 20
295.8954979893898
 30
0.0
 11
157.4746648888537
 21
296.8292699893897
 31
0.0
  0
ARC
  5
71E
330
1F
100
AcDbEntity
  8
0
100
AcDbCircle
 10
157.0743408888538
 20
291.7331389893898
 30
0.0
 40
1.0
100
AcDbArc
 50
90.0
 51
180.0
  0
ARC
  5
71F
330
1F
100
AcDbEntity
  8
0
100
AcDbCircle
 10
156.9743408888539
 20
291.8292699893896
 30
0.0
 40
1.0
100
AcDbArc
 50
90.0
 51
180.0
  0
ARC
  5
720
330
1F
100
AcDbEntity
  8
0
100
AcDbCircle
 10
154.9820588888537
 20
294.31790698939
 30
0.0
 40
1.0
100
AcDbArc
 50
90.0
 51
180.0
  0
LINE
  5
721
330
1F
100
AcDbEntity
  8
0
100
AcDbLine
 10
153.9741318888536
 20
296.8292699893897
 30
0.0
 11
157.4746648888537
 21
296.8292699893897
 31
0.0
  0
LINE
  5
722
330
1F
100
AcDbEntity
  8
0
100
AcDbLine
 10
154.4741318888536
 20
305.3290109893897
 30
0.0
 11
182.4745498888537
 21
305.3290109893897
 31
0.0
  0
LINE
  5
723
330
1F
100
AcDbEntity
  8
CLASS1
100
AcDbLine
 10
2.499998614597416
 20
305.3290109893897
 30
0.0
 11
-0.0000013854026975
 21
305.3290109893897
 31
0.0
  0
LINE
  5
724
330
1F
100
AcDbEntity
  8
0
100
AcDbLine
 10
2.499998614597416
 20
305.3290109893897
 30
0.0
 11
2.499998614597416
 21
298.3305599893895
 31
0.0
  0
ARC
  5
725
330
1F
100
AcDbEntity
  8
0
100
AcDbCircle
 10
182.4745498888537
 20
303.8290109893897
 30
0.0
 40
1.5
100
AcDbArc
 50
0.0
 51
90.0
  0
LINE
  5
726
330
1F
100
AcDbEntity
  8
0
  6
CENTER
 62
     5
100
AcDbLine
 10
175.9743408888539
 20
300.5790109893897
 30
0.0
 11
160.9743408888539
 21
300.5790109893897
 31
0.0
  0
CIRCLE
  5
727
330
1F
100
AcDbEntity
  8
0
100
AcDbCircle
 10
168.4743408888539
 20
300.5790109893897
 30
0.0
 40
2.5
  0
ARC
  5
728
330
1F
100
AcDbEntity
  8
0
100
AcDbCircle
 10
154.4741318888536
 20
303.8290109893897
 30
0.0
 40
1.5
100
AcDbArc
 50
90.0
 51
180.0
  0
LINE
  5
729
330
1F
100
AcDbEntity
  8
0
100
AcDbLine
 10
174.3743408888535
 20
231.8071259893901
 30
0.0
 11
174.3743408888535
 21
143.83313898939
 31
0.0
  0
LINE
  5
72A
330
1F
100
AcDbEntity
  8
0
100
AcDbLine
 10
161.0743408888538
 20
225.65712598939
 30
0.0
 11
161.0743408888538
 21
211.65712598939
 31
0.0
  0
LINE
  5
72B
330
1F
100
AcDbEntity
  8
0
100
AcDbLine
 10
160.5743408888538
 20
226.13313898939
 30
0.0
 11
160.5743408888538
 21
211.1331389893899
 31
0.0
  0
LINE
  5
72C
330
1F
100
AcDbEntity
  8
0
100
AcDbLine
 10
173.8743408888535
 20
211.65712598939
 30
0.0
 11
173.8743408888535
 21
225.65712598939
 31
0.0
  0
LINE
  5
72D
330
1F
100
AcDbEntity
  8
0
100
AcDbLine
 10
168.5043408888536
 20
155.8131379893899
 30
0.0
 11
168.5043408888536
 21
152.0031379893897
 31
0.0
  0
LINE
  5
72E
330
1F
100
AcDbEntity
  8
0
100
AcDbLine
 10
173.3743408888535
 20
173.5531379893899
 30
0.0
 11
173.3743408888535
 21
144.4931379893897
 31
0.0
  0
LINE
  5
72F
330
1F
100
AcDbEntity
  8
0
100
AcDbLine
 10
160.1743408888537
 20
143.83313898939
 30
0.0
 11
160.1743408888537
 21
173.7331389893901
 31
0.0
  0
ARC
  5
730
330
1F
100
AcDbEntity
  8
0
100
AcDbCircle
 10
165.4743408888534
 20
153.9081379893899
 30
0.0
 40
0.85
100
AcDbArc
 50
0.0
 51
323.269604999999
  0
LINE
  5
731
330
1F
100
AcDbEntity
  8
0
100
AcDbLine
 10
160.6743408888537
 20
152.3431379893898
 30
0.0
 11
160.6743408888537
 21
155.4431379893898
 31
0.0
  0
LINE
  5
732
330
1F
100
AcDbEntity
  8
0
100
AcDbLine
 10
161.3243408888538
 20
155.7431379893897
 30
0.0
 11
161.3243408888538
 21
152.9431379893898
 31
0.0
  0
LINE
  5
733
330
1F
100
AcDbEntity
  8
0
100
AcDbLine
 10
162.5243408888536
 20
152.9431379893898
 30
0.0
 11
162.5243408888536
 21
155.7431379893897
 31
0.0
  0
LINE
  5
734
330
1F
100
AcDbEntity
  8
0
100
AcDbLine
 10
163.1743408888537
 20
152.3431379893898
 30
0.0
 11
163.1743408888537
 21
155.0431379893899
 31
0.0
  0
LINE
  5
735
330
1F
100
AcDbEntity
  8
0
100
AcDbLine
 10
163.3243408888538
 20
155.0431379893899
 30
0.0
 11
163.3243408888538
 21
152.0031379893897
 31
0.0
  0
CIRCLE
  5
736
330
1F
100
AcDbEntity
  8
0
100
AcDbCircle
 10
165.4743408888534
 20
153.9081379893899
 30
0.0
 40
1.564999999999999
  0
LINE
  5
737
330
1F
100
AcDbEntity
  8
0
100
AcDbLine
 10
163.8243408888538
 20
152.0031379893897
 30
0.0
 11
167.5443408888536
 21
152.0031379893897
 31
0.0
  0
LINE
  5
738
330
1F
100
AcDbEntity
  8
0
100
AcDbLine
 10
163.8243408888538
 20
152.0031379893897
 30
0.0
 11
168.3043408888538
 21
152.0031379893897
 31
0.0
  0
LINE
  5
739
330
1F
100
AcDbEntity
  8
0
100
AcDbLine
 10
163.8243408888538
 20
144.3831379893898
 30
0.0
 11
168.3043408888538
 21
144.3831379893898
 31
0.0
  0
LINE
  5
73A
330
1F
100
AcDbEntity
  8
0
100
AcDbLine
 10
163.8243408888538
 20
148.1931379893898
 30
0.0
 11
167.5443408888536
 21
148.1931379893898
 31
0.0
  0
LINE
  5
73B
330
1F
100
AcDbEntity
  8
0
100
AcDbLine
 10
163.8243408888538
 20
148.1931379893898
 30
0.0
 11
168.3043408888538
 21
148.1931379893898
 31
0.0
  0
LINE
  5
73C
330
1F
100
AcDbEntity
  8
0
100
AcDbLine
 10
160.1743408888537
 20
143.83313898939
 30
0.0
 11
174.3743408888535
 21
143.83313898939
 31
0.0
  0
ARC
  5
73D
330
1F
100
AcDbEntity
  8
0
100
AcDbCircle
 10
160.9743408888534
 20
151.6331379893898
 30
0.0
 40
0.3
100
AcDbArc
 50
90.0
 51
180.0
  0
LINE
  5
73E
330
1F
100
AcDbEntity
  8
0
100
AcDbLine
 10
163.3243408888538
 20
152.0031379893897
 30
0.0
 11
163.3243408888538
 21
151.9331379893898
 31
0.0
  0
ARC
  5
73F
330
1F
100
AcDbEntity
  8
0
100
AcDbCircle
 10
165.4743408888534
 20
150.0981379893897
 30
0.0
 40
0.85
100
AcDbArc
 50
0.0
 51
323.269604999999
  0
ARC
  5
740
330
1F
100
AcDbEntity
  8
0
100
AcDbCircle
 10
165.4743408888534
 20
146.2881379893898
 30
0.0
 40
0.85
100
AcDbArc
 50
0.0
 51
323.269604999999
  0
LINE
  5
741
330
1F
100
AcDbEntity
  8
0
100
AcDbLine
 10
163.3243408888538
 20
147.4231379893898
 30
0.0
 11
163.3243408888538
 21
144.3831379893898
 31
0.0
  0
LINE
  5
742
330
1F
100
AcDbEntity
  8
0
100
AcDbLine
 10
163.1743408888537
 20
144.7231379893897
 30
0.0
 11
163.1743408888537
 21
147.4231379893898
 31
0.0
  0
LINE
  5
743
330
1F
100
AcDbEntity
  8
0
100
AcDbLine
 10
160.6743408888537
 20
144.7231379893897
 30
0.0
 11
160.6743408888537
 21
147.8231379893899
 31
0.0
  0
ARC
  5
744
330
1F
100
AcDbEntity
  8
0
100
AcDbCircle
 10
162.2243408888534
 20
145.3231379893899
 30
0.0
 40
0.3
100
AcDbArc
 50
270.0
 51
0.0
  0
ARC
  5
745
330
1F
100
AcDbEntity
  8
0
100
AcDbCircle
 10
161.6243408888535
 20
145.3231379893899
 30
0.0
 40
0.3
100
AcDbArc
 50
180.0
 51
270.0
  0
LINE
  5
746
330
1F
100
AcDbEntity
  8
0
100
AcDbLine
 10
163.8243408888538
 20
144.3831379893898
 30
0.0
 11
163.3243408888538
 21
144.3831379893898
 31
0.0
  0
LINE
  5
747
330
1F
100
AcDbEntity
  8
0
100
AcDbLine
 10
162.7743408888536
 20
144.4231379893898
 30
0.0
 11
162.8743408888535
 21
144.4231379893898
 31
0.0
  0
LINE
  5
748
330
1F
100
AcDbEntity
  8
0
100
AcDbLine
 10
161.6243408888535
 20
145.0231379893899
 30
0.0
 11
162.2243408888537
 21
145.0231379893899
 31
0.0
  0
LINE
  5
749
330
1F
100
AcDbEntity
  8
0
100
AcDbLine
 10
163.8243408888538
 20
152.0031379893897
 30
0.0
 11
163.3243408888538
 21
152.0031379893897
 31
0.0
  0
ARC
  5
74A
330
1F
100
AcDbEntity
  8
0
100
AcDbCircle
 10
161.6243408888535
 20
152.9431379893898
 30
0.0
 40
0.3
100
AcDbArc
 50
180.0
 51
270.0
  0
ARC
  5
74B
330
1F
100
AcDbEntity
  8
0
100
AcDbCircle
 10
160.9743408888534
 20
152.3431379893898
 30
0.0
 40
0.3
100
AcDbArc
 50
180.0
 51
270.0
  0
ARC
  5
74C
330
1F
100
AcDbEntity
  8
0
100
AcDbCircle
 10
162.8743408888535
 20
152.3431379893898
 30
0.0
 40
0.3
100
AcDbArc
 50
270.0
 51
0.0
  0
ARC
  5
74D
330
1F
100
AcDbEntity
  8
0
100
AcDbCircle
 10
162.2243408888534
 20
152.9431379893898
 30
0.0
 40
0.3
100
AcDbArc
 50
270.0
 51
0.0
  0
LINE
  5
74E
330
1F
100
AcDbEntity
  8
0
100
AcDbLine
 10
160.9743408888537
 20
152.0431379893899
 30
0.0
 11
161.0743408888538
 21
152.0431379893899
 31
0.0
  0
LINE
  5
74F
330
1F
100
AcDbEntity
  8
0
100
AcDbLine
 10
161.0743408888538
 20
152.0431379893899
 30
0.0
 11
162.7743408888536
 21
152.0431379893899
 31
0.0
  0
LINE
  5
750
330
1F
100
AcDbEntity
  8
0
100
AcDbLine
 10
161.6243408888535
 20
152.6431379893898
 30
0.0
 11
162.2243408888537
 21
152.6431379893898
 31
0.0
  0
LINE
  5
751
330
1F
100
AcDbEntity
  8
0
100
AcDbLine
 10
162.7743408888536
 20
152.0431379893899
 30
0.0
 11
162.8743408888535
 21
152.0431379893899
 31
0.0
  0
LINE
  5
752
330
1F
100
AcDbEntity
  8
0
100
AcDbLine
 10
163.8243408888538
 20
152.0031379893897
 30
0.0
 11
163.3243408888538
 21
152.0031379893897
 31
0.0
  0
ARC
  5
753
330
1F
100
AcDbEntity
  8
0
100
AcDbCircle
 10
165.4743408888534
 20
153.9081379893899
 30
0.0
 40
0.85
100
AcDbArc
 50
323.269604999999
 51
0.0
  0
LINE
  5
754
330
1F
100
AcDbEntity
  8
0
100
AcDbLine
 10
161.0743408888538
 20
144.4231379893898
 30
0.0
 11
162.7743408888536
 21
144.4231379893898
 31
0.0
  0
LINE
  5
755
330
1F
100
AcDbEntity
  8
0
100
AcDbLine
 10
160.9743408888537
 20
144.4231379893898
 30
0.0
 11
161.0743408888538
 21
144.4231379893898
 31
0.0
  0
ARC
  5
756
330
1F
100
AcDbEntity
  8
0
100
AcDbCircle
 10
162.8743408888535
 20
144.7231379893897
 30
0.0
 40
0.3
100
AcDbArc
 50
270.0
 51
0.0
  0
ARC
  5
757
330
1F
100
AcDbEntity
  8
0
100
AcDbCircle
 10
160.9743408888534
 20
144.7231379893897
 30
0.0
 40
0.3
100
AcDbArc
 50
180.0
 51
270.0
  0
LINE
  5
758
330
1F
100
AcDbEntity
  8
0
100
AcDbLine
 10
163.3243408888538
 20
151.9331379893898
 30
0.0
 11
163.3243408888538
 21
151.2331379893897
 31
0.0
  0
LINE
  5
759
330
1F
100
AcDbEntity
  8
0
100
AcDbLine
 10
161.3243408888538
 20
151.9331379893898
 30
0.0
 11
161.3243408888538
 21
149.1331379893898
 31
0.0
  0
LINE
  5
75A
330
1F
100
AcDbEntity
  8
0
100
AcDbLine
 10
163.1743408888537
 20
151.2331379893897
 30
0.0
 11
163.1743408888537
 21
151.9331379893898
 31
0.0
  0
LINE
  5
75B
330
1F
100
AcDbEntity
  8
0
100
AcDbLine
 10
162.5243408888536
 20
149.1331379893898
 30
0.0
 11
162.5243408888536
 21
151.9331379893898
 31
0.0
  0
ARC
  5
75C
330
1F
100
AcDbEntity
  8
0
100
AcDbCircle
 10
161.6243408888535
 20
149.1331379893898
 30
0.0
 40
0.3
100
AcDbArc
 50
180.0
 51
270.0
  0
ARC
  5
75D
330
1F
100
AcDbEntity
  8
0
100
AcDbCircle
 10
162.2243408888534
 20
149.1331379893898
 30
0.0
 40
0.3
100
AcDbArc
 50
270.0
 51
0.0
  0
LINE
  5
75E
330
1F
100
AcDbEntity
  8
0
100
AcDbLine
 10
160.9743408888537
 20
148.2331379893897
 30
0.0
 11
161.0743408888538
 21
148.2331379893897
 31
0.0
  0
LINE
  5
75F
330
1F
100
AcDbEntity
  8
0
100
AcDbLine
 10
161.0743408888538
 20
148.2331379893897
 30
0.0
 11
162.7743408888536
 21
148.2331379893897
 31
0.0
  0
LINE
  5
760
330
1F
100
AcDbEntity
  8
0
100
AcDbLine
 10
160.6743408888537
 20
148.5331379893899
 30
0.0
 11
160.6743408888537
 21
151.6331379893898
 31
0.0
  0
LINE
  5
761
330
1F
100
AcDbEntity
  8
0
100
AcDbLine
 10
161.6243408888535
 20
148.8331379893899
 30
0.0
 11
162.2243408888537
 21
148.8331379893899
 31
0.0
  0
LINE
  5
762
330
1F
100
AcDbEntity
  8
0
100
AcDbLine
 10
162.7743408888536
 20
148.2331379893897
 30
0.0
 11
162.8743408888535
 21
148.2331379893897
 31
0.0
  0
LINE
  5
763
330
1F
100
AcDbEntity
  8
0
100
AcDbLine
 10
163.1743408888537
 20
151.2331379893897
 30
0.0
 11
163.3243408888538
 21
151.2331379893897
 31
0.0
  0
LINE
  5
764
330
1F
100
AcDbEntity
  8
0
100
AcDbLine
 10
163.1743408888537
 20
148.5331379893899
 30
0.0
 11
163.1743408888537
 21
151.2331379893897
 31
0.0
  0
LINE
  5
765
330
1F
100
AcDbEntity
  8
0
100
AcDbLine
 10
160.9743408888537
 20
151.9331379893898
 30
0.0
 11
161.0743408888538
 21
151.9331379893898
 31
0.0
  0
LINE
  5
766
330
1F
100
AcDbEntity
  8
0
100
AcDbLine
 10
161.6243408888535
 20
151.9331379893898
 30
0.0
 11
162.2243408888537
 21
151.9331379893898
 31
0.0
  0
LINE
  5
767
330
1F
100
AcDbEntity
  8
0
100
AcDbLine
 10
161.0743408888538
 20
151.9331379893898
 30
0.0
 11
161.3243408888538
 21
151.9331379893898
 31
0.0
  0
LINE
  5
768
330
1F
100
AcDbEntity
  8
0
100
AcDbLine
 10
161.6243408888535
 20
151.9331379893898
 30
0.0
 11
161.3243408888538
 21
151.9331379893898
 31
0.0
  0
LINE
  5
769
330
1F
100
AcDbEntity
  8
0
100
AcDbLine
 10
162.7743408888536
 20
151.9331379893898
 30
0.0
 11
163.1743408888537
 21
151.9331379893898
 31
0.0
  0
LINE
  5
76A
330
1F
100
AcDbEntity
  8
0
100
AcDbLine
 10
163.1743408888537
 20
151.9331379893898
 30
0.0
 11
163.3243408888538
 21
151.9331379893898
 31
0.0
  0
LINE
  5
76B
330
1F
100
AcDbEntity
  8
0
100
AcDbLine
 10
162.5243408888536
 20
151.9331379893898
 30
0.0
 11
162.7743408888536
 21
151.9331379893898
 31
0.0
  0
LINE
  5
76C
330
1F
100
AcDbEntity
  8
0
100
AcDbLine
 10
162.5243408888536
 20
151.9331379893898
 30
0.0
 11
162.2243408888537
 21
151.9331379893898
 31
0.0
  0
LINE
  5
76D
330
1F
100
AcDbEntity
  8
0
100
AcDbLine
 10
163.3243408888538
 20
148.1931379893898
 30
0.0
 11
163.3243408888538
 21
148.1231379893898
 31
0.0
  0
LINE
  5
76E
330
1F
100
AcDbEntity
  8
0
100
AcDbLine
 10
163.3243408888538
 20
148.1231379893898
 30
0.0
 11
163.3243408888538
 21
147.4231379893898
 31
0.0
  0
LINE
  5
76F
330
1F
100
AcDbEntity
  8
0
100
AcDbLine
 10
163.8243408888538
 20
148.1931379893898
 30
0.0
 11
163.3243408888538
 21
148.1931379893898
 31
0.0
  0
LINE
  5
770
330
1F
100
AcDbEntity
  8
0
100
AcDbLine
 10
162.5243408888536
 20
148.1231379893898
 30
0.0
 11
162.2243408888537
 21
148.1231379893898
 31
0.0
  0
LINE
  5
771
330
1F
100
AcDbEntity
  8
0
100
AcDbLine
 10
162.5243408888536
 20
148.1231379893898
 30
0.0
 11
162.7743408888536
 21
148.1231379893898
 31
0.0
  0
LINE
  5
772
330
1F
100
AcDbEntity
  8
0
100
AcDbLine
 10
163.1743408888537
 20
148.1231379893898
 30
0.0
 11
163.3243408888538
 21
148.1231379893898
 31
0.0
  0
LINE
  5
773
330
1F
100
AcDbEntity
  8
0
100
AcDbLine
 10
162.7743408888536
 20
148.1231379893898
 30
0.0
 11
163.1743408888537
 21
148.1231379893898
 31
0.0
  0
LINE
  5
774
330
1F
100
AcDbEntity
  8
0
100
AcDbLine
 10
162.5243408888536
 20
145.3231379893899
 30
0.0
 11
162.5243408888536
 21
148.1231379893898
 31
0.0
  0
LINE
  5
775
330
1F
100
AcDbEntity
  8
0
100
AcDbLine
 10
163.1743408888537
 20
147.4231379893898
 30
0.0
 11
163.3243408888538
 21
147.4231379893898
 31
0.0
  0
LINE
  5
776
330
1F
100
AcDbEntity
  8
0
100
AcDbLine
 10
163.1743408888537
 20
147.4231379893898
 30
0.0
 11
163.1743408888537
 21
148.1231379893898
 31
0.0
  0
LINE
  5
777
330
1F
100
AcDbEntity
  8
0
100
AcDbLine
 10
161.6243408888535
 20
148.1231379893898
 30
0.0
 11
161.3243408888538
 21
148.1231379893898
 31
0.0
  0
LINE
  5
778
330
1F
100
AcDbEntity
  8
0
100
AcDbLine
 10
161.0743408888538
 20
148.1231379893898
 30
0.0
 11
161.3243408888538
 21
148.1231379893898
 31
0.0
  0
LINE
  5
779
330
1F
100
AcDbEntity
  8
0
100
AcDbLine
 10
161.3243408888538
 20
148.1231379893898
 30
0.0
 11
161.3243408888538
 21
145.3231379893899
 31
0.0
  0
LINE
  5
77A
330
1F
100
AcDbEntity
  8
0
100
AcDbLine
 10
161.6243408888535
 20
148.1231379893898
 30
0.0
 11
162.2243408888537
 21
148.1231379893898
 31
0.0
  0
LINE
  5
77B
330
1F
100
AcDbEntity
  8
0
100
AcDbLine
 10
160.9743408888537
 20
148.1231379893898
 30
0.0
 11
161.0743408888538
 21
148.1231379893898
 31
0.0
  0
ARC
  5
77C
330
1F
100
AcDbEntity
  8
0
100
AcDbCircle
 10
160.9743408888534
 20
147.8231379893899
 30
0.0
 40
0.3
100
AcDbArc
 50
90.0
 51
180.0
  0
LINE
  5
77D
330
1F
100
AcDbEntity
  8
0
100
AcDbLine
 10
163.8243408888538
 20
148.1931379893898
 30
0.0
 11
163.3243408888538
 21
148.1931379893898
 31
0.0
  0
LINE
  5
77E
330
1F
100
AcDbEntity
  8
0
100
AcDbLine
 10
163.3243408888538
 20
151.2331379893897
 30
0.0
 11
163.3243408888538
 21
148.1931379893898
 31
0.0
  0
ARC
  5
77F
330
1F
100
AcDbEntity
  8
0
100
AcDbCircle
 10
160.9743408888534
 20
148.5331379893899
 30
0.0
 40
0.3
100
AcDbArc
 50
180.0
 51
270.0
  0
ARC
  5
780
330
1F
100
AcDbEntity
  8
0
100
AcDbCircle
 10
162.8743408888535
 20
148.5331379893899
 30
0.0
 40
0.3
100
AcDbArc
 50
270.0
 51
0.0
  0
ARC
  5
781
330
1F
100
AcDbEntity
  8
0
100
AcDbCircle
 10
165.4743408888534
 20
150.0981379893897
 30
0.0
 40
0.85
100
AcDbArc
 50
323.269604999999
 51
0.0
  0
ARC
  5
782
330
1F
100
AcDbEntity
  8
0
100
AcDbCircle
 10
165.4743408888534
 20
146.2881379893898
 30
0.0
 40
0.85
100
AcDbArc
 50
323.269604999999
 51
0.0
  0
CIRCLE
  5
783
330
1F
100
AcDbEntity
  8
0
100
AcDbCircle
 10
165.4743408888534
 20
150.0981379893897
 30
0.0
 40
1.564999999999999
  0
CIRCLE
  5
784
330
1F
100
AcDbEntity
  8
0
100
AcDbCircle
 10
165.4743408888534
 20
146.2881379893898
 30
0.0
 40
1.564999999999999
  0
LINE
  5
785
330
1F
100
AcDbEntity
  8
0
100
AcDbLine
 10
173.3743408888535
 20
152.0031379893897
 30
0.0
 11
172.8743408888535
 21
152.0031379893897
 31
0.0
  0
LINE
  5
786
330
1F
100
AcDbEntity
  8
0
100
AcDbLine
 10
173.3743408888535
 20
152.0031379893897
 30
0.0
 11
172.8743408888535
 21
152.0031379893897
 31
0.0
  0
LINE
  5
787
330
1F
100
AcDbEntity
  8
0
100
AcDbLine
 10
167.5443408888536
 20
152.0031379893897
 30
0.0
 11
168.3043408888538
 21
152.0031379893897
 31
0.0
  0
LINE
  5
788
330
1F
100
AcDbEntity
  8
0
100
AcDbLine
 10
168.5043408888536
 20
152.0031379893897
 30
0.0
 11
168.3043408888538
 21
152.0031379893897
 31
0.0
  0
LINE
  5
789
330
1F
100
AcDbEntity
  8
0
100
AcDbLine
 10
169.0743408888538
 20
152.0031379893897
 30
0.0
 11
170.4743408888537
 21
152.0031379893897
 31
0.0
  0
LINE
  5
78A
330
1F
100
AcDbEntity
  8
0
100
AcDbLine
 10
168.9443408888537
 20
152.0031379893897
 30
0.0
 11
169.0743408888538
 21
152.0031379893897
 31
0.0
  0
LINE
  5
78B
330
1F
100
AcDbEntity
  8
0
100
AcDbLine
 10
168.5043408888536
 20
152.0031379893897
 30
0.0
 11
168.9443408888537
 21
152.0031379893897
 31
0.0
  0
LINE
  5
78C
330
1F
100
AcDbEntity
  8
0
100
AcDbLine
 10
168.5043408888536
 20
152.0031379893897
 30
0.0
 11
168.3043408888538
 21
152.0031379893897
 31
0.0
  0
LINE
  5
78D
330
1F
100
AcDbEntity
  8
0
100
AcDbLine
 10
170.4743408888537
 20
152.0031379893897
 30
0.0
 11
172.8743408888535
 21
152.0031379893897
 31
0.0
  0
LINE
  5
78E
330
1F
100
AcDbEntity
  8
0
100
AcDbLine
 10
168.5043408888536
 20
152.0031379893897
 30
0.0
 11
172.8743408888535
 21
152.0031379893897
 31
0.0
  0
LINE
  5
78F
330
1F
100
AcDbEntity
  8
0
100
AcDbLine
 10
173.3743408888535
 20
153.4131379893898
 30
0.0
 11
173.8743408888535
 21
153.4131379893898
 31
0.0
  0
LINE
  5
790
330
1F
100
AcDbEntity
  8
0
100
AcDbLine
 10
173.3743408888535
 20
152.1131379893898
 30
0.0
 11
173.8743408888535
 21
152.1131379893898
 31
0.0
  0
LINE
  5
791
330
1F
100
AcDbEntity
  8
0
100
AcDbLine
 10
173.8743408888535
 20
153.4131379893898
 30
0.0
 11
173.8743408888535
 21
153.0131379893897
 31
0.0
  0
LINE
  5
792
330
1F
100
AcDbEntity
  8
0
100
AcDbLine
 10
173.8743408888535
 20
153.0131379893897
 30
0.0
 11
173.8743408888535
 21
152.5131379893897
 31
0.0
  0
LINE
  5
793
330
1F
100
AcDbEntity
  8
0
100
AcDbLine
 10
173.8743408888535
 20
152.5131379893897
 30
0.0
 11
173.8743408888535
 21
152.1131379893898
 31
0.0
  0
LINE
  5
794
330
1F
100
AcDbEntity
  8
0
100
AcDbLine
 10
173.3743408888535
 20
152.1131379893898
 30
0.0
 11
173.3743408888535
 21
152.0031379893897
 31
0.0
  0
LINE
  5
795
330
1F
100
AcDbEntity
  8
0
100
AcDbLine
 10
168.5043408888536
 20
152.0031379893897
 30
0.0
 11
168.5043408888536
 21
148.1931379893898
 31
0.0
  0
LINE
  5
796
330
1F
100
AcDbEntity
  8
0
100
AcDbLine
 10
173.8743408888535
 20
145.3931379893898
 30
0.0
 11
173.8743408888535
 21
144.8931379893898
 31
0.0
  0
LINE
  5
797
330
1F
100
AcDbEntity
  8
0
100
AcDbLine
 10
168.5043408888536
 20
148.1931379893898
 30
0.0
 11
168.5043408888536
 21
144.3831379893898
 31
0.0
  0
LINE
  5
798
330
1F
100
AcDbEntity
  8
0
100
AcDbLine
 10
173.3743408888535
 20
144.3831379893898
 30
0.0
 11
172.8743408888535
 21
144.3831379893898
 31
0.0
  0
LINE
  5
799
330
1F
100
AcDbEntity
  8
0
100
AcDbLine
 10
168.5043408888536
 20
144.3831379893898
 30
0.0
 11
168.3043408888538
 21
144.3831379893898
 31
0.0
  0
LINE
  5
79A
330
1F
100
AcDbEntity
  8
0
100
AcDbLine
 10
168.5043408888536
 20
144.3831379893898
 30
0.0
 11
172.8743408888535
 21
144.3831379893898
 31
0.0
  0
LINE
  5
79B
330
1F
100
AcDbEntity
  8
0
100
AcDbLine
 10
173.3743408888535
 20
144.4931379893897
 30
0.0
 11
173.3743408888535
 21
144.3831379893898
 31
0.0
  0
LINE
  5
79C
330
1F
100
AcDbEntity
  8
0
100
AcDbLine
 10
173.8743408888535
 20
144.8931379893898
 30
0.0
 11
173.8743408888535
 21
144.4931379893897
 31
0.0
  0
LINE
  5
79D
330
1F
100
AcDbEntity
  8
0
100
AcDbLine
 10
173.3743408888535
 20
144.4931379893897
 30
0.0
 11
173.8743408888535
 21
144.4931379893897
 31
0.0
  0
LINE
  5
79E
330
1F
100
AcDbEntity
  8
0
100
AcDbLine
 10
173.3743408888535
 20
148.1931379893898
 30
0.0
 11
172.8743408888535
 21
148.1931379893898
 31
0.0
  0
LINE
  5
79F
330
1F
100
AcDbEntity
  8
0
100
AcDbLine
 10
173.3743408888535
 20
148.1931379893898
 30
0.0
 11
172.8743408888535
 21
148.1931379893898
 31
0.0
  0
LINE
  5
7A0
330
1F
100
AcDbEntity
  8
0
100
AcDbLine
 10
167.5443408888536
 20
148.1931379893898
 30
0.0
 11
168.3043408888538
 21
148.1931379893898
 31
0.0
  0
LINE
  5
7A1
330
1F
100
AcDbEntity
  8
0
100
AcDbLine
 10
168.5043408888536
 20
148.1931379893898
 30
0.0
 11
168.9443408888537
 21
148.1931379893898
 31
0.0
  0
LINE
  5
7A2
330
1F
100
AcDbEntity
  8
0
100
AcDbLine
 10
168.9443408888537
 20
148.1931379893898
 30
0.0
 11
169.0743408888538
 21
148.1931379893898
 31
0.0
  0
LINE
  5
7A3
330
1F
100
AcDbEntity
  8
0
100
AcDbLine
 10
169.0743408888538
 20
148.1931379893898
 30
0.0
 11
170.4743408888537
 21
148.1931379893898
 31
0.0
  0
LINE
  5
7A4
330
1F
100
AcDbEntity
  8
0
100
AcDbLine
 10
168.5043408888536
 20
148.1931379893898
 30
0.0
 11
168.3043408888538
 21
148.1931379893898
 31
0.0
  0
LINE
  5
7A5
330
1F
100
AcDbEntity
  8
0
100
AcDbLine
 10
168.5043408888536
 20
148.1931379893898
 30
0.0
 11
168.3043408888538
 21
148.1931379893898
 31
0.0
  0
LINE
  5
7A6
330
1F
100
AcDbEntity
  8
0
100
AcDbLine
 10
170.4743408888537
 20
148.1931379893898
 30
0.0
 11
172.8743408888535
 21
148.1931379893898
 31
0.0
  0
LINE
  5
7A7
330
1F
100
AcDbEntity
  8
0
100
AcDbLine
 10
168.5043408888536
 20
148.1931379893898
 30
0.0
 11
172.8743408888535
 21
148.1931379893898
 31
0.0
  0
LINE
  5
7A8
330
1F
100
AcDbEntity
  8
0
100
AcDbLine
 10
173.3743408888535
 20
149.6031379893898
 30
0.0
 11
173.8743408888535
 21
149.6031379893898
 31
0.0
  0
LINE
  5
7A9
330
1F
100
AcDbEntity
  8
0
100
AcDbLine
 10
173.3743408888535
 20
148.3031379893899
 30
0.0
 11
173.8743408888535
 21
148.3031379893899
 31
0.0
  0
LINE
  5
7AA
330
1F
100
AcDbEntity
  8
0
100
AcDbLine
 10
173.8743408888535
 20
149.6031379893898
 30
0.0
 11
173.8743408888535
 21
149.2031379893898
 31
0.0
  0
LINE
  5
7AB
330
1F
100
AcDbEntity
  8
0
100
AcDbLine
 10
173.8743408888535
 20
149.2031379893898
 30
0.0
 11
173.8743408888535
 21
148.7031379893898
 31
0.0
  0
LINE
  5
7AC
330
1F
100
AcDbEntity
  8
0
100
AcDbLine
 10
173.8743408888535
 20
148.7031379893898
 30
0.0
 11
173.8743408888535
 21
148.3031379893899
 31
0.0
  0
LINE
  5
7AD
330
1F
100
AcDbEntity
  8
0
100
AcDbLine
 10
173.8743408888535
 20
145.7931379893899
 30
0.0
 11
173.8743408888535
 21
145.3931379893898
 31
0.0
  0
LINE
  5
7AE
330
1F
100
AcDbEntity
  8
0
100
AcDbLine
 10
173.3743408888535
 20
145.7931379893899
 30
0.0
 11
173.8743408888535
 21
145.7931379893899
 31
0.0
  0
LINE
  5
7AF
330
1F
100
AcDbEntity
  8
0
100
AcDbLine
 10
173.3743408888535
 20
148.3031379893899
 30
0.0
 11
173.3743408888535
 21
148.1931379893898
 31
0.0
  0
LINE
  5
7B0
330
1F
100
AcDbEntity
  8
0
100
AcDbLine
 10
169.2951758888536
 20
189.2531379893897
 30
0.0
 11
169.2951758888536
 21
186.2531379893897
 31
0.0
  0
LINE
  5
7B1
330
1F
100
AcDbEntity
  8
0
100
AcDbLine
 10
171.2600978888535
 20
189.2531379893897
 30
0.0
 11
171.2600978888535
 21
186.2531379893897
 31
0.0
  0
LINE
  5
7B2
330
1F
100
AcDbEntity
  8
0
100
AcDbLine
 10
166.8743408888535
 20
185.2531379893897
 30
0.0
 11
166.8743408888535
 21
190.2531379893897
 31
0.0
  0
LINE
  5
7B3
330
1F
100
AcDbEntity
  8
0
100
AcDbLine
 10
166.3743408888535
 20
185.03313898939
 30
0.0
 11
166.3743408888535
 21
190.7331389893901
 31
0.0
  0
LINE
  5
7B4
330
1F
100
AcDbEntity
  8
0
100
AcDbLine
 10
173.8743408888535
 20
190.2531379893897
 30
0.0
 11
173.8743408888535
 21
185.2531379893897
 31
0.0
  0
LINE
  5
7B5
330
1F
100
AcDbEntity
  8
0
100
AcDbLine
 10
171.4743408888521
 20
174.803137989389
 30
0.0
 11
160.0743408888543
 21
174.803137989389
 31
0.0
  0
LINE
  5
7B6
330
1F
100
AcDbEntity
  8
0
100
AcDbLine
 10
160.0743408888543
 20
184.0031379893897
 30
0.0
 11
171.4743408888521
 21
184.0031379893879
 31
0.0
  0
LINE
  5
7B7
330
1F
100
AcDbEntity
  8
0
100
AcDbLine
 10
159.6951729680426
 20
174.303137989389
 30
0.0
 11
171.8743408888535
 21
174.303137989389
 31
0.0
  0
LINE
  5
7B8
330
1F
100
AcDbEntity
  8
0
100
AcDbLine
 10
159.6951729680426
 20
184.5031379893879
 30
0.0
 11
171.8743408888535
 21
184.5031379893879
 31
0.0
  0
LINE
  5
7B9
330
1F
100
AcDbEntity
  8
0
100
AcDbLine
 10
166.8743408888535
 20
185.2531379893897
 30
0.0
 11
173.8743408888535
 21
185.2531379893897
 31
0.0
  0
LINE
  5
7BA
330
1F
100
AcDbEntity
  8
0
100
AcDbLine
 10
173.3743408888535
 20
171.0531379893899
 30
0.0
 11
163.3243408888538
 21
171.0531379893899
 31
0.0
  0
LINE
  5
7BB
330
1F
100
AcDbEntity
  8
0
100
AcDbLine
 10
173.3743408888535
 20
173.5531379893899
 30
0.0
 11
163.3243408888538
 21
173.5531379893899
 31
0.0
  0
LINE
  5
7BC
330
1F
100
AcDbEntity
  8
0
100
AcDbLine
 10
163.8243408888538
 20
159.6231379893898
 30
0.0
 11
167.5443408888536
 21
159.6231379893898
 31
0.0
  0
LINE
  5
7BD
330
1F
100
AcDbEntity
  8
0
100
AcDbLine
 10
163.8243408888538
 20
159.6231379893898
 30
0.0
 11
168.3043408888538
 21
159.6231379893898
 31
0.0
  0
LINE
  5
7BE
330
1F
100
AcDbEntity
  8
0
100
AcDbLine
 10
163.8243408888538
 20
155.8131379893899
 30
0.0
 11
168.3043408888538
 21
155.8131379893899
 31
0.0
  0
LINE
  5
7BF
330
1F
100
AcDbEntity
  8
0
100
AcDbLine
 10
163.8243408888538
 20
155.8131379893899
 30
0.0
 11
167.5443408888536
 21
155.8131379893899
 31
0.0
  0
LINE
  5
7C0
330
1F
100
AcDbEntity
  8
0
100
AcDbLine
 10
163.8243408888538
 20
163.4331379893898
 30
0.0
 11
168.3043408888538
 21
163.4331379893898
 31
0.0
  0
LINE
  5
7C1
330
1F
100
AcDbEntity
  8
0
100
AcDbLine
 10
163.8243408888538
 20
163.4331379893898
 30
0.0
 11
167.5443408888536
 21
163.4331379893898
 31
0.0
  0
LINE
  5
7C2
330
1F
100
AcDbEntity
  8
0
100
AcDbLine
 10
163.8243408888538
 20
167.2431379893897
 30
0.0
 11
168.3043408888538
 21
167.2431379893897
 31
0.0
  0
LINE
  5
7C3
330
1F
100
AcDbEntity
  8
0
100
AcDbLine
 10
163.8243408888538
 20
167.2431379893897
 30
0.0
 11
167.5443408888536
 21
167.2431379893897
 31
0.0
  0
LINE
  5
7C4
330
1F
100
AcDbEntity
  8
0
100
AcDbLine
 10
163.3243408888538
 20
171.0531379893899
 30
0.0
 11
163.3243408888538
 21
173.5531379893899
 31
0.0
  0
LINE
  5
7C5
330
1F
100
AcDbEntity
  8
0
100
AcDbLine
 10
163.3243408888538
 20
170.9831379893897
 30
0.0
 11
163.3243408888538
 21
170.2831379893899
 31
0.0
  0
LINE
  5
7C6
330
1F
100
AcDbEntity
  8
0
100
AcDbLine
 10
162.5243408888536
 20
170.9831379893897
 30
0.0
 11
162.2243408888537
 21
170.9831379893897
 31
0.0
  0
LINE
  5
7C7
330
1F
100
AcDbEntity
  8
0
100
AcDbLine
 10
162.5243408888536
 20
170.9831379893897
 30
0.0
 11
162.7743408888536
 21
170.9831379893897
 31
0.0
  0
LINE
  5
7C8
330
1F
100
AcDbEntity
  8
0
100
AcDbLine
 10
163.1743408888537
 20
170.9831379893897
 30
0.0
 11
163.3243408888538
 21
170.9831379893897
 31
0.0
  0
LINE
  5
7C9
330
1F
100
AcDbEntity
  8
0
100
AcDbLine
 10
162.7743408888536
 20
170.9831379893897
 30
0.0
 11
163.1743408888537
 21
170.9831379893897
 31
0.0
  0
LINE
  5
7CA
330
1F
100
AcDbEntity
  8
0
100
AcDbLine
 10
163.1743408888537
 20
170.2831379893899
 30
0.0
 11
163.3243408888538
 21
170.2831379893899
 31
0.0
  0
LINE
  5
7CB
330
1F
100
AcDbEntity
  8
0
100
AcDbLine
 10
163.1743408888537
 20
170.2831379893899
 30
0.0
 11
163.1743408888537
 21
170.9831379893897
 31
0.0
  0
LINE
  5
7CC
330
1F
100
AcDbEntity
  8
0
100
AcDbLine
 10
161.6243408888535
 20
170.9831379893897
 30
0.0
 11
161.3243408888538
 21
170.9831379893897
 31
0.0
  0
LINE
  5
7CD
330
1F
100
AcDbEntity
  8
0
100
AcDbLine
 10
161.0743408888538
 20
170.9831379893897
 30
0.0
 11
161.3243408888538
 21
170.9831379893897
 31
0.0
  0
LINE
  5
7CE
330
1F
100
AcDbEntity
  8
0
100
AcDbLine
 10
161.6243408888535
 20
170.9831379893897
 30
0.0
 11
162.2243408888537
 21
170.9831379893897
 31
0.0
  0
LINE
  5
7CF
330
1F
100
AcDbEntity
  8
0
100
AcDbLine
 10
160.9743408888537
 20
170.9831379893897
 30
0.0
 11
161.0743408888538
 21
170.9831379893897
 31
0.0
  0
LINE
  5
7D0
330
1F
100
AcDbEntity
  8
0
100
AcDbLine
 10
163.3243408888538
 20
171.0531379893899
 30
0.0
 11
163.3243408888538
 21
170.9831379893897
 31
0.0
  0
ARC
  5
7D1
330
1F
100
AcDbEntity
  8
0
100
AcDbCircle
 10
160.9743408888534
 20
170.6831379893898
 30
0.0
 40
0.3
100
AcDbArc
 50
90.0
 51
180.0
  0
LINE
  5
7D2
330
1F
100
AcDbEntity
  8
0
100
AcDbLine
 10
161.3243408888538
 20
163.3631379893898
 30
0.0
 11
161.3243408888538
 21
160.5631379893899
 31
0.0
  0
LINE
  5
7D3
330
1F
100
AcDbEntity
  8
0
100
AcDbLine
 10
162.5243408888536
 20
160.5631379893899
 30
0.0
 11
162.5243408888536
 21
163.3631379893898
 31
0.0
  0
LINE
  5
7D4
330
1F
100
AcDbEntity
  8
0
100
AcDbLine
 10
160.6743408888537
 20
159.9631379893897
 30
0.0
 11
160.6743408888537
 21
163.0631379893899
 31
0.0
  0
LINE
  5
7D5
330
1F
100
AcDbEntity
  8
0
100
AcDbLine
 10
163.1743408888537
 20
159.9631379893897
 30
0.0
 11
163.1743408888537
 21
162.6631379893898
 31
0.0
  0
LINE
  5
7D6
330
1F
100
AcDbEntity
  8
0
100
AcDbLine
 10
163.3243408888538
 20
162.6631379893898
 30
0.0
 11
163.3243408888538
 21
159.6231379893898
 31
0.0
  0
ARC
  5
7D7
330
1F
100
AcDbEntity
  8
0
100
AcDbCircle
 10
165.4743408888534
 20
157.7181379893898
 30
0.0
 40
0.85
100
AcDbArc
 50
0.0
 51
323.269604999999
  0
ARC
  5
7D8
330
1F
100
AcDbEntity
  8
0
100
AcDbCircle
 10
165.4743408888534
 20
161.5281379893898
 30
0.0
 40
0.85
100
AcDbArc
 50
0.0
 51
323.269604999999
  0
LINE
  5
7D9
330
1F
100
AcDbEntity
  8
0
100
AcDbLine
 10
161.6243408888535
 20
160.2631379893897
 30
0.0
 11
162.2243408888537
 21
160.2631379893897
 31
0.0
  0
LINE
  5
7DA
330
1F
100
AcDbEntity
  8
0
100
AcDbLine
 10
163.1743408888537
 20
156.1531379893898
 30
0.0
 11
163.1743408888537
 21
158.8531379893898
 31
0.0
  0
LINE
  5
7DB
330
1F
100
AcDbEntity
  8
0
100
AcDbLine
 10
162.5243408888536
 20
159.5531379893899
 30
0.0
 11
162.2243408888537
 21
159.5531379893899
 31
0.0
  0
LINE
  5
7DC
330
1F
100
AcDbEntity
  8
0
100
AcDbLine
 10
162.5243408888536
 20
159.5531379893899
 30
0.0
 11
162.7743408888536
 21
159.5531379893899
 31
0.0
  0
LINE
  5
7DD
330
1F
100
AcDbEntity
  8
0
100
AcDbLine
 10
163.1743408888537
 20
159.5531379893899
 30
0.0
 11
163.3243408888538
 21
159.5531379893899
 31
0.0
  0
LINE
  5
7DE
330
1F
100
AcDbEntity
  8
0
100
AcDbLine
 10
162.7743408888536
 20
159.5531379893899
 30
0.0
 11
163.1743408888537
 21
159.5531379893899
 31
0.0
  0
LINE
  5
7DF
330
1F
100
AcDbEntity
  8
0
100
AcDbLine
 10
162.5243408888536
 20
156.7531379893897
 30
0.0
 11
162.5243408888536
 21
159.5531379893899
 31
0.0
  0
LINE
  5
7E0
330
1F
100
AcDbEntity
  8
0
100
AcDbLine
 10
163.1743408888537
 20
158.8531379893898
 30
0.0
 11
163.3243408888538
 21
158.8531379893898
 31
0.0
  0
LINE
  5
7E1
330
1F
100
AcDbEntity
  8
0
100
AcDbLine
 10
163.1743408888537
 20
158.8531379893898
 30
0.0
 11
163.1743408888537
 21
159.5531379893899
 31
0.0
  0
LINE
  5
7E2
330
1F
100
AcDbEntity
  8
0
100
AcDbLine
 10
162.7743408888536
 20
155.8531379893898
 30
0.0
 11
162.8743408888535
 21
155.8531379893898
 31
0.0
  0
LINE
  5
7E3
330
1F
100
AcDbEntity
  8
0
100
AcDbLine
 10
161.6243408888535
 20
156.4531379893898
 30
0.0
 11
162.2243408888537
 21
156.4531379893898
 31
0.0
  0
LINE
  5
7E4
330
1F
100
AcDbEntity
  8
0
100
AcDbLine
 10
161.6243408888535
 20
159.5531379893899
 30
0.0
 11
161.3243408888538
 21
159.5531379893899
 31
0.0
  0
LINE
  5
7E5
330
1F
100
AcDbEntity
  8
0
100
AcDbLine
 10
161.0743408888538
 20
159.5531379893899
 30
0.0
 11
161.3243408888538
 21
159.5531379893899
 31
0.0
  0
LINE
  5
7E6
330
1F
100
AcDbEntity
  8
0
100
AcDbLine
 10
161.3243408888538
 20
159.5531379893899
 30
0.0
 11
161.3243408888538
 21
156.7531379893897
 31
0.0
  0
LINE
  5
7E7
330
1F
100
AcDbEntity
  8
0
100
AcDbLine
 10
161.6243408888535
 20
159.5531379893899
 30
0.0
 11
162.2243408888537
 21
159.5531379893899
 31
0.0
  0
LINE
  5
7E8
330
1F
100
AcDbEntity
  8
0
100
AcDbLine
 10
160.6743408888537
 20
156.1531379893898
 30
0.0
 11
160.6743408888537
 21
159.2531379893897
 31
0.0
  0
LINE
  5
7E9
330
1F
100
AcDbEntity
  8
0
100
AcDbLine
 10
161.0743408888538
 20
155.8531379893898
 30
0.0
 11
162.7743408888536
 21
155.8531379893898
 31
0.0
  0
LINE
  5
7EA
330
1F
100
AcDbEntity
  8
0
100
AcDbLine
 10
160.9743408888537
 20
155.8531379893898
 30
0.0
 11
161.0743408888538
 21
155.8531379893898
 31
0.0
  0
LINE
  5
7EB
330
1F
100
AcDbEntity
  8
0
100
AcDbLine
 10
160.9743408888537
 20
159.5531379893899
 30
0.0
 11
161.0743408888538
 21
159.5531379893899
 31
0.0
  0
ARC
  5
7EC
330
1F
100
AcDbEntity
  8
0
100
AcDbCircle
 10
162.2243408888534
 20
156.7531379893897
 30
0.0
 40
0.3
100
AcDbArc
 50
270.0
 51
0.0
  0
ARC
  5
7ED
330
1F
100
AcDbEntity
  8
0
100
AcDbCircle
 10
161.6243408888535
 20
156.7531379893897
 30
0.0
 40
0.3
100
AcDbArc
 50
180.0
 51
270.0
  0
ARC
  5
7EE
330
1F
100
AcDbEntity
  8
0
100
AcDbCircle
 10
160.9743408888534
 20
159.2531379893897
 30
0.0
 40
0.3
100
AcDbArc
 50
90.0
 51
180.0
  0
LINE
  5
7EF
330
1F
100
AcDbEntity
  8
0
100
AcDbLine
 10
163.3243408888538
 20
159.6231379893898
 30
0.0
 11
163.3243408888538
 21
159.5531379893899
 31
0.0
  0
LINE
  5
7F0
330
1F
100
AcDbEntity
  8
0
100
AcDbLine
 10
163.3243408888538
 20
159.5531379893899
 30
0.0
 11
163.3243408888538
 21
158.8531379893898
 31
0.0
  0
LINE
  5
7F1
330
1F
100
AcDbEntity
  8
0
100
AcDbLine
 10
163.8243408888538
 20
159.6231379893898
 30
0.0
 11
163.3243408888538
 21
159.6231379893898
 31
0.0
  0
ARC
  5
7F2
330
1F
100
AcDbEntity
  8
0
100
AcDbCircle
 10
160.9743408888534
 20
159.9631379893897
 30
0.0
 40
0.3
100
AcDbArc
 50
180.0
 51
270.0
  0
ARC
  5
7F3
330
1F
100
AcDbEntity
  8
0
100
AcDbCircle
 10
162.8743408888535
 20
159.9631379893897
 30
0.0
 40
0.3
100
AcDbArc
 50
270.0
 51
0.0
  0
LINE
  5
7F4
330
1F
100
AcDbEntity
  8
0
100
AcDbLine
 10
160.9743408888537
 20
159.6631379893898
 30
0.0
 11
161.0743408888538
 21
159.6631379893898
 31
0.0
  0
LINE
  5
7F5
330
1F
100
AcDbEntity
  8
0
100
AcDbLine
 10
161.0743408888538
 20
159.6631379893898
 30
0.0
 11
162.7743408888536
 21
159.6631379893898
 31
0.0
  0
LINE
  5
7F6
330
1F
100
AcDbEntity
  8
0
100
AcDbLine
 10
162.7743408888536
 20
159.6631379893898
 30
0.0
 11
162.8743408888535
 21
159.6631379893898
 31
0.0
  0
LINE
  5
7F7
330
1F
100
AcDbEntity
  8
0
100
AcDbLine
 10
163.8243408888538
 20
159.6231379893898
 30
0.0
 11
163.3243408888538
 21
159.6231379893898
 31
0.0
  0
ARC
  5
7F8
330
1F
100
AcDbEntity
  8
0
100
AcDbCircle
 10
161.6243408888535
 20
160.5631379893899
 30
0.0
 40
0.3
100
AcDbArc
 50
180.0
 51
270.0
  0
ARC
  5
7F9
330
1F
100
AcDbEntity
  8
0
100
AcDbCircle
 10
162.2243408888534
 20
160.5631379893899
 30
0.0
 40
0.3
100
AcDbArc
 50
270.0
 51
0.0
  0
LINE
  5
7FA
330
1F
100
AcDbEntity
  8
0
100
AcDbLine
 10
163.8243408888538
 20
155.8131379893899
 30
0.0
 11
163.3243408888538
 21
155.8131379893899
 31
0.0
  0
ARC
  5
7FB
330
1F
100
AcDbEntity
  8
0
100
AcDbCircle
 10
160.9743408888534
 20
155.4431379893898
 30
0.0
 40
0.3
100
AcDbArc
 50
90.0
 51
180.0
  0
LINE
  5
7FC
330
1F
100
AcDbEntity
  8
0
100
AcDbLine
 10
160.9743408888537
 20
155.7431379893897
 30
0.0
 11
161.0743408888538
 21
155.7431379893897
 31
0.0
  0
LINE
  5
7FD
330
1F
100
AcDbEntity
  8
0
100
AcDbLine
 10
161.6243408888535
 20
155.7431379893897
 30
0.0
 11
162.2243408888537
 21
155.7431379893897
 31
0.0
  0
LINE
  5
7FE
330
1F
100
AcDbEntity
  8
0
100
AcDbLine
 10
161.0743408888538
 20
155.7431379893897
 30
0.0
 11
161.3243408888538
 21
155.7431379893897
 31
0.0
  0
LINE
  5
7FF
330
1F
100
AcDbEntity
  8
0
100
AcDbLine
 10
161.6243408888535
 20
155.7431379893897
 30
0.0
 11
161.3243408888538
 21
155.7431379893897
 31
0.0
  0
LINE
  5
800
330
1F
100
AcDbEntity
  8
0
100
AcDbLine
 10
163.1743408888537
 20
155.0431379893899
 30
0.0
 11
163.1743408888537
 21
155.7431379893897
 31
0.0
  0
LINE
  5
801
330
1F
100
AcDbEntity
  8
0
100
AcDbLine
 10
163.1743408888537
 20
155.0431379893899
 30
0.0
 11
163.3243408888538
 21
155.0431379893899
 31
0.0
  0
LINE
  5
802
330
1F
100
AcDbEntity
  8
0
100
AcDbLine
 10
162.7743408888536
 20
155.7431379893897
 30
0.0
 11
163.1743408888537
 21
155.7431379893897
 31
0.0
  0
LINE
  5
803
330
1F
100
AcDbEntity
  8
0
100
AcDbLine
 10
163.1743408888537
 20
155.7431379893897
 30
0.0
 11
163.3243408888538
 21
155.7431379893897
 31
0.0
  0
LINE
  5
804
330
1F
100
AcDbEntity
  8
0
100
AcDbLine
 10
162.5243408888536
 20
155.7431379893897
 30
0.0
 11
162.7743408888536
 21
155.7431379893897
 31
0.0
  0
LINE
  5
805
330
1F
100
AcDbEntity
  8
0
100
AcDbLine
 10
162.5243408888536
 20
155.7431379893897
 30
0.0
 11
162.2243408888537
 21
155.7431379893897
 31
0.0
  0
LINE
  5
806
330
1F
100
AcDbEntity
  8
0
100
AcDbLine
 10
163.8243408888538
 20
155.8131379893899
 30
0.0
 11
163.3243408888538
 21
155.8131379893899
 31
0.0
  0
LINE
  5
807
330
1F
100
AcDbEntity
  8
0
100
AcDbLine
 10
163.3243408888538
 20
155.7431379893897
 30
0.0
 11
163.3243408888538
 21
155.0431379893899
 31
0.0
  0
LINE
  5
808
330
1F
100
AcDbEntity
  8
0
100
AcDbLine
 10
163.3243408888538
 20
155.8131379893899
 30
0.0
 11
163.3243408888538
 21
155.7431379893897
 31
0.0
  0
ARC
  5
809
330
1F
100
AcDbEntity
  8
0
100
AcDbCircle
 10
162.8743408888535
 20
156.1531379893898
 30
0.0
 40
0.3
100
AcDbArc
 50
270.0
 51
0.0
  0
ARC
  5
80A
330
1F
100
AcDbEntity
  8
0
100
AcDbCircle
 10
160.9743408888534
 20
156.1531379893898
 30
0.0
 40
0.3
100
AcDbArc
 50
180.0
 51
270.0
  0
LINE
  5
80B
330
1F
100
AcDbEntity
  8
0
100
AcDbLine
 10
163.3243408888538
 20
158.8531379893898
 30
0.0
 11
163.3243408888538
 21
155.8131379893899
 31
0.0
  0
ARC
  5
80C
330
1F
100
AcDbEntity
  8
0
100
AcDbCircle
 10
165.4743408888534
 20
157.7181379893898
 30
0.0
 40
0.85
100
AcDbArc
 50
323.269604999999
 51
0.0
  0
ARC
  5
80D
330
1F
100
AcDbEntity
  8
0
100
AcDbCircle
 10
165.4743408888534
 20
161.5281379893898
 30
0.0
 40
0.85
100
AcDbArc
 50
323.269604999999
 51
0.0
  0
ARC
  5
80E
330
1F
100
AcDbEntity
  8
0
100
AcDbCircle
 10
165.4743408888534
 20
165.3381379893897
 30
0.0
 40
0.85
100
AcDbArc
 50
0.0
 51
323.269604999999
  0
LINE
  5
80F
330
1F
100
AcDbEntity
  8
0
100
AcDbLine
 10
161.3243408888538
 20
167.1731379893898
 30
0.0
 11
161.3243408888538
 21
164.3731379893898
 31
0.0
  0
LINE
  5
810
330
1F
100
AcDbEntity
  8
0
100
AcDbLine
 10
163.1743408888537
 20
163.7731379893899
 30
0.0
 11
163.1743408888537
 21
166.4731379893897
 31
0.0
  0
LINE
  5
811
330
1F
100
AcDbEntity
  8
0
100
AcDbLine
 10
160.6743408888537
 20
163.7731379893899
 30
0.0
 11
160.6743408888537
 21
166.8731379893898
 31
0.0
  0
LINE
  5
812
330
1F
100
AcDbEntity
  8
0
100
AcDbLine
 10
163.3243408888538
 20
166.4731379893897
 30
0.0
 11
163.3243408888538
 21
163.4331379893898
 31
0.0
  0
LINE
  5
813
330
1F
100
AcDbEntity
  8
0
100
AcDbLine
 10
162.5243408888536
 20
164.3731379893898
 30
0.0
 11
162.5243408888536
 21
167.1731379893898
 31
0.0
  0
LINE
  5
814
330
1F
100
AcDbEntity
  8
0
100
AcDbLine
 10
162.7743408888536
 20
163.4731379893897
 30
0.0
 11
162.8743408888535
 21
163.4731379893897
 31
0.0
  0
LINE
  5
815
330
1F
100
AcDbEntity
  8
0
100
AcDbLine
 10
161.0743408888538
 20
163.4731379893897
 30
0.0
 11
162.7743408888536
 21
163.4731379893897
 31
0.0
  0
LINE
  5
816
330
1F
100
AcDbEntity
  8
0
100
AcDbLine
 10
160.9743408888537
 20
163.4731379893897
 30
0.0
 11
161.0743408888538
 21
163.4731379893897
 31
0.0
  0
LINE
  5
817
330
1F
100
AcDbEntity
  8
0
100
AcDbLine
 10
163.8243408888538
 20
163.4331379893898
 30
0.0
 11
163.3243408888538
 21
163.4331379893898
 31
0.0
  0
LINE
  5
818
330
1F
100
AcDbEntity
  8
0
100
AcDbLine
 10
163.8243408888538
 20
163.4331379893898
 30
0.0
 11
163.3243408888538
 21
163.4331379893898
 31
0.0
  0
ARC
  5
819
330
1F
100
AcDbEntity
  8
0
100
AcDbCircle
 10
162.2243408888534
 20
164.3731379893898
 30
0.0
 40
0.3
100
AcDbArc
 50
270.0
 51
0.0
  0
ARC
  5
81A
330
1F
100
AcDbEntity
  8
0
100
AcDbCircle
 10
161.6243408888535
 20
164.3731379893898
 30
0.0
 40
0.3
100
AcDbArc
 50
180.0
 51
270.0
  0
LINE
  5
81B
330
1F
100
AcDbEntity
  8
0
100
AcDbLine
 10
161.6243408888535
 20
164.0731379893899
 30
0.0
 11
162.2243408888537
 21
164.0731379893899
 31
0.0
  0
LINE
  5
81C
330
1F
100
AcDbEntity
  8
0
100
AcDbLine
 10
161.6243408888535
 20
167.1731379893898
 30
0.0
 11
161.3243408888538
 21
167.1731379893898
 31
0.0
  0
LINE
  5
81D
330
1F
100
AcDbEntity
  8
0
100
AcDbLine
 10
161.0743408888538
 20
167.1731379893898
 30
0.0
 11
161.3243408888538
 21
167.1731379893898
 31
0.0
  0
LINE
  5
81E
330
1F
100
AcDbEntity
  8
0
100
AcDbLine
 10
161.6243408888535
 20
167.1731379893898
 30
0.0
 11
162.2243408888537
 21
167.1731379893898
 31
0.0
  0
LINE
  5
81F
330
1F
100
AcDbEntity
  8
0
100
AcDbLine
 10
160.9743408888537
 20
167.1731379893898
 30
0.0
 11
161.0743408888538
 21
167.1731379893898
 31
0.0
  0
ARC
  5
820
330
1F
100
AcDbEntity
  8
0
100
AcDbCircle
 10
160.9743408888534
 20
166.8731379893898
 30
0.0
 40
0.3
100
AcDbArc
 50
90.0
 51
180.0
  0
LINE
  5
821
330
1F
100
AcDbEntity
  8
0
100
AcDbLine
 10
163.3243408888538
 20
167.2431379893897
 30
0.0
 11
163.3243408888538
 21
167.1731379893898
 31
0.0
  0
LINE
  5
822
330
1F
100
AcDbEntity
  8
0
100
AcDbLine
 10
163.3243408888538
 20
167.1731379893898
 30
0.0
 11
163.3243408888538
 21
166.4731379893897
 31
0.0
  0
LINE
  5
823
330
1F
100
AcDbEntity
  8
0
100
AcDbLine
 10
163.8243408888538
 20
167.2431379893897
 30
0.0
 11
163.3243408888538
 21
167.2431379893897
 31
0.0
  0
LINE
  5
824
330
1F
100
AcDbEntity
  8
0
100
AcDbLine
 10
163.8243408888538
 20
167.2431379893897
 30
0.0
 11
163.3243408888538
 21
167.2431379893897
 31
0.0
  0
LINE
  5
825
330
1F
100
AcDbEntity
  8
0
100
AcDbLine
 10
162.7743408888536
 20
167.2831379893899
 30
0.0
 11
162.8743408888535
 21
167.2831379893899
 31
0.0
  0
LINE
  5
826
330
1F
100
AcDbEntity
  8
0
100
AcDbLine
 10
161.6243408888535
 20
167.8831379893898
 30
0.0
 11
162.2243408888537
 21
167.8831379893898
 31
0.0
  0
LINE
  5
827
330
1F
100
AcDbEntity
  8
0
100
AcDbLine
 10
161.0743408888538
 20
167.2831379893899
 30
0.0
 11
162.7743408888536
 21
167.2831379893899
 31
0.0
  0
LINE
  5
828
330
1F
100
AcDbEntity
  8
0
100
AcDbLine
 10
160.9743408888537
 20
167.2831379893899
 30
0.0
 11
161.0743408888538
 21
167.2831379893899
 31
0.0
  0
ARC
  5
829
330
1F
100
AcDbEntity
  8
0
100
AcDbCircle
 10
162.2243408888534
 20
168.1831379893898
 30
0.0
 40
0.3
100
AcDbArc
 50
270.0
 51
0.0
  0
ARC
  5
82A
330
1F
100
AcDbEntity
  8
0
100
AcDbCircle
 10
162.8743408888535
 20
167.5831379893899
 30
0.0
 40
0.3
100
AcDbArc
 50
270.0
 51
0.0
  0
ARC
  5
82B
330
1F
100
AcDbEntity
  8
0
100
AcDbCircle
 10
160.9743408888534
 20
167.5831379893899
 30
0.0
 40
0.3
100
AcDbArc
 50
180.0
 51
270.0
  0
ARC
  5
82C
330
1F
100
AcDbEntity
  8
0
100
AcDbCircle
 10
161.6243408888535
 20
168.1831379893898
 30
0.0
 40
0.3
100
AcDbArc
 50
180.0
 51
270.0
  0
LINE
  5
82D
330
1F
100
AcDbEntity
  8
0
100
AcDbLine
 10
162.5243408888536
 20
167.1731379893898
 30
0.0
 11
162.2243408888537
 21
167.1731379893898
 31
0.0
  0
LINE
  5
82E
330
1F
100
AcDbEntity
  8
0
100
AcDbLine
 10
162.5243408888536
 20
167.1731379893898
 30
0.0
 11
162.7743408888536
 21
167.1731379893898
 31
0.0
  0
LINE
  5
82F
330
1F
100
AcDbEntity
  8
0
100
AcDbLine
 10
163.1743408888537
 20
167.1731379893898
 30
0.0
 11
163.3243408888538
 21
167.1731379893898
 31
0.0
  0
LINE
  5
830
330
1F
100
AcDbEntity
  8
0
100
AcDbLine
 10
162.7743408888536
 20
167.1731379893898
 30
0.0
 11
163.1743408888537
 21
167.1731379893898
 31
0.0
  0
LINE
  5
831
330
1F
100
AcDbEntity
  8
0
100
AcDbLine
 10
163.1743408888537
 20
166.4731379893897
 30
0.0
 11
163.3243408888538
 21
166.4731379893897
 31
0.0
  0
LINE
  5
832
330
1F
100
AcDbEntity
  8
0
100
AcDbLine
 10
163.1743408888537
 20
166.4731379893897
 30
0.0
 11
163.1743408888537
 21
167.1731379893898
 31
0.0
  0
ARC
  5
833
330
1F
100
AcDbEntity
  8
0
100
AcDbCircle
 10
160.9743408888534
 20
163.0631379893899
 30
0.0
 40
0.3
100
AcDbArc
 50
90.0
 51
180.0
  0
LINE
  5
834
330
1F
100
AcDbEntity
  8
0
100
AcDbLine
 10
160.9743408888537
 20
163.3631379893898
 30
0.0
 11
161.0743408888538
 21
163.3631379893898
 31
0.0
  0
LINE
  5
835
330
1F
100
AcDbEntity
  8
0
100
AcDbLine
 10
161.6243408888535
 20
163.3631379893898
 30
0.0
 11
162.2243408888537
 21
163.3631379893898
 31
0.0
  0
LINE
  5
836
330
1F
100
AcDbEntity
  8
0
100
AcDbLine
 10
161.0743408888538
 20
163.3631379893898
 30
0.0
 11
161.3243408888538
 21
163.3631379893898
 31
0.0
  0
LINE
  5
837
330
1F
100
AcDbEntity
  8
0
100
AcDbLine
 10
161.6243408888535
 20
163.3631379893898
 30
0.0
 11
161.3243408888538
 21
163.3631379893898
 31
0.0
  0
LINE
  5
838
330
1F
100
AcDbEntity
  8
0
100
AcDbLine
 10
163.1743408888537
 20
162.6631379893898
 30
0.0
 11
163.1743408888537
 21
163.3631379893898
 31
0.0
  0
LINE
  5
839
330
1F
100
AcDbEntity
  8
0
100
AcDbLine
 10
163.1743408888537
 20
162.6631379893898
 30
0.0
 11
163.3243408888538
 21
162.6631379893898
 31
0.0
  0
LINE
  5
83A
330
1F
100
AcDbEntity
  8
0
100
AcDbLine
 10
162.7743408888536
 20
163.3631379893898
 30
0.0
 11
163.1743408888537
 21
163.3631379893898
 31
0.0
  0
LINE
  5
83B
330
1F
100
AcDbEntity
  8
0
100
AcDbLine
 10
163.1743408888537
 20
163.3631379893898
 30
0.0
 11
163.3243408888538
 21
163.3631379893898
 31
0.0
  0
LINE
  5
83C
330
1F
100
AcDbEntity
  8
0
100
AcDbLine
 10
162.5243408888536
 20
163.3631379893898
 30
0.0
 11
162.7743408888536
 21
163.3631379893898
 31
0.0
  0
LINE
  5
83D
330
1F
100
AcDbEntity
  8
0
100
AcDbLine
 10
162.5243408888536
 20
163.3631379893898
 30
0.0
 11
162.2243408888537
 21
163.3631379893898
 31
0.0
  0
LINE
  5
83E
330
1F
100
AcDbEntity
  8
0
100
AcDbLine
 10
163.3243408888538
 20
163.3631379893898
 30
0.0
 11
163.3243408888538
 21
162.6631379893898
 31
0.0
  0
ARC
  5
83F
330
1F
100
AcDbEntity
  8
0
100
AcDbCircle
 10
162.8743408888535
 20
163.7731379893899
 30
0.0
 40
0.3
100
AcDbArc
 50
270.0
 51
0.0
  0
ARC
  5
840
330
1F
100
AcDbEntity
  8
0
100
AcDbCircle
 10
160.9743408888534
 20
163.7731379893899
 30
0.0
 40
0.3
100
AcDbArc
 50
180.0
 51
270.0
  0
LINE
  5
841
330
1F
100
AcDbEntity
  8
0
100
AcDbLine
 10
163.3243408888538
 20
163.4331379893898
 30
0.0
 11
163.3243408888538
 21
163.3631379893898
 31
0.0
  0
ARC
  5
842
330
1F
100
AcDbEntity
  8
0
100
AcDbCircle
 10
165.4743408888534
 20
169.1481379893899
 30
0.0
 40
0.85
100
AcDbArc
 50
323.269604999999
 51
0.0
  0
ARC
  5
843
330
1F
100
AcDbEntity
  8
0
100
AcDbCircle
 10
165.4743408888534
 20
165.3381379893897
 30
0.0
 40
0.85
100
AcDbArc
 50
323.269604999999
 51
0.0
  0
CIRCLE
  5
844
330
1F
100
AcDbEntity
  8
0
100
AcDbCircle
 10
165.4743408888534
 20
161.5281379893898
 30
0.0
 40
1.564999999999999
  0
CIRCLE
  5
845
330
1F
100
AcDbEntity
  8
0
100
AcDbCircle
 10
165.4743408888534
 20
157.7181379893898
 30
0.0
 40
1.564999999999999
  0
CIRCLE
  5
846
330
1F
100
AcDbEntity
  8
0
100
AcDbCircle
 10
165.4743408888534
 20
165.3381379893897
 30
0.0
 40
1.564999999999999
  0
CIRCLE
  5
847
330
1F
100
AcDbEntity
  8
0
100
AcDbCircle
 10
165.4743408888534
 20
169.1481379893899
 30
0.0
 40
1.564999999999999
  0
ARC
  5
848
330
1F
100
AcDbEntity
  8
0
100
AcDbCircle
 10
165.4743408888534
 20
169.1481379893899
 30
0.0
 40
0.85
100
AcDbArc
 50
0.0
 51
323.269604999999
  0
LINE
  5
849
330
1F
100
AcDbEntity
  8
0
100
AcDbLine
 10
163.3243408888538
 20
170.2831379893899
 30
0.0
 11
163.3243408888538
 21
167.2431379893897
 31
0.0
  0
LINE
  5
84A
330
1F
100
AcDbEntity
  8
0
100
AcDbLine
 10
163.1743408888537
 20
167.5831379893899
 30
0.0
 11
163.1743408888537
 21
170.2831379893899
 31
0.0
  0
LINE
  5
84B
330
1F
100
AcDbEntity
  8
0
100
AcDbLine
 10
162.5243408888536
 20
168.1831379893898
 30
0.0
 11
162.5243408888536
 21
170.9831379893897
 31
0.0
  0
LINE
  5
84C
330
1F
100
AcDbEntity
  8
0
100
AcDbLine
 10
161.3243408888538
 20
170.9831379893897
 30
0.0
 11
161.3243408888538
 21
168.1831379893898
 31
0.0
  0
LINE
  5
84D
330
1F
100
AcDbEntity
  8
0
100
AcDbLine
 10
160.6743408888537
 20
167.5831379893899
 30
0.0
 11
160.6743408888537
 21
170.6831379893898
 31
0.0
  0
LINE
  5
84E
330
1F
100
AcDbEntity
  8
0
100
AcDbLine
 10
159.1743408888528
 20
175.011383145027
 30
0.0
 11
159.6951729680426
 21
174.303137989389
 31
0.0
  0
LINE
  5
84F
330
1F
100
AcDbEntity
  8
0
100
AcDbLine
 10
159.1743408888528
 20
183.8929978347513
 30
0.0
 11
159.6951729680426
 21
184.5031379893879
 31
0.0
  0
LINE
  5
850
330
1F
100
AcDbEntity
  8
0
100
AcDbLine
 10
166.3743408888535
 20
185.03313898939
 30
0.0
 11
158.6743408888537
 21
185.03313898939
 31
0.0
  0
LINE
  5
851
330
1F
100
AcDbEntity
  8
0
100
AcDbLine
 10
158.6743408888537
 20
173.7331389893901
 30
0.0
 11
160.1743408888537
 21
173.7331389893901
 31
0.0
  0
LINE
  5
852
330
1F
100
AcDbEntity
  8
0
100
AcDbLine
 10
159.1743408888528
 20
183.8929978347513
 30
0.0
 11
159.1743408888528
 21
175.011383145027
 31
0.0
  0
LINE
  5
853
330
1F
100
AcDbEntity
  8
0
100
AcDbLine
 10
158.6743408888537
 20
185.03313898939
 30
0.0
 11
158.6743408888537
 21
173.7331389893901
 31
0.0
  0
LINE
  5
854
330
1F
100
AcDbEntity
  8
0
100
AcDbLine
 10
160.0743408888543
 20
174.803137989389
 30
0.0
 11
160.0743408888543
 21
184.0031379893897
 31
0.0
  0
LINE
  5
855
330
1F
100
AcDbEntity
  8
0
100
AcDbLine
 10
164.5743408888542
 20
175.9031379893893
 30
0.0
 11
164.5743408888542
 21
177.9031379893893
 31
0.0
  0
LINE
  5
856
330
1F
100
AcDbEntity
  8
0
100
AcDbLine
 10
164.5743408888542
 20
177.9031379893893
 30
0.0
 11
165.0743408888542
 21
177.9031379893893
 31
0.0
  0
LINE
  5
857
330
1F
100
AcDbEntity
  8
0
100
AcDbLine
 10
164.5743408888542
 20
175.9031379893893
 30
0.0
 11
165.0743408888542
 21
175.9031379893893
 31
0.0
  0
LINE
  5
858
330
1F
100
AcDbEntity
  8
0
100
AcDbLine
 10
165.0743408888542
 20
175.9031379893893
 30
0.0
 11
165.0743408888542
 21
177.9031379893893
 31
0.0
  0
LINE
  5
859
330
1F
100
AcDbEntity
  8
0
100
AcDbLine
 10
164.5743408888542
 20
178.4031379893893
 30
0.0
 11
164.5743408888542
 21
180.4031379893894
 31
0.0
  0
LINE
  5
85A
330
1F
100
AcDbEntity
  8
0
100
AcDbLine
 10
164.5743408888542
 20
180.4031379893894
 30
0.0
 11
165.0743408888542
 21
180.4031379893894
 31
0.0
  0
LINE
  5
85B
330
1F
100
AcDbEntity
  8
0
100
AcDbLine
 10
164.5743408888542
 20
178.4031379893893
 30
0.0
 11
165.0743408888542
 21
178.4031379893893
 31
0.0
  0
LINE
  5
85C
330
1F
100
AcDbEntity
  8
0
100
AcDbLine
 10
165.0743408888542
 20
178.4031379893893
 30
0.0
 11
165.0743408888542
 21
180.4031379893894
 31
0.0
  0
LINE
  5
85D
330
1F
100
AcDbEntity
  8
0
100
AcDbLine
 10
165.0743408888542
 20
180.9031379893893
 30
0.0
 11
165.0743408888542
 21
182.9031379893893
 31
0.0
  0
LINE
  5
85E
330
1F
100
AcDbEntity
  8
0
100
AcDbLine
 10
164.5743408888542
 20
180.9031379893893
 30
0.0
 11
165.0743408888542
 21
180.9031379893893
 31
0.0
  0
LINE
  5
85F
330
1F
100
AcDbEntity
  8
0
100
AcDbLine
 10
164.5743408888542
 20
182.9031379893893
 30
0.0
 11
165.0743408888542
 21
182.9031379893893
 31
0.0
  0
LINE
  5
860
330
1F
100
AcDbEntity
  8
0
100
AcDbLine
 10
164.5743408888542
 20
180.9031379893893
 30
0.0
 11
164.5743408888542
 21
182.9031379893893
 31
0.0
  0
LINE
  5
861
330
1F
100
AcDbEntity
  8
0
100
AcDbLine
 10
168.5043408888536
 20
171.0531379893899
 30
0.0
 11
168.5043408888536
 21
173.5531379893899
 31
0.0
  0
LINE
  5
862
330
1F
100
AcDbEntity
  8
0
100
AcDbLine
 10
168.5043408888536
 20
163.4331379893898
 30
0.0
 11
168.5043408888536
 21
159.6231379893898
 31
0.0
  0
LINE
  5
863
330
1F
100
AcDbEntity
  8
0
100
AcDbLine
 10
173.3743408888535
 20
159.6231379893898
 30
0.0
 11
172.8743408888535
 21
159.6231379893898
 31
0.0
  0
LINE
  5
864
330
1F
100
AcDbEntity
  8
0
100
AcDbLine
 10
173.3743408888535
 20
159.6231379893898
 30
0.0
 11
172.8743408888535
 21
159.6231379893898
 31
0.0
  0
LINE
  5
865
330
1F
100
AcDbEntity
  8
0
100
AcDbLine
 10
173.3743408888535
 20
155.8131379893899
 30
0.0
 11
172.8743408888535
 21
155.8131379893899
 31
0.0
  0
LINE
  5
866
330
1F
100
AcDbEntity
  8
0
100
AcDbLine
 10
173.3743408888535
 20
155.8131379893899
 30
0.0
 11
172.8743408888535
 21
155.8131379893899
 31
0.0
  0
LINE
  5
867
330
1F
100
AcDbEntity
  8
0
100
AcDbLine
 10
168.5043408888536
 20
159.6231379893898
 30
0.0
 11
168.9443408888537
 21
159.6231379893898
 31
0.0
  0
LINE
  5
868
330
1F
100
AcDbEntity
  8
0
100
AcDbLine
 10
168.9443408888537
 20
159.6231379893898
 30
0.0
 11
169.0743408888538
 21
159.6231379893898
 31
0.0
  0
LINE
  5
869
330
1F
100
AcDbEntity
  8
0
100
AcDbLine
 10
169.0743408888538
 20
159.6231379893898
 30
0.0
 11
170.4743408888537
 21
159.6231379893898
 31
0.0
  0
LINE
  5
86A
330
1F
100
AcDbEntity
  8
0
100
AcDbLine
 10
168.5043408888536
 20
159.6231379893898
 30
0.0
 11
168.3043408888538
 21
159.6231379893898
 31
0.0
  0
LINE
  5
86B
330
1F
100
AcDbEntity
  8
0
100
AcDbLine
 10
167.5443408888536
 20
159.6231379893898
 30
0.0
 11
168.3043408888538
 21
159.6231379893898
 31
0.0
  0
LINE
  5
86C
330
1F
100
AcDbEntity
  8
0
100
AcDbLine
 10
168.5043408888536
 20
159.6231379893898
 30
0.0
 11
168.3043408888538
 21
159.6231379893898
 31
0.0
  0
LINE
  5
86D
330
1F
100
AcDbEntity
  8
0
100
AcDbLine
 10
168.5043408888536
 20
155.8131379893899
 30
0.0
 11
168.3043408888538
 21
155.8131379893899
 31
0.0
  0
LINE
  5
86E
330
1F
100
AcDbEntity
  8
0
100
AcDbLine
 10
168.5043408888536
 20
155.8131379893899
 30
0.0
 11
168.3043408888538
 21
155.8131379893899
 31
0.0
  0
LINE
  5
86F
330
1F
100
AcDbEntity
  8
0
100
AcDbLine
 10
169.0743408888538
 20
155.8131379893899
 30
0.0
 11
170.4743408888537
 21
155.8131379893899
 31
0.0
  0
LINE
  5
870
330
1F
100
AcDbEntity
  8
0
100
AcDbLine
 10
168.9443408888537
 20
155.8131379893899
 30
0.0
 11
169.0743408888538
 21
155.8131379893899
 31
0.0
  0
LINE
  5
871
330
1F
100
AcDbEntity
  8
0
100
AcDbLine
 10
168.5043408888536
 20
155.8131379893899
 30
0.0
 11
168.9443408888537
 21
155.8131379893899
 31
0.0
  0
LINE
  5
872
330
1F
100
AcDbEntity
  8
0
100
AcDbLine
 10
167.5443408888536
 20
155.8131379893899
 30
0.0
 11
168.3043408888538
 21
155.8131379893899
 31
0.0
  0
LINE
  5
873
330
1F
100
AcDbEntity
  8
0
100
AcDbLine
 10
168.5043408888536
 20
159.6231379893898
 30
0.0
 11
168.5043408888536
 21
155.8131379893899
 31
0.0
  0
LINE
  5
874
330
1F
100
AcDbEntity
  8
0
100
AcDbLine
 10
170.4743408888537
 20
159.6231379893898
 30
0.0
 11
172.8743408888535
 21
159.6231379893898
 31
0.0
  0
LINE
  5
875
330
1F
100
AcDbEntity
  8
0
100
AcDbLine
 10
168.5043408888536
 20
155.8131379893899
 30
0.0
 11
172.8743408888535
 21
155.8131379893899
 31
0.0
  0
LINE
  5
876
330
1F
100
AcDbEntity
  8
0
100
AcDbLine
 10
170.4743408888537
 20
155.8131379893899
 30
0.0
 11
172.8743408888535
 21
155.8131379893899
 31
0.0
  0
LINE
  5
877
330
1F
100
AcDbEntity
  8
0
100
AcDbLine
 10
168.5043408888536
 20
159.6231379893898
 30
0.0
 11
172.8743408888535
 21
159.6231379893898
 31
0.0
  0
LINE
  5
878
330
1F
100
AcDbEntity
  8
0
100
AcDbLine
 10
173.3743408888535
 20
161.0331379893899
 30
0.0
 11
173.8743408888535
 21
161.0331379893899
 31
0.0
  0
LINE
  5
879
330
1F
100
AcDbEntity
  8
0
100
AcDbLine
 10
173.8743408888535
 20
161.0331379893899
 30
0.0
 11
173.8743408888535
 21
160.6331379893898
 31
0.0
  0
LINE
  5
87A
330
1F
100
AcDbEntity
  8
0
100
AcDbLine
 10
173.8743408888535
 20
156.3231379893899
 30
0.0
 11
173.8743408888535
 21
155.9231379893898
 31
0.0
  0
LINE
  5
87B
330
1F
100
AcDbEntity
  8
0
100
AcDbLine
 10
173.8743408888535
 20
156.8231379893899
 30
0.0
 11
173.8743408888535
 21
156.3231379893899
 31
0.0
  0
LINE
  5
87C
330
1F
100
AcDbEntity
  8
0
100
AcDbLine
 10
173.8743408888535
 20
157.2231379893897
 30
0.0
 11
173.8743408888535
 21
156.8231379893899
 31
0.0
  0
LINE
  5
87D
330
1F
100
AcDbEntity
  8
0
100
AcDbLine
 10
173.3743408888535
 20
155.9231379893898
 30
0.0
 11
173.8743408888535
 21
155.9231379893898
 31
0.0
  0
LINE
  5
87E
330
1F
100
AcDbEntity
  8
0
100
AcDbLine
 10
173.3743408888535
 20
157.2231379893897
 30
0.0
 11
173.8743408888535
 21
157.2231379893897
 31
0.0
  0
LINE
  5
87F
330
1F
100
AcDbEntity
  8
0
100
AcDbLine
 10
173.3743408888535
 20
159.7331379893897
 30
0.0
 11
173.8743408888535
 21
159.7331379893897
 31
0.0
  0
LINE
  5
880
330
1F
100
AcDbEntity
  8
0
100
AcDbLine
 10
173.8743408888535
 20
160.1331379893898
 30
0.0
 11
173.8743408888535
 21
159.7331379893897
 31
0.0
  0
LINE
  5
881
330
1F
100
AcDbEntity
  8
0
100
AcDbLine
 10
173.3743408888535
 20
159.7331379893897
 30
0.0
 11
173.3743408888535
 21
159.6231379893898
 31
0.0
  0
LINE
  5
882
330
1F
100
AcDbEntity
  8
0
100
AcDbLine
 10
173.8743408888535
 20
160.6331379893898
 30
0.0
 11
173.8743408888535
 21
160.1331379893898
 31
0.0
  0
LINE
  5
883
330
1F
100
AcDbEntity
  8
0
100
AcDbLine
 10
173.3743408888535
 20
155.9231379893898
 30
0.0
 11
173.3743408888535
 21
155.8131379893899
 31
0.0
  0
LINE
  5
884
330
1F
100
AcDbEntity
  8
0
100
AcDbLine
 10
173.3743408888535
 20
163.4331379893898
 30
0.0
 11
172.8743408888535
 21
163.4331379893898
 31
0.0
  0
LINE
  5
885
330
1F
100
AcDbEntity
  8
0
100
AcDbLine
 10
173.3743408888535
 20
163.4331379893898
 30
0.0
 11
172.8743408888535
 21
163.4331379893898
 31
0.0
  0
LINE
  5
886
330
1F
100
AcDbEntity
  8
0
100
AcDbLine
 10
173.3743408888535
 20
167.2431379893897
 30
0.0
 11
172.8743408888535
 21
167.2431379893897
 31
0.0
  0
LINE
  5
887
330
1F
100
AcDbEntity
  8
0
100
AcDbLine
 10
173.3743408888535
 20
167.2431379893897
 30
0.0
 11
172.8743408888535
 21
167.2431379893897
 31
0.0
  0
LINE
  5
888
330
1F
100
AcDbEntity
  8
0
100
AcDbLine
 10
168.5043408888536
 20
167.2431379893897
 30
0.0
 11
168.5043408888536
 21
163.4331379893898
 31
0.0
  0
LINE
  5
889
330
1F
100
AcDbEntity
  8
0
100
AcDbLine
 10
168.5043408888536
 20
163.4331379893898
 30
0.0
 11
168.3043408888538
 21
163.4331379893898
 31
0.0
  0
LINE
  5
88A
330
1F
100
AcDbEntity
  8
0
100
AcDbLine
 10
168.5043408888536
 20
163.4331379893898
 30
0.0
 11
168.3043408888538
 21
163.4331379893898
 31
0.0
  0
LINE
  5
88B
330
1F
100
AcDbEntity
  8
0
100
AcDbLine
 10
169.0743408888538
 20
163.4331379893898
 30
0.0
 11
170.4743408888537
 21
163.4331379893898
 31
0.0
  0
LINE
  5
88C
330
1F
100
AcDbEntity
  8
0
100
AcDbLine
 10
168.9443408888537
 20
163.4331379893898
 30
0.0
 11
169.0743408888538
 21
163.4331379893898
 31
0.0
  0
LINE
  5
88D
330
1F
100
AcDbEntity
  8
0
100
AcDbLine
 10
168.5043408888536
 20
163.4331379893898
 30
0.0
 11
168.9443408888537
 21
163.4331379893898
 31
0.0
  0
LINE
  5
88E
330
1F
100
AcDbEntity
  8
0
100
AcDbLine
 10
167.5443408888536
 20
163.4331379893898
 30
0.0
 11
168.3043408888538
 21
163.4331379893898
 31
0.0
  0
LINE
  5
88F
330
1F
100
AcDbEntity
  8
0
100
AcDbLine
 10
168.5043408888536
 20
167.2431379893897
 30
0.0
 11
168.3043408888538
 21
167.2431379893897
 31
0.0
  0
LINE
  5
890
330
1F
100
AcDbEntity
  8
0
100
AcDbLine
 10
168.5043408888536
 20
167.2431379893897
 30
0.0
 11
168.9443408888537
 21
167.2431379893897
 31
0.0
  0
LINE
  5
891
330
1F
100
AcDbEntity
  8
0
100
AcDbLine
 10
168.9443408888537
 20
167.2431379893897
 30
0.0
 11
169.0743408888538
 21
167.2431379893897
 31
0.0
  0
LINE
  5
892
330
1F
100
AcDbEntity
  8
0
100
AcDbLine
 10
169.0743408888538
 20
167.2431379893897
 30
0.0
 11
170.4743408888537
 21
167.2431379893897
 31
0.0
  0
LINE
  5
893
330
1F
100
AcDbEntity
  8
0
100
AcDbLine
 10
168.5043408888536
 20
167.2431379893897
 30
0.0
 11
168.3043408888538
 21
167.2431379893897
 31
0.0
  0
LINE
  5
894
330
1F
100
AcDbEntity
  8
0
100
AcDbLine
 10
167.5443408888536
 20
167.2431379893897
 30
0.0
 11
168.3043408888538
 21
167.2431379893897
 31
0.0
  0
LINE
  5
895
330
1F
100
AcDbEntity
  8
0
100
AcDbLine
 10
168.5043408888536
 20
163.4331379893898
 30
0.0
 11
172.8743408888535
 21
163.4331379893898
 31
0.0
  0
LINE
  5
896
330
1F
100
AcDbEntity
  8
0
100
AcDbLine
 10
170.4743408888537
 20
163.4331379893898
 30
0.0
 11
172.8743408888535
 21
163.4331379893898
 31
0.0
  0
LINE
  5
897
330
1F
100
AcDbEntity
  8
0
100
AcDbLine
 10
168.5043408888536
 20
167.2431379893897
 30
0.0
 11
172.8743408888535
 21
167.2431379893897
 31
0.0
  0
LINE
  5
898
330
1F
100
AcDbEntity
  8
0
100
AcDbLine
 10
170.4743408888537
 20
167.2431379893897
 30
0.0
 11
172.8743408888535
 21
167.2431379893897
 31
0.0
  0
LINE
  5
899
330
1F
100
AcDbEntity
  8
0
100
AcDbLine
 10
173.8743408888535
 20
164.8431379893898
 30
0.0
 11
173.8743408888535
 21
164.4431379893898
 31
0.0
  0
LINE
  5
89A
330
1F
100
AcDbEntity
  8
0
100
AcDbLine
 10
173.3743408888535
 20
163.5431379893899
 30
0.0
 11
173.3743408888535
 21
163.4331379893898
 31
0.0
  0
LINE
  5
89B
330
1F
100
AcDbEntity
  8
0
100
AcDbLine
 10
173.8743408888535
 20
163.9431379893898
 30
0.0
 11
173.8743408888535
 21
163.5431379893899
 31
0.0
  0
LINE
  5
89C
330
1F
100
AcDbEntity
  8
0
100
AcDbLine
 10
173.3743408888535
 20
163.5431379893899
 30
0.0
 11
173.8743408888535
 21
163.5431379893899
 31
0.0
  0
LINE
  5
89D
330
1F
100
AcDbEntity
  8
0
100
AcDbLine
 10
173.8743408888535
 20
164.4431379893898
 30
0.0
 11
173.8743408888535
 21
163.9431379893898
 31
0.0
  0
LINE
  5
89E
330
1F
100
AcDbEntity
  8
0
100
AcDbLine
 10
173.3743408888535
 20
167.3531379893898
 30
0.0
 11
173.3743408888535
 21
167.2431379893897
 31
0.0
  0
LINE
  5
89F
330
1F
100
AcDbEntity
  8
0
100
AcDbLine
 10
173.3743408888535
 20
168.6531379893898
 30
0.0
 11
173.3743408888535
 21
167.3531379893898
 31
0.0
  0
LINE
  5
8A0
330
1F
100
AcDbEntity
  8
0
100
AcDbLine
 10
173.8743408888535
 20
167.7531379893897
 30
0.0
 11
173.8743408888535
 21
167.3531379893898
 31
0.0
  0
LINE
  5
8A1
330
1F
100
AcDbEntity
  8
0
100
AcDbLine
 10
173.8743408888535
 20
168.2531379893897
 30
0.0
 11
173.8743408888535
 21
167.7531379893897
 31
0.0
  0
LINE
  5
8A2
330
1F
100
AcDbEntity
  8
0
100
AcDbLine
 10
173.8743408888535
 20
168.6531379893898
 30
0.0
 11
173.8743408888535
 21
168.2531379893897
 31
0.0
  0
LINE
  5
8A3
330
1F
100
AcDbEntity
  8
0
100
AcDbLine
 10
173.3743408888535
 20
167.3531379893898
 30
0.0
 11
173.8743408888535
 21
167.3531379893898
 31
0.0
  0
LINE
  5
8A4
330
1F
100
AcDbEntity
  8
0
100
AcDbLine
 10
173.3743408888535
 20
168.6531379893898
 30
0.0
 11
173.8743408888535
 21
168.6531379893898
 31
0.0
  0
LINE
  5
8A5
330
1F
100
AcDbEntity
  8
0
100
AcDbLine
 10
173.3743408888535
 20
164.8431379893898
 30
0.0
 11
173.8743408888535
 21
164.8431379893898
 31
0.0
  0
LINE
  5
8A6
330
1F
100
AcDbEntity
  8
0
100
AcDbLine
 10
168.5043408888536
 20
171.0531379893899
 30
0.0
 11
168.5043408888536
 21
167.2431379893897
 31
0.0
  0
LINE
  5
8A7
330
1F
100
AcDbEntity
  8
0
100
AcDbLine
 10
173.8743408888535
 20
174.303137989389
 30
0.0
 11
173.8743408888535
 21
184.5031379893879
 31
0.0
  0
LINE
  5
8A8
330
1F
100
AcDbEntity
  8
0
100
AcDbLine
 10
173.7213452395722
 20
180.954085488889
 30
0.0
 11
173.8743408888535
 21
181.1070811381704
 31
0.0
  0
LINE
  5
8A9
330
1F
100
AcDbEntity
  8
0
100
AcDbLine
 10
173.7213452395722
 20
177.7540854888883
 30
0.0
 11
173.8743408888535
 21
177.6010898396069
 31
0.0
  0
LINE
  5
8AA
330
1F
100
AcDbEntity
  8
0
100
AcDbLine
 10
172.274340888855
 20
177.7540854888883
 30
0.0
 11
173.7213452395722
 21
177.7540854888883
 31
0.0
  0
LINE
  5
8AB
330
1F
100
AcDbEntity
  8
0
100
AcDbLine
 10
172.274340888855
 20
180.954085488889
 30
0.0
 11
173.7213452395722
 21
180.954085488889
 31
0.0
  0
LINE
  5
8AC
330
1F
100
AcDbEntity
  8
0
100
AcDbLine
 10
173.8743408888535
 20
174.303137989389
 30
0.0
 11
171.8743408888535
 21
174.303137989389
 31
0.0
  0
LINE
  5
8AD
330
1F
100
AcDbEntity
  8
0
100
AcDbLine
 10
173.8743408888535
 20
184.5031379893879
 30
0.0
 11
171.8743408888535
 21
184.5031379893879
 31
0.0
  0
ARC
  5
8AE
330
1F
100
AcDbEntity
  8
0
100
AcDbCircle
 10
171.4743408888521
 20
175.2031379893886
 30
0.0
 40
0.4
100
AcDbArc
 50
270.0
 51
0.0
  0
ARC
  5
8AF
330
1F
100
AcDbEntity
  8
0
100
AcDbCircle
 10
171.4743408888521
 20
183.6031379893901
 30
0.0
 40
0.4
100
AcDbArc
 50
0.0
 51
90.0
  0
LINE
  5
8B0
330
1F
100
AcDbEntity
  8
0
100
AcDbLine
 10
171.8743408888535
 20
183.6031379893901
 30
0.0
 11
171.8743408888535
 21
175.2031379893886
 31
0.0
  0
ARC
  5
8B1
330
1F
100
AcDbEntity
  8
0
100
AcDbCircle
 10
171.8743408888535
 20
174.7031379893886
 30
0.0
 40
0.4
100
AcDbArc
 50
270.0
 51
0.0
  0
ARC
  5
8B2
330
1F
100
AcDbEntity
  8
0
100
AcDbCircle
 10
171.8743408888535
 20
184.1031379893883
 30
0.0
 40
0.4
100
AcDbArc
 50
0.0
 51
90.0
  0
LINE
  5
8B3
330
1F
100
AcDbEntity
  8
0
100
AcDbLine
 10
172.274340888855
 20
184.1031379893883
 30
0.0
 11
172.274340888855
 21
174.7031379893886
 31
0.0
  0
LINE
  5
8B4
330
1F
100
AcDbEntity
  8
0
100
AcDbLine
 10
168.5743408888543
 20
180.9031379893893
 30
0.0
 11
168.5743408888543
 21
182.9031379893893
 31
0.0
  0
LINE
  5
8B5
330
1F
100
AcDbEntity
  8
0
100
AcDbLine
 10
168.5743408888543
 20
182.9031379893893
 30
0.0
 11
169.0743408888542
 21
182.9031379893893
 31
0.0
  0
LINE
  5
8B6
330
1F
100
AcDbEntity
  8
0
100
AcDbLine
 10
168.5743408888543
 20
180.9031379893893
 30
0.0
 11
169.0743408888542
 21
180.9031379893893
 31
0.0
  0
LINE
  5
8B7
330
1F
100
AcDbEntity
  8
0
100
AcDbLine
 10
169.0743408888542
 20
180.9031379893893
 30
0.0
 11
169.0743408888542
 21
182.9031379893893
 31
0.0
  0
LINE
  5
8B8
330
1F
100
AcDbEntity
  8
0
100
AcDbLine
 10
169.0743408888542
 20
178.4031379893893
 30
0.0
 11
169.0743408888542
 21
180.4031379893894
 31
0.0
  0
LINE
  5
8B9
330
1F
100
AcDbEntity
  8
0
100
AcDbLine
 10
168.5743408888543
 20
178.4031379893893
 30
0.0
 11
169.0743408888542
 21
178.4031379893893
 31
0.0
  0
LINE
  5
8BA
330
1F
100
AcDbEntity
  8
0
100
AcDbLine
 10
168.5743408888543
 20
180.4031379893894
 30
0.0
 11
169.0743408888542
 21
180.4031379893894
 31
0.0
  0
LINE
  5
8BB
330
1F
100
AcDbEntity
  8
0
100
AcDbLine
 10
168.5743408888543
 20
178.4031379893893
 30
0.0
 11
168.5743408888543
 21
180.4031379893894
 31
0.0
  0
LINE
  5
8BC
330
1F
100
AcDbEntity
  8
0
100
AcDbLine
 10
169.0743408888542
 20
175.9031379893893
 30
0.0
 11
169.0743408888542
 21
177.9031379893893
 31
0.0
  0
LINE
  5
8BD
330
1F
100
AcDbEntity
  8
0
100
AcDbLine
 10
168.5743408888543
 20
175.9031379893893
 30
0.0
 11
169.0743408888542
 21
175.9031379893893
 31
0.0
  0
LINE
  5
8BE
330
1F
100
AcDbEntity
  8
0
100
AcDbLine
 10
168.5743408888543
 20
177.9031379893893
 30
0.0
 11
169.0743408888542
 21
177.9031379893893
 31
0.0
  0
LINE
  5
8BF
330
1F
100
AcDbEntity
  8
0
100
AcDbLine
 10
168.5743408888543
 20
175.9031379893893
 30
0.0
 11
168.5743408888543
 21
177.9031379893893
 31
0.0
  0
LINE
  5
8C0
330
1F
100
AcDbEntity
  8
0
100
AcDbLine
 10
169.2951758888536
 20
186.2531379893897
 30
0.0
 11
171.2600978888535
 21
186.2531379893897
 31
0.0
  0
LINE
  5
8C1
330
1F
100
AcDbEntity
  8
0
100
AcDbLine
 10
161.0743408888538
 20
211.65712598939
 30
0.0
 11
173.8743408888535
 21
211.65712598939
 31
0.0
  0
LINE
  5
8C2
330
1F
100
AcDbEntity
  8
0
100
AcDbLine
 10
160.5743408888538
 20
211.1331389893899
 30
0.0
 11
168.3743408888535
 21
211.1331389893899
 31
0.0
  0
LINE
  5
8C3
330
1F
100
AcDbEntity
  8
0
100
AcDbLine
 10
166.8743408888535
 20
190.2531379893897
 30
0.0
 11
173.8743408888535
 21
190.2531379893897
 31
0.0
  0
LINE
  5
8C4
330
1F
100
AcDbEntity
  8
0
100
AcDbLine
 10
166.3743408888535
 20
190.7331389893901
 30
0.0
 11
168.3743408888535
 21
190.7331389893901
 31
0.0
  0
CIRCLE
  5
8C5
330
1F
100
AcDbEntity
  8
0
100
AcDbCircle
 10
167.4743408888537
 20
218.6568549893901
 30
0.0
 40
5.029838999999999
  0
CIRCLE
  5
8C6
330
1F
100
AcDbEntity
  8
0
100
AcDbCircle
 10
167.4743408888537
 20
218.6568549893901
 30
0.0
 40
5.029838999999999
  0
CIRCLE
  5
8C7
330
1F
100
AcDbEntity
  8
0
100
AcDbCircle
 10
167.4740828888539
 20
218.6568549893901
 30
0.0
 40
4.448566
  0
LINE
  5
8C8
330
1F
100
AcDbEntity
  8
0
100
AcDbLine
 10
166.7190038888536
 20
220.2376369893901
 30
0.0
 11
166.7190038888536
 21
220.8301929893899
 31
0.0
  0
LINE
  5
8C9
330
1F
100
AcDbEntity
  8
0
100
AcDbLine
 10
166.7190038888536
 20
219.80010998939
 30
0.0
 11
166.7190038888536
 21
221.2680649893897
 31
0.0
  0
LINE
  5
8CA
330
1F
100
AcDbEntity
  8
0
100
AcDbLine
 10
166.7190038888536
 20
216.55379598939
 30
0.0
 11
166.7190038888536
 21
217.14652498939
 31
0.0
  0
LINE
  5
8CB
330
1F
100
AcDbEntity
  8
0
100
AcDbLine
 10
166.7190038888536
 20
216.1160969893898
 30
0.0
 11
166.7190038888536
 21
217.5840519893899
 31
0.0
  0
LINE
  5
8CC
330
1F
100
AcDbEntity
  8
0
100
AcDbLine
 10
166.7190038888536
 20
218.39571698939
 30
0.0
 11
166.7190038888536
 21
218.9884449893899
 31
0.0
  0
LINE
  5
8CD
330
1F
100
AcDbEntity
  8
0
100
AcDbLine
 10
166.7190038888536
 20
217.9578449893898
 30
0.0
 11
166.7190038888536
 21
219.4257999893899
 31
0.0
  0
LINE
  5
8CE
330
1F
100
AcDbEntity
  8
0
100
AcDbLine
 10
162.8165718888535
 20
217.9227049893901
 30
0.0
 11
164.7360068888538
 21
217.9227049893901
 31
0.0
  0
LINE
  5
8CF
330
1F
100
AcDbEntity
  8
0
100
AcDbLine
 10
162.8165718888535
 20
219.3904879893899
 30
0.0
 11
162.8165718888535
 21
217.9227049893901
 31
0.0
  0
LINE
  5
8D0
330
1F
100
AcDbEntity
  8
0
100
AcDbLine
 10
164.7360068888538
 20
219.3904879893899
 30
0.0
 11
162.8165718888535
 21
219.3904879893899
 31
0.0
  0
LINE
  5
8D1
330
1F
100
AcDbEntity
  8
0
100
AcDbLine
 10
164.7360068888538
 20
217.9227049893901
 30
0.0
 11
164.7360068888538
 21
219.3904879893899
 31
0.0
  0
LINE
  5
8D2
330
1F
100
AcDbEntity
  8
0
100
AcDbLine
 10
162.8165718888535
 20
217.9227049893901
 30
0.0
 11
164.7360068888538
 21
217.9227049893901
 31
0.0
  0
LINE
  5
8D3
330
1F
100
AcDbEntity
  8
0
100
AcDbLine
 10
162.8165718888535
 20
219.3904879893899
 30
0.0
 11
162.8165718888535
 21
217.9227049893901
 31
0.0
  0
LINE
  5
8D4
330
1F
100
AcDbEntity
  8
0
100
AcDbLine
 10
164.7360068888538
 20
219.3904879893899
 30
0.0
 11
162.8165718888535
 21
219.3904879893899
 31
0.0
  0
LINE
  5
8D5
330
1F
100
AcDbEntity
  8
0
100
AcDbLine
 10
164.7360068888538
 20
217.9227049893901
 30
0.0
 11
164.7360068888538
 21
219.3904879893899
 31
0.0
  0
LINE
  5
8D6
330
1F
100
AcDbEntity
  8
0
100
AcDbLine
 10
165.3573298888536
 20
221.2677199893897
 30
0.0
 11
165.7383578888536
 21
220.8301929893899
 31
0.0
  0
LINE
  5
8D7
330
1F
100
AcDbEntity
  8
0
100
AcDbLine
 10
165.3573298888536
 20
219.80010998939
 30
0.0
 11
165.7383578888536
 21
220.2376369893901
 31
0.0
  0
LINE
  5
8D8
330
1F
100
AcDbEntity
  8
0
100
AcDbLine
 10
165.7380128888537
 20
220.8301929893899
 30
0.0
 11
165.7380128888537
 21
220.2376369893901
 31
0.0
  0
LINE
  5
8D9
330
1F
100
AcDbEntity
  8
0
100
AcDbLine
 10
165.3569858888536
 20
221.2680649893897
 30
0.0
 11
165.3569858888536
 21
219.80010998939
 31
0.0
  0
LINE
  5
8DA
330
1F
100
AcDbEntity
  8
0
100
AcDbLine
 10
165.3573298888536
 20
219.4257999893899
 30
0.0
 11
165.7383578888536
 21
218.9884449893899
 31
0.0
  0
LINE
  5
8DB
330
1F
100
AcDbEntity
  8
0
100
AcDbLine
 10
165.3573298888536
 20
217.5840519893899
 30
0.0
 11
165.7383578888536
 21
217.14652498939
 31
0.0
  0
LINE
  5
8DC
330
1F
100
AcDbEntity
  8
0
100
AcDbLine
 10
165.3573298888536
 20
216.1160969893898
 30
0.0
 11
165.7383578888536
 21
216.55379598939
 31
0.0
  0
LINE
  5
8DD
330
1F
100
AcDbEntity
  8
0
100
AcDbLine
 10
165.7380128888537
 20
217.14652498939
 30
0.0
 11
165.7380128888537
 21
216.55379598939
 31
0.0
  0
LINE
  5
8DE
330
1F
100
AcDbEntity
  8
0
100
AcDbLine
 10
165.3569858888536
 20
217.5840519893899
 30
0.0
 11
165.3569858888536
 21
216.1160969893898
 31
0.0
  0
LINE
  5
8DF
330
1F
100
AcDbEntity
  8
0
100
AcDbLine
 10
165.3573298888536
 20
217.9578449893898
 30
0.0
 11
165.7383578888536
 21
218.39571698939
 31
0.0
  0
LINE
  5
8E0
330
1F
100
AcDbEntity
  8
0
100
AcDbLine
 10
165.7380128888537
 20
218.9884449893899
 30
0.0
 11
165.7380128888537
 21
218.39571698939
 31
0.0
  0
LINE
  5
8E1
330
1F
100
AcDbEntity
  8
0
100
AcDbLine
 10
165.3569858888536
 20
219.4257999893899
 30
0.0
 11
165.3569858888536
 21
217.9578449893898
 31
0.0
  0
LINE
  5
8E2
330
1F
100
AcDbEntity
  8
0
100
AcDbLine
 10
165.7380128888537
 20
220.2376369893901
 30
0.0
 11
166.7190038888536
 21
220.2376369893901
 31
0.0
  0
LINE
  5
8E3
330
1F
100
AcDbEntity
  8
0
100
AcDbLine
 10
166.7190038888536
 20
220.8301929893899
 30
0.0
 11
165.7380128888537
 21
220.8301929893899
 31
0.0
  0
LINE
  5
8E4
330
1F
100
AcDbEntity
  8
0
100
AcDbLine
 10
165.3569858888536
 20
219.80010998939
 30
0.0
 11
166.7190038888536
 21
219.80010998939
 31
0.0
  0
LINE
  5
8E5
330
1F
100
AcDbEntity
  8
0
100
AcDbLine
 10
166.7190038888536
 20
221.2680649893897
 30
0.0
 11
165.3569858888536
 21
221.2680649893897
 31
0.0
  0
LINE
  5
8E6
330
1F
100
AcDbEntity
  8
0
100
AcDbLine
 10
165.7380128888537
 20
216.55379598939
 30
0.0
 11
166.7190038888536
 21
216.55379598939
 31
0.0
  0
LINE
  5
8E7
330
1F
100
AcDbEntity
  8
0
100
AcDbLine
 10
166.7190038888536
 20
217.14652498939
 30
0.0
 11
165.7380128888537
 21
217.14652498939
 31
0.0
  0
LINE
  5
8E8
330
1F
100
AcDbEntity
  8
0
100
AcDbLine
 10
165.3569858888536
 20
216.1160969893898
 30
0.0
 11
166.7190038888536
 21
216.1160969893898
 31
0.0
  0
LINE
  5
8E9
330
1F
100
AcDbEntity
  8
0
100
AcDbLine
 10
166.7190038888536
 20
217.5840519893899
 30
0.0
 11
165.3569858888536
 21
217.5840519893899
 31
0.0
  0
LINE
  5
8EA
330
1F
100
AcDbEntity
  8
0
100
AcDbLine
 10
165.7380128888537
 20
218.39571698939
 30
0.0
 11
166.7190038888536
 21
218.39571698939
 31
0.0
  0
LINE
  5
8EB
330
1F
100
AcDbEntity
  8
0
100
AcDbLine
 10
166.7190038888536
 20
218.9884449893899
 30
0.0
 11
165.7380128888537
 21
218.9884449893899
 31
0.0
  0
LINE
  5
8EC
330
1F
100
AcDbEntity
  8
0
100
AcDbLine
 10
165.3569858888536
 20
217.9578449893898
 30
0.0
 11
166.7190038888536
 21
217.9578449893898
 31
0.0
  0
LINE
  5
8ED
330
1F
100
AcDbEntity
  8
0
100
AcDbLine
 10
166.7190038888536
 20
219.4257999893899
 30
0.0
 11
165.3569858888536
 21
219.4257999893899
 31
0.0
  0
LINE
  5
8EE
330
1F
100
AcDbEntity
  8
0
100
AcDbLine
 10
173.8743408888535
 20
210.077111330337
 30
0.0
 11
173.8743408888535
 21
192.1771113303371
 31
0.0
  0
LINE
  5
8EF
330
1F
100
AcDbEntity
  8
0
100
AcDbLine
 10
168.8743408888535
 20
210.077111330337
 30
0.0
 11
168.8743408888535
 21
192.1771113303371
 31
0.0
  0
LINE
  5
8F0
330
1F
100
AcDbEntity
  8
0
100
AcDbLine
 10
168.3743408888535
 20
211.1331389893899
 30
0.0
 11
168.3743408888535
 21
190.7331389893901
 31
0.0
  0
LINE
  5
8F1
330
1F
100
AcDbEntity
  8
0
100
AcDbLine
 10
172.1243408888535
 20
206.2071259893901
 30
0.0
 11
172.6243408888535
 21
206.2071259893901
 31
0.0
  0
LINE
  5
8F2
330
1F
100
AcDbEntity
  8
0
100
AcDbLine
 10
172.1243408888535
 20
205.7071259893902
 30
0.0
 11
172.6243408888535
 21
205.7071259893902
 31
0.0
  0
LINE
  5
8F3
330
1F
100
AcDbEntity
  8
0
100
AcDbLine
 10
172.1243408888535
 20
206.2071259893901
 30
0.0
 11
172.1243408888535
 21
205.7071259893902
 31
0.0
  0
LINE
  5
8F4
330
1F
100
AcDbEntity
  8
0
100
AcDbLine
 10
172.6243408888535
 20
205.7071259893902
 30
0.0
 11
172.6243408888535
 21
206.2071259893901
 31
0.0
  0
LINE
  5
8F5
330
1F
100
AcDbEntity
  8
0
100
AcDbLine
 10
172.2843408888536
 20
206.0471779893899
 30
0.0
 11
172.2843408888536
 21
205.8670739893897
 31
0.0
  0
LINE
  5
8F6
330
1F
100
AcDbEntity
  8
0
100
AcDbLine
 10
172.2843408888536
 20
205.8670739893897
 30
0.0
 11
172.3743408888535
 21
205.8670739893897
 31
0.0
  0
LINE
  5
8F7
330
1F
100
AcDbEntity
  8
0
100
AcDbLine
 10
172.2843408888536
 20
205.8670739893897
 30
0.0
 11
172.3743408888535
 21
205.8670739893897
 31
0.0
  0
LINE
  5
8F8
330
1F
100
AcDbEntity
  8
0
100
AcDbLine
 10
172.2843408888536
 20
206.0471779893899
 30
0.0
 11
172.3743408888535
 21
206.0471779893899
 31
0.0
  0
LINE
  5
8F9
330
1F
100
AcDbEntity
  8
0
100
AcDbLine
 10
172.4643408888537
 20
206.0471779893899
 30
0.0
 11
172.3743408888535
 21
206.0471779893899
 31
0.0
  0
LINE
  5
8FA
330
1F
100
AcDbEntity
  8
0
100
AcDbLine
 10
172.4643408888537
 20
205.8670739893897
 30
0.0
 11
172.3743408888535
 21
205.8670739893897
 31
0.0
  0
LINE
  5
8FB
330
1F
100
AcDbEntity
  8
0
100
AcDbLine
 10
172.4643408888537
 20
205.8670739893897
 30
0.0
 11
172.3743408888535
 21
205.8670739893897
 31
0.0
  0
LINE
  5
8FC
330
1F
100
AcDbEntity
  8
0
100
AcDbLine
 10
172.4643408888537
 20
206.0471779893899
 30
0.0
 11
172.4643408888537
 21
205.8670739893897
 31
0.0
  0
LINE
  5
8FD
330
1F
100
AcDbEntity
  8
0
100
AcDbLine
 10
170.1243408888535
 20
205.7071259893902
 30
0.0
 11
170.6243408888535
 21
205.7071259893902
 31
0.0
  0
LINE
  5
8FE
330
1F
100
AcDbEntity
  8
0
100
AcDbLine
 10
170.1243408888535
 20
206.2071259893901
 30
0.0
 11
170.6243408888535
 21
206.2071259893901
 31
0.0
  0
LINE
  5
8FF
330
1F
100
AcDbEntity
  8
0
100
AcDbLine
 10
170.4643408888537
 20
206.0471779893899
 30
0.0
 11
170.4643408888537
 21
205.8670739893897
 31
0.0
  0
LINE
  5
900
330
1F
100
AcDbEntity
  8
0
100
AcDbLine
 10
170.4643408888537
 20
205.8670739893897
 30
0.0
 11
170.3743408888535
 21
205.8670739893897
 31
0.0
  0
LINE
  5
901
330
1F
100
AcDbEntity
  8
0
100
AcDbLine
 10
170.4643408888537
 20
205.8670739893897
 30
0.0
 11
170.3743408888535
 21
205.8670739893897
 31
0.0
  0
LINE
  5
902
330
1F
100
AcDbEntity
  8
0
100
AcDbLine
 10
170.4643408888537
 20
206.0471779893899
 30
0.0
 11
170.3743408888535
 21
206.0471779893899
 31
0.0
  0
LINE
  5
903
330
1F
100
AcDbEntity
  8
0
100
AcDbLine
 10
170.2843408888536
 20
206.0471779893899
 30
0.0
 11
170.3743408888535
 21
206.0471779893899
 31
0.0
  0
LINE
  5
904
330
1F
100
AcDbEntity
  8
0
100
AcDbLine
 10
170.2843408888536
 20
205.8670739893897
 30
0.0
 11
170.3743408888535
 21
205.8670739893897
 31
0.0
  0
LINE
  5
905
330
1F
100
AcDbEntity
  8
0
100
AcDbLine
 10
170.2843408888536
 20
205.8670739893897
 30
0.0
 11
170.3743408888535
 21
205.8670739893897
 31
0.0
  0
LINE
  5
906
330
1F
100
AcDbEntity
  8
0
100
AcDbLine
 10
170.2843408888536
 20
206.0471779893899
 30
0.0
 11
170.2843408888536
 21
205.8670739893897
 31
0.0
  0
LINE
  5
907
330
1F
100
AcDbEntity
  8
0
100
AcDbLine
 10
170.6243408888535
 20
205.7071259893902
 30
0.0
 11
170.6243408888535
 21
206.2071259893901
 31
0.0
  0
LINE
  5
908
330
1F
100
AcDbEntity
  8
0
100
AcDbLine
 10
170.1243408888535
 20
206.2071259893901
 30
0.0
 11
170.1243408888535
 21
205.7071259893902
 31
0.0
  0
LINE
  5
909
330
1F
100
AcDbEntity
  8
0
100
AcDbLine
 10
172.4643408888537
 20
198.0471779893899
 30
0.0
 11
172.4643408888537
 21
197.8670739893897
 31
0.0
  0
LINE
  5
90A
330
1F
100
AcDbEntity
  8
0
100
AcDbLine
 10
172.2843408888536
 20
198.0471779893899
 30
0.0
 11
172.2843408888536
 21
197.8670739893897
 31
0.0
  0
LINE
  5
90B
330
1F
100
AcDbEntity
  8
0
100
AcDbLine
 10
172.4643408888537
 20
197.8670739893897
 30
0.0
 11
172.3743408888535
 21
197.8670739893897
 31
0.0
  0
LINE
  5
90C
330
1F
100
AcDbEntity
  8
0
100
AcDbLine
 10
172.4643408888537
 20
197.8670739893897
 30
0.0
 11
172.3743408888535
 21
197.8670739893897
 31
0.0
  0
LINE
  5
90D
330
1F
100
AcDbEntity
  8
0
100
AcDbLine
 10
172.2843408888536
 20
197.8670739893897
 30
0.0
 11
172.3743408888535
 21
197.8670739893897
 31
0.0
  0
LINE
  5
90E
330
1F
100
AcDbEntity
  8
0
100
AcDbLine
 10
172.2843408888536
 20
197.8670739893897
 30
0.0
 11
172.3743408888535
 21
197.8670739893897
 31
0.0
  0
LINE
  5
90F
330
1F
100
AcDbEntity
  8
0
100
AcDbLine
 10
172.1243408888535
 20
198.2071259893901
 30
0.0
 11
172.6243408888535
 21
198.2071259893901
 31
0.0
  0
LINE
  5
910
330
1F
100
AcDbEntity
  8
0
100
AcDbLine
 10
172.4643408888537
 20
198.0471779893899
 30
0.0
 11
172.3743408888535
 21
198.0471779893899
 31
0.0
  0
LINE
  5
911
330
1F
100
AcDbEntity
  8
0
100
AcDbLine
 10
172.2843408888536
 20
198.0471779893899
 30
0.0
 11
172.3743408888535
 21
198.0471779893899
 31
0.0
  0
LINE
  5
912
330
1F
100
AcDbEntity
  8
0
100
AcDbLine
 10
172.1243408888535
 20
197.7071259893902
 30
0.0
 11
172.6243408888535
 21
197.7071259893902
 31
0.0
  0
LINE
  5
913
330
1F
100
AcDbEntity
  8
0
100
AcDbLine
 10
172.1243408888535
 20
198.2071259893901
 30
0.0
 11
172.1243408888535
 21
197.7071259893902
 31
0.0
  0
LINE
  5
914
330
1F
100
AcDbEntity
  8
0
100
AcDbLine
 10
172.6243408888535
 20
197.7071259893902
 30
0.0
 11
172.6243408888535
 21
198.2071259893901
 31
0.0
  0
LINE
  5
915
330
1F
100
AcDbEntity
  8
0
100
AcDbLine
 10
172.4643408888537
 20
196.0471779893899
 30
0.0
 11
172.4643408888537
 21
195.8670739893897
 31
0.0
  0
LINE
  5
916
330
1F
100
AcDbEntity
  8
0
100
AcDbLine
 10
172.2843408888536
 20
196.0471779893899
 30
0.0
 11
172.2843408888536
 21
195.8670739893897
 31
0.0
  0
LINE
  5
917
330
1F
100
AcDbEntity
  8
0
100
AcDbLine
 10
172.4643408888537
 20
195.8670739893897
 30
0.0
 11
172.3743408888535
 21
195.8670739893897
 31
0.0
  0
LINE
  5
918
330
1F
100
AcDbEntity
  8
0
100
AcDbLine
 10
172.4643408888537
 20
195.8670739893897
 30
0.0
 11
172.3743408888535
 21
195.8670739893897
 31
0.0
  0
LINE
  5
919
330
1F
100
AcDbEntity
  8
0
100
AcDbLine
 10
172.2843408888536
 20
195.8670739893897
 30
0.0
 11
172.3743408888535
 21
195.8670739893897
 31
0.0
  0
LINE
  5
91A
330
1F
100
AcDbEntity
  8
0
100
AcDbLine
 10
172.2843408888536
 20
195.8670739893897
 30
0.0
 11
172.3743408888535
 21
195.8670739893897
 31
0.0
  0
LINE
  5
91B
330
1F
100
AcDbEntity
  8
0
100
AcDbLine
 10
172.1243408888535
 20
196.2071259893902
 30
0.0
 11
172.6243408888535
 21
196.2071259893902
 31
0.0
  0
LINE
  5
91C
330
1F
100
AcDbEntity
  8
0
100
AcDbLine
 10
172.4643408888537
 20
196.0471779893899
 30
0.0
 11
172.3743408888535
 21
196.0471779893899
 31
0.0
  0
LINE
  5
91D
330
1F
100
AcDbEntity
  8
0
100
AcDbLine
 10
172.2843408888536
 20
196.0471779893899
 30
0.0
 11
172.3743408888535
 21
196.0471779893899
 31
0.0
  0
LINE
  5
91E
330
1F
100
AcDbEntity
  8
0
100
AcDbLine
 10
172.1243408888535
 20
195.7071259893901
 30
0.0
 11
172.6243408888535
 21
195.7071259893901
 31
0.0
  0
LINE
  5
91F
330
1F
100
AcDbEntity
  8
0
100
AcDbLine
 10
172.1243408888535
 20
196.2071259893902
 30
0.0
 11
172.1243408888535
 21
195.7071259893901
 31
0.0
  0
LINE
  5
920
330
1F
100
AcDbEntity
  8
0
100
AcDbLine
 10
172.6243408888535
 20
195.7071259893901
 30
0.0
 11
172.6243408888535
 21
196.2071259893902
 31
0.0
  0
LINE
  5
921
330
1F
100
AcDbEntity
  8
0
100
AcDbLine
 10
170.2843408888536
 20
198.0471779893899
 30
0.0
 11
170.2843408888536
 21
197.8670739893897
 31
0.0
  0
LINE
  5
922
330
1F
100
AcDbEntity
  8
0
100
AcDbLine
 10
170.4643408888537
 20
198.0471779893899
 30
0.0
 11
170.4643408888537
 21
197.8670739893897
 31
0.0
  0
LINE
  5
923
330
1F
100
AcDbEntity
  8
0
100
AcDbLine
 10
170.2843408888536
 20
197.8670739893897
 30
0.0
 11
170.3743408888535
 21
197.8670739893897
 31
0.0
  0
LINE
  5
924
330
1F
100
AcDbEntity
  8
0
100
AcDbLine
 10
170.2843408888536
 20
197.8670739893897
 30
0.0
 11
170.3743408888535
 21
197.8670739893897
 31
0.0
  0
LINE
  5
925
330
1F
100
AcDbEntity
  8
0
100
AcDbLine
 10
170.4643408888537
 20
197.8670739893897
 30
0.0
 11
170.3743408888535
 21
197.8670739893897
 31
0.0
  0
LINE
  5
926
330
1F
100
AcDbEntity
  8
0
100
AcDbLine
 10
170.4643408888537
 20
197.8670739893897
 30
0.0
 11
170.3743408888535
 21
197.8670739893897
 31
0.0
  0
LINE
  5
927
330
1F
100
AcDbEntity
  8
0
100
AcDbLine
 10
170.1243408888535
 20
198.2071259893901
 30
0.0
 11
170.6243408888535
 21
198.2071259893901
 31
0.0
  0
LINE
  5
928
330
1F
100
AcDbEntity
  8
0
100
AcDbLine
 10
170.2843408888536
 20
198.0471779893899
 30
0.0
 11
170.3743408888535
 21
198.0471779893899
 31
0.0
  0
LINE
  5
929
330
1F
100
AcDbEntity
  8
0
100
AcDbLine
 10
170.4643408888537
 20
198.0471779893899
 30
0.0
 11
170.3743408888535
 21
198.0471779893899
 31
0.0
  0
LINE
  5
92A
330
1F
100
AcDbEntity
  8
0
100
AcDbLine
 10
170.1243408888535
 20
197.7071259893902
 30
0.0
 11
170.6243408888535
 21
197.7071259893902
 31
0.0
  0
LINE
  5
92B
330
1F
100
AcDbEntity
  8
0
100
AcDbLine
 10
170.1243408888535
 20
198.2071259893901
 30
0.0
 11
170.1243408888535
 21
197.7071259893902
 31
0.0
  0
LINE
  5
92C
330
1F
100
AcDbEntity
  8
0
100
AcDbLine
 10
170.6243408888535
 20
197.7071259893902
 30
0.0
 11
170.6243408888535
 21
198.2071259893901
 31
0.0
  0
LINE
  5
92D
330
1F
100
AcDbEntity
  8
0
100
AcDbLine
 10
170.2843408888536
 20
196.0471779893899
 30
0.0
 11
170.2843408888536
 21
195.8670739893897
 31
0.0
  0
LINE
  5
92E
330
1F
100
AcDbEntity
  8
0
100
AcDbLine
 10
170.4643408888537
 20
196.0471779893899
 30
0.0
 11
170.4643408888537
 21
195.8670739893897
 31
0.0
  0
LINE
  5
92F
330
1F
100
AcDbEntity
  8
0
100
AcDbLine
 10
170.2843408888536
 20
195.8670739893897
 30
0.0
 11
170.3743408888535
 21
195.8670739893897
 31
0.0
  0
LINE
  5
930
330
1F
100
AcDbEntity
  8
0
100
AcDbLine
 10
170.2843408888536
 20
195.8670739893897
 30
0.0
 11
170.3743408888535
 21
195.8670739893897
 31
0.0
  0
LINE
  5
931
330
1F
100
AcDbEntity
  8
0
100
AcDbLine
 10
170.4643408888537
 20
195.8670739893897
 30
0.0
 11
170.3743408888535
 21
195.8670739893897
 31
0.0
  0
LINE
  5
932
330
1F
100
AcDbEntity
  8
0
100
AcDbLine
 10
170.4643408888537
 20
195.8670739893897
 30
0.0
 11
170.3743408888535
 21
195.8670739893897
 31
0.0
  0
LINE
  5
933
330
1F
100
AcDbEntity
  8
0
100
AcDbLine
 10
170.1243408888535
 20
196.2071259893902
 30
0.0
 11
170.6243408888535
 21
196.2071259893902
 31
0.0
  0
LINE
  5
934
330
1F
100
AcDbEntity
  8
0
100
AcDbLine
 10
170.2843408888536
 20
196.0471779893899
 30
0.0
 11
170.3743408888535
 21
196.0471779893899
 31
0.0
  0
LINE
  5
935
330
1F
100
AcDbEntity
  8
0
100
AcDbLine
 10
170.4643408888537
 20
196.0471779893899
 30
0.0
 11
170.3743408888535
 21
196.0471779893899
 31
0.0
  0
LINE
  5
936
330
1F
100
AcDbEntity
  8
0
100
AcDbLine
 10
170.1243408888535
 20
195.7071259893901
 30
0.0
 11
170.6243408888535
 21
195.7071259893901
 31
0.0
  0
LINE
  5
937
330
1F
100
AcDbEntity
  8
0
100
AcDbLine
 10
170.1243408888535
 20
196.2071259893902
 30
0.0
 11
170.1243408888535
 21
195.7071259893901
 31
0.0
  0
LINE
  5
938
330
1F
100
AcDbEntity
  8
0
100
AcDbLine
 10
170.6243408888535
 20
195.7071259893901
 30
0.0
 11
170.6243408888535
 21
196.2071259893902
 31
0.0
  0
LINE
  5
939
330
1F
100
AcDbEntity
  8
0
100
AcDbLine
 10
172.1243408888535
 20
194.2071259893902
 30
0.0
 11
172.1243408888535
 21
193.7071259893901
 31
0.0
  0
LINE
  5
93A
330
1F
100
AcDbEntity
  8
0
100
AcDbLine
 10
172.6243408888535
 20
193.7071259893901
 30
0.0
 11
172.6243408888535
 21
194.2071259893902
 31
0.0
  0
LINE
  5
93B
330
1F
100
AcDbEntity
  8
0
100
AcDbLine
 10
172.2843408888536
 20
194.0471779893899
 30
0.0
 11
172.2843408888536
 21
193.8670739893897
 31
0.0
  0
LINE
  5
93C
330
1F
100
AcDbEntity
  8
0
100
AcDbLine
 10
172.4643408888537
 20
194.0471779893899
 30
0.0
 11
172.4643408888537
 21
193.8670739893897
 31
0.0
  0
LINE
  5
93D
330
1F
100
AcDbEntity
  8
0
100
AcDbLine
 10
172.1243408888535
 20
193.7071259893901
 30
0.0
 11
172.6243408888535
 21
193.7071259893901
 31
0.0
  0
LINE
  5
93E
330
1F
100
AcDbEntity
  8
0
100
AcDbLine
 10
172.2843408888536
 20
193.8670739893897
 30
0.0
 11
172.3743408888535
 21
193.8670739893897
 31
0.0
  0
LINE
  5
93F
330
1F
100
AcDbEntity
  8
0
100
AcDbLine
 10
172.2843408888536
 20
193.8670739893897
 30
0.0
 11
172.3743408888535
 21
193.8670739893897
 31
0.0
  0
LINE
  5
940
330
1F
100
AcDbEntity
  8
0
100
AcDbLine
 10
172.4643408888537
 20
193.8670739893897
 30
0.0
 11
172.3743408888535
 21
193.8670739893897
 31
0.0
  0
LINE
  5
941
330
1F
100
AcDbEntity
  8
0
100
AcDbLine
 10
172.4643408888537
 20
193.8670739893897
 30
0.0
 11
172.3743408888535
 21
193.8670739893897
 31
0.0
  0
LINE
  5
942
330
1F
100
AcDbEntity
  8
0
100
AcDbLine
 10
172.1243408888535
 20
194.2071259893902
 30
0.0
 11
172.6243408888535
 21
194.2071259893902
 31
0.0
  0
LINE
  5
943
330
1F
100
AcDbEntity
  8
0
100
AcDbLine
 10
172.2843408888536
 20
194.0471779893899
 30
0.0
 11
172.3743408888535
 21
194.0471779893899
 31
0.0
  0
LINE
  5
944
330
1F
100
AcDbEntity
  8
0
100
AcDbLine
 10
172.4643408888537
 20
194.0471779893899
 30
0.0
 11
172.3743408888535
 21
194.0471779893899
 31
0.0
  0
LINE
  5
945
330
1F
100
AcDbEntity
  8
0
100
AcDbLine
 10
170.6243408888535
 20
193.7071259893901
 30
0.0
 11
170.6243408888535
 21
194.2071259893902
 31
0.0
  0
LINE
  5
946
330
1F
100
AcDbEntity
  8
0
100
AcDbLine
 10
170.1243408888535
 20
194.2071259893902
 30
0.0
 11
170.1243408888535
 21
193.7071259893901
 31
0.0
  0
LINE
  5
947
330
1F
100
AcDbEntity
  8
0
100
AcDbLine
 10
170.4643408888537
 20
194.0471779893899
 30
0.0
 11
170.4643408888537
 21
193.8670739893897
 31
0.0
  0
LINE
  5
948
330
1F
100
AcDbEntity
  8
0
100
AcDbLine
 10
170.2843408888536
 20
194.0471779893899
 30
0.0
 11
170.2843408888536
 21
193.8670739893897
 31
0.0
  0
LINE
  5
949
330
1F
100
AcDbEntity
  8
0
100
AcDbLine
 10
170.1243408888535
 20
193.7071259893901
 30
0.0
 11
170.6243408888535
 21
193.7071259893901
 31
0.0
  0
LINE
  5
94A
330
1F
100
AcDbEntity
  8
0
100
AcDbLine
 10
170.4643408888537
 20
193.8670739893897
 30
0.0
 11
170.3743408888535
 21
193.8670739893897
 31
0.0
  0
LINE
  5
94B
330
1F
100
AcDbEntity
  8
0
100
AcDbLine
 10
170.4643408888537
 20
193.8670739893897
 30
0.0
 11
170.3743408888535
 21
193.8670739893897
 31
0.0
  0
LINE
  5
94C
330
1F
100
AcDbEntity
  8
0
100
AcDbLine
 10
170.2843408888536
 20
193.8670739893897
 30
0.0
 11
170.3743408888535
 21
193.8670739893897
 31
0.0
  0
LINE
  5
94D
330
1F
100
AcDbEntity
  8
0
100
AcDbLine
 10
170.2843408888536
 20
193.8670739893897
 30
0.0
 11
170.3743408888535
 21
193.8670739893897
 31
0.0
  0
LINE
  5
94E
330
1F
100
AcDbEntity
  8
0
100
AcDbLine
 10
170.4643408888537
 20
194.0471779893899
 30
0.0
 11
170.3743408888535
 21
194.0471779893899
 31
0.0
  0
LINE
  5
94F
330
1F
100
AcDbEntity
  8
0
100
AcDbLine
 10
170.2843408888536
 20
194.0471779893899
 30
0.0
 11
170.3743408888535
 21
194.0471779893899
 31
0.0
  0
LINE
  5
950
330
1F
100
AcDbEntity
  8
0
100
AcDbLine
 10
170.1243408888535
 20
194.2071259893902
 30
0.0
 11
170.6243408888535
 21
194.2071259893902
 31
0.0
  0
LINE
  5
951
330
1F
100
AcDbEntity
  8
0
100
AcDbLine
 10
169.2951758888536
 20
189.2531379893897
 30
0.0
 11
171.2600978888535
 21
189.2531379893897
 31
0.0
  0
LINE
  5
952
330
1F
100
AcDbEntity
  8
0
100
AcDbLine
 10
172.1243408888535
 20
204.2071259893901
 30
0.0
 11
172.6243408888535
 21
204.2071259893901
 31
0.0
  0
LINE
  5
953
330
1F
100
AcDbEntity
  8
0
100
AcDbLine
 10
172.1243408888535
 20
203.7071259893902
 30
0.0
 11
172.6243408888535
 21
203.7071259893902
 31
0.0
  0
LINE
  5
954
330
1F
100
AcDbEntity
  8
0
100
AcDbLine
 10
172.1243408888535
 20
204.2071259893901
 30
0.0
 11
172.1243408888535
 21
203.7071259893902
 31
0.0
  0
LINE
  5
955
330
1F
100
AcDbEntity
  8
0
100
AcDbLine
 10
172.6243408888535
 20
203.7071259893902
 30
0.0
 11
172.6243408888535
 21
204.2071259893901
 31
0.0
  0
LINE
  5
956
330
1F
100
AcDbEntity
  8
0
100
AcDbLine
 10
172.2843408888536
 20
204.0471779893899
 30
0.0
 11
172.2843408888536
 21
203.8670739893897
 31
0.0
  0
LINE
  5
957
330
1F
100
AcDbEntity
  8
0
100
AcDbLine
 10
172.2843408888536
 20
203.8670739893897
 30
0.0
 11
172.3743408888535
 21
203.8670739893897
 31
0.0
  0
LINE
  5
958
330
1F
100
AcDbEntity
  8
0
100
AcDbLine
 10
172.2843408888536
 20
203.8670739893897
 30
0.0
 11
172.3743408888535
 21
203.8670739893897
 31
0.0
  0
LINE
  5
959
330
1F
100
AcDbEntity
  8
0
100
AcDbLine
 10
172.2843408888536
 20
204.0471779893899
 30
0.0
 11
172.3743408888535
 21
204.0471779893899
 31
0.0
  0
LINE
  5
95A
330
1F
100
AcDbEntity
  8
0
100
AcDbLine
 10
172.4643408888537
 20
204.0471779893899
 30
0.0
 11
172.3743408888535
 21
204.0471779893899
 31
0.0
  0
LINE
  5
95B
330
1F
100
AcDbEntity
  8
0
100
AcDbLine
 10
172.4643408888537
 20
203.8670739893897
 30
0.0
 11
172.3743408888535
 21
203.8670739893897
 31
0.0
  0
LINE
  5
95C
330
1F
100
AcDbEntity
  8
0
100
AcDbLine
 10
172.4643408888537
 20
203.8670739893897
 30
0.0
 11
172.3743408888535
 21
203.8670739893897
 31
0.0
  0
LINE
  5
95D
330
1F
100
AcDbEntity
  8
0
100
AcDbLine
 10
172.4643408888537
 20
204.0471779893899
 30
0.0
 11
172.4643408888537
 21
203.8670739893897
 31
0.0
  0
LINE
  5
95E
330
1F
100
AcDbEntity
  8
0
100
AcDbLine
 10
172.1243408888535
 20
199.7071259893901
 30
0.0
 11
172.6243408888535
 21
199.7071259893901
 31
0.0
  0
LINE
  5
95F
330
1F
100
AcDbEntity
  8
0
100
AcDbLine
 10
172.1243408888535
 20
200.2071259893901
 30
0.0
 11
172.6243408888535
 21
200.2071259893901
 31
0.0
  0
LINE
  5
960
330
1F
100
AcDbEntity
  8
0
100
AcDbLine
 10
172.1243408888535
 20
202.2071259893901
 30
0.0
 11
172.6243408888535
 21
202.2071259893901
 31
0.0
  0
LINE
  5
961
330
1F
100
AcDbEntity
  8
0
100
AcDbLine
 10
172.1243408888535
 20
201.7071259893902
 30
0.0
 11
172.6243408888535
 21
201.7071259893902
 31
0.0
  0
LINE
  5
962
330
1F
100
AcDbEntity
  8
0
100
AcDbLine
 10
172.1243408888535
 20
200.2071259893901
 30
0.0
 11
172.1243408888535
 21
199.7071259893901
 31
0.0
  0
LINE
  5
963
330
1F
100
AcDbEntity
  8
0
100
AcDbLine
 10
172.1243408888535
 20
202.2071259893901
 30
0.0
 11
172.1243408888535
 21
201.7071259893902
 31
0.0
  0
LINE
  5
964
330
1F
100
AcDbEntity
  8
0
100
AcDbLine
 10
172.6243408888535
 20
199.7071259893901
 30
0.0
 11
172.6243408888535
 21
200.2071259893901
 31
0.0
  0
LINE
  5
965
330
1F
100
AcDbEntity
  8
0
100
AcDbLine
 10
172.2843408888536
 20
200.0471779893899
 30
0.0
 11
172.2843408888536
 21
199.8670739893897
 31
0.0
  0
LINE
  5
966
330
1F
100
AcDbEntity
  8
0
100
AcDbLine
 10
172.2843408888536
 20
199.8670739893897
 30
0.0
 11
172.3743408888535
 21
199.8670739893897
 31
0.0
  0
LINE
  5
967
330
1F
100
AcDbEntity
  8
0
100
AcDbLine
 10
172.2843408888536
 20
199.8670739893897
 30
0.0
 11
172.3743408888535
 21
199.8670739893897
 31
0.0
  0
LINE
  5
968
330
1F
100
AcDbEntity
  8
0
100
AcDbLine
 10
172.2843408888536
 20
200.0471779893899
 30
0.0
 11
172.3743408888535
 21
200.0471779893899
 31
0.0
  0
LINE
  5
969
330
1F
100
AcDbEntity
  8
0
100
AcDbLine
 10
172.4643408888537
 20
200.0471779893899
 30
0.0
 11
172.3743408888535
 21
200.0471779893899
 31
0.0
  0
LINE
  5
96A
330
1F
100
AcDbEntity
  8
0
100
AcDbLine
 10
172.4643408888537
 20
199.8670739893897
 30
0.0
 11
172.3743408888535
 21
199.8670739893897
 31
0.0
  0
LINE
  5
96B
330
1F
100
AcDbEntity
  8
0
100
AcDbLine
 10
172.4643408888537
 20
199.8670739893897
 30
0.0
 11
172.3743408888535
 21
199.8670739893897
 31
0.0
  0
LINE
  5
96C
330
1F
100
AcDbEntity
  8
0
100
AcDbLine
 10
172.4643408888537
 20
200.0471779893899
 30
0.0
 11
172.4643408888537
 21
199.8670739893897
 31
0.0
  0
LINE
  5
96D
330
1F
100
AcDbEntity
  8
0
100
AcDbLine
 10
172.6243408888535
 20
201.7071259893902
 30
0.0
 11
172.6243408888535
 21
202.2071259893901
 31
0.0
  0
LINE
  5
96E
330
1F
100
AcDbEntity
  8
0
100
AcDbLine
 10
172.2843408888536
 20
202.0471779893899
 30
0.0
 11
172.2843408888536
 21
201.8670739893897
 31
0.0
  0
LINE
  5
96F
330
1F
100
AcDbEntity
  8
0
100
AcDbLine
 10
172.2843408888536
 20
201.8670739893897
 30
0.0
 11
172.3743408888535
 21
201.8670739893897
 31
0.0
  0
LINE
  5
970
330
1F
100
AcDbEntity
  8
0
100
AcDbLine
 10
172.2843408888536
 20
201.8670739893897
 30
0.0
 11
172.3743408888535
 21
201.8670739893897
 31
0.0
  0
LINE
  5
971
330
1F
100
AcDbEntity
  8
0
100
AcDbLine
 10
172.2843408888536
 20
202.0471779893899
 30
0.0
 11
172.3743408888535
 21
202.0471779893899
 31
0.0
  0
LINE
  5
972
330
1F
100
AcDbEntity
  8
0
100
AcDbLine
 10
172.4643408888537
 20
202.0471779893899
 30
0.0
 11
172.3743408888535
 21
202.0471779893899
 31
0.0
  0
LINE
  5
973
330
1F
100
AcDbEntity
  8
0
100
AcDbLine
 10
172.4643408888537
 20
201.8670739893897
 30
0.0
 11
172.3743408888535
 21
201.8670739893897
 31
0.0
  0
LINE
  5
974
330
1F
100
AcDbEntity
  8
0
100
AcDbLine
 10
172.4643408888537
 20
201.8670739893897
 30
0.0
 11
172.3743408888535
 21
201.8670739893897
 31
0.0
  0
LINE
  5
975
330
1F
100
AcDbEntity
  8
0
100
AcDbLine
 10
172.4643408888537
 20
202.0471779893899
 30
0.0
 11
172.4643408888537
 21
201.8670739893897
 31
0.0
  0
LINE
  5
976
330
1F
100
AcDbEntity
  8
0
100
AcDbLine
 10
170.1243408888535
 20
203.7071259893902
 30
0.0
 11
170.6243408888535
 21
203.7071259893902
 31
0.0
  0
LINE
  5
977
330
1F
100
AcDbEntity
  8
0
100
AcDbLine
 10
170.1243408888535
 20
204.2071259893901
 30
0.0
 11
170.6243408888535
 21
204.2071259893901
 31
0.0
  0
LINE
  5
978
330
1F
100
AcDbEntity
  8
0
100
AcDbLine
 10
170.4643408888537
 20
204.0471779893899
 30
0.0
 11
170.4643408888537
 21
203.8670739893897
 31
0.0
  0
LINE
  5
979
330
1F
100
AcDbEntity
  8
0
100
AcDbLine
 10
170.4643408888537
 20
203.8670739893897
 30
0.0
 11
170.3743408888535
 21
203.8670739893897
 31
0.0
  0
LINE
  5
97A
330
1F
100
AcDbEntity
  8
0
100
AcDbLine
 10
170.4643408888537
 20
203.8670739893897
 30
0.0
 11
170.3743408888535
 21
203.8670739893897
 31
0.0
  0
LINE
  5
97B
330
1F
100
AcDbEntity
  8
0
100
AcDbLine
 10
170.4643408888537
 20
204.0471779893899
 30
0.0
 11
170.3743408888535
 21
204.0471779893899
 31
0.0
  0
LINE
  5
97C
330
1F
100
AcDbEntity
  8
0
100
AcDbLine
 10
170.2843408888536
 20
204.0471779893899
 30
0.0
 11
170.3743408888535
 21
204.0471779893899
 31
0.0
  0
LINE
  5
97D
330
1F
100
AcDbEntity
  8
0
100
AcDbLine
 10
170.2843408888536
 20
203.8670739893897
 30
0.0
 11
170.3743408888535
 21
203.8670739893897
 31
0.0
  0
LINE
  5
97E
330
1F
100
AcDbEntity
  8
0
100
AcDbLine
 10
170.2843408888536
 20
203.8670739893897
 30
0.0
 11
170.3743408888535
 21
203.8670739893897
 31
0.0
  0
LINE
  5
97F
330
1F
100
AcDbEntity
  8
0
100
AcDbLine
 10
170.2843408888536
 20
204.0471779893899
 30
0.0
 11
170.2843408888536
 21
203.8670739893897
 31
0.0
  0
LINE
  5
980
330
1F
100
AcDbEntity
  8
0
100
AcDbLine
 10
170.6243408888535
 20
203.7071259893902
 30
0.0
 11
170.6243408888535
 21
204.2071259893901
 31
0.0
  0
LINE
  5
981
330
1F
100
AcDbEntity
  8
0
100
AcDbLine
 10
170.1243408888535
 20
204.2071259893901
 30
0.0
 11
170.1243408888535
 21
203.7071259893902
 31
0.0
  0
LINE
  5
982
330
1F
100
AcDbEntity
  8
0
100
AcDbLine
 10
170.2843408888536
 20
200.0471779893899
 30
0.0
 11
170.2843408888536
 21
199.8670739893897
 31
0.0
  0
LINE
  5
983
330
1F
100
AcDbEntity
  8
0
100
AcDbLine
 10
170.1243408888535
 20
200.2071259893901
 30
0.0
 11
170.6243408888535
 21
200.2071259893901
 31
0.0
  0
LINE
  5
984
330
1F
100
AcDbEntity
  8
0
100
AcDbLine
 10
170.1243408888535
 20
201.7071259893902
 30
0.0
 11
170.6243408888535
 21
201.7071259893902
 31
0.0
  0
LINE
  5
985
330
1F
100
AcDbEntity
  8
0
100
AcDbLine
 10
170.1243408888535
 20
202.2071259893901
 30
0.0
 11
170.6243408888535
 21
202.2071259893901
 31
0.0
  0
LINE
  5
986
330
1F
100
AcDbEntity
  8
0
100
AcDbLine
 10
170.4643408888537
 20
202.0471779893899
 30
0.0
 11
170.4643408888537
 21
201.8670739893897
 31
0.0
  0
LINE
  5
987
330
1F
100
AcDbEntity
  8
0
100
AcDbLine
 10
170.4643408888537
 20
201.8670739893897
 30
0.0
 11
170.3743408888535
 21
201.8670739893897
 31
0.0
  0
LINE
  5
988
330
1F
100
AcDbEntity
  8
0
100
AcDbLine
 10
170.4643408888537
 20
201.8670739893897
 30
0.0
 11
170.3743408888535
 21
201.8670739893897
 31
0.0
  0
LINE
  5
989
330
1F
100
AcDbEntity
  8
0
100
AcDbLine
 10
170.4643408888537
 20
202.0471779893899
 30
0.0
 11
170.3743408888535
 21
202.0471779893899
 31
0.0
  0
LINE
  5
98A
330
1F
100
AcDbEntity
  8
0
100
AcDbLine
 10
170.2843408888536
 20
202.0471779893899
 30
0.0
 11
170.3743408888535
 21
202.0471779893899
 31
0.0
  0
LINE
  5
98B
330
1F
100
AcDbEntity
  8
0
100
AcDbLine
 10
170.2843408888536
 20
201.8670739893897
 30
0.0
 11
170.3743408888535
 21
201.8670739893897
 31
0.0
  0
LINE
  5
98C
330
1F
100
AcDbEntity
  8
0
100
AcDbLine
 10
170.2843408888536
 20
201.8670739893897
 30
0.0
 11
170.3743408888535
 21
201.8670739893897
 31
0.0
  0
LINE
  5
98D
330
1F
100
AcDbEntity
  8
0
100
AcDbLine
 10
170.2843408888536
 20
202.0471779893899
 30
0.0
 11
170.2843408888536
 21
201.8670739893897
 31
0.0
  0
LINE
  5
98E
330
1F
100
AcDbEntity
  8
0
100
AcDbLine
 10
170.6243408888535
 20
201.7071259893902
 30
0.0
 11
170.6243408888535
 21
202.2071259893901
 31
0.0
  0
LINE
  5
98F
330
1F
100
AcDbEntity
  8
0
100
AcDbLine
 10
170.1243408888535
 20
202.2071259893901
 30
0.0
 11
170.1243408888535
 21
201.7071259893902
 31
0.0
  0
LINE
  5
990
330
1F
100
AcDbEntity
  8
0
100
AcDbLine
 10
170.6243408888535
 20
199.7071259893901
 30
0.0
 11
170.6243408888535
 21
200.2071259893901
 31
0.0
  0
LINE
  5
991
330
1F
100
AcDbEntity
  8
0
100
AcDbLine
 10
170.1243408888535
 20
200.2071259893901
 30
0.0
 11
170.1243408888535
 21
199.7071259893901
 31
0.0
  0
LINE
  5
992
330
1F
100
AcDbEntity
  8
0
100
AcDbLine
 10
170.1243408888535
 20
199.7071259893901
 30
0.0
 11
170.6243408888535
 21
199.7071259893901
 31
0.0
  0
LINE
  5
993
330
1F
100
AcDbEntity
  8
0
100
AcDbLine
 10
170.4643408888537
 20
200.0471779893899
 30
0.0
 11
170.4643408888537
 21
199.8670739893897
 31
0.0
  0
LINE
  5
994
330
1F
100
AcDbEntity
  8
0
100
AcDbLine
 10
170.4643408888537
 20
199.8670739893897
 30
0.0
 11
170.3743408888535
 21
199.8670739893897
 31
0.0
  0
LINE
  5
995
330
1F
100
AcDbEntity
  8
0
100
AcDbLine
 10
170.4643408888537
 20
199.8670739893897
 30
0.0
 11
170.3743408888535
 21
199.8670739893897
 31
0.0
  0
LINE
  5
996
330
1F
100
AcDbEntity
  8
0
100
AcDbLine
 10
170.4643408888537
 20
200.0471779893899
 30
0.0
 11
170.3743408888535
 21
200.0471779893899
 31
0.0
  0
LINE
  5
997
330
1F
100
AcDbEntity
  8
0
100
AcDbLine
 10
170.2843408888536
 20
200.0471779893899
 30
0.0
 11
170.3743408888535
 21
200.0471779893899
 31
0.0
  0
LINE
  5
998
330
1F
100
AcDbEntity
  8
0
100
AcDbLine
 10
170.2843408888536
 20
199.8670739893897
 30
0.0
 11
170.3743408888535
 21
199.8670739893897
 31
0.0
  0
LINE
  5
999
330
1F
100
AcDbEntity
  8
0
100
AcDbLine
 10
170.2843408888536
 20
199.8670739893897
 30
0.0
 11
170.3743408888535
 21
199.8670739893897
 31
0.0
  0
LINE
  5
99A
330
1F
100
AcDbEntity
  8
0
100
AcDbLine
 10
168.8743408888535
 20
210.077111330337
 30
0.0
 11
173.8743408888535
 21
210.077111330337
 31
0.0
  0
LINE
  5
99B
330
1F
100
AcDbEntity
  8
0
100
AcDbLine
 10
172.1243408888535
 20
208.2071259893901
 30
0.0
 11
172.6243408888535
 21
208.2071259893901
 31
0.0
  0
LINE
  5
99C
330
1F
100
AcDbEntity
  8
0
100
AcDbLine
 10
172.1243408888535
 20
207.7071259893902
 30
0.0
 11
172.6243408888535
 21
207.7071259893902
 31
0.0
  0
LINE
  5
99D
330
1F
100
AcDbEntity
  8
0
100
AcDbLine
 10
172.1243408888535
 20
208.2071259893901
 30
0.0
 11
172.1243408888535
 21
207.7071259893902
 31
0.0
  0
LINE
  5
99E
330
1F
100
AcDbEntity
  8
0
100
AcDbLine
 10
172.6243408888535
 20
207.7071259893902
 30
0.0
 11
172.6243408888535
 21
208.2071259893901
 31
0.0
  0
LINE
  5
99F
330
1F
100
AcDbEntity
  8
0
100
AcDbLine
 10
172.4643408888537
 20
208.0471779893899
 30
0.0
 11
172.4643408888537
 21
207.8670739893897
 31
0.0
  0
LINE
  5
9A0
330
1F
100
AcDbEntity
  8
0
100
AcDbLine
 10
172.2843408888536
 20
208.0471779893899
 30
0.0
 11
172.2843408888536
 21
207.8670739893897
 31
0.0
  0
LINE
  5
9A1
330
1F
100
AcDbEntity
  8
0
100
AcDbLine
 10
172.4643408888537
 20
208.0471779893899
 30
0.0
 11
172.3743408888535
 21
208.0471779893899
 31
0.0
  0
LINE
  5
9A2
330
1F
100
AcDbEntity
  8
0
100
AcDbLine
 10
172.2843408888536
 20
208.0471779893899
 30
0.0
 11
172.3743408888535
 21
208.0471779893899
 31
0.0
  0
LINE
  5
9A3
330
1F
100
AcDbEntity
  8
0
100
AcDbLine
 10
172.4643408888537
 20
207.8670739893897
 30
0.0
 11
172.3743408888535
 21
207.8670739893897
 31
0.0
  0
LINE
  5
9A4
330
1F
100
AcDbEntity
  8
0
100
AcDbLine
 10
172.4643408888537
 20
207.8670739893897
 30
0.0
 11
172.3743408888535
 21
207.8670739893897
 31
0.0
  0
LINE
  5
9A5
330
1F
100
AcDbEntity
  8
0
100
AcDbLine
 10
172.2843408888536
 20
207.8670739893897
 30
0.0
 11
172.3743408888535
 21
207.8670739893897
 31
0.0
  0
LINE
  5
9A6
330
1F
100
AcDbEntity
  8
0
100
AcDbLine
 10
172.2843408888536
 20
207.8670739893897
 30
0.0
 11
172.3743408888535
 21
207.8670739893897
 31
0.0
  0
LINE
  5
9A7
330
1F
100
AcDbEntity
  8
0
100
AcDbLine
 10
170.1243408888535
 20
208.2071259893901
 30
0.0
 11
170.1243408888535
 21
207.7071259893902
 31
0.0
  0
LINE
  5
9A8
330
1F
100
AcDbEntity
  8
0
100
AcDbLine
 10
170.6243408888535
 20
207.7071259893902
 30
0.0
 11
170.6243408888535
 21
208.2071259893901
 31
0.0
  0
LINE
  5
9A9
330
1F
100
AcDbEntity
  8
0
100
AcDbLine
 10
170.2843408888536
 20
208.0471779893899
 30
0.0
 11
170.2843408888536
 21
207.8670739893897
 31
0.0
  0
LINE
  5
9AA
330
1F
100
AcDbEntity
  8
0
100
AcDbLine
 10
170.4643408888537
 20
208.0471779893899
 30
0.0
 11
170.4643408888537
 21
207.8670739893897
 31
0.0
  0
LINE
  5
9AB
330
1F
100
AcDbEntity
  8
0
100
AcDbLine
 10
170.2843408888536
 20
208.0471779893899
 30
0.0
 11
170.3743408888535
 21
208.0471779893899
 31
0.0
  0
LINE
  5
9AC
330
1F
100
AcDbEntity
  8
0
100
AcDbLine
 10
170.4643408888537
 20
208.0471779893899
 30
0.0
 11
170.3743408888535
 21
208.0471779893899
 31
0.0
  0
LINE
  5
9AD
330
1F
100
AcDbEntity
  8
0
100
AcDbLine
 10
170.1243408888535
 20
208.2071259893901
 30
0.0
 11
170.6243408888535
 21
208.2071259893901
 31
0.0
  0
LINE
  5
9AE
330
1F
100
AcDbEntity
  8
0
100
AcDbLine
 10
170.2843408888536
 20
207.8670739893897
 30
0.0
 11
170.3743408888535
 21
207.8670739893897
 31
0.0
  0
LINE
  5
9AF
330
1F
100
AcDbEntity
  8
0
100
AcDbLine
 10
170.2843408888536
 20
207.8670739893897
 30
0.0
 11
170.3743408888535
 21
207.8670739893897
 31
0.0
  0
LINE
  5
9B0
330
1F
100
AcDbEntity
  8
0
100
AcDbLine
 10
170.4643408888537
 20
207.8670739893897
 30
0.0
 11
170.3743408888535
 21
207.8670739893897
 31
0.0
  0
LINE
  5
9B1
330
1F
100
AcDbEntity
  8
0
100
AcDbLine
 10
170.4643408888537
 20
207.8670739893897
 30
0.0
 11
170.3743408888535
 21
207.8670739893897
 31
0.0
  0
LINE
  5
9B2
330
1F
100
AcDbEntity
  8
0
100
AcDbLine
 10
170.1243408888535
 20
207.7071259893902
 30
0.0
 11
170.6243408888535
 21
207.7071259893902
 31
0.0
  0
LINE
  5
9B3
330
1F
100
AcDbEntity
  8
0
100
AcDbLine
 10
167.1356878888536
 20
219.7506729893899
 30
0.0
 11
167.5730428888537
 21
219.3693009893901
 31
0.0
  0
LINE
  5
9B4
330
1F
100
AcDbEntity
  8
0
100
AcDbLine
 10
167.5735598888536
 20
220.20938698939
 30
0.0
 11
168.1661168888535
 21
220.20938698939
 31
0.0
  0
LINE
  5
9B5
330
1F
100
AcDbEntity
  8
0
100
AcDbLine
 10
167.5735598888536
 20
221.1903779893901
 30
0.0
 11
167.5735598888536
 21
220.20938698939
 31
0.0
  0
LINE
  5
9B6
330
1F
100
AcDbEntity
  8
0
100
AcDbLine
 10
168.1661168888535
 20
221.1903779893901
 30
0.0
 11
167.5735598888536
 21
221.1903779893901
 31
0.0
  0
LINE
  5
9B7
330
1F
100
AcDbEntity
  8
0
100
AcDbLine
 10
168.1661168888535
 20
220.20938698939
 30
0.0
 11
168.1661168888535
 21
221.1903779893901
 31
0.0
  0
LINE
  5
9B8
330
1F
100
AcDbEntity
  8
0
100
AcDbLine
 10
167.1356878888536
 20
220.20938698939
 30
0.0
 11
168.6036438888536
 21
220.20938698939
 31
0.0
  0
LINE
  5
9B9
330
1F
100
AcDbEntity
  8
0
100
AcDbLine
 10
168.6036438888536
 20
219.7506729893899
 30
0.0
 11
168.1661168888535
 21
219.3693009893901
 31
0.0
  0
LINE
  5
9BA
330
1F
100
AcDbEntity
  8
0
100
AcDbLine
 10
168.8857968888537
 20
220.2446989893898
 30
0.0
 11
169.3233238888538
 21
219.8636719893899
 31
0.0
  0
LINE
  5
9BB
330
1F
100
AcDbEntity
  8
0
100
AcDbLine
 10
170.3537518888538
 20
220.2446989893898
 30
0.0
 11
169.9158808888537
 21
219.8636719893899
 31
0.0
  0
LINE
  5
9BC
330
1F
100
AcDbEntity
  8
0
100
AcDbLine
 10
169.9158808888537
 20
218.8825089893899
 30
0.0
 11
169.3233238888538
 21
218.8825089893899
 31
0.0
  0
LINE
  5
9BD
330
1F
100
AcDbEntity
  8
0
100
AcDbLine
 10
169.9158808888537
 20
219.8636719893899
 30
0.0
 11
169.9158808888537
 21
218.8825089893899
 31
0.0
  0
LINE
  5
9BE
330
1F
100
AcDbEntity
  8
0
100
AcDbLine
 10
169.3233238888538
 20
219.8636719893899
 30
0.0
 11
169.9158808888537
 21
219.8636719893899
 31
0.0
  0
LINE
  5
9BF
330
1F
100
AcDbEntity
  8
0
100
AcDbLine
 10
169.3233238888538
 20
218.8825089893899
 30
0.0
 11
169.3233238888538
 21
219.8636719893899
 31
0.0
  0
LINE
  5
9C0
330
1F
100
AcDbEntity
  8
0
100
AcDbLine
 10
170.3537518888538
 20
218.8825089893899
 30
0.0
 11
168.8857968888537
 21
218.8825089893899
 31
0.0
  0
LINE
  5
9C1
330
1F
100
AcDbEntity
  8
0
100
AcDbLine
 10
170.3537518888538
 20
220.2446989893898
 30
0.0
 11
170.3537518888538
 21
218.8825089893899
 31
0.0
  0
LINE
  5
9C2
330
1F
100
AcDbEntity
  8
0
100
AcDbLine
 10
168.8857968888537
 20
220.2446989893898
 30
0.0
 11
170.3537518888538
 21
220.2446989893898
 31
0.0
  0
LINE
  5
9C3
330
1F
100
AcDbEntity
  8
0
100
AcDbLine
 10
168.8857968888537
 20
218.8825089893899
 30
0.0
 11
168.8857968888537
 21
220.2446989893898
 31
0.0
  0
LINE
  5
9C4
330
1F
100
AcDbEntity
  8
0
100
AcDbLine
 10
168.8857968888537
 20
217.0548849893902
 30
0.0
 11
169.3233238888538
 21
217.4357409893899
 31
0.0
  0
LINE
  5
9C5
330
1F
100
AcDbEntity
  8
0
100
AcDbLine
 10
170.3537518888538
 20
217.0548849893902
 30
0.0
 11
169.9158808888537
 21
217.4357409893899
 31
0.0
  0
LINE
  5
9C6
330
1F
100
AcDbEntity
  8
0
100
AcDbLine
 10
167.1356878888536
 20
215.6644449893898
 30
0.0
 11
168.6036438888536
 21
215.6644449893898
 31
0.0
  0
LINE
  5
9C7
330
1F
100
AcDbEntity
  8
0
100
AcDbLine
 10
167.1356878888536
 20
217.02663598939
 30
0.0
 11
167.1356878888536
 21
215.6644449893898
 31
0.0
  0
LINE
  5
9C8
330
1F
100
AcDbEntity
  8
0
100
AcDbLine
 10
168.6036438888536
 20
217.02663598939
 30
0.0
 11
167.1356878888536
 21
217.02663598939
 31
0.0
  0
LINE
  5
9C9
330
1F
100
AcDbEntity
  8
0
100
AcDbLine
 10
168.6036438888536
 20
215.6644449893898
 30
0.0
 11
168.6036438888536
 21
217.02663598939
 31
0.0
  0
LINE
  5
9CA
330
1F
100
AcDbEntity
  8
0
100
AcDbLine
 10
169.3233238888538
 20
217.4357409893899
 30
0.0
 11
169.9158808888537
 21
217.4357409893899
 31
0.0
  0
LINE
  5
9CB
330
1F
100
AcDbEntity
  8
0
100
AcDbLine
 10
169.3233238888538
 20
218.4169039893898
 30
0.0
 11
169.3233238888538
 21
217.4357409893899
 31
0.0
  0
LINE
  5
9CC
330
1F
100
AcDbEntity
  8
0
100
AcDbLine
 10
169.9158808888537
 20
218.4169039893898
 30
0.0
 11
169.3233238888538
 21
218.4169039893898
 31
0.0
  0
LINE
  5
9CD
330
1F
100
AcDbEntity
  8
0
100
AcDbLine
 10
169.9158808888537
 20
217.4357409893899
 30
0.0
 11
169.9158808888537
 21
218.4169039893898
 31
0.0
  0
LINE
  5
9CE
330
1F
100
AcDbEntity
  8
0
100
AcDbLine
 10
168.8857968888537
 20
217.0548849893902
 30
0.0
 11
170.3537518888538
 21
217.0548849893902
 31
0.0
  0
LINE
  5
9CF
330
1F
100
AcDbEntity
  8
0
100
AcDbLine
 10
168.8857968888537
 20
218.4169039893898
 30
0.0
 11
168.8857968888537
 21
217.0548849893902
 31
0.0
  0
LINE
  5
9D0
330
1F
100
AcDbEntity
  8
0
100
AcDbLine
 10
170.3537518888538
 20
218.4169039893898
 30
0.0
 11
168.8857968888537
 21
218.4169039893898
 31
0.0
  0
LINE
  5
9D1
330
1F
100
AcDbEntity
  8
0
100
AcDbLine
 10
170.3537518888538
 20
217.0548849893902
 30
0.0
 11
170.3537518888538
 21
218.4169039893898
 31
0.0
  0
LINE
  5
9D2
330
1F
100
AcDbEntity
  8
0
100
AcDbLine
 10
167.1356878888536
 20
215.6644449893898
 30
0.0
 11
167.5730428888537
 21
216.0454719893897
 31
0.0
  0
LINE
  5
9D3
330
1F
100
AcDbEntity
  8
0
100
AcDbLine
 10
168.6036438888536
 20
215.6644449893898
 30
0.0
 11
168.1657718888536
 21
216.0454719893897
 31
0.0
  0
LINE
  5
9D4
330
1F
100
AcDbEntity
  8
0
100
AcDbLine
 10
167.5730428888537
 20
216.0454719893897
 30
0.0
 11
168.1657718888536
 21
216.0454719893897
 31
0.0
  0
LINE
  5
9D5
330
1F
100
AcDbEntity
  8
0
100
AcDbLine
 10
167.5730428888537
 20
217.02663598939
 30
0.0
 11
167.5730428888537
 21
216.0454719893897
 31
0.0
  0
LINE
  5
9D6
330
1F
100
AcDbEntity
  8
0
100
AcDbLine
 10
168.1657718888536
 20
217.02663598939
 30
0.0
 11
167.5730428888537
 21
217.02663598939
 31
0.0
  0
LINE
  5
9D7
330
1F
100
AcDbEntity
  8
0
100
AcDbLine
 10
168.1657718888536
 20
216.0454719893897
 30
0.0
 11
168.1657718888536
 21
217.02663598939
 31
0.0
  0
LINE
  5
9D8
330
1F
100
AcDbEntity
  8
0
100
AcDbLine
 10
167.5735598888536
 20
218.3886539893898
 30
0.0
 11
168.1661168888535
 21
218.3886539893898
 31
0.0
  0
LINE
  5
9D9
330
1F
100
AcDbEntity
  8
0
100
AcDbLine
 10
167.5735598888536
 20
219.3696449893899
 30
0.0
 11
167.5735598888536
 21
218.3886539893898
 31
0.0
  0
LINE
  5
9DA
330
1F
100
AcDbEntity
  8
0
100
AcDbLine
 10
168.1661168888535
 20
219.3696449893899
 30
0.0
 11
167.5735598888536
 21
219.3696449893899
 31
0.0
  0
LINE
  5
9DB
330
1F
100
AcDbEntity
  8
0
100
AcDbLine
 10
168.1661168888535
 20
218.3886539893898
 30
0.0
 11
168.1661168888535
 21
219.3696449893899
 31
0.0
  0
LINE
  5
9DC
330
1F
100
AcDbEntity
  8
0
100
AcDbLine
 10
167.1356878888536
 20
218.3886539893898
 30
0.0
 11
168.6036438888536
 21
218.3886539893898
 31
0.0
  0
LINE
  5
9DD
330
1F
100
AcDbEntity
  8
0
100
AcDbLine
 10
167.1356878888536
 20
219.7506729893899
 30
0.0
 11
167.1356878888536
 21
218.3886539893898
 31
0.0
  0
LINE
  5
9DE
330
1F
100
AcDbEntity
  8
0
100
AcDbLine
 10
168.6036438888536
 20
219.7506729893899
 30
0.0
 11
167.1356878888536
 21
219.7506729893899
 31
0.0
  0
LINE
  5
9DF
330
1F
100
AcDbEntity
  8
0
100
AcDbLine
 10
168.6036438888536
 20
218.3886539893898
 30
0.0
 11
168.6036438888536
 21
219.7506729893899
 31
0.0
  0
LINE
  5
9E0
330
1F
100
AcDbEntity
  8
0
100
AcDbLine
 10
168.6036438888536
 20
221.5714059893897
 30
0.0
 11
168.1661168888535
 21
221.1900339893899
 31
0.0
  0
LINE
  5
9E1
330
1F
100
AcDbEntity
  8
0
100
AcDbLine
 10
167.1356878888536
 20
221.5714059893897
 30
0.0
 11
167.5730428888537
 21
221.1900339893899
 31
0.0
  0
LINE
  5
9E2
330
1F
100
AcDbEntity
  8
0
100
AcDbLine
 10
167.1356878888536
 20
221.5714059893897
 30
0.0
 11
167.1356878888536
 21
220.20938698939
 31
0.0
  0
LINE
  5
9E3
330
1F
100
AcDbEntity
  8
0
100
AcDbLine
 10
168.6036438888536
 20
220.20938698939
 30
0.0
 11
168.6036438888536
 21
221.5714059893897
 31
0.0
  0
LINE
  5
9E4
330
1F
100
AcDbEntity
  8
0
100
AcDbLine
 10
168.6036438888536
 20
221.5714059893897
 30
0.0
 11
167.1356878888536
 21
221.5714059893897
 31
0.0
  0
LINE
  5
9E5
330
1F
100
AcDbEntity
  8
0
100
AcDbLine
 10
166.8743408888535
 20
226.40712598939
 30
0.0
 11
173.8743408888535
 21
226.40712598939
 31
0.0
  0
LINE
  5
9E6
330
1F
100
AcDbEntity
  8
0
100
AcDbLine
 10
166.8743408888535
 20
231.4071259893899
 30
0.0
 11
173.8743408888535
 21
231.4071259893899
 31
0.0
  0
LINE
  5
9E7
330
1F
100
AcDbEntity
  8
0
100
AcDbLine
 10
161.0743408888538
 20
225.65712598939
 30
0.0
 11
173.8743408888535
 21
225.65712598939
 31
0.0
  0
LINE
  5
9E8
330
1F
100
AcDbEntity
  8
0
100
AcDbLine
 10
166.2243408888534
 20
232.3571259893902
 30
0.0
 11
173.6243408888535
 21
232.35712598939
 31
0.0
  0
LINE
  5
9EA
330
1F
100
AcDbEntity
  8
0
100
AcDbLine
 10
166.2243408888534
 20
232.35712598939
 30
0.0
 11
173.6243408888535
 21
232.35712598939
 31
0.0
  0
CIRCLE
  5
9ED
330
1F
100
AcDbEntity
  8
0
100
AcDbCircle
 10
169.9243408888537
 20
236.10712598939
 30
0.0
 40
3.7
  0
CIRCLE
  5
9EE
330
1F
100
AcDbEntity
  8
0
100
AcDbCircle
 10
169.9243408888537
 20
236.10712598939
 30
0.0
 40
3.7
  0
ARC
  5
9EF
330
1F
100
AcDbEntity
  8
0
100
AcDbCircle
 10
169.9243408888537
 20
236.10712598939
 30
0.0
 40
3.699999999999931
100
AcDbArc
 50
0.0
 51
180.0
  0
LINE
  5
9F0
330
1F
100
AcDbEntity
  8
0
100
AcDbLine
 10
166.8743408888535
 20
226.40712598939
 30
0.0
 11
166.8743408888535
 21
231.4071259893899
 31
0.0
  0
LINE
  5
9F1
330
1F
100
AcDbEntity
  8
0
100
AcDbLine
 10
160.5743408888538
 20
226.13313898939
 30
0.0
 11
166.2243408888537
 21
226.13313898939
 31
0.0
  0
LINE
  5
9F2
330
1F
100
AcDbEntity
  8
0
100
AcDbLine
 10
166.2243408888537
 20
226.13313898939
 30
0.0
 11
166.2243408888537
 21
231.4071259893899
 31
0.0
  0
LINE
  5
9F3
330
1F
100
AcDbEntity
  8
0
100
AcDbLine
 10
166.2243408888537
 20
236.10712598939
 30
0.0
 11
166.2243408888537
 21
231.4071259893899
 31
0.0
  0
LINE
  5
9F4
330
1F
100
AcDbEntity
  8
0
100
AcDbLine
 10
169.2951758888536
 20
230.40712598939
 30
0.0
 11
169.2951758888536
 21
227.40712598939
 31
0.0
  0
LINE
  5
9F5
330
1F
100
AcDbEntity
  8
0
100
AcDbLine
 10
171.2600978888535
 20
230.40712598939
 30
0.0
 11
171.2600978888535
 21
227.40712598939
 31
0.0
  0
LINE
  5
9F6
330
1F
100
AcDbEntity
  8
0
100
AcDbLine
 10
169.2951758888536
 20
230.40712598939
 30
0.0
 11
171.2600978888535
 21
230.40712598939
 31
0.0
  0
LINE
  5
9F7
330
1F
100
AcDbEntity
  8
0
100
AcDbLine
 10
169.2951758888536
 20
227.40712598939
 30
0.0
 11
171.2600978888535
 21
227.40712598939
 31
0.0
  0
LINE
  5
9F8
330
1F
100
AcDbEntity
  8
0
100
AcDbLine
 10
173.8743408888535
 20
231.4071259893899
 30
0.0
 11
173.8743408888535
 21
226.40712598939
 31
0.0
  0
LINE
  5
9F9
330
1F
100
AcDbEntity
  8
0
100
AcDbLine
 10
168.8924118888537
 20
235.94607498939
 30
0.0
 11
171.7259468888537
 21
235.94607498939
 31
0.0
  0
LINE
  5
9FA
330
1F
100
AcDbEntity
  8
0
100
AcDbLine
 10
168.0169038888539
 20
236.10712598939
 30
0.0
 11
168.8924118888537
 21
235.5269359893899
 31
0.0
  0
LINE
  5
9FB
330
1F
100
AcDbEntity
  8
0
100
AcDbLine
 10
168.8924118888537
 20
235.94607498939
 30
0.0
 11
168.8924118888537
 21
235.5269359893899
 31
0.0
  0
LINE
  5
9FC
330
1F
100
AcDbEntity
  8
0
100
AcDbLine
 10
173.6243408888535
 20
231.8071259893901
 30
0.0
 11
174.3743408888535
 21
231.8071259893901
 31
0.0
  0
LINE
  5
9FD
330
1F
100
AcDbEntity
  8
0
100
AcDbLine
 10
173.4743408888537
 20
235.1172611850119
 30
0.0
 11
173.4743408888537
 21
232.35712598939
 31
0.0
  0
LINE
  5
9FE
330
1F
100
AcDbEntity
  8
0
100
AcDbLine
 10
173.6243408888535
 20
233.2671259893901
 30
0.0
 11
173.4743408888537
 21
233.2671259893901
 31
0.0
  0
LINE
  5
9FF
330
1F
100
AcDbEntity
  8
0
100
AcDbLine
 10
173.6243408888535
 20
233.8671259893903
 30
0.0
 11
173.4743408888537
 21
233.86712598939
 31
0.0
  0
LINE
  5
A05
330
1F
100
AcDbEntity
  8
0
100
AcDbLine
 10
168.0169038564995
 20
236.10712598939
 30
0.0
 11
168.8924123490082
 21
235.5269359571642
 31
0.0
  0
LINE
  5
A06
330
1F
100
AcDbEntity
  8
0
100
AcDbLine
 10
168.8924123490082
 20
235.9460755132271
 30
0.0
 11
168.8924123490082
 21
235.5269359571642
 31
0.0
  0
LINE
  5
A08
330
1F
100
AcDbEntity
  8
0
100
AcDbLine
 10
168.8924123490082
 20
235.9460755132271
 30
0.0
 11
171.7259467970429
 21
235.9460755132271
 31
0.0
  0
LINE
  5
A09
330
1F
100
AcDbEntity
  8
0
100
AcDbLine
 10
173.6243408888537
 20
236.10712598939
 30
0.0
 11
173.6243408888535
 21
231.8071259893901
 31
0.0
  0
LINE
  5
A10
330
1F
100
AcDbEntity
  8
0
100
AcDbLine
 10
171.7259467970429
 20
236.2681764655493
 30
0.0
 11
171.7259467970429
 21
235.9460755132271
 31
0.0
  0
LINE
  5
A11
330
1F
100
AcDbEntity
  8
0
100
AcDbLine
 10
168.8924123490082
 20
236.6873160216158
 30
0.0
 11
168.8924123490082
 21
236.2681764655493
 31
0.0
  0
LINE
  5
A12
330
1F
100
AcDbEntity
  8
0
100
AcDbLine
 10
168.0169038564995
 20
236.10712598939
 30
0.0
 11
168.8924123490082
 21
236.6873160216158
 31
0.0
  0
LINE
  5
A13
330
1F
100
AcDbEntity
  8
0
100
AcDbLine
 10
168.8924123490082
 20
236.2681764655493
 30
0.0
 11
171.7259467970429
 21
236.2681764655493
 31
0.0
  0
CIRCLE
  5
A15
330
1F
100
AcDbEntity
  8
0
100
AcDbCircle
 10
169.9243408888537
 20
236.10712598939
 30
0.0
 40
1.907437032355005
  0
LINE
  5
A16
330
1F
100
AcDbEntity
  8
0
100
AcDbLine
 10
168.8924118888537
 20
236.2681759893902
 30
0.0
 11
171.7259468888537
 21
236.2681759893902
 31
0.0
  0
LINE
  5
A17
330
1F
100
AcDbEntity
  8
0
100
AcDbLine
 10
168.8924118888537
 20
236.6873159893899
 30
0.0
 11
168.8924118888537
 21
236.2681759893902
 31
0.0
  0
LINE
  5
A18
330
1F
100
AcDbEntity
  8
0
100
AcDbLine
 10
168.0169038888539
 20
236.10712598939
 30
0.0
 11
168.8924118888537
 21
236.6873159893899
 31
0.0
  0
LINE
  5
A19
330
1F
100
AcDbEntity
  8
0
100
AcDbLine
 10
171.7259468888537
 20
236.2681759893902
 30
0.0
 11
171.7259468888537
 21
235.94607498939
 31
0.0
  0
LINE
  5
A1A
330
1F
100
AcDbEntity
  8
0
100
AcDbLine
 10
175.4743408888539
 20
286.3881379893897
 30
0.0
 11
175.4743408888539
 21
284.7881379893898
 31
0.0
  0
LINE
  5
A1B
330
1F
100
AcDbEntity
  8
0
100
AcDbLine
 10
175.2743408888538
 20
284.2331389893901
 30
0.0
 11
176.874340888854
 21
284.2331389893901
 31
0.0
  0
LINE
  5
A1C
330
1F
100
AcDbEntity
  8
0
100
AcDbLine
 10
175.4743408888539
 20
286.3881379893897
 30
0.0
 11
176.5743408888538
 21
286.3881379893897
 31
0.0
  0
LINE
  5
A1D
330
1F
100
AcDbEntity
  8
0
100
AcDbLine
 10
175.4743408888539
 20
286.3881379893897
 30
0.0
 11
176.5743408888538
 21
286.3881379893897
 31
0.0
  0
LINE
  5
A1E
330
1F
100
AcDbEntity
  8
0
100
AcDbLine
 10
175.4743408888539
 20
284.7881379893898
 30
0.0
 11
176.5743408888538
 21
284.7881379893898
 31
0.0
  0
LINE
  5
A1F
330
1F
100
AcDbEntity
  8
0
100
AcDbLine
 10
175.4743408888539
 20
284.7881379893898
 30
0.0
 11
176.5743408888538
 21
284.7881379893898
 31
0.0
  0
LINE
  5
A20
330
1F
100
AcDbEntity
  8
0
100
AcDbLine
 10
176.5743408888538
 20
284.7881379893898
 30
0.0
 11
176.5743408888538
 21
286.3881379893897
 31
0.0
  0
LINE
  5
A21
330
1F
100
AcDbEntity
  8
0
100
AcDbLine
 10
176.5743408888538
 20
284.7881379893898
 30
0.0
 11
176.5743408888538
 21
286.3881379893897
 31
0.0
  0
LINE
  5
A22
330
1F
100
AcDbEntity
  8
0
100
AcDbLine
 10
176.5743408888538
 20
284.7881379893898
 30
0.0
 11
176.5743408888538
 21
286.3881379893897
 31
0.0
  0
LINE
  5
A23
330
1F
100
AcDbEntity
  8
0
100
AcDbLine
 10
175.2743408888538
 20
286.9331389893901
 30
0.0
 11
176.874340888854
 21
286.9331389893901
 31
0.0
  0
LINE
  5
A24
330
1F
100
AcDbEntity
  8
0
100
AcDbLine
 10
175.2743408888538
 20
286.9331389893901
 30
0.0
 11
175.2743408888538
 21
284.2331389893901
 31
0.0
  0
LINE
  5
A25
330
1F
100
AcDbEntity
  8
0
100
AcDbLine
 10
176.874340888854
 20
284.2331389893901
 30
0.0
 11
176.874340888854
 21
286.9331389893901
 31
0.0
  0
LINE
  5
A26
330
1F
100
AcDbEntity
  8
外枠
100
AcDbLine
 10
168.8743408888535
 20
210.077111330337
 30
0.0
 11
173.8743408888535
 21
210.077111330337
 31
0.0
  0
LINE
  5
A27
330
1F
100
AcDbEntity
  8
0
100
AcDbLine
 10
168.8743408888535
 20
192.1771113303371
 30
0.0
 11
173.8743408888535
 21
192.1771113303371
 31
0.0
  0
LINE
  5
A28
330
1F
100
AcDbEntity
  8
外枠
100
AcDbLine
 10
168.8743408888535
 20
192.1771113303371
 30
0.0
 11
173.8743408888535
 21
192.1771113303371
 31
0.0
  0
LINE
  5
A29
330
1F
100
AcDbEntity
  8
外枠
100
AcDbLine
 10
173.8743408888535
 20
174.303137989389
 30
0.0
 11
173.8743408888535
 21
143.83313898939
 31
0.0
  0
LINE
  5
A2A
330
1F
100
AcDbEntity
  8
外枠
100
AcDbLine
 10
173.8743408888535
 20
184.5031379893879
 30
0.0
 11
173.8743408888535
 21
185.2531379893897
 31
0.0
  0
LINE
  5
A2B
330
1F
100
AcDbEntity
  8
外枠
100
AcDbLine
 10
173.8743408888535
 20
190.2531379893897
 30
0.0
 11
173.8743408888535
 21
192.1771113303371
 31
0.0
  0
LINE
  5
A2C
330
1F
100
AcDbEntity
  8
外枠
100
AcDbLine
 10
173.8743408888535
 20
210.077111330337
 30
0.0
 11
173.8743408888535
 21
211.65712598939
 31
0.0
  0
LINE
  5
A2D
330
1F
100
AcDbEntity
  8
外枠
100
AcDbLine
 10
173.8743408888535
 20
225.65712598939
 30
0.0
 11
173.8743408888535
 21
226.40712598939
 31
0.0
  0
LINE
  5
A2E
330
1F
100
AcDbEntity
  8
外枠
100
AcDbLine
 10
173.8743408888535
 20
231.4071259893899
 30
0.0
 11
173.8743408888535
 21
231.8071259893901
 31
0.0
  0
LINE
  5
A2F
330
1F
100
AcDbEntity
  8
0
 62
     0
100
AcDbLine
 10
169.9743842888567
 20
244.5114439518348
 30
0.0
 11
169.9743842888606
 21
276.8114475518324
 31
0.0
  0
LWPOLYLINE
  5
A30
330
1F
100
AcDbEntity
  8
0
 62
     0
100
AcDbPolyline
 90
        4
 70
     0
 43
0.0
 38
6.483974233579617E+99
 10
168.3043842888566
 20
253.5418379463973
 42
0.0023806128275623
 10
168.45436687813
 20
253.4838346956804
 10
168.5288775923675
 20
253.4556072618198
 10
168.6043842888577
 20
253.4273798289797
  0
LWPOLYLINE
  5
A31
330
1F
100
AcDbEntity
  8
0
 62
     0
100
AcDbPolyline
 90
        4
 70
     0
 43
0.0
 38
6.483974233579617E+99
 10
168.6043842888577
 20
257.7355116746876
 42
0.0021758545420031
 10
168.4543668780408
 20
257.6790568079524
 10
168.3786020060144
 20
257.6499593117915
 10
168.3043842888566
 20
257.62105355727
  0
LWPOLYLINE
  5
A32
330
1F
100
AcDbEntity
  8
0
 62
     0
100
AcDbPolyline
 90
        4
 70
     0
 43
0.0
 38
6.483974233579617E+99
 10
168.3043842888566
 20
248.4618379463956
 42
0.0023727238869481
 10
168.4543668780408
 20
248.403834695715
 10
168.5291698899657
 20
248.3754972666212
 10
168.6043842888577
 20
248.3473798289797
  0
LWPOLYLINE
  5
A33
330
1F
100
AcDbEntity
  8
0
 62
     0
100
AcDbPolyline
 90
        4
 70
     0
 43
0.0
 38
6.483974233579617E+99
 10
168.3043842888566
 20
268.781837946397
 42
0.0023806128392038
 10
168.45436687813
 20
268.723834695682
 10
168.5288775923656
 20
268.6956072618214
 10
168.6043842888577
 20
268.6673798289795
  0
LWPOLYLINE
  5
A34
330
1F
100
AcDbEntity
  8
0
 62
     0
100
AcDbPolyline
 90
        4
 70
     0
 43
0.0
 38
6.483974233579617E+99
 10
168.6043842888577
 20
272.9755116746874
 42
0.0021758545422339
 10
168.4543668780408
 20
272.9190568079522
 10
168.3786020615682
 20
272.8899593332772
 10
168.3043842888566
 20
272.8610535572717
  0
LWPOLYLINE
  5
A35
330
1F
100
AcDbEntity
  8
0
 62
     0
100
AcDbPolyline
 90
        4
 70
     0
 43
0.0
 38
6.483974233579617E+99
 10
168.6043842888577
 20
267.8955116746875
 42
0.002175854542198
 10
168.4543668780408
 20
267.8390568079522
 10
168.3788498984615
 20
267.8100551822591
 10
168.3043842888566
 20
267.7810535572699
  0
LWPOLYLINE
  5
A36
330
1F
100
AcDbEntity
  8
0
 62
     0
100
AcDbPolyline
 90
        4
 70
     0
 43
0.0
 38
6.483974233579617E+99
 10
168.3043842888566
 20
263.7018379463971
 42
0.0023806133042224
 10
168.45436687813
 20
263.6438346956803
 10
168.5288775923656
 20
263.6156072618215
 10
168.6043842888577
 20
263.5873798289813
  0
LWPOLYLINE
  5
A37
330
1F
100
AcDbEntity
  8
0
 62
     0
100
AcDbPolyline
 90
        4
 70
     0
 43
0.0
 38
6.483974233579617E+99
 10
168.6043842888577
 20
262.8155116746876
 42
0.0021842864522573
 10
168.4543668780408
 20
262.7590568079523
 10
168.3786019992987
 20
262.7299593091939
 10
168.3043842888566
 20
262.7010535572718
  0
LWPOLYLINE
  5
A38
330
1F
100
AcDbEntity
  8
0
 62
     0
100
AcDbPolyline
 90
        4
 70
     0
 43
0.0
 38
6.483974233579617E+99
 10
168.3043842888566
 20
258.6218379463972
 42
0.0023727238881048
 10
168.45436687813
 20
258.5638346956822
 10
168.5288775923656
 20
258.5356072618216
 10
168.6043842888577
 20
258.5073798289796
  0
LINE
  5
A39
330
1F
100
AcDbEntity
  8
0
 62
     0
100
AcDbLine
 10
169.9743842888567
 20
261.3614457518325
 30
0.0
 11
169.9743842888567
 21
262.1614457518336
 31
0.0
  0
LINE
  5
A3A
330
1F
100
AcDbEntity
  8
0
 62
     0
100
AcDbLine
 10
161.4012229843103
 20
261.2664457518332
 30
0.0
 11
161.8743842888582
 21
261.636445751834
 31
0.0
  0
LINE
  5
A3B
330
1F
100
AcDbEntity
  8
0
 62
     0
100
AcDbLine
 10
162.6993842888571
 20
261.636445751834
 30
0.0
 11
163.0109914317147
 21
261.305456932616
 31
0.0
  0
LINE
  5
A3C
330
1F
100
AcDbEntity
  8
0
 62
     0
100
AcDbLine
 10
163.0109914317147
 20
261.305456932616
 30
0.0
 11
163.0109914317147
 21
265.0974345710511
 31
0.0
  0
ARC
  5
A3D
330
1F
100
AcDbEntity
  8
0
 62
     0
100
AcDbCircle
 10
166.1043842888577
 20
260.6614457518336
 30
0.0
 40
3.299999999999366
100
AcDbArc
 50
319.25094562257
 51
40.74905437742993
  0
ARC
  5
A3E
330
1F
100
AcDbEntity
  8
0
 62
     0
100
AcDbCircle
 10
166.1043842888577
 20
260.6614457518336
 30
0.0
 40
2.999999999999353
100
AcDbArc
 50
317.1665719339523
 51
42.83342806604767
  0
CIRCLE
  5
A3F
330
1F
100
AcDbEntity
  8
0
 62
     0
100
AcDbCircle
 10
166.1043842888577
 20
260.6614457518336
 30
0.0
 40
1.40000000000061
  0
LINE
  5
A40
330
1F
100
AcDbEntity
  8
0
 62
     0
100
AcDbLine
 10
161.3743842888582
 20
246.9614457518347
 30
0.0
 11
161.3743842888584
 21
274.3614457518325
 31
0.0
  0
LINE
  5
A41
330
1F
100
AcDbEntity
  8
0
 62
     0
100
AcDbLine
 10
169.9743842888567
 20
254.881445751833
 30
0.0
 11
169.9743842888567
 21
256.2814457518344
 31
0.0
  0
LINE
  5
A42
330
1F
100
AcDbEntity
  8
0
 62
     0
100
AcDbLine
 10
169.9743842888567
 20
256.2814457518344
 30
0.0
 11
169.9743842888567
 21
257.0814457518337
 31
0.0
  0
LINE
  5
A43
330
1F
100
AcDbEntity
  8
0
 62
     0
100
AcDbLine
 10
169.9743842888567
 20
259.1614457518336
 30
0.0
 11
169.9743842888567
 21
259.9614457518347
 31
0.0
  0
LINE
  5
A44
330
1F
100
AcDbEntity
  8
0
 62
     0
100
AcDbLine
 10
169.9743842888567
 20
257.0814457518337
 30
0.0
 11
169.9743842888567
 21
259.1614457518336
 31
0.0
  0
LINE
  5
A45
330
1F
100
AcDbEntity
  8
0
 62
     0
100
AcDbLine
 10
169.9743842888567
 20
259.9614457518347
 30
0.0
 11
169.9743842888567
 21
261.3614457518325
 31
0.0
  0
LINE
  5
A46
330
1F
100
AcDbEntity
  8
0
 62
     0
100
AcDbLine
 10
169.9743842888567
 20
249.0014457518337
 30
0.0
 11
169.9743842888567
 21
249.8014457518348
 31
0.0
  0
LINE
  5
A47
330
1F
100
AcDbEntity
  8
0
 62
     0
100
AcDbLine
 10
169.9743842888567
 20
251.2014457518326
 30
0.0
 11
169.9743842888567
 21
252.0014457518338
 31
0.0
  0
LINE
  5
A48
330
1F
100
AcDbEntity
  8
0
 62
     0
100
AcDbLine
 10
169.9743842888567
 20
254.0814457518337
 30
0.0
 11
169.9743842888567
 21
254.881445751833
 31
0.0
  0
LINE
  5
A49
330
1F
100
AcDbEntity
  8
0
 62
     0
100
AcDbLine
 10
169.9743842888567
 20
252.0014457518338
 30
0.0
 11
169.9743842888567
 21
254.0814457518337
 31
0.0
  0
LINE
  5
A4A
330
1F
100
AcDbEntity
  8
0
 62
     0
100
AcDbLine
 10
169.9743842888567
 20
249.8014457518348
 30
0.0
 11
169.9743842888567
 21
251.2014457518326
 31
0.0
  0
LINE
  5
A4B
330
1F
100
AcDbEntity
  8
0
 62
     0
100
AcDbLine
 10
163.0109914317147
 20
256.1864457518332
 30
0.0
 11
163.0109914317147
 21
254.9764457518341
 31
0.0
  0
LINE
  5
A4C
330
1F
100
AcDbEntity
  8
0
 62
     0
100
AcDbLine
 10
161.4012229843103
 20
256.1864457518332
 30
0.0
 11
161.4012229843103
 21
254.9764457518341
 31
0.0
  0
LINE
  5
A4D
330
1F
100
AcDbEntity
  8
0
 62
     0
100
AcDbLine
 10
166.3364350964259
 20
255.8134965594018
 30
0.0
 11
166.3364350964259
 21
255.3493949442655
 31
0.0
  0
LINE
  5
A4E
330
1F
100
AcDbEntity
  8
0
 62
     0
100
AcDbLine
 10
165.8723334812896
 20
255.8134965594018
 30
0.0
 11
165.8723334812896
 21
255.3493949442655
 31
0.0
  0
LINE
  5
A4F
330
1F
100
AcDbEntity
  8
0
 62
     0
100
AcDbLine
 10
165.6043842888577
 20
256.0814457518337
 30
0.0
 11
165.6043842888577
 21
255.0814457518337
 31
0.0
  0
LINE
  5
A50
330
1F
100
AcDbEntity
  8
0
 62
     0
100
AcDbLine
 10
166.6043842888577
 20
255.0814457518337
 30
0.0
 11
166.6043842888577
 21
256.0814457518337
 31
0.0
  0
CIRCLE
  5
A51
330
1F
100
AcDbEntity
  8
0
 62
     0
100
AcDbCircle
 10
166.1043842888577
 20
255.5814457518337
 30
0.0
 40
1.399999999999991
  0
ARC
  5
A52
330
1F
100
AcDbEntity
  8
0
 62
     0
100
AcDbCircle
 10
166.1043842888577
 20
255.5814457518337
 30
0.0
 40
2.999999999999806
100
AcDbArc
 50
317.1665719339523
 51
42.83342806604767
  0
ARC
  5
A53
330
1F
100
AcDbEntity
  8
0
 62
     0
100
AcDbCircle
 10
166.1043842888577
 20
255.5814457518337
 30
0.0
 40
3.299999999999816
100
AcDbArc
 50
319.25094562257
 51
40.74905437742993
  0
LINE
  5
A54
330
1F
100
AcDbEntity
  8
0
 62
     0
100
AcDbLine
 10
161.4012229843103
 20
256.1864457518332
 30
0.0
 11
161.8743842888582
 21
256.556445751834
 31
0.0
  0
LINE
  5
A55
330
1F
100
AcDbEntity
  8
0
 62
     0
100
AcDbLine
 10
163.0109914317147
 20
256.2254569326161
 30
0.0
 11
163.0109914317147
 21
256.1864457518332
 31
0.0
  0
LINE
  5
A56
330
1F
100
AcDbEntity
  8
0
 62
     0
100
AcDbLine
 10
162.6993842888571
 20
256.556445751834
 30
0.0
 11
163.0109914317147
 21
256.2254569326161
 31
0.0
  0
LINE
  5
A57
330
1F
100
AcDbEntity
  8
0
 62
     0
100
AcDbLine
 10
161.8743842888582
 20
256.556445751834
 30
0.0
 11
162.6993842888571
 21
256.556445751834
 31
0.0
  0
LINE
  5
A58
330
1F
100
AcDbEntity
  8
0
 62
     0
100
AcDbLine
 10
163.0109914317147
 20
256.1864457518332
 30
0.0
 11
161.4012229843103
 21
256.1864457518332
 31
0.0
  0
LINE
  5
A59
330
1F
100
AcDbEntity
  8
0
 62
     0
100
AcDbLine
 10
161.4012229843103
 20
260.056445751834
 30
0.0
 11
161.8743842888582
 21
259.6864457518332
 31
0.0
  0
LINE
  5
A5A
330
1F
100
AcDbEntity
  8
0
 62
     0
100
AcDbLine
 10
163.0109914317147
 20
260.0174345710512
 30
0.0
 11
162.6993842888571
 21
259.6864457518332
 31
0.0
  0
LINE
  5
A5B
330
1F
100
AcDbEntity
  8
0
 62
     0
100
AcDbLine
 10
163.0109914317147
 20
260.056445751834
 30
0.0
 11
163.0109914317147
 21
260.0174345710512
 31
0.0
  0
LINE
  5
A5C
330
1F
100
AcDbEntity
  8
0
 62
     0
100
AcDbLine
 10
161.8743842888582
 20
259.6864457518332
 30
0.0
 11
162.6993842888571
 21
259.6864457518332
 31
0.0
  0
LINE
  5
A5D
330
1F
100
AcDbEntity
  8
0
 62
     0
100
AcDbLine
 10
161.4012229843103
 20
260.056445751834
 30
0.0
 11
163.0109914317147
 21
260.056445751834
 31
0.0
  0
LINE
  5
A5E
330
1F
100
AcDbEntity
  8
0
 62
     0
100
AcDbLine
 10
163.0109914317147
 20
256.2254569326161
 30
0.0
 11
163.0109914317147
 21
260.0174345710512
 31
0.0
  0
LINE
  5
A5F
330
1F
100
AcDbEntity
  8
0
 62
     0
100
AcDbLine
 10
161.8743842888582
 20
256.556445751834
 30
0.0
 11
161.8743842888582
 21
259.6864457518332
 31
0.0
  0
LINE
  5
A60
330
1F
100
AcDbEntity
  8
0
 62
     0
100
AcDbLine
 10
162.6993842888571
 20
256.556445751834
 30
0.0
 11
162.6993842888571
 21
259.6864457518332
 31
0.0
  0
LINE
  5
A61
330
1F
100
AcDbEntity
  8
0
 62
     0
100
AcDbLine
 10
165.8723334812896
 20
255.8134965594018
 30
0.0
 11
165.6043842888577
 21
256.0814457518337
 31
0.0
  0
LINE
  5
A62
330
1F
100
AcDbEntity
  8
0
 62
     0
100
AcDbLine
 10
165.6043842888577
 20
260.1614457518336
 30
0.0
 11
165.8723334812896
 21
260.4293949442636
 31
0.0
  0
LINE
  5
A63
330
1F
100
AcDbEntity
  8
0
 62
     0
100
AcDbLine
 10
166.3364350964259
 20
255.8134965594018
 30
0.0
 11
166.6043842888577
 21
256.0814457518337
 31
0.0
  0
LINE
  5
A64
330
1F
100
AcDbEntity
  8
0
 62
     0
100
AcDbLine
 10
166.3364350964259
 20
260.4293949442636
 30
0.0
 11
166.6043842888577
 21
260.1614457518336
 31
0.0
  0
LINE
  5
A65
330
1F
100
AcDbEntity
  8
0
 62
     0
100
AcDbLine
 10
168.3043842888566
 20
257.62105355727
 30
0.0
 11
168.3043842888566
 21
258.6218379463972
 31
0.0
  0
LINE
  5
A66
330
1F
100
AcDbEntity
  8
0
 62
     0
100
AcDbLine
 10
168.6043842888577
 20
257.7355116746876
 30
0.0
 11
168.6043842888577
 21
258.5073798289796
 31
0.0
  0
LINE
  5
A67
330
1F
100
AcDbEntity
  8
0
 62
     0
100
AcDbLine
 10
166.8543842888577
 20
258.3224076461575
 30
0.0
 11
166.8543842888577
 21
257.9204838575116
 31
0.0
  0
LINE
  5
A68
330
1F
100
AcDbEntity
  8
0
 62
     0
100
AcDbLine
 10
165.8723334812896
 20
255.8134965594018
 30
0.0
 11
166.3364350964259
 21
255.8134965594018
 31
0.0
  0
LINE
  5
A69
330
1F
100
AcDbEntity
  8
0
 62
     0
100
AcDbLine
 10
165.6043842888577
 20
256.0814457518337
 30
0.0
 11
166.6043842888577
 21
256.0814457518337
 31
0.0
  0
LINE
  5
A6A
330
1F
100
AcDbEntity
  8
0
 62
     0
100
AcDbLine
 10
165.8723334812896
 20
260.4293949442636
 30
0.0
 11
166.3364350964259
 21
260.4293949442636
 31
0.0
  0
LINE
  5
A6B
330
1F
100
AcDbEntity
  8
0
 62
     0
100
AcDbLine
 10
165.6043842888577
 20
260.1614457518336
 30
0.0
 11
166.6043842888577
 21
260.1614457518336
 31
0.0
  0
LINE
  5
A6C
330
1F
100
AcDbEntity
  8
0
 62
     0
100
AcDbLine
 10
166.8543842888577
 20
257.9204838575116
 30
0.0
 11
166.1043842888577
 21
258.1214457518345
 31
0.0
  0
LINE
  5
A6D
330
1F
100
AcDbEntity
  8
0
 62
     0
100
AcDbLine
 10
166.1043842888577
 20
258.1214457518345
 30
0.0
 11
166.8543842888577
 21
258.3224076461575
 31
0.0
  0
LINE
  5
A6E
330
1F
100
AcDbEntity
  8
0
 62
     0
100
AcDbLine
 10
163.0109914317147
 20
261.305456932616
 30
0.0
 11
163.0109914317147
 21
261.2664457518332
 31
0.0
  0
LINE
  5
A6F
330
1F
100
AcDbEntity
  8
0
 62
     0
100
AcDbLine
 10
163.0109914317147
 20
261.2664457518332
 30
0.0
 11
161.4012229843103
 21
261.2664457518332
 31
0.0
  0
LINE
  5
A70
330
1F
100
AcDbEntity
  8
0
 62
     0
100
AcDbLine
 10
165.8723334812896
 20
260.8934965594036
 30
0.0
 11
165.6043842888577
 21
261.1614457518336
 31
0.0
  0
LINE
  5
A71
330
1F
100
AcDbEntity
  8
0
 62
     0
100
AcDbLine
 10
166.3364350964259
 20
260.8934965594036
 30
0.0
 11
166.6043842888577
 21
261.1614457518336
 31
0.0
  0
LINE
  5
A72
330
1F
100
AcDbEntity
  8
0
 62
     0
100
AcDbLine
 10
165.8723334812896
 20
260.8934965594036
 30
0.0
 11
166.3364350964259
 21
260.8934965594036
 31
0.0
  0
LINE
  5
A73
330
1F
100
AcDbEntity
  8
0
 62
     0
100
AcDbLine
 10
165.6043842888577
 20
261.1614457518336
 30
0.0
 11
166.6043842888577
 21
261.1614457518336
 31
0.0
  0
LINE
  5
A74
330
1F
100
AcDbEntity
  8
0
 62
     0
100
AcDbLine
 10
165.6043842888577
 20
260.1614457518336
 30
0.0
 11
165.6043842888577
 21
261.1614457518336
 31
0.0
  0
LINE
  5
A75
330
1F
100
AcDbEntity
  8
0
 62
     0
100
AcDbLine
 10
165.8723334812896
 20
260.8934965594036
 30
0.0
 11
165.8723334812896
 21
260.4293949442636
 31
0.0
  0
LINE
  5
A76
330
1F
100
AcDbEntity
  8
0
 62
     0
100
AcDbLine
 10
166.3364350964259
 20
260.4293949442636
 30
0.0
 11
166.3364350964259
 21
260.8934965594036
 31
0.0
  0
LINE
  5
A77
330
1F
100
AcDbEntity
  8
0
 62
     0
100
AcDbLine
 10
166.6043842888577
 20
260.1614457518336
 30
0.0
 11
166.6043842888577
 21
261.1614457518336
 31
0.0
  0
LINE
  5
A78
330
1F
100
AcDbEntity
  8
0
 62
     0
100
AcDbLine
 10
163.0109914317147
 20
261.2664457518332
 30
0.0
 11
163.0109914317147
 21
260.056445751834
 31
0.0
  0
LINE
  5
A79
330
1F
100
AcDbEntity
  8
0
 62
     0
100
AcDbLine
 10
161.4012229843103
 20
260.056445751834
 30
0.0
 11
161.4012229843103
 21
261.2664457518332
 31
0.0
  0
LINE
  5
A7A
330
1F
100
AcDbEntity
  8
0
 62
     0
100
AcDbLine
 10
163.0109914317147
 20
247.9614457518347
 30
0.0
 11
162.6993842888571
 21
247.9614457518347
 31
0.0
  0
LINE
  5
A7B
330
1F
100
AcDbEntity
  8
0
 62
     0
100
AcDbLine
 10
161.8743842888582
 20
249.5264457518334
 30
0.0
 11
161.4012229843103
 21
249.8964457518324
 31
0.0
  0
LINE
  5
A7C
330
1F
100
AcDbEntity
  8
0
 62
     0
100
AcDbLine
 10
163.0109914317147
 20
249.8964457518324
 30
0.0
 11
163.0109914317147
 21
249.8574345710514
 31
0.0
  0
LINE
  5
A7D
330
1F
100
AcDbEntity
  8
0
 62
     0
100
AcDbLine
 10
163.0109914317147
 20
249.8574345710514
 30
0.0
 11
162.6993842888571
 21
249.5264457518334
 31
0.0
  0
LINE
  5
A7E
330
1F
100
AcDbEntity
  8
0
 62
     0
100
AcDbLine
 10
161.4012229843103
 20
249.8964457518324
 30
0.0
 11
163.0109914317147
 21
249.8964457518324
 31
0.0
  0
LINE
  5
A7F
330
1F
100
AcDbEntity
  8
0
 62
     0
100
AcDbLine
 10
162.6993842888571
 20
249.5264457518334
 30
0.0
 11
161.8743842888582
 21
249.5264457518334
 31
0.0
  0
LINE
  5
A80
330
1F
100
AcDbEntity
  8
0
 62
     0
100
AcDbLine
 10
163.0109914317147
 20
247.9614457518347
 30
0.0
 11
163.0109914317147
 21
249.8574345710514
 31
0.0
  0
LINE
  5
A81
330
1F
100
AcDbEntity
  8
0
 62
     0
100
AcDbLine
 10
162.6993842888571
 20
249.5264457518334
 30
0.0
 11
162.6993842888571
 21
247.9614457518347
 31
0.0
  0
LINE
  5
A82
330
1F
100
AcDbEntity
  8
0
 62
     0
100
AcDbLine
 10
165.6043842888577
 20
250.0014457518338
 30
0.0
 11
165.8723334812896
 21
250.2693949442638
 31
0.0
  0
LINE
  5
A83
330
1F
100
AcDbEntity
  8
0
 62
     0
100
AcDbLine
 10
165.8723334812896
 20
250.7334965594037
 30
0.0
 11
165.8723334812896
 21
250.2693949442638
 31
0.0
  0
LINE
  5
A84
330
1F
100
AcDbEntity
  8
0
 62
     0
100
AcDbLine
 10
168.3043842888566
 20
247.9614457518347
 30
0.0
 11
168.6043842888577
 21
247.9614457518347
 31
0.0
  0
LINE
  5
A85
330
1F
100
AcDbEntity
  8
0
 62
     0
100
AcDbLine
 10
168.6043842888577
 20
248.3473798289797
 30
0.0
 11
168.6043842888577
 21
247.9614457518347
 31
0.0
  0
LINE
  5
A86
330
1F
100
AcDbEntity
  8
0
 62
     0
100
AcDbLine
 10
166.3364350964259
 20
250.2693949442638
 30
0.0
 11
166.6043842888577
 21
250.0014457518338
 31
0.0
  0
LINE
  5
A87
330
1F
100
AcDbEntity
  8
0
 62
     0
100
AcDbLine
 10
166.3364350964259
 20
250.2693949442638
 30
0.0
 11
166.3364350964259
 21
250.7334965594037
 31
0.0
  0
LINE
  5
A88
330
1F
100
AcDbEntity
  8
0
 62
     0
100
AcDbLine
 10
168.3043842888566
 20
247.9614457518347
 30
0.0
 11
168.3043842888566
 21
248.4618379463956
 31
0.0
  0
LINE
  5
A89
330
1F
100
AcDbEntity
  8
0
 62
     0
100
AcDbLine
 10
166.6043842888577
 20
250.0014457518338
 30
0.0
 11
165.6043842888577
 21
250.0014457518338
 31
0.0
  0
LINE
  5
A8A
330
1F
100
AcDbEntity
  8
0
 62
     0
100
AcDbLine
 10
166.3364350964259
 20
250.2693949442638
 30
0.0
 11
165.8723334812896
 21
250.2693949442638
 31
0.0
  0
LINE
  5
A8B
330
1F
100
AcDbEntity
  8
0
 62
     0
100
AcDbLine
 10
165.8723334812896
 20
250.7334965594037
 30
0.0
 11
166.3364350964259
 21
250.7334965594037
 31
0.0
  0
LINE
  5
A8C
330
1F
100
AcDbEntity
  8
0
 62
     0
100
AcDbLine
 10
164.8919487235582
 20
249.8014457518348
 30
0.0
 11
167.3168198541555
 21
249.8014457518348
 31
0.0
  0
LINE
  5
A8D
330
1F
100
AcDbEntity
  8
0
 62
     0
100
AcDbLine
 10
163.0109914317147
 20
247.9614457518347
 30
0.0
 11
168.3043842888566
 21
247.9614457518347
 31
0.0
  0
LINE
  5
A8E
330
1F
100
AcDbEntity
  8
0
 62
     0
100
AcDbLine
 10
161.4012229843103
 20
251.1064457518333
 30
0.0
 11
161.8743842888582
 21
251.4764457518341
 31
0.0
  0
LINE
  5
A8F
330
1F
100
AcDbEntity
  8
0
 62
     0
100
AcDbLine
 10
163.0109914317147
 20
251.1454569326143
 30
0.0
 11
163.0109914317147
 21
251.1064457518333
 31
0.0
  0
LINE
  5
A90
330
1F
100
AcDbEntity
  8
0
 62
     0
100
AcDbLine
 10
162.6993842888571
 20
251.4764457518341
 30
0.0
 11
163.0109914317147
 21
251.1454569326143
 31
0.0
  0
LINE
  5
A91
330
1F
100
AcDbEntity
  8
0
 62
     0
100
AcDbLine
 10
161.8743842888582
 20
251.4764457518341
 30
0.0
 11
162.6993842888571
 21
251.4764457518341
 31
0.0
  0
LINE
  5
A92
330
1F
100
AcDbEntity
  8
0
 62
     0
100
AcDbLine
 10
163.0109914317147
 20
251.1064457518333
 30
0.0
 11
161.4012229843103
 21
251.1064457518333
 31
0.0
  0
LINE
  5
A93
330
1F
100
AcDbEntity
  8
0
 62
     0
100
AcDbLine
 10
161.4012229843103
 20
254.9764457518341
 30
0.0
 11
161.8743842888582
 21
254.6064457518333
 31
0.0
  0
LINE
  5
A94
330
1F
100
AcDbEntity
  8
0
 62
     0
100
AcDbLine
 10
163.0109914317147
 20
254.9764457518341
 30
0.0
 11
163.0109914317147
 21
254.9374345710513
 31
0.0
  0
LINE
  5
A95
330
1F
100
AcDbEntity
  8
0
 62
     0
100
AcDbLine
 10
163.0109914317147
 20
254.9374345710513
 30
0.0
 11
162.6993842888571
 21
254.6064457518333
 31
0.0
  0
LINE
  5
A96
330
1F
100
AcDbEntity
  8
0
 62
     0
100
AcDbLine
 10
161.4012229843103
 20
254.9764457518341
 30
0.0
 11
163.0109914317147
 21
254.9764457518341
 31
0.0
  0
LINE
  5
A97
330
1F
100
AcDbEntity
  8
0
 62
     0
100
AcDbLine
 10
161.8743842888582
 20
254.6064457518333
 30
0.0
 11
162.6993842888571
 21
254.6064457518333
 31
0.0
  0
LINE
  5
A98
330
1F
100
AcDbEntity
  8
0
 62
     0
100
AcDbLine
 10
163.0109914317147
 20
251.1454569326143
 30
0.0
 11
163.0109914317147
 21
254.9374345710513
 31
0.0
  0
LINE
  5
A99
330
1F
100
AcDbEntity
  8
0
 62
     0
100
AcDbLine
 10
161.8743842888582
 20
251.4764457518341
 30
0.0
 11
161.8743842888582
 21
254.6064457518333
 31
0.0
  0
LINE
  5
A9A
330
1F
100
AcDbEntity
  8
0
 62
     0
100
AcDbLine
 10
162.6993842888571
 20
251.4764457518341
 30
0.0
 11
162.6993842888571
 21
254.6064457518333
 31
0.0
  0
LINE
  5
A9B
330
1F
100
AcDbEntity
  8
0
 62
     0
100
AcDbLine
 10
165.6043842888577
 20
255.0814457518337
 30
0.0
 11
165.8723334812896
 21
255.3493949442655
 31
0.0
  0
LINE
  5
A9C
330
1F
100
AcDbEntity
  8
0
 62
     0
100
AcDbLine
 10
166.8543842888577
 20
253.2424076461558
 30
0.0
 11
166.8543842888577
 21
252.8404838575098
 31
0.0
  0
LWPOLYLINE
  5
A9D
330
1F
100
AcDbEntity
  8
0
 62
     0
100
AcDbPolyline
 90
        4
 70
     0
 43
0.0
 10
168.6043842888577
 20
252.6555116746877
 42
0.0021758545419443
 10
168.4543668780408
 20
252.5990568079524
 10
168.3788498984633
 20
252.5700551822611
 10
168.3043842888566
 20
252.5410535572719
  0
LINE
  5
A9E
330
1F
100
AcDbEntity
  8
0
 62
     0
100
AcDbLine
 10
166.3364350964259
 20
255.3493949442655
 30
0.0
 11
166.6043842888577
 21
255.0814457518337
 31
0.0
  0
LINE
  5
A9F
330
1F
100
AcDbEntity
  8
0
 62
     0
100
AcDbLine
 10
168.3043842888566
 20
252.5410535572719
 30
0.0
 11
168.3043842888566
 21
253.5418379463973
 31
0.0
  0
LINE
  5
AA0
330
1F
100
AcDbEntity
  8
0
 62
     0
100
AcDbLine
 10
168.6043842888577
 20
252.6555116746877
 30
0.0
 11
168.6043842888577
 21
253.4273798289797
 31
0.0
  0
LINE
  5
AA1
330
1F
100
AcDbEntity
  8
0
 62
     0
100
AcDbLine
 10
166.8543842888577
 20
252.8404838575098
 30
0.0
 11
166.1043842888577
 21
253.0414457518328
 31
0.0
  0
LINE
  5
AA2
330
1F
100
AcDbEntity
  8
0
 62
     0
100
AcDbLine
 10
166.1043842888577
 20
253.0414457518328
 30
0.0
 11
166.8543842888577
 21
253.2424076461558
 31
0.0
  0
LINE
  5
AA3
330
1F
100
AcDbEntity
  8
0
 62
     0
100
AcDbLine
 10
165.6043842888577
 20
251.0014457518337
 30
0.0
 11
166.6043842888577
 21
251.0014457518337
 31
0.0
  0
LINE
  5
AA4
330
1F
100
AcDbEntity
  8
0
 62
     0
100
AcDbLine
 10
166.6043842888577
 20
255.0814457518337
 30
0.0
 11
165.6043842888577
 21
255.0814457518337
 31
0.0
  0
LINE
  5
AA5
330
1F
100
AcDbEntity
  8
0
 62
     0
100
AcDbLine
 10
165.8723334812896
 20
255.3493949442655
 30
0.0
 11
166.3364350964259
 21
255.3493949442655
 31
0.0
  0
LINE
  5
AA6
330
1F
100
AcDbEntity
  8
0
 62
     0
100
AcDbLine
 10
165.6043842888577
 20
250.0014457518338
 30
0.0
 11
165.6043842888577
 21
251.0014457518337
 31
0.0
  0
LINE
  5
AA7
330
1F
100
AcDbEntity
  8
0
 62
     0
100
AcDbLine
 10
166.6043842888577
 20
251.0014457518337
 30
0.0
 11
166.6043842888577
 21
250.0014457518338
 31
0.0
  0
LINE
  5
AA8
330
1F
100
AcDbEntity
  8
0
 62
     0
100
AcDbLine
 10
166.3364350964259
 20
250.7334965594037
 30
0.0
 11
166.6043842888577
 21
251.0014457518337
 31
0.0
  0
LINE
  5
AA9
330
1F
100
AcDbEntity
  8
0
 62
     0
100
AcDbLine
 10
165.8723334812896
 20
250.7334965594037
 30
0.0
 11
165.6043842888577
 21
251.0014457518337
 31
0.0
  0
LINE
  5
AAA
330
1F
100
AcDbEntity
  8
0
 62
     0
100
AcDbLine
 10
163.0109914317147
 20
251.1064457518333
 30
0.0
 11
163.0109914317147
 21
249.8964457518324
 31
0.0
  0
LINE
  5
AAB
330
1F
100
AcDbEntity
  8
0
 62
     0
100
AcDbLine
 10
161.4012229843103
 20
249.8964457518324
 30
0.0
 11
161.4012229843103
 21
251.1064457518333
 31
0.0
  0
ARC
  5
AAC
330
1F
100
AcDbEntity
  8
0
 62
     0
100
AcDbCircle
 10
166.1043842888577
 20
250.5014457518337
 30
0.0
 40
1.400000000000003
100
AcDbArc
 50
329.9999999999938
 51
210.0000000000061
  0
ARC
  5
AAD
330
1F
100
AcDbEntity
  8
0
 62
     0
100
AcDbCircle
 10
166.1043842888577
 20
250.5014457518337
 30
0.0
 40
2.999999999999968
100
AcDbArc
 50
317.1665719339523
 51
42.83342806604767
  0
ARC
  5
AAE
330
1F
100
AcDbEntity
  8
0
 62
     0
100
AcDbCircle
 10
166.1043842888577
 20
250.5014457518337
 30
0.0
 40
3.299999999999986
100
AcDbArc
 50
319.25094562257
 51
40.74905437742993
  0
LINE
  5
AAF
330
1F
100
AcDbEntity
  8
0
 62
     0
100
AcDbLine
 10
161.8743842888582
 20
246.9614457518347
 30
0.0
 11
162.3043842888566
 21
246.9614457518347
 31
0.0
  0
LINE
  5
AB0
330
1F
100
AcDbEntity
  8
0
 62
     0
100
AcDbLine
 10
161.3743842888582
 20
246.9614457518347
 30
0.0
 11
161.8743842888582
 21
246.9614457518347
 31
0.0
  0
LINE
  5
AB1
330
1F
100
AcDbEntity
  8
0
 62
     0
100
AcDbLine
 10
165.9034223945347
 20
246.9614457518347
 30
0.0
 11
166.1043842888577
 21
246.9614457518347
 31
0.0
  0
LINE
  5
AB2
330
1F
100
AcDbEntity
  8
0
 62
     0
100
AcDbLine
 10
166.1043842888577
 20
246.9614457518347
 30
0.0
 11
166.3053461831807
 21
246.9614457518347
 31
0.0
  0
LINE
  5
AB3
330
1F
100
AcDbEntity
  8
0
 62
     0
100
AcDbLine
 10
162.3043842888566
 20
246.9614457518347
 30
0.0
 11
165.9034223945347
 21
246.9614457518347
 31
0.0
  0
LINE
  5
AB4
330
1F
100
AcDbEntity
  8
0
 62
     0
100
AcDbLine
 10
166.3053461831807
 20
246.9614457518347
 30
0.0
 11
169.9743842888567
 21
246.9614457518347
 31
0.0
  0
LINE
  5
AB5
330
1F
100
AcDbEntity
  8
0
 62
     0
100
AcDbLine
 10
161.8743842888582
 20
249.5264457518334
 30
0.0
 11
161.8743842888582
 21
246.9614457518347
 31
0.0
  0
LINE
  5
AB6
330
1F
100
AcDbEntity
  8
0
 62
     0
100
AcDbLine
 10
169.9743842888567
 20
246.9614457518347
 30
0.0
 11
169.9743842888567
 21
249.0014457518337
 31
0.0
  0
LINE
  5
AB7
330
1F
100
AcDbEntity
  8
0
 62
     0
100
AcDbLine
 10
169.9743842888567
 20
272.3214457518334
 30
0.0
 11
169.9743842888569
 21
274.3614457518325
 31
0.0
  0
LINE
  5
AB8
330
1F
100
AcDbEntity
  8
0
 62
     0
100
AcDbLine
 10
162.3043842888569
 20
274.3614457518325
 30
0.0
 11
161.8743842888584
 21
274.3614457518325
 31
0.0
  0
LINE
  5
AB9
330
1F
100
AcDbEntity
  8
0
 62
     0
100
AcDbLine
 10
161.8743842888584
 20
274.3614457518325
 30
0.0
 11
161.3743842888584
 21
274.3614457518325
 31
0.0
  0
LINE
  5
ABA
330
1F
100
AcDbEntity
  8
0
 62
     0
100
AcDbLine
 10
163.0109914317147
 20
273.3614457518325
 30
0.0
 11
162.6993842888571
 21
273.3614457518325
 31
0.0
  0
LINE
  5
ABB
330
1F
100
AcDbEntity
  8
0
 62
     0
100
AcDbLine
 10
166.8246413707042
 20
274.3614457518325
 30
0.0
 11
166.6243854288572
 21
274.3614457518325
 31
0.0
  0
LINE
  5
ABC
330
1F
100
AcDbEntity
  8
0
 62
     0
100
AcDbLine
 10
167.0833353616112
 20
274.3614457518325
 30
0.0
 11
166.933143405226
 21
274.3614457518325
 31
0.0
  0
LINE
  5
ABD
330
1F
100
AcDbEntity
  8
0
 62
     0
100
AcDbLine
 10
167.3112867738532
 20
274.3614457518325
 30
0.0
 11
167.0833353616112
 21
274.3614457518325
 31
0.0
  0
LINE
  5
ABE
330
1F
100
AcDbEntity
  8
0
 62
     0
100
AcDbLine
 10
167.446410373494
 20
274.3614457518325
 30
0.0
 11
167.3112867738532
 21
274.3614457518325
 31
0.0
  0
LINE
  5
ABF
330
1F
100
AcDbEntity
  8
0
 62
     0
100
AcDbLine
 10
166.933143405226
 20
274.3614457518325
 30
0.0
 11
166.8246413707042
 21
274.3614457518325
 31
0.0
  0
LINE
  5
AC0
330
1F
100
AcDbEntity
  8
0
 62
     0
100
AcDbLine
 10
168.6043842888577
 20
273.3614457518325
 30
0.0
 11
168.6043842888577
 21
272.9755116746874
 31
0.0
  0
LINE
  5
AC1
330
1F
100
AcDbEntity
  8
0
 62
     0
100
AcDbLine
 10
168.6043842888577
 20
273.3614457518325
 30
0.0
 11
168.3043842888566
 21
273.3614457518325
 31
0.0
  0
LINE
  5
AC2
330
1F
100
AcDbEntity
  8
0
 62
     0
100
AcDbLine
 10
168.0537113761188
 20
274.3614457518325
 30
0.0
 11
167.6198235021188
 21
274.3614457518325
 31
0.0
  0
LINE
  5
AC3
330
1F
100
AcDbEntity
  8
0
 62
     0
100
AcDbLine
 10
168.3622481043826
 20
274.3614457518325
 30
0.0
 11
168.2271245047436
 21
274.3614457518325
 31
0.0
  0
LINE
  5
AC4
330
1F
100
AcDbEntity
  8
0
 62
     0
100
AcDbLine
 10
168.5901995166263
 20
274.3614457518325
 30
0.0
 11
168.3622481043826
 21
274.3614457518325
 31
0.0
  0
LINE
  5
AC5
330
1F
100
AcDbEntity
  8
0
 62
     0
100
AcDbLine
 10
168.7403914730116
 20
274.3614457518325
 30
0.0
 11
168.5901995166263
 21
274.3614457518325
 31
0.0
  0
LINE
  5
AC6
330
1F
100
AcDbEntity
  8
0
 62
     0
100
AcDbLine
 10
168.2271245047436
 20
274.3614457518325
 30
0.0
 11
168.0537113761188
 21
274.3614457518325
 31
0.0
  0
LINE
  5
AC7
330
1F
100
AcDbEntity
  8
0
 62
     0
100
AcDbLine
 10
167.6198235021188
 20
274.3614457518325
 30
0.0
 11
167.446410373494
 21
274.3614457518325
 31
0.0
  0
LINE
  5
AC8
330
1F
100
AcDbEntity
  8
0
 62
     0
100
AcDbLine
 10
168.3043842888566
 20
272.8610535572717
 30
0.0
 11
168.3043842888566
 21
273.3614457518325
 31
0.0
  0
LINE
  5
AC9
330
1F
100
AcDbEntity
  8
0
 62
     0
100
AcDbLine
 10
168.3043842888566
 20
273.3614457518325
 30
0.0
 11
163.0109914317147
 21
273.3614457518325
 31
0.0
  0
LINE
  5
ACA
330
1F
100
AcDbEntity
  8
0
 62
     0
100
AcDbLine
 10
166.6243854288572
 20
274.3614457518325
 30
0.0
 11
162.3043842888569
 21
274.3614457518325
 31
0.0
  0
LINE
  5
ACB
330
1F
100
AcDbEntity
  8
0
 62
     0
100
AcDbLine
 10
169.1656263124809
 20
274.3614457518325
 30
0.0
 11
169.0154343560975
 21
274.3614457518325
 31
0.0
  0
LINE
  5
ACC
330
1F
100
AcDbEntity
  8
0
 62
     0
100
AcDbLine
 10
169.2741283470099
 20
274.3614457518325
 30
0.0
 11
169.1656263124809
 21
274.3614457518325
 31
0.0
  0
LINE
  5
ACD
330
1F
100
AcDbEntity
  8
0
 62
     0
100
AcDbLine
 10
169.4743842888569
 20
274.3614457518325
 30
0.0
 11
169.2741283470099
 21
274.3614457518325
 31
0.0
  0
LINE
  5
ACE
330
1F
100
AcDbEntity
  8
0
 62
     0
100
AcDbLine
 10
169.0154343560975
 20
274.3614457518325
 30
0.0
 11
168.7403914730116
 21
274.3614457518325
 31
0.0
  0
LINE
  5
ACF
330
1F
100
AcDbEntity
  8
0
 62
     0
100
AcDbLine
 10
169.9743842888569
 20
274.3614457518325
 30
0.0
 11
169.4743842888569
 21
274.3614457518325
 31
0.0
  0
LINE
  5
AD0
330
1F
100
AcDbEntity
  8
0
 62
     0
100
AcDbLine
 10
169.9743842888567
 20
264.2414457518335
 30
0.0
 11
169.9743842888567
 21
265.0414457518328
 31
0.0
  0
LINE
  5
AD1
330
1F
100
AcDbEntity
  8
0
 62
     0
100
AcDbLine
 10
169.9743842888567
 20
262.1614457518336
 30
0.0
 11
169.9743842888567
 21
264.2414457518335
 31
0.0
  0
LINE
  5
AD2
330
1F
100
AcDbEntity
  8
0
 62
     0
100
AcDbLine
 10
169.9743842888567
 20
266.4414457518343
 30
0.0
 11
169.9743842888567
 21
267.2414457518335
 31
0.0
  0
LINE
  5
AD3
330
1F
100
AcDbEntity
  8
0
 62
     0
100
AcDbLine
 10
169.9743842888567
 20
269.3214457518334
 30
0.0
 11
169.9743842888567
 21
270.1214457518346
 31
0.0
  0
LINE
  5
AD4
330
1F
100
AcDbEntity
  8
0
 62
     0
100
AcDbLine
 10
169.9743842888567
 20
267.2414457518335
 30
0.0
 11
169.9743842888567
 21
269.3214457518334
 31
0.0
  0
LINE
  5
AD5
330
1F
100
AcDbEntity
  8
0
 62
     0
100
AcDbLine
 10
169.9743842888567
 20
265.0414457518328
 30
0.0
 11
169.9743842888567
 21
266.4414457518343
 31
0.0
  0
LINE
  5
AD6
330
1F
100
AcDbEntity
  8
0
 62
     0
100
AcDbLine
 10
169.9743842888567
 20
270.1214457518346
 30
0.0
 11
169.9743842888567
 21
271.5214457518324
 31
0.0
  0
LINE
  5
AD7
330
1F
100
AcDbEntity
  8
0
 62
     0
100
AcDbLine
 10
161.8743842888582
 20
261.636445751834
 30
0.0
 11
162.6993842888571
 21
261.636445751834
 31
0.0
  0
LINE
  5
AD8
330
1F
100
AcDbEntity
  8
0
 62
     0
100
AcDbLine
 10
161.4012229843103
 20
265.136445751834
 30
0.0
 11
161.8743842888582
 21
264.7664457518331
 31
0.0
  0
LINE
  5
AD9
330
1F
100
AcDbEntity
  8
0
 62
     0
100
AcDbLine
 10
163.0109914317147
 20
265.0974345710511
 30
0.0
 11
162.6993842888571
 21
264.7664457518331
 31
0.0
  0
LINE
  5
ADA
330
1F
100
AcDbEntity
  8
0
 62
     0
100
AcDbLine
 10
163.0109914317147
 20
265.136445751834
 30
0.0
 11
163.0109914317147
 21
265.0974345710511
 31
0.0
  0
LINE
  5
ADB
330
1F
100
AcDbEntity
  8
0
 62
     0
100
AcDbLine
 10
161.8743842888582
 20
264.7664457518331
 30
0.0
 11
162.6993842888571
 21
264.7664457518331
 31
0.0
  0
LINE
  5
ADC
330
1F
100
AcDbEntity
  8
0
 62
     0
100
AcDbLine
 10
161.4012229843103
 20
265.136445751834
 30
0.0
 11
163.0109914317147
 21
265.136445751834
 31
0.0
  0
LINE
  5
ADD
330
1F
100
AcDbEntity
  8
0
 62
     0
100
AcDbLine
 10
162.6993842888571
 20
261.636445751834
 30
0.0
 11
162.6993842888571
 21
264.7664457518331
 31
0.0
  0
LINE
  5
ADE
330
1F
100
AcDbEntity
  8
0
 62
     0
100
AcDbLine
 10
161.8743842888582
 20
261.636445751834
 30
0.0
 11
161.8743842888582
 21
264.7664457518331
 31
0.0
  0
LINE
  5
ADF
330
1F
100
AcDbEntity
  8
0
 62
     0
100
AcDbLine
 10
161.4012229843103
 20
266.3464457518331
 30
0.0
 11
161.8743842888582
 21
266.7164457518339
 31
0.0
  0
LINE
  5
AE0
330
1F
100
AcDbEntity
  8
0
 62
     0
100
AcDbLine
 10
163.0109914317147
 20
266.3854569326159
 30
0.0
 11
163.0109914317147
 21
266.3464457518331
 31
0.0
  0
LINE
  5
AE1
330
1F
100
AcDbEntity
  8
0
 62
     0
100
AcDbLine
 10
162.6993842888571
 20
266.7164457518339
 30
0.0
 11
163.0109914317147
 21
266.3854569326159
 31
0.0
  0
LINE
  5
AE2
330
1F
100
AcDbEntity
  8
0
 62
     0
100
AcDbLine
 10
161.8743842888582
 20
266.7164457518339
 30
0.0
 11
162.6993842888571
 21
266.7164457518339
 31
0.0
  0
LINE
  5
AE3
330
1F
100
AcDbEntity
  8
0
 62
     0
100
AcDbLine
 10
163.0109914317147
 20
266.3464457518331
 30
0.0
 11
161.4012229843103
 21
266.3464457518331
 31
0.0
  0
LINE
  5
AE4
330
1F
100
AcDbEntity
  8
0
 62
     0
100
AcDbLine
 10
161.4012229843103
 20
270.2164457518339
 30
0.0
 11
161.8743842888582
 21
269.8464457518331
 31
0.0
  0
LINE
  5
AE5
330
1F
100
AcDbEntity
  8
0
 62
     0
100
AcDbLine
 10
163.0109914317147
 20
270.1774345710528
 30
0.0
 11
162.6993842888571
 21
269.8464457518331
 31
0.0
  0
LINE
  5
AE6
330
1F
100
AcDbEntity
  8
0
 62
     0
100
AcDbLine
 10
163.0109914317147
 20
270.2164457518339
 30
0.0
 11
163.0109914317147
 21
270.1774345710528
 31
0.0
  0
LINE
  5
AE7
330
1F
100
AcDbEntity
  8
0
 62
     0
100
AcDbLine
 10
161.8743842888582
 20
269.8464457518331
 30
0.0
 11
162.6993842888571
 21
269.8464457518331
 31
0.0
  0
LINE
  5
AE8
330
1F
100
AcDbEntity
  8
0
 62
     0
100
AcDbLine
 10
161.4012229843103
 20
270.2164457518339
 30
0.0
 11
163.0109914317147
 21
270.2164457518339
 31
0.0
  0
LINE
  5
AE9
330
1F
100
AcDbEntity
  8
0
 62
     0
100
AcDbLine
 10
163.0109914317147
 20
270.1774345710528
 30
0.0
 11
163.0109914317147
 21
266.3854569326159
 31
0.0
  0
LINE
  5
AEA
330
1F
100
AcDbEntity
  8
0
 62
     0
100
AcDbLine
 10
162.6993842888571
 20
266.7164457518339
 30
0.0
 11
162.6993842888571
 21
269.8464457518331
 31
0.0
  0
LINE
  5
AEB
330
1F
100
AcDbEntity
  8
0
 62
     0
100
AcDbLine
 10
161.8743842888582
 20
266.7164457518339
 30
0.0
 11
161.8743842888582
 21
269.8464457518331
 31
0.0
  0
LINE
  5
AEC
330
1F
100
AcDbEntity
  8
0
 62
     0
100
AcDbLine
 10
163.0109914317147
 20
266.3464457518331
 30
0.0
 11
163.0109914317147
 21
265.136445751834
 31
0.0
  0
LINE
  5
AED
330
1F
100
AcDbEntity
  8
0
 62
     0
100
AcDbLine
 10
161.4012229843103
 20
266.3464457518331
 30
0.0
 11
161.4012229843103
 21
265.136445751834
 31
0.0
  0
LINE
  5
AEE
330
1F
100
AcDbEntity
  8
0
 62
     0
100
AcDbLine
 10
165.6043842888577
 20
265.2414457518335
 30
0.0
 11
165.8723334812896
 21
265.5093949442654
 31
0.0
  0
LINE
  5
AEF
330
1F
100
AcDbEntity
  8
0
 62
     0
100
AcDbLine
 10
166.3364350964259
 20
265.5093949442654
 30
0.0
 11
166.6043842888577
 21
265.2414457518335
 31
0.0
  0
LINE
  5
AF0
330
1F
100
AcDbEntity
  8
0
 62
     0
100
AcDbLine
 10
168.6043842888577
 20
262.8155116746876
 30
0.0
 11
168.6043842888577
 21
263.5873798289813
 31
0.0
  0
LINE
  5
AF1
330
1F
100
AcDbEntity
  8
0
 62
     0
100
AcDbLine
 10
166.8543842888577
 20
263.4024076461556
 30
0.0
 11
166.8543842888577
 21
263.0004838575097
 31
0.0
  0
LINE
  5
AF2
330
1F
100
AcDbEntity
  8
0
 62
     0
100
AcDbLine
 10
168.3043842888566
 20
262.7010535572718
 30
0.0
 11
168.3043842888566
 21
263.7018379463971
 31
0.0
  0
LINE
  5
AF3
330
1F
100
AcDbEntity
  8
0
 62
     0
100
AcDbLine
 10
165.8723334812896
 20
265.5093949442654
 30
0.0
 11
166.3364350964259
 21
265.5093949442654
 31
0.0
  0
LINE
  5
AF4
330
1F
100
AcDbEntity
  8
0
 62
     0
100
AcDbLine
 10
165.6043842888577
 20
265.2414457518335
 30
0.0
 11
166.6043842888577
 21
265.2414457518335
 31
0.0
  0
LINE
  5
AF5
330
1F
100
AcDbEntity
  8
0
 62
     0
100
AcDbLine
 10
166.8543842888577
 20
263.0004838575097
 30
0.0
 11
166.1043842888577
 21
263.2014457518327
 31
0.0
  0
LINE
  5
AF6
330
1F
100
AcDbEntity
  8
0
 62
     0
100
AcDbLine
 10
166.1043842888577
 20
263.2014457518327
 30
0.0
 11
166.8543842888577
 21
263.4024076461556
 31
0.0
  0
LINE
  5
AF7
330
1F
100
AcDbEntity
  8
0
 62
     0
100
AcDbLine
 10
165.8723334812896
 20
265.9734965594017
 30
0.0
 11
165.6043842888577
 21
266.2414457518335
 31
0.0
  0
LINE
  5
AF8
330
1F
100
AcDbEntity
  8
0
 62
     0
100
AcDbLine
 10
166.3364350964259
 20
265.9734965594017
 30
0.0
 11
166.6043842888577
 21
266.2414457518335
 31
0.0
  0
LINE
  5
AF9
330
1F
100
AcDbEntity
  8
0
 62
     0
100
AcDbLine
 10
166.8543842888577
 20
268.0804838575114
 30
0.0
 11
166.8543842888577
 21
268.4824076461574
 31
0.0
  0
LINE
  5
AFA
330
1F
100
AcDbEntity
  8
0
 62
     0
100
AcDbLine
 10
168.6043842888577
 20
267.8955116746875
 30
0.0
 11
168.6043842888577
 21
268.6673798289795
 31
0.0
  0
LINE
  5
AFB
330
1F
100
AcDbEntity
  8
0
 62
     0
100
AcDbLine
 10
168.3043842888566
 20
267.7810535572699
 30
0.0
 11
168.3043842888566
 21
268.781837946397
 31
0.0
  0
LINE
  5
AFC
330
1F
100
AcDbEntity
  8
0
 62
     0
100
AcDbLine
 10
165.6043842888577
 20
270.3214457518334
 30
0.0
 11
166.6043842888577
 21
270.3214457518334
 31
0.0
  0
LINE
  5
AFD
330
1F
100
AcDbEntity
  8
0
 62
     0
100
AcDbLine
 10
166.1043842888577
 20
268.2814457518344
 30
0.0
 11
166.8543842888577
 21
268.0804838575114
 31
0.0
  0
LINE
  5
AFE
330
1F
100
AcDbEntity
  8
0
 62
     0
100
AcDbLine
 10
166.8543842888577
 20
268.4824076461574
 30
0.0
 11
166.1043842888577
 21
268.2814457518344
 31
0.0
  0
LINE
  5
AFF
330
1F
100
AcDbEntity
  8
0
 62
     0
100
AcDbLine
 10
165.6043842888577
 20
266.2414457518335
 30
0.0
 11
166.6043842888577
 21
266.2414457518335
 31
0.0
  0
LINE
  5
B00
330
1F
100
AcDbEntity
  8
0
 62
     0
100
AcDbLine
 10
165.8723334812896
 20
265.9734965594017
 30
0.0
 11
166.3364350964259
 21
265.9734965594017
 31
0.0
  0
LINE
  5
B01
330
1F
100
AcDbEntity
  8
0
 62
     0
100
AcDbLine
 10
166.6043842888577
 20
266.2414457518335
 30
0.0
 11
166.6043842888577
 21
265.2414457518335
 31
0.0
  0
LINE
  5
B02
330
1F
100
AcDbEntity
  8
0
 62
     0
100
AcDbLine
 10
165.8723334812896
 20
265.9734965594017
 30
0.0
 11
165.8723334812896
 21
265.5093949442654
 31
0.0
  0
LINE
  5
B03
330
1F
100
AcDbEntity
  8
0
 62
     0
100
AcDbLine
 10
165.6043842888577
 20
265.2414457518335
 30
0.0
 11
165.6043842888577
 21
266.2414457518335
 31
0.0
  0
LINE
  5
B04
330
1F
100
AcDbEntity
  8
0
 62
     0
100
AcDbLine
 10
166.3364350964259
 20
265.5093949442654
 30
0.0
 11
166.3364350964259
 21
265.9734965594017
 31
0.0
  0
CIRCLE
  5
B05
330
1F
100
AcDbEntity
  8
0
 62
     0
100
AcDbCircle
 10
166.1043842888577
 20
265.7414457518335
 30
0.0
 40
1.399999999999999
  0
LINE
  5
B06
330
1F
100
AcDbEntity
  8
0
 62
     0
100
AcDbLine
 10
161.4012229843103
 20
271.4264457518348
 30
0.0
 11
161.8743842888582
 21
271.7964457518338
 31
0.0
  0
LINE
  5
B07
330
1F
100
AcDbEntity
  8
0
 62
     0
100
AcDbLine
 10
163.0109914317147
 20
271.4654569326159
 30
0.0
 11
163.0109914317147
 21
271.4264457518348
 31
0.0
  0
LINE
  5
B08
330
1F
100
AcDbEntity
  8
0
 62
     0
100
AcDbLine
 10
162.6993842888571
 20
271.7964457518338
 30
0.0
 11
163.0109914317147
 21
271.4654569326159
 31
0.0
  0
LINE
  5
B09
330
1F
100
AcDbEntity
  8
0
 62
     0
100
AcDbLine
 10
161.8743842888582
 20
271.7964457518338
 30
0.0
 11
162.6993842888571
 21
271.7964457518338
 31
0.0
  0
LINE
  5
B0A
330
1F
100
AcDbEntity
  8
0
 62
     0
100
AcDbLine
 10
163.0109914317147
 20
271.4264457518348
 30
0.0
 11
161.4012229843103
 21
271.4264457518348
 31
0.0
  0
LINE
  5
B0B
330
1F
100
AcDbEntity
  8
0
 62
     0
100
AcDbLine
 10
165.8723334812896
 20
270.5893949442635
 30
0.0
 11
165.8723334812896
 21
271.0534965594034
 31
0.0
  0
LINE
  5
B0C
330
1F
100
AcDbEntity
  8
0
 62
     0
100
AcDbLine
 10
165.6043842888577
 20
271.3214457518335
 30
0.0
 11
165.8723334812896
 21
271.0534965594034
 31
0.0
  0
LINE
  5
B0D
330
1F
100
AcDbEntity
  8
0
 62
     0
100
AcDbLine
 10
166.6043842888577
 20
271.3214457518335
 30
0.0
 11
166.3364350964259
 21
271.0534965594034
 31
0.0
  0
LINE
  5
B0E
330
1F
100
AcDbEntity
  8
0
 62
     0
100
AcDbLine
 10
166.3364350964259
 20
270.5893949442635
 30
0.0
 11
166.3364350964259
 21
271.0534965594034
 31
0.0
  0
LINE
  5
B0F
330
1F
100
AcDbEntity
  8
0
 62
     0
100
AcDbLine
 10
165.8723334812896
 20
271.0534965594034
 30
0.0
 11
166.3364350964259
 21
271.0534965594034
 31
0.0
  0
LINE
  5
B10
330
1F
100
AcDbEntity
  8
0
 62
     0
100
AcDbLine
 10
165.6043842888577
 20
271.3214457518335
 30
0.0
 11
166.6043842888577
 21
271.3214457518335
 31
0.0
  0
LINE
  5
B11
330
1F
100
AcDbEntity
  8
0
 62
     0
100
AcDbLine
 10
165.8723334812896
 20
270.5893949442635
 30
0.0
 11
166.3364350964259
 21
270.5893949442635
 31
0.0
  0
LINE
  5
B12
330
1F
100
AcDbEntity
  8
0
 62
     0
100
AcDbLine
 10
165.6043842888577
 20
270.3214457518334
 30
0.0
 11
165.8723334812896
 21
270.5893949442635
 31
0.0
  0
LINE
  5
B13
330
1F
100
AcDbEntity
  8
0
 62
     0
100
AcDbLine
 10
166.6043842888577
 20
271.3214457518335
 30
0.0
 11
166.6043842888577
 21
270.3214457518334
 31
0.0
  0
LINE
  5
B14
330
1F
100
AcDbEntity
  8
0
 62
     0
100
AcDbLine
 10
165.6043842888577
 20
271.3214457518335
 30
0.0
 11
165.6043842888577
 21
270.3214457518334
 31
0.0
  0
LINE
  5
B15
330
1F
100
AcDbEntity
  8
0
 62
     0
100
AcDbLine
 10
166.3364350964259
 20
270.5893949442635
 30
0.0
 11
166.6043842888577
 21
270.3214457518334
 31
0.0
  0
LINE
  5
B16
330
1F
100
AcDbEntity
  8
0
 62
     0
100
AcDbLine
 10
163.0109914317147
 20
271.4264457518348
 30
0.0
 11
163.0109914317147
 21
270.2164457518339
 31
0.0
  0
LINE
  5
B17
330
1F
100
AcDbEntity
  8
0
 62
     0
100
AcDbLine
 10
161.4012229843103
 20
270.2164457518339
 30
0.0
 11
161.4012229843103
 21
271.4264457518348
 31
0.0
  0
ARC
  5
B18
330
1F
100
AcDbEntity
  8
0
 62
     0
100
AcDbCircle
 10
166.1043842888577
 20
265.7414457518335
 30
0.0
 40
3.299999999999831
100
AcDbArc
 50
319.25094562257
 51
40.74905437742993
  0
ARC
  5
B19
330
1F
100
AcDbEntity
  8
0
 62
     0
100
AcDbCircle
 10
166.1043842888577
 20
265.7414457518335
 30
0.0
 40
2.999999999999804
100
AcDbArc
 50
317.1665719339523
 51
42.83342806604767
  0
LINE
  5
B1A
330
1F
100
AcDbEntity
  8
0
 62
     0
100
AcDbLine
 10
161.8743842888582
 20
271.7964457518338
 30
0.0
 11
161.8743842888584
 21
274.3614457518325
 31
0.0
  0
LINE
  5
B1B
330
1F
100
AcDbEntity
  8
0
 62
     0
100
AcDbLine
 10
162.6993842888571
 20
273.3614457518325
 30
0.0
 11
162.6993842888571
 21
271.7964457518338
 31
0.0
  0
LINE
  5
B1C
330
1F
100
AcDbEntity
  8
0
 62
     0
100
AcDbLine
 10
163.0109914317147
 20
273.3614457518325
 30
0.0
 11
163.0109914317147
 21
271.4654569326159
 31
0.0
  0
CIRCLE
  5
B1D
330
1F
100
AcDbEntity
  8
0
 62
     0
100
AcDbCircle
 10
166.1043842888577
 20
270.8214457518335
 30
0.0
 40
1.399999999999379
  0
LINE
  5
B1E
330
1F
100
AcDbEntity
  8
0
 62
     0
100
AcDbLine
 10
169.9743842888567
 20
271.5214457518324
 30
0.0
 11
169.9743842888567
 21
272.3214457518334
 31
0.0
  0
ARC
  5
B1F
330
1F
100
AcDbEntity
  8
0
 62
     0
100
AcDbCircle
 10
166.1043842888577
 20
270.8214457518335
 30
0.0
 40
3.299999999999366
100
AcDbArc
 50
319.25094562257
 51
40.74905437742993
  0
ARC
  5
B20
330
1F
100
AcDbEntity
  8
0
 62
     0
100
AcDbCircle
 10
166.1043842888577
 20
270.8214457518335
 30
0.0
 40
2.999999999999353
100
AcDbArc
 50
317.1665719339523
 51
42.83342806604767
  0
LINE
  5
B21
330
1F
100
AcDbEntity
  8
0
 62
     0
100
AcDbLine
 10
174.074266576305
 20
286.8940464277457
 30
0.0
 11
174.074266576305
 21
284.194046427745
 31
0.0
  0
LINE
  5
B22
330
1F
100
AcDbEntity
  8
0
 62
     0
100
AcDbLine
 10
172.4742665763046
 20
284.194046427745
 30
0.0
 11
172.4742665763046
 21
286.8940464277457
 31
0.0
  0
LINE
  5
B23
330
1F
100
AcDbEntity
  8
0
 62
     0
100
AcDbLine
 10
174.074266576305
 20
286.8940464277457
 30
0.0
 11
172.4742665763046
 21
286.8940464277457
 31
0.0
  0
LINE
  5
B24
330
1F
100
AcDbEntity
  8
0
 62
     0
100
AcDbLine
 10
174.074266576305
 20
284.194046427745
 30
0.0
 11
172.4742665763046
 21
284.194046427745
 31
0.0
  0
LINE
  5
B25
330
1F
100
AcDbEntity
  8
0
 62
     0
100
AcDbLine
 10
174.074266576305
 20
281.3940504277853
 30
0.0
 11
174.074266576305
 21
278.6940504277846
 31
0.0
  0
LINE
  5
B26
330
1F
100
AcDbEntity
  8
0
 62
     0
100
AcDbLine
 10
172.4742665763046
 20
278.6940504277846
 30
0.0
 11
172.4742665763046
 21
281.3940504277853
 31
0.0
  0
LINE
  5
B27
330
1F
100
AcDbEntity
  8
0
 62
     0
100
AcDbLine
 10
174.074266576305
 20
281.3940504277853
 30
0.0
 11
172.4742665763046
 21
281.3940504277853
 31
0.0
  0
LINE
  5
B28
330
1F
100
AcDbEntity
  8
0
 62
     0
100
AcDbLine
 10
174.074266576305
 20
278.6940504277846
 30
0.0
 11
172.4742665763046
 21
278.6940504277846
 31
0.0
  0
LINE
  5
B29
330
1F
100
AcDbEntity
  8
外枠
 62
     0
100
AcDbLine
 10
172.7743408888513
 20
279.3940504277835
 30
0.0
 11
173.8743408888535
 21
279.3940504277835
 31
0.0
  0
LINE
  5
B2A
330
1F
100
AcDbEntity
  8
外枠
 62
     0
100
AcDbLine
 10
172.7743408888513
 20
280.6940504277828
 30
0.0
 11
173.8743408888535
 21
280.6940504277828
 31
0.0
  0
LINE
  5
B2B
330
1F
100
AcDbEntity
  8
外枠
 62
     0
100
AcDbLine
 10
172.7743408888513
 20
280.6940504277828
 30
0.0
 11
173.8743408888535
 21
280.6940504277828
 31
0.0
  0
LINE
  5
B2C
330
1F
100
AcDbEntity
  8
外枠
 62
     0
100
AcDbLine
 10
172.7743408888513
 20
279.3940504277835
 30
0.0
 11
173.8743408888535
 21
279.3940504277835
 31
0.0
  0
LINE
  5
B2D
330
1F
100
AcDbEntity
  8
外枠
 62
     0
100
AcDbLine
 10
172.7743408888513
 20
279.3940504277853
 30
0.0
 11
172.7743408888513
 21
280.6940504277846
 31
0.0
  0
LINE
  5
B2E
330
1F
100
AcDbEntity
  8
外枠
 62
     0
100
AcDbLine
 10
172.7743408888513
 20
284.8940504277835
 30
0.0
 11
173.8743408888535
 21
284.8940504277835
 31
0.0
  0
LINE
  5
B2F
330
1F
100
AcDbEntity
  8
外枠
 62
     0
100
AcDbLine
 10
172.7743408888513
 20
286.1940504277828
 30
0.0
 11
173.8743408888535
 21
286.1940504277828
 31
0.0
  0
LINE
  5
B30
330
1F
100
AcDbEntity
  8
外枠
 62
     0
100
AcDbLine
 10
172.7743408888513
 20
286.1940504277828
 30
0.0
 11
173.8743408888535
 21
286.1940504277828
 31
0.0
  0
LINE
  5
B31
330
1F
100
AcDbEntity
  8
外枠
 62
     0
100
AcDbLine
 10
172.7743408888513
 20
284.8940504277835
 30
0.0
 11
173.8743408888535
 21
284.8940504277835
 31
0.0
  0
LINE
  5
B32
330
1F
100
AcDbEntity
  8
外枠
 62
     0
100
AcDbLine
 10
172.7743408888513
 20
284.8940504277853
 30
0.0
 11
172.7743408888513
 21
286.1940504277846
 31
0.0
  0
LINE
  5
B33
330
1F
100
AcDbEntity
  8
0
 62
     0
100
AcDbLine
 10
173.8743408888535
 20
286.1940504277828
 30
0.0
 11
173.8743408888535
 21
284.8940504277835
 31
0.0
  0
LINE
  5
B34
330
1F
100
AcDbEntity
  8
0
 62
     0
100
AcDbLine
 10
173.8743408888535
 20
280.6940504277828
 30
0.0
 11
173.8743408888535
 21
279.3940504277835
 31
0.0
  0
LINE
  5
B35
330
1F
100
AcDbEntity
  8
0
100
AcDbLine
 10
170.4742416888534
 20
244.5114439518348
 30
0.0
 11
170.4742416888534
 21
276.8114475518324
 31
0.0
  0
LINE
  5
B36
330
1F
100
AcDbEntity
  8
CLASS1
100
AcDbLine
 10
156.0743408888543
 20
244.5114439518348
 30
0.0
 11
156.0743408888543
 21
138.933137989392
 31
0.0
  0
LINE
  5
B37
330
1F
100
AcDbEntity
  8
0
100
AcDbLine
 10
156.0743408888543
 20
244.5114439518348
 30
0.0
 11
170.4742416888534
 21
244.5114439518348
 31
0.0
  0
LINE
  5
B38
330
1F
100
AcDbEntity
  8
0
100
AcDbLine
 10
156.0743408888543
 20
276.8114475518324
 30
0.0
 11
170.4742416888534
 21
276.8114475518324
 31
0.0
  0
LINE
  5
B39
330
1F
100
AcDbEntity
  8
0
 62
     0
100
AcDbLine
 10
156.0743408888543
 20
276.8114475518324
 30
0.0
 11
156.0743408888543
 21
291.7331379893913
 31
0.0
  0
LINE
  5
B3F
330
1F
100
AcDbEntity
  8
CLASS1
100
AcDbLine
 10
334.4485631631103
 20
133.8274619893899
 30
0.0
 11
334.4485631631103
 21
138.8287519893898
 31
0.0
  0
LINE
  5
B40
330
1F
100
AcDbEntity
  8
CLASS1
100
AcDbLine
 10
268.8260461631104
 20
135.3054469893899
 30
0.0
 11
334.4485631631103
 21
133.8274619893899
 31
0.0
  0
LINE
  5
B41
330
1F
100
AcDbEntity
  8
CLASS1
100
AcDbLine
 10
336.9485631631105
 20
305.3290109893897
 30
0.0
 11
336.9485631631103
 21
126.8290109893897
 31
0.0
  0
LINE
  5
B42
330
1F
100
AcDbEntity
  8
CLASS1
100
AcDbLine
 10
288.925561420734
 20
266.4990109893896
 30
0.0
 11
335.4485631631105
 21
267.5790109893897
 31
0.0
  0
LINE
  5
B43
330
1F
100
AcDbEntity
  8
CLASS1
100
AcDbLine
 10
289.4255611631101
 20
266.2701199893898
 30
0.0
 11
335.4485631631105
 21
267.3290109893897
 31
0.0
  0
LINE
  5
B4A
330
1F
100
AcDbEntity
  8
CLASS1
100
AcDbLine
 10
274.9808351631108
 20
290.45791298939
 30
0.0
 11
334.4255611631106
 21
291.8256089893897
 31
0.0
  0
LINE
  5
B4B
330
1F
100
AcDbEntity
  8
CLASS1
100
AcDbLine
 10
268.8260461631107
 20
295.34947698939
 30
0.0
 11
334.4485631631105
 21
296.8274619893899
 31
0.0
  0
LINE
  5
B4C
330
1F
100
AcDbEntity
  8
CLASS1
100
AcDbLine
 10
288.7375439005102
 20
164.1590109893896
 30
0.0
 11
335.4485631631102
 21
163.0790109893897
 31
0.0
  0
LINE
  5
B4D
330
1F
100
AcDbEntity
  8
CLASS1
100
AcDbLine
 10
289.4255611631101
 20
164.3879019893898
 30
0.0
 11
335.4485631631102
 21
163.3290109893897
 31
0.0
  0
LINE
  5
B4E
330
1F
100
AcDbEntity
  8
CLASS1
100
AcDbLine
 10
334.4258421631104
 20
138.8292689893897
 30
0.0
 11
274.9811151631104
 21
140.1802859893897
 31
0.0
  0
LINE
  5
B4F
330
1F
100
AcDbEntity
  8
CLASS1
100
AcDbLine
 10
287.9485631631105
 20
265.5016673197379
 30
0.0
 11
287.9485631631102
 21
165.1414375165219
 31
0.0
  0
LINE
  5
B50
330
1F
100
AcDbEntity
  8
CLASS1
100
AcDbLine
 10
288.4485631631103
 20
165.3876369893897
 30
0.0
 11
288.4485631631105
 21
265.2703849893897
 31
0.0
  0
LINE
  5
B51
330
1F
100
AcDbEntity
  8
CLASS1
100
AcDbLine
 10
274.0038371631107
 20
289.4581779893899
 30
0.0
 11
274.0038371631105
 21
141.1800279893899
 31
0.0
  0
LINE
  5
B52
330
1F
100
AcDbEntity
  8
CLASS1
100
AcDbLine
 10
268.1485631631105
 20
137.8274619893899
 30
0.0
 11
268.1485631631108
 21
292.82746198939
 31
0.0
  0
LINE
  5
B53
330
1F
100
AcDbEntity
  8
CLASS1
100
AcDbLine
 10
268.6328891631103
 20
137.8274619893899
 30
0.0
 11
268.6328891631105
 21
292.82746198939
 31
0.0
  0
LINE
  5
B54
330
1F
100
AcDbEntity
  8
CLASS1
100
AcDbLine
 10
268.9040401631102
 20
136.2814209893898
 30
0.0
 11
268.9040401631105
 21
294.3735029893898
 31
0.0
  0
ARC
  5
B55
330
1F
100
AcDbEntity
  8
CLASS1
100
AcDbCircle
 10
268.8485631631106
 20
294.3497309893899
 30
0.0
 40
1.0
100
AcDbArc
 50
91.29022700000518
 51
180.0
  0
LINE
  5
B56
330
1F
100
AcDbEntity
  8
CLASS1
100
AcDbLine
 10
268.6328891631105
 20
292.82746198939
 30
0.0
 11
267.8485631631106
 21
292.82746198939
 31
0.0
  0
LINE
  5
B57
330
1F
100
AcDbEntity
  8
CLASS1
100
AcDbLine
 10
267.8485631631106
 20
294.3497309893901
 30
0.0
 11
267.8485631631106
 21
292.82746198939
 31
0.0
  0
ARC
  5
B58
330
1F
100
AcDbEntity
  8
CLASS1
100
AcDbCircle
 10
269.9040401631104
 20
294.3735029893897
 30
0.0
 40
1.0
100
AcDbArc
 50
91.29022700000518
 51
180.0
  0
ARC
  5
B59
330
1F
100
AcDbEntity
  8
CLASS1
100
AcDbCircle
 10
275.0038371631108
 20
289.4581779893897
 30
0.0
 40
1.0
100
AcDbArc
 50
91.31802100000404
 51
180.0
  0
ARC
  5
B5A
330
1F
100
AcDbEntity
  8
CLASS1
100
AcDbCircle
 10
288.948560302701
 20
265.4992754980634
 30
0.0
 40
1.0
100
AcDbArc
 50
91.31801900000615
 51
180.0
  0
ARC
  5
B5B
330
1F
100
AcDbEntity
  8
CLASS1
100
AcDbCircle
 10
289.4485631631105
 20
265.2703849893899
 30
0.0
 40
1.0
100
AcDbArc
 50
91.31801899999311
 51
180.0
  0
LINE
  5
B5C
330
1F
100
AcDbEntity
  8
0
100
AcDbLine
 10
267.6485631631107
 20
227.40712598939
 30
0.0
 11
267.6485631631107
 21
230.40712598939
 31
0.0
  0
LINE
  5
B5D
330
1F
100
AcDbEntity
  8
0
100
AcDbLine
 10
267.6485631631107
 20
227.40712598939
 30
0.0
 11
268.6328891631105
 21
227.40712598939
 31
0.0
  0
LINE
  5
B5E
330
1F
100
AcDbEntity
  8
0
100
AcDbLine
 10
267.6485631631107
 20
230.40712598939
 30
0.0
 11
268.6328891631105
 21
230.40712598939
 31
0.0
  0
LINE
  5
B5F
330
1F
100
AcDbEntity
  8
0
100
AcDbLine
 10
267.6485631631107
 20
186.2531379893897
 30
0.0
 11
267.6485631631107
 21
189.2531379893897
 31
0.0
  0
LINE
  5
B60
330
1F
100
AcDbEntity
  8
0
100
AcDbLine
 10
267.6485631631107
 20
186.2531379893897
 30
0.0
 11
268.6328891631105
 21
186.2531379893897
 31
0.0
  0
LINE
  5
B61
330
1F
100
AcDbEntity
  8
0
100
AcDbLine
 10
267.6485631631107
 20
189.2531379893897
 30
0.0
 11
268.6328891631105
 21
189.2531379893897
 31
0.0
  0
LINE
  5
B62
330
1F
100
AcDbEntity
  8
CLASS1
100
AcDbLine
 10
268.6328891631103
 20
137.8274619893899
 30
0.0
 11
267.8485631631104
 21
137.8274619893899
 31
0.0
  0
LINE
  5
B63
330
1F
100
AcDbEntity
  8
CLASS1
100
AcDbLine
 10
267.8485631631104
 20
136.3051929893898
 30
0.0
 11
267.8485631631104
 21
137.8274619893899
 31
0.0
  0
ARC
  5
B64
330
1F
100
AcDbEntity
  8
CLASS1
100
AcDbCircle
 10
268.8485631631101
 20
136.3051929893898
 30
0.0
 40
1.0
100
AcDbArc
 50
180.0
 51
268.7097729999947
  0
ARC
  5
B65
330
1F
100
AcDbEntity
  8
CLASS1
100
AcDbCircle
 10
269.90404016311
 20
136.2814209893898
 30
0.0
 40
1.0
100
AcDbArc
 50
180.0
 51
268.7097729999947
  0
ARC
  5
B80
330
1F
100
AcDbEntity
  8
CLASS1
100
AcDbCircle
 10
288.9483318549314
 20
165.1363195735924
 30
0.0
 40
0.9997817914353083
100
AcDbArc
 50
179.7066981886691
 51
257.8287710900051
  0
ARC
  5
B81
330
1F
100
AcDbEntity
  8
CLASS1
100
AcDbCircle
 10
289.44856316311
 20
165.3876369893899
 30
0.0
 40
1.0
100
AcDbArc
 50
180.0
 51
268.6819809999938
  0
ARC
  5
B82
330
1F
100
AcDbEntity
  8
CLASS1
100
AcDbCircle
 10
275.0038371631103
 20
141.1800279893899
 30
0.0
 40
1.0
100
AcDbArc
 50
180.0
 51
268.6980460000064
  0
LINE
  5
B83
330
1F
100
AcDbEntity
  8
CLASS1
100
AcDbLine
 10
335.4485631631105
 20
290.8258739893898
 30
0.0
 11
335.4485631631102
 21
139.8290109893897
 31
0.0
  0
LINE
  5
B84
330
1F
100
AcDbEntity
  8
CLASS1
100
AcDbLine
 10
335.4485631631102
 20
163.3290109893897
 30
0.0
 11
335.4485631631105
 21
267.3290109893897
 31
0.0
  0
LINE
  5
B85
330
1F
100
AcDbEntity
  8
CLASS1
100
AcDbLine
 10
335.4485631631102
 20
152.3260999893897
 30
0.0
 11
335.4485631631105
 21
278.3319219893897
 31
0.0
  0
LINE
  5
B86
330
1F
100
AcDbEntity
  8
0
100
AcDbLine
 10
334.4485631631105
 20
296.8274619893899
 30
0.0
 11
334.4485631631105
 21
305.3290109893897
 31
0.0
  0
LINE
  5
B87
330
1F
100
AcDbEntity
  8
CLASS1
100
AcDbLine
 10
334.4485631631105
 20
305.3290109893897
 30
0.0
 11
336.9485631631105
 21
305.3290109893897
 31
0.0
  0
ARC
  5
B88
330
1F
100
AcDbEntity
  8
CLASS1
100
AcDbCircle
 10
334.4485631631105
 20
290.8258739893898
 30
0.0
 40
1.0
100
AcDbArc
 50
0.0
 51
91.31802100000404
  0
LINE
  5
B89
330
1F
100
AcDbEntity
  8
CLASS1
100
AcDbLine
 10
325.9485631631105
 20
269.8290109893897
 30
0.0
 11
325.9485631631105
 21
275.8290109893897
 31
0.0
  0
LINE
  5
B8A
330
1F
100
AcDbEntity
  8
CLASS1
100
AcDbLine
 10
329.4485631631105
 20
269.8290109893897
 30
0.0
 11
329.4485631631105
 21
275.8290109893897
 31
0.0
  0
LINE
  5
B8B
330
1F
100
AcDbEntity
  8
CLASS1
100
AcDbLine
 10
326.9381691631104
 20
275.3290109893897
 30
0.0
 11
326.9381691631101
 21
270.3290109893897
 31
0.0
  0
LINE
  5
B8C
330
1F
100
AcDbEntity
  8
CLASS1
100
AcDbLine
 10
328.9485631631105
 20
275.3290109893897
 30
0.0
 11
328.9485631631105
 21
270.3290109893897
 31
0.0
  0
LINE
  5
B8D
330
1F
100
AcDbEntity
  8
CLASS1
100
AcDbLine
 10
329.4485631631105
 20
275.3290109893897
 30
0.0
 11
329.4485631631105
 21
270.3290109893897
 31
0.0
  0
LINE
  5
B8E
330
1F
100
AcDbEntity
  8
CLASS1
100
AcDbLine
 10
334.4485631631105
 20
296.8274619893899
 30
0.0
 11
334.4485631631105
 21
291.8261379893898
 31
0.0
  0
LINE
  5
B8F
330
1F
100
AcDbEntity
  8
CLASS1
100
AcDbLine
 10
325.9485631631105
 20
275.8290109893897
 30
0.0
 11
329.4485631631105
 21
275.8290109893897
 31
0.0
  0
LINE
  5
B90
330
1F
100
AcDbEntity
  8
CLASS1
100
AcDbLine
 10
329.4485631631105
 20
275.3290109893897
 30
0.0
 11
326.9381691631104
 21
275.3290109893897
 31
0.0
  0
LINE
  5
B91
330
1F
100
AcDbEntity
  8
CLASS1
100
AcDbLine
 10
325.9485631631105
 20
269.8290109893897
 30
0.0
 11
329.4485631631105
 21
269.8290109893897
 31
0.0
  0
LINE
  5
B92
330
1F
100
AcDbEntity
  8
CLASS1
100
AcDbLine
 10
326.9381691631101
 20
270.3290109893897
 30
0.0
 11
329.4485631631105
 21
270.3290109893897
 31
0.0
  0
ARC
  5
BA1
330
1F
100
AcDbEntity
  8
CLASS1
100
AcDbCircle
 10
334.44856316311
 20
139.8290109893897
 30
0.0
 40
1.0
100
AcDbArc
 50
268.6980469999989
 51
0.0
  0
LINE
  5
BA2
330
1F
100
AcDbEntity
  8
CLASS1
100
AcDbLine
 10
325.9485631631103
 20
160.8290109893897
 30
0.0
 11
325.9485631631103
 21
154.8290109893897
 31
0.0
  0
LINE
  5
BA3
330
1F
100
AcDbEntity
  8
CLASS1
100
AcDbLine
 10
326.9381691631101
 20
155.3290109893897
 30
0.0
 11
326.9381691631101
 21
160.3290109893897
 31
0.0
  0
LINE
  5
BA4
330
1F
100
AcDbEntity
  8
CLASS1
100
AcDbLine
 10
328.9485631631102
 20
155.3290109893897
 30
0.0
 11
328.9485631631102
 21
160.3290109893897
 31
0.0
  0
LINE
  5
BA5
330
1F
100
AcDbEntity
  8
CLASS1
100
AcDbLine
 10
329.4485631631102
 20
160.8290109893897
 30
0.0
 11
329.4485631631102
 21
154.8290109893897
 31
0.0
  0
LINE
  5
BA6
330
1F
100
AcDbEntity
  8
CLASS1
100
AcDbLine
 10
329.4485631631102
 20
155.3290109893897
 30
0.0
 11
329.4485631631102
 21
160.3290109893897
 31
0.0
  0
LINE
  5
BA7
330
1F
100
AcDbEntity
  8
CLASS1
100
AcDbLine
 10
325.9485631631103
 20
154.8290109893897
 30
0.0
 11
329.4485631631102
 21
154.8290109893897
 31
0.0
  0
LINE
  5
BA8
330
1F
100
AcDbEntity
  8
CLASS1
100
AcDbLine
 10
325.9485631631103
 20
160.8290109893897
 30
0.0
 11
329.4485631631102
 21
160.8290109893897
 31
0.0
  0
LINE
  5
BA9
330
1F
100
AcDbEntity
  8
CLASS1
100
AcDbLine
 10
326.9381691631101
 20
160.3290109893897
 30
0.0
 11
329.4485631631102
 21
160.3290109893897
 31
0.0
  0
LINE
  5
BAA
330
1F
100
AcDbEntity
  8
CLASS1
100
AcDbLine
 10
329.4485631631102
 20
155.3290109893897
 30
0.0
 11
326.9381691631101
 21
155.3290109893897
 31
0.0
  0
LINE
  5
BAB
330
1F
100
AcDbEntity
  8
CLASS1
100
AcDbLine
 10
334.4485631631103
 20
126.8290109893897
 30
0.0
 11
336.9485631631103
 21
126.8290109893897
 31
0.0
  0
LINE
  5
BAC
330
1F
100
AcDbEntity
  8
0
100
AcDbLine
 10
334.4485631631103
 20
126.8290109893897
 30
0.0
 11
334.4485631631103
 21
133.8274619893899
 31
0.0
  0
LINE
  5
BAF
330
1F
100
AcDbEntity
  8
CLASS1
  6
CONTINUOUS
 62
     0
100
AcDbLine
 10
163.9740575763066
 20
35.10000021161079
 30
0.0
 11
163.9740575763066
 21
33.10000021161079
 31
0.0
  0
LINE
  5
BB0
330
1F
100
AcDbEntity
  8
CLASS1
  6
CONTINUOUS
 62
     0
100
AcDbLine
 10
162.4740575763066
 20
35.10000021161079
 30
0.0
 11
162.4740575763066
 21
33.10000021161079
 31
0.0
  0
LINE
  5
BB1
330
1F
100
AcDbEntity
  8
CLASS1
  6
CONTINUOUS
 62
     0
100
AcDbLine
 10
175.4740575763066
 20
35.90000021161051
 30
0.0
 11
175.4740575763066
 21
25.90000021161051
 31
0.0
  0
LINE
  5
BB2
330
1F
100
AcDbEntity
  8
CLASS1
  6
CONTINUOUS
 62
     0
100
AcDbLine
 10
165.4740575763066
 20
25.90000021161051
 30
0.0
 11
165.4740575763066
 21
35.90000021161051
 31
0.0
  0
LINE
  5
BB3
330
1F
100
AcDbEntity
  8
CLASS1
  6
CONTINUOUS
 62
     0
100
AcDbLine
 10
166.9740575763066
 20
27.90000021161052
 30
0.0
 11
166.9740575763066
 21
33.90000021161052
 31
0.0
  0
LINE
  5
BB4
330
1F
100
AcDbEntity
  8
CLASS1
  6
CONTINUOUS
 62
     0
100
AcDbLine
 10
173.9740575763066
 20
33.90000021161052
 30
0.0
 11
173.9740575763066
 21
27.90000021161052
 31
0.0
  0
LINE
  5
BB5
330
1F
100
AcDbEntity
  8
CLASS1
  6
CONTINUOUS
 62
     0
100
AcDbLine
 10
185.0589325763067
 20
61.96012621161059
 30
0.0
 11
185.9744585763064
 21
2.515399211610542
 31
0.0
  0
LINE
  5
BB6
330
1F
100
AcDbEntity
  8
CLASS1
  6
CONTINUOUS
 62
     0
100
AcDbLine
 10
151.8891815763065
 20
61.96012621161059
 30
0.0
 11
150.9736565763064
 21
2.515399211610542
 31
0.0
  0
LINE
  5
BB7
330
1F
100
AcDbEntity
  8
CLASS1
  6
CONTINUOUS
 62
     0
100
AcDbLine
 10
178.5604885763066
 20
61.7965852116107
 30
0.0
 11
179.4737325763066
 21
2.500000211610654
 31
0.0
  0
LINE
  5
BB8
330
1F
100
AcDbEntity
  8
CLASS1
  6
CONTINUOUS
 62
     0
100
AcDbLine
 10
158.3876575763065
 20
61.7985952116104
 30
0.0
 11
157.4743825763066
 21
2.500000211610654
 31
0.0
  0
LINE
  5
BB9
330
1F
100
AcDbEntity
  8
CLASS1
  6
CONTINUOUS
 62
     0
100
AcDbLine
 10
182.9779559981138
 20
68.1900726377313
 30
0.0
 11
183.9742665763064
 21
2.500000211610654
 31
0.0
  0
LINE
  5
BBA
330
1F
100
AcDbEntity
  8
CLASS1
  6
CONTINUOUS
 62
     0
100
AcDbLine
 10
153.9701591544994
 20
68.19007363773119
 30
0.0
 11
152.9738485763066
 21
2.500000211610654
 31
0.0
  0
INSERT
  5
BBB
330
1F
100
AcDbEntity
  8
0
100
AcDbBlockReference
  2
A$C51C20FFB
 10
152.9742665763064
 20
0.0000015489328007
 30
0.0
  0
LINE
  5
BBC
330
1F
100
AcDbEntity
  8
CLASS1
  6
CONTINUOUS
 62
     0
100
AcDbLine
 10
152.9738485763066
 20
2.500000211610654
 30
0.0
 11
183.9742665763064
 21
2.500000211610654
 31
0.0
  0
LINE
  5
BBD
330
1F
100
AcDbEntity
  8
CLASS1
  6
CONTINUOUS
 62
     0
100
AcDbLine
 10
183.9742665763064
 20
1.500000211610654
 30
0.0
 11
184.9745775763067
 21
1.500000211610654
 31
0.0
  0
ARC
  5
BBE
330
1F
100
AcDbEntity
  8
CLASS1
  6
CONTINUOUS
 62
     0
100
AcDbCircle
 10
184.9745775763067
 20
2.500000211610881
 30
0.0
 40
1.0
100
AcDbArc
 50
270.0
 51
0.8823590000053707
  0
LINE
  5
BBF
330
1F
100
AcDbEntity
  8
CLASS1
  6
CONTINUOUS
 62
     0
100
AcDbLine
 10
183.9742665763064
 20
1.500000211610654
 30
0.0
 11
183.9742665763064
 21
2.500000211610654
 31
0.0
  0
LINE
  5
BC0
330
1F
100
AcDbEntity
  8
CLASS1
  6
CONTINUOUS
 62
     0
100
AcDbLine
 10
173.4740575763066
 20
27.40000021161051
 30
0.0
 11
167.4740575763066
 21
27.40000021161051
 31
0.0
  0
LINE
  5
BC1
330
1F
100
AcDbEntity
  8
CLASS1
  6
CONTINUOUS
 62
     0
100
AcDbLine
 10
175.4740575763066
 20
25.90000021161051
 30
0.0
 11
165.4740575763066
 21
25.90000021161051
 31
0.0
  0
LINE
  5
BC2
330
1F
100
AcDbEntity
  8
CLASS1
  6
CONTINUOUS
 62
     0
100
AcDbLine
 10
174.4740575763066
 20
23.10000021161079
 30
0.0
 11
162.4740575763066
 21
23.10000021161079
 31
0.0
  0
LINE
  5
BC3
330
1F
100
AcDbEntity
  8
CLASS1
  6
CONTINUOUS
 62
     0
100
AcDbLine
 10
162.4740575763066
 20
21.10000021161078
 30
0.0
 11
174.4740575763066
 21
21.10000021161078
 31
0.0
  0
LINE
  5
BC4
330
1F
100
AcDbEntity
  8
CLASS1
  6
CONTINUOUS
 62
     0
100
AcDbLine
 10
174.4740575763066
 20
19.10000021161079
 30
0.0
 11
162.4740575763066
 21
19.10000021161079
 31
0.0
  0
LINE
  5
BC5
330
1F
100
AcDbEntity
  8
CLASS1
  6
CONTINUOUS
 62
     0
100
AcDbLine
 10
162.4740575763066
 20
17.10000021161079
 30
0.0
 11
174.4740575763066
 21
17.10000021161079
 31
0.0
  0
LINE
  5
BC6
330
1F
100
AcDbEntity
  8
CLASS1
  6
CONTINUOUS
 62
     0
100
AcDbLine
 10
174.4740575763066
 20
11.10000021161079
 30
0.0
 11
162.4740575763066
 21
11.10000021161079
 31
0.0
  0
LINE
  5
BC7
330
1F
100
AcDbEntity
  8
CLASS1
  6
CONTINUOUS
 62
     0
100
AcDbLine
 10
162.4740575763066
 20
13.10000021161079
 30
0.0
 11
174.4740575763066
 21
13.10000021161079
 31
0.0
  0
LINE
  5
BC8
330
1F
100
AcDbEntity
  8
CLASS1
  6
CONTINUOUS
 62
     0
100
AcDbLine
 10
174.4740575763066
 20
15.10000021161079
 30
0.0
 11
162.4740575763066
 21
15.10000021161079
 31
0.0
  0
LINE
  5
BC9
330
1F
100
AcDbEntity
  8
CLASS1
  6
CONTINUOUS
 62
     0
100
AcDbLine
 10
162.4740575763066
 20
9.10000021161079
 30
0.0
 11
174.4740575763066
 21
9.10000021161079
 31
0.0
  0
LINE
  5
BCA
330
1F
100
AcDbEntity
  8
CLASS1
  6
CONTINUOUS
 62
     0
100
AcDbLine
 10
174.4740575763066
 20
17.10000021161079
 30
0.0
 11
174.4740575763066
 21
19.10000021161079
 31
0.0
  0
LINE
  5
BCB
330
1F
100
AcDbEntity
  8
CLASS1
  6
CONTINUOUS
 62
     0
100
AcDbLine
 10
174.4740575763066
 20
13.10000021161079
 30
0.0
 11
174.4740575763066
 21
15.10000021161079
 31
0.0
  0
LINE
  5
BCC
330
1F
100
AcDbEntity
  8
CLASS1
  6
CONTINUOUS
 62
     0
100
AcDbLine
 10
174.4740575763066
 20
9.10000021161079
 30
0.0
 11
174.4740575763066
 21
11.10000021161079
 31
0.0
  0
LINE
  5
BCD
330
1F
100
AcDbEntity
  8
CLASS1
  6
CONTINUOUS
 62
     0
100
AcDbLine
 10
175.4740575763066
 20
30.15000021161052
 30
0.0
 11
173.9740575763066
 21
30.15000021161052
 31
0.0
  0
LINE
  5
BCE
330
1F
100
AcDbEntity
  8
CLASS1
  6
CONTINUOUS
 62
     0
100
AcDbLine
 10
175.4740575763066
 20
31.65000021161052
 30
0.0
 11
173.9740575763066
 21
31.65000021161052
 31
0.0
  0
ARC
  5
BCF
330
1F
100
AcDbEntity
  8
CLASS1
  6
CONTINUOUS
 62
     0
100
AcDbCircle
 10
173.4740575763066
 20
27.90000021161074
 30
0.0
 40
0.5
100
AcDbArc
 50
270.0
 51
0.0
  0
LINE
  5
BD0
330
1F
100
AcDbEntity
  8
CLASS1
  6
CONTINUOUS
 62
     0
100
AcDbLine
 10
174.4740575763066
 20
21.10000021161078
 30
0.0
 11
174.4740575763066
 21
23.10000021161079
 31
0.0
  0
LINE
  5
BD1
330
1F
100
AcDbEntity
  8
CLASS1
  6
CONTINUOUS
 62
     0
100
AcDbLine
 10
162.4740575763066
 20
19.10000021161079
 30
0.0
 11
162.4740575763066
 21
17.10000021161079
 31
0.0
  0
LINE
  5
BD2
330
1F
100
AcDbEntity
  8
CLASS1
  6
CONTINUOUS
 62
     0
100
AcDbLine
 10
162.4740575763066
 20
15.10000021161079
 30
0.0
 11
162.4740575763066
 21
13.10000021161079
 31
0.0
  0
LINE
  5
BD3
330
1F
100
AcDbEntity
  8
CLASS1
  6
CONTINUOUS
 62
     0
100
AcDbLine
 10
162.4740575763066
 20
11.10000021161079
 30
0.0
 11
162.4740575763066
 21
9.10000021161079
 31
0.0
  0
LINE
  5
BD4
330
1F
100
AcDbEntity
  8
CLASS1
  6
CONTINUOUS
 62
     0
100
AcDbLine
 10
162.4740575763066
 20
33.10000021161079
 30
0.0
 11
163.9740575763066
 21
33.10000021161079
 31
0.0
  0
LINE
  5
BD5
330
1F
100
AcDbEntity
  8
CLASS1
  6
CONTINUOUS
 62
     0
100
AcDbLine
 10
162.4740575763066
 20
31.10000021161079
 30
0.0
 11
162.4740575763066
 21
29.10000021161079
 31
0.0
  0
LINE
  5
BD6
330
1F
100
AcDbEntity
  8
CLASS1
  6
CONTINUOUS
 62
     0
100
AcDbLine
 10
163.9740575763066
 20
31.10000021161079
 30
0.0
 11
163.9740575763066
 21
29.10000021161079
 31
0.0
  0
LINE
  5
BD7
330
1F
100
AcDbEntity
  8
CLASS1
  6
CONTINUOUS
 62
     0
100
AcDbLine
 10
162.4740575763066
 20
29.10000021161079
 30
0.0
 11
163.9740575763066
 21
29.10000021161079
 31
0.0
  0
LINE
  5
BD8
330
1F
100
AcDbEntity
  8
CLASS1
  6
CONTINUOUS
 62
     0
100
AcDbLine
 10
163.9740575763066
 20
31.10000021161079
 30
0.0
 11
162.4740575763066
 21
31.10000021161079
 31
0.0
  0
LINE
  5
BD9
330
1F
100
AcDbEntity
  8
CLASS1
  6
CONTINUOUS
 62
     0
100
AcDbLine
 10
166.9740575763066
 20
30.15000021161052
 30
0.0
 11
165.4740575763066
 21
30.15000021161052
 31
0.0
  0
LINE
  5
BDA
330
1F
100
AcDbEntity
  8
CLASS1
  6
CONTINUOUS
 62
     0
100
AcDbLine
 10
166.9740575763066
 20
31.65000021161052
 30
0.0
 11
165.4740575763066
 21
31.65000021161052
 31
0.0
  0
ARC
  5
BDB
330
1F
100
AcDbEntity
  8
CLASS1
  6
CONTINUOUS
 62
     0
100
AcDbCircle
 10
167.4740575763066
 20
27.90000021161074
 30
0.0
 40
0.5
100
AcDbArc
 50
180.0
 51
270.0
  0
LINE
  5
BDC
330
1F
100
AcDbEntity
  8
CLASS1
  6
CONTINUOUS
 62
     0
100
AcDbLine
 10
162.4740575763066
 20
27.10000021161079
 30
0.0
 11
162.4740575763066
 21
25.10000021161079
 31
0.0
  0
LINE
  5
BDD
330
1F
100
AcDbEntity
  8
CLASS1
  6
CONTINUOUS
 62
     0
100
AcDbLine
 10
163.9740575763066
 20
27.10000021161079
 30
0.0
 11
163.9740575763066
 21
25.10000021161079
 31
0.0
  0
LINE
  5
BDE
330
1F
100
AcDbEntity
  8
CLASS1
  6
CONTINUOUS
 62
     0
100
AcDbLine
 10
163.9740575763066
 20
27.10000021161079
 30
0.0
 11
162.4740575763066
 21
27.10000021161079
 31
0.0
  0
LINE
  5
BDF
330
1F
100
AcDbEntity
  8
CLASS1
  6
CONTINUOUS
 62
     0
100
AcDbLine
 10
162.4740575763066
 20
25.10000021161079
 30
0.0
 11
163.9740575763066
 21
25.10000021161079
 31
0.0
  0
LINE
  5
BE0
330
1F
100
AcDbEntity
  8
CLASS1
  6
CONTINUOUS
 62
     0
100
AcDbLine
 10
162.4740575763066
 20
23.10000021161079
 30
0.0
 11
162.4740575763066
 21
21.10000021161078
 31
0.0
  0
LINE
  5
BE1
330
1F
100
AcDbEntity
  8
CLASS1
  6
CONTINUOUS
 62
     0
100
AcDbLine
 10
152.9738485763066
 20
1.500000211610654
 30
0.0
 11
151.9735385763065
 21
1.500000211610654
 31
0.0
  0
LINE
  5
BE2
330
1F
100
AcDbEntity
  8
CLASS1
  6
CONTINUOUS
 62
     0
100
AcDbLine
 10
152.9738485763066
 20
2.500000211610654
 30
0.0
 11
152.9738485763066
 21
1.500000211610654
 31
0.0
  0
ARC
  5
BE3
330
1F
100
AcDbEntity
  8
CLASS1
  6
CONTINUOUS
 62
     0
100
AcDbCircle
 10
151.9735385763065
 20
2.500000211610881
 30
0.0
 40
1.0
100
AcDbArc
 50
179.1176409999946
 51
270.0
  0
LINE
  5
BE4
330
1F
100
AcDbEntity
  8
CLASS1
  6
CONTINUOUS
 62
     0
100
AcDbLine
 10
184.0590505763066
 20
62.94472621161038
 30
0.0
 11
183.0433385763067
 21
62.94472621161038
 31
0.0
  0
ARC
  5
BE5
330
1F
100
AcDbEntity
  8
CLASS1
  6
CONTINUOUS
 62
     0
100
AcDbCircle
 10
184.0590505763066
 20
61.9447262116106
 30
0.0
 40
1.0
100
AcDbArc
 50
0.8823590000053707
 51
90.0
  0
ARC
  5
BE6
330
1F
100
AcDbEntity
  8
CLASS1
  6
CONTINUOUS
 62
     0
100
AcDbCircle
 10
160.3873885763066
 20
61.76578621161081
 30
0.0
 40
2.0
100
AcDbArc
 50
94.73325899999677
 51
179.1176409999946
  0
LINE
  5
BE7
330
1F
100
AcDbEntity
  8
CLASS1
  6
CONTINUOUS
 62
     0
100
AcDbLine
 10
162.4740575763066
 20
57.10000021161079
 30
0.0
 11
174.4740575763066
 21
57.10000021161079
 31
0.0
  0
LINE
  5
BE8
330
1F
100
AcDbEntity
  8
CLASS1
  6
CONTINUOUS
 62
     0
100
AcDbLine
 10
174.4740575763066
 20
59.10000021161079
 30
0.0
 11
162.4740575763066
 21
59.10000021161079
 31
0.0
  0
LINE
  5
BE9
330
1F
100
AcDbEntity
  8
CLASS1
  6
CONTINUOUS
 62
     0
100
AcDbLine
 10
174.4740575763066
 20
55.10000021161079
 30
0.0
 11
162.4740575763066
 21
55.10000021161079
 31
0.0
  0
LINE
  5
BEA
330
1F
100
AcDbEntity
  8
CLASS1
  6
CONTINUOUS
 62
     0
100
AcDbLine
 10
162.4740575763066
 20
53.10000021161079
 30
0.0
 11
174.4740575763066
 21
53.10000021161079
 31
0.0
  0
LINE
  5
BEB
330
1F
100
AcDbEntity
  8
CLASS1
  6
CONTINUOUS
 62
     0
100
AcDbLine
 10
174.4740575763066
 20
51.10000021161079
 30
0.0
 11
162.4740575763066
 21
51.10000021161079
 31
0.0
  0
LINE
  5
BEC
330
1F
100
AcDbEntity
  8
CLASS1
  6
CONTINUOUS
 62
     0
100
AcDbLine
 10
162.4740575763066
 20
49.10000021161079
 30
0.0
 11
174.4740575763066
 21
49.10000021161079
 31
0.0
  0
LINE
  5
BED
330
1F
100
AcDbEntity
  8
CLASS1
  6
CONTINUOUS
 62
     0
100
AcDbLine
 10
174.4740575763066
 20
43.10000021161079
 30
0.0
 11
162.4740575763066
 21
43.10000021161079
 31
0.0
  0
LINE
  5
BEE
330
1F
100
AcDbEntity
  8
CLASS1
  6
CONTINUOUS
 62
     0
100
AcDbLine
 10
162.4740575763066
 20
45.10000021161078
 30
0.0
 11
174.4740575763066
 21
45.10000021161078
 31
0.0
  0
LINE
  5
BEF
330
1F
100
AcDbEntity
  8
CLASS1
  6
CONTINUOUS
 62
     0
100
AcDbLine
 10
174.4740575763066
 20
47.10000021161079
 30
0.0
 11
162.4740575763066
 21
47.10000021161079
 31
0.0
  0
LINE
  5
BF0
330
1F
100
AcDbEntity
  8
CLASS1
  6
CONTINUOUS
 62
     0
100
AcDbLine
 10
162.4740575763066
 20
41.10000021161079
 30
0.0
 11
174.4740575763066
 21
41.10000021161079
 31
0.0
  0
LINE
  5
BF1
330
1F
100
AcDbEntity
  8
CLASS1
  6
CONTINUOUS
 62
     0
100
AcDbLine
 10
165.4740575763066
 20
35.90000021161051
 30
0.0
 11
175.4740575763066
 21
35.90000021161051
 31
0.0
  0
LINE
  5
BF2
330
1F
100
AcDbEntity
  8
CLASS1
  6
CONTINUOUS
 62
     0
100
AcDbLine
 10
162.4740575763066
 20
37.10000021161079
 30
0.0
 11
174.4740575763066
 21
37.10000021161079
 31
0.0
  0
LINE
  5
BF3
330
1F
100
AcDbEntity
  8
CLASS1
  6
CONTINUOUS
 62
     0
100
AcDbLine
 10
174.4740575763066
 20
39.10000021161079
 30
0.0
 11
162.4740575763066
 21
39.10000021161079
 31
0.0
  0
LINE
  5
BF4
330
1F
100
AcDbEntity
  8
CLASS1
  6
CONTINUOUS
 62
     0
100
AcDbLine
 10
167.4740575763066
 20
34.40000021161051
 30
0.0
 11
173.4740575763066
 21
34.40000021161051
 31
0.0
  0
LINE
  5
BF5
330
1F
100
AcDbEntity
  8
CLASS1
  6
CONTINUOUS
 62
     0
100
AcDbLine
 10
174.4740575763066
 20
45.10000021161078
 30
0.0
 11
174.4740575763066
 21
47.10000021161079
 31
0.0
  0
LINE
  5
BF6
330
1F
100
AcDbEntity
  8
CLASS1
  6
CONTINUOUS
 62
     0
100
AcDbLine
 10
174.4740575763066
 20
37.10000021161079
 30
0.0
 11
174.4740575763066
 21
39.10000021161079
 31
0.0
  0
ARC
  5
BF7
330
1F
100
AcDbEntity
  8
CLASS1
  6
CONTINUOUS
 62
     0
100
AcDbCircle
 10
173.4740575763066
 20
33.90000021161074
 30
0.0
 40
0.5
100
AcDbArc
 50
0.0
 51
90.0
  0
LINE
  5
BF8
330
1F
100
AcDbEntity
  8
CLASS1
  6
CONTINUOUS
 62
     0
100
AcDbLine
 10
174.4740575763066
 20
41.10000021161079
 30
0.0
 11
174.4740575763066
 21
43.10000021161079
 31
0.0
  0
LINE
  5
BF9
330
1F
100
AcDbEntity
  8
CLASS1
  6
CONTINUOUS
 62
     0
100
AcDbLine
 10
174.4740575763066
 20
57.10000021161079
 30
0.0
 11
174.4740575763066
 21
59.10000021161079
 31
0.0
  0
LINE
  5
BFA
330
1F
100
AcDbEntity
  8
CLASS1
  6
CONTINUOUS
 62
     0
100
AcDbLine
 10
174.4740575763066
 20
49.10000021161079
 30
0.0
 11
174.4740575763066
 21
51.10000021161079
 31
0.0
  0
LINE
  5
BFB
330
1F
100
AcDbEntity
  8
CLASS1
  6
CONTINUOUS
 62
     0
100
AcDbLine
 10
174.4740575763066
 20
53.10000021161079
 30
0.0
 11
174.4740575763066
 21
55.10000021161079
 31
0.0
  0
LINE
  5
BFC
330
1F
100
AcDbEntity
  8
CLASS1
  6
CONTINUOUS
 62
     0
100
AcDbLine
 10
162.4740575763066
 20
47.10000021161079
 30
0.0
 11
162.4740575763066
 21
45.10000021161078
 31
0.0
  0
LINE
  5
BFD
330
1F
100
AcDbEntity
  8
CLASS1
  6
CONTINUOUS
 62
     0
100
AcDbLine
 10
162.4740575763066
 20
39.10000021161079
 30
0.0
 11
162.4740575763066
 21
37.10000021161079
 31
0.0
  0
ARC
  5
BFE
330
1F
100
AcDbEntity
  8
CLASS1
  6
CONTINUOUS
 62
     0
100
AcDbCircle
 10
167.4740575763066
 20
33.90000021161074
 30
0.0
 40
0.5
100
AcDbArc
 50
90.0
 51
180.0
  0
LINE
  5
BFF
330
1F
100
AcDbEntity
  8
CLASS1
  6
CONTINUOUS
 62
     0
100
AcDbLine
 10
163.9740575763066
 20
35.10000021161079
 30
0.0
 11
162.4740575763066
 21
35.10000021161079
 31
0.0
  0
LINE
  5
C00
330
1F
100
AcDbEntity
  8
CLASS1
  6
CONTINUOUS
 62
     0
100
AcDbLine
 10
162.4740575763066
 20
43.10000021161079
 30
0.0
 11
162.4740575763066
 21
41.10000021161079
 31
0.0
  0
LINE
  5
C01
330
1F
100
AcDbEntity
  8
CLASS1
  6
CONTINUOUS
 62
     0
100
AcDbLine
 10
162.4740575763066
 20
59.10000021161079
 30
0.0
 11
162.4740575763066
 21
57.10000021161079
 31
0.0
  0
LINE
  5
C02
330
1F
100
AcDbEntity
  8
CLASS1
  6
CONTINUOUS
 62
     0
100
AcDbLine
 10
162.4740575763066
 20
51.10000021161079
 30
0.0
 11
162.4740575763066
 21
49.10000021161079
 31
0.0
  0
LINE
  5
C03
330
1F
100
AcDbEntity
  8
CLASS1
  6
CONTINUOUS
 62
     0
100
AcDbLine
 10
162.4740575763066
 20
55.10000021161079
 30
0.0
 11
162.4740575763066
 21
53.10000021161079
 31
0.0
  0
ARC
  5
C04
330
1F
100
AcDbEntity
  8
CLASS1
  6
CONTINUOUS
 62
     0
100
AcDbCircle
 10
168.4740575763066
 20
-35.89999978838921
 30
0.0
 40
100.0
100
AcDbArc
 50
85.2667410000032
 51
94.73325899999677
  0
ARC
  5
C05
330
1F
100
AcDbEntity
  8
CLASS1
  6
CONTINUOUS
 62
     0
100
AcDbCircle
 10
176.5607245763067
 20
61.7657872116107
 30
0.0
 40
2.0
100
AcDbArc
 50
0.8823600000015774
 51
85.2667410000032
  0
LINE
  5
C06
330
1F
100
AcDbEntity
  8
CLASS1
  6
CONTINUOUS
 62
     0
100
AcDbLine
 10
152.8890635763066
 20
62.94472621161038
 30
0.0
 11
153.9047745763066
 21
62.94472621161038
 31
0.0
  0
ARC
  5
C07
330
1F
100
AcDbEntity
  8
CLASS1
  6
CONTINUOUS
 62
     0
100
AcDbCircle
 10
152.8890635763066
 20
61.9447262116106
 30
0.0
 40
1.0
100
AcDbArc
 50
90.0
 51
179.1176409999946
  0
LINE
  5
C08
330
1F
100
AcDbEntity
  8
CLASS1
  6
CONTINUOUS
 62
     0
100
AcDbLine
 10
152.9738494489663
 20
435.3181808115331
 30
0.0
 11
183.9742674489662
 21
435.3181808115331
 31
0.0
  0
INSERT
  5
C09
330
1F
100
AcDbEntity
  8
0
100
AcDbBlockReference
  2
A$C51C20FFB
 10
183.9742674489662
 20
438.8181794742112
 30
0.0
 50
180.0
  0
LINE
  5
C0A
330
1F
100
AcDbEntity
  8
CLASS1
  6
CONTINUOUS
 62
     0
100
AcDbLine
 10
178.5604904489662
 20
376.021595811533
 30
0.0
 11
179.4737334489662
 21
435.3181808115331
 31
0.0
  0
LINE
  5
C0B
330
1F
100
AcDbEntity
  8
CLASS1
  6
CONTINUOUS
 62
     0
100
AcDbLine
 10
185.0589344489662
 20
375.8580548115332
 30
0.0
 11
185.9744594489661
 21
435.3027818115332
 31
0.0
  0
LINE
  5
C0C
330
1F
100
AcDbEntity
  8
CLASS1
  6
CONTINUOUS
 62
     0
100
AcDbLine
 10
182.9779574489662
 20
370.6281068115334
 30
0.0
 11
183.9742674489662
 21
435.3181808115331
 31
0.0
  0
ARC
  5
C0D
330
1F
100
AcDbEntity
  8
CLASS1
  6
CONTINUOUS
 62
     0
100
AcDbCircle
 10
184.0590524489659
 20
375.8734548115334
 30
0.0
 40
1.0
100
AcDbArc
 50
270.0
 51
359.1176409999945
  0
LINE
  5
C0E
330
1F
100
AcDbEntity
  8
CLASS1
  6
CONTINUOUS
 62
     0
100
AcDbLine
 10
184.0590524489662
 20
374.8734548115334
 30
0.0
 11
183.0433404489663
 21
374.8734548115334
 31
0.0
  0
ARC
  5
C0F
330
1F
100
AcDbEntity
  8
CLASS1
  6
CONTINUOUS
 62
     0
100
AcDbCircle
 10
184.9745784489659
 20
435.3181808115331
 30
0.0
 40
1.0
100
AcDbArc
 50
359.1176409999945
 51
90.0
  0
LINE
  5
C10
330
1F
100
AcDbEntity
  8
CLASS1
  6
CONTINUOUS
 62
     0
100
AcDbLine
 10
183.9742674489662
 20
436.3181808115331
 30
0.0
 11
183.9742674489662
 21
435.3181808115331
 31
0.0
  0
LINE
  5
C11
330
1F
100
AcDbEntity
  8
CLASS1
  6
CONTINUOUS
 62
     0
100
AcDbLine
 10
183.9742674489662
 20
436.3181808115331
 30
0.0
 11
184.9745784489662
 21
436.3181808115331
 31
0.0
  0
LINE
  5
C12
330
1F
100
AcDbEntity
  8
CLASS1
  6
CONTINUOUS
 62
     0
100
AcDbLine
 10
162.4740584489661
 20
391.7181808115332
 30
0.0
 11
162.4740584489661
 21
393.7181808115332
 31
0.0
  0
LINE
  5
C13
330
1F
100
AcDbEntity
  8
CLASS1
  6
CONTINUOUS
 62
     0
100
AcDbLine
 10
174.4740584489661
 20
393.7181808115332
 30
0.0
 11
174.4740584489661
 21
391.7181808115332
 31
0.0
  0
LINE
  5
C14
330
1F
100
AcDbEntity
  8
CLASS1
  6
CONTINUOUS
 62
     0
100
AcDbLine
 10
151.8891834489661
 20
375.8580548115332
 30
0.0
 11
150.9736574489663
 21
435.3027818115332
 31
0.0
  0
LINE
  5
C15
330
1F
100
AcDbEntity
  8
CLASS1
  6
CONTINUOUS
 62
     0
100
AcDbLine
 10
158.3876284489663
 20
376.021595811533
 30
0.0
 11
157.4743834489661
 21
435.3181808115331
 31
0.0
  0
LINE
  5
C16
330
1F
100
AcDbEntity
  8
CLASS1
  6
CONTINUOUS
 62
     0
100
AcDbLine
 10
153.9701874489662
 20
370.6264278115335
 30
0.0
 11
152.9738494489663
 21
435.3181808115331
 31
0.0
  0
ARC
  5
C17
330
1F
100
AcDbEntity
  8
CLASS1
  6
CONTINUOUS
 62
     0
100
AcDbCircle
 10
160.3873914489661
 20
376.0523938115333
 30
0.0
 40
2.0
100
AcDbArc
 50
180.8823600000015
 51
265.2667410000032
  0
LINE
  5
C18
330
1F
100
AcDbEntity
  8
CLASS1
  6
CONTINUOUS
 62
     0
100
AcDbLine
 10
174.4740584489661
 20
391.7181808115332
 30
0.0
 11
162.4740584489661
 21
391.7181808115332
 31
0.0
  0
LINE
  5
C19
330
1F
100
AcDbEntity
  8
CLASS1
  6
CONTINUOUS
 62
     0
100
AcDbLine
 10
174.4740584489661
 20
387.7181808115332
 30
0.0
 11
162.4740584489661
 21
387.7181808115332
 31
0.0
  0
LINE
  5
C1A
330
1F
100
AcDbEntity
  8
CLASS1
  6
CONTINUOUS
 62
     0
100
AcDbLine
 10
162.4740584489661
 20
389.7181808115332
 30
0.0
 11
174.4740584489661
 21
389.7181808115332
 31
0.0
  0
LINE
  5
C1B
330
1F
100
AcDbEntity
  8
CLASS1
  6
CONTINUOUS
 62
     0
100
AcDbLine
 10
162.4740584489661
 20
385.7181808115332
 30
0.0
 11
174.4740584489661
 21
385.7181808115332
 31
0.0
  0
LINE
  5
C1C
330
1F
100
AcDbEntity
  8
CLASS1
  6
CONTINUOUS
 62
     0
100
AcDbLine
 10
174.4740584489661
 20
383.7181808115332
 30
0.0
 11
162.4740584489661
 21
383.7181808115332
 31
0.0
  0
LINE
  5
C1D
330
1F
100
AcDbEntity
  8
CLASS1
  6
CONTINUOUS
 62
     0
100
AcDbLine
 10
162.4740584489661
 20
381.7181808115332
 30
0.0
 11
174.4740584489661
 21
381.7181808115332
 31
0.0
  0
LINE
  5
C1E
330
1F
100
AcDbEntity
  8
CLASS1
  6
CONTINUOUS
 62
     0
100
AcDbLine
 10
174.4740584489661
 20
379.7181808115332
 30
0.0
 11
162.4740584489661
 21
379.7181808115332
 31
0.0
  0
ARC
  5
C1F
330
1F
100
AcDbEntity
  8
CLASS1
  6
CONTINUOUS
 62
     0
100
AcDbCircle
 10
168.4740584489663
 20
473.7181808115332
 30
0.0
 40
100.0
100
AcDbArc
 50
265.2667410000032
 51
274.7332589999968
  0
ARC
  5
C20
330
1F
100
AcDbEntity
  8
CLASS1
  6
CONTINUOUS
 62
     0
100
AcDbCircle
 10
176.5607274489659
 20
376.0523948115332
 30
0.0
 40
2.0
100
AcDbArc
 50
274.7332589999968
 51
359.1176409999945
  0
LINE
  5
C21
330
1F
100
AcDbEntity
  8
CLASS1
  6
CONTINUOUS
 62
     0
100
AcDbLine
 10
174.4740584489661
 20
389.7181808115332
 30
0.0
 11
174.4740584489661
 21
387.7181808115332
 31
0.0
  0
LINE
  5
C22
330
1F
100
AcDbEntity
  8
CLASS1
  6
CONTINUOUS
 62
     0
100
AcDbLine
 10
174.4740584489661
 20
385.7181808115332
 30
0.0
 11
174.4740584489661
 21
383.7181808115332
 31
0.0
  0
LINE
  5
C23
330
1F
100
AcDbEntity
  8
CLASS1
  6
CONTINUOUS
 62
     0
100
AcDbLine
 10
174.4740584489661
 20
381.7181808115332
 30
0.0
 11
174.4740584489661
 21
379.7181808115332
 31
0.0
  0
LINE
  5
C24
330
1F
100
AcDbEntity
  8
CLASS1
  6
CONTINUOUS
 62
     0
100
AcDbLine
 10
162.4740584489661
 20
387.7181808115332
 30
0.0
 11
162.4740584489661
 21
389.7181808115332
 31
0.0
  0
LINE
  5
C25
330
1F
100
AcDbEntity
  8
CLASS1
  6
CONTINUOUS
 62
     0
100
AcDbLine
 10
162.4740584489661
 20
383.7181808115332
 30
0.0
 11
162.4740584489661
 21
385.7181808115332
 31
0.0
  0
LINE
  5
C26
330
1F
100
AcDbEntity
  8
CLASS1
  6
CONTINUOUS
 62
     0
100
AcDbLine
 10
162.4740584489661
 20
379.7181808115332
 30
0.0
 11
162.4740584489661
 21
381.7181808115332
 31
0.0
  0
ARC
  5
C27
330
1F
100
AcDbEntity
  8
CLASS1
  6
CONTINUOUS
 62
     0
100
AcDbCircle
 10
152.8890654489659
 20
375.8734548115334
 30
0.0
 40
1.0
100
AcDbArc
 50
180.8823590000053
 51
270.0
  0
LINE
  5
C28
330
1F
100
AcDbEntity
  8
CLASS1
  6
CONTINUOUS
 62
     0
100
AcDbLine
 10
152.8890654489662
 20
374.8734548115334
 30
0.0
 11
153.9047764489662
 21
374.8734548115334
 31
0.0
  0
LINE
  5
C29
330
1F
100
AcDbEntity
  8
CLASS1
  6
CONTINUOUS
 62
     0
100
AcDbLine
 10
162.4740584489661
 20
421.7181808115332
 30
0.0
 11
174.4740584489661
 21
421.7181808115332
 31
0.0
  0
LINE
  5
C2A
330
1F
100
AcDbEntity
  8
CLASS1
  6
CONTINUOUS
 62
     0
100
AcDbLine
 10
174.4740584489661
 20
419.7181808115332
 30
0.0
 11
162.4740584489661
 21
419.7181808115332
 31
0.0
  0
LINE
  5
C2B
330
1F
100
AcDbEntity
  8
CLASS1
  6
CONTINUOUS
 62
     0
100
AcDbLine
 10
162.4740584489661
 20
417.7181808115332
 30
0.0
 11
174.4740584489661
 21
417.7181808115332
 31
0.0
  0
LINE
  5
C2C
330
1F
100
AcDbEntity
  8
CLASS1
  6
CONTINUOUS
 62
     0
100
AcDbLine
 10
174.4740584489661
 20
415.7181808115332
 30
0.0
 11
162.4740584489661
 21
415.7181808115332
 31
0.0
  0
LINE
  5
C2D
330
1F
100
AcDbEntity
  8
CLASS1
  6
CONTINUOUS
 62
     0
100
AcDbLine
 10
168.9490584489663
 20
410.8681808115333
 30
0.0
 11
164.7990584489662
 21
410.8681808115333
 31
0.0
  0
LINE
  5
C2E
330
1F
100
AcDbEntity
  8
CLASS1
  6
CONTINUOUS
 62
     0
100
AcDbLine
 10
169.5740584489662
 20
404.1181808115332
 30
0.0
 11
167.8740584489662
 21
404.1181808115332
 31
0.0
  0
LINE
  5
C2F
330
1F
100
AcDbEntity
  8
CLASS1
  6
CONTINUOUS
 62
     0
100
AcDbLine
 10
169.5740584489662
 20
405.3181808115331
 30
0.0
 11
167.8740584489662
 21
405.3181808115331
 31
0.0
  0
LINE
  5
C30
330
1F
100
AcDbEntity
  8
CLASS1
  6
CONTINUOUS
 62
     0
100
AcDbLine
 10
168.9490584489663
 20
398.5681808115331
 30
0.0
 11
164.7990584489662
 21
398.5681808115331
 31
0.0
  0
LINE
  5
C31
330
1F
100
AcDbEntity
  8
CLASS1
  6
CONTINUOUS
 62
     0
100
AcDbLine
 10
162.4740584489661
 20
413.7181808115331
 30
0.0
 11
174.4740584489661
 21
413.7181808115331
 31
0.0
  0
LINE
  5
C32
330
1F
100
AcDbEntity
  8
CLASS1
  6
CONTINUOUS
 62
     0
100
AcDbLine
 10
162.4740584489661
 20
412.7181808115332
 30
0.0
 11
171.3740584489662
 21
412.7181808115332
 31
0.0
  0
LINE
  5
C33
330
1F
100
AcDbEntity
  8
CLASS1
  6
CONTINUOUS
 62
     0
100
AcDbLine
 10
171.3740584489662
 20
396.7181808115332
 30
0.0
 11
162.4740584489661
 21
396.7181808115332
 31
0.0
  0
LINE
  5
C34
330
1F
100
AcDbEntity
  8
CLASS1
  6
CONTINUOUS
 62
     0
100
AcDbLine
 10
174.4740584489661
 20
395.7181808115332
 30
0.0
 11
162.4740584489661
 21
395.7181808115332
 31
0.0
  0
LINE
  5
C35
330
1F
100
AcDbEntity
  8
CLASS1
  6
CONTINUOUS
 62
     0
100
AcDbLine
 10
162.4740584489661
 20
393.7181808115332
 30
0.0
 11
174.4740584489661
 21
393.7181808115332
 31
0.0
  0
LINE
  5
C36
330
1F
100
AcDbEntity
  8
CLASS1
  6
CONTINUOUS
 62
     0
100
AcDbLine
 10
169.5740584489662
 20
399.8181808115331
 30
0.0
 11
169.5740584489662
 21
409.6181808115333
 31
0.0
  0
LINE
  5
C37
330
1F
100
AcDbEntity
  8
CLASS1
  6
CONTINUOUS
 62
     0
100
AcDbLine
 10
171.3740584489662
 20
409.7181808115331
 30
0.0
 11
171.3740584489662
 21
407.7181808115332
 31
0.0
  0
LINE
  5
C38
330
1F
100
AcDbEntity
  8
CLASS1
  6
CONTINUOUS
 62
     0
100
AcDbLine
 10
174.4740584489661
 20
409.7181808115331
 30
0.0
 11
174.4740584489661
 21
407.7181808115332
 31
0.0
  0
LINE
  5
C39
330
1F
100
AcDbEntity
  8
CLASS1
  6
CONTINUOUS
 62
     0
100
AcDbLine
 10
168.9490584489663
 20
398.5681808115331
 30
0.0
 11
168.9490584489663
 21
399.8181808115331
 31
0.0
  0
LINE
  5
C3A
330
1F
100
AcDbEntity
  8
CLASS1
  6
CONTINUOUS
 62
     0
100
AcDbLine
 10
169.5740584489662
 20
399.8181808115331
 30
0.0
 11
168.9490584489663
 21
399.8181808115331
 31
0.0
  0
LINE
  5
C3B
330
1F
100
AcDbEntity
  8
CLASS1
  6
CONTINUOUS
 62
     0
100
AcDbLine
 10
174.4740584489661
 20
407.7181808115332
 30
0.0
 11
171.3740584489662
 21
407.7181808115332
 31
0.0
  0
LINE
  5
C3C
330
1F
100
AcDbEntity
  8
CLASS1
  6
CONTINUOUS
 62
     0
100
AcDbLine
 10
174.4740584489661
 20
403.7181808115332
 30
0.0
 11
171.3740584489662
 21
403.7181808115332
 31
0.0
  0
LINE
  5
C3D
330
1F
100
AcDbEntity
  8
CLASS1
  6
CONTINUOUS
 62
     0
100
AcDbLine
 10
171.3740584489662
 20
405.7181808115331
 30
0.0
 11
171.3740584489662
 21
403.7181808115332
 31
0.0
  0
LINE
  5
C3E
330
1F
100
AcDbEntity
  8
CLASS1
  6
CONTINUOUS
 62
     0
100
AcDbLine
 10
174.4740584489661
 20
405.7181808115331
 30
0.0
 11
174.4740584489661
 21
403.7181808115332
 31
0.0
  0
LINE
  5
C3F
330
1F
100
AcDbEntity
  8
CLASS1
  6
CONTINUOUS
 62
     0
100
AcDbLine
 10
171.3740584489662
 20
405.7181808115331
 30
0.0
 11
174.4740584489661
 21
405.7181808115331
 31
0.0
  0
LINE
  5
C40
330
1F
100
AcDbEntity
  8
CLASS1
  6
CONTINUOUS
 62
     0
100
AcDbLine
 10
174.4740584489661
 20
401.7181808115331
 30
0.0
 11
174.4740584489661
 21
399.7181808115332
 31
0.0
  0
LINE
  5
C41
330
1F
100
AcDbEntity
  8
CLASS1
  6
CONTINUOUS
 62
     0
100
AcDbLine
 10
171.3740584489662
 20
401.7181808115331
 30
0.0
 11
171.3740584489662
 21
399.7181808115332
 31
0.0
  0
LINE
  5
C42
330
1F
100
AcDbEntity
  8
CLASS1
  6
CONTINUOUS
 62
     0
100
AcDbLine
 10
171.3740584489662
 20
401.7181808115331
 30
0.0
 11
174.4740584489661
 21
401.7181808115331
 31
0.0
  0
LINE
  5
C43
330
1F
100
AcDbEntity
  8
CLASS1
  6
CONTINUOUS
 62
     0
100
AcDbLine
 10
174.4740584489661
 20
399.7181808115332
 30
0.0
 11
171.3740584489662
 21
399.7181808115332
 31
0.0
  0
LINE
  5
C44
330
1F
100
AcDbEntity
  8
CLASS1
  6
CONTINUOUS
 62
     0
100
AcDbLine
 10
171.3740584489662
 20
397.7181808115332
 30
0.0
 11
174.4740584489661
 21
397.7181808115332
 31
0.0
  0
LINE
  5
C45
330
1F
100
AcDbEntity
  8
CLASS1
  6
CONTINUOUS
 62
     0
100
AcDbLine
 10
171.3740584489662
 20
397.7181808115332
 30
0.0
 11
171.3740584489662
 21
396.7181808115332
 31
0.0
  0
LINE
  5
C46
330
1F
100
AcDbEntity
  8
CLASS1
  6
CONTINUOUS
 62
     0
100
AcDbLine
 10
174.4740584489661
 20
397.7181808115332
 30
0.0
 11
174.4740584489661
 21
395.7181808115332
 31
0.0
  0
LINE
  5
C47
330
1F
100
AcDbEntity
  8
CLASS1
  6
CONTINUOUS
 62
     0
100
AcDbLine
 10
174.4740584489661
 20
421.7181808115332
 30
0.0
 11
174.4740584489661
 21
419.7181808115332
 31
0.0
  0
LINE
  5
C48
330
1F
100
AcDbEntity
  8
CLASS1
  6
CONTINUOUS
 62
     0
100
AcDbLine
 10
174.4740584489661
 20
417.7181808115332
 30
0.0
 11
174.4740584489661
 21
415.7181808115332
 31
0.0
  0
LINE
  5
C49
330
1F
100
AcDbEntity
  8
CLASS1
  6
CONTINUOUS
 62
     0
100
AcDbLine
 10
169.5740584489662
 20
409.6181808115333
 30
0.0
 11
168.9490584489663
 21
409.6181808115333
 31
0.0
  0
LINE
  5
C4A
330
1F
100
AcDbEntity
  8
CLASS1
  6
CONTINUOUS
 62
     0
100
AcDbLine
 10
168.9490584489663
 20
409.6181808115333
 30
0.0
 11
168.9490584489663
 21
410.8681808115333
 31
0.0
  0
LINE
  5
C4B
330
1F
100
AcDbEntity
  8
CLASS1
  6
CONTINUOUS
 62
     0
100
AcDbLine
 10
174.4740584489661
 20
413.7181808115331
 30
0.0
 11
174.4740584489661
 21
411.7181808115332
 31
0.0
  0
LINE
  5
C4C
330
1F
100
AcDbEntity
  8
CLASS1
  6
CONTINUOUS
 62
     0
100
AcDbLine
 10
174.4740584489661
 20
411.7181808115332
 30
0.0
 11
171.3740584489662
 21
411.7181808115332
 31
0.0
  0
LINE
  5
C4D
330
1F
100
AcDbEntity
  8
CLASS1
  6
CONTINUOUS
 62
     0
100
AcDbLine
 10
171.3740584489662
 20
412.7181808115332
 30
0.0
 11
171.3740584489662
 21
411.7181808115332
 31
0.0
  0
LINE
  5
C4E
330
1F
100
AcDbEntity
  8
CLASS1
  6
CONTINUOUS
 62
     0
100
AcDbLine
 10
171.3740584489662
 20
409.7181808115331
 30
0.0
 11
174.4740584489661
 21
409.7181808115331
 31
0.0
  0
LINE
  5
C4F
330
1F
100
AcDbEntity
  8
CLASS1
  6
CONTINUOUS
 62
     0
100
AcDbLine
 10
167.8740584489662
 20
401.2181808115331
 30
0.0
 11
167.8740584489662
 21
408.2181808115332
 31
0.0
  0
LINE
  5
C50
330
1F
100
AcDbEntity
  8
CLASS1
  6
CONTINUOUS
 62
     0
100
AcDbLine
 10
165.8740584489662
 20
401.2181808115331
 30
0.0
 11
165.8740584489662
 21
408.2181808115332
 31
0.0
  0
LINE
  5
C51
330
1F
100
AcDbEntity
  8
CLASS1
  6
CENTER
 62
     0
100
AcDbLine
 10
166.8740584489662
 20
399.7181808115332
 30
0.0
 11
166.8740584489662
 21
411.7519228115332
 31
0.0
  0
LINE
  5
C52
330
1F
100
AcDbEntity
  8
CLASS1
  6
CONTINUOUS
 62
     0
100
AcDbLine
 10
164.2740584489663
 20
406.7181808115332
 30
0.0
 11
164.2740584489663
 21
409.6181808115333
 31
0.0
  0
LINE
  5
C53
330
1F
100
AcDbEntity
  8
CLASS1
  6
CONTINUOUS
 62
     0
100
AcDbLine
 10
162.5740584489663
 20
402.7181808115332
 30
0.0
 11
162.5740584489663
 21
406.7181808115332
 31
0.0
  0
LINE
  5
C54
330
1F
100
AcDbEntity
  8
CLASS1
  6
CONTINUOUS
 62
     0
100
AcDbLine
 10
164.2740584489663
 20
406.7181808115332
 30
0.0
 11
162.5740584489663
 21
406.7181808115332
 31
0.0
  0
LINE
  5
C55
330
1F
100
AcDbEntity
  8
CLASS1
  6
CONTINUOUS
 62
     0
100
AcDbLine
 10
165.8740584489662
 20
405.3181808115331
 30
0.0
 11
162.5740584489663
 21
405.3181808115331
 31
0.0
  0
LINE
  5
C56
330
1F
100
AcDbEntity
  8
CLASS1
  6
CONTINUOUS
 62
     0
100
AcDbLine
 10
165.8740584489662
 20
404.1181808115332
 30
0.0
 11
162.5740584489663
 21
404.1181808115332
 31
0.0
  0
LINE
  5
C57
330
1F
100
AcDbEntity
  8
CLASS1
  6
CONTINUOUS
 62
     0
100
AcDbLine
 10
164.2990584489662
 20
402.7181808115332
 30
0.0
 11
162.5740584489663
 21
402.7181808115332
 31
0.0
  0
ARC
  5
C58
330
1F
100
AcDbEntity
  8
CLASS1
  6
CONTINUOUS
 62
     0
100
AcDbCircle
 10
167.374058448966
 20
401.2181808115331
 30
0.0
 40
0.5
100
AcDbArc
 50
270.0
 51
0.0
  0
ARC
  5
C59
330
1F
100
AcDbEntity
  8
CLASS1
  6
CONTINUOUS
 62
     0
100
AcDbCircle
 10
166.374058448966
 20
401.2181808115331
 30
0.0
 40
0.5
100
AcDbArc
 50
180.0
 51
270.0
  0
LINE
  5
C5A
330
1F
100
AcDbEntity
  8
CLASS1
  6
CONTINUOUS
 62
     0
100
AcDbLine
 10
164.7990584489662
 20
399.8181808115331
 30
0.0
 11
164.2990584489662
 21
399.8181808115331
 31
0.0
  0
LINE
  5
C5B
330
1F
100
AcDbEntity
  8
CLASS1
  6
CONTINUOUS
 62
     0
100
AcDbLine
 10
164.2990584489662
 20
399.8181808115331
 30
0.0
 11
164.2990584489662
 21
402.7181808115332
 31
0.0
  0
LINE
  5
C5C
330
1F
100
AcDbEntity
  8
CLASS1
  6
CONTINUOUS
 62
     0
100
AcDbLine
 10
164.7990584489662
 20
398.5681808115331
 30
0.0
 11
164.7990584489662
 21
399.8181808115331
 31
0.0
  0
LINE
  5
C5D
330
1F
100
AcDbEntity
  8
CLASS1
  6
CONTINUOUS
 62
     0
100
AcDbLine
 10
167.3740584489662
 20
400.7181808115332
 30
0.0
 11
166.3740584489662
 21
400.7181808115332
 31
0.0
  0
LINE
  5
C5E
330
1F
100
AcDbEntity
  8
CLASS1
  6
CONTINUOUS
 62
     0
100
AcDbLine
 10
162.4740584489661
 20
395.7181808115332
 30
0.0
 11
162.4740584489661
 21
396.7181808115332
 31
0.0
  0
LINE
  5
C5F
330
1F
100
AcDbEntity
  8
CLASS1
  6
CONTINUOUS
 62
     0
100
AcDbLine
 10
162.4740584489661
 20
419.7181808115332
 30
0.0
 11
162.4740584489661
 21
421.7181808115332
 31
0.0
  0
LINE
  5
C60
330
1F
100
AcDbEntity
  8
CLASS1
  6
CONTINUOUS
 62
     0
100
AcDbLine
 10
162.4740584489661
 20
415.7181808115332
 30
0.0
 11
162.4740584489661
 21
417.7181808115332
 31
0.0
  0
LINE
  5
C61
330
1F
100
AcDbEntity
  8
CLASS1
  6
CONTINUOUS
 62
     0
100
AcDbLine
 10
162.4740584489661
 20
412.7181808115332
 30
0.0
 11
162.4740584489661
 21
413.7181808115331
 31
0.0
  0
ARC
  5
C62
330
1F
100
AcDbEntity
  8
CLASS1
  6
CONTINUOUS
 62
     0
100
AcDbCircle
 10
167.374058448966
 20
408.2181808115332
 30
0.0
 40
0.5
100
AcDbArc
 50
0.0
 51
90.0
  0
LINE
  5
C63
330
1F
100
AcDbEntity
  8
CLASS1
  6
CONTINUOUS
 62
     0
100
AcDbLine
 10
167.3740584489662
 20
408.7181808115332
 30
0.0
 11
166.3740584489662
 21
408.7181808115332
 31
0.0
  0
LINE
  5
C64
330
1F
100
AcDbEntity
  8
CLASS1
  6
CONTINUOUS
 62
     0
100
AcDbLine
 10
164.7990584489662
 20
409.6181808115333
 30
0.0
 11
164.2740584489663
 21
409.6181808115333
 31
0.0
  0
LINE
  5
C65
330
1F
100
AcDbEntity
  8
CLASS1
  6
CONTINUOUS
 62
     0
100
AcDbLine
 10
164.7990584489662
 20
409.6181808115333
 30
0.0
 11
164.7990584489662
 21
410.8681808115333
 31
0.0
  0
ARC
  5
C66
330
1F
100
AcDbEntity
  8
CLASS1
  6
CONTINUOUS
 62
     0
100
AcDbCircle
 10
166.374058448966
 20
408.2181808115332
 30
0.0
 40
0.5
100
AcDbArc
 50
90.0
 51
180.0
  0
LINE
  5
C67
330
1F
100
AcDbEntity
  8
CLASS1
  6
CONTINUOUS
 62
     0
100
AcDbLine
 10
162.4740584489661
 20
429.7181808115332
 30
0.0
 11
174.4740584489661
 21
429.7181808115332
 31
0.0
  0
LINE
  5
C68
330
1F
100
AcDbEntity
  8
CLASS1
  6
CONTINUOUS
 62
     0
100
AcDbLine
 10
174.4740584489661
 20
427.7181808115332
 30
0.0
 11
162.4740584489661
 21
427.7181808115332
 31
0.0
  0
LINE
  5
C69
330
1F
100
AcDbEntity
  8
CLASS1
  6
CONTINUOUS
 62
     0
100
AcDbLine
 10
162.4740584489661
 20
425.7181808115332
 30
0.0
 11
174.4740584489661
 21
425.7181808115332
 31
0.0
  0
LINE
  5
C6A
330
1F
100
AcDbEntity
  8
CLASS1
  6
CONTINUOUS
 62
     0
100
AcDbLine
 10
174.4740584489661
 20
423.7181808115332
 30
0.0
 11
162.4740584489661
 21
423.7181808115332
 31
0.0
  0
LINE
  5
C6B
330
1F
100
AcDbEntity
  8
CLASS1
  6
CONTINUOUS
 62
     0
100
AcDbLine
 10
174.4740584489661
 20
429.7181808115332
 30
0.0
 11
174.4740584489661
 21
427.7181808115332
 31
0.0
  0
LINE
  5
C6C
330
1F
100
AcDbEntity
  8
CLASS1
  6
CONTINUOUS
 62
     0
100
AcDbLine
 10
174.4740584489661
 20
425.7181808115332
 30
0.0
 11
174.4740584489661
 21
423.7181808115332
 31
0.0
  0
LINE
  5
C6D
330
1F
100
AcDbEntity
  8
CLASS1
  6
CONTINUOUS
 62
     0
100
AcDbLine
 10
162.4740584489661
 20
427.7181808115332
 30
0.0
 11
162.4740584489661
 21
429.7181808115332
 31
0.0
  0
LINE
  5
C6E
330
1F
100
AcDbEntity
  8
CLASS1
  6
CONTINUOUS
 62
     0
100
AcDbLine
 10
162.4740584489661
 20
423.7181808115332
 30
0.0
 11
162.4740584489661
 21
425.7181808115332
 31
0.0
  0
ARC
  5
C6F
330
1F
100
AcDbEntity
  8
CLASS1
  6
CONTINUOUS
 62
     0
100
AcDbCircle
 10
151.9735394489662
 20
435.3181808115331
 30
0.0
 40
1.0
100
AcDbArc
 50
90.0
 51
180.8823590000053
  0
LINE
  5
C70
330
1F
100
AcDbEntity
  8
CLASS1
  6
CONTINUOUS
 62
     0
100
AcDbLine
 10
152.9738494489663
 20
435.3181808115331
 30
0.0
 11
152.9738494489663
 21
436.3181808115331
 31
0.0
  0
LINE
  5
C71
330
1F
100
AcDbEntity
  8
CLASS1
  6
CONTINUOUS
 62
     0
100
AcDbLine
 10
152.9738494489663
 20
436.3181808115331
 30
0.0
 11
151.9735394489662
 21
436.3181808115331
 31
0.0
  0
ARC
  5
C72
330
1F
100
AcDbEntity
  8
0
100
AcDbCircle
 10
168.4740584489659
 20
468.7181808115332
 30
0.0
 40
100.0
100
AcDbArc
 50
262.160173000003
 51
277.8398260000032
  0
ARC
  5
C73
330
1F
100
AcDbEntity
  8
0
100
AcDbCircle
 10
181.9780754489661
 20
370.6435068115332
 30
0.0
 40
1.0
100
AcDbArc
 50
277.8398260000032
 51
359.1176430000001
  0
ARC
  5
C74
330
1F
100
AcDbEntity
  8
0
100
AcDbCircle
 10
154.9700414489661
 20
370.6435078115331
 30
0.0
 40
1.0
100
AcDbArc
 50
180.8823569999998
 51
262.160173000003
  0
POINT
  5
C75
330
1F
100
AcDbEntity
  8
0
100
AcDbPoint
 10
153.9833194489663
 20
369.7736578115332
 30
0.0
  0
ARC
  5
C76
330
1F
100
AcDbEntity
  8
0
100
AcDbCircle
 10
168.4740575763069
 20
-29.89999978838921
 30
0.0
 40
100.0
100
AcDbArc
 50
82.16017300000309
 51
97.83982600000328
  0
ARC
  5
C77
330
1F
100
AcDbEntity
  8
0
100
AcDbCircle
 10
154.9700405763069
 20
68.17467421161075
 30
0.0
 40
1.0
100
AcDbArc
 50
97.83982600000328
 51
179.1176430000001
  0
ARC
  5
C78
330
1F
100
AcDbEntity
  8
0
100
AcDbCircle
 10
181.9780745763068
 20
68.17467321161086
 30
0.0
 40
1.0
100
AcDbArc
 50
0.88235699999983
 51
82.16017300000309
  0
LINE
  5
C79
330
1F
100
AcDbEntity
  8
外枠
  6
BYBLOCK
100
AcDbLine
 10
169.2951015763069
 20
70.60000021161079
 30
0.0
 11
171.2600235763068
 21
70.60000021161079
 31
0.0
  0
LINE
  5
C7A
330
1F
100
AcDbEntity
  8
外枠
  6
BYBLOCK
100
AcDbLine
 10
169.2951015763069
 20
70.60000021161079
 30
0.0
 11
169.2951015763069
 21
70.09662958855563
 31
0.0
  0
LINE
  5
C7B
330
1F
100
AcDbEntity
  8
外枠
  6
BYBLOCK
100
AcDbLine
 10
171.2600235763068
 20
70.60000021161079
 30
0.0
 11
171.2600235763068
 21
70.03614569091872
 31
0.0
  0
LINE
  5
C7C
330
1F
100
AcDbEntity
  8
外枠
  6
BYBLOCK
100
AcDbLine
 10
169.2951015763069
 20
368.2181808115332
 30
0.0
 11
171.2600235763068
 21
368.2181808115332
 31
0.0
  0
LINE
  5
C7D
330
1F
100
AcDbEntity
  8
外枠
  6
BYBLOCK
100
AcDbLine
 10
169.2951015763069
 20
368.2181808115332
 30
0.0
 11
169.2951015763069
 21
368.7215514274232
 31
0.0
  0
LINE
  5
C7E
330
1F
100
AcDbEntity
  8
外枠
  6
BYBLOCK
100
AcDbLine
 10
171.2600235763068
 20
368.2181808115332
 30
0.0
 11
171.2600235763068
 21
368.7569963532183
 31
0.0
  0
LINE
  5
C7F
330
1F
100
AcDbEntity
  8
外枠
  6
BYBLOCK
100
AcDbLine
 10
173.5142632752922
 20
251.7514457518332
 30
0.0
 11
173.5142632752922
 21
249.2514457518332
 31
0.0
  0
LINE
  5
C80
330
1F
100
AcDbEntity
  8
外枠
  6
BYBLOCK
100
AcDbLine
 10
171.0142632752922
 20
251.7514457518332
 30
0.0
 11
171.0142632752922
 21
249.2514457518332
 31
0.0
  0
LINE
  5
C81
330
1F
100
AcDbEntity
  8
外枠
  6
BYBLOCK
100
AcDbLine
 10
173.5142632752922
 20
256.8314457518333
 30
0.0
 11
173.5142632752922
 21
254.3314457518333
 31
0.0
  0
LINE
  5
C82
330
1F
100
AcDbEntity
  8
外枠
  6
BYBLOCK
100
AcDbLine
 10
171.0142632752922
 20
256.8314457518333
 30
0.0
 11
171.0142632752922
 21
254.3314457518333
 31
0.0
  0
LINE
  5
C83
330
1F
100
AcDbEntity
  8
外枠
  6
BYBLOCK
100
AcDbLine
 10
173.5142632752922
 20
266.9914457518332
 30
0.0
 11
173.5142632752922
 21
264.4914457518332
 31
0.0
  0
LINE
  5
C84
330
1F
100
AcDbEntity
  8
外枠
  6
BYBLOCK
100
AcDbLine
 10
171.0142632752922
 20
266.9914457518332
 30
0.0
 11
171.0142632752922
 21
264.4914457518332
 31
0.0
  0
LINE
  5
C85
330
1F
100
AcDbEntity
  8
外枠
  6
BYBLOCK
100
AcDbLine
 10
173.5142632752922
 20
272.0714457518332
 30
0.0
 11
173.5142632752922
 21
269.5714457518332
 31
0.0
  0
LINE
  5
C86
330
1F
100
AcDbEntity
  8
外枠
  6
BYBLOCK
100
AcDbLine
 10
171.0142632752922
 20
272.0714457518332
 30
0.0
 11
171.0142632752922
 21
269.5714457518332
 31
0.0
  0
ENDSEC
  0
SECTION
  2
OBJECTS
  0
DICTIONARY
  5
C
330
0
100
AcDbDictionary
  3
ACAD_GROUP
350
D
  3
ACAD_LAYOUT
350
1A
  3
ACAD_MLINESTYLE
350
17
  3
ACAD_PLOTSETTINGS
350
19
  3
ACAD_PLOTSTYLENAME
350
E
  3
ACDBHEADERROUNDTRIPXREC
350
CFA
  3
ACDBVARIABLEDICTIONARY
350
CF6
  0
DICTIONARY
  5
83
330
2
100
AcDbDictionary
280
     1
  3
ACAD_LAYERSTATES
360
84
  0
DICTIONARY
  5
D1C
330
1F
100
AcDbDictionary
280
     1
  3
ACAD_LAYOUTSELFREF
360
D1D
  0
DICTIONARY
  5
D1A
330
1B
100
AcDbDictionary
280
     1
  3
ACAD_LAYOUTSELFREF
360
D1B
  0
DICTIONARY
  5
D
102
{ACAD_REACTORS
330
C
102
}
330
C
100
AcDbDictionary
  0
DICTIONARY
  5
1A
102
{ACAD_REACTORS
330
C
102
}
330
C
100
AcDbDictionary
  0
DICTIONARY
  5
17
102
{ACAD_REACTORS
330
C
102
}
330
C
100
AcDbDictionary
  3
STANDARD
350
18
  0
DICTIONARY
  5
19
102
{ACAD_REACTORS
330
C
102
}
330
C
100
AcDbDictionary
  0
ACDBDICTIONARYWDFLT
  5
E
102
{ACAD_REACTORS
330
C
102
}
330
C
100
AcDbDictionary
281
     1
  3
Normal
350
F
100
AcDbDictionaryWithDefault
340
F
  0
DICTIONARY
  5
CFA
102
{ACAD_REACTORS
330
C
102
}
330
C
100
AcDbDictionary
  3
CEPSNTYPE
350
D04
  3
FINGERPRINTGUID
350
D05
  3
HYPERLINKBASE
350
CFD
  3
INSUNITS
350
D03
  3
LAYOUTDICT
350
CFF
  3
LWETCUNION
350
D02
  3
PLOTSETDICT
350
D00
  3
PLOTSTYLNAMDICT
350
D01
  3
PSVPSCALE
350
D07
  3
PUCSBASE
350
D0A
  3
PUCSORGBACK
350
D10
  3
PUCSORGBOTTOM
350
D0C
  3
PUCSORGFRONT
350
D0F
  3
PUCSORGLEFT
350
D0D
  3
PUCSORGRIGHT
350
D0E
  3
PUCSORGTOP
350
D0B
  3
PUCSORTHOREF
350
D08
  3
PUCSORTHOVIEW
350
D09
  3
STYLESHEET
350
CFE
  3
TSTACKALIGN
350
CFB
  3
TSTACKSIZE
350
CFC
  3
UCSBASE
350
D13
  3
UCSORGBACK
350
D19
  3
UCSORGBOTTOM
350
D15
  3
UCSORGFRONT
350
D18
  3
UCSORGLEFT
350
D16
  3
UCSORGRIGHT
350
D17
  3
UCSORGTOP
350
D14
  3
UCSORTHOREF
350
D11
  3
UCSORTHOVIEW
350
D12
  3
VERSIONGUID
350
D06
  0
DICTIONARY
  5
CF6
102
{ACAD_REACTORS
330
C
102
}
330
C
100
AcDbDictionary
  3
DIMASSOC
350
CF8
  3
HIDETEXT
350
CF7
  0
DICTIONARY
  5
84
102
{ACAD_REACTORS
330
83
102
}
330
83
100
AcDbDictionary
  0
XRECORD
  5
D1D
102
{ACAD_REACTORS
330
D1C
102
}
330
D1C
100
AcDbXrecord
340
1F
  0
XRECORD
  5
D1B
102
{ACAD_REACTORS
330
D1A
102
}
330
D1A
100
AcDbXrecord
340
1B
  0
MLINESTYLE
  5
18
102
{ACAD_REACTORS
330
17
102
}
330
17
100
AcDbMlineStyle
  2
STANDARD
 70
     0
  3

 62
   256
 51
90.0
 52
90.0
 71
     2
 49
0.5
 62
   256
  6
BYLAYER
 49
-0.5
 62
   256
  6
BYLAYER
  0
ACDBPLACEHOLDER
  5
F
102
{ACAD_REACTORS
330
E
102
}
330
E
100
AcDbPlaceHolder
280
     0
  0
XRECORD
  5
D04
102
{ACAD_REACTORS
330
CFA
102
}
330
CFA
100
AcDbXrecord
 90
        0
  0
XRECORD
  5
D05
102
{ACAD_REACTORS
330
CFA
102
}
330
CFA
100
AcDbXrecord
  1
{D94AFFF4-72E8-4293-A510-C6EEE95E02BF}
  0
XRECORD
  5
CFD
102
{ACAD_REACTORS
330
CFA
102
}
330
CFA
100
AcDbXrecord
  1

  0
XRECORD
  5
D03
102
{ACAD_REACTORS
330
CFA
102
}
330
CFA
100
AcDbXrecord
 90
        4
  0
XRECORD
  5
CFF
102
{ACAD_REACTORS
330
CFA
102
}
330
CFA
100
AcDbXrecord
340
1A
  0
XRECORD
  5
D02
102
{ACAD_REACTORS
330
CFA
102
}
330
CFA
100
AcDbXrecord
 90
    10781
  0
XRECORD
  5
D00
102
{ACAD_REACTORS
330
CFA
102
}
330
CFA
100
AcDbXrecord
340
19
  0
XRECORD
  5
D01
102
{ACAD_REACTORS
330
CFA
102
}
330
CFA
100
AcDbXrecord
340
E
  0
XRECORD
  5
D07
102
{ACAD_REACTORS
330
CFA
102
}
330
CFA
100
AcDbXrecord
 40
0.0
  0
XRECORD
  5
D0A
102
{ACAD_REACTORS
330
CFA
102
}
330
CFA
100
AcDbXrecord
340
0
  0
XRECORD
  5
D10
102
{ACAD_REACTORS
330
CFA
102
}
330
CFA
100
AcDbXrecord
 10
0.0
 20
0.0
 30
0.0
  0
XRECORD
  5
D0C
102
{ACAD_REACTORS
330
CFA
102
}
330
CFA
100
AcDbXrecord
 10
0.0
 20
0.0
 30
0.0
  0
XRECORD
  5
D0F
102
{ACAD_REACTORS
330
CFA
102
}
330
CFA
100
AcDbXrecord
 10
0.0
 20
0.0
 30
0.0
  0
XRECORD
  5
D0D
102
{ACAD_REACTORS
330
CFA
102
}
330
CFA
100
AcDbXrecord
 10
0.0
 20
0.0
 30
0.0
  0
XRECORD
  5
D0E
102
{ACAD_REACTORS
330
CFA
102
}
330
CFA
100
AcDbXrecord
 10
0.0
 20
0.0
 30
0.0
  0
XRECORD
  5
D0B
102
{ACAD_REACTORS
330
CFA
102
}
330
CFA
100
AcDbXrecord
 10
0.0
 20
0.0
 30
0.0
  0
XRECORD
  5
D08
102
{ACAD_REACTORS
330
CFA
102
}
330
CFA
100
AcDbXrecord
340
0
  0
XRECORD
  5
D09
102
{ACAD_REACTORS
330
CFA
102
}
330
CFA
100
AcDbXrecord
 70
     0
  0
XRECORD
  5
CFE
102
{ACAD_REACTORS
330
CFA
102
}
330
CFA
100
AcDbXrecord
  1

  0
XRECORD
  5
CFB
102
{ACAD_REACTORS
330
CFA
102
}
330
CFA
100
AcDbXrecord
 90
        1
  0
XRECORD
  5
CFC
102
{ACAD_REACTORS
330
CFA
102
}
330
CFA
100
AcDbXrecord
 90
       70
  0
XRECORD
  5
D13
102
{ACAD_REACTORS
330
CFA
102
}
330
CFA
100
AcDbXrecord
340
0
  0
XRECORD
  5
D19
102
{ACAD_REACTORS
330
CFA
102
}
330
CFA
100
AcDbXrecord
 10
0.0
 20
0.0
 30
0.0
  0
XRECORD
  5
D15
102
{ACAD_REACTORS
330
CFA
102
}
330
CFA
100
AcDbXrecord
 10
0.0
 20
0.0
 30
0.0
  0
XRECORD
  5
D18
102
{ACAD_REACTORS
330
CFA
102
}
330
CFA
100
AcDbXrecord
 10
0.0
 20
0.0
 30
0.0
  0
XRECORD
  5
D16
102
{ACAD_REACTORS
330
CFA
102
}
330
CFA
100
AcDbXrecord
 10
0.0
 20
0.0
 30
0.0
  0
XRECORD
  5
D17
102
{ACAD_REACTORS
330
CFA
102
}
330
CFA
100
AcDbXrecord
 10
0.0
 20
0.0
 30
0.0
  0
XRECORD
  5
D14
102
{ACAD_REACTORS
330
CFA
102
}
330
CFA
100
AcDbXrecord
 10
0.0
 20
0.0
 30
0.0
  0
XRECORD
  5
D11
102
{ACAD_REACTORS
330
CFA
102
}
330
CFA
100
AcDbXrecord
340
0
  0
XRECORD
  5
D12
102
{ACAD_REACTORS
330
CFA
102
}
330
CFA
100
AcDbXrecord
 70
     0
  0
XRECORD
  5
D06
102
{ACAD_REACTORS
330
CFA
102
}
330
CFA
100
AcDbXrecord
  1
{03549983-0031-47E7-8756-208796766B76}
  0
DICTIONARYVAR
  5
CF8
102
{ACAD_REACTORS
330
CF6
102
}
330
CF6
100
DictionaryVariables
280
     0
  1
2
  0
DICTIONARYVAR
  5
CF7
102
{ACAD_REACTORS
330
CF6
102
}
330
CF6
100
DictionaryVariables
280
     0
  1
1
  0
ENDSEC
  0
EOF
