  0
SECTION
  2
HEADER
  9
$ACADVER
  1
AC1014
  9
$ACADMAINTVER
 70
     9
  9
$DWGCODEPAGE
  3
ANSI_932
  9
$INSBASE
 10
0.0
 20
0.0
 30
0.0
  9
$EXTMIN
 10
-0.025633200973175
 20
-0.022454423761701
 30
-0.0000000349181948
  9
$EXTMAX
 10
336.9536435360372
 20
438.8470277175501
 30
0.0000000814935747
  9
$LIMMIN
 10
0.0
 20
0.0
  9
$LIMMAX
 10
420.0
 20
297.0
  9
$ORTHOMODE
 70
     0
  9
$REGENMODE
 70
     1
  9
$FILLMODE
 70
     1
  9
$QTEXTMODE
 70
     0
  9
$MIRRTEXT
 70
     1
  9
$DRAGMODE
 70
     2
  9
$LTSCALE
 40
1.0
  9
$OSMODE
 70
    55
  9
$ATTMODE
 70
     1
  9
$TEXTSIZE
 40
2.5
  9
$TRACEWID
 40
1.0
  9
$TEXTSTYLE
  7
STANDARD
  9
$CLAYER
  8
0
  9
$CELTYPE
  6
BYLAYER
  9
$CECOLOR
 62
   256
  9
$CELTSCALE
 40
1.0
  9
$DELOBJ
 70
     1
  9
$DISPSILH
 70
     0
  9
$DIMSCALE
 40
1.0
  9
$DIMASZ
 40
2.5
  9
$DIMEXO
 40
0.625
  9
$DIMDLI
 40
3.75
  9
$DIMRND
 40
0.0
  9
$DIMDLE
 40
0.0
  9
$DIMEXE
 40
1.25
  9
$DIMTP
 40
0.0
  9
$DIMTM
 40
0.0
  9
$DIMTXT
 40
2.5
  9
$DIMCEN
 40
2.5
  9
$DIMTSZ
 40
0.0
  9
$DIMTOL
 70
     0
  9
$DIMLIM
 70
     0
  9
$DIMTIH
 70
     0
  9
$DIMTOH
 70
     0
  9
$DIMSE1
 70
     0
  9
$DIMSE2
 70
     0
  9
$DIMTAD
 70
     1
  9
$DIMZIN
 70
     8
  9
$DIMBLK
  1

  9
$DIMASO
 70
     1
  9
$DIMSHO
 70
     1
  9
$DIMPOST
  1

  9
$DIMAPOST
  1

  9
$DIMALT
 70
     0
  9
$DIMALTD
 70
     3
  9
$DIMALTF
 40
0.03937007874016
  9
$DIMLFAC
 40
1.0
  9
$DIMTOFL
 70
     1
  9
$DIMTVP
 40
0.0
  9
$DIMTIX
 70
     0
  9
$DIMSOXD
 70
     0
  9
$DIMSAH
 70
     0
  9
$DIMBLK1
  1

  9
$DIMBLK2
  1

  9
$DIMSTYLE
  2
ISO-25
  9
$DIMCLRD
 70
     0
  9
$DIMCLRE
 70
     0
  9
$DIMCLRT
 70
     0
  9
$DIMTFAC
 40
1.0
  9
$DIMGAP
 40
0.625
  9
$DIMJUST
 70
     0
  9
$DIMSD1
 70
     0
  9
$DIMSD2
 70
     0
  9
$DIMTOLJ
 70
     0
  9
$DIMTZIN
 70
     8
  9
$DIMALTZ
 70
     0
  9
$DIMALTTZ
 70
     0
  9
$DIMFIT
 70
     3
  9
$DIMUPT
 70
     0
  9
$DIMUNIT
 70
     2
  9
$DIMDEC
 70
     2
  9
$DIMTDEC
 70
     2
  9
$DIMALTU
 70
     2
  9
$DIMALTTD
 70
     3
  9
$DIMTXSTY
  7
STANDARD
  9
$DIMAUNIT
 70
     0
  9
$LUNITS
 70
     2
  9
$LUPREC
 70
     4
  9
$SKETCHINC
 40
1.0
  9
$FILLETRAD
 40
10.0
  9
$AUNITS
 70
     0
  9
$AUPREC
 70
     0
  9
$MENU
  1
.
  9
$ELEVATION
 40
0.0
  9
$PELEVATION
 40
0.0
  9
$THICKNESS
 40
0.0
  9
$LIMCHECK
 70
     0
  9
$BLIPMODE
 70
     0
  9
$CHAMFERA
 40
10.0
  9
$CHAMFERB
 40
10.0
  9
$CHAMFERC
 40
20.0
  9
$CHAMFERD
 40
0.0
  9
$SKPOLY
 70
     0
  9
$TDCREATE
 40
2455006.444093460
  9
$TDUPDATE
 40
2455006.468714039
  9
$TDINDWG
 40
0.0040881713
  9
$TDUSRTIMER
 40
0.0040865509
  9
$USRTIMER
 70
     1
  9
$ANGBASE
 50
0.0
  9
$ANGDIR
 70
     0
  9
$PDMODE
 70
     0
  9
$PDSIZE
 40
0.0
  9
$PLINEWID
 40
0.0
  9
$COORDS
 70
     1
  9
$SPLFRAME
 70
     0
  9
$SPLINETYPE
 70
     6
  9
$SPLINESEGS
 70
     8
  9
$ATTDIA
 70
     0
  9
$ATTREQ
 70
     1
  9
$HANDLING
 70
 22529
  9
$HANDSEED
  5
DA2
  9
$SURFTAB1
 70
     6
  9
$SURFTAB2
 70
     6
  9
$SURFTYPE
 70
     6
  9
$SURFU
 70
     6
  9
$SURFV
 70
     6
  9
$UCSNAME
  2

  9
$UCSORG
 10
0.0
 20
0.0
 30
0.0
  9
$UCSXDIR
 10
1.0
 20
0.0
 30
0.0
  9
$UCSYDIR
 10
0.0
 20
1.0
 30
0.0
  9
$PUCSNAME
  2

  9
$PUCSORG
 10
0.0
 20
0.0
 30
0.0
  9
$PUCSXDIR
 10
1.0
 20
0.0
 30
0.0
  9
$PUCSYDIR
 10
0.0
 20
1.0
 30
0.0
  9
$USERI1
 70
     0
  9
$USERI2
 70
     0
  9
$USERI3
 70
     0
  9
$USERI4
 70
     0
  9
$USERI5
 70
     0
  9
$USERR1
 40
0.0
  9
$USERR2
 40
0.0
  9
$USERR3
 40
0.0
  9
$USERR4
 40
0.0
  9
$USERR5
 40
0.0
  9
$WORLDVIEW
 70
     1
  9
$SHADEDGE
 70
     3
  9
$SHADEDIF
 70
    70
  9
$TILEMODE
 70
     1
  9
$MAXACTVP
 70
    64
  9
$PINSBASE
 10
0.0
 20
0.0
 30
0.0
  9
$PLIMCHECK
 70
     0
  9
$PEXTMIN
 10
1.000000000000000E+20
 20
1.000000000000000E+20
 30
1.000000000000000E+20
  9
$PEXTMAX
 10
-1.000000000000000E+20
 20
-1.000000000000000E+20
 30
-1.000000000000000E+20
  9
$PLIMMIN
 10
0.0
 20
0.0
  9
$PLIMMAX
 10
420.0
 20
297.0
  9
$UNITMODE
 70
     0
  9
$VISRETAIN
 70
     1
  9
$PLINEGEN
 70
     0
  9
$PSLTSCALE
 70
     1
  9
$TREEDEPTH
 70
  3020
  9
$PICKSTYLE
 70
     1
  9
$CMLSTYLE
  2
STANDARD
  9
$CMLJUST
 70
     0
  9
$CMLSCALE
 40
20.0
  9
$PROXYGRAPHICS
 70
     1
  9
$MEASUREMENT
 70
     1
  0
ENDSEC
  0
SECTION
  2
CLASSES
  0
CLASS
  1
ACDBDICTIONARYWDFLT
  2
AcDbDictionaryWithDefault
  3
AutoCAD 2000
 90
        0
280
     0
281
     0
  0
CLASS
  1
ACDBPLACEHOLDER
  2
AcDbPlaceHolder
  3
AutoCAD 2000
 90
        0
280
     0
281
     0
  0
CLASS
  1
LAYOUT
  2
AcDbLayout
  3
AutoCAD 2000
 90
        0
280
     0
281
     0
  0
CLASS
  1
DICTIONARYVAR
  2
AcDbDictionaryVar
  3
AutoCAD 2000
 90
        0
280
     0
281
     0
  0
CLASS
  1
LONG_TRANSACTION
  2
AcDbLongTransaction
  3
AutoCAD 2000
 90
        0
280
     0
281
     0
  0
CLASS
  1
LWPOLYLINE
  2
AcDbPolyline
  3
AutoCAD 2000
 90
        0
280
     0
281
     1
  0
CLASS
  1
HATCH
  2
AcDbHatch
  3
AutoCAD 2000
 90
        0
280
     0
281
     1
  0
CLASS
  1
XRECORD
  2
AcDbXrecord
  3
AutoCAD 2000
 90
        0
280
     0
281
     0
  0
CLASS
  1
LONG_TRANSACTION
  2
AcDbLongTransaction
  3
AutoCAD 2000
 90
        0
280
     0
281
     0
  0
CLASS
  1
LWPOLYLINE
  2
AcDbPolyline
  3
AutoCAD 2000
 90
        0
280
     0
281
     1
  0
CLASS
  1
HATCH
  2
AcDbHatch
  3
AutoCAD 2000
 90
        0
280
     0
281
     1
  0
CLASS
  1
XRECORD
  2
AcDbXrecord
  3
AutoCAD 2000
 90
        0
280
     0
281
     0
  0
ENDSEC
  0
SECTION
  2
TABLES
  0
TABLE
  2
VPORT
  5
8
330
0
100
AcDbSymbolTable
 70
     2
  0
VPORT
  5
D7F
330
8
100
AcDbSymbolTableRecord
100
AcDbViewportTableRecord
  2
*ACTIVE
 70
     0
 10
0.0
 20
0.0
 11
1.0
 21
1.0
 12
168.464005167532
 22
219.4122866468942
 13
0.0
 23
0.0
 14
10.0
 24
10.0
 15
10.0
 25
10.0
 16
0.0
 26
0.0
 36
1.0
 17
0.0
 27
0.0
 37
0.0
 40
442.5115525325261
 41
1.668975069252077
 42
50.0
 43
0.0
 44
0.0
 50
0.0
 51
0.0
 71
     0
 72
   100
 73
     1
 74
     3
 75
     0
 76
     0
 77
     0
 78
     0
  0
ENDTAB
  0
TABLE
  2
LTYPE
  5
5
330
0
100
AcDbSymbolTable
 70
     3
  0
LTYPE
  5
14
330
5
100
AcDbSymbolTableRecord
100
AcDbLinetypeTableRecord
  2
BYBLOCK
 70
     0
  3

 72
    65
 73
     0
 40
0.0
  0
LTYPE
  5
15
330
5
100
AcDbSymbolTableRecord
100
AcDbLinetypeTableRecord
  2
BYLAYER
 70
     0
  3

 72
    65
 73
     0
 40
0.0
  0
LTYPE
  5
16
330
5
100
AcDbSymbolTableRecord
100
AcDbLinetypeTableRecord
  2
CONTINUOUS
 70
     0
  3
Solid line
 72
    65
 73
     0
 40
0.0
  0
LTYPE
  5
82
330
5
100
AcDbSymbolTableRecord
100
AcDbLinetypeTableRecord
  2
CENTER
 70
     0
  3
____ _ ____ _ ____ _ ____ _ ____ _ ____ _ ____
 72
    65
 73
     4
 40
2.0
 49
1.25
 74
     0
 49
-0.25
 74
     0
 49
0.25
 74
     0
 49
-0.25
 74
     0
  0
LTYPE
  5
83
330
5
100
AcDbSymbolTableRecord
100
AcDbLinetypeTableRecord
  2
HIDDEN
 70
     0
  3
__ __ __ __ __ __ __ __ __ __ __ __ __ __ __ __
 72
    65
 73
     2
 40
0.375
 49
0.25
 74
     0
 49
-0.125
 74
     0
  0
ENDTAB
  0
TABLE
  2
LAYER
  5
2
102
{ACAD_XDICTIONARY
360
90
102
}
330
0
100
AcDbSymbolTable
 70
     4
  0
LAYER
  5
10
330
2
100
AcDbSymbolTableRecord
100
AcDbLayerTableRecord
  2
0
 70
     0
 62
     7
  6
CONTINUOUS
  0
LAYER
  5
86
330
2
100
AcDbSymbolTableRecord
100
AcDbLayerTableRecord
  2
DEFPOINTS
 70
     0
 62
     7
  6
CONTINUOUS
  0
LAYER
  5
87
330
2
100
AcDbSymbolTableRecord
100
AcDbLayerTableRecord
  2
CLASS1
 70
     0
 62
     7
  6
CONTINUOUS
  0
LAYER
  5
88
330
2
100
AcDbSymbolTableRecord
100
AcDbLayerTableRecord
  2
外形
 70
     0
 62
     7
  6
CONTINUOUS
  0
ENDTAB
  0
TABLE
  2
STYLE
  5
3
330
0
100
AcDbSymbolTable
 70
     1
  0
STYLE
  5
11
330
3
100
AcDbSymbolTableRecord
100
AcDbTextStyleTableRecord
  2
STANDARD
 70
     0
 40
0.0
 41
1.0
 50
0.0
 71
     0
 42
2.5
  3
txt
  4

  0
ENDTAB
  0
TABLE
  2
VIEW
  5
6
330
0
100
AcDbSymbolTable
 70
     0
  0
ENDTAB
  0
TABLE
  2
UCS
  5
7
330
0
100
AcDbSymbolTable
 70
     0
  0
ENDTAB
  0
TABLE
  2
APPID
  5
9
330
0
100
AcDbSymbolTable
 70
     1
  0
APPID
  5
12
330
9
100
AcDbSymbolTableRecord
100
AcDbRegAppTableRecord
  2
ACAD
 70
     0
  0
ENDTAB
  0
TABLE
  2
DIMSTYLE
  5
A
330
0
100
AcDbSymbolTable
 70
     1
  0
DIMSTYLE
105
27
330
A
100
AcDbSymbolTableRecord
100
AcDbDimStyleTableRecord
  2
ISO-25
 70
     0
  3

  4

  5

  6

  7

 40
1.0
 41
2.5
 42
0.625
 43
3.75
 44
1.25
 45
0.0
 46
0.0
 47
0.0
 48
0.0
140
2.5
141
2.5
142
0.0
143
0.03937007874016
144
1.0
145
0.0
146
1.0
147
0.625
 71
     0
 72
     0
 73
     0
 74
     0
 75
     0
 76
     0
 77
     1
 78
     8
170
     0
171
     3
172
     1
173
     0
174
     0
175
     0
176
     0
177
     0
178
     0
270
     2
271
     2
272
     2
273
     2
274
     3
340
11
275
     0
280
     0
281
     0
282
     0
283
     0
284
     8
285
     0
286
     0
287
     3
288
     0
  0
ENDTAB
  0
TABLE
  2
BLOCK_RECORD
  5
1
330
0
100
AcDbSymbolTable
 70
     1
  0
BLOCK_RECORD
  5
1F
102
{ACAD_XDICTIONARY
360
D75
102
}
330
1
100
AcDbSymbolTableRecord
100
AcDbBlockTableRecord
  2
*MODEL_SPACE
  0
BLOCK_RECORD
  5
1B
102
{ACAD_XDICTIONARY
360
D73
102
}
330
1
100
AcDbSymbolTableRecord
100
AcDbBlockTableRecord
  2
*PAPER_SPACE
  0
BLOCK_RECORD
  5
31
330
1
100
AcDbSymbolTableRecord
100
AcDbBlockTableRecord
  2
A$C51C20FFB
  0
ENDTAB
  0
ENDSEC
  0
SECTION
  2
BLOCKS
  0
BLOCK
  5
20
330
1F
100
AcDbEntity
  8
0
100
AcDbBlockBegin
  2
*MODEL_SPACE
 70
     0
 10
0.0
 20
0.0
 30
0.0
  3
*MODEL_SPACE
  1

  0
ENDBLK
  5
21
330
1F
100
AcDbEntity
  8
0
100
AcDbBlockEnd
  0
BLOCK
  5
1C
330
1B
100
AcDbEntity
 67
     1
  8
0
100
AcDbBlockBegin
  2
*PAPER_SPACE
 70
     0
 10
0.0
 20
0.0
 30
0.0
  3
*PAPER_SPACE
  1

  0
ENDBLK
  5
1D
330
1B
100
AcDbEntity
 67
     1
  8
0
100
AcDbBlockEnd
  0
BLOCK
  5
36
330
31
100
AcDbEntity
  8
0
100
AcDbBlockBegin
  2
A$C51C20FFB
 70
     0
 10
0.0
 20
0.0
 30
0.0
  3
A$C51C20FFB
  1

  0
LINE
  5
32
330
31
100
AcDbEntity
  8
0
100
AcDbLine
 10
31.0
 20
2.499998662678081
 30
0.0
 11
0.0
 21
2.499998662678081
 31
0.0
  0
LINE
  5
33
330
31
100
AcDbEntity
  8
0
100
AcDbLine
 10
31.0
 20
-0.000001337321919
 30
0.0
 11
31.0
 21
2.499998662678081
 31
0.0
  0
LINE
  5
34
330
31
100
AcDbEntity
  8
0
100
AcDbLine
 10
0.0
 20
-0.000001337321919
 30
0.0
 11
31.0
 21
-0.000001337321919
 31
0.0
  0
LINE
  5
35
330
31
100
AcDbEntity
  8
0
100
AcDbLine
 10
0.0
 20
2.499998662678081
 30
0.0
 11
0.0
 21
-0.000001337321919
 31
0.0
  0
ENDBLK
  5
37
330
31
100
AcDbEntity
  8
0
100
AcDbBlockEnd
  0
ENDSEC
  0
SECTION
  2
ENTITIES
  0
LINE
  5
6A5
330
1F
100
AcDbEntity
  8
0
100
AcDbLine
 10
173.8743420205436
 20
267.7700649067156
 30
0.0
 11
173.8743420205436
 21
271.3200649067157
 31
0.0
  0
LINE
  5
6A6
330
1F
100
AcDbEntity
  8
0
100
AcDbLine
 10
174.3743420205436
 20
271.3200649067159
 30
0.0
 11
174.3743420205436
 21
251.3200649067158
 31
0.0
  0
LINE
  5
6A7
330
1F
100
AcDbEntity
  8
外形
100
AcDbLine
 10
174.6742672040396
 20
271.3200649067157
 30
0.0
 11
174.6742672040396
 21
251.3200649067158
 31
0.0
  0
LINE
  5
6A8
330
1F
100
AcDbEntity
  8
外形
100
AcDbLine
 10
180.8743420205436
 20
291.733139468317
 30
0.0
 11
180.8743420205436
 21
138.8331394683174
 31
0.0
  0
LINE
  5
6A9
330
1F
100
AcDbEntity
  8
0
  6
CONTINUOUS
100
AcDbLine
 10
157.9843420205436
 20
271.320064906715
 30
0.0
 11
157.9843420205436
 21
265.9400649067158
 31
0.0
  0
LINE
  5
6AA
330
1F
100
AcDbEntity
  8
0
  6
CONTINUOUS
100
AcDbLine
 10
156.3843420205428
 20
271.3200649067148
 30
0.0
 11
156.3843420205448
 21
265.9400649067158
 31
0.0
  0
LINE
  5
6AB
330
1F
100
AcDbEntity
  8
0
100
AcDbLine
 10
180.8743420205436
 20
291.7331394683178
 30
0.0
 11
180.8743420205436
 21
138.8331394683177
 31
0.0
  0
LINE
  5
6AC
330
1F
100
AcDbEntity
  8
0
100
AcDbLine
 10
156.0743420205449
 20
291.7331394683178
 30
0.0
 11
156.0743420205449
 21
138.9331394683178
 31
0.0
  0
LINE
  5
6AD
330
1F
100
AcDbEntity
  8
0
100
AcDbLine
 10
151.9046310205436
 20
289.4542354683181
 30
0.0
 11
151.9046310205436
 21
141.2043064683174
 31
0.0
  0
LINE
  5
6AE
330
1F
100
AcDbEntity
  8
0
100
AcDbLine
 10
185.9593410205436
 20
139.8658454683177
 30
0.0
 11
185.9593410205436
 21
290.8049934683183
 31
0.0
  0
LINE
  5
6AF
330
1F
100
AcDbEntity
  8
0
100
AcDbLine
 10
182.9666250205436
 20
294.3179074683181
 30
0.0
 11
182.9666250205436
 21
136.3523914683177
 31
0.0
  0
LINE
  5
6B0
330
1F
100
AcDbEntity
  8
0
100
AcDbLine
 10
185.0440530205436
 20
289.4542354683181
 30
0.0
 11
185.0440530205436
 21
141.2043064683174
 31
0.0
  0
LINE
  5
6B1
330
1F
100
AcDbEntity
  8
0
100
AcDbLine
 10
180.9743420205435
 20
138.8292704683177
 30
0.0
 11
180.9743420205435
 21
291.8292704683176
 31
0.0
  0
LINE
  5
6B2
330
1F
100
AcDbEntity
  8
0
100
AcDbLine
 10
155.9743420205435
 20
138.8292704683177
 30
0.0
 11
155.9743420205435
 21
291.8292704683176
 31
0.0
  0
LINE
  5
6B3
330
1F
100
AcDbEntity
  8
0
100
AcDbLine
 10
153.9820600205436
 20
294.3179074683181
 30
0.0
 11
153.9820600205436
 21
136.3523914683177
 31
0.0
  0
LINE
  5
6B4
330
1F
100
AcDbEntity
  8
0
100
AcDbLine
 10
150.9892230205436
 20
139.8658454683177
 30
0.0
 11
150.9892230205436
 21
290.8049934683183
 31
0.0
  0
LINE
  5
6B5
330
1F
100
AcDbEntity
  8
外形
100
AcDbLine
 10
158.6743420205436
 20
184.9331394683179
 30
0.0
 11
158.6743420205436
 21
174.0831394683177
 31
0.0
  0
LINE
  5
6B6
330
1F
100
AcDbEntity
  8
外形
100
AcDbLine
 10
174.3743420205436
 20
231.807126468318
 30
0.0
 11
174.3743420205436
 21
143.8331394683176
 31
0.0
  0
LINE
  5
6B7
330
1F
100
AcDbEntity
  8
外形
100
AcDbLine
 10
156.0743420205449
 20
243.9913080683155
 30
0.0
 11
156.0743420205449
 21
138.9331394683178
 31
0.0
  0
LINE
  5
6B8
330
1F
100
AcDbEntity
  8
0
100
AcDbLine
 10
173.8743420205436
 20
174.3031384683166
 30
0.0
 11
173.8743420205436
 21
184.5031384683158
 31
0.0
  0
LINE
  5
6B9
330
1F
100
AcDbEntity
  8
0
100
AcDbLine
 10
172.2743420205446
 20
184.1031384683159
 30
0.0
 11
172.2743420205446
 21
174.7031384683166
 31
0.0
  0
LINE
  5
6BA
330
1F
100
AcDbEntity
  8
0
100
AcDbLine
 10
171.8743420205436
 20
183.6031384683179
 30
0.0
 11
171.8743420205436
 21
175.2031384683166
 31
0.0
  0
LINE
  5
6BB
330
1F
100
AcDbEntity
  8
0
100
AcDbLine
 10
160.0743420205436
 20
174.8031384683167
 30
0.0
 11
160.0743420205436
 21
184.0031384683173
 31
0.0
  0
LINE
  5
6BC
330
1F
100
AcDbEntity
  8
0
100
AcDbLine
 10
158.6743420205436
 20
185.033139468318
 30
0.0
 11
158.6743420205436
 21
173.7331394683179
 31
0.0
  0
LINE
  5
6BD
330
1F
100
AcDbEntity
  8
0
100
AcDbLine
 10
159.1743420205436
 20
183.892998313679
 30
0.0
 11
159.1743420205436
 21
175.0113836239546
 31
0.0
  0
LINE
  5
6BE
330
1F
100
AcDbEntity
  8
0
100
AcDbLine
 10
174.3743420205436
 20
231.807126468318
 30
0.0
 11
174.3743420205436
 21
143.8331394683176
 31
0.0
  0
LINE
  5
6BF
330
1F
100
AcDbEntity
  8
外形
100
AcDbLine
 10
160.1743420205437
 20
143.8331394683176
 30
0.0
 11
174.3743420205436
 21
143.8331394683176
 31
0.0
  0
LINE
  5
6C0
330
1F
100
AcDbEntity
  8
外形
100
AcDbLine
 10
157.0743420205436
 20
137.9331394683178
 30
0.0
 11
179.8743420205428
 21
137.9331394683178
 31
0.0
  0
CIRCLE
  5
6C1
330
1F
100
AcDbEntity
  8
0
100
AcDbCircle
 10
165.4743420205435
 20
169.1481384683179
 30
0.0
 40
1.564999999999999
  0
CIRCLE
  5
6C2
330
1F
100
AcDbEntity
  8
0
100
AcDbCircle
 10
165.4743420205435
 20
165.3381384683175
 30
0.0
 40
1.564999999999999
  0
LINE
  5
6C3
330
1F
100
AcDbEntity
  8
0
100
AcDbLine
 10
163.8243420205436
 20
167.2431384683178
 30
0.0
 11
167.5443420205446
 21
167.2431384683178
 31
0.0
  0
LINE
  5
6C4
330
1F
100
AcDbEntity
  8
0
100
AcDbLine
 10
163.8243420205436
 20
167.2431384683178
 30
0.0
 11
168.3043420205438
 21
167.2431384683178
 31
0.0
  0
LINE
  5
6C5
330
1F
100
AcDbEntity
  8
0
100
AcDbLine
 10
163.8243420205436
 20
163.4331384683179
 30
0.0
 11
167.5443420205446
 21
163.4331384683179
 31
0.0
  0
LINE
  5
6C6
330
1F
100
AcDbEntity
  8
0
100
AcDbLine
 10
163.8243420205436
 20
163.4331384683179
 30
0.0
 11
168.3043420205438
 21
163.4331384683179
 31
0.0
  0
LINE
  5
6C7
330
1F
100
AcDbEntity
  8
0
100
AcDbLine
 10
173.3743420205436
 20
173.5531384683176
 30
0.0
 11
163.3243420205436
 21
173.5531384683176
 31
0.0
  0
LINE
  5
6C8
330
1F
100
AcDbEntity
  8
0
100
AcDbLine
 10
173.3743420205436
 20
171.0531384683178
 30
0.0
 11
163.3243420205436
 21
171.0531384683178
 31
0.0
  0
LINE
  5
6C9
330
1F
100
AcDbEntity
  8
0
100
AcDbLine
 10
159.6951740997325
 20
174.3031384683166
 30
0.0
 11
171.8743420205436
 21
174.3031384683166
 31
0.0
  0
LINE
  5
6CA
330
1F
100
AcDbEntity
  8
0
100
AcDbLine
 10
171.4743420205426
 20
174.8031384683167
 30
0.0
 11
160.0743420205436
 21
174.8031384683167
 31
0.0
  0
CIRCLE
  5
6CB
330
1F
100
AcDbEntity
  8
0
100
AcDbCircle
 10
165.4743420205435
 20
157.7181384683178
 30
0.0
 40
1.564999999999999
  0
CIRCLE
  5
6CC
330
1F
100
AcDbEntity
  8
0
100
AcDbCircle
 10
165.4743420205435
 20
161.5281384683176
 30
0.0
 40
1.564999999999999
  0
LINE
  5
6CD
330
1F
100
AcDbEntity
  8
0
100
AcDbLine
 10
163.8243420205436
 20
155.813138468318
 30
0.0
 11
167.5443420205446
 21
155.813138468318
 31
0.0
  0
LINE
  5
6CE
330
1F
100
AcDbEntity
  8
0
100
AcDbLine
 10
163.8243420205436
 20
155.813138468318
 30
0.0
 11
168.3043420205438
 21
155.813138468318
 31
0.0
  0
LINE
  5
6CF
330
1F
100
AcDbEntity
  8
0
100
AcDbLine
 10
163.8243420205436
 20
159.6231384683179
 30
0.0
 11
168.3043420205438
 21
159.6231384683179
 31
0.0
  0
LINE
  5
6D0
330
1F
100
AcDbEntity
  8
0
100
AcDbLine
 10
163.8243420205436
 20
159.6231384683179
 30
0.0
 11
167.5443420205446
 21
159.6231384683179
 31
0.0
  0
LINE
  5
6D1
330
1F
100
AcDbEntity
  8
0
100
AcDbLine
 10
163.8243420205436
 20
152.0031384683173
 30
0.0
 11
168.3043420205438
 21
152.0031384683173
 31
0.0
  0
LINE
  5
6D2
330
1F
100
AcDbEntity
  8
0
100
AcDbLine
 10
163.8243420205436
 20
152.0031384683173
 30
0.0
 11
167.5443420205446
 21
152.0031384683173
 31
0.0
  0
CIRCLE
  5
6D3
330
1F
100
AcDbEntity
  8
0
100
AcDbCircle
 10
165.4743420205435
 20
153.9081384683178
 30
0.0
 40
1.564999999999999
  0
CIRCLE
  5
6D4
330
1F
100
AcDbEntity
  8
0
100
AcDbCircle
 10
165.4743420205435
 20
146.2881384683178
 30
0.0
 40
1.564999999999999
  0
LINE
  5
6D5
330
1F
100
AcDbEntity
  8
0
100
AcDbLine
 10
163.8243420205436
 20
148.1931384683175
 30
0.0
 11
168.3043420205438
 21
148.1931384683175
 31
0.0
  0
LINE
  5
6D6
330
1F
100
AcDbEntity
  8
0
100
AcDbLine
 10
163.8243420205436
 20
148.1931384683175
 30
0.0
 11
167.5443420205446
 21
148.1931384683175
 31
0.0
  0
LINE
  5
6D7
330
1F
100
AcDbEntity
  8
0
100
AcDbLine
 10
163.8243420205436
 20
144.3831384683176
 30
0.0
 11
168.3043420205438
 21
144.3831384683176
 31
0.0
  0
CIRCLE
  5
6D8
330
1F
100
AcDbEntity
  8
0
100
AcDbCircle
 10
165.4743420205435
 20
150.0981384683178
 30
0.0
 40
1.564999999999999
  0
LINE
  5
6D9
330
1F
100
AcDbEntity
  8
0
100
AcDbLine
 10
154.4741330205438
 20
126.829005468318
 30
0.0
 11
164.4743420205435
 21
126.829005468318
 31
0.0
  0
LINE
  5
6DA
330
1F
100
AcDbEntity
  8
0
100
AcDbLine
 10
157.0743420205436
 20
137.9331394683178
 30
0.0
 11
179.8743420205436
 21
137.9331394683178
 31
0.0
  0
LINE
  5
6DB
330
1F
100
AcDbEntity
  8
0
100
AcDbLine
 10
156.9743420205435
 20
137.8292704683174
 30
0.0
 11
179.9743420205435
 21
137.8292704683174
 31
0.0
  0
LINE
  5
6DC
330
1F
100
AcDbEntity
  8
0
100
AcDbLine
 10
158.1507430205447
 20
134.8292704683176
 30
0.0
 11
178.8020050205435
 21
134.8292704683176
 31
0.0
  0
ARC
  5
6DD
330
1F
100
AcDbEntity
  8
0
100
AcDbCircle
 10
168.4743420205426
 20
-4260.38002453168
 30
0.0
 40
4395.595658
100
AcDbArc
 50
89.8755910000057
 51
90.12440899999431
  0
LINE
  5
6DE
330
1F
100
AcDbEntity
  8
0
100
AcDbLine
 10
154.9820600205436
 20
135.3523914683179
 30
0.0
 11
181.9666250205436
 21
135.3523914683179
 31
0.0
  0
LINE
  5
6DF
330
1F
100
AcDbEntity
  8
0
100
AcDbLine
 10
160.1743420205437
 20
143.8331394683176
 30
0.0
 11
174.3743420205436
 21
143.8331394683176
 31
0.0
  0
LINE
  5
6E0
330
1F
100
AcDbEntity
  8
0
100
AcDbLine
 10
152.9741330205438
 20
128.329005468318
 30
0.0
 11
152.9741330205438
 21
134.8292704683176
 31
0.0
  0
ARC
  5
6E1
330
1F
100
AcDbEntity
  8
0
100
AcDbCircle
 10
154.4741330205438
 20
128.329005468318
 30
0.0
 40
1.5
100
AcDbArc
 50
180.0
 51
270.0
  0
LINE
  5
6E2
330
1F
100
AcDbEntity
  8
外形
100
AcDbLine
 10
160.1743420205437
 20
143.8331394683176
 30
0.0
 11
160.1743420205437
 21
173.7331394683179
 31
0.0
  0
LINE
  5
6E3
330
1F
100
AcDbEntity
  8
0
100
AcDbLine
 10
163.3243420205436
 20
155.7431384683178
 30
0.0
 11
163.3243420205436
 21
155.043138468318
 31
0.0
  0
LINE
  5
6E4
330
1F
100
AcDbEntity
  8
0
100
AcDbLine
 10
163.1743420205436
 20
155.043138468318
 30
0.0
 11
163.1743420205436
 21
155.7431384683178
 31
0.0
  0
LINE
  5
6E5
330
1F
100
AcDbEntity
  8
0
100
AcDbLine
 10
162.5243420205446
 20
152.9431384683175
 30
0.0
 11
162.5243420205446
 21
155.7431384683178
 31
0.0
  0
LINE
  5
6E6
330
1F
100
AcDbEntity
  8
0
100
AcDbLine
 10
161.3243420205437
 20
155.7431384683178
 30
0.0
 11
161.3243420205437
 21
152.9431384683175
 31
0.0
  0
LINE
  5
6E7
330
1F
100
AcDbEntity
  8
0
100
AcDbLine
 10
160.6743420205436
 20
152.3431384683178
 30
0.0
 11
160.6743420205436
 21
155.4431384683175
 31
0.0
  0
LINE
  5
6E8
330
1F
100
AcDbEntity
  8
0
100
AcDbLine
 10
160.1743420205437
 20
143.8331394683176
 30
0.0
 11
160.1743420205437
 21
173.7331394683179
 31
0.0
  0
ARC
  5
6E9
330
1F
100
AcDbEntity
  8
外形
100
AcDbCircle
 10
157.0743420205436
 20
138.9331394683178
 30
0.0
 40
1.0
100
AcDbArc
 50
180.0
 51
270.0
  0
ARC
  5
6EA
330
1F
100
AcDbEntity
  8
0
100
AcDbCircle
 10
157.0743420205436
 20
138.9331394683178
 30
0.0
 40
1.0
100
AcDbArc
 50
180.0
 51
270.0
  0
ARC
  5
6EB
330
1F
100
AcDbEntity
  8
0
100
AcDbCircle
 10
156.9743420205435
 20
138.8292704683177
 30
0.0
 40
1.0
100
AcDbArc
 50
180.0
 51
270.0
  0
LINE
  5
6EC
330
1F
100
AcDbEntity
  8
0
100
AcDbLine
 10
153.9741330205446
 20
133.8292704683174
 30
0.0
 11
157.4746660205436
 21
133.8292704683174
 31
0.0
  0
LINE
  5
6ED
330
1F
100
AcDbEntity
  8
0
100
AcDbLine
 10
152.9741330205438
 20
134.8292704683176
 30
0.0
 11
152.9741330205438
 21
138.8658454683177
 31
0.0
  0
ARC
  5
6EE
330
1F
100
AcDbEntity
  8
0
100
AcDbCircle
 10
153.9741330205446
 20
134.8292704683176
 30
0.0
 40
1.0
100
AcDbArc
 50
180.0
 51
270.0
  0
ARC
  5
6EF
330
1F
100
AcDbEntity
  8
0
100
AcDbCircle
 10
154.9820600205436
 20
136.3523914683177
 30
0.0
 40
1.0
100
AcDbArc
 50
180.0
 51
270.0
  0
ARC
  5
6F0
330
1F
100
AcDbEntity
  8
0
100
AcDbCircle
 10
151.9892230205436
 20
139.8658454683177
 30
0.0
 40
1.0
100
AcDbArc
 50
180.0
 51
270.0
  0
ARC
  5
6F1
330
1F
100
AcDbEntity
  8
0
100
AcDbCircle
 10
152.9046310205449
 20
141.2043064683174
 30
0.0
 40
1.0
100
AcDbArc
 50
180.0
 51
270.0
  0
LINE
  5
6F2
330
1F
100
AcDbEntity
  8
0
100
AcDbLine
 10
152.9741330205438
 20
138.8658454683177
 30
0.0
 11
151.9892230205436
 21
138.8658454683177
 31
0.0
  0
LINE
  5
6F3
330
1F
100
AcDbEntity
  8
0
100
AcDbLine
 10
152.9046310205449
 20
140.2043064683175
 30
0.0
 11
153.9050600205436
 21
140.2043064683175
 31
0.0
  0
LINE
  5
6F4
330
1F
100
AcDbEntity
  8
0
100
AcDbLine
 10
152.9741330205438
 20
138.8535474683176
 30
0.0
 11
153.9050600205436
 21
140.2043064683175
 31
0.0
  0
ARC
  5
6F5
330
1F
100
AcDbEntity
  8
0
100
AcDbCircle
 10
158.9321700205448
 20
134.2052744683176
 30
0.0
 40
1.0
100
AcDbArc
 50
90.12440899999431
 51
146.0984159999819
  0
LINE
  5
6F6
330
1F
100
AcDbEntity
  8
0
100
AcDbLine
 10
158.1021730205436
 20
134.7630424683179
 30
0.0
 11
157.4746660205436
 21
133.8292704683174
 31
0.0
  0
LINE
  5
6F7
330
1F
100
AcDbEntity
  8
0
100
AcDbLine
 10
163.3243420205436
 20
151.2331384683174
 30
0.0
 11
163.3243420205436
 21
148.1931384683175
 31
0.0
  0
LINE
  5
6F8
330
1F
100
AcDbEntity
  8
0
100
AcDbLine
 10
163.1743420205436
 20
148.5331384683178
 30
0.0
 11
163.1743420205436
 21
151.2331384683174
 31
0.0
  0
LINE
  5
6F9
330
1F
100
AcDbEntity
  8
0
100
AcDbLine
 10
160.6743420205436
 20
148.5331384683178
 30
0.0
 11
160.6743420205436
 21
151.6331384683176
 31
0.0
  0
LINE
  5
6FA
330
1F
100
AcDbEntity
  8
0
100
AcDbLine
 10
162.5243420205446
 20
149.1331384683176
 30
0.0
 11
162.5243420205446
 21
151.9331384683179
 31
0.0
  0
LINE
  5
6FB
330
1F
100
AcDbEntity
  8
0
100
AcDbLine
 10
161.3243420205437
 20
151.9331384683179
 30
0.0
 11
161.3243420205437
 21
149.1331384683176
 31
0.0
  0
ARC
  5
6FC
330
1F
100
AcDbEntity
  8
0
100
AcDbCircle
 10
162.8743420205436
 20
148.5331384683178
 30
0.0
 40
0.3
100
AcDbArc
 50
270.0
 51
0.0
  0
LINE
  5
6FD
330
1F
100
AcDbEntity
  8
0
100
AcDbLine
 10
163.8243420205436
 20
148.1931384683175
 30
0.0
 11
163.3243420205436
 21
148.1931384683175
 31
0.0
  0
LINE
  5
6FE
330
1F
100
AcDbEntity
  8
0
100
AcDbLine
 10
161.6243420205436
 20
148.1231384683178
 30
0.0
 11
162.2243420205435
 21
148.1231384683178
 31
0.0
  0
LINE
  5
6FF
330
1F
100
AcDbEntity
  8
0
100
AcDbLine
 10
161.3243420205437
 20
148.1231384683178
 30
0.0
 11
161.3243420205437
 21
145.3231384683177
 31
0.0
  0
LINE
  5
700
330
1F
100
AcDbEntity
  8
0
100
AcDbLine
 10
161.6243420205436
 20
148.1231384683178
 30
0.0
 11
161.3243420205437
 21
148.1231384683178
 31
0.0
  0
LINE
  5
701
330
1F
100
AcDbEntity
  8
0
100
AcDbLine
 10
163.1743420205436
 20
147.4231384683175
 30
0.0
 11
163.1743420205436
 21
148.1231384683178
 31
0.0
  0
LINE
  5
702
330
1F
100
AcDbEntity
  8
0
100
AcDbLine
 10
163.1743420205436
 20
147.4231384683175
 30
0.0
 11
163.3243420205436
 21
147.4231384683175
 31
0.0
  0
LINE
  5
703
330
1F
100
AcDbEntity
  8
0
100
AcDbLine
 10
162.5243420205446
 20
145.3231384683177
 30
0.0
 11
162.5243420205446
 21
148.1231384683178
 31
0.0
  0
LINE
  5
704
330
1F
100
AcDbEntity
  8
0
100
AcDbLine
 10
162.7743420205437
 20
148.1231384683178
 30
0.0
 11
163.1743420205436
 21
148.1231384683178
 31
0.0
  0
LINE
  5
705
330
1F
100
AcDbEntity
  8
0
100
AcDbLine
 10
163.1743420205436
 20
148.1231384683178
 30
0.0
 11
163.3243420205436
 21
148.1231384683178
 31
0.0
  0
LINE
  5
706
330
1F
100
AcDbEntity
  8
0
100
AcDbLine
 10
162.5243420205446
 20
148.1231384683178
 30
0.0
 11
162.7743420205437
 21
148.1231384683178
 31
0.0
  0
LINE
  5
707
330
1F
100
AcDbEntity
  8
0
100
AcDbLine
 10
162.5243420205446
 20
148.1231384683178
 30
0.0
 11
162.2243420205435
 21
148.1231384683178
 31
0.0
  0
LINE
  5
708
330
1F
100
AcDbEntity
  8
0
100
AcDbLine
 10
163.8243420205436
 20
148.1931384683175
 30
0.0
 11
163.3243420205436
 21
148.1931384683175
 31
0.0
  0
LINE
  5
709
330
1F
100
AcDbEntity
  8
0
100
AcDbLine
 10
163.3243420205436
 20
148.1231384683178
 30
0.0
 11
163.3243420205436
 21
147.4231384683175
 31
0.0
  0
LINE
  5
70A
330
1F
100
AcDbEntity
  8
0
100
AcDbLine
 10
163.3243420205436
 20
148.1931384683175
 30
0.0
 11
163.3243420205436
 21
148.1231384683178
 31
0.0
  0
LINE
  5
70B
330
1F
100
AcDbEntity
  8
0
100
AcDbLine
 10
162.7743420205437
 20
148.2331384683178
 30
0.0
 11
162.8743420205436
 21
148.2331384683178
 31
0.0
  0
LINE
  5
70C
330
1F
100
AcDbEntity
  8
0
100
AcDbLine
 10
161.6243420205436
 20
148.833138468318
 30
0.0
 11
162.2243420205435
 21
148.833138468318
 31
0.0
  0
ARC
  5
70D
330
1F
100
AcDbEntity
  8
0
100
AcDbCircle
 10
162.2243420205435
 20
149.1331384683176
 30
0.0
 40
0.3
100
AcDbArc
 50
270.0
 51
0.0
  0
ARC
  5
70E
330
1F
100
AcDbEntity
  8
0
100
AcDbCircle
 10
161.6243420205436
 20
149.1331384683176
 30
0.0
 40
0.3
100
AcDbArc
 50
180.0
 51
270.0
  0
ARC
  5
70F
330
1F
100
AcDbEntity
  8
0
100
AcDbCircle
 10
162.8743420205436
 20
144.7231384683176
 30
0.0
 40
0.3
100
AcDbArc
 50
270.0
 51
0.0
  0
LINE
  5
710
330
1F
100
AcDbEntity
  8
0
100
AcDbLine
 10
161.6243420205436
 20
145.023138468318
 30
0.0
 11
162.2243420205435
 21
145.023138468318
 31
0.0
  0
LINE
  5
711
330
1F
100
AcDbEntity
  8
0
100
AcDbLine
 10
162.7743420205437
 20
144.4231384683175
 30
0.0
 11
162.8743420205436
 21
144.4231384683175
 31
0.0
  0
LINE
  5
712
330
1F
100
AcDbEntity
  8
0
100
AcDbLine
 10
163.8243420205436
 20
144.3831384683176
 30
0.0
 11
163.3243420205436
 21
144.3831384683176
 31
0.0
  0
ARC
  5
713
330
1F
100
AcDbEntity
  8
0
100
AcDbCircle
 10
161.6243420205436
 20
145.3231384683177
 30
0.0
 40
0.3
100
AcDbArc
 50
180.0
 51
270.0
  0
ARC
  5
714
330
1F
100
AcDbEntity
  8
0
100
AcDbCircle
 10
162.2243420205435
 20
145.3231384683177
 30
0.0
 40
0.3
100
AcDbArc
 50
270.0
 51
0.0
  0
LINE
  5
715
330
1F
100
AcDbEntity
  8
0
100
AcDbLine
 10
163.1743420205436
 20
144.7231384683176
 30
0.0
 11
163.1743420205436
 21
147.4231384683175
 31
0.0
  0
LINE
  5
716
330
1F
100
AcDbEntity
  8
0
100
AcDbLine
 10
163.3243420205436
 20
147.4231384683175
 30
0.0
 11
163.3243420205436
 21
144.3831384683176
 31
0.0
  0
ARC
  5
717
330
1F
100
AcDbEntity
  8
0
100
AcDbCircle
 10
160.9743420205435
 20
148.5331384683178
 30
0.0
 40
0.3
100
AcDbArc
 50
180.0
 51
270.0
  0
ARC
  5
718
330
1F
100
AcDbEntity
  8
0
100
AcDbCircle
 10
160.9743420205435
 20
147.8231384683175
 30
0.0
 40
0.3
100
AcDbArc
 50
90.0
 51
180.0
  0
LINE
  5
719
330
1F
100
AcDbEntity
  8
0
100
AcDbLine
 10
160.9743420205435
 20
148.1231384683178
 30
0.0
 11
161.0743420205436
 21
148.1231384683178
 31
0.0
  0
LINE
  5
71A
330
1F
100
AcDbEntity
  8
0
100
AcDbLine
 10
160.9743420205435
 20
148.2331384683178
 30
0.0
 11
161.0743420205436
 21
148.2331384683178
 31
0.0
  0
ARC
  5
71B
330
1F
100
AcDbEntity
  8
0
100
AcDbCircle
 10
160.9743420205435
 20
144.7231384683176
 30
0.0
 40
0.3
100
AcDbArc
 50
180.0
 51
270.0
  0
LINE
  5
71C
330
1F
100
AcDbEntity
  8
0
100
AcDbLine
 10
160.9743420205435
 20
144.4231384683175
 30
0.0
 11
161.0743420205436
 21
144.4231384683175
 31
0.0
  0
LINE
  5
71D
330
1F
100
AcDbEntity
  8
0
100
AcDbLine
 10
160.6743420205436
 20
144.7231384683176
 30
0.0
 11
160.6743420205436
 21
147.8231384683175
 31
0.0
  0
LINE
  5
71E
330
1F
100
AcDbEntity
  8
0
100
AcDbLine
 10
161.0743420205436
 20
148.1231384683178
 30
0.0
 11
161.3243420205437
 21
148.1231384683178
 31
0.0
  0
LINE
  5
71F
330
1F
100
AcDbEntity
  8
0
100
AcDbLine
 10
161.0743420205436
 20
148.2331384683178
 30
0.0
 11
162.7743420205437
 21
148.2331384683178
 31
0.0
  0
LINE
  5
720
330
1F
100
AcDbEntity
  8
0
100
AcDbLine
 10
161.0743420205436
 20
144.4231384683175
 30
0.0
 11
162.7743420205437
 21
144.4231384683175
 31
0.0
  0
LINE
  5
721
330
1F
100
AcDbEntity
  8
0
100
AcDbLine
 10
163.1743420205436
 20
155.043138468318
 30
0.0
 11
163.3243420205436
 21
155.043138468318
 31
0.0
  0
LINE
  5
722
330
1F
100
AcDbEntity
  8
0
100
AcDbLine
 10
162.5243420205446
 20
151.9331384683179
 30
0.0
 11
162.2243420205435
 21
151.9331384683179
 31
0.0
  0
LINE
  5
723
330
1F
100
AcDbEntity
  8
0
100
AcDbLine
 10
162.5243420205446
 20
151.9331384683179
 30
0.0
 11
162.7743420205437
 21
151.9331384683179
 31
0.0
  0
LINE
  5
724
330
1F
100
AcDbEntity
  8
0
100
AcDbLine
 10
163.1743420205436
 20
151.9331384683179
 30
0.0
 11
163.3243420205436
 21
151.9331384683179
 31
0.0
  0
LINE
  5
725
330
1F
100
AcDbEntity
  8
0
100
AcDbLine
 10
162.7743420205437
 20
151.9331384683179
 30
0.0
 11
163.1743420205436
 21
151.9331384683179
 31
0.0
  0
LINE
  5
726
330
1F
100
AcDbEntity
  8
0
100
AcDbLine
 10
161.6243420205436
 20
151.9331384683179
 30
0.0
 11
161.3243420205437
 21
151.9331384683179
 31
0.0
  0
LINE
  5
727
330
1F
100
AcDbEntity
  8
0
100
AcDbLine
 10
161.6243420205436
 20
151.9331384683179
 30
0.0
 11
162.2243420205435
 21
151.9331384683179
 31
0.0
  0
LINE
  5
728
330
1F
100
AcDbEntity
  8
0
100
AcDbLine
 10
163.1743420205436
 20
151.2331384683174
 30
0.0
 11
163.3243420205436
 21
151.2331384683174
 31
0.0
  0
LINE
  5
729
330
1F
100
AcDbEntity
  8
0
100
AcDbLine
 10
163.1743420205436
 20
151.2331384683174
 30
0.0
 11
163.1743420205436
 21
151.9331384683179
 31
0.0
  0
LINE
  5
72A
330
1F
100
AcDbEntity
  8
0
100
AcDbLine
 10
163.3243420205436
 20
151.9331384683179
 30
0.0
 11
163.3243420205436
 21
151.2331384683174
 31
0.0
  0
LINE
  5
72B
330
1F
100
AcDbEntity
  8
0
100
AcDbLine
 10
163.8243420205436
 20
152.0031384683173
 30
0.0
 11
163.3243420205436
 21
152.0031384683173
 31
0.0
  0
LINE
  5
72C
330
1F
100
AcDbEntity
  8
0
100
AcDbLine
 10
162.7743420205437
 20
152.043138468318
 30
0.0
 11
162.8743420205436
 21
152.043138468318
 31
0.0
  0
LINE
  5
72D
330
1F
100
AcDbEntity
  8
0
100
AcDbLine
 10
161.6243420205436
 20
152.643138468318
 30
0.0
 11
162.2243420205435
 21
152.643138468318
 31
0.0
  0
ARC
  5
72E
330
1F
100
AcDbEntity
  8
0
100
AcDbCircle
 10
162.2243420205435
 20
152.9431384683175
 30
0.0
 40
0.3
100
AcDbArc
 50
270.0
 51
0.0
  0
ARC
  5
72F
330
1F
100
AcDbEntity
  8
0
100
AcDbCircle
 10
162.8743420205436
 20
152.3431384683178
 30
0.0
 40
0.3
100
AcDbArc
 50
270.0
 51
0.0
  0
ARC
  5
730
330
1F
100
AcDbEntity
  8
0
100
AcDbCircle
 10
161.6243420205436
 20
152.9431384683175
 30
0.0
 40
0.3
100
AcDbArc
 50
180.0
 51
270.0
  0
LINE
  5
731
330
1F
100
AcDbEntity
  8
0
100
AcDbLine
 10
163.8243420205436
 20
152.0031384683173
 30
0.0
 11
163.3243420205436
 21
152.0031384683173
 31
0.0
  0
LINE
  5
732
330
1F
100
AcDbEntity
  8
0
100
AcDbLine
 10
163.3243420205436
 20
152.0031384683173
 30
0.0
 11
163.3243420205436
 21
151.9331384683179
 31
0.0
  0
LINE
  5
733
330
1F
100
AcDbEntity
  8
0
100
AcDbLine
 10
163.3243420205436
 20
155.043138468318
 30
0.0
 11
163.3243420205436
 21
152.0031384683173
 31
0.0
  0
LINE
  5
734
330
1F
100
AcDbEntity
  8
0
100
AcDbLine
 10
163.1743420205436
 20
152.3431384683178
 30
0.0
 11
163.1743420205436
 21
155.043138468318
 31
0.0
  0
LINE
  5
735
330
1F
100
AcDbEntity
  8
0
100
AcDbLine
 10
160.9743420205435
 20
151.9331384683179
 30
0.0
 11
161.0743420205436
 21
151.9331384683179
 31
0.0
  0
LINE
  5
736
330
1F
100
AcDbEntity
  8
0
100
AcDbLine
 10
160.9743420205435
 20
152.043138468318
 30
0.0
 11
161.0743420205436
 21
152.043138468318
 31
0.0
  0
ARC
  5
737
330
1F
100
AcDbEntity
  8
0
100
AcDbCircle
 10
160.9743420205435
 20
152.3431384683178
 30
0.0
 40
0.3
100
AcDbArc
 50
180.0
 51
270.0
  0
ARC
  5
738
330
1F
100
AcDbEntity
  8
0
100
AcDbCircle
 10
160.9743420205435
 20
151.6331384683176
 30
0.0
 40
0.3
100
AcDbArc
 50
90.0
 51
180.0
  0
LINE
  5
739
330
1F
100
AcDbEntity
  8
0
100
AcDbLine
 10
161.0743420205436
 20
151.9331384683179
 30
0.0
 11
161.3243420205437
 21
151.9331384683179
 31
0.0
  0
LINE
  5
73A
330
1F
100
AcDbEntity
  8
0
100
AcDbLine
 10
161.0743420205436
 20
152.043138468318
 30
0.0
 11
162.7743420205437
 21
152.043138468318
 31
0.0
  0
LINE
  5
73B
330
1F
100
AcDbEntity
  8
0
100
AcDbLine
 10
163.1743420205436
 20
166.4731384683178
 30
0.0
 11
163.1743420205436
 21
167.1731384683175
 31
0.0
  0
LINE
  5
73C
330
1F
100
AcDbEntity
  8
0
100
AcDbLine
 10
163.3243420205436
 20
167.1731384683175
 30
0.0
 11
163.3243420205436
 21
166.4731384683178
 31
0.0
  0
LINE
  5
73D
330
1F
100
AcDbEntity
  8
0
100
AcDbLine
 10
162.5243420205446
 20
164.3731384683179
 30
0.0
 11
162.5243420205446
 21
167.1731384683175
 31
0.0
  0
LINE
  5
73E
330
1F
100
AcDbEntity
  8
0
100
AcDbLine
 10
161.3243420205437
 20
167.1731384683175
 30
0.0
 11
161.3243420205437
 21
164.3731384683179
 31
0.0
  0
LINE
  5
73F
330
1F
100
AcDbEntity
  8
0
100
AcDbLine
 10
160.6743420205436
 20
163.773138468318
 30
0.0
 11
160.6743420205436
 21
166.8731384683178
 31
0.0
  0
LINE
  5
740
330
1F
100
AcDbEntity
  8
0
100
AcDbLine
 10
163.3243420205436
 20
162.663138468318
 30
0.0
 11
163.3243420205436
 21
159.6231384683179
 31
0.0
  0
LINE
  5
741
330
1F
100
AcDbEntity
  8
0
100
AcDbLine
 10
163.1743420205436
 20
159.9631384683176
 30
0.0
 11
163.1743420205436
 21
162.663138468318
 31
0.0
  0
LINE
  5
742
330
1F
100
AcDbEntity
  8
0
100
AcDbLine
 10
162.5243420205446
 20
160.563138468318
 30
0.0
 11
162.5243420205446
 21
163.3631384683178
 31
0.0
  0
LINE
  5
743
330
1F
100
AcDbEntity
  8
0
100
AcDbLine
 10
161.3243420205437
 20
163.3631384683178
 30
0.0
 11
161.3243420205437
 21
160.563138468318
 31
0.0
  0
LINE
  5
744
330
1F
100
AcDbEntity
  8
0
100
AcDbLine
 10
160.6743420205436
 20
159.9631384683176
 30
0.0
 11
160.6743420205436
 21
163.063138468318
 31
0.0
  0
ARC
  5
745
330
1F
100
AcDbEntity
  8
0
100
AcDbCircle
 10
162.2243420205435
 20
160.563138468318
 30
0.0
 40
0.3
100
AcDbArc
 50
270.0
 51
0.0
  0
ARC
  5
746
330
1F
100
AcDbEntity
  8
0
100
AcDbCircle
 10
161.6243420205436
 20
160.563138468318
 30
0.0
 40
0.3
100
AcDbArc
 50
180.0
 51
270.0
  0
LINE
  5
747
330
1F
100
AcDbEntity
  8
0
100
AcDbLine
 10
163.8243420205436
 20
159.6231384683179
 30
0.0
 11
163.3243420205436
 21
159.6231384683179
 31
0.0
  0
LINE
  5
748
330
1F
100
AcDbEntity
  8
0
100
AcDbLine
 10
162.7743420205437
 20
159.663138468318
 30
0.0
 11
162.8743420205436
 21
159.663138468318
 31
0.0
  0
ARC
  5
749
330
1F
100
AcDbEntity
  8
0
100
AcDbCircle
 10
162.8743420205436
 20
159.9631384683176
 30
0.0
 40
0.3
100
AcDbArc
 50
270.0
 51
0.0
  0
LINE
  5
74A
330
1F
100
AcDbEntity
  8
0
100
AcDbLine
 10
163.8243420205436
 20
159.6231384683179
 30
0.0
 11
163.3243420205436
 21
159.6231384683179
 31
0.0
  0
LINE
  5
74B
330
1F
100
AcDbEntity
  8
0
100
AcDbLine
 10
163.3243420205436
 20
159.5531384683178
 30
0.0
 11
163.3243420205436
 21
158.8531384683179
 31
0.0
  0
LINE
  5
74C
330
1F
100
AcDbEntity
  8
0
100
AcDbLine
 10
163.3243420205436
 20
159.6231384683179
 30
0.0
 11
163.3243420205436
 21
159.5531384683178
 31
0.0
  0
LINE
  5
74D
330
1F
100
AcDbEntity
  8
0
100
AcDbLine
 10
161.6243420205436
 20
159.5531384683178
 30
0.0
 11
162.2243420205435
 21
159.5531384683178
 31
0.0
  0
LINE
  5
74E
330
1F
100
AcDbEntity
  8
0
100
AcDbLine
 10
161.3243420205437
 20
159.5531384683178
 30
0.0
 11
161.3243420205437
 21
156.7531384683173
 31
0.0
  0
LINE
  5
74F
330
1F
100
AcDbEntity
  8
0
100
AcDbLine
 10
161.6243420205436
 20
159.5531384683178
 30
0.0
 11
161.3243420205437
 21
159.5531384683178
 31
0.0
  0
LINE
  5
750
330
1F
100
AcDbEntity
  8
0
100
AcDbLine
 10
161.6243420205436
 20
156.4531384683179
 30
0.0
 11
162.2243420205435
 21
156.4531384683179
 31
0.0
  0
LINE
  5
751
330
1F
100
AcDbEntity
  8
0
100
AcDbLine
 10
163.1743420205436
 20
158.8531384683179
 30
0.0
 11
163.1743420205436
 21
159.5531384683178
 31
0.0
  0
LINE
  5
752
330
1F
100
AcDbEntity
  8
0
100
AcDbLine
 10
163.1743420205436
 20
158.8531384683179
 30
0.0
 11
163.3243420205436
 21
158.8531384683179
 31
0.0
  0
LINE
  5
753
330
1F
100
AcDbEntity
  8
0
100
AcDbLine
 10
162.5243420205446
 20
156.7531384683173
 30
0.0
 11
162.5243420205446
 21
159.5531384683178
 31
0.0
  0
LINE
  5
754
330
1F
100
AcDbEntity
  8
0
100
AcDbLine
 10
162.7743420205437
 20
159.5531384683178
 30
0.0
 11
163.1743420205436
 21
159.5531384683178
 31
0.0
  0
LINE
  5
755
330
1F
100
AcDbEntity
  8
0
100
AcDbLine
 10
163.1743420205436
 20
159.5531384683178
 30
0.0
 11
163.3243420205436
 21
159.5531384683178
 31
0.0
  0
LINE
  5
756
330
1F
100
AcDbEntity
  8
0
100
AcDbLine
 10
162.5243420205446
 20
159.5531384683178
 30
0.0
 11
162.7743420205437
 21
159.5531384683178
 31
0.0
  0
LINE
  5
757
330
1F
100
AcDbEntity
  8
0
100
AcDbLine
 10
162.5243420205446
 20
159.5531384683178
 30
0.0
 11
162.2243420205435
 21
159.5531384683178
 31
0.0
  0
LINE
  5
758
330
1F
100
AcDbEntity
  8
0
100
AcDbLine
 10
161.6243420205436
 20
160.2631384683178
 30
0.0
 11
162.2243420205435
 21
160.2631384683178
 31
0.0
  0
LINE
  5
759
330
1F
100
AcDbEntity
  8
0
100
AcDbLine
 10
160.9743420205435
 20
159.663138468318
 30
0.0
 11
161.0743420205436
 21
159.663138468318
 31
0.0
  0
ARC
  5
75A
330
1F
100
AcDbEntity
  8
0
100
AcDbCircle
 10
160.9743420205435
 20
159.9631384683176
 30
0.0
 40
0.3
100
AcDbArc
 50
180.0
 51
270.0
  0
ARC
  5
75B
330
1F
100
AcDbEntity
  8
0
100
AcDbCircle
 10
160.9743420205435
 20
159.2531384683178
 30
0.0
 40
0.3
100
AcDbArc
 50
90.0
 51
180.0
  0
LINE
  5
75C
330
1F
100
AcDbEntity
  8
0
100
AcDbLine
 10
160.9743420205435
 20
159.5531384683178
 30
0.0
 11
161.0743420205436
 21
159.5531384683178
 31
0.0
  0
LINE
  5
75D
330
1F
100
AcDbEntity
  8
0
100
AcDbLine
 10
161.0743420205436
 20
159.663138468318
 30
0.0
 11
162.7743420205437
 21
159.663138468318
 31
0.0
  0
LINE
  5
75E
330
1F
100
AcDbEntity
  8
0
100
AcDbLine
 10
161.0743420205436
 20
159.5531384683178
 30
0.0
 11
161.3243420205437
 21
159.5531384683178
 31
0.0
  0
ARC
  5
75F
330
1F
100
AcDbEntity
  8
0
100
AcDbCircle
 10
162.8743420205436
 20
156.1531384683176
 30
0.0
 40
0.3
100
AcDbArc
 50
270.0
 51
0.0
  0
LINE
  5
760
330
1F
100
AcDbEntity
  8
0
100
AcDbLine
 10
163.3243420205436
 20
155.813138468318
 30
0.0
 11
163.3243420205436
 21
155.7431384683178
 31
0.0
  0
LINE
  5
761
330
1F
100
AcDbEntity
  8
0
100
AcDbLine
 10
163.8243420205436
 20
155.813138468318
 30
0.0
 11
163.3243420205436
 21
155.813138468318
 31
0.0
  0
LINE
  5
762
330
1F
100
AcDbEntity
  8
0
100
AcDbLine
 10
162.5243420205446
 20
155.7431384683178
 30
0.0
 11
162.2243420205435
 21
155.7431384683178
 31
0.0
  0
LINE
  5
763
330
1F
100
AcDbEntity
  8
0
100
AcDbLine
 10
162.5243420205446
 20
155.7431384683178
 30
0.0
 11
162.7743420205437
 21
155.7431384683178
 31
0.0
  0
LINE
  5
764
330
1F
100
AcDbEntity
  8
0
100
AcDbLine
 10
163.1743420205436
 20
155.7431384683178
 30
0.0
 11
163.3243420205436
 21
155.7431384683178
 31
0.0
  0
LINE
  5
765
330
1F
100
AcDbEntity
  8
0
100
AcDbLine
 10
162.7743420205437
 20
155.7431384683178
 30
0.0
 11
163.1743420205436
 21
155.7431384683178
 31
0.0
  0
LINE
  5
766
330
1F
100
AcDbEntity
  8
0
100
AcDbLine
 10
161.6243420205436
 20
155.7431384683178
 30
0.0
 11
161.3243420205437
 21
155.7431384683178
 31
0.0
  0
LINE
  5
767
330
1F
100
AcDbEntity
  8
0
100
AcDbLine
 10
161.6243420205436
 20
155.7431384683178
 30
0.0
 11
162.2243420205435
 21
155.7431384683178
 31
0.0
  0
LINE
  5
768
330
1F
100
AcDbEntity
  8
0
100
AcDbLine
 10
163.8243420205436
 20
155.813138468318
 30
0.0
 11
163.3243420205436
 21
155.813138468318
 31
0.0
  0
LINE
  5
769
330
1F
100
AcDbEntity
  8
0
100
AcDbLine
 10
162.7743420205437
 20
155.8531384683179
 30
0.0
 11
162.8743420205436
 21
155.8531384683179
 31
0.0
  0
ARC
  5
76A
330
1F
100
AcDbEntity
  8
0
100
AcDbCircle
 10
160.9743420205435
 20
156.1531384683176
 30
0.0
 40
0.3
100
AcDbArc
 50
180.0
 51
270.0
  0
LINE
  5
76B
330
1F
100
AcDbEntity
  8
0
100
AcDbLine
 10
160.9743420205435
 20
155.7431384683178
 30
0.0
 11
161.0743420205436
 21
155.7431384683178
 31
0.0
  0
ARC
  5
76C
330
1F
100
AcDbEntity
  8
0
100
AcDbCircle
 10
160.9743420205435
 20
155.4431384683175
 30
0.0
 40
0.3
100
AcDbArc
 50
90.0
 51
180.0
  0
LINE
  5
76D
330
1F
100
AcDbEntity
  8
0
100
AcDbLine
 10
160.9743420205435
 20
155.8531384683179
 30
0.0
 11
161.0743420205436
 21
155.8531384683179
 31
0.0
  0
LINE
  5
76E
330
1F
100
AcDbEntity
  8
0
100
AcDbLine
 10
161.0743420205436
 20
155.7431384683178
 30
0.0
 11
161.3243420205437
 21
155.7431384683178
 31
0.0
  0
LINE
  5
76F
330
1F
100
AcDbEntity
  8
0
100
AcDbLine
 10
161.0743420205436
 20
155.8531384683179
 30
0.0
 11
162.7743420205437
 21
155.8531384683179
 31
0.0
  0
LINE
  5
770
330
1F
100
AcDbEntity
  8
0
100
AcDbLine
 10
163.3243420205436
 20
158.8531384683179
 30
0.0
 11
163.3243420205436
 21
155.813138468318
 31
0.0
  0
ARC
  5
771
330
1F
100
AcDbEntity
  8
0
100
AcDbCircle
 10
161.6243420205436
 20
156.7531384683173
 30
0.0
 40
0.3
100
AcDbArc
 50
180.0
 51
270.0
  0
ARC
  5
772
330
1F
100
AcDbEntity
  8
0
100
AcDbCircle
 10
162.2243420205435
 20
156.7531384683173
 30
0.0
 40
0.3
100
AcDbArc
 50
270.0
 51
0.0
  0
LINE
  5
773
330
1F
100
AcDbEntity
  8
0
100
AcDbLine
 10
160.6743420205436
 20
156.1531384683176
 30
0.0
 11
160.6743420205436
 21
159.2531384683178
 31
0.0
  0
LINE
  5
774
330
1F
100
AcDbEntity
  8
0
100
AcDbLine
 10
163.1743420205436
 20
156.1531384683176
 30
0.0
 11
163.1743420205436
 21
158.8531384683179
 31
0.0
  0
LINE
  5
775
330
1F
100
AcDbEntity
  8
0
100
AcDbLine
 10
163.1743420205436
 20
166.4731384683178
 30
0.0
 11
163.3243420205436
 21
166.4731384683178
 31
0.0
  0
LINE
  5
776
330
1F
100
AcDbEntity
  8
0
100
AcDbLine
 10
161.6243420205436
 20
164.0731384683179
 30
0.0
 11
162.2243420205435
 21
164.0731384683179
 31
0.0
  0
ARC
  5
777
330
1F
100
AcDbEntity
  8
0
100
AcDbCircle
 10
161.6243420205436
 20
164.3731384683179
 30
0.0
 40
0.3
100
AcDbArc
 50
180.0
 51
270.0
  0
ARC
  5
778
330
1F
100
AcDbEntity
  8
0
100
AcDbCircle
 10
162.2243420205435
 20
164.3731384683179
 30
0.0
 40
0.3
100
AcDbArc
 50
270.0
 51
0.0
  0
LINE
  5
779
330
1F
100
AcDbEntity
  8
0
100
AcDbLine
 10
163.8243420205436
 20
163.4331384683179
 30
0.0
 11
163.3243420205436
 21
163.4331384683179
 31
0.0
  0
LINE
  5
77A
330
1F
100
AcDbEntity
  8
0
100
AcDbLine
 10
163.8243420205436
 20
163.4331384683179
 30
0.0
 11
163.3243420205436
 21
163.4331384683179
 31
0.0
  0
LINE
  5
77B
330
1F
100
AcDbEntity
  8
0
100
AcDbLine
 10
162.7743420205437
 20
163.4731384683178
 30
0.0
 11
162.8743420205436
 21
163.4731384683178
 31
0.0
  0
LINE
  5
77C
330
1F
100
AcDbEntity
  8
0
100
AcDbLine
 10
163.3243420205436
 20
166.4731384683178
 30
0.0
 11
163.3243420205436
 21
163.4331384683179
 31
0.0
  0
LINE
  5
77D
330
1F
100
AcDbEntity
  8
0
100
AcDbLine
 10
163.1743420205436
 20
163.773138468318
 30
0.0
 11
163.1743420205436
 21
166.4731384683178
 31
0.0
  0
LINE
  5
77E
330
1F
100
AcDbEntity
  8
0
100
AcDbLine
 10
160.9743420205435
 20
163.4731384683178
 30
0.0
 11
161.0743420205436
 21
163.4731384683178
 31
0.0
  0
LINE
  5
77F
330
1F
100
AcDbEntity
  8
0
100
AcDbLine
 10
161.0743420205436
 20
163.4731384683178
 30
0.0
 11
162.7743420205437
 21
163.4731384683178
 31
0.0
  0
LINE
  5
780
330
1F
100
AcDbEntity
  8
0
100
AcDbLine
 10
163.3243420205436
 20
163.3631384683178
 30
0.0
 11
163.3243420205436
 21
162.663138468318
 31
0.0
  0
LINE
  5
781
330
1F
100
AcDbEntity
  8
0
100
AcDbLine
 10
162.5243420205446
 20
163.3631384683178
 30
0.0
 11
162.2243420205435
 21
163.3631384683178
 31
0.0
  0
LINE
  5
782
330
1F
100
AcDbEntity
  8
0
100
AcDbLine
 10
162.5243420205446
 20
163.3631384683178
 30
0.0
 11
162.7743420205437
 21
163.3631384683178
 31
0.0
  0
LINE
  5
783
330
1F
100
AcDbEntity
  8
0
100
AcDbLine
 10
163.1743420205436
 20
163.3631384683178
 30
0.0
 11
163.3243420205436
 21
163.3631384683178
 31
0.0
  0
LINE
  5
784
330
1F
100
AcDbEntity
  8
0
100
AcDbLine
 10
162.7743420205437
 20
163.3631384683178
 30
0.0
 11
163.1743420205436
 21
163.3631384683178
 31
0.0
  0
LINE
  5
785
330
1F
100
AcDbEntity
  8
0
100
AcDbLine
 10
163.1743420205436
 20
162.663138468318
 30
0.0
 11
163.3243420205436
 21
162.663138468318
 31
0.0
  0
LINE
  5
786
330
1F
100
AcDbEntity
  8
0
100
AcDbLine
 10
163.1743420205436
 20
162.663138468318
 30
0.0
 11
163.1743420205436
 21
163.3631384683178
 31
0.0
  0
LINE
  5
787
330
1F
100
AcDbEntity
  8
0
100
AcDbLine
 10
161.6243420205436
 20
163.3631384683178
 30
0.0
 11
161.3243420205437
 21
163.3631384683178
 31
0.0
  0
LINE
  5
788
330
1F
100
AcDbEntity
  8
0
100
AcDbLine
 10
161.6243420205436
 20
163.3631384683178
 30
0.0
 11
162.2243420205435
 21
163.3631384683178
 31
0.0
  0
LINE
  5
789
330
1F
100
AcDbEntity
  8
0
100
AcDbLine
 10
160.9743420205435
 20
163.3631384683178
 30
0.0
 11
161.0743420205436
 21
163.3631384683178
 31
0.0
  0
ARC
  5
78A
330
1F
100
AcDbEntity
  8
0
100
AcDbCircle
 10
160.9743420205435
 20
163.063138468318
 30
0.0
 40
0.3
100
AcDbArc
 50
90.0
 51
180.0
  0
LINE
  5
78B
330
1F
100
AcDbEntity
  8
0
100
AcDbLine
 10
161.0743420205436
 20
163.3631384683178
 30
0.0
 11
161.3243420205437
 21
163.3631384683178
 31
0.0
  0
LINE
  5
78C
330
1F
100
AcDbEntity
  8
0
100
AcDbLine
 10
163.3243420205436
 20
163.4331384683179
 30
0.0
 11
163.3243420205436
 21
163.3631384683178
 31
0.0
  0
ARC
  5
78D
330
1F
100
AcDbEntity
  8
0
100
AcDbCircle
 10
160.9743420205435
 20
163.773138468318
 30
0.0
 40
0.3
100
AcDbArc
 50
180.0
 51
270.0
  0
ARC
  5
78E
330
1F
100
AcDbEntity
  8
0
100
AcDbCircle
 10
162.8743420205436
 20
163.773138468318
 30
0.0
 40
0.3
100
AcDbArc
 50
270.0
 51
0.0
  0
LINE
  5
78F
330
1F
100
AcDbEntity
  8
0
100
AcDbLine
 10
163.3243420205436
 20
171.0531384683178
 30
0.0
 11
163.3243420205436
 21
173.5531384683176
 31
0.0
  0
LINE
  5
790
330
1F
100
AcDbEntity
  8
0
100
AcDbLine
 10
163.3243420205436
 20
171.0531384683178
 30
0.0
 11
163.3243420205436
 21
170.9831384683178
 31
0.0
  0
LINE
  5
791
330
1F
100
AcDbEntity
  8
0
100
AcDbLine
 10
161.6243420205436
 20
170.9831384683178
 30
0.0
 11
162.2243420205435
 21
170.9831384683178
 31
0.0
  0
LINE
  5
792
330
1F
100
AcDbEntity
  8
0
100
AcDbLine
 10
161.6243420205436
 20
170.9831384683178
 30
0.0
 11
161.3243420205437
 21
170.9831384683178
 31
0.0
  0
LINE
  5
793
330
1F
100
AcDbEntity
  8
0
100
AcDbLine
 10
162.7743420205437
 20
170.9831384683178
 30
0.0
 11
163.1743420205436
 21
170.9831384683178
 31
0.0
  0
LINE
  5
794
330
1F
100
AcDbEntity
  8
0
100
AcDbLine
 10
163.1743420205436
 20
170.9831384683178
 30
0.0
 11
163.3243420205436
 21
170.9831384683178
 31
0.0
  0
LINE
  5
795
330
1F
100
AcDbEntity
  8
0
100
AcDbLine
 10
162.5243420205446
 20
170.9831384683178
 30
0.0
 11
162.7743420205437
 21
170.9831384683178
 31
0.0
  0
LINE
  5
796
330
1F
100
AcDbEntity
  8
0
100
AcDbLine
 10
162.5243420205446
 20
170.9831384683178
 30
0.0
 11
162.2243420205435
 21
170.9831384683178
 31
0.0
  0
ARC
  5
797
330
1F
100
AcDbEntity
  8
0
100
AcDbCircle
 10
160.9743420205435
 20
170.6831384683179
 30
0.0
 40
0.3
100
AcDbArc
 50
90.0
 51
180.0
  0
LINE
  5
798
330
1F
100
AcDbEntity
  8
0
100
AcDbLine
 10
160.9743420205435
 20
170.9831384683178
 30
0.0
 11
161.0743420205436
 21
170.9831384683178
 31
0.0
  0
LINE
  5
799
330
1F
100
AcDbEntity
  8
0
100
AcDbLine
 10
161.0743420205436
 20
170.9831384683178
 30
0.0
 11
161.3243420205437
 21
170.9831384683178
 31
0.0
  0
LINE
  5
79A
330
1F
100
AcDbEntity
  8
0
100
AcDbLine
 10
163.1743420205436
 20
167.583138468318
 30
0.0
 11
163.1743420205436
 21
170.2831384683178
 31
0.0
  0
LINE
  5
79B
330
1F
100
AcDbEntity
  8
0
100
AcDbLine
 10
163.3243420205436
 20
170.2831384683178
 30
0.0
 11
163.3243420205436
 21
167.2431384683178
 31
0.0
  0
LINE
  5
79C
330
1F
100
AcDbEntity
  8
0
100
AcDbLine
 10
162.7743420205437
 20
167.1731384683175
 30
0.0
 11
163.1743420205436
 21
167.1731384683175
 31
0.0
  0
LINE
  5
79D
330
1F
100
AcDbEntity
  8
0
100
AcDbLine
 10
163.1743420205436
 20
167.1731384683175
 30
0.0
 11
163.3243420205436
 21
167.1731384683175
 31
0.0
  0
LINE
  5
79E
330
1F
100
AcDbEntity
  8
0
100
AcDbLine
 10
162.5243420205446
 20
167.1731384683175
 30
0.0
 11
162.7743420205437
 21
167.1731384683175
 31
0.0
  0
LINE
  5
79F
330
1F
100
AcDbEntity
  8
0
100
AcDbLine
 10
162.5243420205446
 20
167.1731384683175
 30
0.0
 11
162.2243420205435
 21
167.1731384683175
 31
0.0
  0
ARC
  5
7A0
330
1F
100
AcDbEntity
  8
0
100
AcDbCircle
 10
161.6243420205436
 20
168.1831384683179
 30
0.0
 40
0.3
100
AcDbArc
 50
180.0
 51
270.0
  0
ARC
  5
7A1
330
1F
100
AcDbEntity
  8
0
100
AcDbCircle
 10
162.8743420205436
 20
167.583138468318
 30
0.0
 40
0.3
100
AcDbArc
 50
270.0
 51
0.0
  0
ARC
  5
7A2
330
1F
100
AcDbEntity
  8
0
100
AcDbCircle
 10
162.2243420205435
 20
168.1831384683179
 30
0.0
 40
0.3
100
AcDbArc
 50
270.0
 51
0.0
  0
LINE
  5
7A3
330
1F
100
AcDbEntity
  8
0
100
AcDbLine
 10
161.6243420205436
 20
167.8831384683176
 30
0.0
 11
162.2243420205435
 21
167.8831384683176
 31
0.0
  0
LINE
  5
7A4
330
1F
100
AcDbEntity
  8
0
100
AcDbLine
 10
162.7743420205437
 20
167.2831384683178
 30
0.0
 11
162.8743420205436
 21
167.2831384683178
 31
0.0
  0
LINE
  5
7A5
330
1F
100
AcDbEntity
  8
0
100
AcDbLine
 10
163.8243420205436
 20
167.2431384683178
 30
0.0
 11
163.3243420205436
 21
167.2431384683178
 31
0.0
  0
LINE
  5
7A6
330
1F
100
AcDbEntity
  8
0
100
AcDbLine
 10
163.8243420205436
 20
167.2431384683178
 30
0.0
 11
163.3243420205436
 21
167.2431384683178
 31
0.0
  0
LINE
  5
7A7
330
1F
100
AcDbEntity
  8
0
100
AcDbLine
 10
163.3243420205436
 20
167.2431384683178
 30
0.0
 11
163.3243420205436
 21
167.1731384683175
 31
0.0
  0
LINE
  5
7A8
330
1F
100
AcDbEntity
  8
0
100
AcDbLine
 10
161.6243420205436
 20
167.1731384683175
 30
0.0
 11
162.2243420205435
 21
167.1731384683175
 31
0.0
  0
LINE
  5
7A9
330
1F
100
AcDbEntity
  8
0
100
AcDbLine
 10
161.6243420205436
 20
167.1731384683175
 30
0.0
 11
161.3243420205437
 21
167.1731384683175
 31
0.0
  0
LINE
  5
7AA
330
1F
100
AcDbEntity
  8
0
100
AcDbLine
 10
163.1743420205436
 20
170.2831384683178
 30
0.0
 11
163.3243420205436
 21
170.2831384683178
 31
0.0
  0
ARC
  5
7AB
330
1F
100
AcDbEntity
  8
0
100
AcDbCircle
 10
160.9743420205435
 20
167.583138468318
 30
0.0
 40
0.3
100
AcDbArc
 50
180.0
 51
270.0
  0
LINE
  5
7AC
330
1F
100
AcDbEntity
  8
0
100
AcDbLine
 10
160.9743420205435
 20
167.2831384683178
 30
0.0
 11
161.0743420205436
 21
167.2831384683178
 31
0.0
  0
ARC
  5
7AD
330
1F
100
AcDbEntity
  8
0
100
AcDbCircle
 10
160.9743420205435
 20
166.8731384683178
 30
0.0
 40
0.3
100
AcDbArc
 50
90.0
 51
180.0
  0
LINE
  5
7AE
330
1F
100
AcDbEntity
  8
0
100
AcDbLine
 10
160.9743420205435
 20
167.1731384683175
 30
0.0
 11
161.0743420205436
 21
167.1731384683175
 31
0.0
  0
LINE
  5
7AF
330
1F
100
AcDbEntity
  8
0
100
AcDbLine
 10
161.0743420205436
 20
167.2831384683178
 30
0.0
 11
162.7743420205437
 21
167.2831384683178
 31
0.0
  0
LINE
  5
7B0
330
1F
100
AcDbEntity
  8
0
100
AcDbLine
 10
161.0743420205436
 20
167.1731384683175
 30
0.0
 11
161.3243420205437
 21
167.1731384683175
 31
0.0
  0
LINE
  5
7B1
330
1F
100
AcDbEntity
  8
0
100
AcDbLine
 10
160.6743420205436
 20
167.583138468318
 30
0.0
 11
160.6743420205436
 21
170.6831384683179
 31
0.0
  0
LINE
  5
7B2
330
1F
100
AcDbEntity
  8
0
100
AcDbLine
 10
161.3243420205437
 20
170.9831384683178
 30
0.0
 11
161.3243420205437
 21
168.1831384683179
 31
0.0
  0
LINE
  5
7B3
330
1F
100
AcDbEntity
  8
0
100
AcDbLine
 10
162.5243420205446
 20
168.1831384683179
 30
0.0
 11
162.5243420205446
 21
170.9831384683178
 31
0.0
  0
LINE
  5
7B4
330
1F
100
AcDbEntity
  8
0
100
AcDbLine
 10
163.1743420205436
 20
170.2831384683178
 30
0.0
 11
163.1743420205436
 21
170.9831384683178
 31
0.0
  0
LINE
  5
7B5
330
1F
100
AcDbEntity
  8
0
100
AcDbLine
 10
163.3243420205436
 20
170.9831384683178
 30
0.0
 11
163.3243420205436
 21
170.2831384683178
 31
0.0
  0
LINE
  5
7B6
330
1F
100
AcDbEntity
  8
外形
100
AcDbLine
 10
160.1743420205437
 20
174.0831394683177
 30
0.0
 11
158.6743420205436
 21
174.0831394683177
 31
0.0
  0
LINE
  5
7B7
330
1F
100
AcDbEntity
  8
0
100
AcDbLine
 10
158.6743420205436
 20
173.7331394683179
 30
0.0
 11
160.1743420205437
 21
173.7331394683179
 31
0.0
  0
LINE
  5
7B8
330
1F
100
AcDbEntity
  8
0
100
AcDbLine
 10
159.1743420205436
 20
175.0113836239546
 30
0.0
 11
159.6951740997325
 21
174.3031384683166
 31
0.0
  0
LINE
  5
7B9
330
1F
100
AcDbEntity
  8
外形
100
AcDbLine
 10
160.1743420205437
 20
173.7331394683179
 30
0.0
 11
160.1743420205437
 21
174.0831394683177
 31
0.0
  0
LINE
  5
7BA
330
1F
100
AcDbEntity
  8
0
100
AcDbLine
 10
183.9745510205436
 20
128.329005468318
 30
0.0
 11
183.9745510205436
 21
138.8881384683176
 31
0.0
  0
ARC
  5
7BB
330
1F
100
AcDbEntity
  8
0
100
AcDbCircle
 10
168.4743420205435
 20
130.079005468318
 30
0.0
 40
2.5
100
AcDbArc
 50
0.0
 51
180.0
  0
LINE
  5
7BC
330
1F
100
AcDbEntity
  8
0
100
AcDbLine
 10
172.4743420205435
 20
126.829005468318
 30
0.0
 11
182.4745510205436
 21
126.829005468318
 31
0.0
  0
LINE
  5
7BD
330
1F
100
AcDbEntity
  8
0
100
AcDbLine
 10
165.9743420205435
 20
130.079005468318
 30
0.0
 11
165.9743420205435
 21
128.329005468318
 31
0.0
  0
ARC
  5
7BE
330
1F
100
AcDbEntity
  8
0
100
AcDbCircle
 10
164.4743420205435
 20
128.329005468318
 30
0.0
 40
1.5
100
AcDbArc
 50
270.0
 51
0.0
  0
ARC
  5
7BF
330
1F
100
AcDbEntity
  8
0
100
AcDbCircle
 10
172.4743420205435
 20
128.329005468318
 30
0.0
 40
1.5
100
AcDbArc
 50
180.0
 51
270.0
  0
LINE
  5
7C0
330
1F
100
AcDbEntity
  8
0
100
AcDbLine
 10
170.9743420205436
 20
130.079005468318
 30
0.0
 11
170.9743420205436
 21
128.329005468318
 31
0.0
  0
ARC
  5
7C1
330
1F
100
AcDbEntity
  8
0
100
AcDbCircle
 10
182.4745510205436
 20
128.329005468318
 30
0.0
 40
1.5
100
AcDbArc
 50
270.0
 51
0.0
  0
LINE
  5
7C2
330
1F
100
AcDbEntity
  8
0
100
AcDbLine
 10
173.8743420205436
 20
174.3031384683166
 30
0.0
 11
173.8743420205436
 21
143.8331394683176
 31
0.0
  0
LINE
  5
7C3
330
1F
100
AcDbEntity
  8
0
100
AcDbLine
 10
168.5043420205438
 20
155.813138468318
 30
0.0
 11
168.5043420205438
 21
152.0031384683173
 31
0.0
  0
LINE
  5
7C4
330
1F
100
AcDbEntity
  8
0
100
AcDbLine
 10
173.3743420205436
 20
173.5531384683176
 30
0.0
 11
173.3743420205436
 21
144.4931384683176
 31
0.0
  0
LINE
  5
7C5
330
1F
100
AcDbEntity
  8
0
100
AcDbLine
 10
179.4740170205435
 20
133.8292704683174
 30
0.0
 11
182.9745500205447
 21
133.8292704683174
 31
0.0
  0
ARC
  5
7C6
330
1F
100
AcDbEntity
  8
0
100
AcDbCircle
 10
179.9743420205435
 20
138.8292704683177
 30
0.0
 40
1.0
100
AcDbArc
 50
270.0
 51
0.0
  0
LINE
  5
7C7
330
1F
100
AcDbEntity
  8
0
100
AcDbLine
 10
178.8465110205436
 20
134.7630424683179
 30
0.0
 11
179.4740170205435
 21
133.8292704683174
 31
0.0
  0
ARC
  5
7C8
330
1F
100
AcDbEntity
  8
0
100
AcDbCircle
 10
178.0165140205438
 20
134.2052744683176
 30
0.0
 40
1.0
100
AcDbArc
 50
33.90158400001789
 51
89.8755910000057
  0
ARC
  5
7C9
330
1F
100
AcDbEntity
  8
外形
100
AcDbCircle
 10
179.8743420205428
 20
138.9331394683178
 30
0.0
 40
1.0
100
AcDbArc
 50
270.0
 51
0.0
  0
ARC
  5
7CA
330
1F
100
AcDbEntity
  8
0
100
AcDbCircle
 10
179.8743420205436
 20
138.9331394683178
 30
0.0
 40
1.0
100
AcDbArc
 50
270.0
 51
0.0
  0
LINE
  5
7CB
330
1F
100
AcDbEntity
  8
0
100
AcDbLine
 10
170.4743420205435
 20
152.0031384683173
 30
0.0
 11
172.8743420205436
 21
152.0031384683173
 31
0.0
  0
LINE
  5
7CC
330
1F
100
AcDbEntity
  8
0
100
AcDbLine
 10
168.5043420205438
 20
152.0031384683173
 30
0.0
 11
172.8743420205436
 21
152.0031384683173
 31
0.0
  0
LINE
  5
7CD
330
1F
100
AcDbEntity
  8
0
100
AcDbLine
 10
170.4743420205435
 20
148.1931384683175
 30
0.0
 11
172.8743420205436
 21
148.1931384683175
 31
0.0
  0
LINE
  5
7CE
330
1F
100
AcDbEntity
  8
0
100
AcDbLine
 10
168.5043420205438
 20
148.1931384683175
 30
0.0
 11
172.8743420205436
 21
148.1931384683175
 31
0.0
  0
LINE
  5
7CF
330
1F
100
AcDbEntity
  8
0
100
AcDbLine
 10
168.5043420205438
 20
144.3831384683176
 30
0.0
 11
172.8743420205436
 21
144.3831384683176
 31
0.0
  0
LINE
  5
7D0
330
1F
100
AcDbEntity
  8
0
100
AcDbLine
 10
168.5043420205438
 20
152.0031384683173
 30
0.0
 11
168.5043420205438
 21
148.1931384683175
 31
0.0
  0
ARC
  5
7D1
330
1F
100
AcDbEntity
  8
0
100
AcDbCircle
 10
165.4743420205435
 20
150.0981384683178
 30
0.0
 40
0.85
100
AcDbArc
 50
0.0
 51
323.269604999999
  0
LINE
  5
7D2
330
1F
100
AcDbEntity
  8
0
100
AcDbLine
 10
168.5043420205438
 20
148.1931384683175
 30
0.0
 11
168.9443420205435
 21
148.1931384683175
 31
0.0
  0
LINE
  5
7D3
330
1F
100
AcDbEntity
  8
0
100
AcDbLine
 10
168.5043420205438
 20
148.1931384683175
 30
0.0
 11
168.3043420205438
 21
148.1931384683175
 31
0.0
  0
LINE
  5
7D4
330
1F
100
AcDbEntity
  8
0
100
AcDbLine
 10
168.5043420205438
 20
148.1931384683175
 30
0.0
 11
168.3043420205438
 21
148.1931384683175
 31
0.0
  0
LINE
  5
7D5
330
1F
100
AcDbEntity
  8
0
100
AcDbLine
 10
167.5443420205446
 20
148.1931384683175
 30
0.0
 11
168.3043420205438
 21
148.1931384683175
 31
0.0
  0
LINE
  5
7D6
330
1F
100
AcDbEntity
  8
0
100
AcDbLine
 10
168.5043420205438
 20
144.3831384683176
 30
0.0
 11
168.3043420205438
 21
144.3831384683176
 31
0.0
  0
LINE
  5
7D7
330
1F
100
AcDbEntity
  8
0
100
AcDbLine
 10
168.5043420205438
 20
148.1931384683175
 30
0.0
 11
168.5043420205438
 21
144.3831384683176
 31
0.0
  0
ARC
  5
7D8
330
1F
100
AcDbEntity
  8
0
100
AcDbCircle
 10
165.4743420205435
 20
146.2881384683178
 30
0.0
 40
0.85
100
AcDbArc
 50
323.269604999999
 51
0.0
  0
ARC
  5
7D9
330
1F
100
AcDbEntity
  8
0
100
AcDbCircle
 10
165.4743420205435
 20
146.2881384683178
 30
0.0
 40
0.85
100
AcDbArc
 50
0.0
 51
323.269604999999
  0
LINE
  5
7DA
330
1F
100
AcDbEntity
  8
0
100
AcDbLine
 10
168.9443420205435
 20
148.1931384683175
 30
0.0
 11
169.0743420205436
 21
148.1931384683175
 31
0.0
  0
LINE
  5
7DB
330
1F
100
AcDbEntity
  8
0
100
AcDbLine
 10
169.0743420205436
 20
148.1931384683175
 30
0.0
 11
170.4743420205435
 21
148.1931384683175
 31
0.0
  0
LINE
  5
7DC
330
1F
100
AcDbEntity
  8
0
100
AcDbLine
 10
168.5043420205438
 20
152.0031384683173
 30
0.0
 11
168.9443420205435
 21
152.0031384683173
 31
0.0
  0
LINE
  5
7DD
330
1F
100
AcDbEntity
  8
0
100
AcDbLine
 10
168.5043420205438
 20
152.0031384683173
 30
0.0
 11
168.3043420205438
 21
152.0031384683173
 31
0.0
  0
LINE
  5
7DE
330
1F
100
AcDbEntity
  8
0
100
AcDbLine
 10
168.5043420205438
 20
152.0031384683173
 30
0.0
 11
168.3043420205438
 21
152.0031384683173
 31
0.0
  0
LINE
  5
7DF
330
1F
100
AcDbEntity
  8
0
100
AcDbLine
 10
167.5443420205446
 20
152.0031384683173
 30
0.0
 11
168.3043420205438
 21
152.0031384683173
 31
0.0
  0
ARC
  5
7E0
330
1F
100
AcDbEntity
  8
0
100
AcDbCircle
 10
165.4743420205435
 20
150.0981384683178
 30
0.0
 40
0.85
100
AcDbArc
 50
323.269604999999
 51
0.0
  0
ARC
  5
7E1
330
1F
100
AcDbEntity
  8
0
100
AcDbCircle
 10
165.4743420205435
 20
153.9081384683178
 30
0.0
 40
0.85
100
AcDbArc
 50
323.269604999999
 51
0.0
  0
ARC
  5
7E2
330
1F
100
AcDbEntity
  8
0
100
AcDbCircle
 10
165.4743420205435
 20
153.9081384683178
 30
0.0
 40
0.85
100
AcDbArc
 50
0.0
 51
323.269604999999
  0
LINE
  5
7E3
330
1F
100
AcDbEntity
  8
0
100
AcDbLine
 10
168.9443420205435
 20
152.0031384683173
 30
0.0
 11
169.0743420205436
 21
152.0031384683173
 31
0.0
  0
LINE
  5
7E4
330
1F
100
AcDbEntity
  8
0
100
AcDbLine
 10
169.0743420205436
 20
152.0031384683173
 30
0.0
 11
170.4743420205435
 21
152.0031384683173
 31
0.0
  0
LINE
  5
7E5
330
1F
100
AcDbEntity
  8
0
100
AcDbLine
 10
173.8743420205436
 20
149.6031384683179
 30
0.0
 11
173.8743420205436
 21
149.2031384683178
 31
0.0
  0
LINE
  5
7E6
330
1F
100
AcDbEntity
  8
0
100
AcDbLine
 10
173.8743420205436
 20
145.7931384683178
 30
0.0
 11
173.8743420205436
 21
145.3931384683179
 31
0.0
  0
LINE
  5
7E7
330
1F
100
AcDbEntity
  8
0
100
AcDbLine
 10
173.8743420205436
 20
148.7031384683177
 30
0.0
 11
173.8743420205436
 21
148.3031384683178
 31
0.0
  0
LINE
  5
7E8
330
1F
100
AcDbEntity
  8
0
100
AcDbLine
 10
173.8743420205436
 20
149.2031384683178
 30
0.0
 11
173.8743420205436
 21
148.7031384683177
 31
0.0
  0
LINE
  5
7E9
330
1F
100
AcDbEntity
  8
0
100
AcDbLine
 10
173.8743420205436
 20
144.8931384683177
 30
0.0
 11
173.8743420205436
 21
144.4931384683176
 31
0.0
  0
LINE
  5
7EA
330
1F
100
AcDbEntity
  8
0
100
AcDbLine
 10
173.8743420205436
 20
145.3931384683179
 30
0.0
 11
173.8743420205436
 21
144.8931384683177
 31
0.0
  0
LINE
  5
7EB
330
1F
100
AcDbEntity
  8
0
100
AcDbLine
 10
173.3743420205436
 20
148.3031384683178
 30
0.0
 11
173.3743420205436
 21
148.1931384683175
 31
0.0
  0
LINE
  5
7EC
330
1F
100
AcDbEntity
  8
0
100
AcDbLine
 10
173.3743420205436
 20
148.1931384683175
 30
0.0
 11
172.8743420205436
 21
148.1931384683175
 31
0.0
  0
LINE
  5
7ED
330
1F
100
AcDbEntity
  8
0
100
AcDbLine
 10
173.3743420205436
 20
148.1931384683175
 30
0.0
 11
172.8743420205436
 21
148.1931384683175
 31
0.0
  0
LINE
  5
7EE
330
1F
100
AcDbEntity
  8
0
100
AcDbLine
 10
173.3743420205436
 20
144.4931384683176
 30
0.0
 11
173.3743420205436
 21
144.3831384683176
 31
0.0
  0
LINE
  5
7EF
330
1F
100
AcDbEntity
  8
0
100
AcDbLine
 10
173.3743420205436
 20
144.3831384683176
 30
0.0
 11
172.8743420205436
 21
144.3831384683176
 31
0.0
  0
LINE
  5
7F0
330
1F
100
AcDbEntity
  8
0
100
AcDbLine
 10
173.3743420205436
 20
145.7931384683178
 30
0.0
 11
173.8743420205436
 21
145.7931384683178
 31
0.0
  0
LINE
  5
7F1
330
1F
100
AcDbEntity
  8
0
100
AcDbLine
 10
173.3743420205436
 20
148.3031384683178
 30
0.0
 11
173.8743420205436
 21
148.3031384683178
 31
0.0
  0
LINE
  5
7F2
330
1F
100
AcDbEntity
  8
0
100
AcDbLine
 10
173.3743420205436
 20
144.4931384683176
 30
0.0
 11
173.8743420205436
 21
144.4931384683176
 31
0.0
  0
LINE
  5
7F3
330
1F
100
AcDbEntity
  8
0
100
AcDbLine
 10
173.8743420205436
 20
152.5131384683177
 30
0.0
 11
173.8743420205436
 21
152.1131384683178
 31
0.0
  0
LINE
  5
7F4
330
1F
100
AcDbEntity
  8
0
100
AcDbLine
 10
173.8743420205436
 20
153.0131384683178
 30
0.0
 11
173.8743420205436
 21
152.5131384683177
 31
0.0
  0
LINE
  5
7F5
330
1F
100
AcDbEntity
  8
0
100
AcDbLine
 10
173.8743420205436
 20
153.413138468318
 30
0.0
 11
173.8743420205436
 21
153.0131384683178
 31
0.0
  0
LINE
  5
7F6
330
1F
100
AcDbEntity
  8
0
100
AcDbLine
 10
173.3743420205436
 20
152.1131384683178
 30
0.0
 11
173.3743420205436
 21
152.0031384683173
 31
0.0
  0
LINE
  5
7F7
330
1F
100
AcDbEntity
  8
0
100
AcDbLine
 10
173.3743420205436
 20
152.0031384683173
 30
0.0
 11
172.8743420205436
 21
152.0031384683173
 31
0.0
  0
LINE
  5
7F8
330
1F
100
AcDbEntity
  8
0
100
AcDbLine
 10
173.3743420205436
 20
152.0031384683173
 30
0.0
 11
172.8743420205436
 21
152.0031384683173
 31
0.0
  0
LINE
  5
7F9
330
1F
100
AcDbEntity
  8
0
100
AcDbLine
 10
173.3743420205436
 20
149.6031384683179
 30
0.0
 11
173.8743420205436
 21
149.6031384683179
 31
0.0
  0
LINE
  5
7FA
330
1F
100
AcDbEntity
  8
0
100
AcDbLine
 10
173.3743420205436
 20
152.1131384683178
 30
0.0
 11
173.8743420205436
 21
152.1131384683178
 31
0.0
  0
LINE
  5
7FB
330
1F
100
AcDbEntity
  8
0
100
AcDbLine
 10
173.3743420205436
 20
153.413138468318
 30
0.0
 11
173.8743420205436
 21
153.413138468318
 31
0.0
  0
LINE
  5
7FC
330
1F
100
AcDbEntity
  8
0
100
AcDbLine
 10
183.9745500205438
 20
134.8292704683176
 30
0.0
 11
183.9745500205438
 21
138.8658454683177
 31
0.0
  0
ARC
  5
7FD
330
1F
100
AcDbEntity
  8
0
100
AcDbCircle
 10
182.9745500205447
 20
134.8292704683176
 30
0.0
 40
1.0
100
AcDbArc
 50
270.0
 51
0.0
  0
ARC
  5
7FE
330
1F
100
AcDbEntity
  8
0
100
AcDbCircle
 10
181.9666250205436
 20
136.3523914683177
 30
0.0
 40
1.0
100
AcDbArc
 50
270.0
 51
0.0
  0
ARC
  5
7FF
330
1F
100
AcDbEntity
  8
0
100
AcDbCircle
 10
184.9593410205436
 20
139.8658454683177
 30
0.0
 40
1.0
100
AcDbArc
 50
270.0
 51
0.0
  0
LINE
  5
800
330
1F
100
AcDbEntity
  8
0
100
AcDbLine
 10
183.9745500205438
 20
138.8658454683177
 30
0.0
 11
184.9593410205436
 21
138.8658454683177
 31
0.0
  0
LINE
  5
801
330
1F
100
AcDbEntity
  8
0
100
AcDbLine
 10
184.0440530205436
 20
140.2043064683175
 30
0.0
 11
183.0436250205436
 21
140.2043064683175
 31
0.0
  0
LINE
  5
802
330
1F
100
AcDbEntity
  8
0
100
AcDbLine
 10
183.9745510205436
 20
138.8535474683176
 30
0.0
 11
183.0436250205436
 21
140.2043064683175
 31
0.0
  0
ARC
  5
803
330
1F
100
AcDbEntity
  8
0
100
AcDbCircle
 10
184.0440530205436
 20
141.2043064683174
 30
0.0
 40
1.0
100
AcDbArc
 50
270.0
 51
0.0
  0
LINE
  5
804
330
1F
100
AcDbEntity
  8
0
100
AcDbLine
 10
168.5043420205438
 20
167.2431384683178
 30
0.0
 11
168.5043420205438
 21
163.4331384683179
 31
0.0
  0
LINE
  5
805
330
1F
100
AcDbEntity
  8
0
100
AcDbLine
 10
170.4743420205435
 20
163.4331384683179
 30
0.0
 11
172.8743420205436
 21
163.4331384683179
 31
0.0
  0
LINE
  5
806
330
1F
100
AcDbEntity
  8
0
100
AcDbLine
 10
168.5043420205438
 20
163.4331384683179
 30
0.0
 11
172.8743420205436
 21
163.4331384683179
 31
0.0
  0
LINE
  5
807
330
1F
100
AcDbEntity
  8
0
100
AcDbLine
 10
170.4743420205435
 20
159.6231384683179
 30
0.0
 11
172.8743420205436
 21
159.6231384683179
 31
0.0
  0
LINE
  5
808
330
1F
100
AcDbEntity
  8
0
100
AcDbLine
 10
168.5043420205438
 20
159.6231384683179
 30
0.0
 11
172.8743420205436
 21
159.6231384683179
 31
0.0
  0
LINE
  5
809
330
1F
100
AcDbEntity
  8
0
100
AcDbLine
 10
170.4743420205435
 20
155.813138468318
 30
0.0
 11
172.8743420205436
 21
155.813138468318
 31
0.0
  0
LINE
  5
80A
330
1F
100
AcDbEntity
  8
0
100
AcDbLine
 10
168.5043420205438
 20
155.813138468318
 30
0.0
 11
172.8743420205436
 21
155.813138468318
 31
0.0
  0
ARC
  5
80B
330
1F
100
AcDbEntity
  8
0
100
AcDbCircle
 10
165.4743420205435
 20
161.5281384683176
 30
0.0
 40
0.85
100
AcDbArc
 50
0.0
 51
323.269604999999
  0
LINE
  5
80C
330
1F
100
AcDbEntity
  8
0
100
AcDbLine
 10
168.5043420205438
 20
163.4331384683179
 30
0.0
 11
168.5043420205438
 21
159.6231384683179
 31
0.0
  0
LINE
  5
80D
330
1F
100
AcDbEntity
  8
0
100
AcDbLine
 10
168.5043420205438
 20
159.6231384683179
 30
0.0
 11
168.9443420205435
 21
159.6231384683179
 31
0.0
  0
LINE
  5
80E
330
1F
100
AcDbEntity
  8
0
100
AcDbLine
 10
168.5043420205438
 20
155.813138468318
 30
0.0
 11
168.9443420205435
 21
155.813138468318
 31
0.0
  0
LINE
  5
80F
330
1F
100
AcDbEntity
  8
0
100
AcDbLine
 10
168.5043420205438
 20
159.6231384683179
 30
0.0
 11
168.3043420205438
 21
159.6231384683179
 31
0.0
  0
LINE
  5
810
330
1F
100
AcDbEntity
  8
0
100
AcDbLine
 10
167.5443420205446
 20
159.6231384683179
 30
0.0
 11
168.3043420205438
 21
159.6231384683179
 31
0.0
  0
LINE
  5
811
330
1F
100
AcDbEntity
  8
0
100
AcDbLine
 10
168.5043420205438
 20
159.6231384683179
 30
0.0
 11
168.3043420205438
 21
159.6231384683179
 31
0.0
  0
ARC
  5
812
330
1F
100
AcDbEntity
  8
0
100
AcDbCircle
 10
165.4743420205435
 20
157.7181384683178
 30
0.0
 40
0.85
100
AcDbArc
 50
323.269604999999
 51
0.0
  0
LINE
  5
813
330
1F
100
AcDbEntity
  8
0
100
AcDbLine
 10
167.5443420205446
 20
155.813138468318
 30
0.0
 11
168.3043420205438
 21
155.813138468318
 31
0.0
  0
LINE
  5
814
330
1F
100
AcDbEntity
  8
0
100
AcDbLine
 10
168.5043420205438
 20
155.813138468318
 30
0.0
 11
168.3043420205438
 21
155.813138468318
 31
0.0
  0
LINE
  5
815
330
1F
100
AcDbEntity
  8
0
100
AcDbLine
 10
168.5043420205438
 20
155.813138468318
 30
0.0
 11
168.3043420205438
 21
155.813138468318
 31
0.0
  0
LINE
  5
816
330
1F
100
AcDbEntity
  8
0
100
AcDbLine
 10
168.5043420205438
 20
159.6231384683179
 30
0.0
 11
168.5043420205438
 21
155.813138468318
 31
0.0
  0
ARC
  5
817
330
1F
100
AcDbEntity
  8
0
100
AcDbCircle
 10
165.4743420205435
 20
157.7181384683178
 30
0.0
 40
0.85
100
AcDbArc
 50
0.0
 51
323.269604999999
  0
LINE
  5
818
330
1F
100
AcDbEntity
  8
0
100
AcDbLine
 10
168.9443420205435
 20
159.6231384683179
 30
0.0
 11
169.0743420205436
 21
159.6231384683179
 31
0.0
  0
LINE
  5
819
330
1F
100
AcDbEntity
  8
0
100
AcDbLine
 10
169.0743420205436
 20
159.6231384683179
 30
0.0
 11
170.4743420205435
 21
159.6231384683179
 31
0.0
  0
LINE
  5
81A
330
1F
100
AcDbEntity
  8
0
100
AcDbLine
 10
168.9443420205435
 20
155.813138468318
 30
0.0
 11
169.0743420205436
 21
155.813138468318
 31
0.0
  0
LINE
  5
81B
330
1F
100
AcDbEntity
  8
0
100
AcDbLine
 10
169.0743420205436
 20
155.813138468318
 30
0.0
 11
170.4743420205435
 21
155.813138468318
 31
0.0
  0
LINE
  5
81C
330
1F
100
AcDbEntity
  8
0
100
AcDbLine
 10
168.5043420205438
 20
163.4331384683179
 30
0.0
 11
168.9443420205435
 21
163.4331384683179
 31
0.0
  0
LINE
  5
81D
330
1F
100
AcDbEntity
  8
0
100
AcDbLine
 10
167.5443420205446
 20
163.4331384683179
 30
0.0
 11
168.3043420205438
 21
163.4331384683179
 31
0.0
  0
LINE
  5
81E
330
1F
100
AcDbEntity
  8
0
100
AcDbLine
 10
168.5043420205438
 20
163.4331384683179
 30
0.0
 11
168.3043420205438
 21
163.4331384683179
 31
0.0
  0
LINE
  5
81F
330
1F
100
AcDbEntity
  8
0
100
AcDbLine
 10
168.5043420205438
 20
163.4331384683179
 30
0.0
 11
168.3043420205438
 21
163.4331384683179
 31
0.0
  0
ARC
  5
820
330
1F
100
AcDbEntity
  8
0
100
AcDbCircle
 10
165.4743420205435
 20
165.3381384683175
 30
0.0
 40
0.85
100
AcDbArc
 50
323.269604999999
 51
0.0
  0
ARC
  5
821
330
1F
100
AcDbEntity
  8
0
100
AcDbCircle
 10
165.4743420205435
 20
165.3381384683175
 30
0.0
 40
0.85
100
AcDbArc
 50
0.0
 51
323.269604999999
  0
ARC
  5
822
330
1F
100
AcDbEntity
  8
0
100
AcDbCircle
 10
165.4743420205435
 20
161.5281384683176
 30
0.0
 40
0.85
100
AcDbArc
 50
323.269604999999
 51
0.0
  0
LINE
  5
823
330
1F
100
AcDbEntity
  8
0
100
AcDbLine
 10
168.9443420205435
 20
163.4331384683179
 30
0.0
 11
169.0743420205436
 21
163.4331384683179
 31
0.0
  0
LINE
  5
824
330
1F
100
AcDbEntity
  8
0
100
AcDbLine
 10
169.0743420205436
 20
163.4331384683179
 30
0.0
 11
170.4743420205435
 21
163.4331384683179
 31
0.0
  0
LINE
  5
825
330
1F
100
AcDbEntity
  8
0
100
AcDbLine
 10
173.8743420205436
 20
161.0331384683178
 30
0.0
 11
173.8743420205436
 21
160.6331384683176
 31
0.0
  0
LINE
  5
826
330
1F
100
AcDbEntity
  8
0
100
AcDbLine
 10
173.8743420205436
 20
160.6331384683176
 30
0.0
 11
173.8743420205436
 21
160.1331384683176
 31
0.0
  0
LINE
  5
827
330
1F
100
AcDbEntity
  8
0
100
AcDbLine
 10
173.8743420205436
 20
160.1331384683176
 30
0.0
 11
173.8743420205436
 21
159.7331384683173
 31
0.0
  0
LINE
  5
828
330
1F
100
AcDbEntity
  8
0
100
AcDbLine
 10
173.8743420205436
 20
157.2231384683178
 30
0.0
 11
173.8743420205436
 21
156.8231384683179
 31
0.0
  0
LINE
  5
829
330
1F
100
AcDbEntity
  8
0
100
AcDbLine
 10
173.8743420205436
 20
156.3231384683177
 30
0.0
 11
173.8743420205436
 21
155.9231384683175
 31
0.0
  0
LINE
  5
82A
330
1F
100
AcDbEntity
  8
0
100
AcDbLine
 10
173.8743420205436
 20
156.8231384683179
 30
0.0
 11
173.8743420205436
 21
156.3231384683177
 31
0.0
  0
LINE
  5
82B
330
1F
100
AcDbEntity
  8
0
100
AcDbLine
 10
173.3743420205436
 20
159.7331384683173
 30
0.0
 11
173.3743420205436
 21
159.6231384683179
 31
0.0
  0
LINE
  5
82C
330
1F
100
AcDbEntity
  8
0
100
AcDbLine
 10
173.3743420205436
 20
159.6231384683179
 30
0.0
 11
172.8743420205436
 21
159.6231384683179
 31
0.0
  0
LINE
  5
82D
330
1F
100
AcDbEntity
  8
0
100
AcDbLine
 10
173.3743420205436
 20
159.6231384683179
 30
0.0
 11
172.8743420205436
 21
159.6231384683179
 31
0.0
  0
LINE
  5
82E
330
1F
100
AcDbEntity
  8
0
100
AcDbLine
 10
173.3743420205436
 20
155.9231384683175
 30
0.0
 11
173.3743420205436
 21
155.813138468318
 31
0.0
  0
LINE
  5
82F
330
1F
100
AcDbEntity
  8
0
100
AcDbLine
 10
173.3743420205436
 20
155.813138468318
 30
0.0
 11
172.8743420205436
 21
155.813138468318
 31
0.0
  0
LINE
  5
830
330
1F
100
AcDbEntity
  8
0
100
AcDbLine
 10
173.3743420205436
 20
155.813138468318
 30
0.0
 11
172.8743420205436
 21
155.813138468318
 31
0.0
  0
LINE
  5
831
330
1F
100
AcDbEntity
  8
0
100
AcDbLine
 10
173.3743420205436
 20
159.7331384683173
 30
0.0
 11
173.8743420205436
 21
159.7331384683173
 31
0.0
  0
LINE
  5
832
330
1F
100
AcDbEntity
  8
0
100
AcDbLine
 10
173.3743420205436
 20
157.2231384683178
 30
0.0
 11
173.8743420205436
 21
157.2231384683178
 31
0.0
  0
LINE
  5
833
330
1F
100
AcDbEntity
  8
0
100
AcDbLine
 10
173.3743420205436
 20
155.9231384683175
 30
0.0
 11
173.8743420205436
 21
155.9231384683175
 31
0.0
  0
LINE
  5
834
330
1F
100
AcDbEntity
  8
0
100
AcDbLine
 10
173.8743420205436
 20
164.4431384683175
 30
0.0
 11
173.8743420205436
 21
163.9431384683175
 31
0.0
  0
LINE
  5
835
330
1F
100
AcDbEntity
  8
0
100
AcDbLine
 10
173.8743420205436
 20
163.9431384683175
 30
0.0
 11
173.8743420205436
 21
163.543138468318
 31
0.0
  0
LINE
  5
836
330
1F
100
AcDbEntity
  8
0
100
AcDbLine
 10
173.8743420205436
 20
164.8431384683178
 30
0.0
 11
173.8743420205436
 21
164.4431384683175
 31
0.0
  0
LINE
  5
837
330
1F
100
AcDbEntity
  8
0
100
AcDbLine
 10
173.3743420205436
 20
163.543138468318
 30
0.0
 11
173.3743420205436
 21
163.4331384683179
 31
0.0
  0
LINE
  5
838
330
1F
100
AcDbEntity
  8
0
100
AcDbLine
 10
173.3743420205436
 20
163.4331384683179
 30
0.0
 11
172.8743420205436
 21
163.4331384683179
 31
0.0
  0
LINE
  5
839
330
1F
100
AcDbEntity
  8
0
100
AcDbLine
 10
173.3743420205436
 20
163.4331384683179
 30
0.0
 11
172.8743420205436
 21
163.4331384683179
 31
0.0
  0
LINE
  5
83A
330
1F
100
AcDbEntity
  8
0
100
AcDbLine
 10
173.3743420205436
 20
164.8431384683178
 30
0.0
 11
173.8743420205436
 21
164.8431384683178
 31
0.0
  0
LINE
  5
83B
330
1F
100
AcDbEntity
  8
0
100
AcDbLine
 10
173.3743420205436
 20
163.543138468318
 30
0.0
 11
173.8743420205436
 21
163.543138468318
 31
0.0
  0
LINE
  5
83C
330
1F
100
AcDbEntity
  8
0
100
AcDbLine
 10
173.3743420205436
 20
161.0331384683178
 30
0.0
 11
173.8743420205436
 21
161.0331384683178
 31
0.0
  0
LINE
  5
83D
330
1F
100
AcDbEntity
  8
0
100
AcDbLine
 10
170.4743420205435
 20
167.2431384683178
 30
0.0
 11
172.8743420205436
 21
167.2431384683178
 31
0.0
  0
LINE
  5
83E
330
1F
100
AcDbEntity
  8
0
100
AcDbLine
 10
168.5043420205438
 20
167.2431384683178
 30
0.0
 11
172.8743420205436
 21
167.2431384683178
 31
0.0
  0
LINE
  5
83F
330
1F
100
AcDbEntity
  8
0
100
AcDbLine
 10
173.8743420205436
 20
174.3031384683166
 30
0.0
 11
171.8743420205436
 21
174.3031384683166
 31
0.0
  0
LINE
  5
840
330
1F
100
AcDbEntity
  8
0
100
AcDbLine
 10
172.2743420205446
 20
177.754085967816
 30
0.0
 11
173.7213463712615
 21
177.754085967816
 31
0.0
  0
LINE
  5
841
330
1F
100
AcDbEntity
  8
0
100
AcDbLine
 10
168.5043420205438
 20
171.0531384683178
 30
0.0
 11
168.5043420205438
 21
173.5531384683176
 31
0.0
  0
LINE
  5
842
330
1F
100
AcDbEntity
  8
0
100
AcDbLine
 10
168.5043420205438
 20
167.2431384683178
 30
0.0
 11
168.9443420205435
 21
167.2431384683178
 31
0.0
  0
LINE
  5
843
330
1F
100
AcDbEntity
  8
0
100
AcDbLine
 10
167.5443420205446
 20
167.2431384683178
 30
0.0
 11
168.3043420205438
 21
167.2431384683178
 31
0.0
  0
LINE
  5
844
330
1F
100
AcDbEntity
  8
0
100
AcDbLine
 10
168.5043420205438
 20
167.2431384683178
 30
0.0
 11
168.3043420205438
 21
167.2431384683178
 31
0.0
  0
LINE
  5
845
330
1F
100
AcDbEntity
  8
0
100
AcDbLine
 10
168.5043420205438
 20
167.2431384683178
 30
0.0
 11
168.3043420205438
 21
167.2431384683178
 31
0.0
  0
ARC
  5
846
330
1F
100
AcDbEntity
  8
0
100
AcDbCircle
 10
165.4743420205435
 20
169.1481384683179
 30
0.0
 40
0.85
100
AcDbArc
 50
323.269604999999
 51
0.0
  0
LINE
  5
847
330
1F
100
AcDbEntity
  8
0
100
AcDbLine
 10
168.5043420205438
 20
171.0531384683178
 30
0.0
 11
168.5043420205438
 21
167.2431384683178
 31
0.0
  0
ARC
  5
848
330
1F
100
AcDbEntity
  8
0
100
AcDbCircle
 10
165.4743420205435
 20
169.1481384683179
 30
0.0
 40
0.85
100
AcDbArc
 50
0.0
 51
323.269604999999
  0
LINE
  5
849
330
1F
100
AcDbEntity
  8
0
100
AcDbLine
 10
168.9443420205435
 20
167.2431384683178
 30
0.0
 11
169.0743420205436
 21
167.2431384683178
 31
0.0
  0
LINE
  5
84A
330
1F
100
AcDbEntity
  8
0
100
AcDbLine
 10
169.0743420205436
 20
167.2431384683178
 30
0.0
 11
170.4743420205435
 21
167.2431384683178
 31
0.0
  0
LINE
  5
84B
330
1F
100
AcDbEntity
  8
0
100
AcDbLine
 10
168.5743420205437
 20
177.9031384683172
 30
0.0
 11
169.0743420205436
 21
177.9031384683172
 31
0.0
  0
LINE
  5
84C
330
1F
100
AcDbEntity
  8
0
100
AcDbLine
 10
168.5743420205437
 20
175.9031384683171
 30
0.0
 11
169.0743420205436
 21
175.9031384683171
 31
0.0
  0
LINE
  5
84D
330
1F
100
AcDbEntity
  8
0
100
AcDbLine
 10
164.5743420205437
 20
177.9031384683172
 30
0.0
 11
165.0743420205436
 21
177.9031384683172
 31
0.0
  0
LINE
  5
84E
330
1F
100
AcDbEntity
  8
0
100
AcDbLine
 10
164.5743420205437
 20
175.9031384683171
 30
0.0
 11
165.0743420205436
 21
175.9031384683171
 31
0.0
  0
LINE
  5
84F
330
1F
100
AcDbEntity
  8
0
100
AcDbLine
 10
168.5743420205437
 20
175.9031384683171
 30
0.0
 11
168.5743420205437
 21
177.9031384683172
 31
0.0
  0
LINE
  5
850
330
1F
100
AcDbEntity
  8
0
100
AcDbLine
 10
165.0743420205436
 20
175.9031384683171
 30
0.0
 11
165.0743420205436
 21
177.9031384683172
 31
0.0
  0
LINE
  5
851
330
1F
100
AcDbEntity
  8
0
100
AcDbLine
 10
164.5743420205437
 20
175.9031384683171
 30
0.0
 11
164.5743420205437
 21
177.9031384683172
 31
0.0
  0
ARC
  5
852
330
1F
100
AcDbEntity
  8
0
100
AcDbCircle
 10
171.8743420205436
 20
174.7031384683166
 30
0.0
 40
0.4
100
AcDbArc
 50
270.0
 51
0.0
  0
ARC
  5
853
330
1F
100
AcDbEntity
  8
0
100
AcDbCircle
 10
171.4743420205426
 20
175.2031384683166
 30
0.0
 40
0.4
100
AcDbArc
 50
270.0
 51
0.0
  0
LINE
  5
854
330
1F
100
AcDbEntity
  8
0
100
AcDbLine
 10
169.0743420205436
 20
175.9031384683171
 30
0.0
 11
169.0743420205436
 21
177.9031384683172
 31
0.0
  0
LINE
  5
855
330
1F
100
AcDbEntity
  8
0
100
AcDbLine
 10
173.8743420205436
 20
168.6531384683176
 30
0.0
 11
173.8743420205436
 21
168.2531384683176
 31
0.0
  0
LINE
  5
856
330
1F
100
AcDbEntity
  8
0
100
AcDbLine
 10
173.8743420205436
 20
168.2531384683176
 30
0.0
 11
173.8743420205436
 21
167.7531384683178
 31
0.0
  0
LINE
  5
857
330
1F
100
AcDbEntity
  8
0
100
AcDbLine
 10
173.8743420205436
 20
167.7531384683178
 30
0.0
 11
173.8743420205436
 21
167.3531384683179
 31
0.0
  0
LINE
  5
858
330
1F
100
AcDbEntity
  8
0
100
AcDbLine
 10
173.3743420205436
 20
168.6531384683176
 30
0.0
 11
173.3743420205436
 21
167.3531384683179
 31
0.0
  0
LINE
  5
859
330
1F
100
AcDbEntity
  8
0
100
AcDbLine
 10
173.3743420205436
 20
167.3531384683179
 30
0.0
 11
173.3743420205436
 21
167.2431384683178
 31
0.0
  0
LINE
  5
85A
330
1F
100
AcDbEntity
  8
0
100
AcDbLine
 10
173.3743420205436
 20
167.2431384683178
 30
0.0
 11
172.8743420205436
 21
167.2431384683178
 31
0.0
  0
LINE
  5
85B
330
1F
100
AcDbEntity
  8
0
100
AcDbLine
 10
173.3743420205436
 20
167.2431384683178
 30
0.0
 11
172.8743420205436
 21
167.2431384683178
 31
0.0
  0
LINE
  5
85C
330
1F
100
AcDbEntity
  8
0
100
AcDbLine
 10
173.3743420205436
 20
168.6531384683176
 30
0.0
 11
173.8743420205436
 21
168.6531384683176
 31
0.0
  0
LINE
  5
85D
330
1F
100
AcDbEntity
  8
0
100
AcDbLine
 10
173.3743420205436
 20
167.3531384683179
 30
0.0
 11
173.8743420205436
 21
167.3531384683179
 31
0.0
  0
LINE
  5
85E
330
1F
100
AcDbEntity
  8
0
100
AcDbLine
 10
173.7213463712615
 20
177.754085967816
 30
0.0
 11
173.8743420205436
 21
177.6010903185348
 31
0.0
  0
LINE
  5
85F
330
1F
100
AcDbEntity
  8
0
100
AcDbLine
 10
159.9149020205435
 20
255.0700649067159
 30
0.0
 11
164.3949020205435
 21
255.0700649067159
 31
0.0
  0
LINE
  5
860
330
1F
100
AcDbEntity
  8
0
100
AcDbLine
 10
159.9149020205435
 20
267.5700649067163
 30
0.0
 11
164.3949020205435
 21
267.5700649067155
 31
0.0
  0
LINE
  5
861
330
1F
100
AcDbEntity
  8
0
  6
CONTINUOUS
100
AcDbLine
 10
164.3949020205435
 20
268.5700649067163
 30
0.0
 11
159.9149020205435
 21
268.5700649067159
 31
0.0
  0
LINE
  5
862
330
1F
100
AcDbEntity
  8
外形
100
AcDbLine
 10
156.0743420205466
 20
251.3200649067147
 30
0.0
 11
174.6742672040396
 21
251.3200649067158
 31
0.0
  0
LINE
  5
863
330
1F
100
AcDbEntity
  8
外形
100
AcDbLine
 10
160.5743420205437
 20
226.1331394683178
 30
0.0
 11
166.2243420205435
 21
226.1331394683178
 31
0.0
  0
LINE
  5
864
330
1F
100
AcDbEntity
  8
外形
100
AcDbLine
 10
160.5743420205437
 20
211.1331394683179
 30
0.0
 11
168.3743420205436
 21
211.1331394683179
 31
0.0
  0
LINE
  5
865
330
1F
100
AcDbEntity
  8
外形
100
AcDbLine
 10
166.3743420205436
 20
184.9331394683179
 30
0.0
 11
158.6743420205436
 21
184.9331394683179
 31
0.0
  0
LINE
  5
866
330
1F
100
AcDbEntity
  8
0
  6
CONTINUOUS
100
AcDbLine
 10
159.9149020205435
 20
254.0700649067158
 30
0.0
 11
164.3949020205435
 21
254.0700649067161
 31
0.0
  0
LINE
  5
867
330
1F
100
AcDbEntity
  8
0
  6
CONTINUOUS
100
AcDbLine
 10
159.5543420205436
 20
267.570064906716
 30
0.0
 11
164.7554620205436
 21
267.570064906716
 31
0.0
  0
LINE
  5
868
330
1F
100
AcDbEntity
  8
0
  6
CONTINUOUS
100
AcDbLine
 10
164.7554620205436
 20
255.0700649067159
 30
0.0
 11
159.5543420205436
 21
255.0700649067159
 31
0.0
  0
LINE
  5
869
330
1F
100
AcDbEntity
  8
0
100
AcDbLine
 10
160.5743420205437
 20
226.1331394683178
 30
0.0
 11
166.2243420205435
 21
226.1331394683178
 31
0.0
  0
LINE
  5
86A
330
1F
100
AcDbEntity
  8
0
100
AcDbLine
 10
161.0743420205436
 20
225.6571264683179
 30
0.0
 11
173.8743420205436
 21
225.6571264683179
 31
0.0
  0
LINE
  5
86B
330
1F
100
AcDbEntity
  8
0
100
AcDbLine
 10
164.7360080205436
 20
219.3904884683179
 30
0.0
 11
162.8165730205437
 21
219.3904884683179
 31
0.0
  0
LINE
  5
86C
330
1F
100
AcDbEntity
  8
0
100
AcDbLine
 10
162.8165730205437
 20
217.9227054683178
 30
0.0
 11
164.7360080205436
 21
217.9227054683178
 31
0.0
  0
LINE
  5
86D
330
1F
100
AcDbEntity
  8
0
100
AcDbLine
 10
164.7360080205436
 20
219.3904884683179
 30
0.0
 11
162.8165730205437
 21
219.3904884683179
 31
0.0
  0
LINE
  5
86E
330
1F
100
AcDbEntity
  8
0
100
AcDbLine
 10
162.8165730205437
 20
217.9227054683178
 30
0.0
 11
164.7360080205436
 21
217.9227054683178
 31
0.0
  0
LINE
  5
86F
330
1F
100
AcDbEntity
  8
0
100
AcDbLine
 10
160.5743420205437
 20
211.1331394683179
 30
0.0
 11
168.3743420205436
 21
211.1331394683179
 31
0.0
  0
LINE
  5
870
330
1F
100
AcDbEntity
  8
0
100
AcDbLine
 10
166.3743420205436
 20
185.033139468318
 30
0.0
 11
158.6743420205436
 21
185.033139468318
 31
0.0
  0
LINE
  5
871
330
1F
100
AcDbEntity
  8
0
100
AcDbLine
 10
159.6951740997325
 20
184.5031384683158
 30
0.0
 11
171.8743420205436
 21
184.5031384683158
 31
0.0
  0
LINE
  5
872
330
1F
100
AcDbEntity
  8
0
100
AcDbLine
 10
160.0743420205436
 20
184.0031384683173
 30
0.0
 11
171.4743420205426
 21
184.0031384683158
 31
0.0
  0
LINE
  5
873
330
1F
100
AcDbEntity
  8
0
100
AcDbLine
 10
161.0743420205436
 20
211.6571264683178
 30
0.0
 11
173.8743420205436
 21
211.6571264683178
 31
0.0
  0
CIRCLE
  5
874
330
1F
100
AcDbEntity
  8
0
100
AcDbCircle
 10
167.4740840205446
 20
218.656855468318
 30
0.0
 40
4.448565999999996
  0
CIRCLE
  5
875
330
1F
100
AcDbEntity
  8
0
100
AcDbCircle
 10
167.4743420205435
 20
218.656855468318
 30
0.0
 40
5.029838999999999
  0
CIRCLE
  5
876
330
1F
100
AcDbEntity
  8
0
100
AcDbCircle
 10
167.4743420205435
 20
218.656855468318
 30
0.0
 40
5.029838999999999
  0
LINE
  5
877
330
1F
100
AcDbEntity
  8
外形
100
AcDbLine
 10
160.5743420205437
 20
226.1331394683178
 30
0.0
 11
160.5743420205437
 21
211.1331394683179
 31
0.0
  0
LINE
  5
878
330
1F
100
AcDbEntity
  8
0
100
AcDbLine
 10
160.5743420205437
 20
226.1331394683178
 30
0.0
 11
160.5743420205437
 21
211.1331394683179
 31
0.0
  0
LINE
  5
879
330
1F
100
AcDbEntity
  8
0
100
AcDbLine
 10
161.0743420205436
 20
225.6571264683179
 30
0.0
 11
161.0743420205436
 21
211.6571264683178
 31
0.0
  0
LINE
  5
87A
330
1F
100
AcDbEntity
  8
0
100
AcDbLine
 10
159.1743420205436
 20
183.892998313679
 30
0.0
 11
159.6951740997325
 21
184.5031384683158
 31
0.0
  0
LINE
  5
87B
330
1F
100
AcDbEntity
  8
0
100
AcDbLine
 10
162.8165730205437
 20
219.3904884683179
 30
0.0
 11
162.8165730205437
 21
217.9227054683178
 31
0.0
  0
LINE
  5
87C
330
1F
100
AcDbEntity
  8
0
100
AcDbLine
 10
162.8165730205437
 20
219.3904884683179
 30
0.0
 11
162.8165730205437
 21
217.9227054683178
 31
0.0
  0
LINE
  5
87D
330
1F
100
AcDbEntity
  8
外形
100
AcDbLine
 10
156.0743420205466
 20
243.9913080683155
 30
0.0
 11
156.0743420205437
 21
251.3200649067147
 31
0.0
  0
LINE
  5
87E
330
1F
100
AcDbEntity
  8
0
100
AcDbLine
 10
155.9743420205435
 20
243.2752224683178
 30
0.0
 11
155.9743420205435
 21
235.9071264683179
 31
0.0
  0
LINE
  5
87F
330
1F
100
AcDbEntity
  8
0
100
AcDbLine
 10
159.5543420205436
 20
260.6806649067158
 30
0.0
 11
159.5543420205436
 21
255.430664906716
 31
0.0
  0
LINE
  5
880
330
1F
100
AcDbEntity
  8
0
  6
CONTINUOUS
100
AcDbLine
 10
163.3943420205428
 20
266.290064906716
 30
0.0
 11
163.3943420205428
 21
256.3500649067159
 31
0.0
  0
LINE
  5
881
330
1F
100
AcDbEntity
  8
0
  6
CONTINUOUS
100
AcDbLine
 10
158.5543420205436
 20
260.6806649067158
 30
0.0
 11
158.5543420205436
 21
255.430664906716
 31
0.0
  0
LINE
  5
882
330
1F
100
AcDbEntity
  8
0
  6
CONTINUOUS
100
AcDbLine
 10
156.3843420205448
 20
265.9400649067158
 30
0.0
 11
156.3843420205448
 21
256.700064906716
 31
0.0
  0
LINE
  5
883
330
1F
100
AcDbEntity
  8
0
  6
CONTINUOUS
100
AcDbLine
 10
162.1143420205436
 20
266.290064906716
 30
0.0
 11
162.1143420205436
 21
256.3500649067159
 31
0.0
  0
LINE
  5
884
330
1F
100
AcDbEntity
  8
0
  6
CONTINUOUS
100
AcDbLine
 10
157.9843420205436
 20
265.9400649067158
 30
0.0
 11
157.9843420205436
 21
256.700064906716
 31
0.0
  0
LINE
  5
885
330
1F
100
AcDbEntity
  8
0
  6
CONTINUOUS
100
AcDbLine
 10
157.9843420205436
 20
255.0700649067159
 30
0.0
 11
157.9843420205436
 21
267.570064906716
 31
0.0
  0
LINE
  5
886
330
1F
100
AcDbEntity
  8
0
  6
CONTINUOUS
100
AcDbLine
 10
159.5543420205436
 20
255.0700649067159
 30
0.0
 11
159.5543420205436
 21
267.570064906716
 31
0.0
  0
LINE
  5
887
330
1F
100
AcDbEntity
  8
0
  6
CONTINUOUS
100
AcDbLine
 10
156.3843420205448
 20
253.6000649067156
 30
0.0
 11
156.0743420205449
 21
253.7449592202476
 31
0.0
  0
LINE
  5
888
330
1F
100
AcDbEntity
  8
0
  6
CONTINUOUS
100
AcDbLine
 10
157.9843420205436
 20
256.700064906716
 30
0.0
 11
157.9843420205436
 21
251.320064906715
 31
0.0
  0
LINE
  5
889
330
1F
100
AcDbEntity
  8
0
  6
CONTINUOUS
100
AcDbLine
 10
157.9843420205436
 20
255.9000649067157
 30
0.0
 11
157.9843420205436
 21
253.6000649067156
 31
0.0
  0
LINE
  5
88A
330
1F
100
AcDbEntity
  8
0
  6
CONTINUOUS
100
AcDbLine
 10
156.3843420205448
 20
256.700064906716
 30
0.0
 11
156.3843420205448
 21
251.3200649067147
 31
0.0
  0
LINE
  5
88B
330
1F
100
AcDbEntity
  8
0
  6
CONTINUOUS
100
AcDbLine
 10
156.3843420205448
 20
255.9000649067157
 30
0.0
 11
156.3843420205448
 21
253.6000649067156
 31
0.0
  0
ARC
  5
88C
330
1F
100
AcDbEntity
  8
0
100
AcDbCircle
 10
159.3543420205437
 20
254.870064906716
 30
0.0
 40
0.5
100
AcDbArc
 50
180.0
 51
270.0
  0
ARC
  5
88D
330
1F
100
AcDbEntity
  8
0
  6
CONTINUOUS
100
AcDbCircle
 10
159.3543420205437
 20
254.8700649067157
 30
0.0
 40
0.2
100
AcDbArc
 50
180.0
 51
270.0
  0
LINE
  5
88E
330
1F
100
AcDbEntity
  8
0
  6
CONTINUOUS
100
AcDbLine
 10
159.1543420205436
 20
255.430664906716
 30
0.0
 11
159.1543420205436
 21
254.8700649067157
 31
0.0
  0
LINE
  5
88F
330
1F
100
AcDbEntity
  8
0
100
AcDbLine
 10
158.8543420205436
 20
254.870064906716
 30
0.0
 11
158.8543420205436
 21
255.430664906716
 31
0.0
  0
LINE
  5
890
330
1F
100
AcDbEntity
  8
0
100
AcDbLine
 10
159.3543420205437
 20
254.370064906716
 30
0.0
 11
159.9149020205435
 21
254.370064906716
 31
0.0
  0
LINE
  5
891
330
1F
100
AcDbEntity
  8
0
100
AcDbLine
 10
159.5543420205436
 20
255.430664906716
 30
0.0
 11
158.5543420205436
 21
255.430664906716
 31
0.0
  0
LINE
  5
892
330
1F
100
AcDbEntity
  8
0
100
AcDbLine
 10
159.9149020205435
 20
255.0700649067159
 30
0.0
 11
159.9149020205435
 21
254.0700649067158
 31
0.0
  0
LINE
  5
893
330
1F
100
AcDbEntity
  8
0
  6
CONTINUOUS
100
AcDbLine
 10
157.9843420205436
 20
254.0988503318171
 30
0.0
 11
159.0922843505367
 21
254.4442412606008
 31
0.0
  0
LINE
  5
894
330
1F
100
AcDbEntity
  8
0
  6
CONTINUOUS
100
AcDbLine
 10
156.0743420205449
 20
254.5000649067162
 30
0.0
 11
156.3843420205448
 21
254.5000649067162
 31
0.0
  0
LINE
  5
895
330
1F
100
AcDbEntity
  8
0
  6
CONTINUOUS
100
AcDbLine
 10
156.0743420205449
 20
255.0000649067162
 30
0.0
 11
156.3843420205448
 21
255.0000649067162
 31
0.0
  0
LINE
  5
896
330
1F
100
AcDbEntity
  8
0
  6
CONTINUOUS
100
AcDbLine
 10
156.0743420205449
 20
257.5700649067159
 30
0.0
 11
156.3843420205448
 21
257.5700649067159
 31
0.0
  0
LINE
  5
897
330
1F
100
AcDbEntity
  8
0
  6
CONTINUOUS
100
AcDbLine
 10
156.0743420205449
 20
258.0700649067159
 30
0.0
 11
156.3843420205448
 21
258.0700649067159
 31
0.0
  0
LINE
  5
898
330
1F
100
AcDbEntity
  8
0
  6
CONTINUOUS
100
AcDbLine
 10
157.9843420205436
 20
258.280064906716
 30
0.0
 11
157.9843420205436
 21
257.3600649067159
 31
0.0
  0
LINE
  5
899
330
1F
100
AcDbEntity
  8
0
  6
CONTINUOUS
100
AcDbLine
 10
158.5543420205436
 20
256.8600649067158
 30
0.0
 11
157.9843420205436
 21
256.8600649067158
 31
0.0
  0
LINE
  5
89A
330
1F
100
AcDbEntity
  8
0
  6
CONTINUOUS
100
AcDbLine
 10
159.3543420205437
 20
254.6700649067158
 30
0.0
 11
159.9149020205435
 21
254.6700649067158
 31
0.0
  0
LINE
  5
89B
330
1F
100
AcDbEntity
  8
0
100
AcDbLine
 10
162.1143420205436
 20
256.3500649067159
 30
0.0
 11
163.3943420205428
 21
256.3500649067159
 31
0.0
  0
LINE
  5
89C
330
1F
100
AcDbEntity
  8
0
  6
CONTINUOUS
100
AcDbLine
 10
161.7143420205426
 20
257.3600649067159
 30
0.0
 11
162.1143420205436
 21
257.3600649067159
 31
0.0
  0
LINE
  5
89D
330
1F
100
AcDbEntity
  8
0
  6
CONTINUOUS
100
AcDbLine
 10
161.7143420205426
 20
258.280064906716
 30
0.0
 11
162.1143420205436
 21
258.280064906716
 31
0.0
  0
LINE
  5
89E
330
1F
100
AcDbEntity
  8
0
  6
CONTINUOUS
100
AcDbLine
 10
161.7143420205426
 20
258.280064906716
 30
0.0
 11
161.7143420205426
 21
257.3600649067159
 31
0.0
  0
LINE
  5
89F
330
1F
100
AcDbEntity
  8
0
100
AcDbLine
 10
159.5543420205436
 20
267.2094649067158
 30
0.0
 11
159.5543420205436
 21
261.9594649067161
 31
0.0
  0
LINE
  5
8A0
330
1F
100
AcDbEntity
  8
0
  6
CONTINUOUS
100
AcDbLine
 10
157.9843420205436
 20
265.280064906716
 30
0.0
 11
157.9843420205436
 21
264.3600649067158
 31
0.0
  0
LINE
  5
8A1
330
1F
100
AcDbEntity
  8
0
  6
CONTINUOUS
100
AcDbLine
 10
161.7143420205426
 20
265.280064906716
 30
0.0
 11
161.7143420205426
 21
264.3600649067158
 31
0.0
  0
LINE
  5
8A2
330
1F
100
AcDbEntity
  8
0
  6
CONTINUOUS
100
AcDbLine
 10
158.5543420205436
 20
267.2094649067158
 30
0.0
 11
158.5543420205436
 21
261.9594649067161
 31
0.0
  0
LINE
  5
8A3
330
1F
100
AcDbEntity
  8
0
  6
CONTINUOUS
100
AcDbLine
 10
159.1543420205436
 20
261.9594649067161
 30
0.0
 11
159.1543420205436
 21
260.6806649067158
 31
0.0
  0
LINE
  5
8A4
330
1F
100
AcDbEntity
  8
0
100
AcDbLine
 10
159.1543420205436
 20
261.9594649067161
 30
0.0
 11
159.5543420205436
 21
261.9594649067161
 31
0.0
  0
LINE
  5
8A5
330
1F
100
AcDbEntity
  8
0
100
AcDbLine
 10
159.1543420205436
 20
260.6806649067158
 30
0.0
 11
159.5543420205436
 21
260.6806649067158
 31
0.0
  0
LINE
  5
8A6
330
1F
100
AcDbEntity
  8
0
  6
CONTINUOUS
100
AcDbLine
 10
156.0743420205449
 20
260.0700649067158
 30
0.0
 11
156.3843420205448
 21
260.0700649067158
 31
0.0
  0
LINE
  5
8A7
330
1F
100
AcDbEntity
  8
0
  6
CONTINUOUS
100
AcDbLine
 10
156.0743420205449
 20
260.5700649067159
 30
0.0
 11
156.3843420205448
 21
260.5700649067159
 31
0.0
  0
LINE
  5
8A8
330
1F
100
AcDbEntity
  8
0
  6
CONTINUOUS
100
AcDbLine
 10
156.0743420205449
 20
262.0700649067158
 30
0.0
 11
156.3843420205448
 21
262.0700649067158
 31
0.0
  0
LINE
  5
8A9
330
1F
100
AcDbEntity
  8
0
  6
CONTINUOUS
100
AcDbLine
 10
156.0743420205449
 20
262.5700649067161
 30
0.0
 11
156.3843420205448
 21
262.5700649067161
 31
0.0
  0
LINE
  5
8AA
330
1F
100
AcDbEntity
  8
0
  6
CONTINUOUS
100
AcDbLine
 10
156.0743420205449
 20
264.5700649067161
 30
0.0
 11
156.3843420205448
 21
264.5700649067157
 31
0.0
  0
LINE
  5
8AB
330
1F
100
AcDbEntity
  8
0
  6
CONTINUOUS
100
AcDbLine
 10
156.0743420205449
 20
265.0700649067159
 30
0.0
 11
156.3843420205448
 21
265.0700649067159
 31
0.0
  0
LINE
  5
8AC
330
1F
100
AcDbEntity
  8
0
  6
CONTINUOUS
100
AcDbLine
 10
158.8543420205436
 20
260.6806649067158
 30
0.0
 11
158.8543420205436
 21
261.9594649067161
 31
0.0
  0
LINE
  5
8AD
330
1F
100
AcDbEntity
  8
0
100
AcDbLine
 10
158.5543420205436
 20
260.6806649067158
 30
0.0
 11
159.1543420205436
 21
260.6806649067158
 31
0.0
  0
LINE
  5
8AE
330
1F
100
AcDbEntity
  8
0
100
AcDbLine
 10
158.5543420205436
 20
261.9594649067161
 30
0.0
 11
159.1543420205436
 21
261.9594649067161
 31
0.0
  0
LINE
  5
8AF
330
1F
100
AcDbEntity
  8
0
  6
CONTINUOUS
100
AcDbLine
 10
157.9843420205436
 20
260.780064906716
 30
0.0
 11
157.9843420205436
 21
259.8600649067158
 31
0.0
  0
LINE
  5
8B0
330
1F
100
AcDbEntity
  8
0
  6
CONTINUOUS
100
AcDbLine
 10
157.9843420205436
 20
262.780064906716
 30
0.0
 11
157.9843420205436
 21
261.8600649067158
 31
0.0
  0
LINE
  5
8B1
330
1F
100
AcDbEntity
  8
0
  6
CONTINUOUS
100
AcDbLine
 10
161.7143420205426
 20
259.8600649067158
 30
0.0
 11
162.1143420205436
 21
259.8600649067158
 31
0.0
  0
LINE
  5
8B2
330
1F
100
AcDbEntity
  8
0
  6
CONTINUOUS
100
AcDbLine
 10
161.7143420205426
 20
260.780064906716
 30
0.0
 11
162.1143420205436
 21
260.780064906716
 31
0.0
  0
LINE
  5
8B3
330
1F
100
AcDbEntity
  8
0
  6
CONTINUOUS
100
AcDbLine
 10
161.7143420205426
 20
261.8600649067158
 30
0.0
 11
162.1143420205436
 21
261.8600649067158
 31
0.0
  0
LINE
  5
8B4
330
1F
100
AcDbEntity
  8
0
  6
CONTINUOUS
100
AcDbLine
 10
161.7143420205426
 20
262.780064906716
 30
0.0
 11
162.1143420205436
 21
262.780064906716
 31
0.0
  0
LINE
  5
8B5
330
1F
100
AcDbEntity
  8
0
  6
CONTINUOUS
100
AcDbLine
 10
161.7143420205426
 20
264.3600649067158
 30
0.0
 11
162.1143420205436
 21
264.3600649067158
 31
0.0
  0
LINE
  5
8B6
330
1F
100
AcDbEntity
  8
0
  6
CONTINUOUS
100
AcDbLine
 10
161.7143420205426
 20
260.780064906716
 30
0.0
 11
161.7143420205426
 21
259.8600649067158
 31
0.0
  0
LINE
  5
8B7
330
1F
100
AcDbEntity
  8
0
  6
CONTINUOUS
100
AcDbLine
 10
161.7143420205426
 20
262.780064906716
 30
0.0
 11
161.7143420205426
 21
261.8600649067158
 31
0.0
  0
ARC
  5
8B8
330
1F
100
AcDbEntity
  8
0
100
AcDbCircle
 10
159.3543420205437
 20
267.7700649067156
 30
0.0
 40
0.5
100
AcDbArc
 50
90.0
 51
180.0
  0
ARC
  5
8B9
330
1F
100
AcDbEntity
  8
0
  6
CONTINUOUS
100
AcDbCircle
 10
159.3543420205437
 20
267.7700649067156
 30
0.0
 40
0.2
100
AcDbArc
 50
89.99999999998697
 51
180.0
  0
LINE
  5
8BA
330
1F
100
AcDbEntity
  8
0
  6
CONTINUOUS
100
AcDbLine
 10
159.9149020205435
 20
267.9700649067157
 30
0.0
 11
159.3543420205437
 21
267.9700649067157
 31
0.0
  0
LINE
  5
8BB
330
1F
100
AcDbEntity
  8
0
100
AcDbLine
 10
159.3543420205437
 20
268.2700649067156
 30
0.0
 11
159.9149020205435
 21
268.2700649067156
 31
0.0
  0
LINE
  5
8BC
330
1F
100
AcDbEntity
  8
0
100
AcDbLine
 10
158.8543420205436
 20
267.7700649067156
 30
0.0
 11
158.8543420205436
 21
267.2094649067158
 31
0.0
  0
LINE
  5
8BD
330
1F
100
AcDbEntity
  8
0
100
AcDbLine
 10
159.5543420205436
 20
267.2094649067158
 30
0.0
 11
158.5543420205436
 21
267.2094649067158
 31
0.0
  0
LINE
  5
8BE
330
1F
100
AcDbEntity
  8
0
100
AcDbLine
 10
159.9149020205435
 20
267.5700649067163
 30
0.0
 11
159.9149020205435
 21
268.5700649067159
 31
0.0
  0
LINE
  5
8BF
330
1F
100
AcDbEntity
  8
0
  6
CONTINUOUS
100
AcDbLine
 10
156.0743420205449
 20
267.6400649067157
 30
0.0
 11
156.3843420205448
 21
267.6400649067157
 31
0.0
  0
LINE
  5
8C0
330
1F
100
AcDbEntity
  8
0
  6
CONTINUOUS
100
AcDbLine
 10
156.0743420205449
 20
268.1400649067155
 30
0.0
 11
156.3843420205448
 21
268.1400649067155
 31
0.0
  0
LINE
  5
8C1
330
1F
100
AcDbEntity
  8
0
  6
CONTINUOUS
100
AcDbLine
 10
157.9843420205436
 20
268.5412794816146
 30
0.0
 11
159.0922843505367
 21
268.1958885528309
 31
0.0
  0
LINE
  5
8C2
330
1F
100
AcDbEntity
  8
0
  6
CONTINUOUS
100
AcDbLine
 10
156.3843420205448
 20
269.040064906716
 30
0.0
 11
156.0743420205449
 21
268.8951705931843
 31
0.0
  0
LINE
  5
8C3
330
1F
100
AcDbEntity
  8
0
  6
CONTINUOUS
100
AcDbLine
 10
158.5543420205436
 20
265.7800649067159
 30
0.0
 11
157.9843420205436
 21
265.7800649067159
 31
0.0
  0
LINE
  5
8C4
330
1F
100
AcDbEntity
  8
0
  6
CONTINUOUS
100
AcDbLine
 10
157.9843420205436
 20
269.040064906716
 30
0.0
 11
157.9843420205436
 21
266.7400649067158
 31
0.0
  0
LINE
  5
8C5
330
1F
100
AcDbEntity
  8
0
  6
CONTINUOUS
100
AcDbLine
 10
156.3843420205448
 20
269.040064906716
 30
0.0
 11
156.3843420205448
 21
266.7400649067158
 31
0.0
  0
LINE
  5
8C6
330
1F
100
AcDbEntity
  8
0
  6
CONTINUOUS
100
AcDbLine
 10
159.1543420205436
 20
267.7700649067156
 30
0.0
 11
159.1543420205436
 21
267.2094649067158
 31
0.0
  0
LINE
  5
8C7
330
1F
100
AcDbEntity
  8
0
100
AcDbLine
 10
162.1143420205436
 20
266.290064906716
 30
0.0
 11
163.3943420205428
 21
266.290064906716
 31
0.0
  0
LINE
  5
8C8
330
1F
100
AcDbEntity
  8
0
  6
CONTINUOUS
100
AcDbLine
 10
162.1143420205436
 20
265.280064906716
 30
0.0
 11
161.7143420205426
 21
265.280064906716
 31
0.0
  0
LINE
  5
8C9
330
1F
100
AcDbEntity
  8
0
100
AcDbLine
 10
173.8743420205436
 20
211.6571264683178
 30
0.0
 11
173.8743420205436
 21
225.6571264683179
 31
0.0
  0
LINE
  5
8CA
330
1F
100
AcDbEntity
  8
外形
100
AcDbLine
 10
168.3743420205436
 20
211.1331394683179
 30
0.0
 11
168.3743420205436
 21
190.7331394683179
 31
0.0
  0
LINE
  5
8CB
330
1F
100
AcDbEntity
  8
0
100
AcDbLine
 10
173.8743420205436
 20
210.0771118092648
 30
0.0
 11
173.8743420205436
 21
192.1771118092648
 31
0.0
  0
LINE
  5
8CC
330
1F
100
AcDbEntity
  8
0
100
AcDbLine
 10
168.8743420205436
 20
210.0771118092648
 30
0.0
 11
168.8743420205436
 21
192.1771118092648
 31
0.0
  0
LINE
  5
8CD
330
1F
100
AcDbEntity
  8
0
100
AcDbLine
 10
168.3743420205436
 20
211.1331394683179
 30
0.0
 11
168.3743420205436
 21
190.7331394683179
 31
0.0
  0
LINE
  5
8CE
330
1F
100
AcDbEntity
  8
外形
100
AcDbLine
 10
166.3743420205436
 20
185.0331394683176
 30
0.0
 11
166.3743420205436
 21
190.7331394683179
 31
0.0
  0
LINE
  5
8CF
330
1F
100
AcDbEntity
  8
0
100
AcDbLine
 10
173.8743420205436
 20
190.2531384683173
 30
0.0
 11
173.8743420205436
 21
185.2531384683175
 31
0.0
  0
LINE
  5
8D0
330
1F
100
AcDbEntity
  8
0
100
AcDbLine
 10
166.3743420205436
 20
185.033139468318
 30
0.0
 11
166.3743420205436
 21
190.7331394683179
 31
0.0
  0
LINE
  5
8D1
330
1F
100
AcDbEntity
  8
0
100
AcDbLine
 10
166.8743420205436
 20
185.2531384683175
 30
0.0
 11
166.8743420205436
 21
190.2531384683173
 31
0.0
  0
LINE
  5
8D2
330
1F
100
AcDbEntity
  8
0
100
AcDbLine
 10
173.8743420205436
 20
184.5031384683158
 30
0.0
 11
171.8743420205436
 21
184.5031384683158
 31
0.0
  0
LINE
  5
8D3
330
1F
100
AcDbEntity
  8
0
100
AcDbLine
 10
172.2743420205446
 20
180.9540859678168
 30
0.0
 11
173.7213463712615
 21
180.9540859678168
 31
0.0
  0
LINE
  5
8D4
330
1F
100
AcDbEntity
  8
0
100
AcDbLine
 10
166.8743420205436
 20
185.2531384683175
 30
0.0
 11
173.8743420205436
 21
185.2531384683175
 31
0.0
  0
ARC
  5
8D5
330
1F
100
AcDbEntity
  8
0
100
AcDbCircle
 10
171.4743420205426
 20
183.6031384683179
 30
0.0
 40
0.4
100
AcDbArc
 50
0.0
 51
90.0
  0
LINE
  5
8D6
330
1F
100
AcDbEntity
  8
0
100
AcDbLine
 10
168.5743420205437
 20
180.4031384683171
 30
0.0
 11
169.0743420205436
 21
180.4031384683171
 31
0.0
  0
LINE
  5
8D7
330
1F
100
AcDbEntity
  8
0
100
AcDbLine
 10
168.5743420205437
 20
178.4031384683171
 30
0.0
 11
169.0743420205436
 21
178.4031384683171
 31
0.0
  0
LINE
  5
8D8
330
1F
100
AcDbEntity
  8
0
100
AcDbLine
 10
168.5743420205437
 20
180.9031384683171
 30
0.0
 11
169.0743420205436
 21
180.9031384683171
 31
0.0
  0
LINE
  5
8D9
330
1F
100
AcDbEntity
  8
0
100
AcDbLine
 10
168.5743420205437
 20
182.9031384683172
 30
0.0
 11
169.0743420205436
 21
182.9031384683172
 31
0.0
  0
LINE
  5
8DA
330
1F
100
AcDbEntity
  8
0
100
AcDbLine
 10
168.5743420205437
 20
178.4031384683171
 30
0.0
 11
168.5743420205437
 21
180.4031384683171
 31
0.0
  0
LINE
  5
8DB
330
1F
100
AcDbEntity
  8
0
100
AcDbLine
 10
168.5743420205437
 20
180.9031384683171
 30
0.0
 11
168.5743420205437
 21
182.9031384683172
 31
0.0
  0
LINE
  5
8DC
330
1F
100
AcDbEntity
  8
0
100
AcDbLine
 10
164.5743420205437
 20
180.9031384683171
 30
0.0
 11
164.5743420205437
 21
182.9031384683172
 31
0.0
  0
LINE
  5
8DD
330
1F
100
AcDbEntity
  8
0
100
AcDbLine
 10
164.5743420205437
 20
182.9031384683172
 30
0.0
 11
165.0743420205436
 21
182.9031384683172
 31
0.0
  0
LINE
  5
8DE
330
1F
100
AcDbEntity
  8
0
100
AcDbLine
 10
164.5743420205437
 20
180.9031384683171
 30
0.0
 11
165.0743420205436
 21
180.9031384683171
 31
0.0
  0
LINE
  5
8DF
330
1F
100
AcDbEntity
  8
0
100
AcDbLine
 10
165.0743420205436
 20
180.9031384683171
 30
0.0
 11
165.0743420205436
 21
182.9031384683172
 31
0.0
  0
LINE
  5
8E0
330
1F
100
AcDbEntity
  8
0
100
AcDbLine
 10
165.0743420205436
 20
178.4031384683171
 30
0.0
 11
165.0743420205436
 21
180.4031384683171
 31
0.0
  0
LINE
  5
8E1
330
1F
100
AcDbEntity
  8
0
100
AcDbLine
 10
164.5743420205437
 20
178.4031384683171
 30
0.0
 11
165.0743420205436
 21
178.4031384683171
 31
0.0
  0
LINE
  5
8E2
330
1F
100
AcDbEntity
  8
0
100
AcDbLine
 10
164.5743420205437
 20
180.4031384683171
 30
0.0
 11
165.0743420205436
 21
180.4031384683171
 31
0.0
  0
LINE
  5
8E3
330
1F
100
AcDbEntity
  8
0
100
AcDbLine
 10
164.5743420205437
 20
178.4031384683171
 30
0.0
 11
164.5743420205437
 21
180.4031384683171
 31
0.0
  0
LINE
  5
8E4
330
1F
100
AcDbEntity
  8
0
100
AcDbLine
 10
169.0743420205436
 20
178.4031384683171
 30
0.0
 11
169.0743420205436
 21
180.4031384683171
 31
0.0
  0
LINE
  5
8E5
330
1F
100
AcDbEntity
  8
0
100
AcDbLine
 10
169.0743420205436
 20
180.9031384683171
 30
0.0
 11
169.0743420205436
 21
182.9031384683172
 31
0.0
  0
LINE
  5
8E6
330
1F
100
AcDbEntity
  8
外形
100
AcDbLine
 10
166.3743420205436
 20
185.0331394683176
 30
0.0
 11
166.3743420205436
 21
184.9331394683179
 31
0.0
  0
LINE
  5
8E7
330
1F
100
AcDbEntity
  8
0
100
AcDbLine
 10
171.2600990205436
 20
189.2531384683173
 30
0.0
 11
171.2600990205436
 21
186.2531384683173
 31
0.0
  0
LINE
  5
8E8
330
1F
100
AcDbEntity
  8
0
100
AcDbLine
 10
169.2951770205436
 20
189.2531384683173
 30
0.0
 11
169.2951770205436
 21
186.2531384683173
 31
0.0
  0
LINE
  5
8E9
330
1F
100
AcDbEntity
  8
0
100
AcDbLine
 10
169.2951770205436
 20
189.2531384683173
 30
0.0
 11
171.2600990205436
 21
189.2531384683173
 31
0.0
  0
LINE
  5
8EA
330
1F
100
AcDbEntity
  8
0
100
AcDbLine
 10
169.2951770205436
 20
186.2531384683173
 30
0.0
 11
171.2600990205436
 21
186.2531384683173
 31
0.0
  0
ARC
  5
8EB
330
1F
100
AcDbEntity
  8
0
100
AcDbCircle
 10
171.8743420205436
 20
184.1031384683159
 30
0.0
 40
0.4
100
AcDbArc
 50
0.0
 51
90.0
  0
LINE
  5
8EC
330
1F
100
AcDbEntity
  8
0
100
AcDbLine
 10
173.7213463712615
 20
180.9540859678168
 30
0.0
 11
173.8743420205436
 21
181.1070816170984
 31
0.0
  0
LINE
  5
8ED
330
1F
100
AcDbEntity
  8
0
100
AcDbLine
 10
173.8743420205436
 20
184.5031384683158
 30
0.0
 11
173.8743420205436
 21
185.2531384683175
 31
0.0
  0
LINE
  5
8EE
330
1F
100
AcDbEntity
  8
0
100
AcDbLine
 10
168.8743420205436
 20
192.1771118092648
 30
0.0
 11
173.8743420205436
 21
192.1771118092648
 31
0.0
  0
LINE
  5
8EF
330
1F
100
AcDbEntity
  8
0
100
AcDbLine
 10
168.8743420205436
 20
192.1771118092648
 30
0.0
 11
173.8743420205436
 21
192.1771118092648
 31
0.0
  0
LINE
  5
8F0
330
1F
100
AcDbEntity
  8
0
100
AcDbLine
 10
166.8743420205436
 20
190.2531384683173
 30
0.0
 11
173.8743420205436
 21
190.2531384683173
 31
0.0
  0
LINE
  5
8F1
330
1F
100
AcDbEntity
  8
外形
100
AcDbLine
 10
166.3743420205436
 20
190.7331394683179
 30
0.0
 11
168.3743420205436
 21
190.7331394683179
 31
0.0
  0
LINE
  5
8F2
330
1F
100
AcDbEntity
  8
0
100
AcDbLine
 10
166.3743420205436
 20
190.7331394683179
 30
0.0
 11
168.3743420205436
 21
190.7331394683179
 31
0.0
  0
LINE
  5
8F3
330
1F
100
AcDbEntity
  8
0
100
AcDbLine
 10
170.1243420205436
 20
194.2071264683181
 30
0.0
 11
170.6243420205448
 21
194.2071264683181
 31
0.0
  0
LINE
  5
8F4
330
1F
100
AcDbEntity
  8
0
100
AcDbLine
 10
170.2843420205446
 20
194.0471784683177
 30
0.0
 11
170.3743420205436
 21
194.0471784683177
 31
0.0
  0
LINE
  5
8F5
330
1F
100
AcDbEntity
  8
0
100
AcDbLine
 10
170.4643420205435
 20
194.0471784683177
 30
0.0
 11
170.3743420205436
 21
194.0471784683177
 31
0.0
  0
LINE
  5
8F6
330
1F
100
AcDbEntity
  8
0
100
AcDbLine
 10
170.2843420205446
 20
193.8670744683177
 30
0.0
 11
170.3743420205436
 21
193.8670744683177
 31
0.0
  0
LINE
  5
8F7
330
1F
100
AcDbEntity
  8
0
100
AcDbLine
 10
170.2843420205446
 20
193.8670744683177
 30
0.0
 11
170.3743420205436
 21
193.8670744683177
 31
0.0
  0
LINE
  5
8F8
330
1F
100
AcDbEntity
  8
0
100
AcDbLine
 10
170.4643420205435
 20
193.8670744683177
 30
0.0
 11
170.3743420205436
 21
193.8670744683177
 31
0.0
  0
LINE
  5
8F9
330
1F
100
AcDbEntity
  8
0
100
AcDbLine
 10
170.4643420205435
 20
193.8670744683177
 30
0.0
 11
170.3743420205436
 21
193.8670744683177
 31
0.0
  0
LINE
  5
8FA
330
1F
100
AcDbEntity
  8
0
100
AcDbLine
 10
170.1243420205436
 20
193.7071264683183
 30
0.0
 11
170.6243420205448
 21
193.7071264683183
 31
0.0
  0
LINE
  5
8FB
330
1F
100
AcDbEntity
  8
0
100
AcDbLine
 10
170.2843420205446
 20
194.0471784683177
 30
0.0
 11
170.2843420205446
 21
193.8670744683177
 31
0.0
  0
LINE
  5
8FC
330
1F
100
AcDbEntity
  8
0
100
AcDbLine
 10
170.4643420205435
 20
194.0471784683177
 30
0.0
 11
170.4643420205435
 21
193.8670744683177
 31
0.0
  0
LINE
  5
8FD
330
1F
100
AcDbEntity
  8
0
100
AcDbLine
 10
170.1243420205436
 20
194.2071264683181
 30
0.0
 11
170.1243420205436
 21
193.7071264683183
 31
0.0
  0
LINE
  5
8FE
330
1F
100
AcDbEntity
  8
0
100
AcDbLine
 10
170.6243420205448
 20
193.7071264683183
 30
0.0
 11
170.6243420205448
 21
194.2071264683181
 31
0.0
  0
LINE
  5
8FF
330
1F
100
AcDbEntity
  8
0
100
AcDbLine
 10
172.4643420205435
 20
194.0471784683177
 30
0.0
 11
172.3743420205436
 21
194.0471784683177
 31
0.0
  0
LINE
  5
900
330
1F
100
AcDbEntity
  8
0
100
AcDbLine
 10
172.2843420205447
 20
194.0471784683177
 30
0.0
 11
172.3743420205436
 21
194.0471784683177
 31
0.0
  0
LINE
  5
901
330
1F
100
AcDbEntity
  8
0
100
AcDbLine
 10
172.1243420205436
 20
194.2071264683181
 30
0.0
 11
172.6243420205436
 21
194.2071264683181
 31
0.0
  0
LINE
  5
902
330
1F
100
AcDbEntity
  8
0
100
AcDbLine
 10
172.4643420205435
 20
193.8670744683177
 30
0.0
 11
172.3743420205436
 21
193.8670744683177
 31
0.0
  0
LINE
  5
903
330
1F
100
AcDbEntity
  8
0
100
AcDbLine
 10
172.4643420205435
 20
193.8670744683177
 30
0.0
 11
172.3743420205436
 21
193.8670744683177
 31
0.0
  0
LINE
  5
904
330
1F
100
AcDbEntity
  8
0
100
AcDbLine
 10
172.2843420205447
 20
193.8670744683177
 30
0.0
 11
172.3743420205436
 21
193.8670744683177
 31
0.0
  0
LINE
  5
905
330
1F
100
AcDbEntity
  8
0
100
AcDbLine
 10
172.2843420205447
 20
193.8670744683177
 30
0.0
 11
172.3743420205436
 21
193.8670744683177
 31
0.0
  0
LINE
  5
906
330
1F
100
AcDbEntity
  8
0
100
AcDbLine
 10
172.1243420205436
 20
193.7071264683183
 30
0.0
 11
172.6243420205436
 21
193.7071264683183
 31
0.0
  0
LINE
  5
907
330
1F
100
AcDbEntity
  8
0
100
AcDbLine
 10
172.4643420205435
 20
194.0471784683177
 30
0.0
 11
172.4643420205435
 21
193.8670744683177
 31
0.0
  0
LINE
  5
908
330
1F
100
AcDbEntity
  8
0
100
AcDbLine
 10
172.2843420205447
 20
194.0471784683177
 30
0.0
 11
172.2843420205447
 21
193.8670744683177
 31
0.0
  0
LINE
  5
909
330
1F
100
AcDbEntity
  8
0
100
AcDbLine
 10
172.6243420205436
 20
193.7071264683183
 30
0.0
 11
172.6243420205436
 21
194.2071264683181
 31
0.0
  0
LINE
  5
90A
330
1F
100
AcDbEntity
  8
0
100
AcDbLine
 10
172.1243420205436
 20
194.2071264683181
 30
0.0
 11
172.1243420205436
 21
193.7071264683183
 31
0.0
  0
LINE
  5
90B
330
1F
100
AcDbEntity
  8
0
100
AcDbLine
 10
170.2843420205446
 20
199.8670744683177
 30
0.0
 11
170.3743420205436
 21
199.8670744683177
 31
0.0
  0
LINE
  5
90C
330
1F
100
AcDbEntity
  8
0
100
AcDbLine
 10
170.2843420205446
 20
199.8670744683177
 30
0.0
 11
170.3743420205436
 21
199.8670744683177
 31
0.0
  0
LINE
  5
90D
330
1F
100
AcDbEntity
  8
0
100
AcDbLine
 10
170.2843420205446
 20
200.0471784683177
 30
0.0
 11
170.3743420205436
 21
200.0471784683177
 31
0.0
  0
LINE
  5
90E
330
1F
100
AcDbEntity
  8
0
100
AcDbLine
 10
170.4643420205435
 20
200.0471784683177
 30
0.0
 11
170.3743420205436
 21
200.0471784683177
 31
0.0
  0
LINE
  5
90F
330
1F
100
AcDbEntity
  8
0
100
AcDbLine
 10
170.4643420205435
 20
199.8670744683177
 30
0.0
 11
170.3743420205436
 21
199.8670744683177
 31
0.0
  0
LINE
  5
910
330
1F
100
AcDbEntity
  8
0
100
AcDbLine
 10
170.4643420205435
 20
199.8670744683177
 30
0.0
 11
170.3743420205436
 21
199.8670744683177
 31
0.0
  0
LINE
  5
911
330
1F
100
AcDbEntity
  8
0
100
AcDbLine
 10
170.4643420205435
 20
200.0471784683177
 30
0.0
 11
170.4643420205435
 21
199.8670744683177
 31
0.0
  0
LINE
  5
912
330
1F
100
AcDbEntity
  8
0
100
AcDbLine
 10
170.1243420205436
 20
199.7071264683181
 30
0.0
 11
170.6243420205448
 21
199.7071264683181
 31
0.0
  0
LINE
  5
913
330
1F
100
AcDbEntity
  8
0
100
AcDbLine
 10
170.1243420205436
 20
200.2071264683181
 30
0.0
 11
170.1243420205436
 21
199.7071264683181
 31
0.0
  0
LINE
  5
914
330
1F
100
AcDbEntity
  8
0
100
AcDbLine
 10
170.6243420205448
 20
199.7071264683181
 30
0.0
 11
170.6243420205448
 21
200.2071264683181
 31
0.0
  0
LINE
  5
915
330
1F
100
AcDbEntity
  8
0
100
AcDbLine
 10
170.1243420205436
 20
200.2071264683181
 30
0.0
 11
170.6243420205448
 21
200.2071264683181
 31
0.0
  0
LINE
  5
916
330
1F
100
AcDbEntity
  8
0
100
AcDbLine
 10
170.2843420205446
 20
200.0471784683177
 30
0.0
 11
170.2843420205446
 21
199.8670744683177
 31
0.0
  0
LINE
  5
917
330
1F
100
AcDbEntity
  8
0
100
AcDbLine
 10
172.4643420205435
 20
200.0471784683177
 30
0.0
 11
172.4643420205435
 21
199.8670744683177
 31
0.0
  0
LINE
  5
918
330
1F
100
AcDbEntity
  8
0
100
AcDbLine
 10
172.4643420205435
 20
199.8670744683177
 30
0.0
 11
172.3743420205436
 21
199.8670744683177
 31
0.0
  0
LINE
  5
919
330
1F
100
AcDbEntity
  8
0
100
AcDbLine
 10
172.4643420205435
 20
199.8670744683177
 30
0.0
 11
172.3743420205436
 21
199.8670744683177
 31
0.0
  0
LINE
  5
91A
330
1F
100
AcDbEntity
  8
0
100
AcDbLine
 10
172.4643420205435
 20
200.0471784683177
 30
0.0
 11
172.3743420205436
 21
200.0471784683177
 31
0.0
  0
LINE
  5
91B
330
1F
100
AcDbEntity
  8
0
100
AcDbLine
 10
172.2843420205447
 20
200.0471784683177
 30
0.0
 11
172.3743420205436
 21
200.0471784683177
 31
0.0
  0
LINE
  5
91C
330
1F
100
AcDbEntity
  8
0
100
AcDbLine
 10
172.2843420205447
 20
199.8670744683177
 30
0.0
 11
172.3743420205436
 21
199.8670744683177
 31
0.0
  0
LINE
  5
91D
330
1F
100
AcDbEntity
  8
0
100
AcDbLine
 10
172.2843420205447
 20
199.8670744683177
 30
0.0
 11
172.3743420205436
 21
199.8670744683177
 31
0.0
  0
LINE
  5
91E
330
1F
100
AcDbEntity
  8
0
100
AcDbLine
 10
172.2843420205447
 20
200.0471784683177
 30
0.0
 11
172.2843420205447
 21
199.8670744683177
 31
0.0
  0
LINE
  5
91F
330
1F
100
AcDbEntity
  8
0
100
AcDbLine
 10
172.6243420205436
 20
199.7071264683181
 30
0.0
 11
172.6243420205436
 21
200.2071264683181
 31
0.0
  0
LINE
  5
920
330
1F
100
AcDbEntity
  8
0
100
AcDbLine
 10
172.1243420205436
 20
200.2071264683181
 30
0.0
 11
172.1243420205436
 21
199.7071264683181
 31
0.0
  0
LINE
  5
921
330
1F
100
AcDbEntity
  8
0
100
AcDbLine
 10
172.1243420205436
 20
200.2071264683181
 30
0.0
 11
172.6243420205436
 21
200.2071264683181
 31
0.0
  0
LINE
  5
922
330
1F
100
AcDbEntity
  8
0
100
AcDbLine
 10
172.1243420205436
 20
199.7071264683181
 30
0.0
 11
172.6243420205436
 21
199.7071264683181
 31
0.0
  0
LINE
  5
923
330
1F
100
AcDbEntity
  8
0
100
AcDbLine
 10
170.6243420205448
 20
195.7071264683181
 30
0.0
 11
170.6243420205448
 21
196.2071264683181
 31
0.0
  0
LINE
  5
924
330
1F
100
AcDbEntity
  8
0
100
AcDbLine
 10
170.1243420205436
 20
196.2071264683181
 30
0.0
 11
170.1243420205436
 21
195.7071264683181
 31
0.0
  0
LINE
  5
925
330
1F
100
AcDbEntity
  8
0
100
AcDbLine
 10
170.1243420205436
 20
195.7071264683181
 30
0.0
 11
170.6243420205448
 21
195.7071264683181
 31
0.0
  0
LINE
  5
926
330
1F
100
AcDbEntity
  8
0
100
AcDbLine
 10
170.4643420205435
 20
196.0471784683177
 30
0.0
 11
170.3743420205436
 21
196.0471784683177
 31
0.0
  0
LINE
  5
927
330
1F
100
AcDbEntity
  8
0
100
AcDbLine
 10
170.2843420205446
 20
196.0471784683177
 30
0.0
 11
170.3743420205436
 21
196.0471784683177
 31
0.0
  0
LINE
  5
928
330
1F
100
AcDbEntity
  8
0
100
AcDbLine
 10
170.1243420205436
 20
196.2071264683181
 30
0.0
 11
170.6243420205448
 21
196.2071264683181
 31
0.0
  0
LINE
  5
929
330
1F
100
AcDbEntity
  8
0
100
AcDbLine
 10
170.4643420205435
 20
195.8670744683177
 30
0.0
 11
170.3743420205436
 21
195.8670744683177
 31
0.0
  0
LINE
  5
92A
330
1F
100
AcDbEntity
  8
0
100
AcDbLine
 10
170.4643420205435
 20
195.8670744683177
 30
0.0
 11
170.3743420205436
 21
195.8670744683177
 31
0.0
  0
LINE
  5
92B
330
1F
100
AcDbEntity
  8
0
100
AcDbLine
 10
170.2843420205446
 20
195.8670744683177
 30
0.0
 11
170.3743420205436
 21
195.8670744683177
 31
0.0
  0
LINE
  5
92C
330
1F
100
AcDbEntity
  8
0
100
AcDbLine
 10
170.2843420205446
 20
195.8670744683177
 30
0.0
 11
170.3743420205436
 21
195.8670744683177
 31
0.0
  0
LINE
  5
92D
330
1F
100
AcDbEntity
  8
0
100
AcDbLine
 10
170.4643420205435
 20
196.0471784683177
 30
0.0
 11
170.4643420205435
 21
195.8670744683177
 31
0.0
  0
LINE
  5
92E
330
1F
100
AcDbEntity
  8
0
100
AcDbLine
 10
170.2843420205446
 20
196.0471784683177
 30
0.0
 11
170.2843420205446
 21
195.8670744683177
 31
0.0
  0
LINE
  5
92F
330
1F
100
AcDbEntity
  8
0
100
AcDbLine
 10
170.6243420205448
 20
197.7071264683181
 30
0.0
 11
170.6243420205448
 21
198.2071264683181
 31
0.0
  0
LINE
  5
930
330
1F
100
AcDbEntity
  8
0
100
AcDbLine
 10
170.1243420205436
 20
198.2071264683181
 30
0.0
 11
170.1243420205436
 21
197.7071264683181
 31
0.0
  0
LINE
  5
931
330
1F
100
AcDbEntity
  8
0
100
AcDbLine
 10
170.1243420205436
 20
197.7071264683181
 30
0.0
 11
170.6243420205448
 21
197.7071264683181
 31
0.0
  0
LINE
  5
932
330
1F
100
AcDbEntity
  8
0
100
AcDbLine
 10
170.4643420205435
 20
198.0471784683177
 30
0.0
 11
170.3743420205436
 21
198.0471784683177
 31
0.0
  0
LINE
  5
933
330
1F
100
AcDbEntity
  8
0
100
AcDbLine
 10
170.2843420205446
 20
198.0471784683177
 30
0.0
 11
170.3743420205436
 21
198.0471784683177
 31
0.0
  0
LINE
  5
934
330
1F
100
AcDbEntity
  8
0
100
AcDbLine
 10
170.1243420205436
 20
198.2071264683181
 30
0.0
 11
170.6243420205448
 21
198.2071264683181
 31
0.0
  0
LINE
  5
935
330
1F
100
AcDbEntity
  8
0
100
AcDbLine
 10
170.4643420205435
 20
197.8670744683178
 30
0.0
 11
170.3743420205436
 21
197.8670744683178
 31
0.0
  0
LINE
  5
936
330
1F
100
AcDbEntity
  8
0
100
AcDbLine
 10
170.4643420205435
 20
197.8670744683178
 30
0.0
 11
170.3743420205436
 21
197.8670744683178
 31
0.0
  0
LINE
  5
937
330
1F
100
AcDbEntity
  8
0
100
AcDbLine
 10
170.2843420205446
 20
197.8670744683178
 30
0.0
 11
170.3743420205436
 21
197.8670744683178
 31
0.0
  0
LINE
  5
938
330
1F
100
AcDbEntity
  8
0
100
AcDbLine
 10
170.2843420205446
 20
197.8670744683178
 30
0.0
 11
170.3743420205436
 21
197.8670744683178
 31
0.0
  0
LINE
  5
939
330
1F
100
AcDbEntity
  8
0
100
AcDbLine
 10
170.4643420205435
 20
198.0471784683177
 30
0.0
 11
170.4643420205435
 21
197.8670744683178
 31
0.0
  0
LINE
  5
93A
330
1F
100
AcDbEntity
  8
0
100
AcDbLine
 10
170.2843420205446
 20
198.0471784683177
 30
0.0
 11
170.2843420205446
 21
197.8670744683178
 31
0.0
  0
LINE
  5
93B
330
1F
100
AcDbEntity
  8
0
100
AcDbLine
 10
172.6243420205436
 20
195.7071264683181
 30
0.0
 11
172.6243420205436
 21
196.2071264683181
 31
0.0
  0
LINE
  5
93C
330
1F
100
AcDbEntity
  8
0
100
AcDbLine
 10
172.1243420205436
 20
196.2071264683181
 30
0.0
 11
172.1243420205436
 21
195.7071264683181
 31
0.0
  0
LINE
  5
93D
330
1F
100
AcDbEntity
  8
0
100
AcDbLine
 10
172.1243420205436
 20
195.7071264683181
 30
0.0
 11
172.6243420205436
 21
195.7071264683181
 31
0.0
  0
LINE
  5
93E
330
1F
100
AcDbEntity
  8
0
100
AcDbLine
 10
172.2843420205447
 20
196.0471784683177
 30
0.0
 11
172.3743420205436
 21
196.0471784683177
 31
0.0
  0
LINE
  5
93F
330
1F
100
AcDbEntity
  8
0
100
AcDbLine
 10
172.4643420205435
 20
196.0471784683177
 30
0.0
 11
172.3743420205436
 21
196.0471784683177
 31
0.0
  0
LINE
  5
940
330
1F
100
AcDbEntity
  8
0
100
AcDbLine
 10
172.1243420205436
 20
196.2071264683181
 30
0.0
 11
172.6243420205436
 21
196.2071264683181
 31
0.0
  0
LINE
  5
941
330
1F
100
AcDbEntity
  8
0
100
AcDbLine
 10
172.2843420205447
 20
195.8670744683177
 30
0.0
 11
172.3743420205436
 21
195.8670744683177
 31
0.0
  0
LINE
  5
942
330
1F
100
AcDbEntity
  8
0
100
AcDbLine
 10
172.2843420205447
 20
195.8670744683177
 30
0.0
 11
172.3743420205436
 21
195.8670744683177
 31
0.0
  0
LINE
  5
943
330
1F
100
AcDbEntity
  8
0
100
AcDbLine
 10
172.4643420205435
 20
195.8670744683177
 30
0.0
 11
172.3743420205436
 21
195.8670744683177
 31
0.0
  0
LINE
  5
944
330
1F
100
AcDbEntity
  8
0
100
AcDbLine
 10
172.4643420205435
 20
195.8670744683177
 30
0.0
 11
172.3743420205436
 21
195.8670744683177
 31
0.0
  0
LINE
  5
945
330
1F
100
AcDbEntity
  8
0
100
AcDbLine
 10
172.2843420205447
 20
196.0471784683177
 30
0.0
 11
172.2843420205447
 21
195.8670744683177
 31
0.0
  0
LINE
  5
946
330
1F
100
AcDbEntity
  8
0
100
AcDbLine
 10
172.4643420205435
 20
196.0471784683177
 30
0.0
 11
172.4643420205435
 21
195.8670744683177
 31
0.0
  0
LINE
  5
947
330
1F
100
AcDbEntity
  8
0
100
AcDbLine
 10
172.6243420205436
 20
197.7071264683181
 30
0.0
 11
172.6243420205436
 21
198.2071264683181
 31
0.0
  0
LINE
  5
948
330
1F
100
AcDbEntity
  8
0
100
AcDbLine
 10
172.1243420205436
 20
198.2071264683181
 30
0.0
 11
172.1243420205436
 21
197.7071264683181
 31
0.0
  0
LINE
  5
949
330
1F
100
AcDbEntity
  8
0
100
AcDbLine
 10
172.1243420205436
 20
197.7071264683181
 30
0.0
 11
172.6243420205436
 21
197.7071264683181
 31
0.0
  0
LINE
  5
94A
330
1F
100
AcDbEntity
  8
0
100
AcDbLine
 10
172.2843420205447
 20
198.0471784683177
 30
0.0
 11
172.3743420205436
 21
198.0471784683177
 31
0.0
  0
LINE
  5
94B
330
1F
100
AcDbEntity
  8
0
100
AcDbLine
 10
172.4643420205435
 20
198.0471784683177
 30
0.0
 11
172.3743420205436
 21
198.0471784683177
 31
0.0
  0
LINE
  5
94C
330
1F
100
AcDbEntity
  8
0
100
AcDbLine
 10
172.1243420205436
 20
198.2071264683181
 30
0.0
 11
172.6243420205436
 21
198.2071264683181
 31
0.0
  0
LINE
  5
94D
330
1F
100
AcDbEntity
  8
0
100
AcDbLine
 10
172.2843420205447
 20
197.8670744683178
 30
0.0
 11
172.3743420205436
 21
197.8670744683178
 31
0.0
  0
LINE
  5
94E
330
1F
100
AcDbEntity
  8
0
100
AcDbLine
 10
172.2843420205447
 20
197.8670744683178
 30
0.0
 11
172.3743420205436
 21
197.8670744683178
 31
0.0
  0
LINE
  5
94F
330
1F
100
AcDbEntity
  8
0
100
AcDbLine
 10
172.4643420205435
 20
197.8670744683178
 30
0.0
 11
172.3743420205436
 21
197.8670744683178
 31
0.0
  0
LINE
  5
950
330
1F
100
AcDbEntity
  8
0
100
AcDbLine
 10
172.4643420205435
 20
197.8670744683178
 30
0.0
 11
172.3743420205436
 21
197.8670744683178
 31
0.0
  0
LINE
  5
951
330
1F
100
AcDbEntity
  8
0
100
AcDbLine
 10
172.2843420205447
 20
198.0471784683177
 30
0.0
 11
172.2843420205447
 21
197.8670744683178
 31
0.0
  0
LINE
  5
952
330
1F
100
AcDbEntity
  8
0
100
AcDbLine
 10
172.4643420205435
 20
198.0471784683177
 30
0.0
 11
172.4643420205435
 21
197.8670744683178
 31
0.0
  0
LINE
  5
953
330
1F
100
AcDbEntity
  8
0
100
AcDbLine
 10
173.8743420205436
 20
190.2531384683173
 30
0.0
 11
173.8743420205436
 21
192.1771118092648
 31
0.0
  0
LINE
  5
954
330
1F
100
AcDbEntity
  8
0
100
AcDbLine
 10
168.8743420205436
 20
210.0771118092648
 30
0.0
 11
173.8743420205436
 21
210.0771118092648
 31
0.0
  0
LINE
  5
955
330
1F
100
AcDbEntity
  8
0
100
AcDbLine
 10
168.8743420205436
 20
210.0771118092648
 30
0.0
 11
173.8743420205436
 21
210.0771118092648
 31
0.0
  0
LINE
  5
956
330
1F
100
AcDbEntity
  8
0
100
AcDbLine
 10
170.1243420205436
 20
206.2071264683181
 30
0.0
 11
170.1243420205436
 21
205.7071264683183
 31
0.0
  0
LINE
  5
957
330
1F
100
AcDbEntity
  8
0
100
AcDbLine
 10
170.6243420205448
 20
205.7071264683183
 30
0.0
 11
170.6243420205448
 21
206.2071264683181
 31
0.0
  0
LINE
  5
958
330
1F
100
AcDbEntity
  8
0
100
AcDbLine
 10
170.2843420205446
 20
206.0471784683177
 30
0.0
 11
170.2843420205446
 21
205.8670744683178
 31
0.0
  0
LINE
  5
959
330
1F
100
AcDbEntity
  8
0
100
AcDbLine
 10
170.2843420205446
 20
205.8670744683178
 30
0.0
 11
170.3743420205436
 21
205.8670744683178
 31
0.0
  0
LINE
  5
95A
330
1F
100
AcDbEntity
  8
0
100
AcDbLine
 10
170.2843420205446
 20
205.8670744683178
 30
0.0
 11
170.3743420205436
 21
205.8670744683178
 31
0.0
  0
LINE
  5
95B
330
1F
100
AcDbEntity
  8
0
100
AcDbLine
 10
170.2843420205446
 20
206.0471784683177
 30
0.0
 11
170.3743420205436
 21
206.0471784683177
 31
0.0
  0
LINE
  5
95C
330
1F
100
AcDbEntity
  8
0
100
AcDbLine
 10
170.4643420205435
 20
206.0471784683177
 30
0.0
 11
170.3743420205436
 21
206.0471784683177
 31
0.0
  0
LINE
  5
95D
330
1F
100
AcDbEntity
  8
0
100
AcDbLine
 10
170.4643420205435
 20
205.8670744683178
 30
0.0
 11
170.3743420205436
 21
205.8670744683178
 31
0.0
  0
LINE
  5
95E
330
1F
100
AcDbEntity
  8
0
100
AcDbLine
 10
170.4643420205435
 20
205.8670744683178
 30
0.0
 11
170.3743420205436
 21
205.8670744683178
 31
0.0
  0
LINE
  5
95F
330
1F
100
AcDbEntity
  8
0
100
AcDbLine
 10
170.4643420205435
 20
206.0471784683177
 30
0.0
 11
170.4643420205435
 21
205.8670744683178
 31
0.0
  0
LINE
  5
960
330
1F
100
AcDbEntity
  8
0
100
AcDbLine
 10
170.1243420205436
 20
206.2071264683181
 30
0.0
 11
170.6243420205448
 21
206.2071264683181
 31
0.0
  0
LINE
  5
961
330
1F
100
AcDbEntity
  8
0
100
AcDbLine
 10
170.1243420205436
 20
205.7071264683183
 30
0.0
 11
170.6243420205448
 21
205.7071264683183
 31
0.0
  0
LINE
  5
962
330
1F
100
AcDbEntity
  8
0
100
AcDbLine
 10
172.4643420205435
 20
206.0471784683177
 30
0.0
 11
172.4643420205435
 21
205.8670744683178
 31
0.0
  0
LINE
  5
963
330
1F
100
AcDbEntity
  8
0
100
AcDbLine
 10
172.4643420205435
 20
205.8670744683178
 30
0.0
 11
172.3743420205436
 21
205.8670744683178
 31
0.0
  0
LINE
  5
964
330
1F
100
AcDbEntity
  8
0
100
AcDbLine
 10
172.4643420205435
 20
205.8670744683178
 30
0.0
 11
172.3743420205436
 21
205.8670744683178
 31
0.0
  0
LINE
  5
965
330
1F
100
AcDbEntity
  8
0
100
AcDbLine
 10
172.4643420205435
 20
206.0471784683177
 30
0.0
 11
172.3743420205436
 21
206.0471784683177
 31
0.0
  0
LINE
  5
966
330
1F
100
AcDbEntity
  8
0
100
AcDbLine
 10
172.2843420205447
 20
206.0471784683177
 30
0.0
 11
172.3743420205436
 21
206.0471784683177
 31
0.0
  0
LINE
  5
967
330
1F
100
AcDbEntity
  8
0
100
AcDbLine
 10
172.2843420205447
 20
205.8670744683178
 30
0.0
 11
172.3743420205436
 21
205.8670744683178
 31
0.0
  0
LINE
  5
968
330
1F
100
AcDbEntity
  8
0
100
AcDbLine
 10
172.2843420205447
 20
205.8670744683178
 30
0.0
 11
172.3743420205436
 21
205.8670744683178
 31
0.0
  0
LINE
  5
969
330
1F
100
AcDbEntity
  8
0
100
AcDbLine
 10
172.2843420205447
 20
206.0471784683177
 30
0.0
 11
172.2843420205447
 21
205.8670744683178
 31
0.0
  0
LINE
  5
96A
330
1F
100
AcDbEntity
  8
0
100
AcDbLine
 10
172.6243420205436
 20
205.7071264683183
 30
0.0
 11
172.6243420205436
 21
206.2071264683181
 31
0.0
  0
LINE
  5
96B
330
1F
100
AcDbEntity
  8
0
100
AcDbLine
 10
172.1243420205436
 20
206.2071264683181
 30
0.0
 11
172.1243420205436
 21
205.7071264683183
 31
0.0
  0
LINE
  5
96C
330
1F
100
AcDbEntity
  8
0
100
AcDbLine
 10
172.1243420205436
 20
205.7071264683183
 30
0.0
 11
172.6243420205436
 21
205.7071264683183
 31
0.0
  0
LINE
  5
96D
330
1F
100
AcDbEntity
  8
0
100
AcDbLine
 10
172.1243420205436
 20
206.2071264683181
 30
0.0
 11
172.6243420205436
 21
206.2071264683181
 31
0.0
  0
LINE
  5
96E
330
1F
100
AcDbEntity
  8
0
100
AcDbLine
 10
170.1243420205436
 20
202.2071264683181
 30
0.0
 11
170.1243420205436
 21
201.7071264683181
 31
0.0
  0
LINE
  5
96F
330
1F
100
AcDbEntity
  8
0
100
AcDbLine
 10
170.6243420205448
 20
201.7071264683181
 30
0.0
 11
170.6243420205448
 21
202.2071264683181
 31
0.0
  0
LINE
  5
970
330
1F
100
AcDbEntity
  8
0
100
AcDbLine
 10
170.2843420205446
 20
202.0471784683177
 30
0.0
 11
170.2843420205446
 21
201.8670744683176
 31
0.0
  0
LINE
  5
971
330
1F
100
AcDbEntity
  8
0
100
AcDbLine
 10
170.2843420205446
 20
201.8670744683176
 30
0.0
 11
170.3743420205436
 21
201.8670744683176
 31
0.0
  0
LINE
  5
972
330
1F
100
AcDbEntity
  8
0
100
AcDbLine
 10
170.2843420205446
 20
201.8670744683176
 30
0.0
 11
170.3743420205436
 21
201.8670744683176
 31
0.0
  0
LINE
  5
973
330
1F
100
AcDbEntity
  8
0
100
AcDbLine
 10
170.2843420205446
 20
202.0471784683177
 30
0.0
 11
170.3743420205436
 21
202.0471784683177
 31
0.0
  0
LINE
  5
974
330
1F
100
AcDbEntity
  8
0
100
AcDbLine
 10
170.4643420205435
 20
202.0471784683177
 30
0.0
 11
170.3743420205436
 21
202.0471784683177
 31
0.0
  0
LINE
  5
975
330
1F
100
AcDbEntity
  8
0
100
AcDbLine
 10
170.4643420205435
 20
201.8670744683176
 30
0.0
 11
170.3743420205436
 21
201.8670744683176
 31
0.0
  0
LINE
  5
976
330
1F
100
AcDbEntity
  8
0
100
AcDbLine
 10
170.4643420205435
 20
201.8670744683176
 30
0.0
 11
170.3743420205436
 21
201.8670744683176
 31
0.0
  0
LINE
  5
977
330
1F
100
AcDbEntity
  8
0
100
AcDbLine
 10
170.4643420205435
 20
202.0471784683177
 30
0.0
 11
170.4643420205435
 21
201.8670744683176
 31
0.0
  0
LINE
  5
978
330
1F
100
AcDbEntity
  8
0
100
AcDbLine
 10
170.1243420205436
 20
202.2071264683181
 30
0.0
 11
170.6243420205448
 21
202.2071264683181
 31
0.0
  0
LINE
  5
979
330
1F
100
AcDbEntity
  8
0
100
AcDbLine
 10
170.1243420205436
 20
201.7071264683181
 30
0.0
 11
170.6243420205448
 21
201.7071264683181
 31
0.0
  0
LINE
  5
97A
330
1F
100
AcDbEntity
  8
0
100
AcDbLine
 10
170.1243420205436
 20
204.2071264683181
 30
0.0
 11
170.1243420205436
 21
203.7071264683183
 31
0.0
  0
LINE
  5
97B
330
1F
100
AcDbEntity
  8
0
100
AcDbLine
 10
170.6243420205448
 20
203.7071264683183
 30
0.0
 11
170.6243420205448
 21
204.2071264683181
 31
0.0
  0
LINE
  5
97C
330
1F
100
AcDbEntity
  8
0
100
AcDbLine
 10
170.2843420205446
 20
204.0471784683177
 30
0.0
 11
170.2843420205446
 21
203.8670744683176
 31
0.0
  0
LINE
  5
97D
330
1F
100
AcDbEntity
  8
0
100
AcDbLine
 10
170.2843420205446
 20
203.8670744683176
 30
0.0
 11
170.3743420205436
 21
203.8670744683176
 31
0.0
  0
LINE
  5
97E
330
1F
100
AcDbEntity
  8
0
100
AcDbLine
 10
170.2843420205446
 20
203.8670744683176
 30
0.0
 11
170.3743420205436
 21
203.8670744683176
 31
0.0
  0
LINE
  5
97F
330
1F
100
AcDbEntity
  8
0
100
AcDbLine
 10
170.2843420205446
 20
204.0471784683177
 30
0.0
 11
170.3743420205436
 21
204.0471784683177
 31
0.0
  0
LINE
  5
980
330
1F
100
AcDbEntity
  8
0
100
AcDbLine
 10
170.4643420205435
 20
204.0471784683177
 30
0.0
 11
170.3743420205436
 21
204.0471784683177
 31
0.0
  0
LINE
  5
981
330
1F
100
AcDbEntity
  8
0
100
AcDbLine
 10
170.4643420205435
 20
203.8670744683176
 30
0.0
 11
170.3743420205436
 21
203.8670744683176
 31
0.0
  0
LINE
  5
982
330
1F
100
AcDbEntity
  8
0
100
AcDbLine
 10
170.4643420205435
 20
203.8670744683176
 30
0.0
 11
170.3743420205436
 21
203.8670744683176
 31
0.0
  0
LINE
  5
983
330
1F
100
AcDbEntity
  8
0
100
AcDbLine
 10
170.4643420205435
 20
204.0471784683177
 30
0.0
 11
170.4643420205435
 21
203.8670744683176
 31
0.0
  0
LINE
  5
984
330
1F
100
AcDbEntity
  8
0
100
AcDbLine
 10
170.1243420205436
 20
204.2071264683181
 30
0.0
 11
170.6243420205448
 21
204.2071264683181
 31
0.0
  0
LINE
  5
985
330
1F
100
AcDbEntity
  8
0
100
AcDbLine
 10
170.1243420205436
 20
203.7071264683183
 30
0.0
 11
170.6243420205448
 21
203.7071264683183
 31
0.0
  0
LINE
  5
986
330
1F
100
AcDbEntity
  8
0
100
AcDbLine
 10
172.4643420205435
 20
202.0471784683177
 30
0.0
 11
172.4643420205435
 21
201.8670744683176
 31
0.0
  0
LINE
  5
987
330
1F
100
AcDbEntity
  8
0
100
AcDbLine
 10
172.4643420205435
 20
201.8670744683176
 30
0.0
 11
172.3743420205436
 21
201.8670744683176
 31
0.0
  0
LINE
  5
988
330
1F
100
AcDbEntity
  8
0
100
AcDbLine
 10
172.4643420205435
 20
201.8670744683176
 30
0.0
 11
172.3743420205436
 21
201.8670744683176
 31
0.0
  0
LINE
  5
989
330
1F
100
AcDbEntity
  8
0
100
AcDbLine
 10
172.4643420205435
 20
202.0471784683177
 30
0.0
 11
172.3743420205436
 21
202.0471784683177
 31
0.0
  0
LINE
  5
98A
330
1F
100
AcDbEntity
  8
0
100
AcDbLine
 10
172.2843420205447
 20
202.0471784683177
 30
0.0
 11
172.3743420205436
 21
202.0471784683177
 31
0.0
  0
LINE
  5
98B
330
1F
100
AcDbEntity
  8
0
100
AcDbLine
 10
172.2843420205447
 20
201.8670744683176
 30
0.0
 11
172.3743420205436
 21
201.8670744683176
 31
0.0
  0
LINE
  5
98C
330
1F
100
AcDbEntity
  8
0
100
AcDbLine
 10
172.2843420205447
 20
201.8670744683176
 30
0.0
 11
172.3743420205436
 21
201.8670744683176
 31
0.0
  0
LINE
  5
98D
330
1F
100
AcDbEntity
  8
0
100
AcDbLine
 10
172.2843420205447
 20
202.0471784683177
 30
0.0
 11
172.2843420205447
 21
201.8670744683176
 31
0.0
  0
LINE
  5
98E
330
1F
100
AcDbEntity
  8
0
100
AcDbLine
 10
172.6243420205436
 20
201.7071264683181
 30
0.0
 11
172.6243420205436
 21
202.2071264683181
 31
0.0
  0
LINE
  5
98F
330
1F
100
AcDbEntity
  8
0
100
AcDbLine
 10
172.1243420205436
 20
202.2071264683181
 30
0.0
 11
172.1243420205436
 21
201.7071264683181
 31
0.0
  0
LINE
  5
990
330
1F
100
AcDbEntity
  8
0
100
AcDbLine
 10
172.1243420205436
 20
201.7071264683181
 30
0.0
 11
172.6243420205436
 21
201.7071264683181
 31
0.0
  0
LINE
  5
991
330
1F
100
AcDbEntity
  8
0
100
AcDbLine
 10
172.1243420205436
 20
202.2071264683181
 30
0.0
 11
172.6243420205436
 21
202.2071264683181
 31
0.0
  0
LINE
  5
992
330
1F
100
AcDbEntity
  8
0
100
AcDbLine
 10
172.4643420205435
 20
204.0471784683177
 30
0.0
 11
172.4643420205435
 21
203.8670744683176
 31
0.0
  0
LINE
  5
993
330
1F
100
AcDbEntity
  8
0
100
AcDbLine
 10
172.4643420205435
 20
203.8670744683176
 30
0.0
 11
172.3743420205436
 21
203.8670744683176
 31
0.0
  0
LINE
  5
994
330
1F
100
AcDbEntity
  8
0
100
AcDbLine
 10
172.4643420205435
 20
203.8670744683176
 30
0.0
 11
172.3743420205436
 21
203.8670744683176
 31
0.0
  0
LINE
  5
995
330
1F
100
AcDbEntity
  8
0
100
AcDbLine
 10
172.4643420205435
 20
204.0471784683177
 30
0.0
 11
172.3743420205436
 21
204.0471784683177
 31
0.0
  0
LINE
  5
996
330
1F
100
AcDbEntity
  8
0
100
AcDbLine
 10
172.2843420205447
 20
204.0471784683177
 30
0.0
 11
172.3743420205436
 21
204.0471784683177
 31
0.0
  0
LINE
  5
997
330
1F
100
AcDbEntity
  8
0
100
AcDbLine
 10
172.2843420205447
 20
203.8670744683176
 30
0.0
 11
172.3743420205436
 21
203.8670744683176
 31
0.0
  0
LINE
  5
998
330
1F
100
AcDbEntity
  8
0
100
AcDbLine
 10
172.2843420205447
 20
203.8670744683176
 30
0.0
 11
172.3743420205436
 21
203.8670744683176
 31
0.0
  0
LINE
  5
999
330
1F
100
AcDbEntity
  8
0
100
AcDbLine
 10
172.2843420205447
 20
204.0471784683177
 30
0.0
 11
172.2843420205447
 21
203.8670744683176
 31
0.0
  0
LINE
  5
99A
330
1F
100
AcDbEntity
  8
0
100
AcDbLine
 10
172.6243420205436
 20
203.7071264683183
 30
0.0
 11
172.6243420205436
 21
204.2071264683181
 31
0.0
  0
LINE
  5
99B
330
1F
100
AcDbEntity
  8
0
100
AcDbLine
 10
172.1243420205436
 20
204.2071264683181
 30
0.0
 11
172.1243420205436
 21
203.7071264683183
 31
0.0
  0
LINE
  5
99C
330
1F
100
AcDbEntity
  8
0
100
AcDbLine
 10
172.1243420205436
 20
203.7071264683183
 30
0.0
 11
172.6243420205436
 21
203.7071264683183
 31
0.0
  0
LINE
  5
99D
330
1F
100
AcDbEntity
  8
0
100
AcDbLine
 10
172.1243420205436
 20
204.2071264683181
 30
0.0
 11
172.6243420205436
 21
204.2071264683181
 31
0.0
  0
LINE
  5
99E
330
1F
100
AcDbEntity
  8
0
100
AcDbLine
 10
170.1243420205436
 20
207.7071264683183
 30
0.0
 11
170.6243420205448
 21
207.7071264683183
 31
0.0
  0
LINE
  5
99F
330
1F
100
AcDbEntity
  8
0
100
AcDbLine
 10
170.4643420205435
 20
207.8670744683178
 30
0.0
 11
170.3743420205436
 21
207.8670744683178
 31
0.0
  0
LINE
  5
9A0
330
1F
100
AcDbEntity
  8
0
100
AcDbLine
 10
170.4643420205435
 20
207.8670744683178
 30
0.0
 11
170.3743420205436
 21
207.8670744683178
 31
0.0
  0
LINE
  5
9A1
330
1F
100
AcDbEntity
  8
0
100
AcDbLine
 10
170.2843420205446
 20
207.8670744683178
 30
0.0
 11
170.3743420205436
 21
207.8670744683178
 31
0.0
  0
LINE
  5
9A2
330
1F
100
AcDbEntity
  8
0
100
AcDbLine
 10
170.2843420205446
 20
207.8670744683178
 30
0.0
 11
170.3743420205436
 21
207.8670744683178
 31
0.0
  0
LINE
  5
9A3
330
1F
100
AcDbEntity
  8
0
100
AcDbLine
 10
170.1243420205436
 20
208.2071264683181
 30
0.0
 11
170.6243420205448
 21
208.2071264683181
 31
0.0
  0
LINE
  5
9A4
330
1F
100
AcDbEntity
  8
0
100
AcDbLine
 10
170.4643420205435
 20
208.0471784683177
 30
0.0
 11
170.3743420205436
 21
208.0471784683177
 31
0.0
  0
LINE
  5
9A5
330
1F
100
AcDbEntity
  8
0
100
AcDbLine
 10
170.2843420205446
 20
208.0471784683177
 30
0.0
 11
170.3743420205436
 21
208.0471784683177
 31
0.0
  0
LINE
  5
9A6
330
1F
100
AcDbEntity
  8
0
100
AcDbLine
 10
170.4643420205435
 20
208.0471784683177
 30
0.0
 11
170.4643420205435
 21
207.8670744683178
 31
0.0
  0
LINE
  5
9A7
330
1F
100
AcDbEntity
  8
0
100
AcDbLine
 10
170.2843420205446
 20
208.0471784683177
 30
0.0
 11
170.2843420205446
 21
207.8670744683178
 31
0.0
  0
LINE
  5
9A8
330
1F
100
AcDbEntity
  8
0
100
AcDbLine
 10
170.6243420205448
 20
207.7071264683183
 30
0.0
 11
170.6243420205448
 21
208.2071264683181
 31
0.0
  0
LINE
  5
9A9
330
1F
100
AcDbEntity
  8
0
100
AcDbLine
 10
170.1243420205436
 20
208.2071264683181
 30
0.0
 11
170.1243420205436
 21
207.7071264683183
 31
0.0
  0
LINE
  5
9AA
330
1F
100
AcDbEntity
  8
0
100
AcDbLine
 10
172.2843420205447
 20
207.8670744683178
 30
0.0
 11
172.3743420205436
 21
207.8670744683178
 31
0.0
  0
LINE
  5
9AB
330
1F
100
AcDbEntity
  8
0
100
AcDbLine
 10
172.2843420205447
 20
207.8670744683178
 30
0.0
 11
172.3743420205436
 21
207.8670744683178
 31
0.0
  0
LINE
  5
9AC
330
1F
100
AcDbEntity
  8
0
100
AcDbLine
 10
172.4643420205435
 20
207.8670744683178
 30
0.0
 11
172.3743420205436
 21
207.8670744683178
 31
0.0
  0
LINE
  5
9AD
330
1F
100
AcDbEntity
  8
0
100
AcDbLine
 10
172.4643420205435
 20
207.8670744683178
 30
0.0
 11
172.3743420205436
 21
207.8670744683178
 31
0.0
  0
LINE
  5
9AE
330
1F
100
AcDbEntity
  8
0
100
AcDbLine
 10
172.2843420205447
 20
208.0471784683177
 30
0.0
 11
172.3743420205436
 21
208.0471784683177
 31
0.0
  0
LINE
  5
9AF
330
1F
100
AcDbEntity
  8
0
100
AcDbLine
 10
172.4643420205435
 20
208.0471784683177
 30
0.0
 11
172.3743420205436
 21
208.0471784683177
 31
0.0
  0
LINE
  5
9B0
330
1F
100
AcDbEntity
  8
0
100
AcDbLine
 10
172.2843420205447
 20
208.0471784683177
 30
0.0
 11
172.2843420205447
 21
207.8670744683178
 31
0.0
  0
LINE
  5
9B1
330
1F
100
AcDbEntity
  8
0
100
AcDbLine
 10
172.4643420205435
 20
208.0471784683177
 30
0.0
 11
172.4643420205435
 21
207.8670744683178
 31
0.0
  0
LINE
  5
9B2
330
1F
100
AcDbEntity
  8
0
100
AcDbLine
 10
172.6243420205436
 20
207.7071264683183
 30
0.0
 11
172.6243420205436
 21
208.2071264683181
 31
0.0
  0
LINE
  5
9B3
330
1F
100
AcDbEntity
  8
0
100
AcDbLine
 10
172.1243420205436
 20
208.2071264683181
 30
0.0
 11
172.1243420205436
 21
207.7071264683183
 31
0.0
  0
LINE
  5
9B4
330
1F
100
AcDbEntity
  8
0
100
AcDbLine
 10
172.1243420205436
 20
207.7071264683183
 30
0.0
 11
172.6243420205436
 21
207.7071264683183
 31
0.0
  0
LINE
  5
9B5
330
1F
100
AcDbEntity
  8
0
100
AcDbLine
 10
172.1243420205436
 20
208.2071264683181
 30
0.0
 11
172.6243420205436
 21
208.2071264683181
 31
0.0
  0
LINE
  5
9B6
330
1F
100
AcDbEntity
  8
0
100
AcDbLine
 10
173.8743420205436
 20
210.0771118092648
 30
0.0
 11
173.8743420205436
 21
211.6571264683178
 31
0.0
  0
LINE
  5
9B7
330
1F
100
AcDbEntity
  8
0
100
AcDbLine
 10
168.1661180205436
 20
218.3886544683179
 30
0.0
 11
168.1661180205436
 21
219.3696454683176
 31
0.0
  0
LINE
  5
9B8
330
1F
100
AcDbEntity
  8
0
100
AcDbLine
 10
167.5735610205446
 20
219.3696454683176
 30
0.0
 11
167.5735610205446
 21
218.3886544683179
 31
0.0
  0
LINE
  5
9B9
330
1F
100
AcDbEntity
  8
0
100
AcDbLine
 10
165.7380140205436
 20
218.988445468318
 30
0.0
 11
165.7380140205436
 21
218.3957174683178
 31
0.0
  0
LINE
  5
9BA
330
1F
100
AcDbEntity
  8
0
100
AcDbLine
 10
166.7190050205446
 20
218.3957174683178
 30
0.0
 11
166.7190050205446
 21
218.988445468318
 31
0.0
  0
LINE
  5
9BB
330
1F
100
AcDbEntity
  8
0
100
AcDbLine
 10
164.7360080205436
 20
217.9227054683178
 30
0.0
 11
164.7360080205436
 21
219.3904884683179
 31
0.0
  0
LINE
  5
9BC
330
1F
100
AcDbEntity
  8
0
100
AcDbLine
 10
164.7360080205436
 20
217.9227054683178
 30
0.0
 11
164.7360080205436
 21
219.3904884683179
 31
0.0
  0
LINE
  5
9BD
330
1F
100
AcDbEntity
  8
0
100
AcDbLine
 10
168.6036450205446
 20
218.3886544683179
 30
0.0
 11
168.6036450205446
 21
219.7506734683179
 31
0.0
  0
LINE
  5
9BE
330
1F
100
AcDbEntity
  8
0
100
AcDbLine
 10
167.1356890205446
 20
219.7506734683179
 30
0.0
 11
167.1356890205446
 21
218.3886544683179
 31
0.0
  0
LINE
  5
9BF
330
1F
100
AcDbEntity
  8
0
100
AcDbLine
 10
165.3569870205449
 20
219.425800468318
 30
0.0
 11
165.3569870205449
 21
217.957845468318
 31
0.0
  0
LINE
  5
9C0
330
1F
100
AcDbEntity
  8
0
100
AcDbLine
 10
166.7190050205446
 20
217.957845468318
 30
0.0
 11
166.7190050205446
 21
219.425800468318
 31
0.0
  0
LINE
  5
9C1
330
1F
100
AcDbEntity
  8
0
100
AcDbLine
 10
167.1356890205446
 20
218.3886544683179
 30
0.0
 11
168.6036450205446
 21
218.3886544683179
 31
0.0
  0
LINE
  5
9C2
330
1F
100
AcDbEntity
  8
0
100
AcDbLine
 10
168.6036450205446
 20
215.664445468318
 30
0.0
 11
168.1657730205438
 21
216.0454724683178
 31
0.0
  0
LINE
  5
9C3
330
1F
100
AcDbEntity
  8
0
100
AcDbLine
 10
168.6036450205446
 20
217.0266364683179
 30
0.0
 11
167.1356890205446
 21
217.0266364683179
 31
0.0
  0
LINE
  5
9C4
330
1F
100
AcDbEntity
  8
0
100
AcDbLine
 10
167.1356890205446
 20
215.664445468318
 30
0.0
 11
168.6036450205446
 21
215.664445468318
 31
0.0
  0
LINE
  5
9C5
330
1F
100
AcDbEntity
  8
0
100
AcDbLine
 10
167.5735610205446
 20
218.3886544683179
 30
0.0
 11
168.1661180205436
 21
218.3886544683179
 31
0.0
  0
LINE
  5
9C6
330
1F
100
AcDbEntity
  8
0
100
AcDbLine
 10
168.1657730205438
 20
216.0454724683178
 30
0.0
 11
168.1657730205438
 21
217.0266364683179
 31
0.0
  0
LINE
  5
9C7
330
1F
100
AcDbEntity
  8
0
100
AcDbLine
 10
168.1657730205438
 20
217.0266364683179
 30
0.0
 11
167.5730440205436
 21
217.0266364683179
 31
0.0
  0
LINE
  5
9C8
330
1F
100
AcDbEntity
  8
0
100
AcDbLine
 10
167.5730440205436
 20
217.0266364683179
 30
0.0
 11
167.5730440205436
 21
216.0454724683178
 31
0.0
  0
LINE
  5
9C9
330
1F
100
AcDbEntity
  8
0
100
AcDbLine
 10
167.5730440205436
 20
216.0454724683178
 30
0.0
 11
168.1657730205438
 21
216.0454724683178
 31
0.0
  0
LINE
  5
9CA
330
1F
100
AcDbEntity
  8
0
100
AcDbLine
 10
167.1356890205446
 20
215.664445468318
 30
0.0
 11
167.5730440205436
 21
216.0454724683178
 31
0.0
  0
LINE
  5
9CB
330
1F
100
AcDbEntity
  8
0
100
AcDbLine
 10
167.1356890205446
 20
217.0266364683179
 30
0.0
 11
167.1356890205446
 21
215.664445468318
 31
0.0
  0
LINE
  5
9CC
330
1F
100
AcDbEntity
  8
0
100
AcDbLine
 10
165.3569870205449
 20
217.957845468318
 30
0.0
 11
166.7190050205446
 21
217.957845468318
 31
0.0
  0
LINE
  5
9CD
330
1F
100
AcDbEntity
  8
0
100
AcDbLine
 10
165.7380140205436
 20
218.3957174683178
 30
0.0
 11
166.7190050205446
 21
218.3957174683178
 31
0.0
  0
LINE
  5
9CE
330
1F
100
AcDbEntity
  8
0
100
AcDbLine
 10
166.7190050205446
 20
217.5840524683176
 30
0.0
 11
165.3569870205449
 21
217.5840524683176
 31
0.0
  0
LINE
  5
9CF
330
1F
100
AcDbEntity
  8
0
100
AcDbLine
 10
165.3569870205449
 20
216.1160974683176
 30
0.0
 11
166.7190050205446
 21
216.1160974683176
 31
0.0
  0
LINE
  5
9D0
330
1F
100
AcDbEntity
  8
0
100
AcDbLine
 10
166.7190050205446
 20
217.1465254683179
 30
0.0
 11
165.7380140205436
 21
217.1465254683179
 31
0.0
  0
LINE
  5
9D1
330
1F
100
AcDbEntity
  8
0
100
AcDbLine
 10
165.7380140205436
 20
216.553796468318
 30
0.0
 11
166.7190050205446
 21
216.553796468318
 31
0.0
  0
LINE
  5
9D2
330
1F
100
AcDbEntity
  8
0
100
AcDbLine
 10
165.3573310205446
 20
217.957845468318
 30
0.0
 11
165.7383590205438
 21
218.3957174683178
 31
0.0
  0
LINE
  5
9D3
330
1F
100
AcDbEntity
  8
0
100
AcDbLine
 10
165.3569870205449
 20
217.5840524683176
 30
0.0
 11
165.3569870205449
 21
216.1160974683176
 31
0.0
  0
LINE
  5
9D4
330
1F
100
AcDbEntity
  8
0
100
AcDbLine
 10
165.7380140205436
 20
217.1465254683179
 30
0.0
 11
165.7380140205436
 21
216.553796468318
 31
0.0
  0
LINE
  5
9D5
330
1F
100
AcDbEntity
  8
0
100
AcDbLine
 10
165.3573310205446
 20
216.1160974683176
 30
0.0
 11
165.7383590205438
 21
216.553796468318
 31
0.0
  0
LINE
  5
9D6
330
1F
100
AcDbEntity
  8
0
100
AcDbLine
 10
165.3573310205446
 20
217.5840524683176
 30
0.0
 11
165.7383590205438
 21
217.1465254683179
 31
0.0
  0
LINE
  5
9D7
330
1F
100
AcDbEntity
  8
0
100
AcDbLine
 10
166.7190050205446
 20
216.1160974683176
 30
0.0
 11
166.7190050205446
 21
217.5840524683176
 31
0.0
  0
LINE
  5
9D8
330
1F
100
AcDbEntity
  8
0
100
AcDbLine
 10
166.7190050205446
 20
216.553796468318
 30
0.0
 11
166.7190050205446
 21
217.1465254683179
 31
0.0
  0
LINE
  5
9D9
330
1F
100
AcDbEntity
  8
0
100
AcDbLine
 10
170.3537530205436
 20
217.0548854683179
 30
0.0
 11
170.3537530205436
 21
218.4169044683176
 31
0.0
  0
LINE
  5
9DA
330
1F
100
AcDbEntity
  8
0
100
AcDbLine
 10
169.9158820205435
 20
217.4357414683178
 30
0.0
 11
169.9158820205435
 21
218.4169044683176
 31
0.0
  0
LINE
  5
9DB
330
1F
100
AcDbEntity
  8
0
100
AcDbLine
 10
170.3537530205436
 20
217.0548854683179
 30
0.0
 11
169.9158820205435
 21
217.4357414683178
 31
0.0
  0
LINE
  5
9DC
330
1F
100
AcDbEntity
  8
0
100
AcDbLine
 10
168.8857980205435
 20
218.4169044683176
 30
0.0
 11
168.8857980205435
 21
217.0548854683179
 31
0.0
  0
LINE
  5
9DD
330
1F
100
AcDbEntity
  8
0
100
AcDbLine
 10
169.3233250205436
 20
218.4169044683176
 30
0.0
 11
169.3233250205436
 21
217.4357414683178
 31
0.0
  0
LINE
  5
9DE
330
1F
100
AcDbEntity
  8
0
100
AcDbLine
 10
168.6036450205446
 20
215.664445468318
 30
0.0
 11
168.6036450205446
 21
217.0266364683179
 31
0.0
  0
LINE
  5
9DF
330
1F
100
AcDbEntity
  8
0
100
AcDbLine
 10
168.8857980205435
 20
217.0548854683179
 30
0.0
 11
169.3233250205436
 21
217.4357414683178
 31
0.0
  0
LINE
  5
9E0
330
1F
100
AcDbEntity
  8
0
100
AcDbLine
 10
170.3537530205436
 20
218.4169044683176
 30
0.0
 11
168.8857980205435
 21
218.4169044683176
 31
0.0
  0
LINE
  5
9E1
330
1F
100
AcDbEntity
  8
0
100
AcDbLine
 10
168.8857980205435
 20
217.0548854683179
 30
0.0
 11
170.3537530205436
 21
217.0548854683179
 31
0.0
  0
LINE
  5
9E2
330
1F
100
AcDbEntity
  8
0
100
AcDbLine
 10
169.9158820205435
 20
218.4169044683176
 30
0.0
 11
169.3233250205436
 21
218.4169044683176
 31
0.0
  0
LINE
  5
9E3
330
1F
100
AcDbEntity
  8
0
100
AcDbLine
 10
169.3233250205436
 20
217.4357414683178
 30
0.0
 11
169.9158820205435
 21
217.4357414683178
 31
0.0
  0
LINE
  5
9E4
330
1F
100
AcDbEntity
  8
0
100
AcDbLine
 10
168.6036450205446
 20
221.5714064683172
 30
0.0
 11
167.1356890205446
 21
221.5714064683172
 31
0.0
  0
LINE
  5
9E5
330
1F
100
AcDbEntity
  8
0
100
AcDbLine
 10
168.6036450205446
 20
221.5714064683172
 30
0.0
 11
168.1661180205436
 21
221.1900344683177
 31
0.0
  0
LINE
  5
9E6
330
1F
100
AcDbEntity
  8
0
100
AcDbLine
 10
168.6036450205446
 20
219.7506734683179
 30
0.0
 11
167.1356890205446
 21
219.7506734683179
 31
0.0
  0
LINE
  5
9E7
330
1F
100
AcDbEntity
  8
0
100
AcDbLine
 10
167.1356890205446
 20
220.2093874683177
 30
0.0
 11
168.6036450205446
 21
220.2093874683177
 31
0.0
  0
LINE
  5
9E8
330
1F
100
AcDbEntity
  8
0
100
AcDbLine
 10
168.6036450205446
 20
219.7506734683179
 30
0.0
 11
168.1661180205436
 21
219.3693014683181
 31
0.0
  0
LINE
  5
9E9
330
1F
100
AcDbEntity
  8
0
100
AcDbLine
 10
167.1356890205446
 20
221.5714064683172
 30
0.0
 11
167.1356890205446
 21
220.2093874683177
 31
0.0
  0
LINE
  5
9EA
330
1F
100
AcDbEntity
  8
0
100
AcDbLine
 10
167.1356890205446
 20
221.5714064683172
 30
0.0
 11
167.5730440205436
 21
221.1900344683177
 31
0.0
  0
LINE
  5
9EB
330
1F
100
AcDbEntity
  8
0
100
AcDbLine
 10
168.1661180205436
 20
220.2093874683177
 30
0.0
 11
168.1661180205436
 21
221.1903784683181
 31
0.0
  0
LINE
  5
9EC
330
1F
100
AcDbEntity
  8
0
100
AcDbLine
 10
168.1661180205436
 20
221.1903784683181
 30
0.0
 11
167.5735610205446
 21
221.1903784683181
 31
0.0
  0
LINE
  5
9ED
330
1F
100
AcDbEntity
  8
0
100
AcDbLine
 10
167.5735610205446
 20
221.1903784683181
 30
0.0
 11
167.5735610205446
 21
220.2093874683177
 31
0.0
  0
LINE
  5
9EE
330
1F
100
AcDbEntity
  8
0
100
AcDbLine
 10
167.5735610205446
 20
220.2093874683177
 30
0.0
 11
168.1661180205436
 21
220.2093874683177
 31
0.0
  0
LINE
  5
9EF
330
1F
100
AcDbEntity
  8
0
100
AcDbLine
 10
166.7190050205446
 20
219.425800468318
 30
0.0
 11
165.3569870205449
 21
219.425800468318
 31
0.0
  0
LINE
  5
9F0
330
1F
100
AcDbEntity
  8
0
100
AcDbLine
 10
166.7190050205446
 20
221.2680654683178
 30
0.0
 11
165.3569870205449
 21
221.2680654683178
 31
0.0
  0
LINE
  5
9F1
330
1F
100
AcDbEntity
  8
0
100
AcDbLine
 10
165.3569870205449
 20
219.8001104683179
 30
0.0
 11
166.7190050205446
 21
219.8001104683179
 31
0.0
  0
LINE
  5
9F2
330
1F
100
AcDbEntity
  8
0
100
AcDbLine
 10
166.7190050205446
 20
220.8301934683178
 30
0.0
 11
165.7380140205436
 21
220.8301934683178
 31
0.0
  0
LINE
  5
9F3
330
1F
100
AcDbEntity
  8
0
100
AcDbLine
 10
165.7380140205436
 20
220.2376374683181
 30
0.0
 11
166.7190050205446
 21
220.2376374683181
 31
0.0
  0
LINE
  5
9F4
330
1F
100
AcDbEntity
  8
0
100
AcDbLine
 10
165.3569870205449
 20
221.2680654683178
 30
0.0
 11
165.3569870205449
 21
219.8001104683179
 31
0.0
  0
LINE
  5
9F5
330
1F
100
AcDbEntity
  8
0
100
AcDbLine
 10
165.7380140205436
 20
220.8301934683178
 30
0.0
 11
165.7380140205436
 21
220.2376374683181
 31
0.0
  0
LINE
  5
9F6
330
1F
100
AcDbEntity
  8
0
100
AcDbLine
 10
165.3573310205446
 20
219.8001104683179
 30
0.0
 11
165.7383590205438
 21
220.2376374683181
 31
0.0
  0
LINE
  5
9F7
330
1F
100
AcDbEntity
  8
0
100
AcDbLine
 10
165.3573310205446
 20
221.2677204683178
 30
0.0
 11
165.7383590205438
 21
220.8301934683178
 31
0.0
  0
LINE
  5
9F8
330
1F
100
AcDbEntity
  8
0
100
AcDbLine
 10
166.7190050205446
 20
219.8001104683179
 30
0.0
 11
166.7190050205446
 21
221.2680654683178
 31
0.0
  0
LINE
  5
9F9
330
1F
100
AcDbEntity
  8
0
100
AcDbLine
 10
166.7190050205446
 20
220.2376374683181
 30
0.0
 11
166.7190050205446
 21
220.8301934683178
 31
0.0
  0
LINE
  5
9FA
330
1F
100
AcDbEntity
  8
0
100
AcDbLine
 10
168.1661180205436
 20
219.3696454683176
 30
0.0
 11
167.5735610205446
 21
219.3696454683176
 31
0.0
  0
LINE
  5
9FB
330
1F
100
AcDbEntity
  8
0
100
AcDbLine
 10
166.7190050205446
 20
218.988445468318
 30
0.0
 11
165.7380140205436
 21
218.988445468318
 31
0.0
  0
LINE
  5
9FC
330
1F
100
AcDbEntity
  8
0
100
AcDbLine
 10
167.1356890205446
 20
219.7506734683179
 30
0.0
 11
167.5730440205436
 21
219.3693014683181
 31
0.0
  0
LINE
  5
9FD
330
1F
100
AcDbEntity
  8
0
100
AcDbLine
 10
165.3573310205446
 20
219.425800468318
 30
0.0
 11
165.7383590205438
 21
218.988445468318
 31
0.0
  0
LINE
  5
9FE
330
1F
100
AcDbEntity
  8
0
100
AcDbLine
 10
170.3537530205436
 20
220.2446994683179
 30
0.0
 11
169.9158820205435
 21
219.8636724683179
 31
0.0
  0
LINE
  5
9FF
330
1F
100
AcDbEntity
  8
0
100
AcDbLine
 10
168.6036450205446
 20
220.2093874683177
 30
0.0
 11
168.6036450205446
 21
221.5714064683172
 31
0.0
  0
LINE
  5
A00
330
1F
100
AcDbEntity
  8
0
100
AcDbLine
 10
168.8857980205435
 20
220.2446994683179
 30
0.0
 11
169.3233250205436
 21
219.8636724683179
 31
0.0
  0
LINE
  5
A01
330
1F
100
AcDbEntity
  8
0
100
AcDbLine
 10
168.8857980205435
 20
220.2446994683179
 30
0.0
 11
170.3537530205436
 21
220.2446994683179
 31
0.0
  0
LINE
  5
A02
330
1F
100
AcDbEntity
  8
0
100
AcDbLine
 10
169.3233250205436
 20
219.8636724683179
 30
0.0
 11
169.9158820205435
 21
219.8636724683179
 31
0.0
  0
LINE
  5
A03
330
1F
100
AcDbEntity
  8
0
100
AcDbLine
 10
170.3537530205436
 20
218.8825094683179
 30
0.0
 11
168.8857980205435
 21
218.8825094683179
 31
0.0
  0
LINE
  5
A04
330
1F
100
AcDbEntity
  8
0
100
AcDbLine
 10
169.9158820205435
 20
218.8825094683179
 30
0.0
 11
169.3233250205436
 21
218.8825094683179
 31
0.0
  0
LINE
  5
A05
330
1F
100
AcDbEntity
  8
0
100
AcDbLine
 10
168.8857980205435
 20
218.8825094683179
 30
0.0
 11
168.8857980205435
 21
220.2446994683179
 31
0.0
  0
LINE
  5
A06
330
1F
100
AcDbEntity
  8
0
100
AcDbLine
 10
170.3537530205436
 20
220.2446994683179
 30
0.0
 11
170.3537530205436
 21
218.8825094683179
 31
0.0
  0
LINE
  5
A07
330
1F
100
AcDbEntity
  8
0
100
AcDbLine
 10
169.3233250205436
 20
218.8825094683179
 30
0.0
 11
169.3233250205436
 21
219.8636724683179
 31
0.0
  0
LINE
  5
A08
330
1F
100
AcDbEntity
  8
0
100
AcDbLine
 10
169.9158820205435
 20
219.8636724683179
 30
0.0
 11
169.9158820205435
 21
218.8825094683179
 31
0.0
  0
ARC
  5
A09
330
1F
100
AcDbEntity
  8
外形
100
AcDbCircle
 10
169.9243420205436
 20
236.1071264683177
 30
0.0
 40
3.7
100
AcDbArc
 50
0.0
 51
180.0
  0
LINE
  5
A0B
330
1F
100
AcDbEntity
  8
0
100
AcDbLine
 10
168.0169050205446
 20
236.1071264683177
 30
0.0
 11
168.8924130205435
 21
236.6873164683179
 31
0.0
  0
LINE
  5
A0C
330
1F
100
AcDbEntity
  8
0
100
AcDbLine
 10
168.8924130205435
 20
236.6873164683179
 30
0.0
 11
168.8924130205435
 21
236.2681764683179
 31
0.0
  0
LINE
  5
A0D
330
1F
100
AcDbEntity
  8
0
100
AcDbLine
 10
168.0169049881888
 20
236.1071264683177
 30
0.0
 11
168.8924134806976
 21
236.6873165005435
 31
0.0
  0
LINE
  5
A0E
330
1F
100
AcDbEntity
  8
0
100
AcDbLine
 10
168.8924134806976
 20
236.6873165005435
 30
0.0
 11
168.8924134806976
 21
236.2681769444772
 31
0.0
  0
CIRCLE
  5
A0F
330
1F
100
AcDbEntity
  8
0
100
AcDbCircle
 10
169.9243420205436
 20
236.1071264683177
 30
0.0
 40
1.907437032355004
  0
ARC
  5
A10
330
1F
100
AcDbEntity
  8
0
100
AcDbCircle
 10
169.9243420205436
 20
236.1071264683177
 30
0.0
 40
3.69999999999993
100
AcDbArc
 50
0.0
 51
180.0
  0
CIRCLE
  5
A11
330
1F
100
AcDbEntity
  8
0
100
AcDbCircle
 10
169.9243420205436
 20
236.1071264683177
 30
0.0
 40
3.7
  0
CIRCLE
  5
A12
330
1F
100
AcDbEntity
  8
0
100
AcDbCircle
 10
169.9243420205436
 20
236.1071264683177
 30
0.0
 40
3.7
  0
LINE
  5
A14
330
1F
100
AcDbEntity
  8
0
100
AcDbLine
 10
166.2243420205435
 20
232.3571264683176
 30
0.0
 11
173.6243420205436
 21
232.3571264683176
 31
0.0
  0
LINE
  5
A15
330
1F
100
AcDbEntity
  8
0
100
AcDbLine
 10
166.2243420205435
 20
232.3571264683181
 30
0.0
 11
173.6243420205436
 21
232.3571264683176
 31
0.0
  0
LINE
  5
A16
330
1F
100
AcDbEntity
  8
0
100
AcDbLine
 10
166.8743420205436
 20
231.407126468318
 30
0.0
 11
173.8743420205436
 21
231.407126468318
 31
0.0
  0
LINE
  5
A17
330
1F
100
AcDbEntity
  8
0
100
AcDbLine
 10
166.8743420205436
 20
226.4071264683178
 30
0.0
 11
173.8743420205436
 21
226.4071264683178
 31
0.0
  0
LINE
  5
A18
330
1F
100
AcDbEntity
  8
外形
100
AcDbLine
 10
166.2243420205435
 20
231.407126468318
 30
0.0
 11
166.2243420205435
 21
226.1331394683178
 31
0.0
  0
LINE
  5
A19
330
1F
100
AcDbEntity
  8
0
100
AcDbLine
 10
166.8743420205436
 20
226.4071264683178
 30
0.0
 11
166.8743420205436
 21
231.407126468318
 31
0.0
  0
LINE
  5
A1A
330
1F
100
AcDbEntity
  8
0
100
AcDbLine
 10
166.2243420205435
 20
226.1331394683178
 30
0.0
 11
166.2243420205435
 21
231.407126468318
 31
0.0
  0
LINE
  5
A1B
330
1F
100
AcDbEntity
  8
0
100
AcDbLine
 10
171.2600990205436
 20
230.4071264683178
 30
0.0
 11
171.2600990205436
 21
227.4071264683179
 31
0.0
  0
LINE
  5
A1C
330
1F
100
AcDbEntity
  8
0
100
AcDbLine
 10
169.2951770205436
 20
230.4071264683178
 30
0.0
 11
169.2951770205436
 21
227.4071264683179
 31
0.0
  0
LINE
  5
A1D
330
1F
100
AcDbEntity
  8
0
100
AcDbLine
 10
169.2951770205436
 20
227.4071264683179
 30
0.0
 11
171.2600990205436
 21
227.4071264683179
 31
0.0
  0
LINE
  5
A1E
330
1F
100
AcDbEntity
  8
0
100
AcDbLine
 10
169.2951770205436
 20
230.4071264683178
 30
0.0
 11
171.2600990205436
 21
230.4071264683178
 31
0.0
  0
LINE
  5
A1F
330
1F
100
AcDbEntity
  8
0
100
AcDbLine
 10
168.0169049881888
 20
236.1071264683177
 30
0.0
 11
168.8924134806976
 21
235.5269364360919
 31
0.0
  0
LINE
  5
A20
330
1F
100
AcDbEntity
  8
0
100
AcDbLine
 10
168.0169050205446
 20
236.1071264683177
 30
0.0
 11
168.8924130205435
 21
235.5269364683179
 31
0.0
  0
LINE
  5
A22
330
1F
100
AcDbEntity
  8
外形
100
AcDbLine
 10
166.2243420205435
 20
236.1071264683177
 30
0.0
 11
166.2243420205435
 21
231.407126468318
 31
0.0
  0
LINE
  5
A26
330
1F
100
AcDbEntity
  8
0
100
AcDbLine
 10
166.2243420205435
 20
236.1071264683177
 30
0.0
 11
166.2243420205435
 21
231.407126468318
 31
0.0
  0
LINE
  5
A27
330
1F
100
AcDbEntity
  8
0
100
AcDbLine
 10
171.7259480205435
 20
236.2681764683179
 30
0.0
 11
171.7259480205435
 21
235.9460754683178
 31
0.0
  0
LINE
  5
A28
330
1F
100
AcDbEntity
  8
0
100
AcDbLine
 10
171.7259479287338
 20
236.2681769444772
 30
0.0
 11
171.7259479287338
 21
235.946075992155
 31
0.0
  0
LINE
  5
A2A
330
1F
100
AcDbEntity
  8
0
100
AcDbLine
 10
168.8924134806976
 20
235.946075992155
 30
0.0
 11
168.8924134806976
 21
235.5269364360919
 31
0.0
  0
LINE
  5
A2B
330
1F
100
AcDbEntity
  8
0
100
AcDbLine
 10
168.8924130205435
 20
235.9460754683178
 30
0.0
 11
168.8924130205435
 21
235.5269364683179
 31
0.0
  0
LINE
  5
A2C
330
1F
100
AcDbEntity
  8
0
100
AcDbLine
 10
168.8924130205435
 20
236.2681764683179
 30
0.0
 11
171.7259480205435
 21
236.2681764683179
 31
0.0
  0
LINE
  5
A2D
330
1F
100
AcDbEntity
  8
0
100
AcDbLine
 10
168.8924134806976
 20
236.2681769444772
 30
0.0
 11
171.7259479287338
 21
236.2681769444772
 31
0.0
  0
LINE
  5
A2E
330
1F
100
AcDbEntity
  8
0
100
AcDbLine
 10
168.8924134806976
 20
235.946075992155
 30
0.0
 11
171.7259479287338
 21
235.946075992155
 31
0.0
  0
LINE
  5
A2F
330
1F
100
AcDbEntity
  8
0
100
AcDbLine
 10
168.8924130205435
 20
235.9460754683178
 30
0.0
 11
171.7259480205435
 21
235.9460754683178
 31
0.0
  0
LINE
  5
A32
330
1F
100
AcDbEntity
  8
0
100
AcDbLine
 10
173.8743420205436
 20
231.407126468318
 30
0.0
 11
173.8743420205436
 21
226.4071264683178
 31
0.0
  0
LINE
  5
A33
330
1F
100
AcDbEntity
  8
0
100
AcDbLine
 10
173.8743420205436
 20
225.6571264683179
 30
0.0
 11
173.8743420205436
 21
226.4071264683178
 31
0.0
  0
LINE
  5
A34
330
1F
100
AcDbEntity
  8
外形
100
AcDbLine
 10
173.6243420205436
 20
231.807126468318
 30
0.0
 11
174.3743420205436
 21
231.807126468318
 31
0.0
  0
LINE
  5
A35
330
1F
100
AcDbEntity
  8
外形
100
AcDbLine
 10
173.6243420205436
 20
236.1071264683177
 30
0.0
 11
173.6243420205436
 21
231.807126468318
 31
0.0
  0
LINE
  5
A36
330
1F
100
AcDbEntity
  8
0
100
AcDbLine
 10
173.8743420205436
 20
231.407126468318
 30
0.0
 11
173.8743420205436
 21
231.807126468318
 31
0.0
  0
LINE
  5
A37
330
1F
100
AcDbEntity
  8
0
100
AcDbLine
 10
173.6243420205436
 20
231.807126468318
 30
0.0
 11
174.3743420205436
 21
231.807126468318
 31
0.0
  0
LINE
  5
A38
330
1F
100
AcDbEntity
  8
0
100
AcDbLine
 10
173.6243420205436
 20
236.1071264683177
 30
0.0
 11
173.6243420205436
 21
231.807126468318
 31
0.0
  0
LINE
  5
A39
330
1F
100
AcDbEntity
  8
0
100
AcDbLine
 10
173.4743420205435
 20
235.1172616639396
 30
0.0
 11
173.4743420205435
 21
232.3571264683176
 31
0.0
  0
LINE
  5
A3A
330
1F
100
AcDbEntity
  8
0
100
AcDbLine
 10
173.6243420205436
 20
233.8671264683179
 30
0.0
 11
173.4743420205435
 21
233.8671264683179
 31
0.0
  0
LINE
  5
A3B
330
1F
100
AcDbEntity
  8
0
100
AcDbLine
 10
173.6243420205436
 20
233.267126468318
 30
0.0
 11
173.4743420205435
 21
233.267126468318
 31
0.0
  0
LINE
  5
A43
330
1F
100
AcDbEntity
  8
0
100
AcDbLine
 10
173.1743420205436
 20
260.6806649067158
 30
0.0
 11
173.1743420205436
 21
255.430664906716
 31
0.0
  0
LINE
  5
A44
330
1F
100
AcDbEntity
  8
0
  6
CONTINUOUS
100
AcDbLine
 10
171.8943420205436
 20
266.290064906716
 30
0.0
 11
171.8943420205436
 21
256.3500649067159
 31
0.0
  0
LINE
  5
A45
330
1F
100
AcDbEntity
  8
0
  6
CONTINUOUS
100
AcDbLine
 10
174.1743420205436
 20
260.6806649067158
 30
0.0
 11
174.1743420205436
 21
255.430664906716
 31
0.0
  0
LINE
  5
A46
330
1F
100
AcDbEntity
  8
0
  6
CONTINUOUS
100
AcDbLine
 10
170.6143420205436
 20
266.290064906716
 30
0.0
 11
170.6143420205436
 21
256.3500649067159
 31
0.0
  0
LINE
  5
A47
330
1F
100
AcDbEntity
  8
0
  6
CONTINUOUS
100
AcDbLine
 10
164.6743420205436
 20
267.570064906716
 30
0.0
 11
164.6743420205436
 21
255.0700649067159
 31
0.0
  0
LINE
  5
A48
330
1F
100
AcDbEntity
  8
0
  6
CONTINUOUS
100
AcDbLine
 10
168.0543420205438
 20
255.0700649067159
 30
0.0
 11
168.0543420205438
 21
267.570064906716
 31
0.0
  0
LINE
  5
A49
330
1F
100
AcDbEntity
  8
0
  6
CONTINUOUS
100
AcDbLine
 10
173.1743420205436
 20
267.570064906716
 30
0.0
 11
173.1743420205436
 21
255.0700649067159
 31
0.0
  0
LINE
  5
A4A
330
1F
100
AcDbEntity
  8
0
  6
CONTINUOUS
100
AcDbLine
 10
172.8137820205446
 20
254.6700649067158
 30
0.0
 11
173.3743420205428
 21
254.6700649067158
 31
0.0
  0
LINE
  5
A4B
330
1F
100
AcDbEntity
  8
0
100
AcDbLine
 10
173.3743420205436
 20
254.370064906716
 30
0.0
 11
172.8137820205446
 21
254.3700649067158
 31
0.0
  0
LINE
  5
A4C
330
1F
100
AcDbEntity
  8
0
  6
CONTINUOUS
100
AcDbLine
 10
173.1743420205436
 20
255.0700649067159
 30
0.0
 11
167.9732220205436
 21
255.0700649067159
 31
0.0
  0
LINE
  5
A4D
330
1F
100
AcDbEntity
  8
0
100
AcDbLine
 10
168.3337820205446
 20
255.0700649067159
 30
0.0
 11
172.8137820205446
 21
255.0700649067159
 31
0.0
  0
LINE
  5
A4E
330
1F
100
AcDbEntity
  8
0
  6
CONTINUOUS
100
AcDbLine
 10
168.3337820205446
 20
254.0700649067161
 30
0.0
 11
172.8137820205446
 21
254.0700649067158
 31
0.0
  0
ARC
  5
A4F
330
1F
100
AcDbEntity
  8
0
100
AcDbCircle
 10
165.6724446607426
 20
257.695064906716
 30
0.0
 40
0.2
100
AcDbArc
 50
90.0
 51
164.8690659402195
  0
ARC
  5
A50
330
1F
100
AcDbEntity
  8
0
100
AcDbCircle
 10
167.0562393803435
 20
257.695064906716
 30
0.0
 40
0.2
100
AcDbArc
 50
15.13093405978034
 51
90.0
  0
ARC
  5
A51
330
1F
100
AcDbEntity
  8
0
100
AcDbCircle
 10
167.0562393803435
 20
257.295064906716
 30
0.0
 40
0.2
100
AcDbArc
 50
15.13093405978034
 51
90.0
  0
ARC
  5
A52
330
1F
100
AcDbEntity
  8
0
100
AcDbCircle
 10
165.6724446607426
 20
257.295064906716
 30
0.0
 40
0.2
100
AcDbArc
 50
90.0
 51
164.8690659402195
  0
LINE
  5
A53
330
1F
100
AcDbEntity
  8
0
  6
CONTINUOUS
100
AcDbLine
 10
167.9732220205428
 20
254.6700649067158
 30
0.0
 11
168.3337820205446
 21
254.6700649067158
 31
0.0
  0
LINE
  5
A54
330
1F
100
AcDbEntity
  8
0
100
AcDbLine
 10
166.3643420205436
 20
257.4950649067158
 30
0.0
 11
165.6724446607426
 21
257.4950649067158
 31
0.0
  0
LINE
  5
A55
330
1F
100
AcDbEntity
  8
0
100
AcDbLine
 10
166.3643420205436
 20
257.4950649067158
 30
0.0
 11
167.0562393803435
 21
257.4950649067158
 31
0.0
  0
LINE
  5
A56
330
1F
100
AcDbEntity
  8
0
100
AcDbLine
 10
168.0543420205438
 20
254.3700649067158
 30
0.0
 11
167.2493057490398
 21
257.347270052811
 31
0.0
  0
LINE
  5
A57
330
1F
100
AcDbEntity
  8
0
100
AcDbLine
 10
164.6743420205436
 20
254.3700649067158
 30
0.0
 11
165.4793782920478
 21
257.347270052811
 31
0.0
  0
LINE
  5
A58
330
1F
100
AcDbEntity
  8
0
100
AcDbLine
 10
166.3643420205436
 20
257.895064906716
 30
0.0
 11
165.6724446607426
 21
257.895064906716
 31
0.0
  0
LINE
  5
A59
330
1F
100
AcDbEntity
  8
0
100
AcDbLine
 10
166.3643420205436
 20
257.895064906716
 30
0.0
 11
167.0562393803435
 21
257.895064906716
 31
0.0
  0
LINE
  5
A5A
330
1F
100
AcDbEntity
  8
0
100
AcDbLine
 10
167.9732220205436
 20
255.0700649067159
 30
0.0
 11
167.2493057490398
 21
257.7472700528111
 31
0.0
  0
LINE
  5
A5B
330
1F
100
AcDbEntity
  8
0
100
AcDbLine
 10
164.7554620205436
 20
255.0700649067159
 30
0.0
 11
165.4793782920478
 21
257.7472700528111
 31
0.0
  0
LINE
  5
A5C
330
1F
100
AcDbEntity
  8
0
  6
CONTINUOUS
100
AcDbLine
 10
164.3949020205435
 20
254.6700649067158
 30
0.0
 11
164.7554620205436
 21
254.6700649067158
 31
0.0
  0
LINE
  5
A5D
330
1F
100
AcDbEntity
  8
0
  6
CONTINUOUS
100
AcDbLine
 10
168.3337820205446
 20
254.3700649067158
 30
0.0
 11
164.3949020205435
 21
254.370064906716
 31
0.0
  0
LINE
  5
A5E
330
1F
100
AcDbEntity
  8
0
100
AcDbLine
 10
168.3337820205446
 20
255.0700649067159
 30
0.0
 11
168.3337820205446
 21
254.0700649067161
 31
0.0
  0
LINE
  5
A5F
330
1F
100
AcDbEntity
  8
0
100
AcDbLine
 10
164.3949020205435
 20
255.0700649067159
 30
0.0
 11
164.3949020205435
 21
254.0700649067158
 31
0.0
  0
LINE
  5
A60
330
1F
100
AcDbEntity
  8
0
100
AcDbLine
 10
172.8137820205446
 20
255.0700649067159
 30
0.0
 11
172.8137820205446
 21
254.0700649067158
 31
0.0
  0
LINE
  5
A61
330
1F
100
AcDbEntity
  8
0
100
AcDbLine
 10
170.6143420205436
 20
256.3500649067159
 30
0.0
 11
171.8943420205436
 21
256.3500649067159
 31
0.0
  0
LINE
  5
A62
330
1F
100
AcDbEntity
  8
0
  6
CONTINUOUS
100
AcDbLine
 10
170.1143420205436
 20
257.3600649067159
 30
0.0
 11
170.6143420205436
 21
257.3600649067159
 31
0.0
  0
LINE
  5
A63
330
1F
100
AcDbEntity
  8
0
  6
CONTINUOUS
100
AcDbLine
 10
170.1143420205436
 20
258.280064906716
 30
0.0
 11
170.6143420205436
 21
258.280064906716
 31
0.0
  0
LINE
  5
A64
330
1F
100
AcDbEntity
  8
0
  6
CONTINUOUS
100
AcDbLine
 10
170.1143420205436
 20
258.280064906716
 30
0.0
 11
170.1143420205436
 21
257.3600649067159
 31
0.0
  0
LINE
  5
A65
330
1F
100
AcDbEntity
  8
0
100
AcDbLine
 10
173.8743420205436
 20
251.3200649067155
 30
0.0
 11
173.8743420205436
 21
254.870064906716
 31
0.0
  0
ARC
  5
A66
330
1F
100
AcDbEntity
  8
0
100
AcDbCircle
 10
173.3743420205436
 20
254.870064906716
 30
0.0
 40
0.5
100
AcDbArc
 50
270.0
 51
0.0
  0
ARC
  5
A67
330
1F
100
AcDbEntity
  8
0
  6
CONTINUOUS
100
AcDbCircle
 10
173.3743420205428
 20
254.8700649067157
 30
0.0
 40
0.2
100
AcDbArc
 50
270.0
 51
0.0000000000130276
  0
LINE
  5
A68
330
1F
100
AcDbEntity
  8
0
  6
CONTINUOUS
100
AcDbLine
 10
173.5743420205428
 20
255.430664906716
 30
0.0
 11
173.5743420205428
 21
254.8700649067157
 31
0.0
  0
LINE
  5
A69
330
1F
100
AcDbEntity
  8
0
100
AcDbLine
 10
173.8743420205436
 20
254.870064906716
 30
0.0
 11
173.8743420205436
 21
255.430664906716
 31
0.0
  0
LINE
  5
A6A
330
1F
100
AcDbEntity
  8
0
100
AcDbLine
 10
173.1743420205436
 20
255.430664906716
 30
0.0
 11
174.1743420205436
 21
255.430664906716
 31
0.0
  0
LINE
  5
A6B
330
1F
100
AcDbEntity
  8
0
100
AcDbLine
 10
173.3743420205436
 20
268.2700649067156
 30
0.0
 11
172.8137820205446
 21
268.2700649067156
 31
0.0
  0
LINE
  5
A6C
330
1F
100
AcDbEntity
  8
0
  6
CONTINUOUS
100
AcDbLine
 10
173.3743420205436
 20
267.9700649067157
 30
0.0
 11
172.8137820205446
 21
267.9700649067157
 31
0.0
  0
LINE
  5
A6D
330
1F
100
AcDbEntity
  8
0
  6
CONTINUOUS
100
AcDbLine
 10
167.9732220205428
 20
267.570064906716
 30
0.0
 11
173.1743420205436
 21
267.570064906716
 31
0.0
  0
ARC
  5
A6E
330
1F
100
AcDbEntity
  8
0
100
AcDbCircle
 10
165.6724446607426
 20
265.3450649067158
 30
0.0
 40
0.2
100
AcDbArc
 50
195.1309340597803
 51
270.0
  0
ARC
  5
A6F
330
1F
100
AcDbEntity
  8
0
100
AcDbCircle
 10
167.0562393803435
 20
265.3450649067158
 30
0.0
 40
0.2
100
AcDbArc
 50
270.0
 51
344.8690659402196
  0
LINE
  5
A70
330
1F
100
AcDbEntity
  8
0
100
AcDbLine
 10
165.4793782920478
 20
264.8928597606208
 30
0.0
 11
164.7554620205436
 21
267.570064906716
 31
0.0
  0
LINE
  5
A71
330
1F
100
AcDbEntity
  8
0
100
AcDbLine
 10
167.2493057490398
 20
264.8928597606208
 30
0.0
 11
167.9732220205428
 21
267.570064906716
 31
0.0
  0
LINE
  5
A72
330
1F
100
AcDbEntity
  8
0
  6
CONTINUOUS
100
AcDbLine
 10
170.1143420205436
 20
265.280064906716
 30
0.0
 11
170.1143420205436
 21
264.3600649067158
 31
0.0
  0
ARC
  5
A73
330
1F
100
AcDbEntity
  8
0
100
AcDbCircle
 10
167.0562393803435
 20
264.945064906716
 30
0.0
 40
0.2
100
AcDbArc
 50
270.0
 51
344.8690659402196
  0
ARC
  5
A74
330
1F
100
AcDbEntity
  8
0
100
AcDbCircle
 10
165.6724446607426
 20
264.945064906716
 30
0.0
 40
0.2
100
AcDbArc
 50
195.1309340597803
 51
270.0
  0
LINE
  5
A75
330
1F
100
AcDbEntity
  8
0
100
AcDbLine
 10
166.3643420205436
 20
265.1450649067156
 30
0.0
 11
165.6724446607426
 21
265.1450649067156
 31
0.0
  0
LINE
  5
A76
330
1F
100
AcDbEntity
  8
0
100
AcDbLine
 10
166.3643420205436
 20
265.1450649067156
 30
0.0
 11
167.0562393803435
 21
265.1450649067156
 31
0.0
  0
LINE
  5
A77
330
1F
100
AcDbEntity
  8
0
100
AcDbLine
 10
166.3643420205436
 20
264.745064906716
 30
0.0
 11
165.6724446607426
 21
264.745064906716
 31
0.0
  0
LINE
  5
A78
330
1F
100
AcDbEntity
  8
0
100
AcDbLine
 10
166.3643420205436
 20
264.745064906716
 30
0.0
 11
167.0562393803435
 21
264.745064906716
 31
0.0
  0
LINE
  5
A79
330
1F
100
AcDbEntity
  8
0
  6
CONTINUOUS
100
AcDbLine
 10
170.1143420205436
 20
259.8600649067158
 30
0.0
 11
170.6143420205436
 21
259.8600649067158
 31
0.0
  0
LINE
  5
A7A
330
1F
100
AcDbEntity
  8
0
  6
CONTINUOUS
100
AcDbLine
 10
170.1143420205436
 20
260.780064906716
 30
0.0
 11
170.6143420205436
 21
260.780064906716
 31
0.0
  0
LINE
  5
A7B
330
1F
100
AcDbEntity
  8
0
  6
CONTINUOUS
100
AcDbLine
 10
170.1143420205436
 20
261.8600649067158
 30
0.0
 11
170.6143420205436
 21
261.8600649067158
 31
0.0
  0
LINE
  5
A7C
330
1F
100
AcDbEntity
  8
0
  6
CONTINUOUS
100
AcDbLine
 10
170.1143420205436
 20
262.780064906716
 30
0.0
 11
170.6143420205436
 21
262.780064906716
 31
0.0
  0
LINE
  5
A7D
330
1F
100
AcDbEntity
  8
0
  6
CONTINUOUS
100
AcDbLine
 10
170.1143420205436
 20
264.3600649067158
 30
0.0
 11
170.6143420205436
 21
264.3600649067158
 31
0.0
  0
LINE
  5
A7E
330
1F
100
AcDbEntity
  8
0
  6
CONTINUOUS
100
AcDbLine
 10
170.1143420205436
 20
260.780064906716
 30
0.0
 11
170.1143420205436
 21
259.8600649067158
 31
0.0
  0
LINE
  5
A7F
330
1F
100
AcDbEntity
  8
0
  6
CONTINUOUS
100
AcDbLine
 10
170.1143420205436
 20
262.780064906716
 30
0.0
 11
170.1143420205436
 21
261.8600649067158
 31
0.0
  0
LINE
  5
A80
330
1F
100
AcDbEntity
  8
0
100
AcDbLine
 10
168.3337820205446
 20
267.570064906716
 30
0.0
 11
172.8137820205446
 21
267.570064906716
 31
0.0
  0
LINE
  5
A81
330
1F
100
AcDbEntity
  8
0
  6
CONTINUOUS
100
AcDbLine
 10
172.8137820205446
 20
268.5700649067159
 30
0.0
 11
168.3337820205446
 21
268.5700649067159
 31
0.0
  0
LINE
  5
A82
330
1F
100
AcDbEntity
  8
0
  6
CONTINUOUS
100
AcDbLine
 10
164.7554620205436
 20
267.9700649067157
 30
0.0
 11
164.3949020205435
 21
267.9700649067157
 31
0.0
  0
LINE
  5
A83
330
1F
100
AcDbEntity
  8
0
100
AcDbLine
 10
165.4793782920478
 20
265.2928597606205
 30
0.0
 11
164.6743420205436
 21
268.2700649067156
 31
0.0
  0
LINE
  5
A84
330
1F
100
AcDbEntity
  8
0
100
AcDbLine
 10
167.2493057490398
 20
265.2928597606205
 30
0.0
 11
168.0543420205438
 21
268.2700649067156
 31
0.0
  0
LINE
  5
A85
330
1F
100
AcDbEntity
  8
0
  6
CONTINUOUS
100
AcDbLine
 10
168.3337820205446
 20
267.9700649067157
 30
0.0
 11
167.9732220205428
 21
267.9700649067157
 31
0.0
  0
LINE
  5
A86
330
1F
100
AcDbEntity
  8
0
  6
CONTINUOUS
100
AcDbLine
 10
164.3949020205435
 20
268.2700649067156
 30
0.0
 11
168.3337820205446
 21
268.2700649067156
 31
0.0
  0
LINE
  5
A87
330
1F
100
AcDbEntity
  8
0
100
AcDbLine
 10
168.3337820205446
 20
267.570064906716
 30
0.0
 11
168.3337820205446
 21
268.5700649067159
 31
0.0
  0
LINE
  5
A88
330
1F
100
AcDbEntity
  8
0
100
AcDbLine
 10
164.3949020205435
 20
267.570064906716
 30
0.0
 11
164.3949020205435
 21
268.5700649067163
 31
0.0
  0
LINE
  5
A89
330
1F
100
AcDbEntity
  8
0
100
AcDbLine
 10
172.8137820205446
 20
267.570064906716
 30
0.0
 11
172.8137820205446
 21
268.5700649067159
 31
0.0
  0
LINE
  5
A8A
330
1F
100
AcDbEntity
  8
0
100
AcDbLine
 10
170.6143420205436
 20
266.290064906716
 30
0.0
 11
171.8943420205436
 21
266.290064906716
 31
0.0
  0
LINE
  5
A8B
330
1F
100
AcDbEntity
  8
0
  6
CONTINUOUS
100
AcDbLine
 10
170.1143420205436
 20
265.280064906716
 30
0.0
 11
170.6143420205436
 21
265.280064906716
 31
0.0
  0
LINE
  5
A8C
330
1F
100
AcDbEntity
  8
0
100
AcDbLine
 10
173.1743420205436
 20
267.2094649067158
 30
0.0
 11
173.1743420205436
 21
261.9594649067161
 31
0.0
  0
LINE
  5
A8D
330
1F
100
AcDbEntity
  8
0
  6
CONTINUOUS
100
AcDbLine
 10
174.1743420205436
 20
261.9594649067161
 30
0.0
 11
174.1743420205436
 21
267.2094649067158
 31
0.0
  0
LINE
  5
A8E
330
1F
100
AcDbEntity
  8
0
  6
CONTINUOUS
100
AcDbLine
 10
173.5743420205436
 20
261.9594649067161
 30
0.0
 11
173.5743420205436
 21
260.6806649067158
 31
0.0
  0
LINE
  5
A8F
330
1F
100
AcDbEntity
  8
0
100
AcDbLine
 10
173.8743420205436
 20
260.6806649067158
 30
0.0
 11
173.8743420205436
 21
261.9594649067161
 31
0.0
  0
LINE
  5
A90
330
1F
100
AcDbEntity
  8
0
100
AcDbLine
 10
174.1743420205436
 20
260.6806649067158
 30
0.0
 11
173.1743420205436
 21
260.6806649067158
 31
0.0
  0
LINE
  5
A91
330
1F
100
AcDbEntity
  8
0
100
AcDbLine
 10
174.1743420205436
 20
261.9594649067161
 30
0.0
 11
173.1743420205436
 21
261.9594649067161
 31
0.0
  0
ARC
  5
A92
330
1F
100
AcDbEntity
  8
0
100
AcDbCircle
 10
173.3743420205436
 20
267.7700649067156
 30
0.0
 40
0.5
100
AcDbArc
 50
0.0
 51
90.0
  0
ARC
  5
A93
330
1F
100
AcDbEntity
  8
0
  6
CONTINUOUS
100
AcDbCircle
 10
173.3743420205436
 20
267.7700649067156
 30
0.0
 40
0.2
100
AcDbArc
 50
0.0
 51
90.0
  0
LINE
  5
A94
330
1F
100
AcDbEntity
  8
0
100
AcDbLine
 10
173.8743420205436
 20
267.7700649067156
 30
0.0
 11
173.8743420205436
 21
267.2094649067158
 31
0.0
  0
LINE
  5
A95
330
1F
100
AcDbEntity
  8
0
100
AcDbLine
 10
173.1743420205436
 20
267.2094649067158
 30
0.0
 11
174.1743420205436
 21
267.2094649067158
 31
0.0
  0
LINE
  5
A96
330
1F
100
AcDbEntity
  8
0
  6
CONTINUOUS
100
AcDbLine
 10
173.5743420205436
 20
267.7700649067156
 30
0.0
 11
173.5743420205436
 21
267.2094649067158
 31
0.0
  0
LINE
  5
A97
330
1F
100
AcDbEntity
  8
外形
100
AcDbLine
 10
156.0743420205457
 20
271.3200649067148
 30
0.0
 11
174.6742672040396
 21
271.3200649067157
 31
0.0
  0
LINE
  5
A98
330
1F
100
AcDbEntity
  8
外形
100
AcDbLine
 10
157.0743420205436
 20
292.733139468317
 30
0.0
 11
179.8743420205428
 21
292.733139468317
 31
0.0
  0
LINE
  5
A99
330
1F
100
AcDbEntity
  8
0
100
AcDbLine
 10
158.1507430205447
 20
295.8292704683178
 30
0.0
 11
178.8020050205435
 21
295.8292704683178
 31
0.0
  0
ARC
  5
A9A
330
1F
100
AcDbEntity
  8
0
100
AcDbCircle
 10
168.4743420205446
 20
4691.038565468317
 30
0.0
 40
4395.595658
100
AcDbArc
 50
269.8755909999925
 51
270.1244089999942
  0
LINE
  5
A9B
330
1F
100
AcDbEntity
  8
0
100
AcDbLine
 10
154.4741330205438
 20
305.3290114683178
 30
0.0
 11
182.4745510205436
 21
305.3290114683178
 31
0.0
  0
LINE
  5
A9C
330
1F
100
AcDbEntity
  8
0
100
AcDbLine
 10
154.9820600205436
 20
295.3179074683181
 30
0.0
 11
181.9666250205436
 21
295.3179074683181
 31
0.0
  0
LINE
  5
A9D
330
1F
100
AcDbEntity
  8
0
100
AcDbLine
 10
156.9743420205435
 20
292.8292704683176
 30
0.0
 11
179.9743420205435
 21
292.8292704683176
 31
0.0
  0
LINE
  5
A9E
330
1F
100
AcDbEntity
  8
0
100
AcDbLine
 10
157.0743420205436
 20
292.7331394683178
 30
0.0
 11
179.8743420205436
 21
292.7331394683178
 31
0.0
  0
LINE
  5
A9F
330
1F
100
AcDbEntity
  8
0
100
AcDbLine
 10
152.9741330205438
 20
295.8292704683178
 30
0.0
 11
152.9741330205438
 21
291.8049934683183
 31
0.0
  0
LINE
  5
AA0
330
1F
100
AcDbEntity
  8
外形
100
AcDbLine
 10
156.0743420205449
 20
291.733139468317
 30
0.0
 11
156.0743420205449
 21
276.791311668313
 31
0.0
  0
LINE
  5
AA1
330
1F
100
AcDbEntity
  8
0
100
AcDbLine
 10
155.9743420205435
 20
291.8292704683176
 30
0.0
 11
155.9743420205435
 21
277.888139468318
 31
0.0
  0
LINE
  5
AA2
330
1F
100
AcDbEntity
  8
外形
100
AcDbLine
 10
156.0743420205457
 20
271.3200649067148
 30
0.0
 11
156.0743420205449
 21
276.791311668313
 31
0.0
  0
ARC
  5
AA3
330
1F
100
AcDbEntity
  8
外形
100
AcDbCircle
 10
157.0743420205436
 20
291.733139468317
 30
0.0
 40
1.0
100
AcDbArc
 50
90.0
 51
180.0
  0
ARC
  5
AA4
330
1F
100
AcDbEntity
  8
0
100
AcDbCircle
 10
157.0743420205436
 20
291.7331394683178
 30
0.0
 40
1.0
100
AcDbArc
 50
90.0
 51
180.0
  0
ARC
  5
AA5
330
1F
100
AcDbEntity
  8
0
100
AcDbCircle
 10
156.9743420205435
 20
291.8292704683176
 30
0.0
 40
1.0
100
AcDbArc
 50
90.0
 51
180.0
  0
ARC
  5
AA6
330
1F
100
AcDbEntity
  8
0
100
AcDbCircle
 10
151.9892230205436
 20
290.8049934683183
 30
0.0
 40
1.0
100
AcDbArc
 50
90.0
 51
180.0
  0
LINE
  5
AA7
330
1F
100
AcDbEntity
  8
0
100
AcDbLine
 10
152.9741330205438
 20
291.8049934683183
 30
0.0
 11
151.9892230205436
 21
291.8049934683183
 31
0.0
  0
ARC
  5
AA8
330
1F
100
AcDbEntity
  8
0
100
AcDbCircle
 10
152.9046310205449
 20
289.4542354683181
 30
0.0
 40
1.0
100
AcDbArc
 50
90.0
 51
180.0
  0
ARC
  5
AA9
330
1F
100
AcDbEntity
  8
0
100
AcDbCircle
 10
152.9046310205449
 20
289.4542354683181
 30
0.0
 40
1.0
100
AcDbArc
 50
90.0
 51
180.0
  0
LINE
  5
AAA
330
1F
100
AcDbEntity
  8
0
100
AcDbLine
 10
152.9046310205449
 20
290.4542354683182
 30
0.0
 11
153.9050600205436
 21
290.4542354683182
 31
0.0
  0
LINE
  5
AAB
330
1F
100
AcDbEntity
  8
0
100
AcDbLine
 10
152.9046310205449
 20
290.4542354683182
 30
0.0
 11
153.9050600205436
 21
290.4542354683182
 31
0.0
  0
LINE
  5
AAC
330
1F
100
AcDbEntity
  8
0
100
AcDbLine
 10
152.9741330205438
 20
291.8049934683183
 30
0.0
 11
153.9050600205436
 21
290.4542354683182
 31
0.0
  0
LINE
  5
AAD
330
1F
100
AcDbEntity
  8
0
100
AcDbLine
 10
152.9741330205438
 20
291.8049934683183
 30
0.0
 11
153.9050600205436
 21
290.4542354683182
 31
0.0
  0
LINE
  5
AAE
330
1F
100
AcDbEntity
  8
0
100
AcDbLine
 10
153.9741330205446
 20
296.8292704683178
 30
0.0
 11
157.4746660205436
 21
296.8292704683178
 31
0.0
  0
LINE
  5
AAF
330
1F
100
AcDbEntity
  8
0
100
AcDbLine
 10
152.9741330205438
 20
295.8292704683178
 30
0.0
 11
152.9741330205438
 21
303.8290114683178
 31
0.0
  0
ARC
  5
AB0
330
1F
100
AcDbEntity
  8
0
100
AcDbCircle
 10
154.9820600205436
 20
294.3179074683181
 30
0.0
 40
1.0
100
AcDbArc
 50
90.0
 51
180.0
  0
ARC
  5
AB1
330
1F
100
AcDbEntity
  8
0
100
AcDbCircle
 10
153.9741330205446
 20
295.8292704683178
 30
0.0
 40
1.0
100
AcDbArc
 50
90.0
 51
180.0
  0
ARC
  5
AB2
330
1F
100
AcDbEntity
  8
0
100
AcDbCircle
 10
154.4741330205438
 20
303.8290114683178
 30
0.0
 40
1.5
100
AcDbArc
 50
90.0
 51
180.0
  0
ARC
  5
AB3
330
1F
100
AcDbEntity
  8
0
100
AcDbCircle
 10
158.9321700205448
 20
296.4532664683179
 30
0.0
 40
1.0
100
AcDbArc
 50
213.9015840000178
 51
269.8755909999925
  0
LINE
  5
AB4
330
1F
100
AcDbEntity
  8
0
100
AcDbLine
 10
158.1021730205436
 20
295.8954984683177
 30
0.0
 11
157.4746660205436
 21
296.8292704683178
 31
0.0
  0
LINE
  5
AB5
330
1F
100
AcDbEntity
  8
0
100
AcDbLine
 10
183.9745500205438
 20
295.8292704683178
 30
0.0
 11
183.9745500205438
 21
291.8049934683183
 31
0.0
  0
LINE
  5
AB6
330
1F
100
AcDbEntity
  8
0
100
AcDbLine
 10
172.4741933954466
 20
278.6700649067121
 30
0.0
 11
174.0741933954466
 21
278.6700649067121
 31
0.0
  0
LINE
  5
AB7
330
1F
100
AcDbEntity
  8
0
100
AcDbLine
 10
172.6741933954467
 20
280.8250639067119
 30
0.0
 11
173.7741933954465
 21
280.8250639067119
 31
0.0
  0
LINE
  5
AB8
330
1F
100
AcDbEntity
  8
0
100
AcDbLine
 10
172.6741933954467
 20
280.8250639067119
 30
0.0
 11
173.7741933954465
 21
280.8250639067119
 31
0.0
  0
LINE
  5
AB9
330
1F
100
AcDbEntity
  8
0
100
AcDbLine
 10
172.6741933954467
 20
279.2250639067118
 30
0.0
 11
173.7741933954465
 21
279.2250639067118
 31
0.0
  0
LINE
  5
ABA
330
1F
100
AcDbEntity
  8
0
100
AcDbLine
 10
172.6741933954467
 20
279.2250639067118
 30
0.0
 11
173.7741933954465
 21
279.2250639067118
 31
0.0
  0
LINE
  5
ABB
330
1F
100
AcDbEntity
  8
0
100
AcDbLine
 10
172.4741933954466
 20
281.3700649067125
 30
0.0
 11
174.0741933954466
 21
281.3700649067125
 31
0.0
  0
LINE
  5
ABC
330
1F
100
AcDbEntity
  8
外形
100
AcDbLine
 10
172.4741933954466
 20
281.306986345067
 30
0.0
 11
174.0741933954466
 21
281.306986345067
 31
0.0
  0
LINE
  5
ABD
330
1F
100
AcDbEntity
  8
外形
100
AcDbLine
 10
172.4741933954466
 20
278.6069863450661
 30
0.0
 11
174.0741933954466
 21
278.6069863450661
 31
0.0
  0
LINE
  5
ABE
330
1F
100
AcDbEntity
  8
外形
100
AcDbLine
 10
174.0741933954466
 20
278.6700649067115
 30
0.0
 11
172.4741933954466
 21
278.6700649067115
 31
0.0
  0
LINE
  5
ABF
330
1F
100
AcDbEntity
  8
外形
100
AcDbLine
 10
174.0741933954466
 20
281.3700649067125
 30
0.0
 11
172.4741933954466
 21
281.3700649067125
 31
0.0
  0
LINE
  5
AC0
330
1F
100
AcDbEntity
  8
0
100
AcDbLine
 10
172.6741933954467
 20
280.8250639067119
 30
0.0
 11
172.6741933954467
 21
279.2250639067116
 31
0.0
  0
LINE
  5
AC1
330
1F
100
AcDbEntity
  8
0
100
AcDbLine
 10
172.4741933954466
 20
281.3700649067125
 30
0.0
 11
172.4741933954466
 21
278.6700649067121
 31
0.0
  0
LINE
  5
AC2
330
1F
100
AcDbEntity
  8
外形
100
AcDbLine
 10
172.4741933954466
 20
281.306986345067
 30
0.0
 11
172.4741933954466
 21
278.6069863450661
 31
0.0
  0
LINE
  5
AC3
330
1F
100
AcDbEntity
  8
外形
100
AcDbLine
 10
172.4741933954466
 20
278.6700649067115
 30
0.0
 11
172.4741933954466
 21
281.3700649067125
 31
0.0
  0
LINE
  5
AC4
330
1F
100
AcDbEntity
  8
0
100
AcDbLine
 10
173.7741933954465
 20
279.2250639067118
 30
0.0
 11
173.7741933954465
 21
280.8250639067119
 31
0.0
  0
LINE
  5
AC5
330
1F
100
AcDbEntity
  8
0
100
AcDbLine
 10
173.7741933954465
 20
279.2250639067118
 30
0.0
 11
173.7741933954465
 21
280.8250639067119
 31
0.0
  0
LINE
  5
AC6
330
1F
100
AcDbEntity
  8
0
100
AcDbLine
 10
173.7741933954465
 20
279.2250639067118
 30
0.0
 11
173.7741933954465
 21
280.8250639067119
 31
0.0
  0
LINE
  5
AC7
330
1F
100
AcDbEntity
  8
0
100
AcDbLine
 10
174.0741933954466
 20
278.6700649067121
 30
0.0
 11
174.0741933954466
 21
281.3700649067125
 31
0.0
  0
LINE
  5
AC8
330
1F
100
AcDbEntity
  8
外形
100
AcDbLine
 10
174.0741933954466
 20
278.6069863450661
 30
0.0
 11
174.0741933954466
 21
281.306986345067
 31
0.0
  0
LINE
  5
AC9
330
1F
100
AcDbEntity
  8
外形
100
AcDbLine
 10
174.0741933954466
 20
281.3700649067125
 30
0.0
 11
174.0741933954466
 21
278.6700649067115
 31
0.0
  0
LINE
  5
ACA
330
1F
100
AcDbEntity
  8
0
100
AcDbLine
 10
172.4741933954466
 20
284.1700609066723
 30
0.0
 11
174.0741933954466
 21
284.1700609066723
 31
0.0
  0
LINE
  5
ACB
330
1F
100
AcDbEntity
  8
0
100
AcDbLine
 10
172.6741933954467
 20
286.3250599066724
 30
0.0
 11
173.7741933954465
 21
286.3250599066724
 31
0.0
  0
LINE
  5
ACC
330
1F
100
AcDbEntity
  8
0
100
AcDbLine
 10
172.6741933954467
 20
286.3250599066724
 30
0.0
 11
173.7741933954465
 21
286.3250599066724
 31
0.0
  0
LINE
  5
ACD
330
1F
100
AcDbEntity
  8
0
100
AcDbLine
 10
172.6741933954467
 20
284.7250599066725
 30
0.0
 11
173.7741933954465
 21
284.7250599066725
 31
0.0
  0
LINE
  5
ACE
330
1F
100
AcDbEntity
  8
0
100
AcDbLine
 10
172.6741933954467
 20
284.7250599066725
 30
0.0
 11
173.7741933954465
 21
284.7250599066725
 31
0.0
  0
LINE
  5
ACF
330
1F
100
AcDbEntity
  8
0
100
AcDbLine
 10
172.4741933954466
 20
286.8700609066728
 30
0.0
 11
174.0741933954466
 21
286.8700609066728
 31
0.0
  0
LINE
  5
AD0
330
1F
100
AcDbEntity
  8
外形
100
AcDbLine
 10
172.4741933954466
 20
286.8069823450273
 30
0.0
 11
174.0741933954466
 21
286.8069823450273
 31
0.0
  0
LINE
  5
AD1
330
1F
100
AcDbEntity
  8
外形
100
AcDbLine
 10
172.4741933954466
 20
284.1069823450268
 30
0.0
 11
174.0741933954466
 21
284.1069823450268
 31
0.0
  0
LINE
  5
AD2
330
1F
100
AcDbEntity
  8
外形
100
AcDbLine
 10
174.0741933954466
 20
284.170060906672
 30
0.0
 11
172.4741933954466
 21
284.170060906672
 31
0.0
  0
LINE
  5
AD3
330
1F
100
AcDbEntity
  8
外形
100
AcDbLine
 10
174.0741933954466
 20
286.8700609066728
 30
0.0
 11
172.4741933954466
 21
286.8700609066728
 31
0.0
  0
LINE
  5
AD4
330
1F
100
AcDbEntity
  8
0
100
AcDbLine
 10
172.6741933954467
 20
286.3250599066724
 30
0.0
 11
172.6741933954467
 21
284.7250599066719
 31
0.0
  0
LINE
  5
AD5
330
1F
100
AcDbEntity
  8
0
100
AcDbLine
 10
172.4741933954466
 20
286.8700609066728
 30
0.0
 11
172.4741933954466
 21
284.1700609066723
 31
0.0
  0
LINE
  5
AD6
330
1F
100
AcDbEntity
  8
外形
100
AcDbLine
 10
172.4741933954466
 20
286.8069823450273
 30
0.0
 11
172.4741933954466
 21
284.1069823450268
 31
0.0
  0
LINE
  5
AD7
330
1F
100
AcDbEntity
  8
外形
100
AcDbLine
 10
172.4741933954466
 20
284.170060906672
 30
0.0
 11
172.4741933954466
 21
286.8700609066728
 31
0.0
  0
LINE
  5
AD8
330
1F
100
AcDbEntity
  8
0
100
AcDbLine
 10
173.7741933954465
 20
284.7250599066725
 30
0.0
 11
173.7741933954465
 21
286.3250599066724
 31
0.0
  0
LINE
  5
AD9
330
1F
100
AcDbEntity
  8
0
100
AcDbLine
 10
173.7741933954465
 20
284.7250599066725
 30
0.0
 11
173.7741933954465
 21
286.3250599066724
 31
0.0
  0
LINE
  5
ADA
330
1F
100
AcDbEntity
  8
0
100
AcDbLine
 10
173.7741933954465
 20
284.7250599066725
 30
0.0
 11
173.7741933954465
 21
286.3250599066724
 31
0.0
  0
LINE
  5
ADB
330
1F
100
AcDbEntity
  8
0
100
AcDbLine
 10
174.0741933954466
 20
284.1700609066723
 30
0.0
 11
174.0741933954466
 21
286.8700609066728
 31
0.0
  0
LINE
  5
ADC
330
1F
100
AcDbEntity
  8
外形
100
AcDbLine
 10
174.0741933954466
 20
284.1069823450268
 30
0.0
 11
174.0741933954466
 21
286.8069823450273
 31
0.0
  0
LINE
  5
ADD
330
1F
100
AcDbEntity
  8
外形
100
AcDbLine
 10
174.0741933954466
 20
286.8700609066728
 30
0.0
 11
174.0741933954466
 21
284.170060906672
 31
0.0
  0
LINE
  5
ADE
330
1F
100
AcDbEntity
  8
外形
100
AcDbLine
 10
175.2743420205438
 20
284.170060906672
 30
0.0
 11
176.8743420205428
 21
284.170060906672
 31
0.0
  0
LINE
  5
ADF
330
1F
100
AcDbEntity
  8
外形
100
AcDbLine
 10
175.2743420205438
 20
286.8700609066728
 30
0.0
 11
176.8743420205428
 21
286.8700609066728
 31
0.0
  0
LINE
  5
AE0
330
1F
100
AcDbEntity
  8
外形
100
AcDbLine
 10
176.8743420205428
 20
284.170060906672
 30
0.0
 11
176.8743420205428
 21
286.8700609066728
 31
0.0
  0
LINE
  5
AE1
330
1F
100
AcDbEntity
  8
外形
100
AcDbLine
 10
175.2743420205438
 20
286.8700609066728
 30
0.0
 11
175.2743420205438
 21
284.170060906672
 31
0.0
  0
LINE
  5
AE2
330
1F
100
AcDbEntity
  8
0
100
AcDbLine
 10
176.8743420205436
 20
284.2331394683178
 30
0.0
 11
176.8743420205436
 21
286.9331394683182
 31
0.0
  0
LINE
  5
AE3
330
1F
100
AcDbEntity
  8
0
100
AcDbLine
 10
175.2743420205438
 20
286.9331394683182
 30
0.0
 11
175.2743420205438
 21
284.2331394683178
 31
0.0
  0
LINE
  5
AE4
330
1F
100
AcDbEntity
  8
0
100
AcDbLine
 10
175.2743420205438
 20
286.9331394683182
 30
0.0
 11
176.8743420205436
 21
286.9331394683182
 31
0.0
  0
LINE
  5
AE5
330
1F
100
AcDbEntity
  8
0
100
AcDbLine
 10
176.5743420205436
 20
284.7881384683178
 30
0.0
 11
176.5743420205436
 21
286.3881384683177
 31
0.0
  0
LINE
  5
AE6
330
1F
100
AcDbEntity
  8
0
100
AcDbLine
 10
176.5743420205436
 20
284.7881384683178
 30
0.0
 11
176.5743420205436
 21
286.3881384683177
 31
0.0
  0
LINE
  5
AE7
330
1F
100
AcDbEntity
  8
0
100
AcDbLine
 10
176.5743420205436
 20
284.7881384683178
 30
0.0
 11
176.5743420205436
 21
286.3881384683177
 31
0.0
  0
LINE
  5
AE8
330
1F
100
AcDbEntity
  8
0
100
AcDbLine
 10
175.4743420205435
 20
284.7881384683178
 30
0.0
 11
176.5743420205436
 21
284.7881384683178
 31
0.0
  0
LINE
  5
AE9
330
1F
100
AcDbEntity
  8
0
100
AcDbLine
 10
175.4743420205435
 20
284.7881384683178
 30
0.0
 11
176.5743420205436
 21
284.7881384683178
 31
0.0
  0
LINE
  5
AEA
330
1F
100
AcDbEntity
  8
0
100
AcDbLine
 10
175.4743420205435
 20
286.3881384683177
 30
0.0
 11
176.5743420205436
 21
286.3881384683177
 31
0.0
  0
LINE
  5
AEB
330
1F
100
AcDbEntity
  8
0
100
AcDbLine
 10
175.4743420205435
 20
286.3881384683177
 30
0.0
 11
176.5743420205436
 21
286.3881384683177
 31
0.0
  0
LINE
  5
AEC
330
1F
100
AcDbEntity
  8
0
100
AcDbLine
 10
175.2743420205438
 20
284.2331394683178
 30
0.0
 11
176.8743420205436
 21
284.2331394683178
 31
0.0
  0
LINE
  5
AED
330
1F
100
AcDbEntity
  8
0
100
AcDbLine
 10
175.4743420205435
 20
286.3881384683177
 30
0.0
 11
175.4743420205435
 21
284.7881384683172
 31
0.0
  0
ARC
  5
AEE
330
1F
100
AcDbEntity
  8
外形
100
AcDbCircle
 10
179.8743420205428
 20
291.733139468317
 30
0.0
 40
1.0
100
AcDbArc
 50
0.0
 51
90.0
  0
ARC
  5
AEF
330
1F
100
AcDbEntity
  8
0
100
AcDbCircle
 10
179.8743420205436
 20
291.7331394683178
 30
0.0
 40
1.0
100
AcDbArc
 50
0.0
 51
90.0
  0
ARC
  5
AF0
330
1F
100
AcDbEntity
  8
0
100
AcDbCircle
 10
179.9743420205435
 20
291.8292704683176
 30
0.0
 40
1.0
100
AcDbArc
 50
0.0
 51
90.0
  0
ARC
  5
AF1
330
1F
100
AcDbEntity
  8
0
100
AcDbCircle
 10
184.9593410205436
 20
290.8049934683183
 30
0.0
 40
1.0
100
AcDbArc
 50
0.0
 51
90.0
  0
LINE
  5
AF2
330
1F
100
AcDbEntity
  8
0
100
AcDbLine
 10
184.0440530205436
 20
290.4542354683182
 30
0.0
 11
183.0436250205436
 21
290.4542354683182
 31
0.0
  0
LINE
  5
AF3
330
1F
100
AcDbEntity
  8
0
100
AcDbLine
 10
184.0440530205436
 20
290.4542354683182
 30
0.0
 11
183.0436250205436
 21
290.4542354683182
 31
0.0
  0
ARC
  5
AF4
330
1F
100
AcDbEntity
  8
0
100
AcDbCircle
 10
184.0440530205436
 20
289.4542354683181
 30
0.0
 40
1.0
100
AcDbArc
 50
0.0
 51
90.0
  0
ARC
  5
AF5
330
1F
100
AcDbEntity
  8
0
100
AcDbCircle
 10
184.0440530205436
 20
289.4542354683181
 30
0.0
 40
1.0
100
AcDbArc
 50
0.0
 51
90.0
  0
LINE
  5
AF6
330
1F
100
AcDbEntity
  8
0
100
AcDbLine
 10
183.9745510205436
 20
291.8049934683183
 30
0.0
 11
184.9593410205436
 21
291.8049934683183
 31
0.0
  0
LINE
  5
AF7
330
1F
100
AcDbEntity
  8
0
100
AcDbLine
 10
183.9745510205436
 20
291.8049934683183
 30
0.0
 11
183.0436250205436
 21
290.4542354683182
 31
0.0
  0
LINE
  5
AF8
330
1F
100
AcDbEntity
  8
0
100
AcDbLine
 10
183.9745510205436
 20
291.8049934683183
 30
0.0
 11
183.0436250205436
 21
290.4542354683182
 31
0.0
  0
LINE
  5
AF9
330
1F
100
AcDbEntity
  8
0
100
AcDbLine
 10
179.4740170205435
 20
296.8292704683178
 30
0.0
 11
182.9745500205447
 21
296.8292704683178
 31
0.0
  0
CIRCLE
  5
AFA
330
1F
100
AcDbEntity
  8
0
100
AcDbCircle
 10
168.4743420205435
 20
300.5790114683177
 30
0.0
 40
2.5
  0
ARC
  5
AFB
330
1F
100
AcDbEntity
  8
0
100
AcDbCircle
 10
178.0165140205438
 20
296.4532664683179
 30
0.0
 40
1.0
100
AcDbArc
 50
270.1244089999942
 51
326.0984159999821
  0
LINE
  5
AFC
330
1F
100
AcDbEntity
  8
0
100
AcDbLine
 10
178.8465110205436
 20
295.8954984683177
 30
0.0
 11
179.4740170205435
 21
296.8292704683178
 31
0.0
  0
LINE
  5
AFD
330
1F
100
AcDbEntity
  8
0
100
AcDbLine
 10
183.9745510205436
 20
294.8881384683177
 30
0.0
 11
183.9745510205436
 21
303.8290114683178
 31
0.0
  0
ARC
  5
AFE
330
1F
100
AcDbEntity
  8
0
100
AcDbCircle
 10
181.9666250205436
 20
294.3179074683181
 30
0.0
 40
1.0
100
AcDbArc
 50
0.0
 51
90.0
  0
ARC
  5
AFF
330
1F
100
AcDbEntity
  8
0
100
AcDbCircle
 10
182.9745500205447
 20
295.8292704683178
 30
0.0
 40
1.0
100
AcDbArc
 50
0.0
 51
90.0
  0
ARC
  5
B00
330
1F
100
AcDbEntity
  8
0
100
AcDbCircle
 10
182.4745510205436
 20
303.8290114683178
 30
0.0
 40
1.5
100
AcDbArc
 50
0.0
 51
90.0
  0
LINE
  5
B01
330
1F
100
AcDbEntity
  8
CLASS1
100
AcDbLine
 10
2.499999746286903
 20
298.3305604683176
 30
0.0
 11
2.499999746286903
 21
293.329270468318
 31
0.0
  0
LINE
  5
B02
330
1F
100
AcDbEntity
  8
CLASS1
100
AcDbLine
 10
68.12251674628692
 20
296.8525754683178
 30
0.0
 11
2.499999746286903
 21
298.3305604683176
 31
0.0
  0
LINE
  5
B03
330
1F
100
AcDbEntity
  8
CLASS1
100
AcDbLine
 10
-0.0000002537121873
 20
126.8290114683177
 30
0.0
 11
-0.0000002537121873
 21
305.3290114683178
 31
0.0
  0
LINE
  5
B05
330
1F
100
AcDbEntity
  8
CLASS1
100
AcDbLine
 10
61.96772774628676
 20
141.7001094683178
 30
0.0
 11
2.523001746287718
 21
140.3324134683177
 31
0.0
  0
LINE
  5
B06
330
1F
100
AcDbEntity
  8
CLASS1
100
AcDbLine
 10
68.12251674628692
 20
136.8085454683177
 30
0.0
 11
2.499999746286903
 21
135.3305604683176
 31
0.0
  0
LINE
  5
B07
330
1F
100
AcDbEntity
  8
CLASS1
100
AcDbLine
 10
2.522720746287858
 20
293.3287534683179
 30
0.0
 11
61.96744774628678
 21
291.9777364683178
 31
0.0
  0
LINE
  5
B08
330
1F
100
AcDbEntity
  8
CLASS1
100
AcDbLine
 10
62.94472574628776
 20
142.6998444683178
 30
0.0
 11
62.94472574628776
 21
290.9779944683176
 31
0.0
  0
LINE
  5
B09
330
1F
100
AcDbEntity
  8
CLASS1
100
AcDbLine
 10
68.79999974628778
 20
294.3305604683176
 30
0.0
 11
68.79999974628778
 21
139.3305604683176
 31
0.0
  0
LINE
  5
B0A
330
1F
100
AcDbEntity
  8
CLASS1
100
AcDbLine
 10
68.31567374628685
 20
294.3305604683176
 30
0.0
 11
68.31567374628685
 21
139.3305604683176
 31
0.0
  0
LINE
  5
B0B
330
1F
100
AcDbEntity
  8
CLASS1
100
AcDbLine
 10
68.04452274628693
 20
295.8766014683178
 30
0.0
 11
68.04452274628693
 21
137.7845194683179
 31
0.0
  0
ARC
  5
B0C
330
1F
100
AcDbEntity
  8
CLASS1
100
AcDbCircle
 10
68.09999974628772
 20
137.8082914683177
 30
0.0
 40
1.0
100
AcDbArc
 50
271.2902270000052
 51
0.0
  0
LINE
  5
B0D
330
1F
100
AcDbEntity
  8
CLASS1
100
AcDbLine
 10
68.31567374628685
 20
139.3305604683176
 30
0.0
 11
69.09999974628681
 21
139.3305604683176
 31
0.0
  0
LINE
  5
B0E
330
1F
100
AcDbEntity
  8
CLASS1
100
AcDbLine
 10
69.09999974628681
 20
137.8082914683177
 30
0.0
 11
69.09999974628681
 21
139.3305604683176
 31
0.0
  0
ARC
  5
B0F
330
1F
100
AcDbEntity
  8
CLASS1
100
AcDbCircle
 10
67.04452274628784
 20
137.7845194683179
 30
0.0
 40
1.0
100
AcDbArc
 50
271.2902270000052
 51
0.0
  0
ARC
  5
B10
330
1F
100
AcDbEntity
  8
CLASS1
100
AcDbCircle
 10
61.94472574628685
 20
142.6998444683178
 30
0.0
 40
1.0
100
AcDbArc
 50
271.318021000004
 51
0.0
  0
LINE
  5
B11
330
1F
100
AcDbEntity
  8
0
100
AcDbLine
 10
69.29999974628684
 20
189.2544294683178
 30
0.0
 11
69.29999974628684
 21
186.2544294683178
 31
0.0
  0
LINE
  5
B12
330
1F
100
AcDbEntity
  8
0
100
AcDbLine
 10
69.29999974628684
 20
189.2544294683178
 30
0.0
 11
68.31567374628685
 21
189.2544294683178
 31
0.0
  0
LINE
  5
B13
330
1F
100
AcDbEntity
  8
0
100
AcDbLine
 10
69.29999974628684
 20
186.2544294683178
 30
0.0
 11
68.31567374628685
 21
186.2544294683178
 31
0.0
  0
LINE
  5
B14
330
1F
100
AcDbEntity
  8
0
100
AcDbLine
 10
69.29999974628684
 20
230.4084174683179
 30
0.0
 11
69.29999974628684
 21
227.408417468318
 31
0.0
  0
LINE
  5
B15
330
1F
100
AcDbEntity
  8
0
100
AcDbLine
 10
69.29999974628684
 20
230.4084174683179
 30
0.0
 11
68.31567374628685
 21
230.4084174683181
 31
0.0
  0
LINE
  5
B16
330
1F
100
AcDbEntity
  8
0
100
AcDbLine
 10
69.29999974628684
 20
227.408417468318
 30
0.0
 11
68.31567374628685
 21
227.4084174683181
 31
0.0
  0
LINE
  5
B17
330
1F
100
AcDbEntity
  8
CLASS1
100
AcDbLine
 10
68.31567374628685
 20
294.3305604683176
 30
0.0
 11
69.09999974628681
 21
294.3305604683176
 31
0.0
  0
LINE
  5
B18
330
1F
100
AcDbEntity
  8
CLASS1
100
AcDbLine
 10
69.09999974628681
 20
295.8528294683178
 30
0.0
 11
69.09999974628681
 21
294.3305604683176
 31
0.0
  0
ARC
  5
B19
330
1F
100
AcDbEntity
  8
CLASS1
100
AcDbCircle
 10
68.09999974628772
 20
295.8528294683178
 30
0.0
 40
1.0
100
AcDbArc
 50
0.0
 51
88.70977299999479
  0
ARC
  5
B1A
330
1F
100
AcDbEntity
  8
CLASS1
100
AcDbCircle
 10
67.04452274628784
 20
295.8766014683178
 30
0.0
 40
1.0
100
AcDbArc
 50
0.0
 51
88.70977299999479
  0
ARC
  5
B1B
330
1F
100
AcDbEntity
  8
CLASS1
100
AcDbCircle
 10
61.94472574628685
 20
290.9779944683176
 30
0.0
 40
1.0
100
AcDbArc
 50
0.0
 51
88.69804600000644
  0
LINE
  5
B1C
330
1F
100
AcDbEntity
  8
CLASS1
100
AcDbLine
 10
1.499999746286903
 20
141.3321484683176
 30
0.0
 11
1.499999746286903
 21
292.3290114683178
 31
0.0
  0
LINE
  5
B1D
330
1F
100
AcDbEntity
  8
0
100
AcDbLine
 10
2.499999746286903
 20
135.3305604683176
 30
0.0
 11
2.499999746286903
 21
126.8290114683177
 31
0.0
  0
LINE
  5
B1E
330
1F
100
AcDbEntity
  8
CLASS1
100
AcDbLine
 10
2.499999746286903
 20
126.8290114683177
 30
0.0
 11
-0.0000002537121873
 21
126.8290114683177
 31
0.0
  0
ARC
  5
B1F
330
1F
100
AcDbEntity
  8
CLASS1
100
AcDbCircle
 10
2.499999746286903
 20
141.3321484683176
 30
0.0
 40
1.0
100
AcDbArc
 50
180.0
 51
271.318021000004
  0
LINE
  5
B20
330
1F
100
AcDbEntity
  8
CLASS1
100
AcDbLine
 10
2.499999746286903
 20
135.3305604683176
 30
0.0
 11
2.499999746286903
 21
140.3318844683177
 31
0.0
  0
ARC
  5
B21
330
1F
100
AcDbEntity
  8
CLASS1
100
AcDbCircle
 10
2.499999746286903
 20
292.3290114683178
 30
0.0
 40
1.0
100
AcDbArc
 50
88.69804699999894
 51
180.0
  0
LINE
  5
B22
330
1F
100
AcDbEntity
  8
CLASS1
100
AcDbLine
 10
2.499999746286903
 20
305.3290114683178
 30
0.0
 11
-0.0000002537121873
 21
305.3290114683178
 31
0.0
  0
LINE
  5
B23
330
1F
100
AcDbEntity
  8
0
100
AcDbLine
 10
2.499999746286903
 20
305.3290114683178
 30
0.0
 11
2.499999746286903
 21
298.3305604683176
 31
0.0
  0
LINE
  5
B24
330
1F
100
AcDbEntity
  8
CLASS1
100
AcDbLine
 10
334.4485642947996
 20
133.827462468318
 30
0.0
 11
334.4485642947996
 21
138.8287524683177
 31
0.0
  0
LINE
  5
B25
330
1F
100
AcDbEntity
  8
CLASS1
100
AcDbLine
 10
268.8260472947997
 20
135.3054474683181
 30
0.0
 11
334.4485642947996
 21
133.827462468318
 31
0.0
  0
LINE
  5
B26
330
1F
100
AcDbEntity
  8
CLASS1
100
AcDbLine
 10
336.9485642947996
 20
305.3290114683178
 30
0.0
 11
336.9485642947996
 21
126.8290114683177
 31
0.0
  0
LINE
  5
B27
330
1F
100
AcDbEntity
  8
CLASS1
100
AcDbLine
 10
288.9255625524238
 20
266.4990114683178
 30
0.0
 11
335.4485642948008
 21
267.5790114683179
 31
0.0
  0
LINE
  5
B28
330
1F
100
AcDbEntity
  8
CLASS1
100
AcDbLine
 10
289.4255622947996
 20
266.2701204683179
 30
0.0
 11
335.4485642948008
 21
267.3290114683179
 31
0.0
  0
LINE
  5
B29
330
1F
100
AcDbEntity
  8
CLASS1
100
AcDbLine
 10
310.3278892947995
 20
221.9440114683181
 30
0.0
 11
315.5537392947997
 21
221.9440114683181
 31
0.0
  0
LINE
  5
B2A
330
1F
100
AcDbEntity
  8
CLASS1
100
AcDbLine
 10
310.3278892947995
 20
221.9440114683181
 30
0.0
 11
315.5537392947997
 21
221.9440114683181
 31
0.0
  0
LINE
  5
B2B
330
1F
100
AcDbEntity
  8
CLASS1
100
AcDbLine
 10
313.1723392947997
 20
208.7140114683179
 30
0.0
 11
318.1335892947998
 21
208.7140114683179
 31
0.0
  0
LINE
  5
B2C
330
1F
100
AcDbEntity
  8
CLASS1
100
AcDbLine
 10
313.1723392947997
 20
208.7140114683179
 30
0.0
 11
318.1335892947998
 21
208.7140114683179
 31
0.0
  0
HATCH
  5
B2D
330
1F
100
AcDbEntity
  8
CLASS1
100
AcDbHatch
 10
0.0
 20
0.0
 30
0.0
210
0.0
220
0.0
230
1.0
  2
SOLID
 70
     1
 71
     0
 91
        1
 92
        1
 93
       13
 72
     1
 10
307.4243765311188
 20
212.0215113032193
 11
306.2931757932917
 21
210.3131175622745
 72
     2
 10
307.2859661539996
 20
209.6557485017193
 40
1.190699999999956
 50
866.48975
 51
952.2706859999995
 73
     1
 72
     1
 10
306.5573389935386
 20
208.7140113032194
 11
301.7945391185008
 21
208.7140113032194
 72
     1
 10
301.7945391185008
 20
208.7140113032194
 11
310.5528429476597
 21
220.630070777228
 72
     2
 10
309.8066244725007
 20
221.1785413637191
 40
0.9261000000000107
 50
1043.684112999998
 51
1135.746171999999
 73
     1
 72
     1
 10
310.3278892629106
 20
221.9440113032193
 11
315.5537391185006
 21
221.9440113032193
 72
     1
 10
315.5537391185006
 20
221.9440113032193
 11
318.1335891185008
 21
208.7140113032194
 72
     1
 10
318.1335891185008
 20
208.7140113032194
 11
313.1723391185006
 21
208.7140113032194
 72
     1
 10
313.1723391185006
 20
208.7140113032194
 11
312.5273766185006
 21
212.0215113032193
 72
     1
 10
312.5273766185006
 20
212.0215113032193
 11
312.1919961185008
 21
213.7414113032192
 72
     1
 10
312.1919961185008
 20
213.7414113032192
 11
311.3664441185008
 21
217.9750113032191
 72
     1
 10
311.3664441185008
 20
217.9750113032191
 11
308.5631960563636
 21
213.7414113032192
 72
     1
 10
308.5631960563636
 20
213.7414113032192
 11
307.4243765311188
 21
212.0215113032193
 97
        0
 75
     0
 76
     1
 98
        1
 10
242.5140522948007
 20
195.1147284683179
  0
HATCH
  5
B2E
330
1F
100
AcDbEntity
  8
CLASS1
100
AcDbHatch
 10
0.0
 20
0.0
 30
0.0
210
0.0
220
0.0
230
1.0
  2
SOLID
 70
     1
 71
     0
 91
        1
 92
        1
 93
       13
 72
     1
 10
307.4243765311188
 20
212.0215113032193
 11
306.2931757932896
 21
210.3131175622745
 72
     2
 10
307.2859661539996
 20
209.6557485017193
 40
1.190699999999956
 50
866.48975
 51
952.2706859999995
 73
     1
 72
     1
 10
306.5573389935386
 20
208.7140113032194
 11
301.7945391185008
 21
208.7140113032194
 72
     1
 10
301.7945391185008
 20
208.7140113032194
 11
310.5528429476597
 21
220.630070777228
 72
     2
 10
309.8066244725007
 20
221.1785413637191
 40
0.9261000000000107
 50
1043.684112999998
 51
1135.746171999999
 73
     1
 72
     1
 10
310.3278892629106
 20
221.9440113032193
 11
315.5537391185006
 21
221.9440113032193
 72
     1
 10
315.5537391185006
 20
221.9440113032193
 11
318.1335891185008
 21
208.7140113032194
 72
     1
 10
318.1335891185008
 20
208.7140113032194
 11
313.1723391185006
 21
208.7140113032194
 72
     1
 10
313.1723391185006
 20
208.7140113032194
 11
312.5273766185006
 21
212.0215113032193
 72
     1
 10
312.5273766185006
 20
212.0215113032193
 11
312.1919961185008
 21
213.7414113032192
 72
     1
 10
312.1919961185008
 20
213.7414113032192
 11
311.3664441185008
 21
217.9750113032191
 72
     1
 10
311.3664441185008
 20
217.9750113032191
 11
308.5631960563616
 21
213.7414113032192
 72
     1
 10
308.5631960563636
 20
213.7414113032192
 11
307.4243765311188
 21
212.0215113032193
 97
        0
 75
     0
 76
     1
 98
        1
 10
242.5140522948007
 20
195.1147284683179
  0
LINE
  5
B2F
330
1F
100
AcDbEntity
  8
CLASS1
100
AcDbLine
 10
274.9808362948016
 20
290.457913468318
 30
0.0
 11
334.4255622948006
 21
291.8256094683178
 31
0.0
  0
LINE
  5
B30
330
1F
100
AcDbEntity
  8
CLASS1
100
AcDbLine
 10
268.8260472948018
 20
295.3494774683183
 30
0.0
 11
334.4485642947996
 21
296.8274624683179
 31
0.0
  0
LINE
  5
B31
330
1F
100
AcDbEntity
  8
CLASS1
100
AcDbLine
 10
288.7375450321996
 20
164.1590114683177
 30
0.0
 11
335.4485642947996
 21
163.0790114683179
 31
0.0
  0
LINE
  5
B32
330
1F
100
AcDbEntity
  8
CLASS1
100
AcDbLine
 10
289.4255622947996
 20
164.3879024683179
 30
0.0
 11
335.4485642947996
 21
163.3290114683179
 31
0.0
  0
LINE
  5
B33
330
1F
100
AcDbEntity
  8
CLASS1
100
AcDbLine
 10
334.4258432947996
 20
138.8292694683177
 30
0.0
 11
274.9811162947995
 21
140.1802864683179
 31
0.0
  0
LINE
  5
B34
330
1F
100
AcDbEntity
  8
CLASS1
100
AcDbLine
 10
287.9485642947996
 20
265.5016677986663
 30
0.0
 11
287.9485642947996
 21
165.1414379954501
 31
0.0
  0
LINE
  5
B35
330
1F
100
AcDbEntity
  8
CLASS1
100
AcDbLine
 10
288.4485642947996
 20
165.3876374683179
 30
0.0
 11
288.4485642947996
 21
265.2703854683177
 31
0.0
  0
LINE
  5
B36
330
1F
100
AcDbEntity
  8
CLASS1
100
AcDbLine
 10
274.0038382948006
 20
289.4581784683181
 30
0.0
 11
274.0038382947997
 21
141.1800284683181
 31
0.0
  0
LINE
  5
B37
330
1F
100
AcDbEntity
  8
CLASS1
100
AcDbLine
 10
268.1485642947998
 20
137.827462468318
 30
0.0
 11
268.1485642948006
 21
292.8274624683179
 31
0.0
  0
LINE
  5
B38
330
1F
100
AcDbEntity
  8
CLASS1
100
AcDbLine
 10
268.6328902947995
 20
137.827462468318
 30
0.0
 11
268.6328902947995
 21
292.8274624683179
 31
0.0
  0
LINE
  5
B39
330
1F
100
AcDbEntity
  8
CLASS1
100
AcDbLine
 10
268.9040412947997
 20
136.2814214683179
 30
0.0
 11
268.9040412947997
 21
294.3735034683181
 31
0.0
  0
ARC
  5
B3A
330
1F
100
AcDbEntity
  8
CLASS1
100
AcDbCircle
 10
268.8485642948006
 20
294.3497314683181
 30
0.0
 40
1.0
100
AcDbArc
 50
91.29022700000518
 51
180.0
  0
LINE
  5
B3B
330
1F
100
AcDbEntity
  8
CLASS1
100
AcDbLine
 10
268.6328902947995
 20
292.8274624683179
 30
0.0
 11
267.8485642947995
 21
292.8274624683179
 31
0.0
  0
LINE
  5
B3C
330
1F
100
AcDbEntity
  8
CLASS1
100
AcDbLine
 10
267.8485642947995
 20
294.3497314683181
 30
0.0
 11
267.8485642947995
 21
292.8274624683179
 31
0.0
  0
ARC
  5
B3D
330
1F
100
AcDbEntity
  8
CLASS1
100
AcDbCircle
 10
269.9040412947997
 20
294.3735034683178
 30
0.0
 40
1.0
100
AcDbArc
 50
91.29022700000518
 51
180.0
  0
ARC
  5
B3E
330
1F
100
AcDbEntity
  8
CLASS1
100
AcDbCircle
 10
275.0038382948007
 20
289.458178468318
 30
0.0
 40
1.0
100
AcDbArc
 50
91.31802100000404
 51
180.0
  0
ARC
  5
B3F
330
1F
100
AcDbEntity
  8
CLASS1
100
AcDbCircle
 10
288.9485614343906
 20
265.4992759769916
 30
0.0
 40
1.0
100
AcDbArc
 50
91.31801900000615
 51
180.0
  0
ARC
  5
B40
330
1F
100
AcDbEntity
  8
CLASS1
100
AcDbCircle
 10
289.4485642948006
 20
265.2703854683181
 30
0.0
 40
1.0
100
AcDbArc
 50
91.31801899999313
 51
180.0
  0
LINE
  5
B41
330
1F
100
AcDbEntity
  8
0
100
AcDbLine
 10
267.6485642948015
 20
227.4071264683181
 30
0.0
 11
267.6485642948015
 21
230.4071264683182
 31
0.0
  0
LINE
  5
B42
330
1F
100
AcDbEntity
  8
0
100
AcDbLine
 10
267.6485642948015
 20
227.4071264683181
 30
0.0
 11
268.6328902947995
 21
227.4071264683181
 31
0.0
  0
LINE
  5
B43
330
1F
100
AcDbEntity
  8
0
100
AcDbLine
 10
267.6485642948015
 20
230.4071264683182
 30
0.0
 11
268.6328902947995
 21
230.4071264683182
 31
0.0
  0
LINE
  5
B44
330
1F
100
AcDbEntity
  8
0
100
AcDbLine
 10
267.6485642948015
 20
186.2531384683179
 30
0.0
 11
267.6485642948015
 21
189.2531384683179
 31
0.0
  0
LINE
  5
B45
330
1F
100
AcDbEntity
  8
0
100
AcDbLine
 10
267.6485642948015
 20
186.2531384683179
 30
0.0
 11
268.6328902947995
 21
186.2531384683179
 31
0.0
  0
LINE
  5
B46
330
1F
100
AcDbEntity
  8
0
100
AcDbLine
 10
267.6485642948015
 20
189.2531384683179
 30
0.0
 11
268.6328902947995
 21
189.2531384683179
 31
0.0
  0
LINE
  5
B47
330
1F
100
AcDbEntity
  8
CLASS1
100
AcDbLine
 10
268.6328902947995
 20
137.827462468318
 30
0.0
 11
267.8485642947995
 21
137.827462468318
 31
0.0
  0
LINE
  5
B48
330
1F
100
AcDbEntity
  8
CLASS1
100
AcDbLine
 10
267.8485642947995
 20
136.305193468318
 30
0.0
 11
267.8485642947995
 21
137.827462468318
 31
0.0
  0
ARC
  5
B49
330
1F
100
AcDbEntity
  8
CLASS1
100
AcDbCircle
 10
268.8485642947995
 20
136.305193468318
 30
0.0
 40
1.0
100
AcDbArc
 50
180.0
 51
268.7097729999947
  0
ARC
  5
B4A
330
1F
100
AcDbEntity
  8
CLASS1
100
AcDbCircle
 10
269.9040412947997
 20
136.2814214683179
 30
0.0
 40
1.0
100
AcDbArc
 50
180.0
 51
268.7097729999947
  0
LINE
  5
B4B
330
1F
100
AcDbEntity
  8
CLASS1
100
AcDbLine
 10
301.9268392947996
 20
221.9440114683181
 30
0.0
 11
299.1485392947997
 21
208.7140114683179
 31
0.0
  0
LINE
  5
B4C
330
1F
100
AcDbEntity
  8
CLASS1
100
AcDbLine
 10
301.9268392947996
 20
221.9440114683181
 30
0.0
 11
299.1485392947997
 21
208.7140114683179
 31
0.0
  0
HATCH
  5
B4D
330
1F
100
AcDbEntity
  8
CLASS1
100
AcDbHatch
 10
0.0
 20
0.0
 30
0.0
210
0.0
220
0.0
230
1.0
  2
SOLID
 70
     1
 71
     0
 91
        1
 92
        1
 93
        5
 72
     1
 10
294.3857391184996
 20
208.7140113032194
 11
296.8400814452076
 21
220.4013584566073
 72
     2
 10
295.4158474250006
 20
220.700447530719
 40
1.455300000000043
 50
1068.140224
 51
1138.705292999999
 73
     1
 72
     1
 10
296.1717887148677
 20
221.9440113032193
 11
301.9268391185006
 21
221.9440113032193
 72
     1
 10
301.9268391185006
 20
221.9440113032193
 11
299.1485391185008
 21
208.7140113032194
 72
     1
 10
299.1485391185008
 20
208.7140113032194
 11
294.3857391184996
 21
208.7140113032194
 97
        0
 75
     0
 76
     1
 98
        1
 10
242.5140522948007
 20
195.1147284683179
  0
LINE
  5
B4E
330
1F
100
AcDbEntity
  8
CLASS1
100
AcDbLine
 10
296.8400812948006
 20
220.4013584683178
 30
0.0
 11
294.3857392948006
 21
208.7140114683179
 31
0.0
  0
LINE
  5
B4F
330
1F
100
AcDbEntity
  8
CLASS1
100
AcDbLine
 10
296.8400812948006
 20
220.4013584683178
 30
0.0
 11
294.3857392948006
 21
208.7140114683179
 31
0.0
  0
HATCH
  5
B50
330
1F
100
AcDbEntity
  8
CLASS1
100
AcDbHatch
 10
0.0
 20
0.0
 30
0.0
210
0.0
220
0.0
230
1.0
  2
SOLID
 70
     1
 71
     0
 91
        1
 92
        1
 93
        5
 72
     1
 10
294.3857391184996
 20
208.7140113032194
 11
296.8400814452076
 21
220.4013584566073
 72
     2
 10
295.4158474250006
 20
220.700447530719
 40
1.455300000000043
 50
1068.140224
 51
1138.705292999999
 73
     1
 72
     1
 10
296.1717887148677
 20
221.9440113032193
 11
301.9268391185006
 21
221.9440113032193
 72
     1
 10
301.9268391185006
 20
221.9440113032193
 11
299.1485391185008
 21
208.7140113032194
 72
     1
 10
299.1485391185008
 20
208.7140113032194
 11
294.3857391184996
 21
208.7140113032194
 97
        0
 75
     0
 76
     1
 98
        1
 10
242.5140522948007
 20
195.1147284683179
  0
LINE
  5
B51
330
1F
100
AcDbEntity
  8
CLASS1
100
AcDbLine
 10
310.5528422947998
 20
220.6300704683179
 30
0.0
 11
301.7945392947996
 21
208.7140114683179
 31
0.0
  0
LINE
  5
B52
330
1F
100
AcDbEntity
  8
CLASS1
100
AcDbLine
 10
310.5528422947998
 20
220.6300704683179
 30
0.0
 11
301.7945392947996
 21
208.7140114683179
 31
0.0
  0
LINE
  5
B53
330
1F
100
AcDbEntity
  8
CLASS1
100
AcDbLine
 10
301.9268392947996
 20
221.9440114683181
 30
0.0
 11
296.1717892948008
 21
221.9440114683181
 31
0.0
  0
LINE
  5
B54
330
1F
100
AcDbEntity
  8
CLASS1
100
AcDbLine
 10
301.9268392947996
 20
221.9440114683181
 30
0.0
 11
296.1717892948008
 21
221.9440114683181
 31
0.0
  0
ARC
  5
B55
330
1F
100
AcDbEntity
  8
CLASS1
100
AcDbCircle
 10
295.4158472947996
 20
220.7004474683183
 30
0.0
 40
1.4553
100
AcDbArc
 50
348.1402210000033
 51
58.70528200000129
  0
ARC
  5
B56
330
1F
100
AcDbEntity
  8
CLASS1
100
AcDbCircle
 10
295.4158472947996
 20
220.7004474683183
 30
0.0
 40
1.4553
100
AcDbArc
 50
348.1402210000033
 51
58.70528200000129
  0
ARC
  5
B57
330
1F
100
AcDbEntity
  8
CLASS1
100
AcDbCircle
 10
309.8066242947997
 20
221.1785414683181
 30
0.0
 40
0.9261000000000001
100
AcDbArc
 50
323.6841139999957
 51
55.74619900000929
  0
ARC
  5
B58
330
1F
100
AcDbEntity
  8
CLASS1
100
AcDbCircle
 10
309.8066242947997
 20
221.1785414683181
 30
0.0
 40
0.9261000000000001
100
AcDbArc
 50
323.6841139999957
 51
55.74619900000929
  0
LINE
  5
B59
330
1F
100
AcDbEntity
  8
CLASS1
100
AcDbLine
 10
301.7945392947996
 20
208.7140114683179
 30
0.0
 11
306.5573392947996
 21
208.7140114683179
 31
0.0
  0
LINE
  5
B5A
330
1F
100
AcDbEntity
  8
CLASS1
100
AcDbLine
 10
301.7945392947996
 20
208.7140114683179
 30
0.0
 11
306.5573392947996
 21
208.7140114683179
 31
0.0
  0
ARC
  5
B5B
330
1F
100
AcDbEntity
  8
CLASS1
100
AcDbCircle
 10
305.1251742947997
 20
209.7603854683184
 30
0.0
 40
1.323
100
AcDbArc
 50
146.4897499999914
 51
232.2706919999894
  0
ARC
  5
B5C
330
1F
100
AcDbEntity
  8
CLASS1
100
AcDbCircle
 10
305.1251742947997
 20
209.7603854683184
 30
0.0
 40
1.323
100
AcDbArc
 50
146.4897499999914
 51
232.2706919999894
  0
LINE
  5
B5D
330
1F
100
AcDbEntity
  8
CLASS1
100
AcDbLine
 10
299.1485392947997
 20
208.7140114683179
 30
0.0
 11
294.3857392948006
 21
208.7140114683179
 31
0.0
  0
LINE
  5
B5E
330
1F
100
AcDbEntity
  8
CLASS1
100
AcDbLine
 10
299.1485392947997
 20
208.7140114683179
 30
0.0
 11
294.3857392948006
 21
208.7140114683179
 31
0.0
  0
LINE
  5
B5F
330
1F
100
AcDbEntity
  8
CLASS1
100
AcDbLine
 10
311.3664442947996
 20
217.9750114683179
 30
0.0
 11
313.1723392947997
 21
208.7140114683179
 31
0.0
  0
LINE
  5
B60
330
1F
100
AcDbEntity
  8
CLASS1
100
AcDbLine
 10
311.3664442947996
 20
217.9750114683179
 30
0.0
 11
313.1723392947997
 21
208.7140114683179
 31
0.0
  0
SOLID
  5
B61
330
1F
100
AcDbEntity
  8
CLASS1
100
AcDbTrace
 10
307.4243762947996
 20
212.0215114683182
 30
0.0
 11
308.5631962947998
 21
213.7414114683183
 31
0.0
 12
312.5273762947997
 22
212.0215114683182
 32
0.0
 13
312.1919962947997
 23
213.7414114683183
 33
0.0
  0
SOLID
  5
B62
330
1F
100
AcDbEntity
  8
CLASS1
100
AcDbTrace
 10
307.4243762947996
 20
212.0215114683182
 30
0.0
 11
308.5631962947998
 21
213.7414114683183
 31
0.0
 12
312.5273762947997
 22
212.0215114683182
 32
0.0
 13
312.1919962947997
 23
213.7414114683183
 33
0.0
  0
LINE
  5
B63
330
1F
100
AcDbEntity
  8
CLASS1
100
AcDbLine
 10
311.3664442947996
 20
217.9750114683179
 30
0.0
 11
306.2931752947997
 21
210.3131174683178
 31
0.0
  0
LINE
  5
B64
330
1F
100
AcDbEntity
  8
CLASS1
100
AcDbLine
 10
311.3664442947996
 20
217.9750114683179
 30
0.0
 11
306.2931752947997
 21
210.3131174683178
 31
0.0
  0
ARC
  5
B65
330
1F
100
AcDbEntity
  8
CLASS1
100
AcDbCircle
 10
288.9483329866207
 20
165.1363200525207
 30
0.0
 40
0.9997817914353085
100
AcDbArc
 50
179.706698188669
 51
257.828771090005
  0
ARC
  5
B66
330
1F
100
AcDbEntity
  8
CLASS1
100
AcDbCircle
 10
289.4485642948006
 20
165.3876374683181
 30
0.0
 40
1.0
100
AcDbArc
 50
180.0
 51
268.6819809999938
  0
ARC
  5
B67
330
1F
100
AcDbEntity
  8
CLASS1
100
AcDbCircle
 10
275.0038382947997
 20
141.1800284683181
 30
0.0
 40
1.0
100
AcDbArc
 50
180.0
 51
268.6980460000063
  0
LINE
  5
B68
330
1F
100
AcDbEntity
  8
CLASS1
100
AcDbLine
 10
335.4485642948008
 20
290.825874468318
 30
0.0
 11
335.4485642947996
 21
139.8290114683176
 31
0.0
  0
LINE
  5
B69
330
1F
100
AcDbEntity
  8
CLASS1
100
AcDbLine
 10
335.4485642947996
 20
163.3290114683179
 30
0.0
 11
335.4485642948008
 21
267.3290114683179
 31
0.0
  0
LINE
  5
B6A
330
1F
100
AcDbEntity
  8
CLASS1
100
AcDbLine
 10
335.4485642947996
 20
152.3261004683178
 30
0.0
 11
335.4485642948008
 21
278.331922468318
 31
0.0
  0
LINE
  5
B6B
330
1F
100
AcDbEntity
  8
0
100
AcDbLine
 10
334.4485642947996
 20
296.8274624683179
 30
0.0
 11
334.4485642947996
 21
305.3290114683178
 31
0.0
  0
LINE
  5
B6C
330
1F
100
AcDbEntity
  8
CLASS1
100
AcDbLine
 10
334.4485642947996
 20
305.3290114683178
 30
0.0
 11
336.9485642947996
 21
305.3290114683178
 31
0.0
  0
ARC
  5
B6D
330
1F
100
AcDbEntity
  8
CLASS1
100
AcDbCircle
 10
334.4485642947996
 20
290.825874468318
 30
0.0
 40
1.0
100
AcDbArc
 50
0.0
 51
91.31802100000404
  0
LINE
  5
B6E
330
1F
100
AcDbEntity
  8
CLASS1
100
AcDbLine
 10
325.9485642947996
 20
269.8290114683178
 30
0.0
 11
325.9485642947996
 21
275.8290114683179
 31
0.0
  0
LINE
  5
B6F
330
1F
100
AcDbEntity
  8
CLASS1
100
AcDbLine
 10
329.4485642948008
 20
269.8290114683178
 30
0.0
 11
329.4485642948008
 21
275.8290114683179
 31
0.0
  0
LINE
  5
B70
330
1F
100
AcDbEntity
  8
CLASS1
100
AcDbLine
 10
326.9381702947995
 20
275.3290114683177
 30
0.0
 11
326.9381702947995
 21
270.3290114683178
 31
0.0
  0
LINE
  5
B71
330
1F
100
AcDbEntity
  8
CLASS1
100
AcDbLine
 10
328.9485642947996
 20
275.3290114683177
 30
0.0
 11
328.9485642947996
 21
270.3290114683178
 31
0.0
  0
LINE
  5
B72
330
1F
100
AcDbEntity
  8
CLASS1
100
AcDbLine
 10
329.4485642948008
 20
275.3290114683177
 30
0.0
 11
329.4485642948008
 21
270.3290114683178
 31
0.0
  0
LINE
  5
B73
330
1F
100
AcDbEntity
  8
CLASS1
100
AcDbLine
 10
334.4485642947996
 20
296.8274624683179
 30
0.0
 11
334.4485642947996
 21
291.826138468318
 31
0.0
  0
LINE
  5
B74
330
1F
100
AcDbEntity
  8
CLASS1
100
AcDbLine
 10
325.9485642947996
 20
275.8290114683179
 30
0.0
 11
329.4485642948008
 21
275.8290114683179
 31
0.0
  0
LINE
  5
B75
330
1F
100
AcDbEntity
  8
CLASS1
100
AcDbLine
 10
329.4485642948008
 20
275.3290114683177
 30
0.0
 11
326.9381702947995
 21
275.3290114683177
 31
0.0
  0
LINE
  5
B76
330
1F
100
AcDbEntity
  8
CLASS1
100
AcDbLine
 10
325.9485642947996
 20
269.8290114683178
 30
0.0
 11
329.4485642948008
 21
269.8290114683178
 31
0.0
  0
LINE
  5
B77
330
1F
100
AcDbEntity
  8
CLASS1
100
AcDbLine
 10
326.9381702947995
 20
270.3290114683178
 30
0.0
 11
329.4485642948008
 21
270.3290114683178
 31
0.0
  0
LINE
  5
B78
330
1F
100
AcDbEntity
  8
CLASS1
100
AcDbLine
 10
315.5537392947997
 20
221.9440114683181
 30
0.0
 11
318.1335892947998
 21
208.7140114683179
 31
0.0
  0
LINE
  5
B79
330
1F
100
AcDbEntity
  8
CLASS1
100
AcDbLine
 10
315.5537392947997
 20
221.9440114683181
 30
0.0
 11
318.1335892947998
 21
208.7140114683179
 31
0.0
  0
LINE
  5
B7A
330
1F
100
AcDbEntity
  8
CLASS1
100
AcDbLine
 10
329.5113892947997
 20
221.9440114683181
 30
0.0
 11
326.7330892948006
 21
208.7140114683179
 31
0.0
  0
LINE
  5
B7B
330
1F
100
AcDbEntity
  8
CLASS1
100
AcDbLine
 10
329.5113892947997
 20
221.9440114683181
 30
0.0
 11
326.7330892948006
 21
208.7140114683179
 31
0.0
  0
HATCH
  5
B7C
330
1F
100
AcDbEntity
  8
CLASS1
100
AcDbHatch
 10
0.0
 20
0.0
 30
0.0
210
0.0
220
0.0
230
1.0
  2
SOLID
 70
     1
 71
     0
 91
        1
 92
        1
 93
        5
 72
     1
 10
321.9702891184997
 20
208.7140113032194
 11
324.4246314452077
 21
220.4013584566073
 72
     2
 10
323.0003974250006
 20
220.700447530719
 40
1.455300000000043
 50
1068.140224
 51
1138.705292999999
 73
     1
 72
     1
 10
323.7563387148666
 20
221.9440113032193
 11
329.5113891184996
 21
221.9440113032193
 72
     1
 10
329.5113891184996
 20
221.9440113032193
 11
326.7330891184996
 21
208.7140113032194
 72
     1
 10
326.7330891184996
 20
208.7140113032194
 11
321.9702891184997
 21
208.7140113032194
 97
        0
 75
     0
 76
     1
 98
        1
 10
242.5140522948007
 20
195.1147284683179
  0
HATCH
  5
B7D
330
1F
100
AcDbEntity
  8
CLASS1
100
AcDbHatch
 10
0.0
 20
0.0
 30
0.0
210
0.0
220
0.0
230
1.0
  2
SOLID
 70
     1
 71
     0
 91
        1
 92
        1
 93
        5
 72
     1
 10
321.9702891184987
 20
208.7140113032194
 11
324.4246314452057
 21
220.4013584566073
 72
     2
 10
323.0003974250006
 20
220.700447530719
 40
1.455300000000043
 50
1068.140224
 51
1138.705292999999
 73
     1
 72
     1
 10
323.7563387148666
 20
221.9440113032193
 11
329.5113891184996
 21
221.9440113032193
 72
     1
 10
329.5113891184996
 20
221.9440113032193
 11
326.7330891184996
 21
208.7140113032194
 72
     1
 10
326.7330891184996
 20
208.7140113032194
 11
321.9702891184997
 21
208.7140113032194
 97
        0
 75
     0
 76
     1
 98
        1
 10
242.5140522948007
 20
195.1147284683179
  0
LINE
  5
B7E
330
1F
100
AcDbEntity
  8
CLASS1
100
AcDbLine
 10
324.4246312947996
 20
220.4013584683178
 30
0.0
 11
321.9702892947996
 21
208.7140114683179
 31
0.0
  0
LINE
  5
B7F
330
1F
100
AcDbEntity
  8
CLASS1
100
AcDbLine
 10
324.4246312947996
 20
220.4013584683178
 30
0.0
 11
321.9702892947996
 21
208.7140114683179
 31
0.0
  0
LINE
  5
B80
330
1F
100
AcDbEntity
  8
CLASS1
100
AcDbLine
 10
329.5113892947997
 20
221.9440114683181
 30
0.0
 11
323.7563392948006
 21
221.9440114683181
 31
0.0
  0
LINE
  5
B81
330
1F
100
AcDbEntity
  8
CLASS1
100
AcDbLine
 10
329.5113892947997
 20
221.9440114683181
 30
0.0
 11
323.7563392948006
 21
221.9440114683181
 31
0.0
  0
ARC
  5
B82
330
1F
100
AcDbEntity
  8
CLASS1
100
AcDbCircle
 10
323.0003972947997
 20
220.7004474683183
 30
0.0
 40
1.4553
100
AcDbArc
 50
348.1402210000033
 51
58.70528200000129
  0
ARC
  5
B83
330
1F
100
AcDbEntity
  8
CLASS1
100
AcDbCircle
 10
323.0003972947997
 20
220.7004474683183
 30
0.0
 40
1.4553
100
AcDbArc
 50
348.1402210000033
 51
58.70528200000129
  0
LINE
  5
B84
330
1F
100
AcDbEntity
  8
CLASS1
100
AcDbLine
 10
326.7330892948006
 20
208.7140114683179
 30
0.0
 11
321.9702892947996
 21
208.7140114683179
 31
0.0
  0
LINE
  5
B85
330
1F
100
AcDbEntity
  8
CLASS1
100
AcDbLine
 10
326.7330892948006
 20
208.7140114683179
 30
0.0
 11
321.9702892947996
 21
208.7140114683179
 31
0.0
  0
ARC
  5
B86
330
1F
100
AcDbEntity
  8
CLASS1
100
AcDbCircle
 10
334.4485642947996
 20
139.8290114683176
 30
0.0
 40
1.0
100
AcDbArc
 50
268.6980469999988
 51
0.0
  0
LINE
  5
B87
330
1F
100
AcDbEntity
  8
CLASS1
100
AcDbLine
 10
325.9485642947996
 20
160.8290114683178
 30
0.0
 11
325.9485642947996
 21
154.8290114683179
 31
0.0
  0
LINE
  5
B88
330
1F
100
AcDbEntity
  8
CLASS1
100
AcDbLine
 10
326.9381702947995
 20
155.3290114683179
 30
0.0
 11
326.9381702947995
 21
160.3290114683178
 31
0.0
  0
LINE
  5
B89
330
1F
100
AcDbEntity
  8
CLASS1
100
AcDbLine
 10
328.9485642947996
 20
155.3290114683179
 30
0.0
 11
328.9485642947996
 21
160.3290114683178
 31
0.0
  0
LINE
  5
B8A
330
1F
100
AcDbEntity
  8
CLASS1
100
AcDbLine
 10
329.4485642947996
 20
160.8290114683178
 30
0.0
 11
329.4485642947996
 21
154.8290114683179
 31
0.0
  0
LINE
  5
B8B
330
1F
100
AcDbEntity
  8
CLASS1
100
AcDbLine
 10
329.4485642947996
 20
155.3290114683179
 30
0.0
 11
329.4485642947996
 21
160.3290114683178
 31
0.0
  0
LINE
  5
B8C
330
1F
100
AcDbEntity
  8
CLASS1
100
AcDbLine
 10
325.9485642947996
 20
154.8290114683179
 30
0.0
 11
329.4485642947996
 21
154.8290114683179
 31
0.0
  0
LINE
  5
B8D
330
1F
100
AcDbEntity
  8
CLASS1
100
AcDbLine
 10
325.9485642947996
 20
160.8290114683178
 30
0.0
 11
329.4485642947996
 21
160.8290114683178
 31
0.0
  0
LINE
  5
B8E
330
1F
100
AcDbEntity
  8
CLASS1
100
AcDbLine
 10
326.9381702947995
 20
160.3290114683178
 30
0.0
 11
329.4485642947996
 21
160.3290114683178
 31
0.0
  0
LINE
  5
B8F
330
1F
100
AcDbEntity
  8
CLASS1
100
AcDbLine
 10
329.4485642947996
 20
155.3290114683179
 30
0.0
 11
326.9381702947995
 21
155.3290114683179
 31
0.0
  0
LINE
  5
B90
330
1F
100
AcDbEntity
  8
CLASS1
100
AcDbLine
 10
334.4485642947996
 20
126.8290114683177
 30
0.0
 11
336.9485642947996
 21
126.8290114683177
 31
0.0
  0
LINE
  5
B91
330
1F
100
AcDbEntity
  8
0
100
AcDbLine
 10
334.4485642947996
 20
126.8290114683177
 30
0.0
 11
334.4485642947996
 21
133.827462468318
 31
0.0
  0
LINE
  5
B92
330
1F
100
AcDbEntity
  8
CLASS1
  6
CONTINUOUS
 62
     0
100
AcDbLine
 10
163.9740587079959
 20
35.10000069053876
 30
0.0
 11
163.9740587079959
 21
33.10000069053876
 31
0.0
  0
LINE
  5
B93
330
1F
100
AcDbEntity
  8
CLASS1
  6
CONTINUOUS
 62
     0
100
AcDbLine
 10
162.4740587079968
 20
35.10000069053876
 30
0.0
 11
162.4740587079968
 21
33.10000069053876
 31
0.0
  0
LINE
  5
B94
330
1F
100
AcDbEntity
  8
CLASS1
  6
CONTINUOUS
 62
     0
100
AcDbLine
 10
175.4740587079968
 20
35.90000069053871
 30
0.0
 11
175.4740587079968
 21
25.90000069053871
 31
0.0
  0
LINE
  5
B95
330
1F
100
AcDbEntity
  8
CLASS1
  6
CONTINUOUS
 62
     0
100
AcDbLine
 10
165.4740587079959
 20
25.90000069053871
 30
0.0
 11
165.4740587079959
 21
35.90000069053871
 31
0.0
  0
LINE
  5
B96
330
1F
100
AcDbEntity
  8
CLASS1
  6
CONTINUOUS
 62
     0
100
AcDbLine
 10
166.9740587079968
 20
27.90000069053871
 30
0.0
 11
166.9740587079968
 21
33.90000069053872
 31
0.0
  0
LINE
  5
B97
330
1F
100
AcDbEntity
  8
CLASS1
  6
CONTINUOUS
 62
     0
100
AcDbLine
 10
173.9740587079976
 20
33.90000069053872
 30
0.0
 11
173.9740587079976
 21
27.90000069053871
 31
0.0
  0
LINE
  5
B98
330
1F
100
AcDbEntity
  8
CLASS1
  6
CONTINUOUS
 62
     0
100
AcDbLine
 10
185.0589337079965
 20
61.9601266905388
 30
0.0
 11
185.9744597079956
 21
2.515399690538743
 31
0.0
  0
LINE
  5
B99
330
1F
100
AcDbEntity
  8
CLASS1
  6
CONTINUOUS
 62
     0
100
AcDbLine
 10
151.8891827079958
 20
61.9601266905388
 30
0.0
 11
150.9736577079968
 21
2.515399690538743
 31
0.0
  0
LINE
  5
B9A
330
1F
100
AcDbEntity
  8
CLASS1
  6
CONTINUOUS
 62
     0
100
AcDbLine
 10
178.5604897079968
 20
61.79658569053879
 30
0.0
 11
179.4737337079956
 21
2.500000690538739
 31
0.0
  0
LINE
  5
B9B
330
1F
100
AcDbEntity
  8
CLASS1
  6
CONTINUOUS
 62
     0
100
AcDbLine
 10
158.3876587079958
 20
61.79859569053872
 30
0.0
 11
157.4743837079976
 21
2.500000690538739
 31
0.0
  0
LINE
  5
B9C
330
1F
100
AcDbEntity
  8
CLASS1
  6
CONTINUOUS
 62
     0
100
AcDbLine
 10
182.9779571298038
 20
68.1900731166595
 30
0.0
 11
183.9742677079956
 21
2.500000690538739
 31
0.0
  0
LINE
  5
B9D
330
1F
100
AcDbEntity
  8
CLASS1
  6
CONTINUOUS
 62
     0
100
AcDbLine
 10
153.9701602861886
 20
68.19007411665928
 30
0.0
 11
152.9738497079968
 21
2.500000690538739
 31
0.0
  0
INSERT
  5
B9E
330
1F
100
AcDbEntity
  8
0
100
AcDbBlockReference
  2
A$C51C20FFB
 10
152.9742677079966
 20
0.0000020278608872
 30
0.0
  0
LINE
  5
B9F
330
1F
100
AcDbEntity
  8
CLASS1
  6
CONTINUOUS
 62
     0
100
AcDbLine
 10
152.9738497079968
 20
2.500000690538739
 30
0.0
 11
183.9742677079956
 21
2.500000690538739
 31
0.0
  0
LINE
  5
BA0
330
1F
100
AcDbEntity
  8
CLASS1
  6
CONTINUOUS
 62
     0
100
AcDbLine
 10
183.9742677079956
 20
1.500000690538739
 30
0.0
 11
184.9745787079965
 21
1.500000690538739
 31
0.0
  0
ARC
  5
BA1
330
1F
100
AcDbEntity
  8
CLASS1
  6
CONTINUOUS
 62
     0
100
AcDbCircle
 10
184.9745787079965
 20
2.500000690539081
 30
0.0
 40
1.0
100
AcDbArc
 50
270.0
 51
0.8823590000052703
  0
LINE
  5
BA2
330
1F
100
AcDbEntity
  8
CLASS1
  6
CONTINUOUS
 62
     0
100
AcDbLine
 10
183.9742677079956
 20
1.500000690538739
 30
0.0
 11
183.9742677079956
 21
2.500000690538739
 31
0.0
  0
LINE
  5
BA3
330
1F
100
AcDbEntity
  8
CLASS1
  6
CONTINUOUS
 62
     0
100
AcDbLine
 10
173.4740587079968
 20
27.40000069053872
 30
0.0
 11
167.4740587079968
 21
27.40000069053872
 31
0.0
  0
LINE
  5
BA4
330
1F
100
AcDbEntity
  8
CLASS1
  6
CONTINUOUS
 62
     0
100
AcDbLine
 10
175.4740587079968
 20
25.90000069053871
 30
0.0
 11
165.4740587079959
 21
25.90000069053871
 31
0.0
  0
LINE
  5
BA5
330
1F
100
AcDbEntity
  8
CLASS1
  6
CONTINUOUS
 62
     0
100
AcDbLine
 10
174.4740587079976
 20
23.10000069053876
 30
0.0
 11
162.4740587079968
 21
23.10000069053876
 31
0.0
  0
LINE
  5
BA6
330
1F
100
AcDbEntity
  8
CLASS1
  6
CONTINUOUS
 62
     0
100
AcDbLine
 10
162.4740587079968
 20
21.10000069053886
 30
0.0
 11
174.4740587079976
 21
21.10000069053886
 31
0.0
  0
LINE
  5
BA7
330
1F
100
AcDbEntity
  8
CLASS1
  6
CONTINUOUS
 62
     0
100
AcDbLine
 10
174.4740587079976
 20
19.10000069053887
 30
0.0
 11
162.4740587079968
 21
19.10000069053887
 31
0.0
  0
LINE
  5
BA8
330
1F
100
AcDbEntity
  8
CLASS1
  6
CONTINUOUS
 62
     0
100
AcDbLine
 10
162.4740587079968
 20
17.10000069053887
 30
0.0
 11
174.4740587079976
 21
17.10000069053887
 31
0.0
  0
LINE
  5
BA9
330
1F
100
AcDbEntity
  8
CLASS1
  6
CONTINUOUS
 62
     0
100
AcDbLine
 10
174.4740587079976
 20
11.10000069053886
 30
0.0
 11
162.4740587079968
 21
11.10000069053886
 31
0.0
  0
LINE
  5
BAA
330
1F
100
AcDbEntity
  8
CLASS1
  6
CONTINUOUS
 62
     0
100
AcDbLine
 10
162.4740587079968
 20
13.10000069053886
 30
0.0
 11
174.4740587079976
 21
13.10000069053886
 31
0.0
  0
LINE
  5
BAB
330
1F
100
AcDbEntity
  8
CLASS1
  6
CONTINUOUS
 62
     0
100
AcDbLine
 10
174.4740587079976
 20
15.10000069053886
 30
0.0
 11
162.4740587079968
 21
15.10000069053886
 31
0.0
  0
LINE
  5
BAC
330
1F
100
AcDbEntity
  8
CLASS1
  6
CONTINUOUS
 62
     0
100
AcDbLine
 10
162.4740587079968
 20
9.100000690538877
 30
0.0
 11
174.4740587079976
 21
9.100000690538877
 31
0.0
  0
LINE
  5
BAD
330
1F
100
AcDbEntity
  8
CLASS1
  6
CONTINUOUS
 62
     0
100
AcDbLine
 10
174.4740587079976
 20
17.10000069053887
 30
0.0
 11
174.4740587079976
 21
19.10000069053887
 31
0.0
  0
LINE
  5
BAE
330
1F
100
AcDbEntity
  8
CLASS1
  6
CONTINUOUS
 62
     0
100
AcDbLine
 10
174.4740587079976
 20
13.10000069053886
 30
0.0
 11
174.4740587079976
 21
15.10000069053886
 31
0.0
  0
LINE
  5
BAF
330
1F
100
AcDbEntity
  8
CLASS1
  6
CONTINUOUS
 62
     0
100
AcDbLine
 10
174.4740587079976
 20
9.100000690538877
 30
0.0
 11
174.4740587079976
 21
11.10000069053886
 31
0.0
  0
LINE
  5
BB0
330
1F
100
AcDbEntity
  8
CLASS1
  6
CONTINUOUS
 62
     0
100
AcDbLine
 10
175.4740587079968
 20
30.15000069053872
 30
0.0
 11
173.9740587079976
 21
30.15000069053872
 31
0.0
  0
LINE
  5
BB1
330
1F
100
AcDbEntity
  8
CLASS1
  6
CONTINUOUS
 62
     0
100
AcDbLine
 10
175.4740587079968
 20
31.65000069053871
 30
0.0
 11
173.9740587079976
 21
31.65000069053871
 31
0.0
  0
ARC
  5
BB2
330
1F
100
AcDbEntity
  8
CLASS1
  6
CONTINUOUS
 62
     0
100
AcDbCircle
 10
173.4740587079968
 20
27.90000069053894
 30
0.0
 40
0.5
100
AcDbArc
 50
270.0
 51
0.0
  0
LINE
  5
BB3
330
1F
100
AcDbEntity
  8
CLASS1
  6
CONTINUOUS
 62
     0
100
AcDbLine
 10
174.4740587079976
 20
21.10000069053886
 30
0.0
 11
174.4740587079976
 21
23.10000069053876
 31
0.0
  0
LINE
  5
BB4
330
1F
100
AcDbEntity
  8
CLASS1
  6
CONTINUOUS
 62
     0
100
AcDbLine
 10
162.4740587079968
 20
19.10000069053887
 30
0.0
 11
162.4740587079968
 21
17.10000069053887
 31
0.0
  0
LINE
  5
BB5
330
1F
100
AcDbEntity
  8
CLASS1
  6
CONTINUOUS
 62
     0
100
AcDbLine
 10
162.4740587079968
 20
15.10000069053886
 30
0.0
 11
162.4740587079968
 21
13.10000069053886
 31
0.0
  0
LINE
  5
BB6
330
1F
100
AcDbEntity
  8
CLASS1
  6
CONTINUOUS
 62
     0
100
AcDbLine
 10
162.4740587079968
 20
11.10000069053886
 30
0.0
 11
162.4740587079968
 21
9.100000690538877
 31
0.0
  0
LINE
  5
BB7
330
1F
100
AcDbEntity
  8
CLASS1
  6
CONTINUOUS
 62
     0
100
AcDbLine
 10
162.4740587079968
 20
33.10000069053876
 30
0.0
 11
163.9740587079959
 21
33.10000069053876
 31
0.0
  0
LINE
  5
BB8
330
1F
100
AcDbEntity
  8
CLASS1
  6
CONTINUOUS
 62
     0
100
AcDbLine
 10
162.4740587079968
 20
31.10000069053876
 30
0.0
 11
162.4740587079968
 21
29.10000069053876
 31
0.0
  0
LINE
  5
BB9
330
1F
100
AcDbEntity
  8
CLASS1
  6
CONTINUOUS
 62
     0
100
AcDbLine
 10
163.9740587079959
 20
31.10000069053876
 30
0.0
 11
163.9740587079959
 21
29.10000069053876
 31
0.0
  0
LINE
  5
BBA
330
1F
100
AcDbEntity
  8
CLASS1
  6
CONTINUOUS
 62
     0
100
AcDbLine
 10
162.4740587079968
 20
29.10000069053876
 30
0.0
 11
163.9740587079959
 21
29.10000069053876
 31
0.0
  0
LINE
  5
BBB
330
1F
100
AcDbEntity
  8
CLASS1
  6
CONTINUOUS
 62
     0
100
AcDbLine
 10
163.9740587079959
 20
31.10000069053876
 30
0.0
 11
162.4740587079968
 21
31.10000069053876
 31
0.0
  0
LINE
  5
BBC
330
1F
100
AcDbEntity
  8
CLASS1
  6
CONTINUOUS
 62
     0
100
AcDbLine
 10
166.9740587079968
 20
30.15000069053872
 30
0.0
 11
165.4740587079959
 21
30.15000069053872
 31
0.0
  0
LINE
  5
BBD
330
1F
100
AcDbEntity
  8
CLASS1
  6
CONTINUOUS
 62
     0
100
AcDbLine
 10
166.9740587079968
 20
31.65000069053871
 30
0.0
 11
165.4740587079959
 21
31.65000069053871
 31
0.0
  0
ARC
  5
BBE
330
1F
100
AcDbEntity
  8
CLASS1
  6
CONTINUOUS
 62
     0
100
AcDbCircle
 10
167.4740587079968
 20
27.90000069053894
 30
0.0
 40
0.5
100
AcDbArc
 50
180.0
 51
270.0
  0
LINE
  5
BBF
330
1F
100
AcDbEntity
  8
CLASS1
  6
CONTINUOUS
 62
     0
100
AcDbLine
 10
162.4740587079968
 20
27.10000069053876
 30
0.0
 11
162.4740587079968
 21
25.10000069053876
 31
0.0
  0
LINE
  5
BC0
330
1F
100
AcDbEntity
  8
CLASS1
  6
CONTINUOUS
 62
     0
100
AcDbLine
 10
163.9740587079959
 20
27.10000069053876
 30
0.0
 11
163.9740587079959
 21
25.10000069053876
 31
0.0
  0
LINE
  5
BC1
330
1F
100
AcDbEntity
  8
CLASS1
  6
CONTINUOUS
 62
     0
100
AcDbLine
 10
163.9740587079959
 20
27.10000069053876
 30
0.0
 11
162.4740587079968
 21
27.10000069053876
 31
0.0
  0
LINE
  5
BC2
330
1F
100
AcDbEntity
  8
CLASS1
  6
CONTINUOUS
 62
     0
100
AcDbLine
 10
162.4740587079968
 20
25.10000069053876
 30
0.0
 11
163.9740587079959
 21
25.10000069053876
 31
0.0
  0
LINE
  5
BC3
330
1F
100
AcDbEntity
  8
CLASS1
  6
CONTINUOUS
 62
     0
100
AcDbLine
 10
162.4740587079968
 20
23.10000069053876
 30
0.0
 11
162.4740587079968
 21
21.10000069053886
 31
0.0
  0
LINE
  5
BC4
330
1F
100
AcDbEntity
  8
CLASS1
  6
CONTINUOUS
 62
     0
100
AcDbLine
 10
152.9738497079968
 20
1.500000690538739
 30
0.0
 11
151.9735397079957
 21
1.500000690538739
 31
0.0
  0
LINE
  5
BC5
330
1F
100
AcDbEntity
  8
CLASS1
  6
CONTINUOUS
 62
     0
100
AcDbLine
 10
152.9738497079968
 20
2.500000690538739
 30
0.0
 11
152.9738497079968
 21
1.500000690538739
 31
0.0
  0
ARC
  5
BC6
330
1F
100
AcDbEntity
  8
CLASS1
  6
CONTINUOUS
 62
     0
100
AcDbCircle
 10
151.9735397079957
 20
2.500000690539081
 30
0.0
 40
1.0
100
AcDbArc
 50
179.1176409999947
 51
270.0
  0
LINE
  5
BC7
330
1F
100
AcDbEntity
  8
CLASS1
  6
CONTINUOUS
 62
     0
100
AcDbLine
 10
184.0590517079979
 20
62.94472669053856
 30
0.0
 11
183.0433397079966
 21
62.94472669053856
 31
0.0
  0
ARC
  5
BC8
330
1F
100
AcDbEntity
  8
CLASS1
  6
CONTINUOUS
 62
     0
100
AcDbCircle
 10
184.0590517079979
 20
61.9447266905388
 30
0.0
 40
1.0
100
AcDbArc
 50
0.8823590000052703
 51
90.0
  0
ARC
  5
BC9
330
1F
100
AcDbEntity
  8
CLASS1
  6
CONTINUOUS
 62
     0
100
AcDbCircle
 10
160.3873897079977
 20
61.76578669053879
 30
0.0
 40
2.0
100
AcDbArc
 50
94.73325899999677
 51
179.1176409999947
  0
LINE
  5
BCA
330
1F
100
AcDbEntity
  8
CLASS1
  6
CONTINUOUS
 62
     0
100
AcDbLine
 10
162.4740587079968
 20
57.10000069053876
 30
0.0
 11
174.4740587079976
 21
57.10000069053876
 31
0.0
  0
LINE
  5
BCB
330
1F
100
AcDbEntity
  8
CLASS1
  6
CONTINUOUS
 62
     0
100
AcDbLine
 10
174.4740587079976
 20
59.10000069053875
 30
0.0
 11
162.4740587079968
 21
59.10000069053875
 31
0.0
  0
LINE
  5
BCC
330
1F
100
AcDbEntity
  8
CLASS1
  6
CONTINUOUS
 62
     0
100
AcDbLine
 10
174.4740587079976
 20
55.10000069053877
 30
0.0
 11
162.4740587079968
 21
55.10000069053877
 31
0.0
  0
LINE
  5
BCD
330
1F
100
AcDbEntity
  8
CLASS1
  6
CONTINUOUS
 62
     0
100
AcDbLine
 10
162.4740587079968
 20
53.10000069053876
 30
0.0
 11
174.4740587079976
 21
53.10000069053876
 31
0.0
  0
LINE
  5
BCE
330
1F
100
AcDbEntity
  8
CLASS1
  6
CONTINUOUS
 62
     0
100
AcDbLine
 10
174.4740587079976
 20
51.10000069053875
 30
0.0
 11
162.4740587079968
 21
51.10000069053875
 31
0.0
  0
LINE
  5
BCF
330
1F
100
AcDbEntity
  8
CLASS1
  6
CONTINUOUS
 62
     0
100
AcDbLine
 10
162.4740587079968
 20
49.10000069053875
 30
0.0
 11
174.4740587079976
 21
49.10000069053875
 31
0.0
  0
LINE
  5
BD0
330
1F
100
AcDbEntity
  8
CLASS1
  6
CONTINUOUS
 62
     0
100
AcDbLine
 10
174.4740587079976
 20
43.10000069053876
 30
0.0
 11
162.4740587079968
 21
43.10000069053876
 31
0.0
  0
LINE
  5
BD1
330
1F
100
AcDbEntity
  8
CLASS1
  6
CONTINUOUS
 62
     0
100
AcDbLine
 10
162.4740587079968
 20
45.10000069053876
 30
0.0
 11
174.4740587079976
 21
45.10000069053876
 31
0.0
  0
LINE
  5
BD2
330
1F
100
AcDbEntity
  8
CLASS1
  6
CONTINUOUS
 62
     0
100
AcDbLine
 10
174.4740587079976
 20
47.10000069053875
 30
0.0
 11
162.4740587079968
 21
47.10000069053875
 31
0.0
  0
LINE
  5
BD3
330
1F
100
AcDbEntity
  8
CLASS1
  6
CONTINUOUS
 62
     0
100
AcDbLine
 10
162.4740587079968
 20
41.10000069053875
 30
0.0
 11
174.4740587079976
 21
41.10000069053875
 31
0.0
  0
LINE
  5
BD4
330
1F
100
AcDbEntity
  8
CLASS1
  6
CONTINUOUS
 62
     0
100
AcDbLine
 10
165.4740587079959
 20
35.90000069053871
 30
0.0
 11
175.4740587079968
 21
35.90000069053871
 31
0.0
  0
LINE
  5
BD5
330
1F
100
AcDbEntity
  8
CLASS1
  6
CONTINUOUS
 62
     0
100
AcDbLine
 10
162.4740587079968
 20
37.10000069053875
 30
0.0
 11
174.4740587079976
 21
37.10000069053875
 31
0.0
  0
LINE
  5
BD6
330
1F
100
AcDbEntity
  8
CLASS1
  6
CONTINUOUS
 62
     0
100
AcDbLine
 10
174.4740587079976
 20
39.10000069053875
 30
0.0
 11
162.4740587079968
 21
39.10000069053875
 31
0.0
  0
LINE
  5
BD7
330
1F
100
AcDbEntity
  8
CLASS1
  6
CONTINUOUS
 62
     0
100
AcDbLine
 10
167.4740587079968
 20
34.40000069053871
 30
0.0
 11
173.4740587079968
 21
34.40000069053871
 31
0.0
  0
LINE
  5
BD8
330
1F
100
AcDbEntity
  8
CLASS1
  6
CONTINUOUS
 62
     0
100
AcDbLine
 10
174.4740587079976
 20
45.10000069053876
 30
0.0
 11
174.4740587079976
 21
47.10000069053875
 31
0.0
  0
LINE
  5
BD9
330
1F
100
AcDbEntity
  8
CLASS1
  6
CONTINUOUS
 62
     0
100
AcDbLine
 10
174.4740587079976
 20
37.10000069053875
 30
0.0
 11
174.4740587079976
 21
39.10000069053875
 31
0.0
  0
ARC
  5
BDA
330
1F
100
AcDbEntity
  8
CLASS1
  6
CONTINUOUS
 62
     0
100
AcDbCircle
 10
173.4740587079968
 20
33.90000069053872
 30
0.0
 40
0.5
100
AcDbArc
 50
0.0
 51
90.0
  0
LINE
  5
BDB
330
1F
100
AcDbEntity
  8
CLASS1
  6
CONTINUOUS
 62
     0
100
AcDbLine
 10
174.4740587079976
 20
41.10000069053875
 30
0.0
 11
174.4740587079976
 21
43.10000069053876
 31
0.0
  0
LINE
  5
BDC
330
1F
100
AcDbEntity
  8
CLASS1
  6
CONTINUOUS
 62
     0
100
AcDbLine
 10
174.4740587079976
 20
57.10000069053876
 30
0.0
 11
174.4740587079976
 21
59.10000069053875
 31
0.0
  0
LINE
  5
BDD
330
1F
100
AcDbEntity
  8
CLASS1
  6
CONTINUOUS
 62
     0
100
AcDbLine
 10
174.4740587079976
 20
49.10000069053875
 30
0.0
 11
174.4740587079976
 21
51.10000069053875
 31
0.0
  0
LINE
  5
BDE
330
1F
100
AcDbEntity
  8
CLASS1
  6
CONTINUOUS
 62
     0
100
AcDbLine
 10
174.4740587079976
 20
53.10000069053876
 30
0.0
 11
174.4740587079976
 21
55.10000069053877
 31
0.0
  0
LINE
  5
BDF
330
1F
100
AcDbEntity
  8
CLASS1
  6
CONTINUOUS
 62
     0
100
AcDbLine
 10
162.4740587079968
 20
47.10000069053875
 30
0.0
 11
162.4740587079968
 21
45.10000069053876
 31
0.0
  0
LINE
  5
BE0
330
1F
100
AcDbEntity
  8
CLASS1
  6
CONTINUOUS
 62
     0
100
AcDbLine
 10
162.4740587079968
 20
39.10000069053875
 30
0.0
 11
162.4740587079968
 21
37.10000069053875
 31
0.0
  0
ARC
  5
BE1
330
1F
100
AcDbEntity
  8
CLASS1
  6
CONTINUOUS
 62
     0
100
AcDbCircle
 10
167.4740587079968
 20
33.90000069053872
 30
0.0
 40
0.5
100
AcDbArc
 50
90.0
 51
180.0
  0
LINE
  5
BE2
330
1F
100
AcDbEntity
  8
CLASS1
  6
CONTINUOUS
 62
     0
100
AcDbLine
 10
163.9740587079959
 20
35.10000069053876
 30
0.0
 11
162.4740587079968
 21
35.10000069053876
 31
0.0
  0
LINE
  5
BE3
330
1F
100
AcDbEntity
  8
CLASS1
  6
CONTINUOUS
 62
     0
100
AcDbLine
 10
162.4740587079968
 20
43.10000069053876
 30
0.0
 11
162.4740587079968
 21
41.10000069053875
 31
0.0
  0
LINE
  5
BE4
330
1F
100
AcDbEntity
  8
CLASS1
  6
CONTINUOUS
 62
     0
100
AcDbLine
 10
162.4740587079968
 20
59.10000069053875
 30
0.0
 11
162.4740587079968
 21
57.10000069053876
 31
0.0
  0
LINE
  5
BE5
330
1F
100
AcDbEntity
  8
CLASS1
  6
CONTINUOUS
 62
     0
100
AcDbLine
 10
162.4740587079968
 20
51.10000069053875
 30
0.0
 11
162.4740587079968
 21
49.10000069053875
 31
0.0
  0
LINE
  5
BE6
330
1F
100
AcDbEntity
  8
CLASS1
  6
CONTINUOUS
 62
     0
100
AcDbLine
 10
162.4740587079968
 20
55.10000069053877
 30
0.0
 11
162.4740587079968
 21
53.10000069053876
 31
0.0
  0
ARC
  5
BE7
330
1F
100
AcDbEntity
  8
CLASS1
  6
CONTINUOUS
 62
     0
100
AcDbCircle
 10
168.4740587079968
 20
-35.89999930946106
 30
0.0
 40
100.0
100
AcDbArc
 50
85.2667410000032
 51
94.73325899999677
  0
ARC
  5
BE8
330
1F
100
AcDbEntity
  8
CLASS1
  6
CONTINUOUS
 62
     0
100
AcDbCircle
 10
176.5607257079965
 20
61.76578769053879
 30
0.0
 40
2.0
100
AcDbArc
 50
0.8823600000014771
 51
85.2667410000032
  0
LINE
  5
BE9
330
1F
100
AcDbEntity
  8
CLASS1
  6
CONTINUOUS
 62
     0
100
AcDbLine
 10
152.8890647079958
 20
62.94472669053856
 30
0.0
 11
153.9047757079958
 21
62.94472669053856
 31
0.0
  0
ARC
  5
BEA
330
1F
100
AcDbEntity
  8
CLASS1
  6
CONTINUOUS
 62
     0
100
AcDbCircle
 10
152.8890647079958
 20
61.9447266905388
 30
0.0
 40
1.0
100
AcDbArc
 50
90.0
 51
179.1176409999947
  0
LINE
  5
BEB
330
1F
100
AcDbEntity
  8
CLASS1
  6
CONTINUOUS
 62
     0
100
AcDbLine
 10
152.9738505806566
 20
435.3181812904612
 30
0.0
 11
183.9742685806555
 21
435.3181812904612
 31
0.0
  0
INSERT
  5
BEC
330
1F
100
AcDbEntity
  8
0
100
AcDbBlockReference
  2
A$C51C20FFB
 10
183.9742685806555
 20
438.8181799531393
 30
0.0
 50
180.0
  0
LINE
  5
BED
330
1F
100
AcDbEntity
  8
CLASS1
  6
CONTINUOUS
 62
     0
100
AcDbLine
 10
178.5604915806556
 20
376.0215962904613
 30
0.0
 11
179.4737345806555
 21
435.3181812904612
 31
0.0
  0
LINE
  5
BEE
330
1F
100
AcDbEntity
  8
CLASS1
  6
CONTINUOUS
 62
     0
100
AcDbLine
 10
185.0589355806556
 20
375.8580552904612
 30
0.0
 11
185.9744605806556
 21
435.3027822904613
 31
0.0
  0
LINE
  5
BEF
330
1F
100
AcDbEntity
  8
CLASS1
  6
CONTINUOUS
 62
     0
100
AcDbLine
 10
182.9779585806556
 20
370.6281072904616
 30
0.0
 11
183.9742685806555
 21
435.3181812904612
 31
0.0
  0
ARC
  5
BF0
330
1F
100
AcDbEntity
  8
CLASS1
  6
CONTINUOUS
 62
     0
100
AcDbCircle
 10
184.0590535806556
 20
375.8734552904616
 30
0.0
 40
1.0
100
AcDbArc
 50
270.0
 51
359.1176409999946
  0
LINE
  5
BF1
330
1F
100
AcDbEntity
  8
CLASS1
  6
CONTINUOUS
 62
     0
100
AcDbLine
 10
184.0590535806556
 20
374.8734552904616
 30
0.0
 11
183.0433415806558
 21
374.8734552904616
 31
0.0
  0
ARC
  5
BF2
330
1F
100
AcDbEntity
  8
CLASS1
  6
CONTINUOUS
 62
     0
100
AcDbCircle
 10
184.9745795806556
 20
435.3181812904612
 30
0.0
 40
1.0
100
AcDbArc
 50
359.1176409999946
 51
90.0
  0
LINE
  5
BF3
330
1F
100
AcDbEntity
  8
CLASS1
  6
CONTINUOUS
 62
     0
100
AcDbLine
 10
183.9742685806555
 20
436.3181812904612
 30
0.0
 11
183.9742685806555
 21
435.3181812904612
 31
0.0
  0
LINE
  5
BF4
330
1F
100
AcDbEntity
  8
CLASS1
  6
CONTINUOUS
 62
     0
100
AcDbLine
 10
183.9742685806555
 20
436.3181812904612
 30
0.0
 11
184.9745795806556
 21
436.3181812904612
 31
0.0
  0
LINE
  5
BF5
330
1F
100
AcDbEntity
  8
CLASS1
  6
CONTINUOUS
 62
     0
100
AcDbLine
 10
162.4740595806555
 20
391.7181812904613
 30
0.0
 11
162.4740595806555
 21
393.7181812904613
 31
0.0
  0
LINE
  5
BF6
330
1F
100
AcDbEntity
  8
CLASS1
  6
CONTINUOUS
 62
     0
100
AcDbLine
 10
174.4740595806556
 20
393.7181812904613
 30
0.0
 11
174.4740595806556
 21
391.7181812904613
 31
0.0
  0
LINE
  5
BF7
330
1F
100
AcDbEntity
  8
CLASS1
  6
CONTINUOUS
 62
     0
100
AcDbLine
 10
151.8891845806555
 20
375.8580552904612
 30
0.0
 11
150.9736585806555
 21
435.3027822904613
 31
0.0
  0
LINE
  5
BF8
330
1F
100
AcDbEntity
  8
CLASS1
  6
CONTINUOUS
 62
     0
100
AcDbLine
 10
158.3876295806558
 20
376.0215962904613
 30
0.0
 11
157.4743845806557
 21
435.3181812904612
 31
0.0
  0
LINE
  5
BF9
330
1F
100
AcDbEntity
  8
CLASS1
  6
CONTINUOUS
 62
     0
100
AcDbLine
 10
153.9701885806556
 20
370.6264282904616
 30
0.0
 11
152.9738505806566
 21
435.3181812904612
 31
0.0
  0
ARC
  5
BFA
330
1F
100
AcDbEntity
  8
CLASS1
  6
CONTINUOUS
 62
     0
100
AcDbCircle
 10
160.3873925806558
 20
376.0523942904613
 30
0.0
 40
2.0
100
AcDbArc
 50
180.8823600000014
 51
265.2667410000032
  0
LINE
  5
BFB
330
1F
100
AcDbEntity
  8
CLASS1
  6
CONTINUOUS
 62
     0
100
AcDbLine
 10
174.4740595806556
 20
391.7181812904613
 30
0.0
 11
162.4740595806555
 21
391.7181812904613
 31
0.0
  0
LINE
  5
BFC
330
1F
100
AcDbEntity
  8
CLASS1
  6
CONTINUOUS
 62
     0
100
AcDbLine
 10
174.4740595806556
 20
387.7181812904613
 30
0.0
 11
162.4740595806555
 21
387.7181812904613
 31
0.0
  0
LINE
  5
BFD
330
1F
100
AcDbEntity
  8
CLASS1
  6
CONTINUOUS
 62
     0
100
AcDbLine
 10
162.4740595806555
 20
389.7181812904613
 30
0.0
 11
174.4740595806556
 21
389.7181812904613
 31
0.0
  0
LINE
  5
BFE
330
1F
100
AcDbEntity
  8
CLASS1
  6
CONTINUOUS
 62
     0
100
AcDbLine
 10
162.4740595806555
 20
385.7181812904613
 30
0.0
 11
174.4740595806556
 21
385.7181812904613
 31
0.0
  0
LINE
  5
BFF
330
1F
100
AcDbEntity
  8
CLASS1
  6
CONTINUOUS
 62
     0
100
AcDbLine
 10
174.4740595806556
 20
383.7181812904613
 30
0.0
 11
162.4740595806555
 21
383.7181812904613
 31
0.0
  0
LINE
  5
C00
330
1F
100
AcDbEntity
  8
CLASS1
  6
CONTINUOUS
 62
     0
100
AcDbLine
 10
162.4740595806555
 20
381.7181812904613
 30
0.0
 11
174.4740595806556
 21
381.7181812904613
 31
0.0
  0
LINE
  5
C01
330
1F
100
AcDbEntity
  8
CLASS1
  6
CONTINUOUS
 62
     0
100
AcDbLine
 10
174.4740595806556
 20
379.7181812904613
 30
0.0
 11
162.4740595806555
 21
379.7181812904613
 31
0.0
  0
ARC
  5
C02
330
1F
100
AcDbEntity
  8
CLASS1
  6
CONTINUOUS
 62
     0
100
AcDbCircle
 10
168.4740595806555
 20
473.7181812904609
 30
0.0
 40
100.0
100
AcDbArc
 50
265.2667410000032
 51
274.7332589999968
  0
ARC
  5
C03
330
1F
100
AcDbEntity
  8
CLASS1
  6
CONTINUOUS
 62
     0
100
AcDbCircle
 10
176.5607285806555
 20
376.0523952904613
 30
0.0
 40
2.0
100
AcDbArc
 50
274.7332589999968
 51
359.1176409999946
  0
LINE
  5
C04
330
1F
100
AcDbEntity
  8
CLASS1
  6
CONTINUOUS
 62
     0
100
AcDbLine
 10
174.4740595806556
 20
389.7181812904613
 30
0.0
 11
174.4740595806556
 21
387.7181812904613
 31
0.0
  0
LINE
  5
C05
330
1F
100
AcDbEntity
  8
CLASS1
  6
CONTINUOUS
 62
     0
100
AcDbLine
 10
174.4740595806556
 20
385.7181812904613
 30
0.0
 11
174.4740595806556
 21
383.7181812904613
 31
0.0
  0
LINE
  5
C06
330
1F
100
AcDbEntity
  8
CLASS1
  6
CONTINUOUS
 62
     0
100
AcDbLine
 10
174.4740595806556
 20
381.7181812904613
 30
0.0
 11
174.4740595806556
 21
379.7181812904613
 31
0.0
  0
LINE
  5
C07
330
1F
100
AcDbEntity
  8
CLASS1
  6
CONTINUOUS
 62
     0
100
AcDbLine
 10
162.4740595806555
 20
387.7181812904613
 30
0.0
 11
162.4740595806555
 21
389.7181812904613
 31
0.0
  0
LINE
  5
C08
330
1F
100
AcDbEntity
  8
CLASS1
  6
CONTINUOUS
 62
     0
100
AcDbLine
 10
162.4740595806555
 20
383.7181812904613
 30
0.0
 11
162.4740595806555
 21
385.7181812904613
 31
0.0
  0
LINE
  5
C09
330
1F
100
AcDbEntity
  8
CLASS1
  6
CONTINUOUS
 62
     0
100
AcDbLine
 10
162.4740595806555
 20
379.7181812904613
 30
0.0
 11
162.4740595806555
 21
381.7181812904613
 31
0.0
  0
ARC
  5
C0A
330
1F
100
AcDbEntity
  8
CLASS1
  6
CONTINUOUS
 62
     0
100
AcDbCircle
 10
152.8890665806556
 20
375.8734552904616
 30
0.0
 40
1.0
100
AcDbArc
 50
180.8823590000051
 51
270.0
  0
LINE
  5
C0B
330
1F
100
AcDbEntity
  8
CLASS1
  6
CONTINUOUS
 62
     0
100
AcDbLine
 10
152.8890665806556
 20
374.8734552904616
 30
0.0
 11
153.9047775806556
 21
374.8734552904616
 31
0.0
  0
LINE
  5
C0C
330
1F
100
AcDbEntity
  8
CLASS1
  6
CONTINUOUS
 62
     0
100
AcDbLine
 10
162.4740595806555
 20
421.7181812904613
 30
0.0
 11
174.4740595806556
 21
421.7181812904613
 31
0.0
  0
LINE
  5
C0D
330
1F
100
AcDbEntity
  8
CLASS1
  6
CONTINUOUS
 62
     0
100
AcDbLine
 10
174.4740595806556
 20
419.7181812904613
 30
0.0
 11
162.4740595806555
 21
419.7181812904613
 31
0.0
  0
LINE
  5
C0E
330
1F
100
AcDbEntity
  8
CLASS1
  6
CONTINUOUS
 62
     0
100
AcDbLine
 10
162.4740595806555
 20
417.7181812904612
 30
0.0
 11
174.4740595806556
 21
417.7181812904612
 31
0.0
  0
LINE
  5
C0F
330
1F
100
AcDbEntity
  8
CLASS1
  6
CONTINUOUS
 62
     0
100
AcDbLine
 10
174.4740595806556
 20
415.7181812904613
 30
0.0
 11
162.4740595806555
 21
415.7181812904613
 31
0.0
  0
LINE
  5
C10
330
1F
100
AcDbEntity
  8
CLASS1
  6
CONTINUOUS
 62
     0
100
AcDbLine
 10
168.9490595806565
 20
410.8681812904617
 30
0.0
 11
164.7990595806557
 21
410.8681812904617
 31
0.0
  0
LINE
  5
C11
330
1F
100
AcDbEntity
  8
CLASS1
  6
CONTINUOUS
 62
     0
100
AcDbLine
 10
169.5740595806556
 20
404.1181812904611
 30
0.0
 11
167.8740595806556
 21
404.1181812904611
 31
0.0
  0
LINE
  5
C12
330
1F
100
AcDbEntity
  8
CLASS1
  6
CONTINUOUS
 62
     0
100
AcDbLine
 10
169.5740595806556
 20
405.3181812904612
 30
0.0
 11
167.8740595806556
 21
405.3181812904612
 31
0.0
  0
LINE
  5
C13
330
1F
100
AcDbEntity
  8
CLASS1
  6
CONTINUOUS
 62
     0
100
AcDbLine
 10
168.9490595806565
 20
398.5681812904612
 30
0.0
 11
164.7990595806557
 21
398.5681812904612
 31
0.0
  0
LINE
  5
C14
330
1F
100
AcDbEntity
  8
CLASS1
  6
CONTINUOUS
 62
     0
100
AcDbLine
 10
162.4740595806555
 20
413.7181812904612
 30
0.0
 11
174.4740595806556
 21
413.7181812904612
 31
0.0
  0
LINE
  5
C15
330
1F
100
AcDbEntity
  8
CLASS1
  6
CONTINUOUS
 62
     0
100
AcDbLine
 10
162.4740595806555
 20
412.7181812904614
 30
0.0
 11
171.3740595806556
 21
412.7181812904614
 31
0.0
  0
LINE
  5
C16
330
1F
100
AcDbEntity
  8
CLASS1
  6
CONTINUOUS
 62
     0
100
AcDbLine
 10
171.3740595806556
 20
396.7181812904613
 30
0.0
 11
162.4740595806555
 21
396.7181812904613
 31
0.0
  0
LINE
  5
C17
330
1F
100
AcDbEntity
  8
CLASS1
  6
CONTINUOUS
 62
     0
100
AcDbLine
 10
174.4740595806556
 20
395.7181812904613
 30
0.0
 11
162.4740595806555
 21
395.7181812904613
 31
0.0
  0
LINE
  5
C18
330
1F
100
AcDbEntity
  8
CLASS1
  6
CONTINUOUS
 62
     0
100
AcDbLine
 10
162.4740595806555
 20
393.7181812904613
 30
0.0
 11
174.4740595806556
 21
393.7181812904613
 31
0.0
  0
LINE
  5
C19
330
1F
100
AcDbEntity
  8
CLASS1
  6
CONTINUOUS
 62
     0
100
AcDbLine
 10
169.5740595806556
 20
399.8181812904612
 30
0.0
 11
169.5740595806556
 21
409.6181812904613
 31
0.0
  0
LINE
  5
C1A
330
1F
100
AcDbEntity
  8
CLASS1
  6
CONTINUOUS
 62
     0
100
AcDbLine
 10
171.3740595806556
 20
409.7181812904612
 30
0.0
 11
171.3740595806556
 21
407.7181812904613
 31
0.0
  0
LINE
  5
C1B
330
1F
100
AcDbEntity
  8
CLASS1
  6
CONTINUOUS
 62
     0
100
AcDbLine
 10
174.4740595806556
 20
409.7181812904612
 30
0.0
 11
174.4740595806556
 21
407.7181812904613
 31
0.0
  0
LINE
  5
C1C
330
1F
100
AcDbEntity
  8
CLASS1
  6
CONTINUOUS
 62
     0
100
AcDbLine
 10
168.9490595806565
 20
398.5681812904612
 30
0.0
 11
168.9490595806565
 21
399.8181812904612
 31
0.0
  0
LINE
  5
C1D
330
1F
100
AcDbEntity
  8
CLASS1
  6
CONTINUOUS
 62
     0
100
AcDbLine
 10
169.5740595806556
 20
399.8181812904612
 30
0.0
 11
168.9490595806565
 21
399.8181812904612
 31
0.0
  0
LINE
  5
C1E
330
1F
100
AcDbEntity
  8
CLASS1
  6
CONTINUOUS
 62
     0
100
AcDbLine
 10
174.4740595806556
 20
407.7181812904613
 30
0.0
 11
171.3740595806556
 21
407.7181812904613
 31
0.0
  0
LINE
  5
C1F
330
1F
100
AcDbEntity
  8
CLASS1
  6
CONTINUOUS
 62
     0
100
AcDbLine
 10
174.4740595806556
 20
403.7181812904613
 30
0.0
 11
171.3740595806556
 21
403.7181812904613
 31
0.0
  0
LINE
  5
C20
330
1F
100
AcDbEntity
  8
CLASS1
  6
CONTINUOUS
 62
     0
100
AcDbLine
 10
171.3740595806556
 20
405.7181812904613
 30
0.0
 11
171.3740595806556
 21
403.7181812904613
 31
0.0
  0
LINE
  5
C21
330
1F
100
AcDbEntity
  8
CLASS1
  6
CONTINUOUS
 62
     0
100
AcDbLine
 10
174.4740595806556
 20
405.7181812904613
 30
0.0
 11
174.4740595806556
 21
403.7181812904613
 31
0.0
  0
LINE
  5
C22
330
1F
100
AcDbEntity
  8
CLASS1
  6
CONTINUOUS
 62
     0
100
AcDbLine
 10
171.3740595806556
 20
405.7181812904613
 30
0.0
 11
174.4740595806556
 21
405.7181812904613
 31
0.0
  0
LINE
  5
C23
330
1F
100
AcDbEntity
  8
CLASS1
  6
CONTINUOUS
 62
     0
100
AcDbLine
 10
174.4740595806556
 20
401.7181812904611
 30
0.0
 11
174.4740595806556
 21
399.7181812904613
 31
0.0
  0
LINE
  5
C24
330
1F
100
AcDbEntity
  8
CLASS1
  6
CONTINUOUS
 62
     0
100
AcDbLine
 10
171.3740595806556
 20
401.7181812904611
 30
0.0
 11
171.3740595806556
 21
399.7181812904613
 31
0.0
  0
LINE
  5
C25
330
1F
100
AcDbEntity
  8
CLASS1
  6
CONTINUOUS
 62
     0
100
AcDbLine
 10
171.3740595806556
 20
401.7181812904611
 30
0.0
 11
174.4740595806556
 21
401.7181812904611
 31
0.0
  0
LINE
  5
C26
330
1F
100
AcDbEntity
  8
CLASS1
  6
CONTINUOUS
 62
     0
100
AcDbLine
 10
174.4740595806556
 20
399.7181812904613
 30
0.0
 11
171.3740595806556
 21
399.7181812904613
 31
0.0
  0
LINE
  5
C27
330
1F
100
AcDbEntity
  8
CLASS1
  6
CONTINUOUS
 62
     0
100
AcDbLine
 10
171.3740595806556
 20
397.7181812904613
 30
0.0
 11
174.4740595806556
 21
397.7181812904613
 31
0.0
  0
LINE
  5
C28
330
1F
100
AcDbEntity
  8
CLASS1
  6
CONTINUOUS
 62
     0
100
AcDbLine
 10
171.3740595806556
 20
397.7181812904613
 30
0.0
 11
171.3740595806556
 21
396.7181812904613
 31
0.0
  0
LINE
  5
C29
330
1F
100
AcDbEntity
  8
CLASS1
  6
CONTINUOUS
 62
     0
100
AcDbLine
 10
174.4740595806556
 20
397.7181812904613
 30
0.0
 11
174.4740595806556
 21
395.7181812904613
 31
0.0
  0
LINE
  5
C2A
330
1F
100
AcDbEntity
  8
CLASS1
  6
CONTINUOUS
 62
     0
100
AcDbLine
 10
174.4740595806556
 20
421.7181812904613
 30
0.0
 11
174.4740595806556
 21
419.7181812904613
 31
0.0
  0
LINE
  5
C2B
330
1F
100
AcDbEntity
  8
CLASS1
  6
CONTINUOUS
 62
     0
100
AcDbLine
 10
174.4740595806556
 20
417.7181812904612
 30
0.0
 11
174.4740595806556
 21
415.7181812904613
 31
0.0
  0
LINE
  5
C2C
330
1F
100
AcDbEntity
  8
CLASS1
  6
CONTINUOUS
 62
     0
100
AcDbLine
 10
169.5740595806556
 20
409.6181812904613
 30
0.0
 11
168.9490595806565
 21
409.6181812904613
 31
0.0
  0
LINE
  5
C2D
330
1F
100
AcDbEntity
  8
CLASS1
  6
CONTINUOUS
 62
     0
100
AcDbLine
 10
168.9490595806565
 20
409.6181812904613
 30
0.0
 11
168.9490595806565
 21
410.8681812904617
 31
0.0
  0
LINE
  5
C2E
330
1F
100
AcDbEntity
  8
CLASS1
  6
CONTINUOUS
 62
     0
100
AcDbLine
 10
174.4740595806556
 20
413.7181812904612
 30
0.0
 11
174.4740595806556
 21
411.7181812904613
 31
0.0
  0
LINE
  5
C2F
330
1F
100
AcDbEntity
  8
CLASS1
  6
CONTINUOUS
 62
     0
100
AcDbLine
 10
174.4740595806556
 20
411.7181812904613
 30
0.0
 11
171.3740595806556
 21
411.7181812904613
 31
0.0
  0
LINE
  5
C30
330
1F
100
AcDbEntity
  8
CLASS1
  6
CONTINUOUS
 62
     0
100
AcDbLine
 10
171.3740595806556
 20
412.7181812904614
 30
0.0
 11
171.3740595806556
 21
411.7181812904613
 31
0.0
  0
LINE
  5
C31
330
1F
100
AcDbEntity
  8
CLASS1
  6
CONTINUOUS
 62
     0
100
AcDbLine
 10
171.3740595806556
 20
409.7181812904612
 30
0.0
 11
174.4740595806556
 21
409.7181812904612
 31
0.0
  0
LINE
  5
C32
330
1F
100
AcDbEntity
  8
CLASS1
  6
CONTINUOUS
 62
     0
100
AcDbLine
 10
167.8740595806556
 20
401.2181812904612
 30
0.0
 11
167.8740595806556
 21
408.2181812904613
 31
0.0
  0
LINE
  5
C33
330
1F
100
AcDbEntity
  8
CLASS1
  6
CONTINUOUS
 62
     0
100
AcDbLine
 10
165.8740595806556
 20
401.2181812904612
 30
0.0
 11
165.8740595806556
 21
408.2181812904613
 31
0.0
  0
LINE
  5
C34
330
1F
100
AcDbEntity
  8
CLASS1
  6
CENTER
 62
     0
100
AcDbLine
 10
166.8740595806556
 20
399.7181812904613
 30
0.0
 11
166.8740595806556
 21
411.7519232904611
 31
0.0
  0
LINE
  5
C35
330
1F
100
AcDbEntity
  8
CLASS1
  6
CONTINUOUS
 62
     0
100
AcDbLine
 10
164.2740595806566
 20
406.7181812904613
 30
0.0
 11
164.2740595806566
 21
409.6181812904613
 31
0.0
  0
LINE
  5
C36
330
1F
100
AcDbEntity
  8
CLASS1
  6
CONTINUOUS
 62
     0
100
AcDbLine
 10
162.5740595806556
 20
402.7181812904613
 30
0.0
 11
162.5740595806556
 21
406.7181812904613
 31
0.0
  0
LINE
  5
C37
330
1F
100
AcDbEntity
  8
CLASS1
  6
CONTINUOUS
 62
     0
100
AcDbLine
 10
164.2740595806566
 20
406.7181812904613
 30
0.0
 11
162.5740595806556
 21
406.7181812904613
 31
0.0
  0
LINE
  5
C38
330
1F
100
AcDbEntity
  8
CLASS1
  6
CONTINUOUS
 62
     0
100
AcDbLine
 10
165.8740595806556
 20
405.3181812904612
 30
0.0
 11
162.5740595806556
 21
405.3181812904612
 31
0.0
  0
LINE
  5
C39
330
1F
100
AcDbEntity
  8
CLASS1
  6
CONTINUOUS
 62
     0
100
AcDbLine
 10
165.8740595806556
 20
404.1181812904611
 30
0.0
 11
162.5740595806556
 21
404.1181812904611
 31
0.0
  0
LINE
  5
C3A
330
1F
100
AcDbEntity
  8
CLASS1
  6
CONTINUOUS
 62
     0
100
AcDbLine
 10
164.2990595806555
 20
402.7181812904613
 30
0.0
 11
162.5740595806556
 21
402.7181812904613
 31
0.0
  0
ARC
  5
C3B
330
1F
100
AcDbEntity
  8
CLASS1
  6
CONTINUOUS
 62
     0
100
AcDbCircle
 10
167.3740595806556
 20
401.2181812904612
 30
0.0
 40
0.5
100
AcDbArc
 50
270.0
 51
0.0
  0
ARC
  5
C3C
330
1F
100
AcDbEntity
  8
CLASS1
  6
CONTINUOUS
 62
     0
100
AcDbCircle
 10
166.3740595806556
 20
401.2181812904612
 30
0.0
 40
0.5
100
AcDbArc
 50
180.0
 51
270.0
  0
LINE
  5
C3D
330
1F
100
AcDbEntity
  8
CLASS1
  6
CONTINUOUS
 62
     0
100
AcDbLine
 10
164.7990595806557
 20
399.8181812904612
 30
0.0
 11
164.2990595806555
 21
399.8181812904612
 31
0.0
  0
LINE
  5
C3E
330
1F
100
AcDbEntity
  8
CLASS1
  6
CONTINUOUS
 62
     0
100
AcDbLine
 10
164.2990595806555
 20
399.8181812904612
 30
0.0
 11
164.2990595806555
 21
402.7181812904613
 31
0.0
  0
LINE
  5
C3F
330
1F
100
AcDbEntity
  8
CLASS1
  6
CONTINUOUS
 62
     0
100
AcDbLine
 10
164.7990595806557
 20
398.5681812904612
 30
0.0
 11
164.7990595806557
 21
399.8181812904612
 31
0.0
  0
LINE
  5
C40
330
1F
100
AcDbEntity
  8
CLASS1
  6
CONTINUOUS
 62
     0
100
AcDbLine
 10
167.3740595806556
 20
400.7181812904613
 30
0.0
 11
166.3740595806556
 21
400.7181812904613
 31
0.0
  0
LINE
  5
C41
330
1F
100
AcDbEntity
  8
CLASS1
  6
CONTINUOUS
 62
     0
100
AcDbLine
 10
162.4740595806555
 20
395.7181812904613
 30
0.0
 11
162.4740595806555
 21
396.7181812904613
 31
0.0
  0
LINE
  5
C42
330
1F
100
AcDbEntity
  8
CLASS1
  6
CONTINUOUS
 62
     0
100
AcDbLine
 10
162.4740595806555
 20
419.7181812904613
 30
0.0
 11
162.4740595806555
 21
421.7181812904613
 31
0.0
  0
LINE
  5
C43
330
1F
100
AcDbEntity
  8
CLASS1
  6
CONTINUOUS
 62
     0
100
AcDbLine
 10
162.4740595806555
 20
415.7181812904613
 30
0.0
 11
162.4740595806555
 21
417.7181812904612
 31
0.0
  0
LINE
  5
C44
330
1F
100
AcDbEntity
  8
CLASS1
  6
CONTINUOUS
 62
     0
100
AcDbLine
 10
162.4740595806555
 20
412.7181812904614
 30
0.0
 11
162.4740595806555
 21
413.7181812904612
 31
0.0
  0
ARC
  5
C45
330
1F
100
AcDbEntity
  8
CLASS1
  6
CONTINUOUS
 62
     0
100
AcDbCircle
 10
167.3740595806556
 20
408.2181812904613
 30
0.0
 40
0.5
100
AcDbArc
 50
0.0
 51
90.0
  0
LINE
  5
C46
330
1F
100
AcDbEntity
  8
CLASS1
  6
CONTINUOUS
 62
     0
100
AcDbLine
 10
167.3740595806556
 20
408.7181812904614
 30
0.0
 11
166.3740595806556
 21
408.7181812904614
 31
0.0
  0
LINE
  5
C47
330
1F
100
AcDbEntity
  8
CLASS1
  6
CONTINUOUS
 62
     0
100
AcDbLine
 10
164.7990595806557
 20
409.6181812904613
 30
0.0
 11
164.2740595806566
 21
409.6181812904613
 31
0.0
  0
LINE
  5
C48
330
1F
100
AcDbEntity
  8
CLASS1
  6
CONTINUOUS
 62
     0
100
AcDbLine
 10
164.7990595806557
 20
409.6181812904613
 30
0.0
 11
164.7990595806557
 21
410.8681812904617
 31
0.0
  0
ARC
  5
C49
330
1F
100
AcDbEntity
  8
CLASS1
  6
CONTINUOUS
 62
     0
100
AcDbCircle
 10
166.3740595806556
 20
408.2181812904613
 30
0.0
 40
0.5
100
AcDbArc
 50
90.0
 51
180.0
  0
LINE
  5
C4A
330
1F
100
AcDbEntity
  8
CLASS1
  6
CONTINUOUS
 62
     0
100
AcDbLine
 10
162.4740595806555
 20
429.7181812904613
 30
0.0
 11
174.4740595806556
 21
429.7181812904613
 31
0.0
  0
LINE
  5
C4B
330
1F
100
AcDbEntity
  8
CLASS1
  6
CONTINUOUS
 62
     0
100
AcDbLine
 10
174.4740595806556
 20
427.7181812904613
 30
0.0
 11
162.4740595806555
 21
427.7181812904613
 31
0.0
  0
LINE
  5
C4C
330
1F
100
AcDbEntity
  8
CLASS1
  6
CONTINUOUS
 62
     0
100
AcDbLine
 10
162.4740595806555
 20
425.7181812904613
 30
0.0
 11
174.4740595806556
 21
425.7181812904613
 31
0.0
  0
LINE
  5
C4D
330
1F
100
AcDbEntity
  8
CLASS1
  6
CONTINUOUS
 62
     0
100
AcDbLine
 10
174.4740595806556
 20
423.7181812904613
 30
0.0
 11
162.4740595806555
 21
423.7181812904613
 31
0.0
  0
LINE
  5
C4E
330
1F
100
AcDbEntity
  8
CLASS1
  6
CONTINUOUS
 62
     0
100
AcDbLine
 10
174.4740595806556
 20
429.7181812904613
 30
0.0
 11
174.4740595806556
 21
427.7181812904613
 31
0.0
  0
LINE
  5
C4F
330
1F
100
AcDbEntity
  8
CLASS1
  6
CONTINUOUS
 62
     0
100
AcDbLine
 10
174.4740595806556
 20
425.7181812904613
 30
0.0
 11
174.4740595806556
 21
423.7181812904613
 31
0.0
  0
LINE
  5
C50
330
1F
100
AcDbEntity
  8
CLASS1
  6
CONTINUOUS
 62
     0
100
AcDbLine
 10
162.4740595806555
 20
427.7181812904613
 30
0.0
 11
162.4740595806555
 21
429.7181812904613
 31
0.0
  0
LINE
  5
C51
330
1F
100
AcDbEntity
  8
CLASS1
  6
CONTINUOUS
 62
     0
100
AcDbLine
 10
162.4740595806555
 20
423.7181812904613
 30
0.0
 11
162.4740595806555
 21
425.7181812904613
 31
0.0
  0
ARC
  5
C52
330
1F
100
AcDbEntity
  8
CLASS1
  6
CONTINUOUS
 62
     0
100
AcDbCircle
 10
151.9735405806556
 20
435.3181812904612
 30
0.0
 40
1.0
100
AcDbArc
 50
90.0
 51
180.8823590000051
  0
LINE
  5
C53
330
1F
100
AcDbEntity
  8
CLASS1
  6
CONTINUOUS
 62
     0
100
AcDbLine
 10
152.9738505806566
 20
435.3181812904612
 30
0.0
 11
152.9738505806566
 21
436.3181812904612
 31
0.0
  0
LINE
  5
C54
330
1F
100
AcDbEntity
  8
CLASS1
  6
CONTINUOUS
 62
     0
100
AcDbLine
 10
152.9738505806566
 20
436.3181812904612
 30
0.0
 11
151.9735405806556
 21
436.3181812904612
 31
0.0
  0
ARC
  5
C55
330
1F
100
AcDbEntity
  8
0
100
AcDbCircle
 10
168.4740595806555
 20
468.7181812904611
 30
0.0
 40
100.0
100
AcDbArc
 50
262.1601729999956
 51
277.8398260000031
  0
ARC
  5
C56
330
1F
100
AcDbEntity
  8
0
100
AcDbCircle
 10
181.9780765806567
 20
370.6435072904613
 30
0.0
 40
1.0
100
AcDbArc
 50
277.8398260000031
 51
359.1176430000001
  0
ARC
  5
C57
330
1F
100
AcDbEntity
  8
0
100
AcDbCircle
 10
154.9700425806555
 20
370.6435082904611
 30
0.0
 40
1.0
100
AcDbArc
 50
180.8823569999998
 51
262.1601729999956
  0
POINT
  5
C58
330
1F
100
AcDbEntity
  8
0
100
AcDbPoint
 10
153.9833205806566
 20
369.7736582904613
 30
0.0
  0
ARC
  5
C59
330
1F
100
AcDbEntity
  8
0
100
AcDbCircle
 10
168.4740587079968
 20
-29.89999930946117
 30
0.0
 40
100.0
100
AcDbArc
 50
82.16017299999576
 51
97.83982600000328
  0
ARC
  5
C5A
330
1F
100
AcDbEntity
  8
0
100
AcDbCircle
 10
154.9700417079965
 20
68.17467469053895
 30
0.0
 40
1.0
100
AcDbArc
 50
97.83982600000328
 51
179.117643
  0
ARC
  5
C5B
330
1F
100
AcDbEntity
  8
0
100
AcDbCircle
 10
181.9780757079968
 20
68.17467369053908
 30
0.0
 40
1.0
100
AcDbArc
 50
0.88235699999983
 51
82.16017299999576
  0
LINE
  5
C5D
330
1F
100
AcDbEntity
  8
0
100
AcDbLine
 10
267.8940859453907
 20
253.5705800824981
 30
0.0
 11
267.8940859453907
 21
268.0705800824981
 31
0.0
  0
LINE
  5
C5E
330
1F
100
AcDbEntity
  8
0
  6
HIDDEN
 48
10.0
100
AcDbLine
 10
264.0931675232118
 20
251.3205800824981
 30
0.0
 11
264.0931675232118
 21
270.3205800824981
 31
0.0
  0
LINE
  5
C5F
330
1F
100
AcDbEntity
  8
0
  6
HIDDEN
 48
10.0
100
AcDbLine
 10
229.9031675232128
 20
253.0705800824981
 30
0.0
 11
229.9031675232128
 21
268.5705800824981
 31
0.0
  0
LINE
  5
C60
330
1F
100
AcDbEntity
  8
0
  6
HIDDEN
 48
10.0
100
AcDbLine
 10
250.3431675232127
 20
251.3205800824981
 30
0.0
 11
264.0931675232118
 21
251.3205800824981
 31
0.0
  0
ARC
  5
C61
330
1F
100
AcDbEntity
  8
0
  6
HIDDEN
 48
10.0
100
AcDbCircle
 10
238.8431675232118
 20
252.3205800824985
 30
0.0
 40
0.25
100
AcDbArc
 50
179.9999999999869
 51
270.0
  0
ARC
  5
C62
330
1F
100
AcDbEntity
  8
0
  6
HIDDEN
 48
10.0
100
AcDbCircle
 10
238.8431675232118
 20
253.3205800824985
 30
0.0
 40
0.25
100
AcDbArc
 50
90.0
 51
179.9999999999934
  0
LINE
  5
C63
330
1F
100
AcDbEntity
  8
0
  6
HIDDEN
 48
10.0
100
AcDbLine
 10
236.8431675232118
 20
254.3205800824981
 30
0.0
 11
243.4412118611247
 21
254.3205800824981
 31
0.0
  0
ARC
  5
C64
330
1F
100
AcDbEntity
  8
0
  6
HIDDEN
 48
10.0
100
AcDbCircle
 10
236.8431675232118
 20
254.0705800824985
 30
0.0
 40
0.25
100
AcDbArc
 50
90.0
 51
180.0
  0
ARC
  5
C65
330
1F
100
AcDbEntity
  8
0
  6
HIDDEN
 48
10.0
100
AcDbCircle
 10
230.1531675232116
 20
253.0705800824985
 30
0.0
 40
0.25
100
AcDbArc
 50
180.0
 51
270.0
  0
LINE
  5
C66
330
1F
100
AcDbEntity
  8
0
  6
HIDDEN
 48
10.0
100
AcDbLine
 10
236.3431675232127
 20
252.8205800824983
 30
0.0
 11
230.1531675232116
 21
252.8205800824983
 31
0.0
  0
ARC
  5
C67
330
1F
100
AcDbEntity
  8
0
  6
HIDDEN
 48
10.0
100
AcDbCircle
 10
236.3431675232127
 20
253.0705800824985
 30
0.0
 40
0.25
100
AcDbArc
 50
270.0
 51
0.0
  0
LINE
  5
C68
330
1F
100
AcDbEntity
  8
0
  6
HIDDEN
 48
10.0
100
AcDbLine
 10
236.5931675232118
 20
254.0705800824981
 30
0.0
 11
236.5931675232118
 21
253.0705800824981
 31
0.0
  0
LINE
  5
C69
330
1F
100
AcDbEntity
  8
0
  6
HIDDEN
 48
10.0
100
AcDbLine
 10
243.4945036299298
 20
254.3148340228506
 30
0.0
 11
248.5901716350098
 21
252.8305553090716
 31
0.0
  0
LINE
  5
C6A
330
1F
100
AcDbEntity
  8
0
  6
HIDDEN
 48
10.0
100
AcDbLine
 10
248.6172582002206
 20
251.3216214385696
 30
0.0
 11
243.4681675232118
 21
252.0705800824981
 31
0.0
  0
LINE
  5
C6B
330
1F
100
AcDbEntity
  8
0
  6
HIDDEN
 48
10.0
100
AcDbLine
 10
248.2284084596066
 20
252.9359305768766
 30
0.0
 11
243.4681675232118
 21
253.1955800824981
 31
0.0
  0
LINE
  5
C6C
330
1F
100
AcDbEntity
  8
0
  6
HIDDEN
 48
10.0
100
AcDbLine
 10
243.4681675232118
 20
252.0705800824981
 30
0.0
 11
238.8431675232118
 21
252.0705800824981
 31
0.0
  0
LINE
  5
C6D
330
1F
100
AcDbEntity
  8
0
  6
HIDDEN
 48
10.0
100
AcDbLine
 10
243.4681675232118
 20
253.5705800824981
 30
0.0
 11
238.8431675232118
 21
253.5705800824981
 31
0.0
  0
LINE
  5
C6E
330
1F
100
AcDbEntity
  8
0
  6
HIDDEN
 48
10.0
100
AcDbLine
 10
238.5931675232118
 20
253.3205800824981
 30
0.0
 11
238.5931675232118
 21
252.3205800824981
 31
0.0
  0
LINE
  5
C6F
330
1F
100
AcDbEntity
  8
0
  6
HIDDEN
 48
10.0
100
AcDbLine
 10
243.4681675232118
 20
253.1955800824981
 30
0.0
 11
243.4681675232118
 21
253.5705800824981
 31
0.0
  0
LINE
  5
C70
330
1F
100
AcDbEntity
  8
0
  6
HIDDEN
 48
10.0
100
AcDbLine
 10
250.3431675232127
 20
251.3205800824981
 30
0.0
 11
248.6316521847907
 21
251.3205800824981
 31
0.0
  0
LINE
  5
C71
330
1F
100
AcDbEntity
  8
0
  6
HIDDEN
 48
10.0
100
AcDbLine
 10
250.3431675232127
 20
252.8205800824983
 30
0.0
 11
248.6600866415638
 21
252.8205800824983
 31
0.0
  0
ARC
  5
C72
330
1F
100
AcDbEntity
  8
0
  6
HIDDEN
 48
10.0
100
AcDbCircle
 10
248.6316521847907
 20
251.4205800824983
 30
0.0
 40
0.1
100
AcDbArc
 50
261.724107172922
 51
270.0
  0
ARC
  5
C73
330
1F
100
AcDbEntity
  8
0
  6
HIDDEN
 48
10.0
100
AcDbCircle
 10
248.6600866415638
 20
253.0705800824985
 30
0.0
 40
0.25
100
AcDbArc
 50
253.7600849346836
 51
270.0
  0
LINE
  5
C74
330
1F
100
AcDbEntity
  8
0
  6
HIDDEN
 48
10.0
100
AcDbLine
 10
250.3431675232127
 20
252.8205800824983
 30
0.0
 11
250.3431675232127
 21
251.3205800824981
 31
0.0
  0
ARC
  5
C75
330
1F
100
AcDbEntity
  8
0
  6
HIDDEN
 48
10.0
100
AcDbCircle
 10
243.4412118611247
 20
254.0705800824985
 30
0.0
 40
0.25
100
AcDbArc
 50
77.69198418257463
 51
90.0
  0
LINE
  5
C76
330
1F
100
AcDbEntity
  8
0
100
AcDbLine
 10
267.8831675232117
 20
252.195580082498
 30
0.0
 11
267.8831675232117
 21
252.195580082498
 31
0.0
  0
LINE
  5
C77
330
1F
100
AcDbEntity
  8
0
  6
HIDDEN
 48
10.0
100
AcDbLine
 10
267.6677128211256
 20
252.7705800824978
 30
0.0
 11
268.1485642948006
 21
252.7705800824978
 31
0.0
  0
LINE
  5
C78
330
1F
100
AcDbEntity
  8
0
100
AcDbLine
 10
267.8940859453907
 20
253.5705800824981
 30
0.0
 11
268.1485642948006
 21
253.5705800824981
 31
0.0
  0
ARC
  5
C79
330
1F
100
AcDbEntity
  8
0
  6
HIDDEN
 48
10.0
100
AcDbCircle
 10
267.0081675232117
 20
252.1955800824985
 30
0.0
 40
0.875
100
AcDbArc
 50
359.9999999999933
 51
90.0
  0
ARC
  5
C7A
330
1F
100
AcDbEntity
  8
0
  6
HIDDEN
 48
10.0
100
AcDbCircle
 10
267.0081675232117
 20
252.1955800824985
 30
0.0
 40
0.875
100
AcDbArc
 50
270.0
 51
359.9999999999933
  0
LINE
  5
C7B
330
1F
100
AcDbEntity
  8
0
  6
HIDDEN
 48
10.0
100
AcDbLine
 10
267.0081675232117
 20
253.0705800824981
 30
0.0
 11
268.1485642948006
 21
253.0705800824981
 31
0.0
  0
LINE
  5
C7C
330
1F
100
AcDbEntity
  8
0
100
AcDbLine
 10
268.1485642948006
 20
254.1705800824983
 30
0.0
 11
267.8940859453907
 21
254.1705800824983
 31
0.0
  0
LINE
  5
C7D
330
1F
100
AcDbEntity
  8
0
  6
HIDDEN
 48
10.0
100
AcDbLine
 10
265.7381675232118
 20
253.9455800824983
 30
0.0
 11
264.0931675232118
 21
253.9455800824983
 31
0.0
  0
LINE
  5
C7E
330
1F
100
AcDbEntity
  8
0
  6
HIDDEN
 48
10.0
100
AcDbLine
 10
265.9881675232118
 20
253.3205800824981
 30
0.0
 11
265.9881675232118
 21
253.6955800824983
 31
0.0
  0
ARC
  5
C7F
330
1F
100
AcDbEntity
  8
0
  6
HIDDEN
 48
10.0
100
AcDbCircle
 10
266.2381675232127
 20
253.3205800824985
 30
0.0
 40
0.25
100
AcDbArc
 50
180.0
 51
270.0
  0
ARC
  5
C80
330
1F
100
AcDbEntity
  8
0
  6
HIDDEN
 48
10.0
100
AcDbCircle
 10
265.7381675232118
 20
253.6955800824985
 30
0.0
 40
0.25
100
AcDbArc
 50
0.0
 51
90.0
  0
LINE
  5
C81
330
1F
100
AcDbEntity
  8
0
  6
HIDDEN
 48
10.0
100
AcDbLine
 10
264.0931675232118
 20
251.3205800824981
 30
0.0
 11
267.0081675232117
 21
251.3205800824981
 31
0.0
  0
LINE
  5
C82
330
1F
100
AcDbEntity
  8
0
  6
HIDDEN
 48
10.0
100
AcDbLine
 10
267.0081675232117
 20
253.0705800824981
 30
0.0
 11
266.2381675232127
 21
253.0705800824981
 31
0.0
  0
LINE
  5
C83
330
1F
100
AcDbEntity
  8
0
  6
HIDDEN
 48
10.0
100
AcDbLine
 10
268.1485642948006
 20
254.8205800824983
 30
0.0
 11
264.0931675232118
 21
254.8205800824983
 31
0.0
  0
LINE
  5
C84
330
1F
100
AcDbEntity
  8
0
  6
HIDDEN
 48
10.0
100
AcDbLine
 10
264.0931675232118
 20
270.3205800824981
 30
0.0
 11
250.3431675232127
 21
270.3205800824981
 31
0.0
  0
ARC
  5
C85
330
1F
100
AcDbEntity
  8
0
  6
HIDDEN
 48
10.0
100
AcDbCircle
 10
238.8431675232118
 20
269.3205800824983
 30
0.0
 40
0.25
100
AcDbArc
 50
90.0
 51
180.0
  0
ARC
  5
C86
330
1F
100
AcDbEntity
  8
0
  6
HIDDEN
 48
10.0
100
AcDbCircle
 10
238.8431675232118
 20
268.3205800824985
 30
0.0
 40
0.25
100
AcDbArc
 50
179.9999999999934
 51
270.0
  0
LINE
  5
C87
330
1F
100
AcDbEntity
  8
0
  6
HIDDEN
 48
10.0
100
AcDbLine
 10
243.4412118611247
 20
267.3205800824985
 30
0.0
 11
236.8431675232118
 21
267.3205800824985
 31
0.0
  0
ARC
  5
C88
330
1F
100
AcDbEntity
  8
0
  6
HIDDEN
 48
10.0
100
AcDbCircle
 10
230.1531675232116
 20
268.5705800824985
 30
0.0
 40
0.25
100
AcDbArc
 50
90.0
 51
180.0
  0
LINE
  5
C89
330
1F
100
AcDbEntity
  8
0
  6
HIDDEN
 48
10.0
100
AcDbLine
 10
236.3431675232127
 20
268.8205800824981
 30
0.0
 11
230.1531675232116
 21
268.8205800824981
 31
0.0
  0
ARC
  5
C8A
330
1F
100
AcDbEntity
  8
0
  6
HIDDEN
 48
10.0
100
AcDbCircle
 10
236.3431675232127
 20
268.5705800824985
 30
0.0
 40
0.25
100
AcDbArc
 50
0.0
 51
90.0
  0
ARC
  5
C8B
330
1F
100
AcDbEntity
  8
0
  6
HIDDEN
 48
10.0
100
AcDbCircle
 10
236.8431675232118
 20
267.5705800824981
 30
0.0
 40
0.25
100
AcDbArc
 50
180.0
 51
270.0
  0
LINE
  5
C8C
330
1F
100
AcDbEntity
  8
0
  6
HIDDEN
 48
10.0
100
AcDbLine
 10
236.5931675232118
 20
267.5705800824981
 30
0.0
 11
236.5931675232118
 21
268.5705800824981
 31
0.0
  0
LINE
  5
C8D
330
1F
100
AcDbEntity
  8
0
  6
HIDDEN
 48
10.0
100
AcDbLine
 10
248.6238510732878
 20
270.3195413395468
 30
0.0
 11
243.4681675232118
 21
269.5705800824981
 31
0.0
  0
LINE
  5
C8E
330
1F
100
AcDbEntity
  8
0
  6
HIDDEN
 48
10.0
100
AcDbLine
 10
243.4945036299298
 20
267.3263261421458
 30
0.0
 11
248.5967943829106
 21
268.810628906649
 31
0.0
  0
LINE
  5
C8F
330
1F
100
AcDbEntity
  8
0
  6
HIDDEN
 48
10.0
100
AcDbLine
 10
248.2358863252785
 20
268.705637471702
 30
0.0
 11
243.4681675232118
 21
268.4455800824983
 31
0.0
  0
LINE
  5
C90
330
1F
100
AcDbEntity
  8
0
  6
HIDDEN
 48
10.0
100
AcDbLine
 10
243.4681675232118
 20
269.5705800824981
 30
0.0
 11
238.8431675232118
 21
269.5705800824981
 31
0.0
  0
LINE
  5
C91
330
1F
100
AcDbEntity
  8
0
  6
HIDDEN
 48
10.0
100
AcDbLine
 10
243.4681675232118
 20
268.0705800824981
 30
0.0
 11
238.8431675232118
 21
268.0705800824981
 31
0.0
  0
LINE
  5
C92
330
1F
100
AcDbEntity
  8
0
  6
HIDDEN
 48
10.0
100
AcDbLine
 10
238.5931675232118
 20
268.3205800824985
 30
0.0
 11
238.5931675232118
 21
269.3205800824983
 31
0.0
  0
LINE
  5
C93
330
1F
100
AcDbEntity
  8
0
  6
HIDDEN
 48
10.0
100
AcDbLine
 10
243.4681675232118
 20
268.4455800824983
 30
0.0
 11
243.4681675232118
 21
268.0705800824981
 31
0.0
  0
ARC
  5
C94
330
1F
100
AcDbEntity
  8
0
  6
HIDDEN
 48
10.0
100
AcDbCircle
 10
243.4412118611247
 20
267.5705800824981
 30
0.0
 40
0.25
100
AcDbArc
 50
270.0
 51
282.3080158174253
  0
LINE
  5
C95
330
1F
100
AcDbEntity
  8
0
  6
HIDDEN
 48
10.0
100
AcDbLine
 10
250.3431675232127
 20
270.3205800824981
 30
0.0
 11
248.6382270811926
 21
270.3205800824981
 31
0.0
  0
LINE
  5
C96
330
1F
100
AcDbEntity
  8
0
  6
HIDDEN
 48
10.0
100
AcDbLine
 10
250.3431675232127
 20
268.8205800824981
 30
0.0
 11
248.6666267681178
 21
268.8205800824981
 31
0.0
  0
ARC
  5
C97
330
1F
100
AcDbEntity
  8
0
  6
HIDDEN
 48
10.0
100
AcDbCircle
 10
248.6382270811926
 20
270.2205800824981
 30
0.0
 40
0.1
100
AcDbArc
 50
90.0
 51
98.26548470710926
  0
ARC
  5
C98
330
1F
100
AcDbEntity
  8
0
  6
HIDDEN
 48
10.0
100
AcDbCircle
 10
248.6666267681178
 20
268.5705800824985
 30
0.0
 40
0.25
100
AcDbArc
 50
90.0
 51
106.220193695599
  0
LINE
  5
C99
330
1F
100
AcDbEntity
  8
0
  6
HIDDEN
 48
10.0
100
AcDbLine
 10
250.3431675232127
 20
270.3205800824981
 30
0.0
 11
250.3431675232127
 21
268.8205800824981
 31
0.0
  0
LINE
  5
C9A
330
1F
100
AcDbEntity
  8
0
100
AcDbLine
 10
267.8831675232117
 20
269.4455800824981
 30
0.0
 11
267.8831675232117
 21
269.4455800824981
 31
0.0
  0
LINE
  5
C9B
330
1F
100
AcDbEntity
  8
0
  6
HIDDEN
 48
10.0
100
AcDbLine
 10
267.6677128211256
 20
268.8705800824983
 30
0.0
 11
268.1485642948006
 21
268.8705800824983
 31
0.0
  0
LINE
  5
C9C
330
1F
100
AcDbEntity
  8
0
  6
HIDDEN
 48
10.0
100
AcDbLine
 10
267.0081675232117
 20
268.5705800824981
 30
0.0
 11
268.1485642948006
 21
268.5705800824981
 31
0.0
  0
ARC
  5
C9D
330
1F
100
AcDbEntity
  8
0
  6
HIDDEN
 48
10.0
100
AcDbCircle
 10
267.0081675232117
 20
269.4455800824985
 30
0.0
 40
0.875
100
AcDbArc
 50
0.0
 51
90.0
  0
LINE
  5
C9E
330
1F
100
AcDbEntity
  8
0
  6
HIDDEN
 48
10.0
100
AcDbLine
 10
264.0931675232118
 20
270.3205800824981
 30
0.0
 11
267.0081675232117
 21
270.3205800824981
 31
0.0
  0
LINE
  5
C9F
330
1F
100
AcDbEntity
  8
0
  6
HIDDEN
 48
10.0
100
AcDbLine
 10
267.0081675232117
 20
268.5705800824981
 30
0.0
 11
266.2381675232127
 21
268.5705800824981
 31
0.0
  0
LINE
  5
CA0
330
1F
100
AcDbEntity
  8
0
100
AcDbLine
 10
267.8940859453907
 20
267.4705800824981
 30
0.0
 11
268.1485642948006
 21
267.4705800824981
 31
0.0
  0
LINE
  5
CA1
330
1F
100
AcDbEntity
  8
0
100
AcDbLine
 10
267.8940859453907
 20
268.0705800824981
 30
0.0
 11
268.1485642948006
 21
268.0705800824981
 31
0.0
  0
ARC
  5
CA2
330
1F
100
AcDbEntity
  8
0
  6
HIDDEN
 48
10.0
100
AcDbCircle
 10
265.7381675232118
 20
267.9455800824985
 30
0.0
 40
0.25
100
AcDbArc
 50
270.0
 51
0.0
  0
LINE
  5
CA3
330
1F
100
AcDbEntity
  8
0
  6
HIDDEN
 48
10.0
100
AcDbLine
 10
265.7381675232118
 20
267.6955800824981
 30
0.0
 11
264.0931675232118
 21
267.6955800824981
 31
0.0
  0
LINE
  5
CA4
330
1F
100
AcDbEntity
  8
0
  6
HIDDEN
 48
10.0
100
AcDbLine
 10
265.9881675232118
 20
268.3205800824985
 30
0.0
 11
265.9881675232118
 21
267.9455800824985
 31
0.0
  0
LINE
  5
CA5
330
1F
100
AcDbEntity
  8
0
  6
HIDDEN
 48
10.0
100
AcDbLine
 10
268.1485642948006
 20
266.8205800824981
 30
0.0
 11
264.0931675232118
 21
266.8205800824981
 31
0.0
  0
ARC
  5
CA6
330
1F
100
AcDbEntity
  8
0
  6
HIDDEN
 48
10.0
100
AcDbCircle
 10
266.2381675232127
 20
268.3205800824985
 30
0.0
 40
0.25
100
AcDbArc
 50
90.0
 51
180.0
  0
ARC
  5
CA7
330
1F
100
AcDbEntity
  8
0
  6
HIDDEN
 48
10.0
100
AcDbCircle
 10
267.0081675232117
 20
269.4455800824985
 30
0.0
 40
0.875
100
AcDbArc
 50
270.0
 51
0.0000000000065138
  0
LINE
  5
CA8
330
1F
100
AcDbEntity
  8
0
  6
CENTER
 62
     5
100
AcDbLine
 10
168.4743420205435
 20
308.0790114683177
 30
0.0
 11
168.4743420205435
 21
293.0790114683178
 31
0.0
  0
LINE
  5
CA9
330
1F
100
AcDbEntity
  8
0
  6
CENTER
 62
     5
100
AcDbLine
 10
168.4743420205426
 20
137.5790054683182
 30
0.0
 11
168.4743420205426
 21
122.5790054683182
 31
0.0
  0
LINE
  5
CAA
330
1F
100
AcDbEntity
  8
0
  6
CENTER
 62
     5
100
AcDbLine
 10
175.9743420205426
 20
130.0790054683182
 30
0.0
 11
160.9743420205426
 21
130.0790054683182
 31
0.0
  0
LINE
  5
CAB
330
1F
100
AcDbEntity
  8
0
  6
CENTER
 62
     5
100
AcDbLine
 10
175.9743420205435
 20
300.5790114683178
 30
0.0
 11
160.9743420205435
 21
300.5790114683178
 31
0.0
  0
ENDSEC
  0
SECTION
  2
OBJECTS
  0
DICTIONARY
  5
C
330
0
100
AcDbDictionary
  3
ACAD_GROUP
350
D
  3
ACAD_LAYOUT
350
1A
  3
ACAD_MLINESTYLE
350
17
  3
ACAD_PLOTSETTINGS
350
19
  3
ACAD_PLOTSTYLENAME
350
E
  3
ACDBHEADERROUNDTRIPXREC
350
D80
  3
ACDBVARIABLEDICTIONARY
350
D4F
  0
DICTIONARY
  5
90
330
2
100
AcDbDictionary
280
     1
  3
ACAD_LAYERSTATES
360
91
  0
DICTIONARY
  5
D75
330
1F
100
AcDbDictionary
280
     1
  3
ACAD_LAYOUTSELFREF
360
DA1
  0
DICTIONARY
  5
D73
330
1B
100
AcDbDictionary
280
     1
  3
ACAD_LAYOUTSELFREF
360
DA0
  0
DICTIONARY
  5
D
102
{ACAD_REACTORS
330
C
102
}
330
C
100
AcDbDictionary
  0
DICTIONARY
  5
1A
102
{ACAD_REACTORS
330
C
102
}
330
C
100
AcDbDictionary
  0
DICTIONARY
  5
17
102
{ACAD_REACTORS
330
C
102
}
330
C
100
AcDbDictionary
  3
STANDARD
350
18
  0
DICTIONARY
  5
19
102
{ACAD_REACTORS
330
C
102
}
330
C
100
AcDbDictionary
  0
ACDBDICTIONARYWDFLT
  5
E
102
{ACAD_REACTORS
330
C
102
}
330
C
100
AcDbDictionary
281
     1
  3
Normal
350
F
100
AcDbDictionaryWithDefault
340
F
  0
DICTIONARY
  5
D80
102
{ACAD_REACTORS
330
C
102
}
330
C
100
AcDbDictionary
  3
CEPSNTYPE
350
D8A
  3
FINGERPRINTGUID
350
D8B
  3
HYPERLINKBASE
350
D83
  3
INSUNITS
350
D89
  3
LAYOUTDICT
350
D85
  3
LWETCUNION
350
D88
  3
PLOTSETDICT
350
D86
  3
PLOTSTYLNAMDICT
350
D87
  3
PSVPSCALE
350
D8D
  3
PUCSBASE
350
D90
  3
PUCSORGBACK
350
D96
  3
PUCSORGBOTTOM
350
D92
  3
PUCSORGFRONT
350
D95
  3
PUCSORGLEFT
350
D93
  3
PUCSORGRIGHT
350
D94
  3
PUCSORGTOP
350
D91
  3
PUCSORTHOREF
350
D8E
  3
PUCSORTHOVIEW
350
D8F
  3
STYLESHEET
350
D84
  3
TSTACKALIGN
350
D81
  3
TSTACKSIZE
350
D82
  3
UCSBASE
350
D99
  3
UCSORGBACK
350
D9F
  3
UCSORGBOTTOM
350
D9B
  3
UCSORGFRONT
350
D9E
  3
UCSORGLEFT
350
D9C
  3
UCSORGRIGHT
350
D9D
  3
UCSORGTOP
350
D9A
  3
UCSORTHOREF
350
D97
  3
UCSORTHOVIEW
350
D98
  3
VERSIONGUID
350
D8C
  0
DICTIONARY
  5
D4F
102
{ACAD_REACTORS
330
C
102
}
330
C
100
AcDbDictionary
  3
DIMASSOC
350
D51
  3
HIDETEXT
350
D50
  0
DICTIONARY
  5
91
102
{ACAD_REACTORS
330
90
102
}
330
90
100
AcDbDictionary
  0
XRECORD
  5
DA1
102
{ACAD_REACTORS
330
D75
102
}
330
D75
100
AcDbXrecord
340
1F
  0
XRECORD
  5
DA0
102
{ACAD_REACTORS
330
D73
102
}
330
D73
100
AcDbXrecord
340
1B
  0
MLINESTYLE
  5
18
102
{ACAD_REACTORS
330
17
102
}
330
17
100
AcDbMlineStyle
  2
STANDARD
 70
     0
  3

 62
   256
 51
90.0
 52
90.0
 71
     2
 49
0.5
 62
   256
  6
BYLAYER
 49
-0.5
 62
   256
  6
BYLAYER
  0
ACDBPLACEHOLDER
  5
F
102
{ACAD_REACTORS
330
E
102
}
330
E
100
AcDbPlaceHolder
280
     0
  0
XRECORD
  5
D8A
102
{ACAD_REACTORS
330
D80
102
}
330
D80
100
AcDbXrecord
 90
        0
  0
XRECORD
  5
D8B
102
{ACAD_REACTORS
330
D80
102
}
330
D80
100
AcDbXrecord
  1
{48D686AD-7241-4CAF-8385-E23EF022F80E}
  0
XRECORD
  5
D83
102
{ACAD_REACTORS
330
D80
102
}
330
D80
100
AcDbXrecord
  1

  0
XRECORD
  5
D89
102
{ACAD_REACTORS
330
D80
102
}
330
D80
100
AcDbXrecord
 90
        4
  0
XRECORD
  5
D85
102
{ACAD_REACTORS
330
D80
102
}
330
D80
100
AcDbXrecord
340
1A
  0
XRECORD
  5
D88
102
{ACAD_REACTORS
330
D80
102
}
330
D80
100
AcDbXrecord
 90
    10781
  0
XRECORD
  5
D86
102
{ACAD_REACTORS
330
D80
102
}
330
D80
100
AcDbXrecord
340
19
  0
XRECORD
  5
D87
102
{ACAD_REACTORS
330
D80
102
}
330
D80
100
AcDbXrecord
340
E
  0
XRECORD
  5
D8D
102
{ACAD_REACTORS
330
D80
102
}
330
D80
100
AcDbXrecord
 40
0.0
  0
XRECORD
  5
D90
102
{ACAD_REACTORS
330
D80
102
}
330
D80
100
AcDbXrecord
340
0
  0
XRECORD
  5
D96
102
{ACAD_REACTORS
330
D80
102
}
330
D80
100
AcDbXrecord
 10
0.0
 20
0.0
 30
0.0
  0
XRECORD
  5
D92
102
{ACAD_REACTORS
330
D80
102
}
330
D80
100
AcDbXrecord
 10
0.0
 20
0.0
 30
0.0
  0
XRECORD
  5
D95
102
{ACAD_REACTORS
330
D80
102
}
330
D80
100
AcDbXrecord
 10
0.0
 20
0.0
 30
0.0
  0
XRECORD
  5
D93
102
{ACAD_REACTORS
330
D80
102
}
330
D80
100
AcDbXrecord
 10
0.0
 20
0.0
 30
0.0
  0
XRECORD
  5
D94
102
{ACAD_REACTORS
330
D80
102
}
330
D80
100
AcDbXrecord
 10
0.0
 20
0.0
 30
0.0
  0
XRECORD
  5
D91
102
{ACAD_REACTORS
330
D80
102
}
330
D80
100
AcDbXrecord
 10
0.0
 20
0.0
 30
0.0
  0
XRECORD
  5
D8E
102
{ACAD_REACTORS
330
D80
102
}
330
D80
100
AcDbXrecord
340
0
  0
XRECORD
  5
D8F
102
{ACAD_REACTORS
330
D80
102
}
330
D80
100
AcDbXrecord
 70
     0
  0
XRECORD
  5
D84
102
{ACAD_REACTORS
330
D80
102
}
330
D80
100
AcDbXrecord
  1

  0
XRECORD
  5
D81
102
{ACAD_REACTORS
330
D80
102
}
330
D80
100
AcDbXrecord
 90
        1
  0
XRECORD
  5
D82
102
{ACAD_REACTORS
330
D80
102
}
330
D80
100
AcDbXrecord
 90
       70
  0
XRECORD
  5
D99
102
{ACAD_REACTORS
330
D80
102
}
330
D80
100
AcDbXrecord
340
0
  0
XRECORD
  5
D9F
102
{ACAD_REACTORS
330
D80
102
}
330
D80
100
AcDbXrecord
 10
0.0
 20
0.0
 30
0.0
  0
XRECORD
  5
D9B
102
{ACAD_REACTORS
330
D80
102
}
330
D80
100
AcDbXrecord
 10
0.0
 20
0.0
 30
0.0
  0
XRECORD
  5
D9E
102
{ACAD_REACTORS
330
D80
102
}
330
D80
100
AcDbXrecord
 10
0.0
 20
0.0
 30
0.0
  0
XRECORD
  5
D9C
102
{ACAD_REACTORS
330
D80
102
}
330
D80
100
AcDbXrecord
 10
0.0
 20
0.0
 30
0.0
  0
XRECORD
  5
D9D
102
{ACAD_REACTORS
330
D80
102
}
330
D80
100
AcDbXrecord
 10
0.0
 20
0.0
 30
0.0
  0
XRECORD
  5
D9A
102
{ACAD_REACTORS
330
D80
102
}
330
D80
100
AcDbXrecord
 10
0.0
 20
0.0
 30
0.0
  0
XRECORD
  5
D97
102
{ACAD_REACTORS
330
D80
102
}
330
D80
100
AcDbXrecord
340
0
  0
XRECORD
  5
D98
102
{ACAD_REACTORS
330
D80
102
}
330
D80
100
AcDbXrecord
 70
     0
  0
XRECORD
  5
D8C
102
{ACAD_REACTORS
330
D80
102
}
330
D80
100
AcDbXrecord
  1
{71A45C98-4D4C-4618-8323-CE64679883AA}
  0
DICTIONARYVAR
  5
D51
102
{ACAD_REACTORS
330
D4F
102
}
330
D4F
100
DictionaryVariables
280
     0
  1
2
  0
DICTIONARYVAR
  5
D50
102
{ACAD_REACTORS
330
D4F
102
}
330
D4F
100
DictionaryVariables
280
     0
  1
1
  0
ENDSEC
  0
EOF
