  0
SECTION
  2
HEADER
  9
$ACADVER
  1
AC1014
  9
$ACADMAINTVER
 70
     9
  9
$DWGCODEPAGE
  3
ANSI_932
  9
$INSBASE
 10
0.0
 20
0.0
 30
0.0
  9
$EXTMIN
 10
-0.0128164049386896
 20
-0.0090630292066862
 30
-0.0015258207003583
  9
$EXTMAX
 10
336.9561776390255
 20
438.8336342794746
 30
0.0000000349246037
  9
$LIMMIN
 10
0.0
 20
0.0
  9
$LIMMAX
 10
420.0
 20
297.0
  9
$ORTHOMODE
 70
     0
  9
$REGENMODE
 70
     1
  9
$FILLMODE
 70
     1
  9
$QTEXTMODE
 70
     0
  9
$MIRRTEXT
 70
     1
  9
$DRAGMODE
 70
     2
  9
$LTSCALE
 40
1.0
  9
$OSMODE
 70
   567
  9
$ATTMODE
 70
     1
  9
$TEXTSIZE
 40
2.5
  9
$TRACEWID
 40
1.0
  9
$TEXTSTYLE
  7
STANDARD
  9
$CLAYER
  8
0
  9
$CELTYPE
  6
BYLAYER
  9
$CECOLOR
 62
   256
  9
$CELTSCALE
 40
1.0
  9
$DELOBJ
 70
     1
  9
$DISPSILH
 70
     0
  9
$DIMSCALE
 40
1.0
  9
$DIMASZ
 40
2.5
  9
$DIMEXO
 40
0.625
  9
$DIMDLI
 40
3.75
  9
$DIMRND
 40
0.0
  9
$DIMDLE
 40
0.0
  9
$DIMEXE
 40
1.25
  9
$DIMTP
 40
0.0
  9
$DIMTM
 40
0.0
  9
$DIMTXT
 40
2.5
  9
$DIMCEN
 40
2.5
  9
$DIMTSZ
 40
0.0
  9
$DIMTOL
 70
     0
  9
$DIMLIM
 70
     0
  9
$DIMTIH
 70
     0
  9
$DIMTOH
 70
     0
  9
$DIMSE1
 70
     0
  9
$DIMSE2
 70
     0
  9
$DIMTAD
 70
     1
  9
$DIMZIN
 70
     8
  9
$DIMBLK
  1

  9
$DIMASO
 70
     1
  9
$DIMSHO
 70
     1
  9
$DIMPOST
  1

  9
$DIMAPOST
  1

  9
$DIMALT
 70
     0
  9
$DIMALTD
 70
     3
  9
$DIMALTF
 40
0.03937007874016
  9
$DIMLFAC
 40
1.0
  9
$DIMTOFL
 70
     1
  9
$DIMTVP
 40
0.0
  9
$DIMTIX
 70
     0
  9
$DIMSOXD
 70
     0
  9
$DIMSAH
 70
     0
  9
$DIMBLK1
  1

  9
$DIMBLK2
  1

  9
$DIMSTYLE
  2
ISO-25
  9
$DIMCLRD
 70
     0
  9
$DIMCLRE
 70
     0
  9
$DIMCLRT
 70
     0
  9
$DIMTFAC
 40
1.0
  9
$DIMGAP
 40
0.625
  9
$DIMJUST
 70
     0
  9
$DIMSD1
 70
     0
  9
$DIMSD2
 70
     0
  9
$DIMTOLJ
 70
     0
  9
$DIMTZIN
 70
     8
  9
$DIMALTZ
 70
     0
  9
$DIMALTTZ
 70
     0
  9
$DIMFIT
 70
     3
  9
$DIMUPT
 70
     0
  9
$DIMUNIT
 70
     2
  9
$DIMDEC
 70
     2
  9
$DIMTDEC
 70
     2
  9
$DIMALTU
 70
     2
  9
$DIMALTTD
 70
     3
  9
$DIMTXSTY
  7
STANDARD
  9
$DIMAUNIT
 70
     0
  9
$LUNITS
 70
     2
  9
$LUPREC
 70
     4
  9
$SKETCHINC
 40
1.0
  9
$FILLETRAD
 40
10.0
  9
$AUNITS
 70
     0
  9
$AUPREC
 70
     0
  9
$MENU
  1
.
  9
$ELEVATION
 40
0.0
  9
$PELEVATION
 40
0.0
  9
$THICKNESS
 40
0.0
  9
$LIMCHECK
 70
     0
  9
$BLIPMODE
 70
     0
  9
$CHAMFERA
 40
10.0
  9
$CHAMFERB
 40
10.0
  9
$CHAMFERC
 40
20.0
  9
$CHAMFERD
 40
0.0
  9
$SKPOLY
 70
     0
  9
$TDCREATE
 40
2455162.813396736
  9
$TDUPDATE
 40
2455162.814506285
  9
$TDINDWG
 40
0.0011099190
  9
$TDUSRTIMER
 40
0.0011099190
  9
$USRTIMER
 70
     1
  9
$ANGBASE
 50
0.0
  9
$ANGDIR
 70
     0
  9
$PDMODE
 70
     0
  9
$PDSIZE
 40
0.0
  9
$PLINEWID
 40
0.0
  9
$COORDS
 70
     0
  9
$SPLFRAME
 70
     0
  9
$SPLINETYPE
 70
     6
  9
$SPLINESEGS
 70
     8
  9
$ATTDIA
 70
     0
  9
$ATTREQ
 70
     1
  9
$HANDLING
 70
 22529
  9
$HANDSEED
  5
C15
  9
$SURFTAB1
 70
     6
  9
$SURFTAB2
 70
     6
  9
$SURFTYPE
 70
     6
  9
$SURFU
 70
     6
  9
$SURFV
 70
     6
  9
$UCSNAME
  2

  9
$UCSORG
 10
0.0
 20
0.0
 30
0.0
  9
$UCSXDIR
 10
1.0
 20
0.0
 30
0.0
  9
$UCSYDIR
 10
0.0
 20
1.0
 30
0.0
  9
$PUCSNAME
  2

  9
$PUCSORG
 10
0.0
 20
0.0
 30
0.0
  9
$PUCSXDIR
 10
1.0
 20
0.0
 30
0.0
  9
$PUCSYDIR
 10
0.0
 20
1.0
 30
0.0
  9
$USERI1
 70
     0
  9
$USERI2
 70
     0
  9
$USERI3
 70
     0
  9
$USERI4
 70
     0
  9
$USERI5
 70
     0
  9
$USERR1
 40
0.0
  9
$USERR2
 40
0.0
  9
$USERR3
 40
0.0
  9
$USERR4
 40
0.0
  9
$USERR5
 40
0.0
  9
$WORLDVIEW
 70
     1
  9
$SHADEDGE
 70
     3
  9
$SHADEDIF
 70
    70
  9
$TILEMODE
 70
     1
  9
$MAXACTVP
 70
    64
  9
$PINSBASE
 10
0.0
 20
0.0
 30
0.0
  9
$PLIMCHECK
 70
     0
  9
$PEXTMIN
 10
1.000000000000000E+20
 20
1.000000000000000E+20
 30
1.000000000000000E+20
  9
$PEXTMAX
 10
-1.000000000000000E+20
 20
-1.000000000000000E+20
 30
-1.000000000000000E+20
  9
$PLIMMIN
 10
0.0
 20
0.0
  9
$PLIMMAX
 10
420.0
 20
297.0
  9
$UNITMODE
 70
     0
  9
$VISRETAIN
 70
     1
  9
$PLINEGEN
 70
     0
  9
$PSLTSCALE
 70
     1
  9
$TREEDEPTH
 70
  3020
  9
$PICKSTYLE
 70
     1
  9
$CMLSTYLE
  2
STANDARD
  9
$CMLJUST
 70
     0
  9
$CMLSCALE
 40
20.0
  9
$PROXYGRAPHICS
 70
     1
  9
$MEASUREMENT
 70
     1
  0
ENDSEC
  0
SECTION
  2
CLASSES
  0
CLASS
  1
ACDBDICTIONARYWDFLT
  2
AcDbDictionaryWithDefault
  3
AutoCAD 2000
 90
        0
280
     0
281
     0
  0
CLASS
  1
ACDBPLACEHOLDER
  2
AcDbPlaceHolder
  3
AutoCAD 2000
 90
        0
280
     0
281
     0
  0
CLASS
  1
LAYOUT
  2
AcDbLayout
  3
AutoCAD 2000
 90
        0
280
     0
281
     0
  0
CLASS
  1
DICTIONARYVAR
  2
AcDbDictionaryVar
  3
AutoCAD 2000
 90
        0
280
     0
281
     0
  0
CLASS
  1
LONG_TRANSACTION
  2
AcDbLongTransaction
  3
AutoCAD 2000
 90
        0
280
     0
281
     0
  0
CLASS
  1
LWPOLYLINE
  2
AcDbPolyline
  3
AutoCAD 2000
 90
        0
280
     0
281
     1
  0
CLASS
  1
HATCH
  2
AcDbHatch
  3
AutoCAD 2000
 90
        0
280
     0
281
     1
  0
CLASS
  1
XRECORD
  2
AcDbXrecord
  3
AutoCAD 2000
 90
        0
280
     0
281
     0
  0
ENDSEC
  0
SECTION
  2
TABLES
  0
TABLE
  2
VPORT
  5
8
330
0
100
AcDbSymbolTable
 70
     3
  0
VPORT
  5
BEE
330
8
100
AcDbSymbolTableRecord
100
AcDbViewportTableRecord
  2
*ACTIVE
 70
     0
 10
0.0
 20
0.0
 11
1.0
 21
1.0
 12
168.4716806170434
 22
219.4122856251339
 13
0.0
 23
0.0
 14
10.0
 24
10.0
 15
10.0
 25
10.0
 16
0.0
 26
0.0
 36
1.0
 17
0.0
 27
0.0
 37
0.0
 40
442.4845454191268
 41
1.668975069252077
 42
50.0
 43
0.0
 44
0.0
 50
0.0
 51
0.0
 71
     0
 72
   100
 73
     1
 74
     3
 75
     0
 76
     0
 77
     0
 78
     0
  0
ENDTAB
  0
TABLE
  2
LTYPE
  5
5
330
0
100
AcDbSymbolTable
 70
     2
  0
LTYPE
  5
14
330
5
100
AcDbSymbolTableRecord
100
AcDbLinetypeTableRecord
  2
BYBLOCK
 70
     0
  3

 72
    65
 73
     0
 40
0.0
  0
LTYPE
  5
15
330
5
100
AcDbSymbolTableRecord
100
AcDbLinetypeTableRecord
  2
BYLAYER
 70
     0
  3

 72
    65
 73
     0
 40
0.0
  0
LTYPE
  5
16
330
5
100
AcDbSymbolTableRecord
100
AcDbLinetypeTableRecord
  2
CONTINUOUS
 70
     0
  3
Solid line
 72
    65
 73
     0
 40
0.0
  0
LTYPE
  5
82
330
5
100
AcDbSymbolTableRecord
100
AcDbLinetypeTableRecord
  2
CENTER
 70
     0
  3
____ _ ____ _ ____ _ ____ _ ____ _ ____ _ ____
 72
    65
 73
     4
 40
2.0
 49
1.25
 74
     0
 49
-0.25
 74
     0
 49
0.25
 74
     0
 49
-0.25
 74
     0
  0
ENDTAB
  0
TABLE
  2
LAYER
  5
2
102
{ACAD_XDICTIONARY
360
8F
102
}
330
0
100
AcDbSymbolTable
 70
     6
  0
LAYER
  5
10
330
2
100
AcDbSymbolTableRecord
100
AcDbLayerTableRecord
  2
0
 70
     0
 62
     7
  6
CONTINUOUS
  0
LAYER
  5
83
330
2
100
AcDbSymbolTableRecord
100
AcDbLayerTableRecord
  2
外枠
 70
     0
 62
     7
  6
CONTINUOUS
  0
LAYER
  5
85
330
2
100
AcDbSymbolTableRecord
100
AcDbLayerTableRecord
  2
DEFPOINTS
 70
     0
 62
     7
  6
CONTINUOUS
  0
LAYER
  5
86
330
2
100
AcDbSymbolTableRecord
100
AcDbLayerTableRecord
  2
CLASS1
 70
     0
 62
     7
  6
CONTINUOUS
  0
LAYER
  5
87
330
2
100
AcDbSymbolTableRecord
100
AcDbLayerTableRecord
  2
WORKLAYER
 70
     0
 62
     7
  6
CONTINUOUS
  0
ENDTAB
  0
TABLE
  2
STYLE
  5
3
330
0
100
AcDbSymbolTable
 70
     2
  0
STYLE
  5
11
330
3
100
AcDbSymbolTableRecord
100
AcDbTextStyleTableRecord
  2
STANDARD
 70
     0
 40
0.0
 41
1.0
 50
0.0
 71
     0
 42
2.5
  3
txt
  4

  0
ENDTAB
  0
TABLE
  2
VIEW
  5
6
330
0
100
AcDbSymbolTable
 70
     0
  0
ENDTAB
  0
TABLE
  2
UCS
  5
7
330
0
100
AcDbSymbolTable
 70
     0
  0
ENDTAB
  0
TABLE
  2
APPID
  5
9
330
0
100
AcDbSymbolTable
 70
     1
  0
APPID
  5
12
330
9
100
AcDbSymbolTableRecord
100
AcDbRegAppTableRecord
  2
ACAD
 70
     0
  0
ENDTAB
  0
TABLE
  2
DIMSTYLE
  5
A
330
0
100
AcDbSymbolTable
 70
     7
  0
DIMSTYLE
105
27
330
A
100
AcDbSymbolTableRecord
100
AcDbDimStyleTableRecord
  2
ISO-25
 70
     0
  3

  4

  5

  6

  7

 40
1.0
 41
2.5
 42
0.625
 43
3.75
 44
1.25
 45
0.0
 46
0.0
 47
0.0
 48
0.0
140
2.5
141
2.5
142
0.0
143
0.03937007874016
144
1.0
145
0.0
146
1.0
147
0.625
 71
     0
 72
     0
 73
     0
 74
     0
 75
     0
 76
     0
 77
     1
 78
     8
170
     0
171
     3
172
     1
173
     0
174
     0
175
     0
176
     0
177
     0
178
     0
270
     2
271
     2
272
     2
273
     2
274
     3
340
11
275
     0
280
     0
281
     0
282
     0
283
     0
284
     8
285
     0
286
     0
287
     3
288
     0
  0
ENDTAB
  0
TABLE
  2
BLOCK_RECORD
  5
1
330
0
100
AcDbSymbolTable
 70
    16
  0
BLOCK_RECORD
  5
1F
102
{ACAD_XDICTIONARY
360
C11
102
}
330
1
100
AcDbSymbolTableRecord
100
AcDbBlockTableRecord
  2
*MODEL_SPACE
  0
BLOCK_RECORD
  5
1B
102
{ACAD_XDICTIONARY
360
C0F
102
}
330
1
100
AcDbSymbolTableRecord
100
AcDbBlockTableRecord
  2
*PAPER_SPACE
  0
BLOCK_RECORD
  5
31
330
1
100
AcDbSymbolTableRecord
100
AcDbBlockTableRecord
  2
A$C51C20FFB
  0
ENDTAB
  0
ENDSEC
  0
SECTION
  2
BLOCKS
  0
BLOCK
  5
20
330
1F
100
AcDbEntity
  8
0
100
AcDbBlockBegin
  2
*MODEL_SPACE
 70
     0
 10
0.0
 20
0.0
 30
0.0
  3
*MODEL_SPACE
  1

  0
ENDBLK
  5
21
330
1F
100
AcDbEntity
  8
0
100
AcDbBlockEnd
  0
BLOCK
  5
1C
330
1B
100
AcDbEntity
 67
     1
  8
0
100
AcDbBlockBegin
  2
*PAPER_SPACE
 70
     0
 10
0.0
 20
0.0
 30
0.0
  3
*PAPER_SPACE
  1

  0
ENDBLK
  5
1D
330
1B
100
AcDbEntity
 67
     1
  8
0
100
AcDbBlockEnd
  0
BLOCK
  5
36
330
31
100
AcDbEntity
  8
0
100
AcDbBlockBegin
  2
A$C51C20FFB
 70
     0
 10
0.0
 20
0.0
 30
0.0
  3
A$C51C20FFB
  1

  0
LINE
  5
32
330
31
100
AcDbEntity
  8
0
100
AcDbLine
 10
31.0
 20
2.499998662678081
 30
0.0
 11
0.0
 21
2.499998662678081
 31
0.0
  0
LINE
  5
33
330
31
100
AcDbEntity
  8
0
100
AcDbLine
 10
31.0
 20
-0.000001337321919
 30
0.0
 11
31.0
 21
2.499998662678081
 31
0.0
  0
LINE
  5
34
330
31
100
AcDbEntity
  8
0
100
AcDbLine
 10
0.0
 20
-0.000001337321919
 30
0.0
 11
31.0
 21
-0.000001337321919
 31
0.0
  0
LINE
  5
35
330
31
100
AcDbEntity
  8
0
100
AcDbLine
 10
0.0
 20
2.499998662678081
 30
0.0
 11
0.0
 21
-0.000001337321919
 31
0.0
  0
ENDBLK
  5
37
330
31
100
AcDbEntity
  8
0
100
AcDbBlockEnd
  0
ENDSEC
  0
SECTION
  2
ENTITIES
  0
LINE
  5
600
330
1F
100
AcDbEntity
  8
0
100
AcDbLine
 10
152.9741329314501
 20
295.82926998939
 30
0.0
 11
152.9741329314501
 21
303.8290109893901
 31
0.0
  0
LINE
  5
601
330
1F
100
AcDbEntity
  8
0
100
AcDbLine
 10
183.9745509314502
 20
294.88813798939
 30
0.0
 11
183.9745509314502
 21
303.8290109893901
 31
0.0
  0
LINE
  5
602
330
1F
100
AcDbEntity
  8
0
  6
CENTER
 62
     5
100
AcDbLine
 10
168.4743419314502
 20
308.0790109893901
 30
0.0
 11
168.4743419314502
 21
293.0790109893901
 31
0.0
  0
LINE
  5
606
330
1F
100
AcDbEntity
  8
CLASS1
  6
CONTINUOUS
 62
     0
100
AcDbLine
 10
163.9741329314501
 20
35.10000021161113
 30
0.0
 11
163.9741329314501
 21
33.10000021161113
 31
0.0
  0
LINE
  5
607
330
1F
100
AcDbEntity
  8
CLASS1
  6
CONTINUOUS
 62
     0
100
AcDbLine
 10
162.4741329314501
 20
35.10000021161113
 30
0.0
 11
162.4741329314501
 21
33.10000021161113
 31
0.0
  0
LINE
  5
608
330
1F
100
AcDbEntity
  8
CLASS1
  6
CONTINUOUS
 62
     0
100
AcDbLine
 10
175.4741329314501
 20
35.90000021161086
 30
0.0
 11
175.4741329314501
 21
25.90000021161086
 31
0.0
  0
LINE
  5
609
330
1F
100
AcDbEntity
  8
CLASS1
  6
CONTINUOUS
 62
     0
100
AcDbLine
 10
165.4741329314501
 20
25.90000021161086
 30
0.0
 11
165.4741329314501
 21
35.90000021161086
 31
0.0
  0
LINE
  5
60A
330
1F
100
AcDbEntity
  8
CLASS1
  6
CONTINUOUS
 62
     0
100
AcDbLine
 10
166.9741329314501
 20
27.90000021161086
 30
0.0
 11
166.9741329314501
 21
33.90000021161085
 31
0.0
  0
LINE
  5
60B
330
1F
100
AcDbEntity
  8
CLASS1
  6
CONTINUOUS
 62
     0
100
AcDbLine
 10
173.9741329314501
 20
33.90000021161085
 30
0.0
 11
173.9741329314501
 21
27.90000021161086
 31
0.0
  0
LINE
  5
60C
330
1F
100
AcDbEntity
  8
CLASS1
  6
CONTINUOUS
 62
     0
100
AcDbLine
 10
185.0590079314502
 20
61.96012621161094
 30
0.0
 11
185.9745339314499
 21
2.515399211610883
 31
0.0
  0
LINE
  5
60D
330
1F
100
AcDbEntity
  8
CLASS1
  6
CONTINUOUS
 62
     0
100
AcDbLine
 10
151.88925693145
 20
61.96012621161094
 30
0.0
 11
150.9737319314499
 21
2.515399211610883
 31
0.0
  0
LINE
  5
60E
330
1F
100
AcDbEntity
  8
CLASS1
  6
CONTINUOUS
 62
     0
100
AcDbLine
 10
178.5605639314501
 20
61.79658521161105
 30
0.0
 11
179.4738079314502
 21
2.500000211610995
 31
0.0
  0
LINE
  5
60F
330
1F
100
AcDbEntity
  8
CLASS1
  6
CONTINUOUS
 62
     0
100
AcDbLine
 10
158.3877329314501
 20
61.79859521161074
 30
0.0
 11
157.4744579314501
 21
2.500000211610995
 31
0.0
  0
LINE
  5
610
330
1F
100
AcDbEntity
  8
CLASS1
  6
CONTINUOUS
 62
     0
100
AcDbLine
 10
182.9780313532574
 20
68.19007263773165
 30
0.0
 11
183.9743419314499
 21
2.500000211610995
 31
0.0
  0
LINE
  5
611
330
1F
100
AcDbEntity
  8
CLASS1
  6
CONTINUOUS
 62
     0
100
AcDbLine
 10
153.970234509643
 20
68.19007363773152
 30
0.0
 11
152.9739239314501
 21
2.500000211610995
 31
0.0
  0
INSERT
  5
612
330
1F
100
AcDbEntity
  8
0
100
AcDbBlockReference
  2
A$C51C20FFB
 10
152.97434193145
 20
0.0000015489331417
 30
0.0
  0
LINE
  5
613
330
1F
100
AcDbEntity
  8
CLASS1
  6
CONTINUOUS
 62
     0
100
AcDbLine
 10
152.9739239314501
 20
2.500000211610995
 30
0.0
 11
183.9743419314499
 21
2.500000211610995
 31
0.0
  0
LINE
  5
614
330
1F
100
AcDbEntity
  8
CLASS1
  6
CONTINUOUS
 62
     0
100
AcDbLine
 10
183.9743419314499
 20
1.500000211610995
 30
0.0
 11
184.9746529314502
 21
1.500000211610995
 31
0.0
  0
ARC
  5
615
330
1F
100
AcDbEntity
  8
CLASS1
  6
CONTINUOUS
 62
     0
100
AcDbCircle
 10
184.9746529314502
 20
2.500000211611222
 30
0.0
 40
1.0
100
AcDbArc
 50
270.0
 51
0.8823590000053327
  0
LINE
  5
616
330
1F
100
AcDbEntity
  8
CLASS1
  6
CONTINUOUS
 62
     0
100
AcDbLine
 10
183.9743419314499
 20
1.500000211610995
 30
0.0
 11
183.9743419314499
 21
2.500000211610995
 31
0.0
  0
LINE
  5
617
330
1F
100
AcDbEntity
  8
CLASS1
  6
CONTINUOUS
 62
     0
100
AcDbLine
 10
173.4741329314501
 20
27.40000021161085
 30
0.0
 11
167.4741329314501
 21
27.40000021161085
 31
0.0
  0
LINE
  5
618
330
1F
100
AcDbEntity
  8
CLASS1
  6
CONTINUOUS
 62
     0
100
AcDbLine
 10
175.4741329314501
 20
25.90000021161086
 30
0.0
 11
165.4741329314501
 21
25.90000021161086
 31
0.0
  0
LINE
  5
619
330
1F
100
AcDbEntity
  8
CLASS1
  6
CONTINUOUS
 62
     0
100
AcDbLine
 10
174.4741329314502
 20
23.10000021161113
 30
0.0
 11
162.4741329314501
 21
23.10000021161113
 31
0.0
  0
LINE
  5
61A
330
1F
100
AcDbEntity
  8
CLASS1
  6
CONTINUOUS
 62
     0
100
AcDbLine
 10
162.4741329314501
 20
21.10000021161113
 30
0.0
 11
174.4741329314502
 21
21.10000021161113
 31
0.0
  0
LINE
  5
61B
330
1F
100
AcDbEntity
  8
CLASS1
  6
CONTINUOUS
 62
     0
100
AcDbLine
 10
174.4741329314502
 20
19.10000021161113
 30
0.0
 11
162.4741329314501
 21
19.10000021161113
 31
0.0
  0
LINE
  5
61C
330
1F
100
AcDbEntity
  8
CLASS1
  6
CONTINUOUS
 62
     0
100
AcDbLine
 10
162.4741329314501
 20
17.10000021161113
 30
0.0
 11
174.4741329314502
 21
17.10000021161113
 31
0.0
  0
LINE
  5
61D
330
1F
100
AcDbEntity
  8
CLASS1
  6
CONTINUOUS
 62
     0
100
AcDbLine
 10
174.4741329314502
 20
11.10000021161113
 30
0.0
 11
162.4741329314501
 21
11.10000021161113
 31
0.0
  0
LINE
  5
61E
330
1F
100
AcDbEntity
  8
CLASS1
  6
CONTINUOUS
 62
     0
100
AcDbLine
 10
162.4741329314501
 20
13.10000021161113
 30
0.0
 11
174.4741329314502
 21
13.10000021161113
 31
0.0
  0
LINE
  5
61F
330
1F
100
AcDbEntity
  8
CLASS1
  6
CONTINUOUS
 62
     0
100
AcDbLine
 10
174.4741329314502
 20
15.10000021161113
 30
0.0
 11
162.4741329314501
 21
15.10000021161113
 31
0.0
  0
LINE
  5
620
330
1F
100
AcDbEntity
  8
CLASS1
  6
CONTINUOUS
 62
     0
100
AcDbLine
 10
162.4741329314501
 20
9.100000211611131
 30
0.0
 11
174.4741329314502
 21
9.100000211611131
 31
0.0
  0
LINE
  5
621
330
1F
100
AcDbEntity
  8
CLASS1
  6
CONTINUOUS
 62
     0
100
AcDbLine
 10
174.4741329314502
 20
17.10000021161113
 30
0.0
 11
174.4741329314502
 21
19.10000021161113
 31
0.0
  0
LINE
  5
622
330
1F
100
AcDbEntity
  8
CLASS1
  6
CONTINUOUS
 62
     0
100
AcDbLine
 10
174.4741329314502
 20
13.10000021161113
 30
0.0
 11
174.4741329314502
 21
15.10000021161113
 31
0.0
  0
LINE
  5
623
330
1F
100
AcDbEntity
  8
CLASS1
  6
CONTINUOUS
 62
     0
100
AcDbLine
 10
174.4741329314502
 20
9.100000211611131
 30
0.0
 11
174.4741329314502
 21
11.10000021161113
 31
0.0
  0
LINE
  5
624
330
1F
100
AcDbEntity
  8
CLASS1
  6
CONTINUOUS
 62
     0
100
AcDbLine
 10
175.4741329314501
 20
30.15000021161085
 30
0.0
 11
173.9741329314501
 21
30.15000021161085
 31
0.0
  0
LINE
  5
625
330
1F
100
AcDbEntity
  8
CLASS1
  6
CONTINUOUS
 62
     0
100
AcDbLine
 10
175.4741329314501
 20
31.65000021161086
 30
0.0
 11
173.9741329314501
 21
31.65000021161086
 31
0.0
  0
ARC
  5
626
330
1F
100
AcDbEntity
  8
CLASS1
  6
CONTINUOUS
 62
     0
100
AcDbCircle
 10
173.4741329314501
 20
27.90000021161108
 30
0.0
 40
0.5
100
AcDbArc
 50
270.0
 51
0.0
  0
LINE
  5
627
330
1F
100
AcDbEntity
  8
CLASS1
  6
CONTINUOUS
 62
     0
100
AcDbLine
 10
174.4741329314502
 20
21.10000021161113
 30
0.0
 11
174.4741329314502
 21
23.10000021161113
 31
0.0
  0
LINE
  5
628
330
1F
100
AcDbEntity
  8
CLASS1
  6
CONTINUOUS
 62
     0
100
AcDbLine
 10
162.4741329314501
 20
19.10000021161113
 30
0.0
 11
162.4741329314501
 21
17.10000021161113
 31
0.0
  0
LINE
  5
629
330
1F
100
AcDbEntity
  8
CLASS1
  6
CONTINUOUS
 62
     0
100
AcDbLine
 10
162.4741329314501
 20
15.10000021161113
 30
0.0
 11
162.4741329314501
 21
13.10000021161113
 31
0.0
  0
LINE
  5
62A
330
1F
100
AcDbEntity
  8
CLASS1
  6
CONTINUOUS
 62
     0
100
AcDbLine
 10
162.4741329314501
 20
11.10000021161113
 30
0.0
 11
162.4741329314501
 21
9.100000211611131
 31
0.0
  0
LINE
  5
62B
330
1F
100
AcDbEntity
  8
CLASS1
  6
CONTINUOUS
 62
     0
100
AcDbLine
 10
162.4741329314501
 20
33.10000021161113
 30
0.0
 11
163.9741329314501
 21
33.10000021161113
 31
0.0
  0
LINE
  5
62C
330
1F
100
AcDbEntity
  8
CLASS1
  6
CONTINUOUS
 62
     0
100
AcDbLine
 10
162.4741329314501
 20
31.10000021161113
 30
0.0
 11
162.4741329314501
 21
29.10000021161113
 31
0.0
  0
LINE
  5
62D
330
1F
100
AcDbEntity
  8
CLASS1
  6
CONTINUOUS
 62
     0
100
AcDbLine
 10
163.9741329314501
 20
31.10000021161113
 30
0.0
 11
163.9741329314501
 21
29.10000021161113
 31
0.0
  0
LINE
  5
62E
330
1F
100
AcDbEntity
  8
CLASS1
  6
CONTINUOUS
 62
     0
100
AcDbLine
 10
162.4741329314501
 20
29.10000021161113
 30
0.0
 11
163.9741329314501
 21
29.10000021161113
 31
0.0
  0
LINE
  5
62F
330
1F
100
AcDbEntity
  8
CLASS1
  6
CONTINUOUS
 62
     0
100
AcDbLine
 10
163.9741329314501
 20
31.10000021161113
 30
0.0
 11
162.4741329314501
 21
31.10000021161113
 31
0.0
  0
LINE
  5
630
330
1F
100
AcDbEntity
  8
CLASS1
  6
CONTINUOUS
 62
     0
100
AcDbLine
 10
166.9741329314501
 20
30.15000021161085
 30
0.0
 11
165.4741329314501
 21
30.15000021161085
 31
0.0
  0
LINE
  5
631
330
1F
100
AcDbEntity
  8
CLASS1
  6
CONTINUOUS
 62
     0
100
AcDbLine
 10
166.9741329314501
 20
31.65000021161086
 30
0.0
 11
165.4741329314501
 21
31.65000021161086
 31
0.0
  0
ARC
  5
632
330
1F
100
AcDbEntity
  8
CLASS1
  6
CONTINUOUS
 62
     0
100
AcDbCircle
 10
167.4741329314501
 20
27.90000021161108
 30
0.0
 40
0.5
100
AcDbArc
 50
180.0
 51
270.0
  0
LINE
  5
633
330
1F
100
AcDbEntity
  8
CLASS1
  6
CONTINUOUS
 62
     0
100
AcDbLine
 10
162.4741329314501
 20
27.10000021161113
 30
0.0
 11
162.4741329314501
 21
25.10000021161113
 31
0.0
  0
LINE
  5
634
330
1F
100
AcDbEntity
  8
CLASS1
  6
CONTINUOUS
 62
     0
100
AcDbLine
 10
163.9741329314501
 20
27.10000021161113
 30
0.0
 11
163.9741329314501
 21
25.10000021161113
 31
0.0
  0
LINE
  5
635
330
1F
100
AcDbEntity
  8
CLASS1
  6
CONTINUOUS
 62
     0
100
AcDbLine
 10
163.9741329314501
 20
27.10000021161113
 30
0.0
 11
162.4741329314501
 21
27.10000021161113
 31
0.0
  0
LINE
  5
636
330
1F
100
AcDbEntity
  8
CLASS1
  6
CONTINUOUS
 62
     0
100
AcDbLine
 10
162.4741329314501
 20
25.10000021161113
 30
0.0
 11
163.9741329314501
 21
25.10000021161113
 31
0.0
  0
LINE
  5
637
330
1F
100
AcDbEntity
  8
CLASS1
  6
CONTINUOUS
 62
     0
100
AcDbLine
 10
162.4741329314501
 20
23.10000021161113
 30
0.0
 11
162.4741329314501
 21
21.10000021161113
 31
0.0
  0
LINE
  5
638
330
1F
100
AcDbEntity
  8
CLASS1
  6
CONTINUOUS
 62
     0
100
AcDbLine
 10
152.9739239314501
 20
1.500000211610995
 30
0.0
 11
151.97361393145
 21
1.500000211610995
 31
0.0
  0
LINE
  5
639
330
1F
100
AcDbEntity
  8
CLASS1
  6
CONTINUOUS
 62
     0
100
AcDbLine
 10
152.9739239314501
 20
2.500000211610995
 30
0.0
 11
152.9739239314501
 21
1.500000211610995
 31
0.0
  0
ARC
  5
63A
330
1F
100
AcDbEntity
  8
CLASS1
  6
CONTINUOUS
 62
     0
100
AcDbCircle
 10
151.97361393145
 20
2.500000211611222
 30
0.0
 40
1.0
100
AcDbArc
 50
179.1176409999946
 51
270.0
  0
LINE
  5
63B
330
1F
100
AcDbEntity
  8
0
100
AcDbLine
 10
178.8465109314502
 20
295.8954979893901
 30
0.0
 11
179.4740169314502
 21
296.82926998939
 31
0.0
  0
LINE
  5
63C
330
1F
100
AcDbEntity
  8
0
100
AcDbLine
 10
154.9820599314502
 20
295.3179069893904
 30
0.0
 11
181.9666249314502
 21
295.3179069893904
 31
0.0
  0
LINE
  5
63D
330
1F
100
AcDbEntity
  8
0
100
AcDbLine
 10
156.9743419314501
 20
292.82926998939
 30
0.0
 11
179.9743419314502
 21
292.82926998939
 31
0.0
  0
LINE
  5
63E
330
1F
100
AcDbEntity
  8
0
100
AcDbLine
 10
157.0743419314501
 20
292.7331389893902
 30
0.0
 11
179.8743419314502
 21
292.7331389893902
 31
0.0
  0
LINE
  5
63F
330
1F
100
AcDbEntity
  8
0
100
AcDbLine
 10
178.8465109314502
 20
134.7630419893905
 30
0.0
 11
179.4740169314501
 21
133.8292699893902
 31
0.0
  0
LINE
  5
640
330
1F
100
AcDbEntity
  8
0
100
AcDbLine
 10
172.4743419314501
 20
126.8290049893903
 30
0.0
 11
182.4745509314501
 21
126.8290049893903
 31
0.0
  0
LINE
  5
641
330
1F
100
AcDbEntity
  8
0
100
AcDbLine
 10
154.9820599314502
 20
135.3523909893904
 30
0.0
 11
181.9666249314501
 21
135.3523909893904
 31
0.0
  0
LINE
  5
642
330
1F
100
AcDbEntity
  8
0
100
AcDbLine
 10
157.0743419314501
 20
137.9331389893902
 30
0.0
 11
179.8743419314502
 21
137.9331389893902
 31
0.0
  0
LINE
  5
643
330
1F
100
AcDbEntity
  8
0
100
AcDbLine
 10
156.9743419314501
 20
137.8292699893902
 30
0.0
 11
179.9743419314501
 21
137.8292699893902
 31
0.0
  0
LINE
  5
644
330
1F
100
AcDbEntity
  8
0
100
AcDbLine
 10
182.9666249314502
 20
294.3179069893904
 30
0.0
 11
182.9666249314501
 21
136.3523909893904
 31
0.0
  0
LINE
  5
645
330
1F
100
AcDbEntity
  8
0
100
AcDbLine
 10
180.8743419314501
 20
291.7331389893902
 30
0.0
 11
180.8743419314501
 21
138.8331389893903
 31
0.0
  0
LINE
  5
646
330
1F
100
AcDbEntity
  8
0
100
AcDbLine
 10
185.9593409314502
 20
139.8658449893903
 30
0.0
 11
185.9593409314502
 21
290.8049929893905
 31
0.0
  0
LINE
  5
647
330
1F
100
AcDbEntity
  8
0
100
AcDbLine
 10
185.0440529314502
 20
289.4542349893904
 30
0.0
 11
185.0440529314502
 21
141.2043059893901
 31
0.0
  0
LINE
  5
648
330
1F
100
AcDbEntity
  8
0
100
AcDbLine
 10
180.9743419314501
 20
138.8292699893902
 30
0.0
 11
180.9743419314502
 21
291.82926998939
 31
0.0
  0
LINE
  5
649
330
1F
100
AcDbEntity
  8
0
100
AcDbLine
 10
183.9745509314501
 20
128.3290049893903
 30
0.0
 11
183.9745509314501
 21
138.88813798939
 31
0.0
  0
LINE
  5
64A
330
1F
100
AcDbEntity
  8
CLASS1
  6
CONTINUOUS
 62
     0
100
AcDbLine
 10
184.0591259314502
 20
62.94472621161071
 30
0.0
 11
183.0434139314503
 21
62.94472621161071
 31
0.0
  0
ARC
  5
64B
330
1F
100
AcDbEntity
  8
CLASS1
  6
CONTINUOUS
 62
     0
100
AcDbCircle
 10
184.0591259314502
 20
61.94472621161094
 30
0.0
 40
1.0
100
AcDbArc
 50
0.8823590000053327
 51
90.0
  0
ARC
  5
64C
330
1F
100
AcDbEntity
  8
0
100
AcDbCircle
 10
182.4745509314502
 20
128.3290049893903
 30
0.0
 40
1.5
100
AcDbArc
 50
270.0
 51
0.0
  0
ARC
  5
64D
330
1F
100
AcDbEntity
  8
0
100
AcDbCircle
 10
184.0440529314502
 20
141.2043059893901
 30
0.0
 40
1.0
100
AcDbArc
 50
270.0
 51
0.0
  0
LINE
  5
64E
330
1F
100
AcDbEntity
  8
0
100
AcDbLine
 10
184.0440529314502
 20
140.2043059893901
 30
0.0
 11
183.0436249314501
 21
140.2043059893901
 31
0.0
  0
LINE
  5
64F
330
1F
100
AcDbEntity
  8
0
100
AcDbLine
 10
183.9745499314501
 20
134.8292699893902
 30
0.0
 11
183.9745499314501
 21
138.8658449893903
 31
0.0
  0
ARC
  5
650
330
1F
100
AcDbEntity
  8
0
100
AcDbCircle
 10
181.9666249314502
 20
136.3523909893904
 30
0.0
 40
1.0
100
AcDbArc
 50
270.0
 51
0.0
  0
LINE
  5
651
330
1F
100
AcDbEntity
  8
0
100
AcDbLine
 10
183.9745499314501
 20
138.8658449893903
 30
0.0
 11
184.9593409314502
 21
138.8658449893903
 31
0.0
  0
LINE
  5
652
330
1F
100
AcDbEntity
  8
0
100
AcDbLine
 10
183.9745509314501
 20
138.8535469893902
 30
0.0
 11
183.0436249314501
 21
140.2043059893901
 31
0.0
  0
ARC
  5
653
330
1F
100
AcDbEntity
  8
0
100
AcDbCircle
 10
184.9593409314502
 20
139.8658449893903
 30
0.0
 40
1.0
100
AcDbArc
 50
270.0
 51
0.0
  0
ARC
  5
654
330
1F
100
AcDbEntity
  8
0
100
AcDbCircle
 10
182.9745499314502
 20
134.8292699893902
 30
0.0
 40
1.0
100
AcDbArc
 50
270.0
 51
0.0
  0
LINE
  5
655
330
1F
100
AcDbEntity
  8
0
100
AcDbLine
 10
179.4740169314501
 20
133.8292699893902
 30
0.0
 11
182.9745499314501
 21
133.8292699893902
 31
0.0
  0
ARC
  5
656
330
1F
100
AcDbEntity
  8
0
100
AcDbCircle
 10
179.8743419314502
 20
138.9331389893902
 30
0.0
 40
1.0
100
AcDbArc
 50
270.0
 51
0.0
  0
ARC
  5
657
330
1F
100
AcDbEntity
  8
0
100
AcDbCircle
 10
179.9743419314502
 20
138.8292699893902
 30
0.0
 40
1.0
100
AcDbArc
 50
270.0
 51
0.0
  0
ARC
  5
658
330
1F
100
AcDbEntity
  8
0
100
AcDbCircle
 10
181.9666249314503
 20
294.3179069893904
 30
0.0
 40
1.0
100
AcDbArc
 50
0.0
 51
90.0
  0
ARC
  5
659
330
1F
100
AcDbEntity
  8
0
100
AcDbCircle
 10
182.9745499314503
 20
295.82926998939
 30
0.0
 40
1.0
100
AcDbArc
 50
0.0
 51
90.0
  0
LINE
  5
65A
330
1F
100
AcDbEntity
  8
0
100
AcDbLine
 10
184.0440529314502
 20
290.4542349893904
 30
0.0
 11
183.0436249314502
 21
290.4542349893904
 31
0.0
  0
LINE
  5
65B
330
1F
100
AcDbEntity
  8
0
100
AcDbLine
 10
184.0440529314502
 20
290.4542349893904
 30
0.0
 11
183.0436249314502
 21
290.4542349893904
 31
0.0
  0
LINE
  5
65C
330
1F
100
AcDbEntity
  8
0
100
AcDbLine
 10
183.9745509314502
 20
291.8049929893904
 30
0.0
 11
184.9593409314502
 21
291.8049929893904
 31
0.0
  0
ARC
  5
65D
330
1F
100
AcDbEntity
  8
0
100
AcDbCircle
 10
184.9593409314503
 20
290.8049929893905
 30
0.0
 40
1.0
100
AcDbArc
 50
0.0
 51
90.0
  0
ARC
  5
65E
330
1F
100
AcDbEntity
  8
0
100
AcDbCircle
 10
184.0440529314503
 20
289.4542349893904
 30
0.0
 40
1.0
100
AcDbArc
 50
0.0
 51
90.0
  0
ARC
  5
65F
330
1F
100
AcDbEntity
  8
0
100
AcDbCircle
 10
184.0440529314503
 20
289.4542349893904
 30
0.0
 40
1.0
100
AcDbArc
 50
0.0
 51
90.0
  0
LINE
  5
660
330
1F
100
AcDbEntity
  8
0
100
AcDbLine
 10
183.9745509314502
 20
291.8049929893904
 30
0.0
 11
183.0436249314502
 21
290.4542349893904
 31
0.0
  0
LINE
  5
661
330
1F
100
AcDbEntity
  8
0
100
AcDbLine
 10
183.9745509314502
 20
291.8049929893904
 30
0.0
 11
183.0436249314502
 21
290.4542349893904
 31
0.0
  0
LINE
  5
662
330
1F
100
AcDbEntity
  8
0
100
AcDbLine
 10
183.9745499314502
 20
295.82926998939
 30
0.0
 11
183.9745499314502
 21
291.8049929893904
 31
0.0
  0
ARC
  5
663
330
1F
100
AcDbEntity
  8
0
100
AcDbCircle
 10
179.8743419314503
 20
291.7331389893902
 30
0.0
 40
1.0
100
AcDbArc
 50
0.0
 51
90.0
  0
ARC
  5
664
330
1F
100
AcDbEntity
  8
0
100
AcDbCircle
 10
179.9743419314503
 20
291.82926998939
 30
0.0
 40
1.0
100
AcDbArc
 50
0.0
 51
90.0
  0
LINE
  5
665
330
1F
100
AcDbEntity
  8
0
100
AcDbLine
 10
179.4740169314502
 20
296.82926998939
 30
0.0
 11
182.9745499314502
 21
296.82926998939
 31
0.0
  0
LINE
  5
666
330
1F
100
AcDbEntity
  8
0
100
AcDbLine
 10
156.0743419314507
 20
244.5114439518352
 30
0.0
 11
156.0743419314502
 21
138.9331389893902
 31
0.0
  0
LINE
  5
667
330
1F
100
AcDbEntity
  8
0
100
AcDbLine
 10
151.9046309314502
 20
289.4542349893904
 30
0.0
 11
151.9046309314502
 21
141.2043059893901
 31
0.0
  0
LINE
  5
668
330
1F
100
AcDbEntity
  8
0
100
AcDbLine
 10
155.9743419314502
 20
138.8292699893902
 30
0.0
 11
155.9743419314502
 21
291.82926998939
 31
0.0
  0
LINE
  5
669
330
1F
100
AcDbEntity
  8
0
100
AcDbLine
 10
150.9892229314502
 20
139.8658449893903
 30
0.0
 11
150.9892229314502
 21
290.8049929893905
 31
0.0
  0
LINE
  5
66A
330
1F
100
AcDbEntity
  8
0
100
AcDbLine
 10
153.9820599314502
 20
294.3179069893904
 30
0.0
 11
153.9820599314502
 21
136.3523909893904
 31
0.0
  0
LINE
  5
66B
330
1F
100
AcDbEntity
  8
0
100
AcDbLine
 10
152.9741329314501
 20
128.3290049893903
 30
0.0
 11
152.9741329314501
 21
134.8292699893902
 31
0.0
  0
LINE
  5
66C
330
1F
100
AcDbEntity
  8
0
100
AcDbLine
 10
165.9743419314501
 20
130.0790049893903
 30
0.0
 11
165.9743419314501
 21
128.3290049893903
 31
0.0
  0
LINE
  5
66D
330
1F
100
AcDbEntity
  8
0
100
AcDbLine
 10
170.9743419314501
 20
130.0790049893903
 30
0.0
 11
170.9743419314501
 21
128.3290049893903
 31
0.0
  0
LINE
  5
66E
330
1F
100
AcDbEntity
  8
0
  6
CENTER
 62
     5
100
AcDbLine
 10
168.4743419314501
 20
137.5790049893903
 30
0.0
 11
168.4743419314501
 21
122.5790049893903
 31
0.0
  0
ARC
  5
66F
330
1F
100
AcDbEntity
  8
CLASS1
  6
CONTINUOUS
 62
     0
100
AcDbCircle
 10
160.3874639314501
 20
61.76578621161116
 30
0.0
 40
2.0
100
AcDbArc
 50
94.73325899999677
 51
179.1176409999946
  0
LINE
  5
670
330
1F
100
AcDbEntity
  8
0
100
AcDbLine
 10
154.4741329314501
 20
126.8290049893903
 30
0.0
 11
164.4743419314501
 21
126.8290049893903
 31
0.0
  0
LINE
  5
671
330
1F
100
AcDbEntity
  8
CLASS1
  6
CONTINUOUS
 62
     0
100
AcDbLine
 10
162.4741329314502
 20
57.10000021161113
 30
0.0
 11
174.4741329314502
 21
57.10000021161113
 31
0.0
  0
LINE
  5
672
330
1F
100
AcDbEntity
  8
CLASS1
  6
CONTINUOUS
 62
     0
100
AcDbLine
 10
174.4741329314502
 20
59.10000021161113
 30
0.0
 11
162.4741329314502
 21
59.10000021161113
 31
0.0
  0
LINE
  5
673
330
1F
100
AcDbEntity
  8
CLASS1
  6
CONTINUOUS
 62
     0
100
AcDbLine
 10
174.4741329314502
 20
55.10000021161113
 30
0.0
 11
162.4741329314502
 21
55.10000021161113
 31
0.0
  0
LINE
  5
674
330
1F
100
AcDbEntity
  8
CLASS1
  6
CONTINUOUS
 62
     0
100
AcDbLine
 10
162.4741329314502
 20
53.10000021161113
 30
0.0
 11
174.4741329314502
 21
53.10000021161113
 31
0.0
  0
LINE
  5
675
330
1F
100
AcDbEntity
  8
CLASS1
  6
CONTINUOUS
 62
     0
100
AcDbLine
 10
174.4741329314502
 20
51.10000021161113
 30
0.0
 11
162.4741329314502
 21
51.10000021161113
 31
0.0
  0
LINE
  5
676
330
1F
100
AcDbEntity
  8
CLASS1
  6
CONTINUOUS
 62
     0
100
AcDbLine
 10
162.4741329314501
 20
49.10000021161113
 30
0.0
 11
174.4741329314502
 21
49.10000021161113
 31
0.0
  0
LINE
  5
677
330
1F
100
AcDbEntity
  8
CLASS1
  6
CONTINUOUS
 62
     0
100
AcDbLine
 10
174.4741329314502
 20
43.10000021161113
 30
0.0
 11
162.4741329314501
 21
43.10000021161113
 31
0.0
  0
LINE
  5
678
330
1F
100
AcDbEntity
  8
CLASS1
  6
CONTINUOUS
 62
     0
100
AcDbLine
 10
162.4741329314501
 20
45.10000021161113
 30
0.0
 11
174.4741329314502
 21
45.10000021161113
 31
0.0
  0
LINE
  5
679
330
1F
100
AcDbEntity
  8
CLASS1
  6
CONTINUOUS
 62
     0
100
AcDbLine
 10
174.4741329314502
 20
47.10000021161113
 30
0.0
 11
162.4741329314501
 21
47.10000021161113
 31
0.0
  0
LINE
  5
67A
330
1F
100
AcDbEntity
  8
CLASS1
  6
CONTINUOUS
 62
     0
100
AcDbLine
 10
162.4741329314501
 20
41.10000021161113
 30
0.0
 11
174.4741329314502
 21
41.10000021161113
 31
0.0
  0
LINE
  5
67B
330
1F
100
AcDbEntity
  8
CLASS1
  6
CONTINUOUS
 62
     0
100
AcDbLine
 10
165.4741329314501
 20
35.90000021161086
 30
0.0
 11
175.4741329314501
 21
35.90000021161086
 31
0.0
  0
LINE
  5
67C
330
1F
100
AcDbEntity
  8
CLASS1
  6
CONTINUOUS
 62
     0
100
AcDbLine
 10
162.4741329314501
 20
37.10000021161113
 30
0.0
 11
174.4741329314502
 21
37.10000021161113
 31
0.0
  0
LINE
  5
67D
330
1F
100
AcDbEntity
  8
CLASS1
  6
CONTINUOUS
 62
     0
100
AcDbLine
 10
174.4741329314502
 20
39.10000021161113
 30
0.0
 11
162.4741329314501
 21
39.10000021161113
 31
0.0
  0
LINE
  5
67E
330
1F
100
AcDbEntity
  8
CLASS1
  6
CONTINUOUS
 62
     0
100
AcDbLine
 10
167.4741329314501
 20
34.40000021161086
 30
0.0
 11
173.4741329314501
 21
34.40000021161086
 31
0.0
  0
LINE
  5
67F
330
1F
100
AcDbEntity
  8
CLASS1
  6
CONTINUOUS
 62
     0
100
AcDbLine
 10
174.4741329314502
 20
45.10000021161113
 30
0.0
 11
174.4741329314502
 21
47.10000021161113
 31
0.0
  0
LINE
  5
680
330
1F
100
AcDbEntity
  8
CLASS1
  6
CONTINUOUS
 62
     0
100
AcDbLine
 10
174.4741329314502
 20
37.10000021161113
 30
0.0
 11
174.4741329314502
 21
39.10000021161113
 31
0.0
  0
ARC
  5
681
330
1F
100
AcDbEntity
  8
CLASS1
  6
CONTINUOUS
 62
     0
100
AcDbCircle
 10
173.4741329314502
 20
33.90000021161108
 30
0.0
 40
0.5
100
AcDbArc
 50
0.0
 51
90.0
  0
LINE
  5
682
330
1F
100
AcDbEntity
  8
CLASS1
  6
CONTINUOUS
 62
     0
100
AcDbLine
 10
174.4741329314502
 20
41.10000021161113
 30
0.0
 11
174.4741329314502
 21
43.10000021161113
 31
0.0
  0
LINE
  5
683
330
1F
100
AcDbEntity
  8
CLASS1
  6
CONTINUOUS
 62
     0
100
AcDbLine
 10
174.4741329314502
 20
57.10000021161113
 30
0.0
 11
174.4741329314502
 21
59.10000021161113
 31
0.0
  0
LINE
  5
684
330
1F
100
AcDbEntity
  8
CLASS1
  6
CONTINUOUS
 62
     0
100
AcDbLine
 10
174.4741329314502
 20
49.10000021161113
 30
0.0
 11
174.4741329314502
 21
51.10000021161113
 31
0.0
  0
LINE
  5
685
330
1F
100
AcDbEntity
  8
CLASS1
  6
CONTINUOUS
 62
     0
100
AcDbLine
 10
174.4741329314502
 20
53.10000021161113
 30
0.0
 11
174.4741329314502
 21
55.10000021161113
 31
0.0
  0
LINE
  5
686
330
1F
100
AcDbEntity
  8
CLASS1
  6
CONTINUOUS
 62
     0
100
AcDbLine
 10
162.4741329314501
 20
47.10000021161113
 30
0.0
 11
162.4741329314501
 21
45.10000021161113
 31
0.0
  0
LINE
  5
687
330
1F
100
AcDbEntity
  8
CLASS1
  6
CONTINUOUS
 62
     0
100
AcDbLine
 10
162.4741329314501
 20
39.10000021161113
 30
0.0
 11
162.4741329314501
 21
37.10000021161113
 31
0.0
  0
ARC
  5
688
330
1F
100
AcDbEntity
  8
CLASS1
  6
CONTINUOUS
 62
     0
100
AcDbCircle
 10
167.4741329314501
 20
33.90000021161108
 30
0.0
 40
0.5
100
AcDbArc
 50
90.0
 51
180.0
  0
LINE
  5
689
330
1F
100
AcDbEntity
  8
CLASS1
  6
CONTINUOUS
 62
     0
100
AcDbLine
 10
163.9741329314501
 20
35.10000021161113
 30
0.0
 11
162.4741329314501
 21
35.10000021161113
 31
0.0
  0
LINE
  5
68A
330
1F
100
AcDbEntity
  8
CLASS1
  6
CONTINUOUS
 62
     0
100
AcDbLine
 10
162.4741329314501
 20
43.10000021161113
 30
0.0
 11
162.4741329314501
 21
41.10000021161113
 31
0.0
  0
LINE
  5
68B
330
1F
100
AcDbEntity
  8
CLASS1
  6
CONTINUOUS
 62
     0
100
AcDbLine
 10
162.4741329314502
 20
59.10000021161113
 30
0.0
 11
162.4741329314502
 21
57.10000021161113
 31
0.0
  0
LINE
  5
68C
330
1F
100
AcDbEntity
  8
CLASS1
  6
CONTINUOUS
 62
     0
100
AcDbLine
 10
162.4741329314502
 20
51.10000021161113
 30
0.0
 11
162.4741329314501
 21
49.10000021161113
 31
0.0
  0
LINE
  5
68D
330
1F
100
AcDbEntity
  8
CLASS1
  6
CONTINUOUS
 62
     0
100
AcDbLine
 10
162.4741329314502
 20
55.10000021161113
 30
0.0
 11
162.4741329314502
 21
53.10000021161113
 31
0.0
  0
ARC
  5
68E
330
1F
100
AcDbEntity
  8
CLASS1
  6
CONTINUOUS
 62
     0
100
AcDbCircle
 10
168.4741329314501
 20
-35.89999978838886
 30
0.0
 40
100.0
100
AcDbArc
 50
85.2667410000032
 51
94.73325899999677
  0
ARC
  5
68F
330
1F
100
AcDbEntity
  8
CLASS1
  6
CONTINUOUS
 62
     0
100
AcDbCircle
 10
176.5607999314502
 20
61.76578721161104
 30
0.0
 40
2.0
100
AcDbArc
 50
0.8823600000015524
 51
85.2667410000032
  0
ARC
  5
690
330
1F
100
AcDbEntity
  8
0
100
AcDbCircle
 10
172.4743419314502
 20
128.3290049893903
 30
0.0
 40
1.5
100
AcDbArc
 50
180.0
 51
270.0
  0
ARC
  5
691
330
1F
100
AcDbEntity
  8
0
100
AcDbCircle
 10
164.4743419314502
 20
128.3290049893903
 30
0.0
 40
1.5
100
AcDbArc
 50
270.0
 51
0.0
  0
LINE
  5
692
330
1F
100
AcDbEntity
  8
CLASS1
  6
CONTINUOUS
 62
     0
100
AcDbLine
 10
152.8891389314501
 20
62.94472621161071
 30
0.0
 11
153.9048499314501
 21
62.94472621161071
 31
0.0
  0
ARC
  5
693
330
1F
100
AcDbEntity
  8
CLASS1
  6
CONTINUOUS
 62
     0
100
AcDbCircle
 10
152.8891389314501
 20
61.94472621161094
 30
0.0
 40
1.0
100
AcDbArc
 50
90.0
 51
179.1176409999946
  0
ARC
  5
694
330
1F
100
AcDbEntity
  8
0
100
AcDbCircle
 10
154.4741329314501
 20
128.3290049893903
 30
0.0
 40
1.5
100
AcDbArc
 50
180.0
 51
270.0
  0
ARC
  5
695
330
1F
100
AcDbEntity
  8
0
100
AcDbCircle
 10
158.9321699314503
 20
134.2052739893902
 30
0.0
 40
1.0
100
AcDbArc
 50
90.12440900000083
 51
146.0984159999947
  0
LINE
  5
696
330
1F
100
AcDbEntity
  8
0
100
AcDbLine
 10
158.1507429314501
 20
134.8292699893902
 30
0.0
 11
178.8020049314501
 21
134.8292699893902
 31
0.0
  0
ARC
  5
697
330
1F
100
AcDbEntity
  8
0
100
AcDbCircle
 10
168.4743419314502
 20
130.0790049893903
 30
0.0
 40
2.5
100
AcDbArc
 50
0.0
 51
180.0
  0
ARC
  5
698
330
1F
100
AcDbEntity
  8
0
100
AcDbCircle
 10
168.474341931448
 20
-4260.380025010612
 30
0.0
 40
4395.595658
100
AcDbArc
 50
89.87559099999918
 51
90.12440900000083
  0
LINE
  5
699
330
1F
100
AcDbEntity
  8
0
  6
CENTER
 62
     5
100
AcDbLine
 10
175.9743419314501
 20
130.0790049893903
 30
0.0
 11
160.9743419314501
 21
130.0790049893903
 31
0.0
  0
ARC
  5
69A
330
1F
100
AcDbEntity
  8
0
100
AcDbCircle
 10
178.0165139314502
 20
134.2052739893902
 30
0.0
 40
1.0
100
AcDbArc
 50
33.90158400000528
 51
89.87559099999918
  0
ARC
  5
69B
330
1F
100
AcDbEntity
  8
0
100
AcDbCircle
 10
152.9046309314502
 20
141.2043059893901
 30
0.0
 40
1.0
100
AcDbArc
 50
180.0
 51
270.0
  0
LINE
  5
69C
330
1F
100
AcDbEntity
  8
0
100
AcDbLine
 10
152.9046309314502
 20
140.2043059893901
 30
0.0
 11
153.9050599314502
 21
140.2043059893901
 31
0.0
  0
LINE
  5
69D
330
1F
100
AcDbEntity
  8
0
100
AcDbLine
 10
152.9741329314501
 20
134.8292699893902
 30
0.0
 11
152.9741329314501
 21
138.8658449893903
 31
0.0
  0
LINE
  5
69E
330
1F
100
AcDbEntity
  8
0
100
AcDbLine
 10
152.9741329314501
 20
138.8658449893903
 30
0.0
 11
151.9892229314502
 21
138.8658449893903
 31
0.0
  0
LINE
  5
69F
330
1F
100
AcDbEntity
  8
0
100
AcDbLine
 10
152.9741329314501
 20
138.8535469893902
 30
0.0
 11
153.9050599314502
 21
140.2043059893901
 31
0.0
  0
ARC
  5
6A0
330
1F
100
AcDbEntity
  8
0
100
AcDbCircle
 10
151.9892229314502
 20
139.8658449893903
 30
0.0
 40
1.0
100
AcDbArc
 50
180.0
 51
270.0
  0
ARC
  5
6A1
330
1F
100
AcDbEntity
  8
0
100
AcDbCircle
 10
153.9741329314501
 20
134.8292699893902
 30
0.0
 40
1.0
100
AcDbArc
 50
180.0
 51
270.0
  0
ARC
  5
6A2
330
1F
100
AcDbEntity
  8
0
100
AcDbCircle
 10
157.0743419314502
 20
138.9331389893902
 30
0.0
 40
1.0
100
AcDbArc
 50
180.0
 51
270.0
  0
ARC
  5
6A3
330
1F
100
AcDbEntity
  8
0
100
AcDbCircle
 10
156.9743419314502
 20
138.8292699893902
 30
0.0
 40
1.0
100
AcDbArc
 50
180.0
 51
270.0
  0
LINE
  5
6A4
330
1F
100
AcDbEntity
  8
0
100
AcDbLine
 10
158.1021729314501
 20
134.7630419893905
 30
0.0
 11
157.4746659314502
 21
133.8292699893902
 31
0.0
  0
ARC
  5
6A5
330
1F
100
AcDbEntity
  8
0
100
AcDbCircle
 10
154.9820599314502
 20
136.3523909893904
 30
0.0
 40
1.0
100
AcDbArc
 50
180.0
 51
270.0
  0
LINE
  5
6A6
330
1F
100
AcDbEntity
  8
0
100
AcDbLine
 10
153.9741329314501
 20
133.8292699893902
 30
0.0
 11
157.4746659314502
 21
133.8292699893902
 31
0.0
  0
LINE
  5
6A7
330
1F
100
AcDbEntity
  8
0
100
AcDbLine
 10
155.9743419314502
 20
243.2752219893902
 30
0.0
 11
155.9743419314502
 21
235.9071259893903
 31
0.0
  0
ARC
  5
6A8
330
1F
100
AcDbEntity
  8
0
100
AcDbCircle
 10
158.9321699314504
 20
296.4532659893902
 30
0.0
 40
1.0
100
AcDbArc
 50
213.9015840000052
 51
269.8755909999992
  0
LINE
  5
6A9
330
1F
100
AcDbEntity
  8
0
100
AcDbLine
 10
158.1507429314502
 20
295.82926998939
 30
0.0
 11
178.8020049314502
 21
295.82926998939
 31
0.0
  0
ARC
  5
6AA
330
1F
100
AcDbEntity
  8
0
100
AcDbCircle
 10
168.4743419314524
 20
4691.038564989386
 30
0.0
 40
4395.595658
100
AcDbArc
 50
269.8755909999992
 51
270.1244089999975
  0
ARC
  5
6AB
330
1F
100
AcDbEntity
  8
0
100
AcDbCircle
 10
178.0165139314503
 20
296.4532659893902
 30
0.0
 40
1.0
100
AcDbArc
 50
270.1244089999975
 51
326.0984159999947
  0
LINE
  5
6AC
330
1F
100
AcDbEntity
  8
0
100
AcDbLine
 10
155.9743419314502
 20
291.82926998939
 30
0.0
 11
155.9743419314502
 21
277.8881389893904
 31
0.0
  0
ARC
  5
6AD
330
1F
100
AcDbEntity
  8
0
100
AcDbCircle
 10
153.9741329314503
 20
295.82926998939
 30
0.0
 40
1.0
100
AcDbArc
 50
90.0
 51
180.0
  0
LINE
  5
6AE
330
1F
100
AcDbEntity
  8
0
100
AcDbLine
 10
152.9741329314501
 20
291.8049929893904
 30
0.0
 11
151.9892229314502
 21
291.8049929893904
 31
0.0
  0
ARC
  5
6AF
330
1F
100
AcDbEntity
  8
0
100
AcDbCircle
 10
152.9046309314503
 20
289.4542349893904
 30
0.0
 40
1.0
100
AcDbArc
 50
90.0
 51
180.0
  0
ARC
  5
6B0
330
1F
100
AcDbEntity
  8
0
100
AcDbCircle
 10
152.9046309314503
 20
289.4542349893904
 30
0.0
 40
1.0
100
AcDbArc
 50
90.0
 51
180.0
  0
LINE
  5
6B1
330
1F
100
AcDbEntity
  8
0
100
AcDbLine
 10
152.9046309314502
 20
290.4542349893904
 30
0.0
 11
153.9050599314502
 21
290.4542349893904
 31
0.0
  0
LINE
  5
6B2
330
1F
100
AcDbEntity
  8
0
100
AcDbLine
 10
152.9046309314502
 20
290.4542349893904
 30
0.0
 11
153.9050599314502
 21
290.4542349893904
 31
0.0
  0
LINE
  5
6B3
330
1F
100
AcDbEntity
  8
0
100
AcDbLine
 10
152.9741329314501
 20
291.8049929893904
 30
0.0
 11
153.9050599314502
 21
290.4542349893904
 31
0.0
  0
LINE
  5
6B4
330
1F
100
AcDbEntity
  8
0
100
AcDbLine
 10
152.9741329314501
 20
291.8049929893904
 30
0.0
 11
153.9050599314502
 21
290.4542349893904
 31
0.0
  0
ARC
  5
6B5
330
1F
100
AcDbEntity
  8
0
100
AcDbCircle
 10
151.9892229314504
 20
290.8049929893905
 30
0.0
 40
1.0
100
AcDbArc
 50
90.0
 51
180.0
  0
LINE
  5
6B6
330
1F
100
AcDbEntity
  8
0
100
AcDbLine
 10
152.9741329314501
 20
295.82926998939
 30
0.0
 11
152.9741329314501
 21
291.8049929893904
 31
0.0
  0
LINE
  5
6B7
330
1F
100
AcDbEntity
  8
0
100
AcDbLine
 10
158.1021729314502
 20
295.8954979893901
 30
0.0
 11
157.4746659314502
 21
296.82926998939
 31
0.0
  0
ARC
  5
6B8
330
1F
100
AcDbEntity
  8
0
100
AcDbCircle
 10
157.0743419314503
 20
291.7331389893902
 30
0.0
 40
1.0
100
AcDbArc
 50
90.0
 51
180.0
  0
ARC
  5
6B9
330
1F
100
AcDbEntity
  8
0
100
AcDbCircle
 10
156.9743419314503
 20
291.82926998939
 30
0.0
 40
1.0
100
AcDbArc
 50
90.0
 51
180.0
  0
ARC
  5
6BA
330
1F
100
AcDbEntity
  8
0
100
AcDbCircle
 10
154.9820599314504
 20
294.3179069893904
 30
0.0
 40
1.0
100
AcDbArc
 50
90.0
 51
180.0
  0
LINE
  5
6BB
330
1F
100
AcDbEntity
  8
0
100
AcDbLine
 10
153.9741329314501
 20
296.82926998939
 30
0.0
 11
157.4746659314502
 21
296.82926998939
 31
0.0
  0
LINE
  5
6BC
330
1F
100
AcDbEntity
  8
0
100
AcDbLine
 10
154.4741329314501
 20
305.3290109893901
 30
0.0
 11
182.4745509314502
 21
305.3290109893901
 31
0.0
  0
LINE
  5
6BD
330
1F
100
AcDbEntity
  8
CLASS1
  6
CONTINUOUS
 62
     0
100
AcDbLine
 10
152.9739248041098
 20
435.3181808115334
 30
0.0
 11
183.9743428041097
 21
435.3181808115334
 31
0.0
  0
INSERT
  5
6BE
330
1F
100
AcDbEntity
  8
0
100
AcDbBlockReference
  2
A$C51C20FFB
 10
183.9743428041096
 20
438.8181794742116
 30
0.0
 50
180.0
  0
LINE
  5
6BF
330
1F
100
AcDbEntity
  8
CLASS1
  6
CONTINUOUS
 62
     0
100
AcDbLine
 10
178.5605658041097
 20
376.0215958115334
 30
0.0
 11
179.4738088041097
 21
435.3181808115334
 31
0.0
  0
LINE
  5
6C0
330
1F
100
AcDbEntity
  8
CLASS1
  6
CONTINUOUS
 62
     0
100
AcDbLine
 10
185.0590098041097
 20
375.8580548115335
 30
0.0
 11
185.9745348041097
 21
435.3027818115335
 31
0.0
  0
LINE
  5
6C1
330
1F
100
AcDbEntity
  8
CLASS1
  6
CONTINUOUS
 62
     0
100
AcDbLine
 10
182.9780328041097
 20
370.6281068115338
 30
0.0
 11
183.9743428041097
 21
435.3181808115334
 31
0.0
  0
ARC
  5
6C2
330
1F
100
AcDbEntity
  8
0
100
AcDbCircle
 10
182.4745509314503
 20
303.8290109893901
 30
0.0
 40
1.5
100
AcDbArc
 50
0.0
 51
90.0
  0
ARC
  5
6C3
330
1F
100
AcDbEntity
  8
CLASS1
  6
CONTINUOUS
 62
     0
100
AcDbCircle
 10
184.0591278041095
 20
375.8734548115337
 30
0.0
 40
1.0
100
AcDbArc
 50
270.0
 51
359.1176409999946
  0
LINE
  5
6C4
330
1F
100
AcDbEntity
  8
CLASS1
  6
CONTINUOUS
 62
     0
100
AcDbLine
 10
184.0591278041097
 20
374.8734548115337
 30
0.0
 11
183.0434158041098
 21
374.8734548115337
 31
0.0
  0
ARC
  5
6C5
330
1F
100
AcDbEntity
  8
CLASS1
  6
CONTINUOUS
 62
     0
100
AcDbCircle
 10
184.9746538041095
 20
435.3181808115334
 30
0.0
 40
1.0
100
AcDbArc
 50
359.1176409999946
 51
90.0
  0
LINE
  5
6C6
330
1F
100
AcDbEntity
  8
CLASS1
  6
CONTINUOUS
 62
     0
100
AcDbLine
 10
183.9743428041097
 20
436.3181808115334
 30
0.0
 11
183.9743428041097
 21
435.3181808115334
 31
0.0
  0
LINE
  5
6C7
330
1F
100
AcDbEntity
  8
CLASS1
  6
CONTINUOUS
 62
     0
100
AcDbLine
 10
183.9743428041097
 20
436.3181808115334
 30
0.0
 11
184.9746538041097
 21
436.3181808115334
 31
0.0
  0
LINE
  5
6C8
330
1F
100
AcDbEntity
  8
CLASS1
  6
CONTINUOUS
 62
     0
100
AcDbLine
 10
162.4741338041097
 20
391.7181808115335
 30
0.0
 11
162.4741338041097
 21
393.7181808115335
 31
0.0
  0
LINE
  5
6C9
330
1F
100
AcDbEntity
  8
CLASS1
  6
CONTINUOUS
 62
     0
100
AcDbLine
 10
174.4741338041096
 20
393.7181808115335
 30
0.0
 11
174.4741338041096
 21
391.7181808115335
 31
0.0
  0
LINE
  5
6CA
330
1F
100
AcDbEntity
  8
CLASS1
  6
CONTINUOUS
 62
     0
100
AcDbLine
 10
151.8892588041096
 20
375.8580548115335
 30
0.0
 11
150.9737328041098
 21
435.3027818115335
 31
0.0
  0
LINE
  5
6CB
330
1F
100
AcDbEntity
  8
CLASS1
  6
CONTINUOUS
 62
     0
100
AcDbLine
 10
158.3877038041098
 20
376.0215958115334
 30
0.0
 11
157.4744588041097
 21
435.3181808115334
 31
0.0
  0
LINE
  5
6CC
330
1F
100
AcDbEntity
  8
CLASS1
  6
CONTINUOUS
 62
     0
100
AcDbLine
 10
153.9702628041097
 20
370.6264278115338
 30
0.0
 11
152.9739248041098
 21
435.3181808115334
 31
0.0
  0
ARC
  5
6CD
330
1F
100
AcDbEntity
  8
CLASS1
  6
CONTINUOUS
 62
     0
100
AcDbCircle
 10
160.3874668041096
 20
376.0523938115336
 30
0.0
 40
2.0
100
AcDbArc
 50
180.8823600000015
 51
265.2667410000032
  0
LINE
  5
6CE
330
1F
100
AcDbEntity
  8
0
  6
CENTER
 62
     5
100
AcDbLine
 10
175.9743419314502
 20
300.5790109893901
 30
0.0
 11
160.9743419314502
 21
300.5790109893901
 31
0.0
  0
CIRCLE
  5
6CF
330
1F
100
AcDbEntity
  8
0
100
AcDbCircle
 10
168.4743419314503
 20
300.5790109893901
 30
0.0
 40
2.5
  0
LINE
  5
6D0
330
1F
100
AcDbEntity
  8
CLASS1
  6
CONTINUOUS
 62
     0
100
AcDbLine
 10
174.4741338041096
 20
391.7181808115335
 30
0.0
 11
162.4741338041097
 21
391.7181808115335
 31
0.0
  0
LINE
  5
6D1
330
1F
100
AcDbEntity
  8
CLASS1
  6
CONTINUOUS
 62
     0
100
AcDbLine
 10
174.4741338041096
 20
387.7181808115335
 30
0.0
 11
162.4741338041097
 21
387.7181808115335
 31
0.0
  0
LINE
  5
6D2
330
1F
100
AcDbEntity
  8
CLASS1
  6
CONTINUOUS
 62
     0
100
AcDbLine
 10
162.4741338041097
 20
389.7181808115335
 30
0.0
 11
174.4741338041096
 21
389.7181808115335
 31
0.0
  0
LINE
  5
6D3
330
1F
100
AcDbEntity
  8
CLASS1
  6
CONTINUOUS
 62
     0
100
AcDbLine
 10
162.4741338041097
 20
385.7181808115335
 30
0.0
 11
174.4741338041096
 21
385.7181808115335
 31
0.0
  0
LINE
  5
6D4
330
1F
100
AcDbEntity
  8
CLASS1
  6
CONTINUOUS
 62
     0
100
AcDbLine
 10
174.4741338041096
 20
383.7181808115335
 30
0.0
 11
162.4741338041097
 21
383.7181808115335
 31
0.0
  0
LINE
  5
6D5
330
1F
100
AcDbEntity
  8
CLASS1
  6
CONTINUOUS
 62
     0
100
AcDbLine
 10
162.4741338041097
 20
381.7181808115335
 30
0.0
 11
174.4741338041096
 21
381.7181808115335
 31
0.0
  0
LINE
  5
6D6
330
1F
100
AcDbEntity
  8
CLASS1
  6
CONTINUOUS
 62
     0
100
AcDbLine
 10
174.4741338041096
 20
379.7181808115335
 30
0.0
 11
162.4741338041097
 21
379.7181808115335
 31
0.0
  0
ARC
  5
6D7
330
1F
100
AcDbEntity
  8
CLASS1
  6
CONTINUOUS
 62
     0
100
AcDbCircle
 10
168.4741338041097
 20
473.7181808115336
 30
0.0
 40
100.0
100
AcDbArc
 50
265.2667410000032
 51
274.7332589999968
  0
ARC
  5
6D8
330
1F
100
AcDbEntity
  8
CLASS1
  6
CONTINUOUS
 62
     0
100
AcDbCircle
 10
176.5608028041095
 20
376.0523948115335
 30
0.0
 40
2.0
100
AcDbArc
 50
274.7332589999968
 51
359.1176409999946
  0
LINE
  5
6D9
330
1F
100
AcDbEntity
  8
CLASS1
  6
CONTINUOUS
 62
     0
100
AcDbLine
 10
174.4741338041096
 20
389.7181808115335
 30
0.0
 11
174.4741338041096
 21
387.7181808115335
 31
0.0
  0
LINE
  5
6DA
330
1F
100
AcDbEntity
  8
CLASS1
  6
CONTINUOUS
 62
     0
100
AcDbLine
 10
174.4741338041096
 20
385.7181808115335
 30
0.0
 11
174.4741338041096
 21
383.7181808115335
 31
0.0
  0
LINE
  5
6DB
330
1F
100
AcDbEntity
  8
CLASS1
  6
CONTINUOUS
 62
     0
100
AcDbLine
 10
174.4741338041096
 20
381.7181808115335
 30
0.0
 11
174.4741338041096
 21
379.7181808115335
 31
0.0
  0
LINE
  5
6DC
330
1F
100
AcDbEntity
  8
CLASS1
  6
CONTINUOUS
 62
     0
100
AcDbLine
 10
162.4741338041097
 20
387.7181808115335
 30
0.0
 11
162.4741338041097
 21
389.7181808115335
 31
0.0
  0
LINE
  5
6DD
330
1F
100
AcDbEntity
  8
CLASS1
  6
CONTINUOUS
 62
     0
100
AcDbLine
 10
162.4741338041097
 20
383.7181808115335
 30
0.0
 11
162.4741338041097
 21
385.7181808115335
 31
0.0
  0
LINE
  5
6DE
330
1F
100
AcDbEntity
  8
CLASS1
  6
CONTINUOUS
 62
     0
100
AcDbLine
 10
162.4741338041097
 20
379.7181808115335
 30
0.0
 11
162.4741338041097
 21
381.7181808115335
 31
0.0
  0
ARC
  5
6DF
330
1F
100
AcDbEntity
  8
0
100
AcDbCircle
 10
154.4741329314502
 20
303.8290109893901
 30
0.0
 40
1.5
100
AcDbArc
 50
90.0
 51
180.0
  0
ARC
  5
6E0
330
1F
100
AcDbEntity
  8
CLASS1
  6
CONTINUOUS
 62
     0
100
AcDbCircle
 10
152.8891408041095
 20
375.8734548115337
 30
0.0
 40
1.0
100
AcDbArc
 50
180.8823590000053
 51
270.0
  0
LINE
  5
6E1
330
1F
100
AcDbEntity
  8
CLASS1
  6
CONTINUOUS
 62
     0
100
AcDbLine
 10
152.8891408041097
 20
374.8734548115337
 30
0.0
 11
153.9048518041097
 21
374.8734548115337
 31
0.0
  0
LINE
  5
6E2
330
1F
100
AcDbEntity
  8
CLASS1
  6
CONTINUOUS
 62
     0
100
AcDbLine
 10
162.4741338041097
 20
421.7181808115335
 30
0.0
 11
174.4741338041096
 21
421.7181808115335
 31
0.0
  0
LINE
  5
6E3
330
1F
100
AcDbEntity
  8
CLASS1
  6
CONTINUOUS
 62
     0
100
AcDbLine
 10
174.4741338041096
 20
419.7181808115336
 30
0.0
 11
162.4741338041097
 21
419.7181808115336
 31
0.0
  0
LINE
  5
6E4
330
1F
100
AcDbEntity
  8
CLASS1
  6
CONTINUOUS
 62
     0
100
AcDbLine
 10
162.4741338041097
 20
417.7181808115335
 30
0.0
 11
174.4741338041096
 21
417.7181808115335
 31
0.0
  0
LINE
  5
6E5
330
1F
100
AcDbEntity
  8
CLASS1
  6
CONTINUOUS
 62
     0
100
AcDbLine
 10
174.4741338041096
 20
415.7181808115335
 30
0.0
 11
162.4741338041097
 21
415.7181808115335
 31
0.0
  0
LINE
  5
6E6
330
1F
100
AcDbEntity
  8
CLASS1
  6
CONTINUOUS
 62
     0
100
AcDbLine
 10
168.9491338041098
 20
410.8681808115336
 30
0.0
 11
164.7991338041097
 21
410.8681808115336
 31
0.0
  0
LINE
  5
6E7
330
1F
100
AcDbEntity
  8
CLASS1
  6
CONTINUOUS
 62
     0
100
AcDbLine
 10
169.5741338041098
 20
404.1181808115336
 30
0.0
 11
167.8741338041097
 21
404.1181808115336
 31
0.0
  0
LINE
  5
6E8
330
1F
100
AcDbEntity
  8
CLASS1
  6
CONTINUOUS
 62
     0
100
AcDbLine
 10
169.5741338041098
 20
405.3181808115335
 30
0.0
 11
167.8741338041097
 21
405.3181808115335
 31
0.0
  0
LINE
  5
6E9
330
1F
100
AcDbEntity
  8
CLASS1
  6
CONTINUOUS
 62
     0
100
AcDbLine
 10
168.9491338041098
 20
398.5681808115334
 30
0.0
 11
164.7991338041097
 21
398.5681808115334
 31
0.0
  0
LINE
  5
6EA
330
1F
100
AcDbEntity
  8
CLASS1
  6
CONTINUOUS
 62
     0
100
AcDbLine
 10
162.4741338041097
 20
413.7181808115335
 30
0.0
 11
174.4741338041096
 21
413.7181808115335
 31
0.0
  0
LINE
  5
6EB
330
1F
100
AcDbEntity
  8
CLASS1
  6
CONTINUOUS
 62
     0
100
AcDbLine
 10
162.4741338041097
 20
412.7181808115335
 30
0.0
 11
171.3741338041097
 21
412.7181808115335
 31
0.0
  0
LINE
  5
6EC
330
1F
100
AcDbEntity
  8
CLASS1
  6
CONTINUOUS
 62
     0
100
AcDbLine
 10
171.3741338041097
 20
396.7181808115335
 30
0.0
 11
162.4741338041097
 21
396.7181808115335
 31
0.0
  0
LINE
  5
6ED
330
1F
100
AcDbEntity
  8
CLASS1
  6
CONTINUOUS
 62
     0
100
AcDbLine
 10
174.4741338041096
 20
395.7181808115335
 30
0.0
 11
162.4741338041097
 21
395.7181808115335
 31
0.0
  0
LINE
  5
6EE
330
1F
100
AcDbEntity
  8
CLASS1
  6
CONTINUOUS
 62
     0
100
AcDbLine
 10
162.4741338041097
 20
393.7181808115335
 30
0.0
 11
174.4741338041096
 21
393.7181808115335
 31
0.0
  0
LINE
  5
6EF
330
1F
100
AcDbEntity
  8
CLASS1
  6
CONTINUOUS
 62
     0
100
AcDbLine
 10
169.5741338041098
 20
399.8181808115334
 30
0.0
 11
169.5741338041098
 21
409.6181808115336
 31
0.0
  0
LINE
  5
6F0
330
1F
100
AcDbEntity
  8
CLASS1
  6
CONTINUOUS
 62
     0
100
AcDbLine
 10
171.3741338041097
 20
409.7181808115335
 30
0.0
 11
171.3741338041097
 21
407.7181808115335
 31
0.0
  0
LINE
  5
6F1
330
1F
100
AcDbEntity
  8
CLASS1
  6
CONTINUOUS
 62
     0
100
AcDbLine
 10
174.4741338041096
 20
409.7181808115335
 30
0.0
 11
174.4741338041096
 21
407.7181808115335
 31
0.0
  0
LINE
  5
6F2
330
1F
100
AcDbEntity
  8
CLASS1
  6
CONTINUOUS
 62
     0
100
AcDbLine
 10
168.9491338041098
 20
398.5681808115334
 30
0.0
 11
168.9491338041098
 21
399.8181808115334
 31
0.0
  0
LINE
  5
6F3
330
1F
100
AcDbEntity
  8
CLASS1
  6
CONTINUOUS
 62
     0
100
AcDbLine
 10
169.5741338041098
 20
399.8181808115334
 30
0.0
 11
168.9491338041098
 21
399.8181808115334
 31
0.0
  0
LINE
  5
6F4
330
1F
100
AcDbEntity
  8
CLASS1
  6
CONTINUOUS
 62
     0
100
AcDbLine
 10
174.4741338041096
 20
407.7181808115335
 30
0.0
 11
171.3741338041097
 21
407.7181808115335
 31
0.0
  0
LINE
  5
6F5
330
1F
100
AcDbEntity
  8
CLASS1
  6
CONTINUOUS
 62
     0
100
AcDbLine
 10
174.4741338041096
 20
403.7181808115335
 30
0.0
 11
171.3741338041097
 21
403.7181808115335
 31
0.0
  0
LINE
  5
6F6
330
1F
100
AcDbEntity
  8
CLASS1
  6
CONTINUOUS
 62
     0
100
AcDbLine
 10
171.3741338041097
 20
405.7181808115335
 30
0.0
 11
171.3741338041097
 21
403.7181808115335
 31
0.0
  0
LINE
  5
6F7
330
1F
100
AcDbEntity
  8
CLASS1
  6
CONTINUOUS
 62
     0
100
AcDbLine
 10
174.4741338041096
 20
405.7181808115335
 30
0.0
 11
174.4741338041096
 21
403.7181808115335
 31
0.0
  0
LINE
  5
6F8
330
1F
100
AcDbEntity
  8
CLASS1
  6
CONTINUOUS
 62
     0
100
AcDbLine
 10
171.3741338041097
 20
405.7181808115335
 30
0.0
 11
174.4741338041096
 21
405.7181808115335
 31
0.0
  0
LINE
  5
6F9
330
1F
100
AcDbEntity
  8
CLASS1
  6
CONTINUOUS
 62
     0
100
AcDbLine
 10
174.4741338041096
 20
401.7181808115335
 30
0.0
 11
174.4741338041096
 21
399.7181808115335
 31
0.0
  0
LINE
  5
6FA
330
1F
100
AcDbEntity
  8
CLASS1
  6
CONTINUOUS
 62
     0
100
AcDbLine
 10
171.3741338041097
 20
401.7181808115335
 30
0.0
 11
171.3741338041097
 21
399.7181808115335
 31
0.0
  0
LINE
  5
6FB
330
1F
100
AcDbEntity
  8
CLASS1
  6
CONTINUOUS
 62
     0
100
AcDbLine
 10
171.3741338041097
 20
401.7181808115335
 30
0.0
 11
174.4741338041096
 21
401.7181808115335
 31
0.0
  0
LINE
  5
6FC
330
1F
100
AcDbEntity
  8
CLASS1
  6
CONTINUOUS
 62
     0
100
AcDbLine
 10
174.4741338041096
 20
399.7181808115335
 30
0.0
 11
171.3741338041097
 21
399.7181808115335
 31
0.0
  0
LINE
  5
6FD
330
1F
100
AcDbEntity
  8
CLASS1
  6
CONTINUOUS
 62
     0
100
AcDbLine
 10
171.3741338041097
 20
397.7181808115335
 30
0.0
 11
174.4741338041096
 21
397.7181808115335
 31
0.0
  0
LINE
  5
6FE
330
1F
100
AcDbEntity
  8
CLASS1
  6
CONTINUOUS
 62
     0
100
AcDbLine
 10
171.3741338041097
 20
397.7181808115335
 30
0.0
 11
171.3741338041097
 21
396.7181808115335
 31
0.0
  0
LINE
  5
6FF
330
1F
100
AcDbEntity
  8
CLASS1
  6
CONTINUOUS
 62
     0
100
AcDbLine
 10
174.4741338041096
 20
397.7181808115335
 30
0.0
 11
174.4741338041096
 21
395.7181808115335
 31
0.0
  0
LINE
  5
700
330
1F
100
AcDbEntity
  8
CLASS1
  6
CONTINUOUS
 62
     0
100
AcDbLine
 10
174.4741338041096
 20
421.7181808115335
 30
0.0
 11
174.4741338041096
 21
419.7181808115336
 31
0.0
  0
LINE
  5
701
330
1F
100
AcDbEntity
  8
CLASS1
  6
CONTINUOUS
 62
     0
100
AcDbLine
 10
174.4741338041096
 20
417.7181808115335
 30
0.0
 11
174.4741338041096
 21
415.7181808115335
 31
0.0
  0
LINE
  5
702
330
1F
100
AcDbEntity
  8
CLASS1
  6
CONTINUOUS
 62
     0
100
AcDbLine
 10
169.5741338041098
 20
409.6181808115336
 30
0.0
 11
168.9491338041098
 21
409.6181808115336
 31
0.0
  0
LINE
  5
703
330
1F
100
AcDbEntity
  8
CLASS1
  6
CONTINUOUS
 62
     0
100
AcDbLine
 10
168.9491338041098
 20
409.6181808115336
 30
0.0
 11
168.9491338041098
 21
410.8681808115336
 31
0.0
  0
LINE
  5
704
330
1F
100
AcDbEntity
  8
CLASS1
  6
CONTINUOUS
 62
     0
100
AcDbLine
 10
174.4741338041096
 20
413.7181808115335
 30
0.0
 11
174.4741338041096
 21
411.7181808115335
 31
0.0
  0
LINE
  5
705
330
1F
100
AcDbEntity
  8
CLASS1
  6
CONTINUOUS
 62
     0
100
AcDbLine
 10
174.4741338041096
 20
411.7181808115335
 30
0.0
 11
171.3741338041097
 21
411.7181808115335
 31
0.0
  0
LINE
  5
706
330
1F
100
AcDbEntity
  8
CLASS1
  6
CONTINUOUS
 62
     0
100
AcDbLine
 10
171.3741338041097
 20
412.7181808115335
 30
0.0
 11
171.3741338041097
 21
411.7181808115335
 31
0.0
  0
LINE
  5
707
330
1F
100
AcDbEntity
  8
CLASS1
  6
CONTINUOUS
 62
     0
100
AcDbLine
 10
171.3741338041097
 20
409.7181808115335
 30
0.0
 11
174.4741338041096
 21
409.7181808115335
 31
0.0
  0
LINE
  5
708
330
1F
100
AcDbEntity
  8
CLASS1
  6
CONTINUOUS
 62
     0
100
AcDbLine
 10
167.8741338041097
 20
401.2181808115335
 30
0.0
 11
167.8741338041097
 21
408.2181808115335
 31
0.0
  0
LINE
  5
709
330
1F
100
AcDbEntity
  8
CLASS1
  6
CONTINUOUS
 62
     0
100
AcDbLine
 10
165.8741338041097
 20
401.2181808115335
 30
0.0
 11
165.8741338041097
 21
408.2181808115335
 31
0.0
  0
LINE
  5
70A
330
1F
100
AcDbEntity
  8
CLASS1
  6
CENTER
 62
     0
100
AcDbLine
 10
166.8741338041097
 20
399.7181808115335
 30
0.0
 11
166.8741338041097
 21
411.7519228115336
 31
0.0
  0
LINE
  5
70B
330
1F
100
AcDbEntity
  8
CLASS1
  6
CONTINUOUS
 62
     0
100
AcDbLine
 10
164.2741338041099
 20
406.7181808115335
 30
0.0
 11
164.2741338041099
 21
409.6181808115336
 31
0.0
  0
LINE
  5
70C
330
1F
100
AcDbEntity
  8
CLASS1
  6
CONTINUOUS
 62
     0
100
AcDbLine
 10
162.5741338041098
 20
402.7181808115335
 30
0.0
 11
162.5741338041098
 21
406.7181808115335
 31
0.0
  0
LINE
  5
70D
330
1F
100
AcDbEntity
  8
CLASS1
  6
CONTINUOUS
 62
     0
100
AcDbLine
 10
164.2741338041099
 20
406.7181808115335
 30
0.0
 11
162.5741338041098
 21
406.7181808115335
 31
0.0
  0
LINE
  5
70E
330
1F
100
AcDbEntity
  8
CLASS1
  6
CONTINUOUS
 62
     0
100
AcDbLine
 10
165.8741338041097
 20
405.3181808115335
 30
0.0
 11
162.5741338041098
 21
405.3181808115335
 31
0.0
  0
LINE
  5
70F
330
1F
100
AcDbEntity
  8
CLASS1
  6
CONTINUOUS
 62
     0
100
AcDbLine
 10
165.8741338041097
 20
404.1181808115336
 30
0.0
 11
162.5741338041098
 21
404.1181808115336
 31
0.0
  0
LINE
  5
710
330
1F
100
AcDbEntity
  8
CLASS1
  6
CONTINUOUS
 62
     0
100
AcDbLine
 10
164.2991338041097
 20
402.7181808115335
 30
0.0
 11
162.5741338041098
 21
402.7181808115335
 31
0.0
  0
ARC
  5
711
330
1F
100
AcDbEntity
  8
CLASS1
  6
CONTINUOUS
 62
     0
100
AcDbCircle
 10
167.3741338041095
 20
401.2181808115335
 30
0.0
 40
0.5
100
AcDbArc
 50
270.0
 51
0.0
  0
ARC
  5
712
330
1F
100
AcDbEntity
  8
CLASS1
  6
CONTINUOUS
 62
     0
100
AcDbCircle
 10
166.3741338041095
 20
401.2181808115335
 30
0.0
 40
0.5
100
AcDbArc
 50
180.0
 51
270.0
  0
LINE
  5
713
330
1F
100
AcDbEntity
  8
CLASS1
  6
CONTINUOUS
 62
     0
100
AcDbLine
 10
164.7991338041097
 20
399.8181808115334
 30
0.0
 11
164.2991338041097
 21
399.8181808115334
 31
0.0
  0
LINE
  5
714
330
1F
100
AcDbEntity
  8
CLASS1
  6
CONTINUOUS
 62
     0
100
AcDbLine
 10
164.2991338041097
 20
399.8181808115334
 30
0.0
 11
164.2991338041097
 21
402.7181808115335
 31
0.0
  0
LINE
  5
715
330
1F
100
AcDbEntity
  8
CLASS1
  6
CONTINUOUS
 62
     0
100
AcDbLine
 10
164.7991338041097
 20
398.5681808115334
 30
0.0
 11
164.7991338041097
 21
399.8181808115334
 31
0.0
  0
LINE
  5
716
330
1F
100
AcDbEntity
  8
CLASS1
  6
CONTINUOUS
 62
     0
100
AcDbLine
 10
167.3741338041097
 20
400.7181808115335
 30
0.0
 11
166.3741338041097
 21
400.7181808115335
 31
0.0
  0
LINE
  5
717
330
1F
100
AcDbEntity
  8
CLASS1
  6
CONTINUOUS
 62
     0
100
AcDbLine
 10
162.4741338041097
 20
395.7181808115335
 30
0.0
 11
162.4741338041097
 21
396.7181808115335
 31
0.0
  0
LINE
  5
718
330
1F
100
AcDbEntity
  8
CLASS1
  6
CONTINUOUS
 62
     0
100
AcDbLine
 10
162.4741338041097
 20
419.7181808115336
 30
0.0
 11
162.4741338041097
 21
421.7181808115335
 31
0.0
  0
LINE
  5
719
330
1F
100
AcDbEntity
  8
CLASS1
  6
CONTINUOUS
 62
     0
100
AcDbLine
 10
162.4741338041097
 20
415.7181808115335
 30
0.0
 11
162.4741338041097
 21
417.7181808115335
 31
0.0
  0
LINE
  5
71A
330
1F
100
AcDbEntity
  8
CLASS1
  6
CONTINUOUS
 62
     0
100
AcDbLine
 10
162.4741338041097
 20
412.7181808115335
 30
0.0
 11
162.4741338041097
 21
413.7181808115335
 31
0.0
  0
ARC
  5
71B
330
1F
100
AcDbEntity
  8
CLASS1
  6
CONTINUOUS
 62
     0
100
AcDbCircle
 10
167.3741338041095
 20
408.2181808115335
 30
0.0
 40
0.5
100
AcDbArc
 50
0.0
 51
90.0
  0
LINE
  5
71C
330
1F
100
AcDbEntity
  8
CLASS1
  6
CONTINUOUS
 62
     0
100
AcDbLine
 10
167.3741338041097
 20
408.7181808115335
 30
0.0
 11
166.3741338041097
 21
408.7181808115335
 31
0.0
  0
LINE
  5
71D
330
1F
100
AcDbEntity
  8
CLASS1
  6
CONTINUOUS
 62
     0
100
AcDbLine
 10
164.7991338041097
 20
409.6181808115336
 30
0.0
 11
164.2741338041099
 21
409.6181808115336
 31
0.0
  0
LINE
  5
71E
330
1F
100
AcDbEntity
  8
CLASS1
  6
CONTINUOUS
 62
     0
100
AcDbLine
 10
164.7991338041097
 20
409.6181808115336
 30
0.0
 11
164.7991338041097
 21
410.8681808115336
 31
0.0
  0
ARC
  5
71F
330
1F
100
AcDbEntity
  8
CLASS1
  6
CONTINUOUS
 62
     0
100
AcDbCircle
 10
166.3741338041095
 20
408.2181808115335
 30
0.0
 40
0.5
100
AcDbArc
 50
90.0
 51
180.0
  0
LINE
  5
720
330
1F
100
AcDbEntity
  8
CLASS1
  6
CONTINUOUS
 62
     0
100
AcDbLine
 10
162.4741338041097
 20
429.7181808115335
 30
0.0
 11
174.4741338041096
 21
429.7181808115335
 31
0.0
  0
LINE
  5
721
330
1F
100
AcDbEntity
  8
CLASS1
  6
CONTINUOUS
 62
     0
100
AcDbLine
 10
174.4741338041096
 20
427.7181808115336
 30
0.0
 11
162.4741338041097
 21
427.7181808115336
 31
0.0
  0
LINE
  5
722
330
1F
100
AcDbEntity
  8
CLASS1
  6
CONTINUOUS
 62
     0
100
AcDbLine
 10
162.4741338041097
 20
425.7181808115335
 30
0.0
 11
174.4741338041096
 21
425.7181808115335
 31
0.0
  0
LINE
  5
723
330
1F
100
AcDbEntity
  8
CLASS1
  6
CONTINUOUS
 62
     0
100
AcDbLine
 10
174.4741338041096
 20
423.7181808115336
 30
0.0
 11
162.4741338041097
 21
423.7181808115336
 31
0.0
  0
LINE
  5
724
330
1F
100
AcDbEntity
  8
CLASS1
  6
CONTINUOUS
 62
     0
100
AcDbLine
 10
174.4741338041096
 20
429.7181808115335
 30
0.0
 11
174.4741338041096
 21
427.7181808115336
 31
0.0
  0
LINE
  5
725
330
1F
100
AcDbEntity
  8
CLASS1
  6
CONTINUOUS
 62
     0
100
AcDbLine
 10
174.4741338041096
 20
425.7181808115335
 30
0.0
 11
174.4741338041096
 21
423.7181808115336
 31
0.0
  0
LINE
  5
726
330
1F
100
AcDbEntity
  8
CLASS1
  6
CONTINUOUS
 62
     0
100
AcDbLine
 10
162.4741338041097
 20
427.7181808115336
 30
0.0
 11
162.4741338041097
 21
429.7181808115335
 31
0.0
  0
LINE
  5
727
330
1F
100
AcDbEntity
  8
CLASS1
  6
CONTINUOUS
 62
     0
100
AcDbLine
 10
162.4741338041097
 20
423.7181808115336
 30
0.0
 11
162.4741338041097
 21
425.7181808115335
 31
0.0
  0
ARC
  5
728
330
1F
100
AcDbEntity
  8
CLASS1
  6
CONTINUOUS
 62
     0
100
AcDbCircle
 10
151.9736148041096
 20
435.3181808115334
 30
0.0
 40
1.0
100
AcDbArc
 50
90.0
 51
180.8823590000053
  0
LINE
  5
729
330
1F
100
AcDbEntity
  8
CLASS1
  6
CONTINUOUS
 62
     0
100
AcDbLine
 10
152.9739248041098
 20
435.3181808115334
 30
0.0
 11
152.9739248041098
 21
436.3181808115334
 31
0.0
  0
LINE
  5
72A
330
1F
100
AcDbEntity
  8
CLASS1
  6
CONTINUOUS
 62
     0
100
AcDbLine
 10
152.9739248041098
 20
436.3181808115334
 30
0.0
 11
151.9736148041097
 21
436.3181808115334
 31
0.0
  0
LINE
  5
72B
330
1F
100
AcDbEntity
  8
0
100
AcDbLine
 10
174.3743419314503
 20
231.8071259893905
 30
0.0
 11
174.3743419314503
 21
143.8331389893904
 31
0.0
  0
LINE
  5
72C
330
1F
100
AcDbEntity
  8
0
100
AcDbLine
 10
161.0743419314503
 20
225.6571259893904
 30
0.0
 11
161.0743419314503
 21
211.6571259893904
 31
0.0
  0
LINE
  5
72D
330
1F
100
AcDbEntity
  8
0
100
AcDbLine
 10
160.5743419314503
 20
226.1331389893904
 30
0.0
 11
160.5743419314503
 21
211.1331389893904
 31
0.0
  0
LINE
  5
72E
330
1F
100
AcDbEntity
  8
0
100
AcDbLine
 10
173.8743419314503
 20
211.6571259893904
 30
0.0
 11
173.8743419314503
 21
225.6571259893904
 31
0.0
  0
LINE
  5
72F
330
1F
100
AcDbEntity
  8
0
100
AcDbLine
 10
168.5043419314503
 20
155.8131379893903
 30
0.0
 11
168.5043419314503
 21
152.0031379893902
 31
0.0
  0
LINE
  5
730
330
1F
100
AcDbEntity
  8
0
100
AcDbLine
 10
173.3743419314503
 20
173.5531379893904
 30
0.0
 11
173.3743419314503
 21
144.4931379893902
 31
0.0
  0
LINE
  5
731
330
1F
100
AcDbEntity
  8
0
100
AcDbLine
 10
160.1743419314503
 20
143.8331389893904
 30
0.0
 11
160.1743419314503
 21
173.7331389893905
 31
0.0
  0
ARC
  5
732
330
1F
100
AcDbEntity
  8
0
100
AcDbCircle
 10
165.4743419314502
 20
153.9081379893904
 30
0.0
 40
0.85
100
AcDbArc
 50
0.0
 51
323.269604999998
  0
LINE
  5
733
330
1F
100
AcDbEntity
  8
0
100
AcDbLine
 10
160.6743419314503
 20
152.3431379893903
 30
0.0
 11
160.6743419314503
 21
155.4431379893902
 31
0.0
  0
LINE
  5
734
330
1F
100
AcDbEntity
  8
0
100
AcDbLine
 10
161.3243419314503
 20
155.7431379893902
 30
0.0
 11
161.3243419314503
 21
152.9431379893902
 31
0.0
  0
LINE
  5
735
330
1F
100
AcDbEntity
  8
0
100
AcDbLine
 10
162.5243419314502
 20
152.9431379893902
 30
0.0
 11
162.5243419314502
 21
155.7431379893902
 31
0.0
  0
LINE
  5
736
330
1F
100
AcDbEntity
  8
0
100
AcDbLine
 10
163.1743419314503
 20
152.3431379893903
 30
0.0
 11
163.1743419314503
 21
155.0431379893904
 31
0.0
  0
LINE
  5
737
330
1F
100
AcDbEntity
  8
0
100
AcDbLine
 10
163.3243419314503
 20
155.0431379893904
 30
0.0
 11
163.3243419314503
 21
152.0031379893902
 31
0.0
  0
CIRCLE
  5
738
330
1F
100
AcDbEntity
  8
0
100
AcDbCircle
 10
165.4743419314502
 20
153.9081379893904
 30
0.0
 40
1.564999999999999
  0
LINE
  5
739
330
1F
100
AcDbEntity
  8
0
100
AcDbLine
 10
163.8243419314503
 20
152.0031379893902
 30
0.0
 11
167.5443419314503
 21
152.0031379893902
 31
0.0
  0
LINE
  5
73A
330
1F
100
AcDbEntity
  8
0
100
AcDbLine
 10
163.8243419314503
 20
152.0031379893902
 30
0.0
 11
168.3043419314503
 21
152.0031379893902
 31
0.0
  0
LINE
  5
73B
330
1F
100
AcDbEntity
  8
0
100
AcDbLine
 10
163.8243419314503
 20
144.3831379893903
 30
0.0
 11
168.3043419314503
 21
144.3831379893903
 31
0.0
  0
LINE
  5
73C
330
1F
100
AcDbEntity
  8
0
100
AcDbLine
 10
163.8243419314503
 20
148.1931379893902
 30
0.0
 11
167.5443419314503
 21
148.1931379893902
 31
0.0
  0
LINE
  5
73D
330
1F
100
AcDbEntity
  8
0
100
AcDbLine
 10
163.8243419314503
 20
148.1931379893902
 30
0.0
 11
168.3043419314503
 21
148.1931379893902
 31
0.0
  0
LINE
  5
73E
330
1F
100
AcDbEntity
  8
0
100
AcDbLine
 10
160.1743419314503
 20
143.8331389893904
 30
0.0
 11
174.3743419314503
 21
143.8331389893904
 31
0.0
  0
ARC
  5
73F
330
1F
100
AcDbEntity
  8
0
100
AcDbCircle
 10
160.9743419314502
 20
151.6331379893903
 30
0.0
 40
0.3
100
AcDbArc
 50
90.0
 51
180.0
  0
LINE
  5
740
330
1F
100
AcDbEntity
  8
0
100
AcDbLine
 10
163.3243419314503
 20
152.0031379893902
 30
0.0
 11
163.3243419314503
 21
151.9331379893902
 31
0.0
  0
ARC
  5
741
330
1F
100
AcDbEntity
  8
0
100
AcDbCircle
 10
165.4743419314502
 20
150.0981379893902
 30
0.0
 40
0.85
100
AcDbArc
 50
0.0
 51
323.269604999998
  0
ARC
  5
742
330
1F
100
AcDbEntity
  8
0
100
AcDbCircle
 10
165.4743419314502
 20
146.2881379893902
 30
0.0
 40
0.85
100
AcDbArc
 50
0.0
 51
323.269604999998
  0
LINE
  5
743
330
1F
100
AcDbEntity
  8
0
100
AcDbLine
 10
163.3243419314503
 20
147.4231379893902
 30
0.0
 11
163.3243419314503
 21
144.3831379893903
 31
0.0
  0
LINE
  5
744
330
1F
100
AcDbEntity
  8
0
100
AcDbLine
 10
163.1743419314503
 20
144.7231379893902
 30
0.0
 11
163.1743419314503
 21
147.4231379893902
 31
0.0
  0
LINE
  5
745
330
1F
100
AcDbEntity
  8
0
100
AcDbLine
 10
160.6743419314503
 20
144.7231379893902
 30
0.0
 11
160.6743419314503
 21
147.8231379893903
 31
0.0
  0
ARC
  5
746
330
1F
100
AcDbEntity
  8
0
100
AcDbCircle
 10
162.2243419314502
 20
145.3231379893903
 30
0.0
 40
0.3
100
AcDbArc
 50
270.0
 51
0.0
  0
ARC
  5
747
330
1F
100
AcDbEntity
  8
0
100
AcDbCircle
 10
161.6243419314503
 20
145.3231379893903
 30
0.0
 40
0.3
100
AcDbArc
 50
180.0
 51
270.0
  0
LINE
  5
748
330
1F
100
AcDbEntity
  8
0
100
AcDbLine
 10
163.8243419314503
 20
144.3831379893903
 30
0.0
 11
163.3243419314503
 21
144.3831379893903
 31
0.0
  0
LINE
  5
749
330
1F
100
AcDbEntity
  8
0
100
AcDbLine
 10
162.7743419314503
 20
144.4231379893902
 30
0.0
 11
162.8743419314503
 21
144.4231379893902
 31
0.0
  0
LINE
  5
74A
330
1F
100
AcDbEntity
  8
0
100
AcDbLine
 10
161.6243419314503
 20
145.0231379893904
 30
0.0
 11
162.2243419314502
 21
145.0231379893904
 31
0.0
  0
LINE
  5
74B
330
1F
100
AcDbEntity
  8
0
100
AcDbLine
 10
163.8243419314503
 20
152.0031379893902
 30
0.0
 11
163.3243419314503
 21
152.0031379893902
 31
0.0
  0
ARC
  5
74C
330
1F
100
AcDbEntity
  8
0
100
AcDbCircle
 10
161.6243419314503
 20
152.9431379893902
 30
0.0
 40
0.3
100
AcDbArc
 50
180.0
 51
270.0
  0
ARC
  5
74D
330
1F
100
AcDbEntity
  8
0
100
AcDbCircle
 10
160.9743419314502
 20
152.3431379893903
 30
0.0
 40
0.3
100
AcDbArc
 50
180.0
 51
270.0
  0
ARC
  5
74E
330
1F
100
AcDbEntity
  8
0
100
AcDbCircle
 10
162.8743419314503
 20
152.3431379893903
 30
0.0
 40
0.3
100
AcDbArc
 50
270.0
 51
0.0
  0
ARC
  5
74F
330
1F
100
AcDbEntity
  8
0
100
AcDbCircle
 10
162.2243419314502
 20
152.9431379893902
 30
0.0
 40
0.3
100
AcDbArc
 50
270.0
 51
0.0
  0
LINE
  5
750
330
1F
100
AcDbEntity
  8
0
100
AcDbLine
 10
160.9743419314502
 20
152.0431379893904
 30
0.0
 11
161.0743419314503
 21
152.0431379893904
 31
0.0
  0
LINE
  5
751
330
1F
100
AcDbEntity
  8
0
100
AcDbLine
 10
161.0743419314503
 20
152.0431379893904
 30
0.0
 11
162.7743419314503
 21
152.0431379893904
 31
0.0
  0
LINE
  5
752
330
1F
100
AcDbEntity
  8
0
100
AcDbLine
 10
161.6243419314503
 20
152.6431379893903
 30
0.0
 11
162.2243419314502
 21
152.6431379893903
 31
0.0
  0
LINE
  5
753
330
1F
100
AcDbEntity
  8
0
100
AcDbLine
 10
162.7743419314503
 20
152.0431379893904
 30
0.0
 11
162.8743419314503
 21
152.0431379893904
 31
0.0
  0
LINE
  5
754
330
1F
100
AcDbEntity
  8
0
100
AcDbLine
 10
163.8243419314503
 20
152.0031379893902
 30
0.0
 11
163.3243419314503
 21
152.0031379893902
 31
0.0
  0
ARC
  5
755
330
1F
100
AcDbEntity
  8
0
100
AcDbCircle
 10
165.4743419314502
 20
153.9081379893904
 30
0.0
 40
0.85
100
AcDbArc
 50
323.269604999998
 51
0.0
  0
LINE
  5
756
330
1F
100
AcDbEntity
  8
0
100
AcDbLine
 10
161.0743419314503
 20
144.4231379893902
 30
0.0
 11
162.7743419314503
 21
144.4231379893902
 31
0.0
  0
LINE
  5
757
330
1F
100
AcDbEntity
  8
0
100
AcDbLine
 10
160.9743419314502
 20
144.4231379893902
 30
0.0
 11
161.0743419314503
 21
144.4231379893902
 31
0.0
  0
ARC
  5
758
330
1F
100
AcDbEntity
  8
0
100
AcDbCircle
 10
162.8743419314503
 20
144.7231379893902
 30
0.0
 40
0.3
100
AcDbArc
 50
270.0
 51
0.0
  0
ARC
  5
759
330
1F
100
AcDbEntity
  8
0
100
AcDbCircle
 10
160.9743419314502
 20
144.7231379893902
 30
0.0
 40
0.3
100
AcDbArc
 50
180.0
 51
270.0
  0
LINE
  5
75A
330
1F
100
AcDbEntity
  8
0
100
AcDbLine
 10
163.3243419314503
 20
151.9331379893902
 30
0.0
 11
163.3243419314503
 21
151.2331379893902
 31
0.0
  0
LINE
  5
75B
330
1F
100
AcDbEntity
  8
0
100
AcDbLine
 10
161.3243419314503
 20
151.9331379893902
 30
0.0
 11
161.3243419314503
 21
149.1331379893903
 31
0.0
  0
LINE
  5
75C
330
1F
100
AcDbEntity
  8
0
100
AcDbLine
 10
163.1743419314503
 20
151.2331379893902
 30
0.0
 11
163.1743419314503
 21
151.9331379893902
 31
0.0
  0
LINE
  5
75D
330
1F
100
AcDbEntity
  8
0
100
AcDbLine
 10
162.5243419314502
 20
149.1331379893903
 30
0.0
 11
162.5243419314502
 21
151.9331379893902
 31
0.0
  0
ARC
  5
75E
330
1F
100
AcDbEntity
  8
0
100
AcDbCircle
 10
161.6243419314503
 20
149.1331379893903
 30
0.0
 40
0.3
100
AcDbArc
 50
180.0
 51
270.0
  0
ARC
  5
75F
330
1F
100
AcDbEntity
  8
0
100
AcDbCircle
 10
162.2243419314502
 20
149.1331379893903
 30
0.0
 40
0.3
100
AcDbArc
 50
270.0
 51
0.0
  0
LINE
  5
760
330
1F
100
AcDbEntity
  8
0
100
AcDbLine
 10
160.9743419314502
 20
148.2331379893902
 30
0.0
 11
161.0743419314503
 21
148.2331379893902
 31
0.0
  0
LINE
  5
761
330
1F
100
AcDbEntity
  8
0
100
AcDbLine
 10
161.0743419314503
 20
148.2331379893902
 30
0.0
 11
162.7743419314503
 21
148.2331379893902
 31
0.0
  0
LINE
  5
762
330
1F
100
AcDbEntity
  8
0
100
AcDbLine
 10
160.6743419314503
 20
148.5331379893904
 30
0.0
 11
160.6743419314503
 21
151.6331379893903
 31
0.0
  0
LINE
  5
763
330
1F
100
AcDbEntity
  8
0
100
AcDbLine
 10
161.6243419314503
 20
148.8331379893903
 30
0.0
 11
162.2243419314502
 21
148.8331379893903
 31
0.0
  0
LINE
  5
764
330
1F
100
AcDbEntity
  8
0
100
AcDbLine
 10
162.7743419314503
 20
148.2331379893902
 30
0.0
 11
162.8743419314503
 21
148.2331379893902
 31
0.0
  0
LINE
  5
765
330
1F
100
AcDbEntity
  8
0
100
AcDbLine
 10
163.1743419314503
 20
151.2331379893902
 30
0.0
 11
163.3243419314503
 21
151.2331379893902
 31
0.0
  0
LINE
  5
766
330
1F
100
AcDbEntity
  8
0
100
AcDbLine
 10
163.1743419314503
 20
148.5331379893904
 30
0.0
 11
163.1743419314503
 21
151.2331379893902
 31
0.0
  0
LINE
  5
767
330
1F
100
AcDbEntity
  8
0
100
AcDbLine
 10
160.9743419314502
 20
151.9331379893902
 30
0.0
 11
161.0743419314503
 21
151.9331379893902
 31
0.0
  0
LINE
  5
768
330
1F
100
AcDbEntity
  8
0
100
AcDbLine
 10
161.6243419314503
 20
151.9331379893902
 30
0.0
 11
162.2243419314502
 21
151.9331379893902
 31
0.0
  0
LINE
  5
769
330
1F
100
AcDbEntity
  8
0
100
AcDbLine
 10
161.0743419314503
 20
151.9331379893902
 30
0.0
 11
161.3243419314503
 21
151.9331379893902
 31
0.0
  0
LINE
  5
76A
330
1F
100
AcDbEntity
  8
0
100
AcDbLine
 10
161.6243419314503
 20
151.9331379893902
 30
0.0
 11
161.3243419314503
 21
151.9331379893902
 31
0.0
  0
LINE
  5
76B
330
1F
100
AcDbEntity
  8
0
100
AcDbLine
 10
162.7743419314503
 20
151.9331379893902
 30
0.0
 11
163.1743419314503
 21
151.9331379893902
 31
0.0
  0
LINE
  5
76C
330
1F
100
AcDbEntity
  8
0
100
AcDbLine
 10
163.1743419314503
 20
151.9331379893902
 30
0.0
 11
163.3243419314503
 21
151.9331379893902
 31
0.0
  0
LINE
  5
76D
330
1F
100
AcDbEntity
  8
0
100
AcDbLine
 10
162.5243419314502
 20
151.9331379893902
 30
0.0
 11
162.7743419314503
 21
151.9331379893902
 31
0.0
  0
LINE
  5
76E
330
1F
100
AcDbEntity
  8
0
100
AcDbLine
 10
162.5243419314502
 20
151.9331379893902
 30
0.0
 11
162.2243419314502
 21
151.9331379893902
 31
0.0
  0
LINE
  5
76F
330
1F
100
AcDbEntity
  8
0
100
AcDbLine
 10
163.3243419314503
 20
148.1931379893902
 30
0.0
 11
163.3243419314503
 21
148.1231379893903
 31
0.0
  0
LINE
  5
770
330
1F
100
AcDbEntity
  8
0
100
AcDbLine
 10
163.3243419314503
 20
148.1231379893903
 30
0.0
 11
163.3243419314503
 21
147.4231379893902
 31
0.0
  0
LINE
  5
771
330
1F
100
AcDbEntity
  8
0
100
AcDbLine
 10
163.8243419314503
 20
148.1931379893902
 30
0.0
 11
163.3243419314503
 21
148.1931379893902
 31
0.0
  0
LINE
  5
772
330
1F
100
AcDbEntity
  8
0
100
AcDbLine
 10
162.5243419314502
 20
148.1231379893903
 30
0.0
 11
162.2243419314502
 21
148.1231379893903
 31
0.0
  0
LINE
  5
773
330
1F
100
AcDbEntity
  8
0
100
AcDbLine
 10
162.5243419314502
 20
148.1231379893903
 30
0.0
 11
162.7743419314503
 21
148.1231379893903
 31
0.0
  0
LINE
  5
774
330
1F
100
AcDbEntity
  8
0
100
AcDbLine
 10
163.1743419314503
 20
148.1231379893903
 30
0.0
 11
163.3243419314503
 21
148.1231379893903
 31
0.0
  0
LINE
  5
775
330
1F
100
AcDbEntity
  8
0
100
AcDbLine
 10
162.7743419314503
 20
148.1231379893903
 30
0.0
 11
163.1743419314503
 21
148.1231379893903
 31
0.0
  0
LINE
  5
776
330
1F
100
AcDbEntity
  8
0
100
AcDbLine
 10
162.5243419314502
 20
145.3231379893903
 30
0.0
 11
162.5243419314502
 21
148.1231379893903
 31
0.0
  0
LINE
  5
777
330
1F
100
AcDbEntity
  8
0
100
AcDbLine
 10
163.1743419314503
 20
147.4231379893902
 30
0.0
 11
163.3243419314503
 21
147.4231379893902
 31
0.0
  0
LINE
  5
778
330
1F
100
AcDbEntity
  8
0
100
AcDbLine
 10
163.1743419314503
 20
147.4231379893902
 30
0.0
 11
163.1743419314503
 21
148.1231379893903
 31
0.0
  0
LINE
  5
779
330
1F
100
AcDbEntity
  8
0
100
AcDbLine
 10
161.6243419314503
 20
148.1231379893903
 30
0.0
 11
161.3243419314503
 21
148.1231379893903
 31
0.0
  0
LINE
  5
77A
330
1F
100
AcDbEntity
  8
0
100
AcDbLine
 10
161.0743419314503
 20
148.1231379893903
 30
0.0
 11
161.3243419314503
 21
148.1231379893903
 31
0.0
  0
LINE
  5
77B
330
1F
100
AcDbEntity
  8
0
100
AcDbLine
 10
161.3243419314503
 20
148.1231379893903
 30
0.0
 11
161.3243419314503
 21
145.3231379893903
 31
0.0
  0
LINE
  5
77C
330
1F
100
AcDbEntity
  8
0
100
AcDbLine
 10
161.6243419314503
 20
148.1231379893903
 30
0.0
 11
162.2243419314502
 21
148.1231379893903
 31
0.0
  0
LINE
  5
77D
330
1F
100
AcDbEntity
  8
0
100
AcDbLine
 10
160.9743419314502
 20
148.1231379893903
 30
0.0
 11
161.0743419314503
 21
148.1231379893903
 31
0.0
  0
ARC
  5
77E
330
1F
100
AcDbEntity
  8
0
100
AcDbCircle
 10
160.9743419314502
 20
147.8231379893903
 30
0.0
 40
0.3
100
AcDbArc
 50
90.0
 51
180.0
  0
LINE
  5
77F
330
1F
100
AcDbEntity
  8
0
100
AcDbLine
 10
163.8243419314503
 20
148.1931379893902
 30
0.0
 11
163.3243419314503
 21
148.1931379893902
 31
0.0
  0
LINE
  5
780
330
1F
100
AcDbEntity
  8
0
100
AcDbLine
 10
163.3243419314503
 20
151.2331379893902
 30
0.0
 11
163.3243419314503
 21
148.1931379893902
 31
0.0
  0
ARC
  5
781
330
1F
100
AcDbEntity
  8
0
100
AcDbCircle
 10
160.9743419314502
 20
148.5331379893904
 30
0.0
 40
0.3
100
AcDbArc
 50
180.0
 51
270.0
  0
ARC
  5
782
330
1F
100
AcDbEntity
  8
0
100
AcDbCircle
 10
162.8743419314503
 20
148.5331379893904
 30
0.0
 40
0.3
100
AcDbArc
 50
270.0
 51
0.0
  0
ARC
  5
783
330
1F
100
AcDbEntity
  8
0
100
AcDbCircle
 10
165.4743419314502
 20
150.0981379893902
 30
0.0
 40
0.85
100
AcDbArc
 50
323.269604999998
 51
0.0
  0
ARC
  5
784
330
1F
100
AcDbEntity
  8
0
100
AcDbCircle
 10
165.4743419314502
 20
146.2881379893902
 30
0.0
 40
0.85
100
AcDbArc
 50
323.269604999998
 51
0.0
  0
CIRCLE
  5
785
330
1F
100
AcDbEntity
  8
0
100
AcDbCircle
 10
165.4743419314502
 20
150.0981379893902
 30
0.0
 40
1.564999999999999
  0
CIRCLE
  5
786
330
1F
100
AcDbEntity
  8
0
100
AcDbCircle
 10
165.4743419314502
 20
146.2881379893902
 30
0.0
 40
1.564999999999999
  0
LINE
  5
787
330
1F
100
AcDbEntity
  8
0
100
AcDbLine
 10
173.3743419314503
 20
152.0031379893902
 30
0.0
 11
172.8743419314503
 21
152.0031379893902
 31
0.0
  0
LINE
  5
788
330
1F
100
AcDbEntity
  8
0
100
AcDbLine
 10
173.3743419314503
 20
152.0031379893902
 30
0.0
 11
172.8743419314503
 21
152.0031379893902
 31
0.0
  0
LINE
  5
789
330
1F
100
AcDbEntity
  8
0
100
AcDbLine
 10
167.5443419314503
 20
152.0031379893902
 30
0.0
 11
168.3043419314503
 21
152.0031379893902
 31
0.0
  0
LINE
  5
78A
330
1F
100
AcDbEntity
  8
0
100
AcDbLine
 10
168.5043419314503
 20
152.0031379893902
 30
0.0
 11
168.3043419314503
 21
152.0031379893902
 31
0.0
  0
LINE
  5
78B
330
1F
100
AcDbEntity
  8
0
100
AcDbLine
 10
169.0743419314503
 20
152.0031379893902
 30
0.0
 11
170.4743419314502
 21
152.0031379893902
 31
0.0
  0
LINE
  5
78C
330
1F
100
AcDbEntity
  8
0
100
AcDbLine
 10
168.9443419314503
 20
152.0031379893902
 30
0.0
 11
169.0743419314503
 21
152.0031379893902
 31
0.0
  0
LINE
  5
78D
330
1F
100
AcDbEntity
  8
0
100
AcDbLine
 10
168.5043419314503
 20
152.0031379893902
 30
0.0
 11
168.9443419314503
 21
152.0031379893902
 31
0.0
  0
LINE
  5
78E
330
1F
100
AcDbEntity
  8
0
100
AcDbLine
 10
168.5043419314503
 20
152.0031379893902
 30
0.0
 11
168.3043419314503
 21
152.0031379893902
 31
0.0
  0
LINE
  5
78F
330
1F
100
AcDbEntity
  8
0
100
AcDbLine
 10
170.4743419314502
 20
152.0031379893902
 30
0.0
 11
172.8743419314503
 21
152.0031379893902
 31
0.0
  0
LINE
  5
790
330
1F
100
AcDbEntity
  8
0
100
AcDbLine
 10
168.5043419314503
 20
152.0031379893902
 30
0.0
 11
172.8743419314503
 21
152.0031379893902
 31
0.0
  0
LINE
  5
791
330
1F
100
AcDbEntity
  8
0
100
AcDbLine
 10
173.3743419314503
 20
153.4131379893902
 30
0.0
 11
173.8743419314503
 21
153.4131379893902
 31
0.0
  0
LINE
  5
792
330
1F
100
AcDbEntity
  8
0
100
AcDbLine
 10
173.3743419314503
 20
152.1131379893903
 30
0.0
 11
173.8743419314503
 21
152.1131379893903
 31
0.0
  0
LINE
  5
793
330
1F
100
AcDbEntity
  8
0
100
AcDbLine
 10
173.8743419314503
 20
153.4131379893902
 30
0.0
 11
173.8743419314503
 21
153.0131379893902
 31
0.0
  0
LINE
  5
794
330
1F
100
AcDbEntity
  8
0
100
AcDbLine
 10
173.8743419314503
 20
153.0131379893902
 30
0.0
 11
173.8743419314503
 21
152.5131379893902
 31
0.0
  0
LINE
  5
795
330
1F
100
AcDbEntity
  8
0
100
AcDbLine
 10
173.8743419314503
 20
152.5131379893902
 30
0.0
 11
173.8743419314503
 21
152.1131379893903
 31
0.0
  0
LINE
  5
796
330
1F
100
AcDbEntity
  8
0
100
AcDbLine
 10
173.3743419314503
 20
152.1131379893903
 30
0.0
 11
173.3743419314503
 21
152.0031379893902
 31
0.0
  0
LINE
  5
797
330
1F
100
AcDbEntity
  8
0
100
AcDbLine
 10
168.5043419314503
 20
152.0031379893902
 30
0.0
 11
168.5043419314503
 21
148.1931379893902
 31
0.0
  0
LINE
  5
798
330
1F
100
AcDbEntity
  8
0
100
AcDbLine
 10
173.8743419314503
 20
145.3931379893903
 30
0.0
 11
173.8743419314503
 21
144.8931379893903
 31
0.0
  0
LINE
  5
799
330
1F
100
AcDbEntity
  8
0
100
AcDbLine
 10
168.5043419314503
 20
148.1931379893902
 30
0.0
 11
168.5043419314503
 21
144.3831379893903
 31
0.0
  0
LINE
  5
79A
330
1F
100
AcDbEntity
  8
0
100
AcDbLine
 10
173.3743419314503
 20
144.3831379893903
 30
0.0
 11
172.8743419314503
 21
144.3831379893903
 31
0.0
  0
LINE
  5
79B
330
1F
100
AcDbEntity
  8
0
100
AcDbLine
 10
168.5043419314503
 20
144.3831379893903
 30
0.0
 11
168.3043419314503
 21
144.3831379893903
 31
0.0
  0
LINE
  5
79C
330
1F
100
AcDbEntity
  8
0
100
AcDbLine
 10
168.5043419314503
 20
144.3831379893903
 30
0.0
 11
172.8743419314503
 21
144.3831379893903
 31
0.0
  0
LINE
  5
79D
330
1F
100
AcDbEntity
  8
0
100
AcDbLine
 10
173.3743419314503
 20
144.4931379893902
 30
0.0
 11
173.3743419314503
 21
144.3831379893903
 31
0.0
  0
LINE
  5
79E
330
1F
100
AcDbEntity
  8
0
100
AcDbLine
 10
173.8743419314503
 20
144.8931379893903
 30
0.0
 11
173.8743419314503
 21
144.4931379893902
 31
0.0
  0
LINE
  5
79F
330
1F
100
AcDbEntity
  8
0
100
AcDbLine
 10
173.3743419314503
 20
144.4931379893902
 30
0.0
 11
173.8743419314503
 21
144.4931379893902
 31
0.0
  0
LINE
  5
7A0
330
1F
100
AcDbEntity
  8
0
100
AcDbLine
 10
173.3743419314503
 20
148.1931379893902
 30
0.0
 11
172.8743419314503
 21
148.1931379893902
 31
0.0
  0
LINE
  5
7A1
330
1F
100
AcDbEntity
  8
0
100
AcDbLine
 10
173.3743419314503
 20
148.1931379893902
 30
0.0
 11
172.8743419314503
 21
148.1931379893902
 31
0.0
  0
LINE
  5
7A2
330
1F
100
AcDbEntity
  8
0
100
AcDbLine
 10
167.5443419314503
 20
148.1931379893902
 30
0.0
 11
168.3043419314503
 21
148.1931379893902
 31
0.0
  0
LINE
  5
7A3
330
1F
100
AcDbEntity
  8
0
100
AcDbLine
 10
168.5043419314503
 20
148.1931379893902
 30
0.0
 11
168.9443419314503
 21
148.1931379893902
 31
0.0
  0
LINE
  5
7A4
330
1F
100
AcDbEntity
  8
0
100
AcDbLine
 10
168.9443419314503
 20
148.1931379893902
 30
0.0
 11
169.0743419314503
 21
148.1931379893902
 31
0.0
  0
LINE
  5
7A5
330
1F
100
AcDbEntity
  8
0
100
AcDbLine
 10
169.0743419314503
 20
148.1931379893902
 30
0.0
 11
170.4743419314502
 21
148.1931379893902
 31
0.0
  0
LINE
  5
7A6
330
1F
100
AcDbEntity
  8
0
100
AcDbLine
 10
168.5043419314503
 20
148.1931379893902
 30
0.0
 11
168.3043419314503
 21
148.1931379893902
 31
0.0
  0
LINE
  5
7A7
330
1F
100
AcDbEntity
  8
0
100
AcDbLine
 10
168.5043419314503
 20
148.1931379893902
 30
0.0
 11
168.3043419314503
 21
148.1931379893902
 31
0.0
  0
LINE
  5
7A8
330
1F
100
AcDbEntity
  8
0
100
AcDbLine
 10
170.4743419314502
 20
148.1931379893902
 30
0.0
 11
172.8743419314503
 21
148.1931379893902
 31
0.0
  0
LINE
  5
7A9
330
1F
100
AcDbEntity
  8
0
100
AcDbLine
 10
168.5043419314503
 20
148.1931379893902
 30
0.0
 11
172.8743419314503
 21
148.1931379893902
 31
0.0
  0
LINE
  5
7AA
330
1F
100
AcDbEntity
  8
0
100
AcDbLine
 10
173.3743419314503
 20
149.6031379893903
 30
0.0
 11
173.8743419314503
 21
149.6031379893903
 31
0.0
  0
LINE
  5
7AB
330
1F
100
AcDbEntity
  8
0
100
AcDbLine
 10
173.3743419314503
 20
148.3031379893903
 30
0.0
 11
173.8743419314503
 21
148.3031379893903
 31
0.0
  0
LINE
  5
7AC
330
1F
100
AcDbEntity
  8
0
100
AcDbLine
 10
173.8743419314503
 20
149.6031379893903
 30
0.0
 11
173.8743419314503
 21
149.2031379893902
 31
0.0
  0
LINE
  5
7AD
330
1F
100
AcDbEntity
  8
0
100
AcDbLine
 10
173.8743419314503
 20
149.2031379893902
 30
0.0
 11
173.8743419314503
 21
148.7031379893902
 31
0.0
  0
LINE
  5
7AE
330
1F
100
AcDbEntity
  8
0
100
AcDbLine
 10
173.8743419314503
 20
148.7031379893902
 30
0.0
 11
173.8743419314503
 21
148.3031379893903
 31
0.0
  0
LINE
  5
7AF
330
1F
100
AcDbEntity
  8
0
100
AcDbLine
 10
173.8743419314503
 20
145.7931379893904
 30
0.0
 11
173.8743419314503
 21
145.3931379893903
 31
0.0
  0
LINE
  5
7B0
330
1F
100
AcDbEntity
  8
0
100
AcDbLine
 10
173.3743419314503
 20
145.7931379893904
 30
0.0
 11
173.8743419314503
 21
145.7931379893904
 31
0.0
  0
LINE
  5
7B1
330
1F
100
AcDbEntity
  8
0
100
AcDbLine
 10
173.3743419314503
 20
148.3031379893903
 30
0.0
 11
173.3743419314503
 21
148.1931379893902
 31
0.0
  0
LINE
  5
7B2
330
1F
100
AcDbEntity
  8
0
100
AcDbLine
 10
169.2951769314503
 20
189.2531379893902
 30
0.0
 11
169.2951769314503
 21
186.2531379893902
 31
0.0
  0
LINE
  5
7B3
330
1F
100
AcDbEntity
  8
0
100
AcDbLine
 10
171.2600989314503
 20
189.2531379893902
 30
0.0
 11
171.2600989314503
 21
186.2531379893902
 31
0.0
  0
LINE
  5
7B4
330
1F
100
AcDbEntity
  8
0
100
AcDbLine
 10
166.8743419314503
 20
185.2531379893902
 30
0.0
 11
166.8743419314503
 21
190.2531379893902
 31
0.0
  0
LINE
  5
7B5
330
1F
100
AcDbEntity
  8
0
100
AcDbLine
 10
166.3743419314503
 20
185.0331389893905
 30
0.0
 11
166.3743419314503
 21
190.7331389893905
 31
0.0
  0
LINE
  5
7B6
330
1F
100
AcDbEntity
  8
0
100
AcDbLine
 10
173.8743419314503
 20
190.2531379893902
 30
0.0
 11
173.8743419314503
 21
185.2531379893902
 31
0.0
  0
LINE
  5
7B7
330
1F
100
AcDbEntity
  8
0
100
AcDbLine
 10
171.4743419314488
 20
174.8031379893894
 30
0.0
 11
160.074341931451
 21
174.8031379893894
 31
0.0
  0
LINE
  5
7B8
330
1F
100
AcDbEntity
  8
0
100
AcDbLine
 10
160.074341931451
 20
184.0031379893902
 30
0.0
 11
171.4743419314488
 21
184.0031379893883
 31
0.0
  0
LINE
  5
7B9
330
1F
100
AcDbEntity
  8
0
100
AcDbLine
 10
159.6951740106394
 20
174.3031379893894
 30
0.0
 11
171.8743419314503
 21
174.3031379893894
 31
0.0
  0
LINE
  5
7BA
330
1F
100
AcDbEntity
  8
0
100
AcDbLine
 10
159.6951740106394
 20
184.5031379893883
 30
0.0
 11
171.8743419314503
 21
184.5031379893883
 31
0.0
  0
LINE
  5
7BB
330
1F
100
AcDbEntity
  8
0
100
AcDbLine
 10
166.8743419314503
 20
185.2531379893902
 30
0.0
 11
173.8743419314503
 21
185.2531379893902
 31
0.0
  0
LINE
  5
7BC
330
1F
100
AcDbEntity
  8
0
100
AcDbLine
 10
173.3743419314503
 20
171.0531379893903
 30
0.0
 11
163.3243419314503
 21
171.0531379893903
 31
0.0
  0
LINE
  5
7BD
330
1F
100
AcDbEntity
  8
0
100
AcDbLine
 10
173.3743419314503
 20
173.5531379893904
 30
0.0
 11
163.3243419314503
 21
173.5531379893904
 31
0.0
  0
LINE
  5
7BE
330
1F
100
AcDbEntity
  8
0
100
AcDbLine
 10
163.8243419314503
 20
159.6231379893903
 30
0.0
 11
167.5443419314503
 21
159.6231379893903
 31
0.0
  0
LINE
  5
7BF
330
1F
100
AcDbEntity
  8
0
100
AcDbLine
 10
163.8243419314503
 20
159.6231379893903
 30
0.0
 11
168.3043419314503
 21
159.6231379893903
 31
0.0
  0
LINE
  5
7C0
330
1F
100
AcDbEntity
  8
0
100
AcDbLine
 10
163.8243419314503
 20
155.8131379893903
 30
0.0
 11
168.3043419314503
 21
155.8131379893903
 31
0.0
  0
LINE
  5
7C1
330
1F
100
AcDbEntity
  8
0
100
AcDbLine
 10
163.8243419314503
 20
155.8131379893903
 30
0.0
 11
167.5443419314503
 21
155.8131379893903
 31
0.0
  0
LINE
  5
7C2
330
1F
100
AcDbEntity
  8
0
100
AcDbLine
 10
163.8243419314503
 20
163.4331379893902
 30
0.0
 11
168.3043419314503
 21
163.4331379893902
 31
0.0
  0
LINE
  5
7C3
330
1F
100
AcDbEntity
  8
0
100
AcDbLine
 10
163.8243419314503
 20
163.4331379893902
 30
0.0
 11
167.5443419314503
 21
163.4331379893902
 31
0.0
  0
LINE
  5
7C4
330
1F
100
AcDbEntity
  8
0
100
AcDbLine
 10
163.8243419314503
 20
167.2431379893902
 30
0.0
 11
168.3043419314503
 21
167.2431379893902
 31
0.0
  0
LINE
  5
7C5
330
1F
100
AcDbEntity
  8
0
100
AcDbLine
 10
163.8243419314503
 20
167.2431379893902
 30
0.0
 11
167.5443419314503
 21
167.2431379893902
 31
0.0
  0
LINE
  5
7C6
330
1F
100
AcDbEntity
  8
0
100
AcDbLine
 10
163.3243419314503
 20
171.0531379893903
 30
0.0
 11
163.3243419314503
 21
173.5531379893904
 31
0.0
  0
LINE
  5
7C7
330
1F
100
AcDbEntity
  8
0
100
AcDbLine
 10
163.3243419314503
 20
170.9831379893902
 30
0.0
 11
163.3243419314503
 21
170.2831379893904
 31
0.0
  0
LINE
  5
7C8
330
1F
100
AcDbEntity
  8
0
100
AcDbLine
 10
162.5243419314502
 20
170.9831379893902
 30
0.0
 11
162.2243419314502
 21
170.9831379893902
 31
0.0
  0
LINE
  5
7C9
330
1F
100
AcDbEntity
  8
0
100
AcDbLine
 10
162.5243419314502
 20
170.9831379893902
 30
0.0
 11
162.7743419314503
 21
170.9831379893902
 31
0.0
  0
LINE
  5
7CA
330
1F
100
AcDbEntity
  8
0
100
AcDbLine
 10
163.1743419314503
 20
170.9831379893902
 30
0.0
 11
163.3243419314503
 21
170.9831379893902
 31
0.0
  0
LINE
  5
7CB
330
1F
100
AcDbEntity
  8
0
100
AcDbLine
 10
162.7743419314503
 20
170.9831379893902
 30
0.0
 11
163.1743419314503
 21
170.9831379893902
 31
0.0
  0
LINE
  5
7CC
330
1F
100
AcDbEntity
  8
0
100
AcDbLine
 10
163.1743419314503
 20
170.2831379893904
 30
0.0
 11
163.3243419314503
 21
170.2831379893904
 31
0.0
  0
LINE
  5
7CD
330
1F
100
AcDbEntity
  8
0
100
AcDbLine
 10
163.1743419314503
 20
170.2831379893904
 30
0.0
 11
163.1743419314503
 21
170.9831379893902
 31
0.0
  0
LINE
  5
7CE
330
1F
100
AcDbEntity
  8
0
100
AcDbLine
 10
161.6243419314503
 20
170.9831379893902
 30
0.0
 11
161.3243419314503
 21
170.9831379893902
 31
0.0
  0
LINE
  5
7CF
330
1F
100
AcDbEntity
  8
0
100
AcDbLine
 10
161.0743419314503
 20
170.9831379893902
 30
0.0
 11
161.3243419314503
 21
170.9831379893902
 31
0.0
  0
LINE
  5
7D0
330
1F
100
AcDbEntity
  8
0
100
AcDbLine
 10
161.6243419314503
 20
170.9831379893902
 30
0.0
 11
162.2243419314502
 21
170.9831379893902
 31
0.0
  0
LINE
  5
7D1
330
1F
100
AcDbEntity
  8
0
100
AcDbLine
 10
160.9743419314502
 20
170.9831379893902
 30
0.0
 11
161.0743419314503
 21
170.9831379893902
 31
0.0
  0
LINE
  5
7D2
330
1F
100
AcDbEntity
  8
0
100
AcDbLine
 10
163.3243419314503
 20
171.0531379893903
 30
0.0
 11
163.3243419314503
 21
170.9831379893902
 31
0.0
  0
ARC
  5
7D3
330
1F
100
AcDbEntity
  8
0
100
AcDbCircle
 10
160.9743419314502
 20
170.6831379893902
 30
0.0
 40
0.3
100
AcDbArc
 50
90.0
 51
180.0
  0
LINE
  5
7D4
330
1F
100
AcDbEntity
  8
0
100
AcDbLine
 10
161.3243419314503
 20
163.3631379893903
 30
0.0
 11
161.3243419314503
 21
160.5631379893903
 31
0.0
  0
LINE
  5
7D5
330
1F
100
AcDbEntity
  8
0
100
AcDbLine
 10
162.5243419314502
 20
160.5631379893903
 30
0.0
 11
162.5243419314502
 21
163.3631379893903
 31
0.0
  0
LINE
  5
7D6
330
1F
100
AcDbEntity
  8
0
100
AcDbLine
 10
160.6743419314503
 20
159.9631379893902
 30
0.0
 11
160.6743419314503
 21
163.0631379893903
 31
0.0
  0
LINE
  5
7D7
330
1F
100
AcDbEntity
  8
0
100
AcDbLine
 10
163.1743419314503
 20
159.9631379893902
 30
0.0
 11
163.1743419314503
 21
162.6631379893902
 31
0.0
  0
LINE
  5
7D8
330
1F
100
AcDbEntity
  8
0
100
AcDbLine
 10
163.3243419314503
 20
162.6631379893902
 30
0.0
 11
163.3243419314503
 21
159.6231379893903
 31
0.0
  0
ARC
  5
7D9
330
1F
100
AcDbEntity
  8
0
100
AcDbCircle
 10
165.4743419314502
 20
157.7181379893903
 30
0.0
 40
0.85
100
AcDbArc
 50
0.0
 51
323.269604999998
  0
ARC
  5
7DA
330
1F
100
AcDbEntity
  8
0
100
AcDbCircle
 10
165.4743419314502
 20
161.5281379893902
 30
0.0
 40
0.85
100
AcDbArc
 50
0.0
 51
323.269604999998
  0
LINE
  5
7DB
330
1F
100
AcDbEntity
  8
0
100
AcDbLine
 10
161.6243419314503
 20
160.2631379893901
 30
0.0
 11
162.2243419314502
 21
160.2631379893901
 31
0.0
  0
LINE
  5
7DC
330
1F
100
AcDbEntity
  8
0
100
AcDbLine
 10
163.1743419314503
 20
156.1531379893903
 30
0.0
 11
163.1743419314503
 21
158.8531379893903
 31
0.0
  0
LINE
  5
7DD
330
1F
100
AcDbEntity
  8
0
100
AcDbLine
 10
162.5243419314502
 20
159.5531379893903
 30
0.0
 11
162.2243419314502
 21
159.5531379893903
 31
0.0
  0
LINE
  5
7DE
330
1F
100
AcDbEntity
  8
0
100
AcDbLine
 10
162.5243419314502
 20
159.5531379893903
 30
0.0
 11
162.7743419314503
 21
159.5531379893903
 31
0.0
  0
LINE
  5
7DF
330
1F
100
AcDbEntity
  8
0
100
AcDbLine
 10
163.1743419314503
 20
159.5531379893903
 30
0.0
 11
163.3243419314503
 21
159.5531379893903
 31
0.0
  0
LINE
  5
7E0
330
1F
100
AcDbEntity
  8
0
100
AcDbLine
 10
162.7743419314503
 20
159.5531379893903
 30
0.0
 11
163.1743419314503
 21
159.5531379893903
 31
0.0
  0
LINE
  5
7E1
330
1F
100
AcDbEntity
  8
0
100
AcDbLine
 10
162.5243419314502
 20
156.7531379893902
 30
0.0
 11
162.5243419314502
 21
159.5531379893903
 31
0.0
  0
LINE
  5
7E2
330
1F
100
AcDbEntity
  8
0
100
AcDbLine
 10
163.1743419314503
 20
158.8531379893903
 30
0.0
 11
163.3243419314503
 21
158.8531379893903
 31
0.0
  0
LINE
  5
7E3
330
1F
100
AcDbEntity
  8
0
100
AcDbLine
 10
163.1743419314503
 20
158.8531379893903
 30
0.0
 11
163.1743419314503
 21
159.5531379893903
 31
0.0
  0
LINE
  5
7E4
330
1F
100
AcDbEntity
  8
0
100
AcDbLine
 10
162.7743419314503
 20
155.8531379893903
 30
0.0
 11
162.8743419314503
 21
155.8531379893903
 31
0.0
  0
LINE
  5
7E5
330
1F
100
AcDbEntity
  8
0
100
AcDbLine
 10
161.6243419314503
 20
156.4531379893902
 30
0.0
 11
162.2243419314502
 21
156.4531379893902
 31
0.0
  0
LINE
  5
7E6
330
1F
100
AcDbEntity
  8
0
100
AcDbLine
 10
161.6243419314503
 20
159.5531379893903
 30
0.0
 11
161.3243419314503
 21
159.5531379893903
 31
0.0
  0
LINE
  5
7E7
330
1F
100
AcDbEntity
  8
0
100
AcDbLine
 10
161.0743419314503
 20
159.5531379893903
 30
0.0
 11
161.3243419314503
 21
159.5531379893903
 31
0.0
  0
LINE
  5
7E8
330
1F
100
AcDbEntity
  8
0
100
AcDbLine
 10
161.3243419314503
 20
159.5531379893903
 30
0.0
 11
161.3243419314503
 21
156.7531379893902
 31
0.0
  0
LINE
  5
7E9
330
1F
100
AcDbEntity
  8
0
100
AcDbLine
 10
161.6243419314503
 20
159.5531379893903
 30
0.0
 11
162.2243419314502
 21
159.5531379893903
 31
0.0
  0
LINE
  5
7EA
330
1F
100
AcDbEntity
  8
0
100
AcDbLine
 10
160.6743419314503
 20
156.1531379893903
 30
0.0
 11
160.6743419314503
 21
159.2531379893902
 31
0.0
  0
LINE
  5
7EB
330
1F
100
AcDbEntity
  8
0
100
AcDbLine
 10
161.0743419314503
 20
155.8531379893903
 30
0.0
 11
162.7743419314503
 21
155.8531379893903
 31
0.0
  0
LINE
  5
7EC
330
1F
100
AcDbEntity
  8
0
100
AcDbLine
 10
160.9743419314502
 20
155.8531379893903
 30
0.0
 11
161.0743419314503
 21
155.8531379893903
 31
0.0
  0
LINE
  5
7ED
330
1F
100
AcDbEntity
  8
0
100
AcDbLine
 10
160.9743419314502
 20
159.5531379893903
 30
0.0
 11
161.0743419314503
 21
159.5531379893903
 31
0.0
  0
ARC
  5
7EE
330
1F
100
AcDbEntity
  8
0
100
AcDbCircle
 10
162.2243419314502
 20
156.7531379893902
 30
0.0
 40
0.3
100
AcDbArc
 50
270.0
 51
0.0
  0
ARC
  5
7EF
330
1F
100
AcDbEntity
  8
0
100
AcDbCircle
 10
161.6243419314503
 20
156.7531379893902
 30
0.0
 40
0.3
100
AcDbArc
 50
180.0
 51
270.0
  0
ARC
  5
7F0
330
1F
100
AcDbEntity
  8
0
100
AcDbCircle
 10
160.9743419314502
 20
159.2531379893902
 30
0.0
 40
0.3
100
AcDbArc
 50
90.0
 51
180.0
  0
LINE
  5
7F1
330
1F
100
AcDbEntity
  8
0
100
AcDbLine
 10
163.3243419314503
 20
159.6231379893903
 30
0.0
 11
163.3243419314503
 21
159.5531379893903
 31
0.0
  0
LINE
  5
7F2
330
1F
100
AcDbEntity
  8
0
100
AcDbLine
 10
163.3243419314503
 20
159.5531379893903
 30
0.0
 11
163.3243419314503
 21
158.8531379893903
 31
0.0
  0
LINE
  5
7F3
330
1F
100
AcDbEntity
  8
0
100
AcDbLine
 10
163.8243419314503
 20
159.6231379893903
 30
0.0
 11
163.3243419314503
 21
159.6231379893903
 31
0.0
  0
ARC
  5
7F4
330
1F
100
AcDbEntity
  8
0
100
AcDbCircle
 10
160.9743419314502
 20
159.9631379893902
 30
0.0
 40
0.3
100
AcDbArc
 50
180.0
 51
270.0
  0
ARC
  5
7F5
330
1F
100
AcDbEntity
  8
0
100
AcDbCircle
 10
162.8743419314503
 20
159.9631379893902
 30
0.0
 40
0.3
100
AcDbArc
 50
270.0
 51
0.0
  0
LINE
  5
7F6
330
1F
100
AcDbEntity
  8
0
100
AcDbLine
 10
160.9743419314502
 20
159.6631379893902
 30
0.0
 11
161.0743419314503
 21
159.6631379893902
 31
0.0
  0
LINE
  5
7F7
330
1F
100
AcDbEntity
  8
0
100
AcDbLine
 10
161.0743419314503
 20
159.6631379893902
 30
0.0
 11
162.7743419314503
 21
159.6631379893902
 31
0.0
  0
LINE
  5
7F8
330
1F
100
AcDbEntity
  8
0
100
AcDbLine
 10
162.7743419314503
 20
159.6631379893902
 30
0.0
 11
162.8743419314503
 21
159.6631379893902
 31
0.0
  0
LINE
  5
7F9
330
1F
100
AcDbEntity
  8
0
100
AcDbLine
 10
163.8243419314503
 20
159.6231379893903
 30
0.0
 11
163.3243419314503
 21
159.6231379893903
 31
0.0
  0
ARC
  5
7FA
330
1F
100
AcDbEntity
  8
0
100
AcDbCircle
 10
161.6243419314503
 20
160.5631379893903
 30
0.0
 40
0.3
100
AcDbArc
 50
180.0
 51
270.0
  0
ARC
  5
7FB
330
1F
100
AcDbEntity
  8
0
100
AcDbCircle
 10
162.2243419314502
 20
160.5631379893903
 30
0.0
 40
0.3
100
AcDbArc
 50
270.0
 51
0.0
  0
LINE
  5
7FC
330
1F
100
AcDbEntity
  8
0
100
AcDbLine
 10
163.8243419314503
 20
155.8131379893903
 30
0.0
 11
163.3243419314503
 21
155.8131379893903
 31
0.0
  0
ARC
  5
7FD
330
1F
100
AcDbEntity
  8
0
100
AcDbCircle
 10
160.9743419314502
 20
155.4431379893902
 30
0.0
 40
0.3
100
AcDbArc
 50
90.0
 51
180.0
  0
LINE
  5
7FE
330
1F
100
AcDbEntity
  8
0
100
AcDbLine
 10
160.9743419314502
 20
155.7431379893902
 30
0.0
 11
161.0743419314503
 21
155.7431379893902
 31
0.0
  0
LINE
  5
7FF
330
1F
100
AcDbEntity
  8
0
100
AcDbLine
 10
161.6243419314503
 20
155.7431379893902
 30
0.0
 11
162.2243419314502
 21
155.7431379893902
 31
0.0
  0
LINE
  5
800
330
1F
100
AcDbEntity
  8
0
100
AcDbLine
 10
161.0743419314503
 20
155.7431379893902
 30
0.0
 11
161.3243419314503
 21
155.7431379893902
 31
0.0
  0
LINE
  5
801
330
1F
100
AcDbEntity
  8
0
100
AcDbLine
 10
161.6243419314503
 20
155.7431379893902
 30
0.0
 11
161.3243419314503
 21
155.7431379893902
 31
0.0
  0
LINE
  5
802
330
1F
100
AcDbEntity
  8
0
100
AcDbLine
 10
163.1743419314503
 20
155.0431379893904
 30
0.0
 11
163.1743419314503
 21
155.7431379893902
 31
0.0
  0
LINE
  5
803
330
1F
100
AcDbEntity
  8
0
100
AcDbLine
 10
163.1743419314503
 20
155.0431379893904
 30
0.0
 11
163.3243419314503
 21
155.0431379893904
 31
0.0
  0
LINE
  5
804
330
1F
100
AcDbEntity
  8
0
100
AcDbLine
 10
162.7743419314503
 20
155.7431379893902
 30
0.0
 11
163.1743419314503
 21
155.7431379893902
 31
0.0
  0
LINE
  5
805
330
1F
100
AcDbEntity
  8
0
100
AcDbLine
 10
163.1743419314503
 20
155.7431379893902
 30
0.0
 11
163.3243419314503
 21
155.7431379893902
 31
0.0
  0
LINE
  5
806
330
1F
100
AcDbEntity
  8
0
100
AcDbLine
 10
162.5243419314502
 20
155.7431379893902
 30
0.0
 11
162.7743419314503
 21
155.7431379893902
 31
0.0
  0
LINE
  5
807
330
1F
100
AcDbEntity
  8
0
100
AcDbLine
 10
162.5243419314502
 20
155.7431379893902
 30
0.0
 11
162.2243419314502
 21
155.7431379893902
 31
0.0
  0
LINE
  5
808
330
1F
100
AcDbEntity
  8
0
100
AcDbLine
 10
163.8243419314503
 20
155.8131379893903
 30
0.0
 11
163.3243419314503
 21
155.8131379893903
 31
0.0
  0
LINE
  5
809
330
1F
100
AcDbEntity
  8
0
100
AcDbLine
 10
163.3243419314503
 20
155.7431379893902
 30
0.0
 11
163.3243419314503
 21
155.0431379893904
 31
0.0
  0
LINE
  5
80A
330
1F
100
AcDbEntity
  8
0
100
AcDbLine
 10
163.3243419314503
 20
155.8131379893903
 30
0.0
 11
163.3243419314503
 21
155.7431379893902
 31
0.0
  0
ARC
  5
80B
330
1F
100
AcDbEntity
  8
0
100
AcDbCircle
 10
162.8743419314503
 20
156.1531379893903
 30
0.0
 40
0.3
100
AcDbArc
 50
270.0
 51
0.0
  0
ARC
  5
80C
330
1F
100
AcDbEntity
  8
0
100
AcDbCircle
 10
160.9743419314502
 20
156.1531379893903
 30
0.0
 40
0.3
100
AcDbArc
 50
180.0
 51
270.0
  0
LINE
  5
80D
330
1F
100
AcDbEntity
  8
0
100
AcDbLine
 10
163.3243419314503
 20
158.8531379893903
 30
0.0
 11
163.3243419314503
 21
155.8131379893903
 31
0.0
  0
ARC
  5
80E
330
1F
100
AcDbEntity
  8
0
100
AcDbCircle
 10
165.4743419314502
 20
157.7181379893903
 30
0.0
 40
0.85
100
AcDbArc
 50
323.269604999998
 51
0.0
  0
ARC
  5
80F
330
1F
100
AcDbEntity
  8
0
100
AcDbCircle
 10
165.4743419314502
 20
161.5281379893902
 30
0.0
 40
0.85
100
AcDbArc
 50
323.269604999998
 51
0.0
  0
ARC
  5
810
330
1F
100
AcDbEntity
  8
0
100
AcDbCircle
 10
165.4743419314502
 20
165.3381379893902
 30
0.0
 40
0.85
100
AcDbArc
 50
0.0
 51
323.269604999998
  0
LINE
  5
811
330
1F
100
AcDbEntity
  8
0
100
AcDbLine
 10
161.3243419314503
 20
167.1731379893902
 30
0.0
 11
161.3243419314503
 21
164.3731379893903
 31
0.0
  0
LINE
  5
812
330
1F
100
AcDbEntity
  8
0
100
AcDbLine
 10
163.1743419314503
 20
163.7731379893904
 30
0.0
 11
163.1743419314503
 21
166.4731379893902
 31
0.0
  0
LINE
  5
813
330
1F
100
AcDbEntity
  8
0
100
AcDbLine
 10
160.6743419314503
 20
163.7731379893904
 30
0.0
 11
160.6743419314503
 21
166.8731379893903
 31
0.0
  0
LINE
  5
814
330
1F
100
AcDbEntity
  8
0
100
AcDbLine
 10
163.3243419314503
 20
166.4731379893902
 30
0.0
 11
163.3243419314503
 21
163.4331379893902
 31
0.0
  0
LINE
  5
815
330
1F
100
AcDbEntity
  8
0
100
AcDbLine
 10
162.5243419314502
 20
164.3731379893903
 30
0.0
 11
162.5243419314502
 21
167.1731379893902
 31
0.0
  0
LINE
  5
816
330
1F
100
AcDbEntity
  8
0
100
AcDbLine
 10
162.7743419314503
 20
163.4731379893902
 30
0.0
 11
162.8743419314503
 21
163.4731379893902
 31
0.0
  0
LINE
  5
817
330
1F
100
AcDbEntity
  8
0
100
AcDbLine
 10
161.0743419314503
 20
163.4731379893902
 30
0.0
 11
162.7743419314503
 21
163.4731379893902
 31
0.0
  0
LINE
  5
818
330
1F
100
AcDbEntity
  8
0
100
AcDbLine
 10
160.9743419314502
 20
163.4731379893902
 30
0.0
 11
161.0743419314503
 21
163.4731379893902
 31
0.0
  0
LINE
  5
819
330
1F
100
AcDbEntity
  8
0
100
AcDbLine
 10
163.8243419314503
 20
163.4331379893902
 30
0.0
 11
163.3243419314503
 21
163.4331379893902
 31
0.0
  0
LINE
  5
81A
330
1F
100
AcDbEntity
  8
0
100
AcDbLine
 10
163.8243419314503
 20
163.4331379893902
 30
0.0
 11
163.3243419314503
 21
163.4331379893902
 31
0.0
  0
ARC
  5
81B
330
1F
100
AcDbEntity
  8
0
100
AcDbCircle
 10
162.2243419314502
 20
164.3731379893903
 30
0.0
 40
0.3
100
AcDbArc
 50
270.0
 51
0.0
  0
ARC
  5
81C
330
1F
100
AcDbEntity
  8
0
100
AcDbCircle
 10
161.6243419314503
 20
164.3731379893903
 30
0.0
 40
0.3
100
AcDbArc
 50
180.0
 51
270.0
  0
LINE
  5
81D
330
1F
100
AcDbEntity
  8
0
100
AcDbLine
 10
161.6243419314503
 20
164.0731379893903
 30
0.0
 11
162.2243419314502
 21
164.0731379893903
 31
0.0
  0
LINE
  5
81E
330
1F
100
AcDbEntity
  8
0
100
AcDbLine
 10
161.6243419314503
 20
167.1731379893902
 30
0.0
 11
161.3243419314503
 21
167.1731379893902
 31
0.0
  0
LINE
  5
81F
330
1F
100
AcDbEntity
  8
0
100
AcDbLine
 10
161.0743419314503
 20
167.1731379893902
 30
0.0
 11
161.3243419314503
 21
167.1731379893902
 31
0.0
  0
LINE
  5
820
330
1F
100
AcDbEntity
  8
0
100
AcDbLine
 10
161.6243419314503
 20
167.1731379893902
 30
0.0
 11
162.2243419314502
 21
167.1731379893902
 31
0.0
  0
LINE
  5
821
330
1F
100
AcDbEntity
  8
0
100
AcDbLine
 10
160.9743419314502
 20
167.1731379893902
 30
0.0
 11
161.0743419314503
 21
167.1731379893902
 31
0.0
  0
ARC
  5
822
330
1F
100
AcDbEntity
  8
0
100
AcDbCircle
 10
160.9743419314502
 20
166.8731379893903
 30
0.0
 40
0.3
100
AcDbArc
 50
90.0
 51
180.0
  0
LINE
  5
823
330
1F
100
AcDbEntity
  8
0
100
AcDbLine
 10
163.3243419314503
 20
167.2431379893902
 30
0.0
 11
163.3243419314503
 21
167.1731379893902
 31
0.0
  0
LINE
  5
824
330
1F
100
AcDbEntity
  8
0
100
AcDbLine
 10
163.3243419314503
 20
167.1731379893902
 30
0.0
 11
163.3243419314503
 21
166.4731379893902
 31
0.0
  0
LINE
  5
825
330
1F
100
AcDbEntity
  8
0
100
AcDbLine
 10
163.8243419314503
 20
167.2431379893902
 30
0.0
 11
163.3243419314503
 21
167.2431379893902
 31
0.0
  0
LINE
  5
826
330
1F
100
AcDbEntity
  8
0
100
AcDbLine
 10
163.8243419314503
 20
167.2431379893902
 30
0.0
 11
163.3243419314503
 21
167.2431379893902
 31
0.0
  0
LINE
  5
827
330
1F
100
AcDbEntity
  8
0
100
AcDbLine
 10
162.7743419314503
 20
167.2831379893904
 30
0.0
 11
162.8743419314503
 21
167.2831379893904
 31
0.0
  0
LINE
  5
828
330
1F
100
AcDbEntity
  8
0
100
AcDbLine
 10
161.6243419314503
 20
167.8831379893903
 30
0.0
 11
162.2243419314502
 21
167.8831379893903
 31
0.0
  0
LINE
  5
829
330
1F
100
AcDbEntity
  8
0
100
AcDbLine
 10
161.0743419314503
 20
167.2831379893904
 30
0.0
 11
162.7743419314503
 21
167.2831379893904
 31
0.0
  0
LINE
  5
82A
330
1F
100
AcDbEntity
  8
0
100
AcDbLine
 10
160.9743419314502
 20
167.2831379893904
 30
0.0
 11
161.0743419314503
 21
167.2831379893904
 31
0.0
  0
ARC
  5
82B
330
1F
100
AcDbEntity
  8
0
100
AcDbCircle
 10
162.2243419314502
 20
168.1831379893902
 30
0.0
 40
0.3
100
AcDbArc
 50
270.0
 51
0.0
  0
ARC
  5
82C
330
1F
100
AcDbEntity
  8
0
100
AcDbCircle
 10
162.8743419314503
 20
167.5831379893903
 30
0.0
 40
0.3
100
AcDbArc
 50
270.0
 51
0.0
  0
ARC
  5
82D
330
1F
100
AcDbEntity
  8
0
100
AcDbCircle
 10
160.9743419314502
 20
167.5831379893903
 30
0.0
 40
0.3
100
AcDbArc
 50
180.0
 51
270.0
  0
ARC
  5
82E
330
1F
100
AcDbEntity
  8
0
100
AcDbCircle
 10
161.6243419314503
 20
168.1831379893902
 30
0.0
 40
0.3
100
AcDbArc
 50
180.0
 51
270.0
  0
LINE
  5
82F
330
1F
100
AcDbEntity
  8
0
100
AcDbLine
 10
162.5243419314502
 20
167.1731379893902
 30
0.0
 11
162.2243419314502
 21
167.1731379893902
 31
0.0
  0
LINE
  5
830
330
1F
100
AcDbEntity
  8
0
100
AcDbLine
 10
162.5243419314502
 20
167.1731379893902
 30
0.0
 11
162.7743419314503
 21
167.1731379893902
 31
0.0
  0
LINE
  5
831
330
1F
100
AcDbEntity
  8
0
100
AcDbLine
 10
163.1743419314503
 20
167.1731379893902
 30
0.0
 11
163.3243419314503
 21
167.1731379893902
 31
0.0
  0
LINE
  5
832
330
1F
100
AcDbEntity
  8
0
100
AcDbLine
 10
162.7743419314503
 20
167.1731379893902
 30
0.0
 11
163.1743419314503
 21
167.1731379893902
 31
0.0
  0
LINE
  5
833
330
1F
100
AcDbEntity
  8
0
100
AcDbLine
 10
163.1743419314503
 20
166.4731379893902
 30
0.0
 11
163.3243419314503
 21
166.4731379893902
 31
0.0
  0
LINE
  5
834
330
1F
100
AcDbEntity
  8
0
100
AcDbLine
 10
163.1743419314503
 20
166.4731379893902
 30
0.0
 11
163.1743419314503
 21
167.1731379893902
 31
0.0
  0
ARC
  5
835
330
1F
100
AcDbEntity
  8
0
100
AcDbCircle
 10
160.9743419314502
 20
163.0631379893903
 30
0.0
 40
0.3
100
AcDbArc
 50
90.0
 51
180.0
  0
LINE
  5
836
330
1F
100
AcDbEntity
  8
0
100
AcDbLine
 10
160.9743419314502
 20
163.3631379893903
 30
0.0
 11
161.0743419314503
 21
163.3631379893903
 31
0.0
  0
LINE
  5
837
330
1F
100
AcDbEntity
  8
0
100
AcDbLine
 10
161.6243419314503
 20
163.3631379893903
 30
0.0
 11
162.2243419314502
 21
163.3631379893903
 31
0.0
  0
LINE
  5
838
330
1F
100
AcDbEntity
  8
0
100
AcDbLine
 10
161.0743419314503
 20
163.3631379893903
 30
0.0
 11
161.3243419314503
 21
163.3631379893903
 31
0.0
  0
LINE
  5
839
330
1F
100
AcDbEntity
  8
0
100
AcDbLine
 10
161.6243419314503
 20
163.3631379893903
 30
0.0
 11
161.3243419314503
 21
163.3631379893903
 31
0.0
  0
LINE
  5
83A
330
1F
100
AcDbEntity
  8
0
100
AcDbLine
 10
163.1743419314503
 20
162.6631379893902
 30
0.0
 11
163.1743419314503
 21
163.3631379893903
 31
0.0
  0
LINE
  5
83B
330
1F
100
AcDbEntity
  8
0
100
AcDbLine
 10
163.1743419314503
 20
162.6631379893902
 30
0.0
 11
163.3243419314503
 21
162.6631379893902
 31
0.0
  0
LINE
  5
83C
330
1F
100
AcDbEntity
  8
0
100
AcDbLine
 10
162.7743419314503
 20
163.3631379893903
 30
0.0
 11
163.1743419314503
 21
163.3631379893903
 31
0.0
  0
LINE
  5
83D
330
1F
100
AcDbEntity
  8
0
100
AcDbLine
 10
163.1743419314503
 20
163.3631379893903
 30
0.0
 11
163.3243419314503
 21
163.3631379893903
 31
0.0
  0
LINE
  5
83E
330
1F
100
AcDbEntity
  8
0
100
AcDbLine
 10
162.5243419314502
 20
163.3631379893903
 30
0.0
 11
162.7743419314503
 21
163.3631379893903
 31
0.0
  0
LINE
  5
83F
330
1F
100
AcDbEntity
  8
0
100
AcDbLine
 10
162.5243419314502
 20
163.3631379893903
 30
0.0
 11
162.2243419314502
 21
163.3631379893903
 31
0.0
  0
LINE
  5
840
330
1F
100
AcDbEntity
  8
0
100
AcDbLine
 10
163.3243419314503
 20
163.3631379893903
 30
0.0
 11
163.3243419314503
 21
162.6631379893902
 31
0.0
  0
ARC
  5
841
330
1F
100
AcDbEntity
  8
0
100
AcDbCircle
 10
162.8743419314503
 20
163.7731379893904
 30
0.0
 40
0.3
100
AcDbArc
 50
270.0
 51
0.0
  0
ARC
  5
842
330
1F
100
AcDbEntity
  8
0
100
AcDbCircle
 10
160.9743419314502
 20
163.7731379893904
 30
0.0
 40
0.3
100
AcDbArc
 50
180.0
 51
270.0
  0
LINE
  5
843
330
1F
100
AcDbEntity
  8
0
100
AcDbLine
 10
163.3243419314503
 20
163.4331379893902
 30
0.0
 11
163.3243419314503
 21
163.3631379893903
 31
0.0
  0
ARC
  5
844
330
1F
100
AcDbEntity
  8
0
100
AcDbCircle
 10
165.4743419314502
 20
169.1481379893904
 30
0.0
 40
0.85
100
AcDbArc
 50
323.269604999998
 51
0.0
  0
ARC
  5
845
330
1F
100
AcDbEntity
  8
0
100
AcDbCircle
 10
165.4743419314502
 20
165.3381379893902
 30
0.0
 40
0.85
100
AcDbArc
 50
323.269604999998
 51
0.0
  0
CIRCLE
  5
846
330
1F
100
AcDbEntity
  8
0
100
AcDbCircle
 10
165.4743419314502
 20
161.5281379893902
 30
0.0
 40
1.564999999999999
  0
CIRCLE
  5
847
330
1F
100
AcDbEntity
  8
0
100
AcDbCircle
 10
165.4743419314502
 20
157.7181379893903
 30
0.0
 40
1.564999999999999
  0
CIRCLE
  5
848
330
1F
100
AcDbEntity
  8
0
100
AcDbCircle
 10
165.4743419314502
 20
165.3381379893902
 30
0.0
 40
1.564999999999999
  0
CIRCLE
  5
849
330
1F
100
AcDbEntity
  8
0
100
AcDbCircle
 10
165.4743419314502
 20
169.1481379893904
 30
0.0
 40
1.564999999999999
  0
ARC
  5
84A
330
1F
100
AcDbEntity
  8
0
100
AcDbCircle
 10
165.4743419314502
 20
169.1481379893904
 30
0.0
 40
0.85
100
AcDbArc
 50
0.0
 51
323.269604999998
  0
LINE
  5
84B
330
1F
100
AcDbEntity
  8
0
100
AcDbLine
 10
163.3243419314503
 20
170.2831379893904
 30
0.0
 11
163.3243419314503
 21
167.2431379893902
 31
0.0
  0
LINE
  5
84C
330
1F
100
AcDbEntity
  8
0
100
AcDbLine
 10
163.1743419314503
 20
167.5831379893903
 30
0.0
 11
163.1743419314503
 21
170.2831379893904
 31
0.0
  0
LINE
  5
84D
330
1F
100
AcDbEntity
  8
0
100
AcDbLine
 10
162.5243419314502
 20
168.1831379893902
 30
0.0
 11
162.5243419314502
 21
170.9831379893902
 31
0.0
  0
LINE
  5
84E
330
1F
100
AcDbEntity
  8
0
100
AcDbLine
 10
161.3243419314503
 20
170.9831379893902
 30
0.0
 11
161.3243419314503
 21
168.1831379893902
 31
0.0
  0
LINE
  5
84F
330
1F
100
AcDbEntity
  8
0
100
AcDbLine
 10
160.6743419314503
 20
167.5831379893903
 30
0.0
 11
160.6743419314503
 21
170.6831379893902
 31
0.0
  0
LINE
  5
850
330
1F
100
AcDbEntity
  8
0
100
AcDbLine
 10
159.1743419314495
 20
175.0113831450274
 30
0.0
 11
159.6951740106394
 21
174.3031379893894
 31
0.0
  0
LINE
  5
851
330
1F
100
AcDbEntity
  8
0
100
AcDbLine
 10
159.1743419314495
 20
183.8929978347517
 30
0.0
 11
159.6951740106394
 21
184.5031379893883
 31
0.0
  0
LINE
  5
852
330
1F
100
AcDbEntity
  8
0
100
AcDbLine
 10
166.3743419314503
 20
185.0331389893905
 30
0.0
 11
158.6743419314503
 21
185.0331389893905
 31
0.0
  0
LINE
  5
853
330
1F
100
AcDbEntity
  8
0
100
AcDbLine
 10
158.6743419314503
 20
173.7331389893905
 30
0.0
 11
160.1743419314503
 21
173.7331389893905
 31
0.0
  0
LINE
  5
854
330
1F
100
AcDbEntity
  8
0
100
AcDbLine
 10
159.1743419314495
 20
183.8929978347517
 30
0.0
 11
159.1743419314495
 21
175.0113831450274
 31
0.0
  0
LINE
  5
855
330
1F
100
AcDbEntity
  8
0
100
AcDbLine
 10
158.6743419314503
 20
185.0331389893905
 30
0.0
 11
158.6743419314503
 21
173.7331389893905
 31
0.0
  0
LINE
  5
856
330
1F
100
AcDbEntity
  8
0
100
AcDbLine
 10
160.074341931451
 20
174.8031379893894
 30
0.0
 11
160.074341931451
 21
184.0031379893902
 31
0.0
  0
LINE
  5
857
330
1F
100
AcDbEntity
  8
0
100
AcDbLine
 10
164.574341931451
 20
175.9031379893898
 30
0.0
 11
164.574341931451
 21
177.9031379893898
 31
0.0
  0
LINE
  5
858
330
1F
100
AcDbEntity
  8
0
100
AcDbLine
 10
164.574341931451
 20
177.9031379893898
 30
0.0
 11
165.074341931451
 21
177.9031379893898
 31
0.0
  0
LINE
  5
859
330
1F
100
AcDbEntity
  8
0
100
AcDbLine
 10
164.574341931451
 20
175.9031379893898
 30
0.0
 11
165.074341931451
 21
175.9031379893898
 31
0.0
  0
LINE
  5
85A
330
1F
100
AcDbEntity
  8
0
100
AcDbLine
 10
165.074341931451
 20
175.9031379893898
 30
0.0
 11
165.074341931451
 21
177.9031379893898
 31
0.0
  0
LINE
  5
85B
330
1F
100
AcDbEntity
  8
0
100
AcDbLine
 10
164.574341931451
 20
178.4031379893898
 30
0.0
 11
164.574341931451
 21
180.4031379893898
 31
0.0
  0
LINE
  5
85C
330
1F
100
AcDbEntity
  8
0
100
AcDbLine
 10
164.574341931451
 20
180.4031379893898
 30
0.0
 11
165.074341931451
 21
180.4031379893898
 31
0.0
  0
LINE
  5
85D
330
1F
100
AcDbEntity
  8
0
100
AcDbLine
 10
164.574341931451
 20
178.4031379893898
 30
0.0
 11
165.074341931451
 21
178.4031379893898
 31
0.0
  0
LINE
  5
85E
330
1F
100
AcDbEntity
  8
0
100
AcDbLine
 10
165.074341931451
 20
178.4031379893898
 30
0.0
 11
165.074341931451
 21
180.4031379893898
 31
0.0
  0
LINE
  5
85F
330
1F
100
AcDbEntity
  8
0
100
AcDbLine
 10
165.074341931451
 20
180.9031379893898
 30
0.0
 11
165.074341931451
 21
182.9031379893898
 31
0.0
  0
LINE
  5
860
330
1F
100
AcDbEntity
  8
0
100
AcDbLine
 10
164.574341931451
 20
180.9031379893898
 30
0.0
 11
165.074341931451
 21
180.9031379893898
 31
0.0
  0
LINE
  5
861
330
1F
100
AcDbEntity
  8
0
100
AcDbLine
 10
164.574341931451
 20
182.9031379893898
 30
0.0
 11
165.074341931451
 21
182.9031379893898
 31
0.0
  0
LINE
  5
862
330
1F
100
AcDbEntity
  8
0
100
AcDbLine
 10
164.574341931451
 20
180.9031379893898
 30
0.0
 11
164.574341931451
 21
182.9031379893898
 31
0.0
  0
LINE
  5
863
330
1F
100
AcDbEntity
  8
0
100
AcDbLine
 10
168.5043419314503
 20
171.0531379893903
 30
0.0
 11
168.5043419314503
 21
173.5531379893904
 31
0.0
  0
LINE
  5
864
330
1F
100
AcDbEntity
  8
0
100
AcDbLine
 10
168.5043419314503
 20
163.4331379893902
 30
0.0
 11
168.5043419314503
 21
159.6231379893903
 31
0.0
  0
LINE
  5
865
330
1F
100
AcDbEntity
  8
0
100
AcDbLine
 10
173.3743419314503
 20
159.6231379893903
 30
0.0
 11
172.8743419314503
 21
159.6231379893903
 31
0.0
  0
LINE
  5
866
330
1F
100
AcDbEntity
  8
0
100
AcDbLine
 10
173.3743419314503
 20
159.6231379893903
 30
0.0
 11
172.8743419314503
 21
159.6231379893903
 31
0.0
  0
LINE
  5
867
330
1F
100
AcDbEntity
  8
0
100
AcDbLine
 10
173.3743419314503
 20
155.8131379893903
 30
0.0
 11
172.8743419314503
 21
155.8131379893903
 31
0.0
  0
LINE
  5
868
330
1F
100
AcDbEntity
  8
0
100
AcDbLine
 10
173.3743419314503
 20
155.8131379893903
 30
0.0
 11
172.8743419314503
 21
155.8131379893903
 31
0.0
  0
LINE
  5
869
330
1F
100
AcDbEntity
  8
0
100
AcDbLine
 10
168.5043419314503
 20
159.6231379893903
 30
0.0
 11
168.9443419314503
 21
159.6231379893903
 31
0.0
  0
LINE
  5
86A
330
1F
100
AcDbEntity
  8
0
100
AcDbLine
 10
168.9443419314503
 20
159.6231379893903
 30
0.0
 11
169.0743419314503
 21
159.6231379893903
 31
0.0
  0
LINE
  5
86B
330
1F
100
AcDbEntity
  8
0
100
AcDbLine
 10
169.0743419314503
 20
159.6231379893903
 30
0.0
 11
170.4743419314502
 21
159.6231379893903
 31
0.0
  0
LINE
  5
86C
330
1F
100
AcDbEntity
  8
0
100
AcDbLine
 10
168.5043419314503
 20
159.6231379893903
 30
0.0
 11
168.3043419314503
 21
159.6231379893903
 31
0.0
  0
LINE
  5
86D
330
1F
100
AcDbEntity
  8
0
100
AcDbLine
 10
167.5443419314503
 20
159.6231379893903
 30
0.0
 11
168.3043419314503
 21
159.6231379893903
 31
0.0
  0
LINE
  5
86E
330
1F
100
AcDbEntity
  8
0
100
AcDbLine
 10
168.5043419314503
 20
159.6231379893903
 30
0.0
 11
168.3043419314503
 21
159.6231379893903
 31
0.0
  0
LINE
  5
86F
330
1F
100
AcDbEntity
  8
0
100
AcDbLine
 10
168.5043419314503
 20
155.8131379893903
 30
0.0
 11
168.3043419314503
 21
155.8131379893903
 31
0.0
  0
LINE
  5
870
330
1F
100
AcDbEntity
  8
0
100
AcDbLine
 10
168.5043419314503
 20
155.8131379893903
 30
0.0
 11
168.3043419314503
 21
155.8131379893903
 31
0.0
  0
LINE
  5
871
330
1F
100
AcDbEntity
  8
0
100
AcDbLine
 10
169.0743419314503
 20
155.8131379893903
 30
0.0
 11
170.4743419314502
 21
155.8131379893903
 31
0.0
  0
LINE
  5
872
330
1F
100
AcDbEntity
  8
0
100
AcDbLine
 10
168.9443419314503
 20
155.8131379893903
 30
0.0
 11
169.0743419314503
 21
155.8131379893903
 31
0.0
  0
LINE
  5
873
330
1F
100
AcDbEntity
  8
0
100
AcDbLine
 10
168.5043419314503
 20
155.8131379893903
 30
0.0
 11
168.9443419314503
 21
155.8131379893903
 31
0.0
  0
LINE
  5
874
330
1F
100
AcDbEntity
  8
0
100
AcDbLine
 10
167.5443419314503
 20
155.8131379893903
 30
0.0
 11
168.3043419314503
 21
155.8131379893903
 31
0.0
  0
LINE
  5
875
330
1F
100
AcDbEntity
  8
0
100
AcDbLine
 10
168.5043419314503
 20
159.6231379893903
 30
0.0
 11
168.5043419314503
 21
155.8131379893903
 31
0.0
  0
LINE
  5
876
330
1F
100
AcDbEntity
  8
0
100
AcDbLine
 10
170.4743419314502
 20
159.6231379893903
 30
0.0
 11
172.8743419314503
 21
159.6231379893903
 31
0.0
  0
LINE
  5
877
330
1F
100
AcDbEntity
  8
0
100
AcDbLine
 10
168.5043419314503
 20
155.8131379893903
 30
0.0
 11
172.8743419314503
 21
155.8131379893903
 31
0.0
  0
LINE
  5
878
330
1F
100
AcDbEntity
  8
0
100
AcDbLine
 10
170.4743419314502
 20
155.8131379893903
 30
0.0
 11
172.8743419314503
 21
155.8131379893903
 31
0.0
  0
LINE
  5
879
330
1F
100
AcDbEntity
  8
0
100
AcDbLine
 10
168.5043419314503
 20
159.6231379893903
 30
0.0
 11
172.8743419314503
 21
159.6231379893903
 31
0.0
  0
LINE
  5
87A
330
1F
100
AcDbEntity
  8
0
100
AcDbLine
 10
173.3743419314503
 20
161.0331379893904
 30
0.0
 11
173.8743419314503
 21
161.0331379893904
 31
0.0
  0
LINE
  5
87B
330
1F
100
AcDbEntity
  8
0
100
AcDbLine
 10
173.8743419314503
 20
161.0331379893904
 30
0.0
 11
173.8743419314503
 21
160.6331379893903
 31
0.0
  0
LINE
  5
87C
330
1F
100
AcDbEntity
  8
0
100
AcDbLine
 10
173.8743419314503
 20
156.3231379893903
 30
0.0
 11
173.8743419314503
 21
155.9231379893902
 31
0.0
  0
LINE
  5
87D
330
1F
100
AcDbEntity
  8
0
100
AcDbLine
 10
173.8743419314503
 20
156.8231379893903
 30
0.0
 11
173.8743419314503
 21
156.3231379893903
 31
0.0
  0
LINE
  5
87E
330
1F
100
AcDbEntity
  8
0
100
AcDbLine
 10
173.8743419314503
 20
157.2231379893902
 30
0.0
 11
173.8743419314503
 21
156.8231379893903
 31
0.0
  0
LINE
  5
87F
330
1F
100
AcDbEntity
  8
0
100
AcDbLine
 10
173.3743419314503
 20
155.9231379893902
 30
0.0
 11
173.8743419314503
 21
155.9231379893902
 31
0.0
  0
LINE
  5
880
330
1F
100
AcDbEntity
  8
0
100
AcDbLine
 10
173.3743419314503
 20
157.2231379893902
 30
0.0
 11
173.8743419314503
 21
157.2231379893902
 31
0.0
  0
LINE
  5
881
330
1F
100
AcDbEntity
  8
0
100
AcDbLine
 10
173.3743419314503
 20
159.7331379893902
 30
0.0
 11
173.8743419314503
 21
159.7331379893902
 31
0.0
  0
LINE
  5
882
330
1F
100
AcDbEntity
  8
0
100
AcDbLine
 10
173.8743419314503
 20
160.1331379893903
 30
0.0
 11
173.8743419314503
 21
159.7331379893902
 31
0.0
  0
LINE
  5
883
330
1F
100
AcDbEntity
  8
0
100
AcDbLine
 10
173.3743419314503
 20
159.7331379893902
 30
0.0
 11
173.3743419314503
 21
159.6231379893903
 31
0.0
  0
LINE
  5
884
330
1F
100
AcDbEntity
  8
0
100
AcDbLine
 10
173.8743419314503
 20
160.6331379893903
 30
0.0
 11
173.8743419314503
 21
160.1331379893903
 31
0.0
  0
LINE
  5
885
330
1F
100
AcDbEntity
  8
0
100
AcDbLine
 10
173.3743419314503
 20
155.9231379893902
 30
0.0
 11
173.3743419314503
 21
155.8131379893903
 31
0.0
  0
LINE
  5
886
330
1F
100
AcDbEntity
  8
0
100
AcDbLine
 10
173.3743419314503
 20
163.4331379893902
 30
0.0
 11
172.8743419314503
 21
163.4331379893902
 31
0.0
  0
LINE
  5
887
330
1F
100
AcDbEntity
  8
0
100
AcDbLine
 10
173.3743419314503
 20
163.4331379893902
 30
0.0
 11
172.8743419314503
 21
163.4331379893902
 31
0.0
  0
LINE
  5
888
330
1F
100
AcDbEntity
  8
0
100
AcDbLine
 10
173.3743419314503
 20
167.2431379893902
 30
0.0
 11
172.8743419314503
 21
167.2431379893902
 31
0.0
  0
LINE
  5
889
330
1F
100
AcDbEntity
  8
0
100
AcDbLine
 10
173.3743419314503
 20
167.2431379893902
 30
0.0
 11
172.8743419314503
 21
167.2431379893902
 31
0.0
  0
LINE
  5
88A
330
1F
100
AcDbEntity
  8
0
100
AcDbLine
 10
168.5043419314503
 20
167.2431379893902
 30
0.0
 11
168.5043419314503
 21
163.4331379893902
 31
0.0
  0
LINE
  5
88B
330
1F
100
AcDbEntity
  8
0
100
AcDbLine
 10
168.5043419314503
 20
163.4331379893902
 30
0.0
 11
168.3043419314503
 21
163.4331379893902
 31
0.0
  0
LINE
  5
88C
330
1F
100
AcDbEntity
  8
0
100
AcDbLine
 10
168.5043419314503
 20
163.4331379893902
 30
0.0
 11
168.3043419314503
 21
163.4331379893902
 31
0.0
  0
LINE
  5
88D
330
1F
100
AcDbEntity
  8
0
100
AcDbLine
 10
169.0743419314503
 20
163.4331379893902
 30
0.0
 11
170.4743419314502
 21
163.4331379893902
 31
0.0
  0
LINE
  5
88E
330
1F
100
AcDbEntity
  8
0
100
AcDbLine
 10
168.9443419314503
 20
163.4331379893902
 30
0.0
 11
169.0743419314503
 21
163.4331379893902
 31
0.0
  0
LINE
  5
88F
330
1F
100
AcDbEntity
  8
0
100
AcDbLine
 10
168.5043419314503
 20
163.4331379893902
 30
0.0
 11
168.9443419314503
 21
163.4331379893902
 31
0.0
  0
LINE
  5
890
330
1F
100
AcDbEntity
  8
0
100
AcDbLine
 10
167.5443419314503
 20
163.4331379893902
 30
0.0
 11
168.3043419314503
 21
163.4331379893902
 31
0.0
  0
LINE
  5
891
330
1F
100
AcDbEntity
  8
0
100
AcDbLine
 10
168.5043419314503
 20
167.2431379893902
 30
0.0
 11
168.3043419314503
 21
167.2431379893902
 31
0.0
  0
LINE
  5
892
330
1F
100
AcDbEntity
  8
0
100
AcDbLine
 10
168.5043419314503
 20
167.2431379893902
 30
0.0
 11
168.9443419314503
 21
167.2431379893902
 31
0.0
  0
LINE
  5
893
330
1F
100
AcDbEntity
  8
0
100
AcDbLine
 10
168.9443419314503
 20
167.2431379893902
 30
0.0
 11
169.0743419314503
 21
167.2431379893902
 31
0.0
  0
LINE
  5
894
330
1F
100
AcDbEntity
  8
0
100
AcDbLine
 10
169.0743419314503
 20
167.2431379893902
 30
0.0
 11
170.4743419314502
 21
167.2431379893902
 31
0.0
  0
LINE
  5
895
330
1F
100
AcDbEntity
  8
0
100
AcDbLine
 10
168.5043419314503
 20
167.2431379893902
 30
0.0
 11
168.3043419314503
 21
167.2431379893902
 31
0.0
  0
LINE
  5
896
330
1F
100
AcDbEntity
  8
0
100
AcDbLine
 10
167.5443419314503
 20
167.2431379893902
 30
0.0
 11
168.3043419314503
 21
167.2431379893902
 31
0.0
  0
LINE
  5
897
330
1F
100
AcDbEntity
  8
0
100
AcDbLine
 10
168.5043419314503
 20
163.4331379893902
 30
0.0
 11
172.8743419314503
 21
163.4331379893902
 31
0.0
  0
LINE
  5
898
330
1F
100
AcDbEntity
  8
0
100
AcDbLine
 10
170.4743419314502
 20
163.4331379893902
 30
0.0
 11
172.8743419314503
 21
163.4331379893902
 31
0.0
  0
LINE
  5
899
330
1F
100
AcDbEntity
  8
0
100
AcDbLine
 10
168.5043419314503
 20
167.2431379893902
 30
0.0
 11
172.8743419314503
 21
167.2431379893902
 31
0.0
  0
LINE
  5
89A
330
1F
100
AcDbEntity
  8
0
100
AcDbLine
 10
170.4743419314502
 20
167.2431379893902
 30
0.0
 11
172.8743419314503
 21
167.2431379893902
 31
0.0
  0
LINE
  5
89B
330
1F
100
AcDbEntity
  8
0
100
AcDbLine
 10
173.8743419314503
 20
164.8431379893903
 30
0.0
 11
173.8743419314503
 21
164.4431379893902
 31
0.0
  0
LINE
  5
89C
330
1F
100
AcDbEntity
  8
0
100
AcDbLine
 10
173.3743419314503
 20
163.5431379893903
 30
0.0
 11
173.3743419314503
 21
163.4331379893902
 31
0.0
  0
LINE
  5
89D
330
1F
100
AcDbEntity
  8
0
100
AcDbLine
 10
173.8743419314503
 20
163.9431379893902
 30
0.0
 11
173.8743419314503
 21
163.5431379893903
 31
0.0
  0
LINE
  5
89E
330
1F
100
AcDbEntity
  8
0
100
AcDbLine
 10
173.3743419314503
 20
163.5431379893903
 30
0.0
 11
173.8743419314503
 21
163.5431379893903
 31
0.0
  0
LINE
  5
89F
330
1F
100
AcDbEntity
  8
0
100
AcDbLine
 10
173.8743419314503
 20
164.4431379893902
 30
0.0
 11
173.8743419314503
 21
163.9431379893902
 31
0.0
  0
LINE
  5
8A0
330
1F
100
AcDbEntity
  8
0
100
AcDbLine
 10
173.3743419314503
 20
167.3531379893903
 30
0.0
 11
173.3743419314503
 21
167.2431379893902
 31
0.0
  0
LINE
  5
8A1
330
1F
100
AcDbEntity
  8
0
100
AcDbLine
 10
173.3743419314503
 20
168.6531379893903
 30
0.0
 11
173.3743419314503
 21
167.3531379893903
 31
0.0
  0
LINE
  5
8A2
330
1F
100
AcDbEntity
  8
0
100
AcDbLine
 10
173.8743419314503
 20
167.7531379893902
 30
0.0
 11
173.8743419314503
 21
167.3531379893903
 31
0.0
  0
LINE
  5
8A3
330
1F
100
AcDbEntity
  8
0
100
AcDbLine
 10
173.8743419314503
 20
168.2531379893902
 30
0.0
 11
173.8743419314503
 21
167.7531379893902
 31
0.0
  0
LINE
  5
8A4
330
1F
100
AcDbEntity
  8
0
100
AcDbLine
 10
173.8743419314503
 20
168.6531379893903
 30
0.0
 11
173.8743419314503
 21
168.2531379893902
 31
0.0
  0
LINE
  5
8A5
330
1F
100
AcDbEntity
  8
0
100
AcDbLine
 10
173.3743419314503
 20
167.3531379893903
 30
0.0
 11
173.8743419314503
 21
167.3531379893903
 31
0.0
  0
LINE
  5
8A6
330
1F
100
AcDbEntity
  8
0
100
AcDbLine
 10
173.3743419314503
 20
168.6531379893903
 30
0.0
 11
173.8743419314503
 21
168.6531379893903
 31
0.0
  0
LINE
  5
8A7
330
1F
100
AcDbEntity
  8
0
100
AcDbLine
 10
173.3743419314503
 20
164.8431379893903
 30
0.0
 11
173.8743419314503
 21
164.8431379893903
 31
0.0
  0
LINE
  5
8A8
330
1F
100
AcDbEntity
  8
0
100
AcDbLine
 10
168.5043419314503
 20
171.0531379893903
 30
0.0
 11
168.5043419314503
 21
167.2431379893902
 31
0.0
  0
LINE
  5
8A9
330
1F
100
AcDbEntity
  8
0
100
AcDbLine
 10
173.8743419314503
 20
174.3031379893894
 30
0.0
 11
173.8743419314503
 21
184.5031379893883
 31
0.0
  0
LINE
  5
8AA
330
1F
100
AcDbEntity
  8
0
100
AcDbLine
 10
173.7213462821689
 20
180.9540854888895
 30
0.0
 11
173.8743419314503
 21
181.1070811381708
 31
0.0
  0
LINE
  5
8AB
330
1F
100
AcDbEntity
  8
0
100
AcDbLine
 10
173.7213462821689
 20
177.7540854888887
 30
0.0
 11
173.8743419314503
 21
177.6010898396074
 31
0.0
  0
LINE
  5
8AC
330
1F
100
AcDbEntity
  8
0
100
AcDbLine
 10
172.2743419314517
 20
177.7540854888887
 30
0.0
 11
173.7213462821689
 21
177.7540854888887
 31
0.0
  0
LINE
  5
8AD
330
1F
100
AcDbEntity
  8
0
100
AcDbLine
 10
172.2743419314517
 20
180.9540854888895
 30
0.0
 11
173.7213462821689
 21
180.9540854888895
 31
0.0
  0
LINE
  5
8AE
330
1F
100
AcDbEntity
  8
0
100
AcDbLine
 10
173.8743419314503
 20
174.3031379893894
 30
0.0
 11
171.8743419314503
 21
174.3031379893894
 31
0.0
  0
LINE
  5
8AF
330
1F
100
AcDbEntity
  8
0
100
AcDbLine
 10
173.8743419314503
 20
184.5031379893883
 30
0.0
 11
171.8743419314503
 21
184.5031379893883
 31
0.0
  0
ARC
  5
8B0
330
1F
100
AcDbEntity
  8
0
100
AcDbCircle
 10
171.4743419314488
 20
175.2031379893891
 30
0.0
 40
0.4
100
AcDbArc
 50
270.0
 51
0.0
  0
ARC
  5
8B1
330
1F
100
AcDbEntity
  8
0
100
AcDbCircle
 10
171.4743419314488
 20
183.6031379893905
 30
0.0
 40
0.4
100
AcDbArc
 50
0.0
 51
90.0
  0
LINE
  5
8B2
330
1F
100
AcDbEntity
  8
0
100
AcDbLine
 10
171.8743419314503
 20
183.6031379893905
 30
0.0
 11
171.8743419314503
 21
175.2031379893891
 31
0.0
  0
ARC
  5
8B3
330
1F
100
AcDbEntity
  8
0
100
AcDbCircle
 10
171.8743419314503
 20
174.7031379893891
 30
0.0
 40
0.4
100
AcDbArc
 50
270.0
 51
0.0
  0
ARC
  5
8B4
330
1F
100
AcDbEntity
  8
0
100
AcDbCircle
 10
171.8743419314503
 20
184.1031379893887
 30
0.0
 40
0.4
100
AcDbArc
 50
0.0
 51
90.0
  0
LINE
  5
8B5
330
1F
100
AcDbEntity
  8
0
100
AcDbLine
 10
172.2743419314517
 20
184.1031379893887
 30
0.0
 11
172.2743419314517
 21
174.7031379893891
 31
0.0
  0
LINE
  5
8B6
330
1F
100
AcDbEntity
  8
0
100
AcDbLine
 10
168.574341931451
 20
180.9031379893898
 30
0.0
 11
168.574341931451
 21
182.9031379893898
 31
0.0
  0
LINE
  5
8B7
330
1F
100
AcDbEntity
  8
0
100
AcDbLine
 10
168.574341931451
 20
182.9031379893898
 30
0.0
 11
169.074341931451
 21
182.9031379893898
 31
0.0
  0
LINE
  5
8B8
330
1F
100
AcDbEntity
  8
0
100
AcDbLine
 10
168.574341931451
 20
180.9031379893898
 30
0.0
 11
169.074341931451
 21
180.9031379893898
 31
0.0
  0
LINE
  5
8B9
330
1F
100
AcDbEntity
  8
0
100
AcDbLine
 10
169.074341931451
 20
180.9031379893898
 30
0.0
 11
169.074341931451
 21
182.9031379893898
 31
0.0
  0
LINE
  5
8BA
330
1F
100
AcDbEntity
  8
0
100
AcDbLine
 10
169.074341931451
 20
178.4031379893898
 30
0.0
 11
169.074341931451
 21
180.4031379893898
 31
0.0
  0
LINE
  5
8BB
330
1F
100
AcDbEntity
  8
0
100
AcDbLine
 10
168.574341931451
 20
178.4031379893898
 30
0.0
 11
169.074341931451
 21
178.4031379893898
 31
0.0
  0
LINE
  5
8BC
330
1F
100
AcDbEntity
  8
0
100
AcDbLine
 10
168.574341931451
 20
180.4031379893898
 30
0.0
 11
169.074341931451
 21
180.4031379893898
 31
0.0
  0
LINE
  5
8BD
330
1F
100
AcDbEntity
  8
0
100
AcDbLine
 10
168.574341931451
 20
178.4031379893898
 30
0.0
 11
168.574341931451
 21
180.4031379893898
 31
0.0
  0
LINE
  5
8BE
330
1F
100
AcDbEntity
  8
0
100
AcDbLine
 10
169.074341931451
 20
175.9031379893898
 30
0.0
 11
169.074341931451
 21
177.9031379893898
 31
0.0
  0
LINE
  5
8BF
330
1F
100
AcDbEntity
  8
0
100
AcDbLine
 10
168.574341931451
 20
175.9031379893898
 30
0.0
 11
169.074341931451
 21
175.9031379893898
 31
0.0
  0
LINE
  5
8C0
330
1F
100
AcDbEntity
  8
0
100
AcDbLine
 10
168.574341931451
 20
177.9031379893898
 30
0.0
 11
169.074341931451
 21
177.9031379893898
 31
0.0
  0
LINE
  5
8C1
330
1F
100
AcDbEntity
  8
0
100
AcDbLine
 10
168.574341931451
 20
175.9031379893898
 30
0.0
 11
168.574341931451
 21
177.9031379893898
 31
0.0
  0
LINE
  5
8C2
330
1F
100
AcDbEntity
  8
0
100
AcDbLine
 10
169.2951769314503
 20
186.2531379893902
 30
0.0
 11
171.2600989314503
 21
186.2531379893902
 31
0.0
  0
LINE
  5
8C3
330
1F
100
AcDbEntity
  8
0
100
AcDbLine
 10
161.0743419314503
 20
211.6571259893904
 30
0.0
 11
173.8743419314503
 21
211.6571259893904
 31
0.0
  0
LINE
  5
8C4
330
1F
100
AcDbEntity
  8
0
100
AcDbLine
 10
160.5743419314503
 20
211.1331389893904
 30
0.0
 11
168.3743419314503
 21
211.1331389893904
 31
0.0
  0
LINE
  5
8C5
330
1F
100
AcDbEntity
  8
0
100
AcDbLine
 10
166.8743419314503
 20
190.2531379893902
 30
0.0
 11
173.8743419314503
 21
190.2531379893902
 31
0.0
  0
LINE
  5
8C6
330
1F
100
AcDbEntity
  8
0
100
AcDbLine
 10
166.3743419314503
 20
190.7331389893905
 30
0.0
 11
168.3743419314503
 21
190.7331389893905
 31
0.0
  0
CIRCLE
  5
8C7
330
1F
100
AcDbEntity
  8
0
100
AcDbCircle
 10
167.4743419314503
 20
218.6568549893905
 30
0.0
 40
5.029838999999999
  0
CIRCLE
  5
8C8
330
1F
100
AcDbEntity
  8
0
100
AcDbCircle
 10
167.4743419314503
 20
218.6568549893905
 30
0.0
 40
5.029838999999999
  0
CIRCLE
  5
8C9
330
1F
100
AcDbEntity
  8
0
100
AcDbCircle
 10
167.4740839314504
 20
218.6568549893905
 30
0.0
 40
4.448566
  0
LINE
  5
8CA
330
1F
100
AcDbEntity
  8
0
100
AcDbLine
 10
166.7190049314502
 20
220.2376369893905
 30
0.0
 11
166.7190049314502
 21
220.8301929893904
 31
0.0
  0
LINE
  5
8CB
330
1F
100
AcDbEntity
  8
0
100
AcDbLine
 10
166.7190049314502
 20
219.8001099893905
 30
0.0
 11
166.7190049314502
 21
221.2680649893901
 31
0.0
  0
LINE
  5
8CC
330
1F
100
AcDbEntity
  8
0
100
AcDbLine
 10
166.7190049314502
 20
216.5537959893905
 30
0.0
 11
166.7190049314502
 21
217.1465249893905
 31
0.0
  0
LINE
  5
8CD
330
1F
100
AcDbEntity
  8
0
100
AcDbLine
 10
166.7190049314502
 20
216.1160969893902
 30
0.0
 11
166.7190049314502
 21
217.5840519893903
 31
0.0
  0
LINE
  5
8CE
330
1F
100
AcDbEntity
  8
0
100
AcDbLine
 10
166.7190049314502
 20
218.3957169893905
 30
0.0
 11
166.7190049314502
 21
218.9884449893903
 31
0.0
  0
LINE
  5
8CF
330
1F
100
AcDbEntity
  8
0
100
AcDbLine
 10
166.7190049314502
 20
217.9578449893903
 30
0.0
 11
166.7190049314502
 21
219.4257999893904
 31
0.0
  0
LINE
  5
8D0
330
1F
100
AcDbEntity
  8
0
100
AcDbLine
 10
162.8165729314503
 20
217.9227049893905
 30
0.0
 11
164.7360079314503
 21
217.9227049893905
 31
0.0
  0
LINE
  5
8D1
330
1F
100
AcDbEntity
  8
0
100
AcDbLine
 10
162.8165729314503
 20
219.3904879893904
 30
0.0
 11
162.8165729314503
 21
217.9227049893905
 31
0.0
  0
LINE
  5
8D2
330
1F
100
AcDbEntity
  8
0
100
AcDbLine
 10
164.7360079314503
 20
219.3904879893904
 30
0.0
 11
162.8165729314503
 21
219.3904879893904
 31
0.0
  0
LINE
  5
8D3
330
1F
100
AcDbEntity
  8
0
100
AcDbLine
 10
164.7360079314503
 20
217.9227049893905
 30
0.0
 11
164.7360079314503
 21
219.3904879893904
 31
0.0
  0
LINE
  5
8D4
330
1F
100
AcDbEntity
  8
0
100
AcDbLine
 10
162.8165729314503
 20
217.9227049893905
 30
0.0
 11
164.7360079314503
 21
217.9227049893905
 31
0.0
  0
LINE
  5
8D5
330
1F
100
AcDbEntity
  8
0
100
AcDbLine
 10
162.8165729314503
 20
219.3904879893904
 30
0.0
 11
162.8165729314503
 21
217.9227049893905
 31
0.0
  0
LINE
  5
8D6
330
1F
100
AcDbEntity
  8
0
100
AcDbLine
 10
164.7360079314503
 20
219.3904879893904
 30
0.0
 11
162.8165729314503
 21
219.3904879893904
 31
0.0
  0
LINE
  5
8D7
330
1F
100
AcDbEntity
  8
0
100
AcDbLine
 10
164.7360079314503
 20
217.9227049893905
 30
0.0
 11
164.7360079314503
 21
219.3904879893904
 31
0.0
  0
LINE
  5
8D8
330
1F
100
AcDbEntity
  8
0
100
AcDbLine
 10
165.3573309314503
 20
221.2677199893902
 30
0.0
 11
165.7383589314503
 21
220.8301929893904
 31
0.0
  0
LINE
  5
8D9
330
1F
100
AcDbEntity
  8
0
100
AcDbLine
 10
165.3573309314503
 20
219.8001099893905
 30
0.0
 11
165.7383589314503
 21
220.2376369893905
 31
0.0
  0
LINE
  5
8DA
330
1F
100
AcDbEntity
  8
0
100
AcDbLine
 10
165.7380139314503
 20
220.8301929893904
 30
0.0
 11
165.7380139314503
 21
220.2376369893905
 31
0.0
  0
LINE
  5
8DB
330
1F
100
AcDbEntity
  8
0
100
AcDbLine
 10
165.3569869314503
 20
221.2680649893901
 30
0.0
 11
165.3569869314503
 21
219.8001099893905
 31
0.0
  0
LINE
  5
8DC
330
1F
100
AcDbEntity
  8
0
100
AcDbLine
 10
165.3573309314503
 20
219.4257999893904
 30
0.0
 11
165.7383589314503
 21
218.9884449893903
 31
0.0
  0
LINE
  5
8DD
330
1F
100
AcDbEntity
  8
0
100
AcDbLine
 10
165.3573309314503
 20
217.5840519893903
 30
0.0
 11
165.7383589314503
 21
217.1465249893905
 31
0.0
  0
LINE
  5
8DE
330
1F
100
AcDbEntity
  8
0
100
AcDbLine
 10
165.3573309314503
 20
216.1160969893902
 30
0.0
 11
165.7383589314503
 21
216.5537959893905
 31
0.0
  0
LINE
  5
8DF
330
1F
100
AcDbEntity
  8
0
100
AcDbLine
 10
165.7380139314503
 20
217.1465249893905
 30
0.0
 11
165.7380139314503
 21
216.5537959893905
 31
0.0
  0
LINE
  5
8E0
330
1F
100
AcDbEntity
  8
0
100
AcDbLine
 10
165.3569869314503
 20
217.5840519893903
 30
0.0
 11
165.3569869314503
 21
216.1160969893902
 31
0.0
  0
LINE
  5
8E1
330
1F
100
AcDbEntity
  8
0
100
AcDbLine
 10
165.3573309314503
 20
217.9578449893903
 30
0.0
 11
165.7383589314503
 21
218.3957169893905
 31
0.0
  0
LINE
  5
8E2
330
1F
100
AcDbEntity
  8
0
100
AcDbLine
 10
165.7380139314503
 20
218.9884449893903
 30
0.0
 11
165.7380139314503
 21
218.3957169893905
 31
0.0
  0
LINE
  5
8E3
330
1F
100
AcDbEntity
  8
0
100
AcDbLine
 10
165.3569869314503
 20
219.4257999893904
 30
0.0
 11
165.3569869314503
 21
217.9578449893903
 31
0.0
  0
LINE
  5
8E4
330
1F
100
AcDbEntity
  8
0
100
AcDbLine
 10
165.7380139314503
 20
220.2376369893905
 30
0.0
 11
166.7190049314502
 21
220.2376369893905
 31
0.0
  0
LINE
  5
8E5
330
1F
100
AcDbEntity
  8
0
100
AcDbLine
 10
166.7190049314502
 20
220.8301929893904
 30
0.0
 11
165.7380139314503
 21
220.8301929893904
 31
0.0
  0
LINE
  5
8E6
330
1F
100
AcDbEntity
  8
0
100
AcDbLine
 10
165.3569869314503
 20
219.8001099893905
 30
0.0
 11
166.7190049314502
 21
219.8001099893905
 31
0.0
  0
LINE
  5
8E7
330
1F
100
AcDbEntity
  8
0
100
AcDbLine
 10
166.7190049314502
 20
221.2680649893901
 30
0.0
 11
165.3569869314503
 21
221.2680649893901
 31
0.0
  0
LINE
  5
8E8
330
1F
100
AcDbEntity
  8
0
100
AcDbLine
 10
165.7380139314503
 20
216.5537959893905
 30
0.0
 11
166.7190049314502
 21
216.5537959893905
 31
0.0
  0
LINE
  5
8E9
330
1F
100
AcDbEntity
  8
0
100
AcDbLine
 10
166.7190049314502
 20
217.1465249893905
 30
0.0
 11
165.7380139314503
 21
217.1465249893905
 31
0.0
  0
LINE
  5
8EA
330
1F
100
AcDbEntity
  8
0
100
AcDbLine
 10
165.3569869314503
 20
216.1160969893902
 30
0.0
 11
166.7190049314502
 21
216.1160969893902
 31
0.0
  0
LINE
  5
8EB
330
1F
100
AcDbEntity
  8
0
100
AcDbLine
 10
166.7190049314502
 20
217.5840519893903
 30
0.0
 11
165.3569869314503
 21
217.5840519893903
 31
0.0
  0
LINE
  5
8EC
330
1F
100
AcDbEntity
  8
0
100
AcDbLine
 10
165.7380139314503
 20
218.3957169893905
 30
0.0
 11
166.7190049314502
 21
218.3957169893905
 31
0.0
  0
LINE
  5
8ED
330
1F
100
AcDbEntity
  8
0
100
AcDbLine
 10
166.7190049314502
 20
218.9884449893903
 30
0.0
 11
165.7380139314503
 21
218.9884449893903
 31
0.0
  0
LINE
  5
8EE
330
1F
100
AcDbEntity
  8
0
100
AcDbLine
 10
165.3569869314503
 20
217.9578449893903
 30
0.0
 11
166.7190049314502
 21
217.9578449893903
 31
0.0
  0
LINE
  5
8EF
330
1F
100
AcDbEntity
  8
0
100
AcDbLine
 10
166.7190049314502
 20
219.4257999893904
 30
0.0
 11
165.3569869314503
 21
219.4257999893904
 31
0.0
  0
LINE
  5
8F0
330
1F
100
AcDbEntity
  8
0
100
AcDbLine
 10
173.8743419314503
 20
210.0771113303375
 30
0.0
 11
173.8743419314503
 21
192.1771113303375
 31
0.0
  0
LINE
  5
8F1
330
1F
100
AcDbEntity
  8
0
100
AcDbLine
 10
168.8743419314503
 20
210.0771113303375
 30
0.0
 11
168.8743419314502
 21
192.1771113303375
 31
0.0
  0
LINE
  5
8F2
330
1F
100
AcDbEntity
  8
0
100
AcDbLine
 10
168.3743419314503
 20
211.1331389893904
 30
0.0
 11
168.3743419314503
 21
190.7331389893905
 31
0.0
  0
LINE
  5
8F3
330
1F
100
AcDbEntity
  8
0
100
AcDbLine
 10
172.1243419314503
 20
206.2071259893905
 30
0.0
 11
172.6243419314503
 21
206.2071259893905
 31
0.0
  0
LINE
  5
8F4
330
1F
100
AcDbEntity
  8
0
100
AcDbLine
 10
172.1243419314503
 20
205.7071259893905
 30
0.0
 11
172.6243419314503
 21
205.7071259893905
 31
0.0
  0
LINE
  5
8F5
330
1F
100
AcDbEntity
  8
0
100
AcDbLine
 10
172.1243419314503
 20
206.2071259893905
 30
0.0
 11
172.1243419314503
 21
205.7071259893905
 31
0.0
  0
LINE
  5
8F6
330
1F
100
AcDbEntity
  8
0
100
AcDbLine
 10
172.6243419314503
 20
205.7071259893905
 30
0.0
 11
172.6243419314503
 21
206.2071259893905
 31
0.0
  0
LINE
  5
8F7
330
1F
100
AcDbEntity
  8
0
100
AcDbLine
 10
172.2843419314502
 20
206.0471779893903
 30
0.0
 11
172.2843419314502
 21
205.86707398939
 31
0.0
  0
LINE
  5
8F8
330
1F
100
AcDbEntity
  8
0
100
AcDbLine
 10
172.2843419314502
 20
205.86707398939
 30
0.0
 11
172.3743419314503
 21
205.86707398939
 31
0.0
  0
LINE
  5
8F9
330
1F
100
AcDbEntity
  8
0
100
AcDbLine
 10
172.2843419314502
 20
205.86707398939
 30
0.0
 11
172.3743419314503
 21
205.86707398939
 31
0.0
  0
LINE
  5
8FA
330
1F
100
AcDbEntity
  8
0
100
AcDbLine
 10
172.2843419314502
 20
206.0471779893903
 30
0.0
 11
172.3743419314503
 21
206.0471779893903
 31
0.0
  0
LINE
  5
8FB
330
1F
100
AcDbEntity
  8
0
100
AcDbLine
 10
172.4643419314503
 20
206.0471779893903
 30
0.0
 11
172.3743419314503
 21
206.0471779893903
 31
0.0
  0
LINE
  5
8FC
330
1F
100
AcDbEntity
  8
0
100
AcDbLine
 10
172.4643419314503
 20
205.86707398939
 30
0.0
 11
172.3743419314503
 21
205.86707398939
 31
0.0
  0
LINE
  5
8FD
330
1F
100
AcDbEntity
  8
0
100
AcDbLine
 10
172.4643419314503
 20
205.86707398939
 30
0.0
 11
172.3743419314503
 21
205.86707398939
 31
0.0
  0
LINE
  5
8FE
330
1F
100
AcDbEntity
  8
0
100
AcDbLine
 10
172.4643419314503
 20
206.0471779893903
 30
0.0
 11
172.4643419314503
 21
205.86707398939
 31
0.0
  0
LINE
  5
8FF
330
1F
100
AcDbEntity
  8
0
100
AcDbLine
 10
170.1243419314503
 20
205.7071259893905
 30
0.0
 11
170.6243419314503
 21
205.7071259893905
 31
0.0
  0
LINE
  5
900
330
1F
100
AcDbEntity
  8
0
100
AcDbLine
 10
170.1243419314503
 20
206.2071259893905
 30
0.0
 11
170.6243419314503
 21
206.2071259893905
 31
0.0
  0
LINE
  5
901
330
1F
100
AcDbEntity
  8
0
100
AcDbLine
 10
170.4643419314503
 20
206.0471779893903
 30
0.0
 11
170.4643419314503
 21
205.86707398939
 31
0.0
  0
LINE
  5
902
330
1F
100
AcDbEntity
  8
0
100
AcDbLine
 10
170.4643419314503
 20
205.86707398939
 30
0.0
 11
170.3743419314503
 21
205.86707398939
 31
0.0
  0
LINE
  5
903
330
1F
100
AcDbEntity
  8
0
100
AcDbLine
 10
170.4643419314503
 20
205.86707398939
 30
0.0
 11
170.3743419314503
 21
205.86707398939
 31
0.0
  0
LINE
  5
904
330
1F
100
AcDbEntity
  8
0
100
AcDbLine
 10
170.4643419314503
 20
206.0471779893903
 30
0.0
 11
170.3743419314503
 21
206.0471779893903
 31
0.0
  0
LINE
  5
905
330
1F
100
AcDbEntity
  8
0
100
AcDbLine
 10
170.2843419314502
 20
206.0471779893903
 30
0.0
 11
170.3743419314503
 21
206.0471779893903
 31
0.0
  0
LINE
  5
906
330
1F
100
AcDbEntity
  8
0
100
AcDbLine
 10
170.2843419314502
 20
205.86707398939
 30
0.0
 11
170.3743419314503
 21
205.86707398939
 31
0.0
  0
LINE
  5
907
330
1F
100
AcDbEntity
  8
0
100
AcDbLine
 10
170.2843419314502
 20
205.86707398939
 30
0.0
 11
170.3743419314503
 21
205.86707398939
 31
0.0
  0
LINE
  5
908
330
1F
100
AcDbEntity
  8
0
100
AcDbLine
 10
170.2843419314502
 20
206.0471779893903
 30
0.0
 11
170.2843419314502
 21
205.86707398939
 31
0.0
  0
LINE
  5
909
330
1F
100
AcDbEntity
  8
0
100
AcDbLine
 10
170.6243419314503
 20
205.7071259893905
 30
0.0
 11
170.6243419314503
 21
206.2071259893905
 31
0.0
  0
LINE
  5
90A
330
1F
100
AcDbEntity
  8
0
100
AcDbLine
 10
170.1243419314503
 20
206.2071259893905
 30
0.0
 11
170.1243419314503
 21
205.7071259893905
 31
0.0
  0
LINE
  5
90B
330
1F
100
AcDbEntity
  8
0
100
AcDbLine
 10
172.4643419314503
 20
198.0471779893903
 30
0.0
 11
172.4643419314503
 21
197.86707398939
 31
0.0
  0
LINE
  5
90C
330
1F
100
AcDbEntity
  8
0
100
AcDbLine
 10
172.2843419314502
 20
198.0471779893903
 30
0.0
 11
172.2843419314502
 21
197.86707398939
 31
0.0
  0
LINE
  5
90D
330
1F
100
AcDbEntity
  8
0
100
AcDbLine
 10
172.4643419314503
 20
197.86707398939
 30
0.0
 11
172.3743419314503
 21
197.86707398939
 31
0.0
  0
LINE
  5
90E
330
1F
100
AcDbEntity
  8
0
100
AcDbLine
 10
172.4643419314503
 20
197.86707398939
 30
0.0
 11
172.3743419314503
 21
197.86707398939
 31
0.0
  0
LINE
  5
90F
330
1F
100
AcDbEntity
  8
0
100
AcDbLine
 10
172.2843419314502
 20
197.86707398939
 30
0.0
 11
172.3743419314503
 21
197.86707398939
 31
0.0
  0
LINE
  5
910
330
1F
100
AcDbEntity
  8
0
100
AcDbLine
 10
172.2843419314502
 20
197.86707398939
 30
0.0
 11
172.3743419314503
 21
197.86707398939
 31
0.0
  0
LINE
  5
911
330
1F
100
AcDbEntity
  8
0
100
AcDbLine
 10
172.1243419314503
 20
198.2071259893905
 30
0.0
 11
172.6243419314503
 21
198.2071259893905
 31
0.0
  0
LINE
  5
912
330
1F
100
AcDbEntity
  8
0
100
AcDbLine
 10
172.4643419314503
 20
198.0471779893903
 30
0.0
 11
172.3743419314503
 21
198.0471779893903
 31
0.0
  0
LINE
  5
913
330
1F
100
AcDbEntity
  8
0
100
AcDbLine
 10
172.2843419314502
 20
198.0471779893903
 30
0.0
 11
172.3743419314503
 21
198.0471779893903
 31
0.0
  0
LINE
  5
914
330
1F
100
AcDbEntity
  8
0
100
AcDbLine
 10
172.1243419314503
 20
197.7071259893905
 30
0.0
 11
172.6243419314503
 21
197.7071259893905
 31
0.0
  0
LINE
  5
915
330
1F
100
AcDbEntity
  8
0
100
AcDbLine
 10
172.1243419314503
 20
198.2071259893905
 30
0.0
 11
172.1243419314503
 21
197.7071259893905
 31
0.0
  0
LINE
  5
916
330
1F
100
AcDbEntity
  8
0
100
AcDbLine
 10
172.6243419314503
 20
197.7071259893905
 30
0.0
 11
172.6243419314503
 21
198.2071259893905
 31
0.0
  0
LINE
  5
917
330
1F
100
AcDbEntity
  8
0
100
AcDbLine
 10
172.4643419314503
 20
196.0471779893903
 30
0.0
 11
172.4643419314503
 21
195.86707398939
 31
0.0
  0
LINE
  5
918
330
1F
100
AcDbEntity
  8
0
100
AcDbLine
 10
172.2843419314502
 20
196.0471779893903
 30
0.0
 11
172.2843419314502
 21
195.86707398939
 31
0.0
  0
LINE
  5
919
330
1F
100
AcDbEntity
  8
0
100
AcDbLine
 10
172.4643419314503
 20
195.86707398939
 30
0.0
 11
172.3743419314503
 21
195.86707398939
 31
0.0
  0
LINE
  5
91A
330
1F
100
AcDbEntity
  8
0
100
AcDbLine
 10
172.4643419314503
 20
195.86707398939
 30
0.0
 11
172.3743419314503
 21
195.86707398939
 31
0.0
  0
LINE
  5
91B
330
1F
100
AcDbEntity
  8
0
100
AcDbLine
 10
172.2843419314502
 20
195.86707398939
 30
0.0
 11
172.3743419314503
 21
195.86707398939
 31
0.0
  0
LINE
  5
91C
330
1F
100
AcDbEntity
  8
0
100
AcDbLine
 10
172.2843419314502
 20
195.86707398939
 30
0.0
 11
172.3743419314503
 21
195.86707398939
 31
0.0
  0
LINE
  5
91D
330
1F
100
AcDbEntity
  8
0
100
AcDbLine
 10
172.1243419314503
 20
196.2071259893905
 30
0.0
 11
172.6243419314503
 21
196.2071259893905
 31
0.0
  0
LINE
  5
91E
330
1F
100
AcDbEntity
  8
0
100
AcDbLine
 10
172.4643419314503
 20
196.0471779893903
 30
0.0
 11
172.3743419314503
 21
196.0471779893903
 31
0.0
  0
LINE
  5
91F
330
1F
100
AcDbEntity
  8
0
100
AcDbLine
 10
172.2843419314502
 20
196.0471779893903
 30
0.0
 11
172.3743419314503
 21
196.0471779893903
 31
0.0
  0
LINE
  5
920
330
1F
100
AcDbEntity
  8
0
100
AcDbLine
 10
172.1243419314503
 20
195.7071259893905
 30
0.0
 11
172.6243419314503
 21
195.7071259893905
 31
0.0
  0
LINE
  5
921
330
1F
100
AcDbEntity
  8
0
100
AcDbLine
 10
172.1243419314503
 20
196.2071259893905
 30
0.0
 11
172.1243419314503
 21
195.7071259893905
 31
0.0
  0
LINE
  5
922
330
1F
100
AcDbEntity
  8
0
100
AcDbLine
 10
172.6243419314503
 20
195.7071259893905
 30
0.0
 11
172.6243419314503
 21
196.2071259893905
 31
0.0
  0
LINE
  5
923
330
1F
100
AcDbEntity
  8
0
100
AcDbLine
 10
170.2843419314502
 20
198.0471779893903
 30
0.0
 11
170.2843419314502
 21
197.86707398939
 31
0.0
  0
LINE
  5
924
330
1F
100
AcDbEntity
  8
0
100
AcDbLine
 10
170.4643419314503
 20
198.0471779893903
 30
0.0
 11
170.4643419314503
 21
197.86707398939
 31
0.0
  0
LINE
  5
925
330
1F
100
AcDbEntity
  8
0
100
AcDbLine
 10
170.2843419314502
 20
197.86707398939
 30
0.0
 11
170.3743419314503
 21
197.86707398939
 31
0.0
  0
LINE
  5
926
330
1F
100
AcDbEntity
  8
0
100
AcDbLine
 10
170.2843419314502
 20
197.86707398939
 30
0.0
 11
170.3743419314503
 21
197.86707398939
 31
0.0
  0
LINE
  5
927
330
1F
100
AcDbEntity
  8
0
100
AcDbLine
 10
170.4643419314503
 20
197.86707398939
 30
0.0
 11
170.3743419314503
 21
197.86707398939
 31
0.0
  0
LINE
  5
928
330
1F
100
AcDbEntity
  8
0
100
AcDbLine
 10
170.4643419314503
 20
197.86707398939
 30
0.0
 11
170.3743419314503
 21
197.86707398939
 31
0.0
  0
LINE
  5
929
330
1F
100
AcDbEntity
  8
0
100
AcDbLine
 10
170.1243419314503
 20
198.2071259893905
 30
0.0
 11
170.6243419314503
 21
198.2071259893905
 31
0.0
  0
LINE
  5
92A
330
1F
100
AcDbEntity
  8
0
100
AcDbLine
 10
170.2843419314502
 20
198.0471779893903
 30
0.0
 11
170.3743419314503
 21
198.0471779893903
 31
0.0
  0
LINE
  5
92B
330
1F
100
AcDbEntity
  8
0
100
AcDbLine
 10
170.4643419314503
 20
198.0471779893903
 30
0.0
 11
170.3743419314503
 21
198.0471779893903
 31
0.0
  0
LINE
  5
92C
330
1F
100
AcDbEntity
  8
0
100
AcDbLine
 10
170.1243419314503
 20
197.7071259893905
 30
0.0
 11
170.6243419314503
 21
197.7071259893905
 31
0.0
  0
LINE
  5
92D
330
1F
100
AcDbEntity
  8
0
100
AcDbLine
 10
170.1243419314503
 20
198.2071259893905
 30
0.0
 11
170.1243419314503
 21
197.7071259893905
 31
0.0
  0
LINE
  5
92E
330
1F
100
AcDbEntity
  8
0
100
AcDbLine
 10
170.6243419314503
 20
197.7071259893905
 30
0.0
 11
170.6243419314503
 21
198.2071259893905
 31
0.0
  0
LINE
  5
92F
330
1F
100
AcDbEntity
  8
0
100
AcDbLine
 10
170.2843419314502
 20
196.0471779893903
 30
0.0
 11
170.2843419314502
 21
195.86707398939
 31
0.0
  0
LINE
  5
930
330
1F
100
AcDbEntity
  8
0
100
AcDbLine
 10
170.4643419314503
 20
196.0471779893903
 30
0.0
 11
170.4643419314503
 21
195.86707398939
 31
0.0
  0
LINE
  5
931
330
1F
100
AcDbEntity
  8
0
100
AcDbLine
 10
170.2843419314502
 20
195.86707398939
 30
0.0
 11
170.3743419314503
 21
195.86707398939
 31
0.0
  0
LINE
  5
932
330
1F
100
AcDbEntity
  8
0
100
AcDbLine
 10
170.2843419314502
 20
195.86707398939
 30
0.0
 11
170.3743419314503
 21
195.86707398939
 31
0.0
  0
LINE
  5
933
330
1F
100
AcDbEntity
  8
0
100
AcDbLine
 10
170.4643419314503
 20
195.86707398939
 30
0.0
 11
170.3743419314503
 21
195.86707398939
 31
0.0
  0
LINE
  5
934
330
1F
100
AcDbEntity
  8
0
100
AcDbLine
 10
170.4643419314503
 20
195.86707398939
 30
0.0
 11
170.3743419314503
 21
195.86707398939
 31
0.0
  0
LINE
  5
935
330
1F
100
AcDbEntity
  8
0
100
AcDbLine
 10
170.1243419314503
 20
196.2071259893905
 30
0.0
 11
170.6243419314503
 21
196.2071259893905
 31
0.0
  0
LINE
  5
936
330
1F
100
AcDbEntity
  8
0
100
AcDbLine
 10
170.2843419314502
 20
196.0471779893903
 30
0.0
 11
170.3743419314503
 21
196.0471779893903
 31
0.0
  0
LINE
  5
937
330
1F
100
AcDbEntity
  8
0
100
AcDbLine
 10
170.4643419314503
 20
196.0471779893903
 30
0.0
 11
170.3743419314503
 21
196.0471779893903
 31
0.0
  0
LINE
  5
938
330
1F
100
AcDbEntity
  8
0
100
AcDbLine
 10
170.1243419314503
 20
195.7071259893905
 30
0.0
 11
170.6243419314503
 21
195.7071259893905
 31
0.0
  0
LINE
  5
939
330
1F
100
AcDbEntity
  8
0
100
AcDbLine
 10
170.1243419314503
 20
196.2071259893905
 30
0.0
 11
170.1243419314503
 21
195.7071259893905
 31
0.0
  0
LINE
  5
93A
330
1F
100
AcDbEntity
  8
0
100
AcDbLine
 10
170.6243419314503
 20
195.7071259893905
 30
0.0
 11
170.6243419314503
 21
196.2071259893905
 31
0.0
  0
LINE
  5
93B
330
1F
100
AcDbEntity
  8
0
100
AcDbLine
 10
172.1243419314503
 20
194.2071259893905
 30
0.0
 11
172.1243419314503
 21
193.7071259893905
 31
0.0
  0
LINE
  5
93C
330
1F
100
AcDbEntity
  8
0
100
AcDbLine
 10
172.6243419314503
 20
193.7071259893905
 30
0.0
 11
172.6243419314503
 21
194.2071259893905
 31
0.0
  0
LINE
  5
93D
330
1F
100
AcDbEntity
  8
0
100
AcDbLine
 10
172.2843419314502
 20
194.0471779893903
 30
0.0
 11
172.2843419314502
 21
193.86707398939
 31
0.0
  0
LINE
  5
93E
330
1F
100
AcDbEntity
  8
0
100
AcDbLine
 10
172.4643419314503
 20
194.0471779893903
 30
0.0
 11
172.4643419314503
 21
193.86707398939
 31
0.0
  0
LINE
  5
93F
330
1F
100
AcDbEntity
  8
0
100
AcDbLine
 10
172.1243419314503
 20
193.7071259893905
 30
0.0
 11
172.6243419314503
 21
193.7071259893905
 31
0.0
  0
LINE
  5
940
330
1F
100
AcDbEntity
  8
0
100
AcDbLine
 10
172.2843419314502
 20
193.86707398939
 30
0.0
 11
172.3743419314503
 21
193.86707398939
 31
0.0
  0
LINE
  5
941
330
1F
100
AcDbEntity
  8
0
100
AcDbLine
 10
172.2843419314502
 20
193.86707398939
 30
0.0
 11
172.3743419314503
 21
193.86707398939
 31
0.0
  0
LINE
  5
942
330
1F
100
AcDbEntity
  8
0
100
AcDbLine
 10
172.4643419314503
 20
193.86707398939
 30
0.0
 11
172.3743419314503
 21
193.86707398939
 31
0.0
  0
LINE
  5
943
330
1F
100
AcDbEntity
  8
0
100
AcDbLine
 10
172.4643419314503
 20
193.86707398939
 30
0.0
 11
172.3743419314503
 21
193.86707398939
 31
0.0
  0
LINE
  5
944
330
1F
100
AcDbEntity
  8
0
100
AcDbLine
 10
172.1243419314503
 20
194.2071259893905
 30
0.0
 11
172.6243419314503
 21
194.2071259893905
 31
0.0
  0
LINE
  5
945
330
1F
100
AcDbEntity
  8
0
100
AcDbLine
 10
172.2843419314502
 20
194.0471779893903
 30
0.0
 11
172.3743419314503
 21
194.0471779893903
 31
0.0
  0
LINE
  5
946
330
1F
100
AcDbEntity
  8
0
100
AcDbLine
 10
172.4643419314503
 20
194.0471779893903
 30
0.0
 11
172.3743419314503
 21
194.0471779893903
 31
0.0
  0
LINE
  5
947
330
1F
100
AcDbEntity
  8
0
100
AcDbLine
 10
170.6243419314503
 20
193.7071259893905
 30
0.0
 11
170.6243419314503
 21
194.2071259893905
 31
0.0
  0
LINE
  5
948
330
1F
100
AcDbEntity
  8
0
100
AcDbLine
 10
170.1243419314503
 20
194.2071259893905
 30
0.0
 11
170.1243419314503
 21
193.7071259893905
 31
0.0
  0
LINE
  5
949
330
1F
100
AcDbEntity
  8
0
100
AcDbLine
 10
170.4643419314503
 20
194.0471779893903
 30
0.0
 11
170.4643419314503
 21
193.86707398939
 31
0.0
  0
LINE
  5
94A
330
1F
100
AcDbEntity
  8
0
100
AcDbLine
 10
170.2843419314502
 20
194.0471779893903
 30
0.0
 11
170.2843419314502
 21
193.86707398939
 31
0.0
  0
LINE
  5
94B
330
1F
100
AcDbEntity
  8
0
100
AcDbLine
 10
170.1243419314503
 20
193.7071259893905
 30
0.0
 11
170.6243419314503
 21
193.7071259893905
 31
0.0
  0
LINE
  5
94C
330
1F
100
AcDbEntity
  8
0
100
AcDbLine
 10
170.4643419314503
 20
193.86707398939
 30
0.0
 11
170.3743419314503
 21
193.86707398939
 31
0.0
  0
LINE
  5
94D
330
1F
100
AcDbEntity
  8
0
100
AcDbLine
 10
170.4643419314503
 20
193.86707398939
 30
0.0
 11
170.3743419314503
 21
193.86707398939
 31
0.0
  0
LINE
  5
94E
330
1F
100
AcDbEntity
  8
0
100
AcDbLine
 10
170.2843419314502
 20
193.86707398939
 30
0.0
 11
170.3743419314503
 21
193.86707398939
 31
0.0
  0
LINE
  5
94F
330
1F
100
AcDbEntity
  8
0
100
AcDbLine
 10
170.2843419314502
 20
193.86707398939
 30
0.0
 11
170.3743419314503
 21
193.86707398939
 31
0.0
  0
LINE
  5
950
330
1F
100
AcDbEntity
  8
0
100
AcDbLine
 10
170.4643419314503
 20
194.0471779893903
 30
0.0
 11
170.3743419314503
 21
194.0471779893903
 31
0.0
  0
LINE
  5
951
330
1F
100
AcDbEntity
  8
0
100
AcDbLine
 10
170.2843419314502
 20
194.0471779893903
 30
0.0
 11
170.3743419314503
 21
194.0471779893903
 31
0.0
  0
LINE
  5
952
330
1F
100
AcDbEntity
  8
0
100
AcDbLine
 10
170.1243419314503
 20
194.2071259893905
 30
0.0
 11
170.6243419314503
 21
194.2071259893905
 31
0.0
  0
LINE
  5
953
330
1F
100
AcDbEntity
  8
0
100
AcDbLine
 10
169.2951769314503
 20
189.2531379893902
 30
0.0
 11
171.2600989314503
 21
189.2531379893902
 31
0.0
  0
LINE
  5
954
330
1F
100
AcDbEntity
  8
0
100
AcDbLine
 10
172.1243419314503
 20
204.2071259893905
 30
0.0
 11
172.6243419314503
 21
204.2071259893905
 31
0.0
  0
LINE
  5
955
330
1F
100
AcDbEntity
  8
0
100
AcDbLine
 10
172.1243419314503
 20
203.7071259893905
 30
0.0
 11
172.6243419314503
 21
203.7071259893905
 31
0.0
  0
LINE
  5
956
330
1F
100
AcDbEntity
  8
0
100
AcDbLine
 10
172.1243419314503
 20
204.2071259893905
 30
0.0
 11
172.1243419314503
 21
203.7071259893905
 31
0.0
  0
LINE
  5
957
330
1F
100
AcDbEntity
  8
0
100
AcDbLine
 10
172.6243419314503
 20
203.7071259893905
 30
0.0
 11
172.6243419314503
 21
204.2071259893905
 31
0.0
  0
LINE
  5
958
330
1F
100
AcDbEntity
  8
0
100
AcDbLine
 10
172.2843419314502
 20
204.0471779893903
 30
0.0
 11
172.2843419314502
 21
203.86707398939
 31
0.0
  0
LINE
  5
959
330
1F
100
AcDbEntity
  8
0
100
AcDbLine
 10
172.2843419314502
 20
203.86707398939
 30
0.0
 11
172.3743419314503
 21
203.86707398939
 31
0.0
  0
LINE
  5
95A
330
1F
100
AcDbEntity
  8
0
100
AcDbLine
 10
172.2843419314502
 20
203.86707398939
 30
0.0
 11
172.3743419314503
 21
203.86707398939
 31
0.0
  0
LINE
  5
95B
330
1F
100
AcDbEntity
  8
0
100
AcDbLine
 10
172.2843419314502
 20
204.0471779893903
 30
0.0
 11
172.3743419314503
 21
204.0471779893903
 31
0.0
  0
LINE
  5
95C
330
1F
100
AcDbEntity
  8
0
100
AcDbLine
 10
172.4643419314503
 20
204.0471779893903
 30
0.0
 11
172.3743419314503
 21
204.0471779893903
 31
0.0
  0
LINE
  5
95D
330
1F
100
AcDbEntity
  8
0
100
AcDbLine
 10
172.4643419314503
 20
203.86707398939
 30
0.0
 11
172.3743419314503
 21
203.86707398939
 31
0.0
  0
LINE
  5
95E
330
1F
100
AcDbEntity
  8
0
100
AcDbLine
 10
172.4643419314503
 20
203.86707398939
 30
0.0
 11
172.3743419314503
 21
203.86707398939
 31
0.0
  0
LINE
  5
95F
330
1F
100
AcDbEntity
  8
0
100
AcDbLine
 10
172.4643419314503
 20
204.0471779893903
 30
0.0
 11
172.4643419314503
 21
203.86707398939
 31
0.0
  0
LINE
  5
960
330
1F
100
AcDbEntity
  8
0
100
AcDbLine
 10
172.1243419314503
 20
199.7071259893905
 30
0.0
 11
172.6243419314503
 21
199.7071259893905
 31
0.0
  0
LINE
  5
961
330
1F
100
AcDbEntity
  8
0
100
AcDbLine
 10
172.1243419314503
 20
200.2071259893905
 30
0.0
 11
172.6243419314503
 21
200.2071259893905
 31
0.0
  0
LINE
  5
962
330
1F
100
AcDbEntity
  8
0
100
AcDbLine
 10
172.1243419314503
 20
202.2071259893905
 30
0.0
 11
172.6243419314503
 21
202.2071259893905
 31
0.0
  0
LINE
  5
963
330
1F
100
AcDbEntity
  8
0
100
AcDbLine
 10
172.1243419314503
 20
201.7071259893905
 30
0.0
 11
172.6243419314503
 21
201.7071259893905
 31
0.0
  0
LINE
  5
964
330
1F
100
AcDbEntity
  8
0
100
AcDbLine
 10
172.1243419314503
 20
200.2071259893905
 30
0.0
 11
172.1243419314503
 21
199.7071259893905
 31
0.0
  0
LINE
  5
965
330
1F
100
AcDbEntity
  8
0
100
AcDbLine
 10
172.1243419314503
 20
202.2071259893905
 30
0.0
 11
172.1243419314503
 21
201.7071259893905
 31
0.0
  0
LINE
  5
966
330
1F
100
AcDbEntity
  8
0
100
AcDbLine
 10
172.6243419314503
 20
199.7071259893905
 30
0.0
 11
172.6243419314503
 21
200.2071259893905
 31
0.0
  0
LINE
  5
967
330
1F
100
AcDbEntity
  8
0
100
AcDbLine
 10
172.2843419314502
 20
200.0471779893903
 30
0.0
 11
172.2843419314502
 21
199.86707398939
 31
0.0
  0
LINE
  5
968
330
1F
100
AcDbEntity
  8
0
100
AcDbLine
 10
172.2843419314502
 20
199.86707398939
 30
0.0
 11
172.3743419314503
 21
199.86707398939
 31
0.0
  0
LINE
  5
969
330
1F
100
AcDbEntity
  8
0
100
AcDbLine
 10
172.2843419314502
 20
199.86707398939
 30
0.0
 11
172.3743419314503
 21
199.86707398939
 31
0.0
  0
LINE
  5
96A
330
1F
100
AcDbEntity
  8
0
100
AcDbLine
 10
172.2843419314502
 20
200.0471779893903
 30
0.0
 11
172.3743419314503
 21
200.0471779893903
 31
0.0
  0
LINE
  5
96B
330
1F
100
AcDbEntity
  8
0
100
AcDbLine
 10
172.4643419314503
 20
200.0471779893903
 30
0.0
 11
172.3743419314503
 21
200.0471779893903
 31
0.0
  0
LINE
  5
96C
330
1F
100
AcDbEntity
  8
0
100
AcDbLine
 10
172.4643419314503
 20
199.86707398939
 30
0.0
 11
172.3743419314503
 21
199.86707398939
 31
0.0
  0
LINE
  5
96D
330
1F
100
AcDbEntity
  8
0
100
AcDbLine
 10
172.4643419314503
 20
199.86707398939
 30
0.0
 11
172.3743419314503
 21
199.86707398939
 31
0.0
  0
LINE
  5
96E
330
1F
100
AcDbEntity
  8
0
100
AcDbLine
 10
172.4643419314503
 20
200.0471779893903
 30
0.0
 11
172.4643419314503
 21
199.86707398939
 31
0.0
  0
LINE
  5
96F
330
1F
100
AcDbEntity
  8
0
100
AcDbLine
 10
172.6243419314503
 20
201.7071259893905
 30
0.0
 11
172.6243419314503
 21
202.2071259893905
 31
0.0
  0
LINE
  5
970
330
1F
100
AcDbEntity
  8
0
100
AcDbLine
 10
172.2843419314502
 20
202.0471779893903
 30
0.0
 11
172.2843419314502
 21
201.86707398939
 31
0.0
  0
LINE
  5
971
330
1F
100
AcDbEntity
  8
0
100
AcDbLine
 10
172.2843419314502
 20
201.86707398939
 30
0.0
 11
172.3743419314503
 21
201.86707398939
 31
0.0
  0
LINE
  5
972
330
1F
100
AcDbEntity
  8
0
100
AcDbLine
 10
172.2843419314502
 20
201.86707398939
 30
0.0
 11
172.3743419314503
 21
201.86707398939
 31
0.0
  0
LINE
  5
973
330
1F
100
AcDbEntity
  8
0
100
AcDbLine
 10
172.2843419314502
 20
202.0471779893903
 30
0.0
 11
172.3743419314503
 21
202.0471779893903
 31
0.0
  0
LINE
  5
974
330
1F
100
AcDbEntity
  8
0
100
AcDbLine
 10
172.4643419314503
 20
202.0471779893903
 30
0.0
 11
172.3743419314503
 21
202.0471779893903
 31
0.0
  0
LINE
  5
975
330
1F
100
AcDbEntity
  8
0
100
AcDbLine
 10
172.4643419314503
 20
201.86707398939
 30
0.0
 11
172.3743419314503
 21
201.86707398939
 31
0.0
  0
LINE
  5
976
330
1F
100
AcDbEntity
  8
0
100
AcDbLine
 10
172.4643419314503
 20
201.86707398939
 30
0.0
 11
172.3743419314503
 21
201.86707398939
 31
0.0
  0
LINE
  5
977
330
1F
100
AcDbEntity
  8
0
100
AcDbLine
 10
172.4643419314503
 20
202.0471779893903
 30
0.0
 11
172.4643419314503
 21
201.86707398939
 31
0.0
  0
LINE
  5
978
330
1F
100
AcDbEntity
  8
0
100
AcDbLine
 10
170.1243419314503
 20
203.7071259893905
 30
0.0
 11
170.6243419314503
 21
203.7071259893905
 31
0.0
  0
LINE
  5
979
330
1F
100
AcDbEntity
  8
0
100
AcDbLine
 10
170.1243419314503
 20
204.2071259893905
 30
0.0
 11
170.6243419314503
 21
204.2071259893905
 31
0.0
  0
LINE
  5
97A
330
1F
100
AcDbEntity
  8
0
100
AcDbLine
 10
170.4643419314503
 20
204.0471779893903
 30
0.0
 11
170.4643419314503
 21
203.86707398939
 31
0.0
  0
LINE
  5
97B
330
1F
100
AcDbEntity
  8
0
100
AcDbLine
 10
170.4643419314503
 20
203.86707398939
 30
0.0
 11
170.3743419314503
 21
203.86707398939
 31
0.0
  0
LINE
  5
97C
330
1F
100
AcDbEntity
  8
0
100
AcDbLine
 10
170.4643419314503
 20
203.86707398939
 30
0.0
 11
170.3743419314503
 21
203.86707398939
 31
0.0
  0
LINE
  5
97D
330
1F
100
AcDbEntity
  8
0
100
AcDbLine
 10
170.4643419314503
 20
204.0471779893903
 30
0.0
 11
170.3743419314503
 21
204.0471779893903
 31
0.0
  0
LINE
  5
97E
330
1F
100
AcDbEntity
  8
0
100
AcDbLine
 10
170.2843419314502
 20
204.0471779893903
 30
0.0
 11
170.3743419314503
 21
204.0471779893903
 31
0.0
  0
LINE
  5
97F
330
1F
100
AcDbEntity
  8
0
100
AcDbLine
 10
170.2843419314502
 20
203.86707398939
 30
0.0
 11
170.3743419314503
 21
203.86707398939
 31
0.0
  0
LINE
  5
980
330
1F
100
AcDbEntity
  8
0
100
AcDbLine
 10
170.2843419314502
 20
203.86707398939
 30
0.0
 11
170.3743419314503
 21
203.86707398939
 31
0.0
  0
LINE
  5
981
330
1F
100
AcDbEntity
  8
0
100
AcDbLine
 10
170.2843419314502
 20
204.0471779893903
 30
0.0
 11
170.2843419314502
 21
203.86707398939
 31
0.0
  0
LINE
  5
982
330
1F
100
AcDbEntity
  8
0
100
AcDbLine
 10
170.6243419314503
 20
203.7071259893905
 30
0.0
 11
170.6243419314503
 21
204.2071259893905
 31
0.0
  0
LINE
  5
983
330
1F
100
AcDbEntity
  8
0
100
AcDbLine
 10
170.1243419314503
 20
204.2071259893905
 30
0.0
 11
170.1243419314503
 21
203.7071259893905
 31
0.0
  0
LINE
  5
984
330
1F
100
AcDbEntity
  8
0
100
AcDbLine
 10
170.2843419314502
 20
200.0471779893903
 30
0.0
 11
170.2843419314502
 21
199.86707398939
 31
0.0
  0
LINE
  5
985
330
1F
100
AcDbEntity
  8
0
100
AcDbLine
 10
170.1243419314503
 20
200.2071259893905
 30
0.0
 11
170.6243419314503
 21
200.2071259893905
 31
0.0
  0
LINE
  5
986
330
1F
100
AcDbEntity
  8
0
100
AcDbLine
 10
170.1243419314503
 20
201.7071259893905
 30
0.0
 11
170.6243419314503
 21
201.7071259893905
 31
0.0
  0
LINE
  5
987
330
1F
100
AcDbEntity
  8
0
100
AcDbLine
 10
170.1243419314503
 20
202.2071259893905
 30
0.0
 11
170.6243419314503
 21
202.2071259893905
 31
0.0
  0
LINE
  5
988
330
1F
100
AcDbEntity
  8
0
100
AcDbLine
 10
170.4643419314503
 20
202.0471779893903
 30
0.0
 11
170.4643419314503
 21
201.86707398939
 31
0.0
  0
LINE
  5
989
330
1F
100
AcDbEntity
  8
0
100
AcDbLine
 10
170.4643419314503
 20
201.86707398939
 30
0.0
 11
170.3743419314503
 21
201.86707398939
 31
0.0
  0
LINE
  5
98A
330
1F
100
AcDbEntity
  8
0
100
AcDbLine
 10
170.4643419314503
 20
201.86707398939
 30
0.0
 11
170.3743419314503
 21
201.86707398939
 31
0.0
  0
LINE
  5
98B
330
1F
100
AcDbEntity
  8
0
100
AcDbLine
 10
170.4643419314503
 20
202.0471779893903
 30
0.0
 11
170.3743419314503
 21
202.0471779893903
 31
0.0
  0
LINE
  5
98C
330
1F
100
AcDbEntity
  8
0
100
AcDbLine
 10
170.2843419314502
 20
202.0471779893903
 30
0.0
 11
170.3743419314503
 21
202.0471779893903
 31
0.0
  0
LINE
  5
98D
330
1F
100
AcDbEntity
  8
0
100
AcDbLine
 10
170.2843419314502
 20
201.86707398939
 30
0.0
 11
170.3743419314503
 21
201.86707398939
 31
0.0
  0
LINE
  5
98E
330
1F
100
AcDbEntity
  8
0
100
AcDbLine
 10
170.2843419314502
 20
201.86707398939
 30
0.0
 11
170.3743419314503
 21
201.86707398939
 31
0.0
  0
LINE
  5
98F
330
1F
100
AcDbEntity
  8
0
100
AcDbLine
 10
170.2843419314502
 20
202.0471779893903
 30
0.0
 11
170.2843419314502
 21
201.86707398939
 31
0.0
  0
LINE
  5
990
330
1F
100
AcDbEntity
  8
0
100
AcDbLine
 10
170.6243419314503
 20
201.7071259893905
 30
0.0
 11
170.6243419314503
 21
202.2071259893905
 31
0.0
  0
LINE
  5
991
330
1F
100
AcDbEntity
  8
0
100
AcDbLine
 10
170.1243419314503
 20
202.2071259893905
 30
0.0
 11
170.1243419314503
 21
201.7071259893905
 31
0.0
  0
LINE
  5
992
330
1F
100
AcDbEntity
  8
0
100
AcDbLine
 10
170.6243419314503
 20
199.7071259893905
 30
0.0
 11
170.6243419314503
 21
200.2071259893905
 31
0.0
  0
LINE
  5
993
330
1F
100
AcDbEntity
  8
0
100
AcDbLine
 10
170.1243419314503
 20
200.2071259893905
 30
0.0
 11
170.1243419314503
 21
199.7071259893905
 31
0.0
  0
LINE
  5
994
330
1F
100
AcDbEntity
  8
0
100
AcDbLine
 10
170.1243419314503
 20
199.7071259893905
 30
0.0
 11
170.6243419314503
 21
199.7071259893905
 31
0.0
  0
LINE
  5
995
330
1F
100
AcDbEntity
  8
0
100
AcDbLine
 10
170.4643419314503
 20
200.0471779893903
 30
0.0
 11
170.4643419314503
 21
199.86707398939
 31
0.0
  0
LINE
  5
996
330
1F
100
AcDbEntity
  8
0
100
AcDbLine
 10
170.4643419314503
 20
199.86707398939
 30
0.0
 11
170.3743419314503
 21
199.86707398939
 31
0.0
  0
LINE
  5
997
330
1F
100
AcDbEntity
  8
0
100
AcDbLine
 10
170.4643419314503
 20
199.86707398939
 30
0.0
 11
170.3743419314503
 21
199.86707398939
 31
0.0
  0
LINE
  5
998
330
1F
100
AcDbEntity
  8
0
100
AcDbLine
 10
170.4643419314503
 20
200.0471779893903
 30
0.0
 11
170.3743419314503
 21
200.0471779893903
 31
0.0
  0
LINE
  5
999
330
1F
100
AcDbEntity
  8
0
100
AcDbLine
 10
170.2843419314502
 20
200.0471779893903
 30
0.0
 11
170.3743419314503
 21
200.0471779893903
 31
0.0
  0
LINE
  5
99A
330
1F
100
AcDbEntity
  8
0
100
AcDbLine
 10
170.2843419314502
 20
199.86707398939
 30
0.0
 11
170.3743419314503
 21
199.86707398939
 31
0.0
  0
LINE
  5
99B
330
1F
100
AcDbEntity
  8
0
100
AcDbLine
 10
170.2843419314502
 20
199.86707398939
 30
0.0
 11
170.3743419314503
 21
199.86707398939
 31
0.0
  0
LINE
  5
99C
330
1F
100
AcDbEntity
  8
0
100
AcDbLine
 10
168.8743419314503
 20
210.0771113303375
 30
0.0
 11
173.8743419314503
 21
210.0771113303375
 31
0.0
  0
LINE
  5
99D
330
1F
100
AcDbEntity
  8
0
100
AcDbLine
 10
172.1243419314503
 20
208.2071259893905
 30
0.0
 11
172.6243419314503
 21
208.2071259893905
 31
0.0
  0
LINE
  5
99E
330
1F
100
AcDbEntity
  8
0
100
AcDbLine
 10
172.1243419314503
 20
207.7071259893905
 30
0.0
 11
172.6243419314503
 21
207.7071259893905
 31
0.0
  0
LINE
  5
99F
330
1F
100
AcDbEntity
  8
0
100
AcDbLine
 10
172.1243419314503
 20
208.2071259893905
 30
0.0
 11
172.1243419314503
 21
207.7071259893905
 31
0.0
  0
LINE
  5
9A0
330
1F
100
AcDbEntity
  8
0
100
AcDbLine
 10
172.6243419314503
 20
207.7071259893905
 30
0.0
 11
172.6243419314503
 21
208.2071259893905
 31
0.0
  0
LINE
  5
9A1
330
1F
100
AcDbEntity
  8
0
100
AcDbLine
 10
172.4643419314503
 20
208.0471779893903
 30
0.0
 11
172.4643419314503
 21
207.86707398939
 31
0.0
  0
LINE
  5
9A2
330
1F
100
AcDbEntity
  8
0
100
AcDbLine
 10
172.2843419314502
 20
208.0471779893903
 30
0.0
 11
172.2843419314502
 21
207.86707398939
 31
0.0
  0
LINE
  5
9A3
330
1F
100
AcDbEntity
  8
0
100
AcDbLine
 10
172.4643419314503
 20
208.0471779893903
 30
0.0
 11
172.3743419314503
 21
208.0471779893903
 31
0.0
  0
LINE
  5
9A4
330
1F
100
AcDbEntity
  8
0
100
AcDbLine
 10
172.2843419314502
 20
208.0471779893903
 30
0.0
 11
172.3743419314503
 21
208.0471779893903
 31
0.0
  0
LINE
  5
9A5
330
1F
100
AcDbEntity
  8
0
100
AcDbLine
 10
172.4643419314503
 20
207.86707398939
 30
0.0
 11
172.3743419314503
 21
207.86707398939
 31
0.0
  0
LINE
  5
9A6
330
1F
100
AcDbEntity
  8
0
100
AcDbLine
 10
172.4643419314503
 20
207.86707398939
 30
0.0
 11
172.3743419314503
 21
207.86707398939
 31
0.0
  0
LINE
  5
9A7
330
1F
100
AcDbEntity
  8
0
100
AcDbLine
 10
172.2843419314502
 20
207.86707398939
 30
0.0
 11
172.3743419314503
 21
207.86707398939
 31
0.0
  0
LINE
  5
9A8
330
1F
100
AcDbEntity
  8
0
100
AcDbLine
 10
172.2843419314502
 20
207.86707398939
 30
0.0
 11
172.3743419314503
 21
207.86707398939
 31
0.0
  0
LINE
  5
9A9
330
1F
100
AcDbEntity
  8
0
100
AcDbLine
 10
170.1243419314503
 20
208.2071259893905
 30
0.0
 11
170.1243419314503
 21
207.7071259893905
 31
0.0
  0
LINE
  5
9AA
330
1F
100
AcDbEntity
  8
0
100
AcDbLine
 10
170.6243419314503
 20
207.7071259893905
 30
0.0
 11
170.6243419314503
 21
208.2071259893905
 31
0.0
  0
LINE
  5
9AB
330
1F
100
AcDbEntity
  8
0
100
AcDbLine
 10
170.2843419314502
 20
208.0471779893903
 30
0.0
 11
170.2843419314502
 21
207.86707398939
 31
0.0
  0
LINE
  5
9AC
330
1F
100
AcDbEntity
  8
0
100
AcDbLine
 10
170.4643419314503
 20
208.0471779893903
 30
0.0
 11
170.4643419314503
 21
207.86707398939
 31
0.0
  0
LINE
  5
9AD
330
1F
100
AcDbEntity
  8
0
100
AcDbLine
 10
170.2843419314502
 20
208.0471779893903
 30
0.0
 11
170.3743419314503
 21
208.0471779893903
 31
0.0
  0
LINE
  5
9AE
330
1F
100
AcDbEntity
  8
0
100
AcDbLine
 10
170.4643419314503
 20
208.0471779893903
 30
0.0
 11
170.3743419314503
 21
208.0471779893903
 31
0.0
  0
LINE
  5
9AF
330
1F
100
AcDbEntity
  8
0
100
AcDbLine
 10
170.1243419314503
 20
208.2071259893905
 30
0.0
 11
170.6243419314503
 21
208.2071259893905
 31
0.0
  0
LINE
  5
9B0
330
1F
100
AcDbEntity
  8
0
100
AcDbLine
 10
170.2843419314502
 20
207.86707398939
 30
0.0
 11
170.3743419314503
 21
207.86707398939
 31
0.0
  0
LINE
  5
9B1
330
1F
100
AcDbEntity
  8
0
100
AcDbLine
 10
170.2843419314502
 20
207.86707398939
 30
0.0
 11
170.3743419314503
 21
207.86707398939
 31
0.0
  0
LINE
  5
9B2
330
1F
100
AcDbEntity
  8
0
100
AcDbLine
 10
170.4643419314503
 20
207.86707398939
 30
0.0
 11
170.3743419314503
 21
207.86707398939
 31
0.0
  0
LINE
  5
9B3
330
1F
100
AcDbEntity
  8
0
100
AcDbLine
 10
170.4643419314503
 20
207.86707398939
 30
0.0
 11
170.3743419314503
 21
207.86707398939
 31
0.0
  0
LINE
  5
9B4
330
1F
100
AcDbEntity
  8
0
100
AcDbLine
 10
170.1243419314503
 20
207.7071259893905
 30
0.0
 11
170.6243419314503
 21
207.7071259893905
 31
0.0
  0
LINE
  5
9B5
330
1F
100
AcDbEntity
  8
0
100
AcDbLine
 10
167.1356889314503
 20
219.7506729893904
 30
0.0
 11
167.5730439314502
 21
219.3693009893905
 31
0.0
  0
LINE
  5
9B6
330
1F
100
AcDbEntity
  8
0
100
AcDbLine
 10
167.5735609314502
 20
220.2093869893904
 30
0.0
 11
168.1661179314503
 21
220.2093869893904
 31
0.0
  0
LINE
  5
9B7
330
1F
100
AcDbEntity
  8
0
100
AcDbLine
 10
167.5735609314502
 20
221.1903779893906
 30
0.0
 11
167.5735609314502
 21
220.2093869893904
 31
0.0
  0
LINE
  5
9B8
330
1F
100
AcDbEntity
  8
0
100
AcDbLine
 10
168.1661179314503
 20
221.1903779893906
 30
0.0
 11
167.5735609314502
 21
221.1903779893906
 31
0.0
  0
LINE
  5
9B9
330
1F
100
AcDbEntity
  8
0
100
AcDbLine
 10
168.1661179314503
 20
220.2093869893904
 30
0.0
 11
168.1661179314503
 21
221.1903779893906
 31
0.0
  0
LINE
  5
9BA
330
1F
100
AcDbEntity
  8
0
100
AcDbLine
 10
167.1356889314503
 20
220.2093869893904
 30
0.0
 11
168.6036449314503
 21
220.2093869893904
 31
0.0
  0
LINE
  5
9BB
330
1F
100
AcDbEntity
  8
0
100
AcDbLine
 10
168.6036449314503
 20
219.7506729893904
 30
0.0
 11
168.1661179314503
 21
219.3693009893905
 31
0.0
  0
LINE
  5
9BC
330
1F
100
AcDbEntity
  8
0
100
AcDbLine
 10
168.8857979314503
 20
220.2446989893902
 30
0.0
 11
169.3233249314503
 21
219.8636719893903
 31
0.0
  0
LINE
  5
9BD
330
1F
100
AcDbEntity
  8
0
100
AcDbLine
 10
170.3537529314503
 20
220.2446989893902
 30
0.0
 11
169.9158819314503
 21
219.8636719893903
 31
0.0
  0
LINE
  5
9BE
330
1F
100
AcDbEntity
  8
0
100
AcDbLine
 10
169.9158819314503
 20
218.8825089893904
 30
0.0
 11
169.3233249314503
 21
218.8825089893904
 31
0.0
  0
LINE
  5
9BF
330
1F
100
AcDbEntity
  8
0
100
AcDbLine
 10
169.9158819314503
 20
219.8636719893903
 30
0.0
 11
169.9158819314503
 21
218.8825089893904
 31
0.0
  0
LINE
  5
9C0
330
1F
100
AcDbEntity
  8
0
100
AcDbLine
 10
169.3233249314503
 20
219.8636719893903
 30
0.0
 11
169.9158819314503
 21
219.8636719893903
 31
0.0
  0
LINE
  5
9C1
330
1F
100
AcDbEntity
  8
0
100
AcDbLine
 10
169.3233249314503
 20
218.8825089893904
 30
0.0
 11
169.3233249314503
 21
219.8636719893903
 31
0.0
  0
LINE
  5
9C2
330
1F
100
AcDbEntity
  8
0
100
AcDbLine
 10
170.3537529314503
 20
218.8825089893904
 30
0.0
 11
168.8857979314503
 21
218.8825089893904
 31
0.0
  0
LINE
  5
9C3
330
1F
100
AcDbEntity
  8
0
100
AcDbLine
 10
170.3537529314503
 20
220.2446989893902
 30
0.0
 11
170.3537529314503
 21
218.8825089893904
 31
0.0
  0
LINE
  5
9C4
330
1F
100
AcDbEntity
  8
0
100
AcDbLine
 10
168.8857979314503
 20
220.2446989893902
 30
0.0
 11
170.3537529314503
 21
220.2446989893902
 31
0.0
  0
LINE
  5
9C5
330
1F
100
AcDbEntity
  8
0
100
AcDbLine
 10
168.8857979314503
 20
218.8825089893904
 30
0.0
 11
168.8857979314503
 21
220.2446989893902
 31
0.0
  0
LINE
  5
9C6
330
1F
100
AcDbEntity
  8
0
100
AcDbLine
 10
168.8857979314503
 20
217.0548849893906
 30
0.0
 11
169.3233249314503
 21
217.4357409893904
 31
0.0
  0
LINE
  5
9C7
330
1F
100
AcDbEntity
  8
0
100
AcDbLine
 10
170.3537529314503
 20
217.0548849893906
 30
0.0
 11
169.9158819314503
 21
217.4357409893904
 31
0.0
  0
LINE
  5
9C8
330
1F
100
AcDbEntity
  8
0
100
AcDbLine
 10
167.1356889314503
 20
215.6644449893903
 30
0.0
 11
168.6036449314503
 21
215.6644449893903
 31
0.0
  0
LINE
  5
9C9
330
1F
100
AcDbEntity
  8
0
100
AcDbLine
 10
167.1356889314503
 20
217.0266359893904
 30
0.0
 11
167.1356889314503
 21
215.6644449893903
 31
0.0
  0
LINE
  5
9CA
330
1F
100
AcDbEntity
  8
0
100
AcDbLine
 10
168.6036449314503
 20
217.0266359893904
 30
0.0
 11
167.1356889314503
 21
217.0266359893904
 31
0.0
  0
LINE
  5
9CB
330
1F
100
AcDbEntity
  8
0
100
AcDbLine
 10
168.6036449314503
 20
215.6644449893903
 30
0.0
 11
168.6036449314503
 21
217.0266359893904
 31
0.0
  0
LINE
  5
9CC
330
1F
100
AcDbEntity
  8
0
100
AcDbLine
 10
169.3233249314503
 20
217.4357409893904
 30
0.0
 11
169.9158819314503
 21
217.4357409893904
 31
0.0
  0
LINE
  5
9CD
330
1F
100
AcDbEntity
  8
0
100
AcDbLine
 10
169.3233249314503
 20
218.4169039893903
 30
0.0
 11
169.3233249314503
 21
217.4357409893904
 31
0.0
  0
LINE
  5
9CE
330
1F
100
AcDbEntity
  8
0
100
AcDbLine
 10
169.9158819314503
 20
218.4169039893903
 30
0.0
 11
169.3233249314503
 21
218.4169039893903
 31
0.0
  0
LINE
  5
9CF
330
1F
100
AcDbEntity
  8
0
100
AcDbLine
 10
169.9158819314503
 20
217.4357409893904
 30
0.0
 11
169.9158819314503
 21
218.4169039893903
 31
0.0
  0
LINE
  5
9D0
330
1F
100
AcDbEntity
  8
0
100
AcDbLine
 10
168.8857979314503
 20
217.0548849893906
 30
0.0
 11
170.3537529314503
 21
217.0548849893906
 31
0.0
  0
LINE
  5
9D1
330
1F
100
AcDbEntity
  8
0
100
AcDbLine
 10
168.8857979314503
 20
218.4169039893903
 30
0.0
 11
168.8857979314503
 21
217.0548849893906
 31
0.0
  0
LINE
  5
9D2
330
1F
100
AcDbEntity
  8
0
100
AcDbLine
 10
170.3537529314503
 20
218.4169039893903
 30
0.0
 11
168.8857979314503
 21
218.4169039893903
 31
0.0
  0
LINE
  5
9D3
330
1F
100
AcDbEntity
  8
0
100
AcDbLine
 10
170.3537529314503
 20
217.0548849893906
 30
0.0
 11
170.3537529314503
 21
218.4169039893903
 31
0.0
  0
LINE
  5
9D4
330
1F
100
AcDbEntity
  8
0
100
AcDbLine
 10
167.1356889314503
 20
215.6644449893903
 30
0.0
 11
167.5730439314502
 21
216.0454719893901
 31
0.0
  0
LINE
  5
9D5
330
1F
100
AcDbEntity
  8
0
100
AcDbLine
 10
168.6036449314503
 20
215.6644449893903
 30
0.0
 11
168.1657729314503
 21
216.0454719893901
 31
0.0
  0
LINE
  5
9D6
330
1F
100
AcDbEntity
  8
0
100
AcDbLine
 10
167.5730439314502
 20
216.0454719893901
 30
0.0
 11
168.1657729314503
 21
216.0454719893901
 31
0.0
  0
LINE
  5
9D7
330
1F
100
AcDbEntity
  8
0
100
AcDbLine
 10
167.5730439314502
 20
217.0266359893904
 30
0.0
 11
167.5730439314502
 21
216.0454719893901
 31
0.0
  0
LINE
  5
9D8
330
1F
100
AcDbEntity
  8
0
100
AcDbLine
 10
168.1657729314503
 20
217.0266359893904
 30
0.0
 11
167.5730439314502
 21
217.0266359893904
 31
0.0
  0
LINE
  5
9D9
330
1F
100
AcDbEntity
  8
0
100
AcDbLine
 10
168.1657729314503
 20
216.0454719893901
 30
0.0
 11
168.1657729314503
 21
217.0266359893904
 31
0.0
  0
LINE
  5
9DA
330
1F
100
AcDbEntity
  8
0
100
AcDbLine
 10
167.5735609314502
 20
218.3886539893902
 30
0.0
 11
168.1661179314503
 21
218.3886539893902
 31
0.0
  0
LINE
  5
9DB
330
1F
100
AcDbEntity
  8
0
100
AcDbLine
 10
167.5735609314502
 20
219.3696449893903
 30
0.0
 11
167.5735609314502
 21
218.3886539893902
 31
0.0
  0
LINE
  5
9DC
330
1F
100
AcDbEntity
  8
0
100
AcDbLine
 10
168.1661179314503
 20
219.3696449893903
 30
0.0
 11
167.5735609314502
 21
219.3696449893903
 31
0.0
  0
LINE
  5
9DD
330
1F
100
AcDbEntity
  8
0
100
AcDbLine
 10
168.1661179314503
 20
218.3886539893902
 30
0.0
 11
168.1661179314503
 21
219.3696449893903
 31
0.0
  0
LINE
  5
9DE
330
1F
100
AcDbEntity
  8
0
100
AcDbLine
 10
167.1356889314503
 20
218.3886539893902
 30
0.0
 11
168.6036449314503
 21
218.3886539893902
 31
0.0
  0
LINE
  5
9DF
330
1F
100
AcDbEntity
  8
0
100
AcDbLine
 10
167.1356889314503
 20
219.7506729893904
 30
0.0
 11
167.1356889314503
 21
218.3886539893902
 31
0.0
  0
LINE
  5
9E0
330
1F
100
AcDbEntity
  8
0
100
AcDbLine
 10
168.6036449314503
 20
219.7506729893904
 30
0.0
 11
167.1356889314503
 21
219.7506729893904
 31
0.0
  0
LINE
  5
9E1
330
1F
100
AcDbEntity
  8
0
100
AcDbLine
 10
168.6036449314503
 20
218.3886539893902
 30
0.0
 11
168.6036449314503
 21
219.7506729893904
 31
0.0
  0
LINE
  5
9E2
330
1F
100
AcDbEntity
  8
0
100
AcDbLine
 10
168.6036449314503
 20
221.5714059893902
 30
0.0
 11
168.1661179314503
 21
221.1900339893903
 31
0.0
  0
LINE
  5
9E3
330
1F
100
AcDbEntity
  8
0
100
AcDbLine
 10
167.1356889314503
 20
221.5714059893902
 30
0.0
 11
167.5730439314502
 21
221.1900339893903
 31
0.0
  0
LINE
  5
9E4
330
1F
100
AcDbEntity
  8
0
100
AcDbLine
 10
167.1356889314503
 20
221.5714059893902
 30
0.0
 11
167.1356889314503
 21
220.2093869893904
 31
0.0
  0
LINE
  5
9E5
330
1F
100
AcDbEntity
  8
0
100
AcDbLine
 10
168.6036449314503
 20
220.2093869893904
 30
0.0
 11
168.6036449314503
 21
221.5714059893902
 31
0.0
  0
LINE
  5
9E6
330
1F
100
AcDbEntity
  8
0
100
AcDbLine
 10
168.6036449314503
 20
221.5714059893902
 30
0.0
 11
167.1356889314503
 21
221.5714059893902
 31
0.0
  0
LINE
  5
9E7
330
1F
100
AcDbEntity
  8
0
100
AcDbLine
 10
166.8743419314503
 20
226.4071259893904
 30
0.0
 11
173.8743419314503
 21
226.4071259893904
 31
0.0
  0
LINE
  5
9E8
330
1F
100
AcDbEntity
  8
0
100
AcDbLine
 10
166.8743419314503
 20
231.4071259893904
 30
0.0
 11
173.8743419314503
 21
231.4071259893904
 31
0.0
  0
LINE
  5
9E9
330
1F
100
AcDbEntity
  8
0
100
AcDbLine
 10
161.0743419314503
 20
225.6571259893904
 30
0.0
 11
173.8743419314503
 21
225.6571259893904
 31
0.0
  0
LINE
  5
9EA
330
1F
100
AcDbEntity
  8
0
100
AcDbLine
 10
166.2243419314502
 20
232.3571259893906
 30
0.0
 11
173.6243419314503
 21
232.3571259893905
 31
0.0
  0
LINE
  5
9EC
330
1F
100
AcDbEntity
  8
0
100
AcDbLine
 10
166.2243419314502
 20
232.3571259893905
 30
0.0
 11
173.6243419314503
 21
232.3571259893905
 31
0.0
  0
CIRCLE
  5
9EF
330
1F
100
AcDbEntity
  8
0
100
AcDbCircle
 10
169.9243419314503
 20
236.1071259893904
 30
0.0
 40
3.7
  0
CIRCLE
  5
9F0
330
1F
100
AcDbEntity
  8
0
100
AcDbCircle
 10
169.9243419314503
 20
236.1071259893904
 30
0.0
 40
3.7
  0
ARC
  5
9F1
330
1F
100
AcDbEntity
  8
0
100
AcDbCircle
 10
169.9243419314503
 20
236.1071259893904
 30
0.0
 40
3.699999999999931
100
AcDbArc
 50
0.0
 51
180.0
  0
LINE
  5
9F2
330
1F
100
AcDbEntity
  8
0
100
AcDbLine
 10
166.8743419314503
 20
226.4071259893904
 30
0.0
 11
166.8743419314503
 21
231.4071259893904
 31
0.0
  0
LINE
  5
9F3
330
1F
100
AcDbEntity
  8
0
100
AcDbLine
 10
160.5743419314503
 20
226.1331389893904
 30
0.0
 11
166.2243419314503
 21
226.1331389893904
 31
0.0
  0
LINE
  5
9F4
330
1F
100
AcDbEntity
  8
0
100
AcDbLine
 10
166.2243419314503
 20
226.1331389893904
 30
0.0
 11
166.2243419314503
 21
231.4071259893904
 31
0.0
  0
LINE
  5
9F5
330
1F
100
AcDbEntity
  8
0
100
AcDbLine
 10
166.2243419314503
 20
236.1071259893904
 30
0.0
 11
166.2243419314503
 21
231.4071259893904
 31
0.0
  0
LINE
  5
9F6
330
1F
100
AcDbEntity
  8
0
100
AcDbLine
 10
169.2951769314503
 20
230.4071259893904
 30
0.0
 11
169.2951769314503
 21
227.4071259893904
 31
0.0
  0
LINE
  5
9F7
330
1F
100
AcDbEntity
  8
0
100
AcDbLine
 10
171.2600989314503
 20
230.4071259893904
 30
0.0
 11
171.2600989314503
 21
227.4071259893904
 31
0.0
  0
LINE
  5
9F8
330
1F
100
AcDbEntity
  8
0
100
AcDbLine
 10
169.2951769314503
 20
230.4071259893904
 30
0.0
 11
171.2600989314503
 21
230.4071259893904
 31
0.0
  0
LINE
  5
9F9
330
1F
100
AcDbEntity
  8
0
100
AcDbLine
 10
169.2951769314503
 20
227.4071259893904
 30
0.0
 11
171.2600989314503
 21
227.4071259893904
 31
0.0
  0
LINE
  5
9FA
330
1F
100
AcDbEntity
  8
0
100
AcDbLine
 10
173.8743419314503
 20
231.4071259893904
 30
0.0
 11
173.8743419314503
 21
226.4071259893904
 31
0.0
  0
LINE
  5
9FB
330
1F
100
AcDbEntity
  8
0
100
AcDbLine
 10
168.8924129314502
 20
235.9460749893904
 30
0.0
 11
171.7259479314503
 21
235.9460749893904
 31
0.0
  0
LINE
  5
9FC
330
1F
100
AcDbEntity
  8
0
100
AcDbLine
 10
168.0169049314503
 20
236.1071259893904
 30
0.0
 11
168.8924129314502
 21
235.5269359893903
 31
0.0
  0
LINE
  5
9FD
330
1F
100
AcDbEntity
  8
0
100
AcDbLine
 10
168.8924129314502
 20
235.9460749893904
 30
0.0
 11
168.8924129314502
 21
235.5269359893903
 31
0.0
  0
LINE
  5
9FE
330
1F
100
AcDbEntity
  8
0
100
AcDbLine
 10
173.6243419314503
 20
231.8071259893905
 30
0.0
 11
174.3743419314503
 21
231.8071259893905
 31
0.0
  0
LINE
  5
9FF
330
1F
100
AcDbEntity
  8
0
100
AcDbLine
 10
173.4743419314503
 20
235.1172611850123
 30
0.0
 11
173.4743419314503
 21
232.3571259893905
 31
0.0
  0
LINE
  5
A00
330
1F
100
AcDbEntity
  8
0
100
AcDbLine
 10
173.6243419314503
 20
233.2671259893905
 30
0.0
 11
173.4743419314503
 21
233.2671259893905
 31
0.0
  0
LINE
  5
A01
330
1F
100
AcDbEntity
  8
0
100
AcDbLine
 10
173.6243419314503
 20
233.8671259893906
 30
0.0
 11
173.4743419314503
 21
233.8671259893905
 31
0.0
  0
LINE
  5
A07
330
1F
100
AcDbEntity
  8
0
100
AcDbLine
 10
168.0169048990961
 20
236.1071259893904
 30
0.0
 11
168.8924133916049
 21
235.5269359571646
 31
0.0
  0
LINE
  5
A08
330
1F
100
AcDbEntity
  8
0
100
AcDbLine
 10
168.8924133916049
 20
235.9460755132275
 30
0.0
 11
168.8924133916049
 21
235.5269359571646
 31
0.0
  0
LINE
  5
A0A
330
1F
100
AcDbEntity
  8
0
100
AcDbLine
 10
168.8924133916049
 20
235.9460755132275
 30
0.0
 11
171.7259478396396
 21
235.9460755132275
 31
0.0
  0
LINE
  5
A0B
330
1F
100
AcDbEntity
  8
0
100
AcDbLine
 10
173.6243419314503
 20
236.1071259893904
 30
0.0
 11
173.6243419314503
 21
231.8071259893905
 31
0.0
  0
LINE
  5
A12
330
1F
100
AcDbEntity
  8
0
100
AcDbLine
 10
171.7259478396396
 20
236.2681764655497
 30
0.0
 11
171.7259478396396
 21
235.9460755132275
 31
0.0
  0
LINE
  5
A13
330
1F
100
AcDbEntity
  8
0
100
AcDbLine
 10
168.8924133916049
 20
236.6873160216163
 30
0.0
 11
168.8924133916049
 21
236.2681764655497
 31
0.0
  0
LINE
  5
A14
330
1F
100
AcDbEntity
  8
0
100
AcDbLine
 10
168.0169048990961
 20
236.1071259893904
 30
0.0
 11
168.8924133916049
 21
236.6873160216163
 31
0.0
  0
LINE
  5
A15
330
1F
100
AcDbEntity
  8
0
100
AcDbLine
 10
168.8924133916049
 20
236.2681764655497
 30
0.0
 11
171.7259478396396
 21
236.2681764655497
 31
0.0
  0
CIRCLE
  5
A17
330
1F
100
AcDbEntity
  8
0
100
AcDbCircle
 10
169.9243419314503
 20
236.1071259893904
 30
0.0
 40
1.907437032355005
  0
LINE
  5
A18
330
1F
100
AcDbEntity
  8
0
100
AcDbLine
 10
168.8924129314502
 20
236.2681759893906
 30
0.0
 11
171.7259479314503
 21
236.2681759893906
 31
0.0
  0
LINE
  5
A19
330
1F
100
AcDbEntity
  8
0
100
AcDbLine
 10
168.8924129314502
 20
236.6873159893904
 30
0.0
 11
168.8924129314502
 21
236.2681759893906
 31
0.0
  0
LINE
  5
A1A
330
1F
100
AcDbEntity
  8
0
100
AcDbLine
 10
168.0169049314503
 20
236.1071259893904
 30
0.0
 11
168.8924129314502
 21
236.6873159893904
 31
0.0
  0
LINE
  5
A1B
330
1F
100
AcDbEntity
  8
0
100
AcDbLine
 10
171.7259479314503
 20
236.2681759893906
 30
0.0
 11
171.7259479314503
 21
235.9460749893904
 31
0.0
  0
LINE
  5
A1C
330
1F
100
AcDbEntity
  8
外枠
100
AcDbLine
 10
168.8743419314503
 20
210.0771113303375
 30
0.0
 11
173.8743419314503
 21
210.0771113303375
 31
0.0
  0
LINE
  5
A1D
330
1F
100
AcDbEntity
  8
0
100
AcDbLine
 10
168.8743419314502
 20
192.1771113303375
 30
0.0
 11
173.8743419314502
 21
192.1771113303375
 31
0.0
  0
LINE
  5
A1E
330
1F
100
AcDbEntity
  8
外枠
100
AcDbLine
 10
168.8743419314502
 20
192.1771113303375
 30
0.0
 11
173.8743419314503
 21
192.1771113303375
 31
0.0
  0
LINE
  5
A1F
330
1F
100
AcDbEntity
  8
外枠
100
AcDbLine
 10
173.8743419314503
 20
174.3031379893894
 30
0.0
 11
173.8743419314503
 21
143.8331389893904
 31
0.0
  0
LINE
  5
A20
330
1F
100
AcDbEntity
  8
外枠
100
AcDbLine
 10
173.8743419314503
 20
184.5031379893883
 30
0.0
 11
173.8743419314503
 21
185.2531379893902
 31
0.0
  0
LINE
  5
A21
330
1F
100
AcDbEntity
  8
外枠
100
AcDbLine
 10
173.8743419314503
 20
190.2531379893902
 30
0.0
 11
173.8743419314503
 21
192.1771113303375
 31
0.0
  0
LINE
  5
A22
330
1F
100
AcDbEntity
  8
外枠
100
AcDbLine
 10
173.8743419314503
 20
210.0771113303375
 30
0.0
 11
173.8743419314503
 21
211.6571259893904
 31
0.0
  0
LINE
  5
A23
330
1F
100
AcDbEntity
  8
外枠
100
AcDbLine
 10
173.8743419314503
 20
225.6571259893904
 30
0.0
 11
173.8743419314503
 21
226.4071259893904
 31
0.0
  0
LINE
  5
A24
330
1F
100
AcDbEntity
  8
外枠
100
AcDbLine
 10
173.8743419314503
 20
231.4071259893904
 30
0.0
 11
173.8743419314503
 21
231.8071259893905
 31
0.0
  0
LINE
  5
A25
330
1F
100
AcDbEntity
  8
WORKLAYER
  6
CONTINUOUS
100
AcDbLine
 10
159.7742088318403
 20
255.0514003058583
 30
0.0
 11
159.7742038314494
 21
266.2714523518356
 31
0.0
  0
CIRCLE
  5
A26
330
1F
100
AcDbEntity
  8
WORKLAYER
  6
CONTINUOUS
100
AcDbCircle
 10
162.2043948314561
 20
257.921320451835
 30
0.0
 40
1.0
  0
CIRCLE
  5
A27
330
1F
100
AcDbEntity
  8
WORKLAYER
  6
CONTINUOUS
100
AcDbCircle
 10
165.0443949314552
 20
259.2912012518358
 30
0.0
 40
1.0
  0
LINE
  5
A28
330
1F
100
AcDbEntity
  8
WORKLAYER
  6
CONTINUOUS
100
AcDbLine
 10
166.8239513314487
 20
255.5469435518357
 30
0.0
 11
166.8239513314487
 21
265.7764576518352
 31
0.0
  0
LINE
  5
A29
330
1F
100
AcDbEntity
  8
WORKLAYER
  6
CONTINUOUS
100
AcDbLine
 10
160.6240039314483
 20
255.0319441518354
 30
0.0
 11
160.6240039314483
 21
266.2914642518358
 31
0.0
  0
LINE
  5
A2A
330
1F
100
AcDbEntity
  8
0
  6
CONTINUOUS
100
AcDbLine
 10
169.9742427314462
 20
244.5114439518352
 30
0.0
 11
169.9742427314462
 21
276.8114475518327
 31
0.0
  0
LINE
  5
A2B
330
1F
100
AcDbEntity
  8
WORKLAYER
  6
CONTINUOUS
100
AcDbLine
 10
157.4243464314562
 20
246.9864443518349
 30
0.0
 11
157.4243464314562
 21
274.3364443518353
 31
0.0
  0
LINE
  5
A2C
330
1F
100
AcDbEntity
  8
WORKLAYER
  6
CONTINUOUS
100
AcDbLine
 10
167.6742015314479
 20
255.3059443518345
 30
0.0
 11
167.6742015314479
 21
266.037955651835
 31
0.0
  0
LINE
  5
A2D
330
1F
100
AcDbEntity
  8
WORKLAYER
  6
CONTINUOUS
100
AcDbLine
 10
166.8741527314481
 20
255.2859553518342
 30
0.0
 11
166.8741527314481
 21
266.0374592518351
 31
0.0
  0
ARC
  5
A2E
330
1F
100
AcDbEntity
  8
WORKLAYER
  6
CONTINUOUS
100
AcDbCircle
 10
162.3141959309826
 20
266.2714036495513
 30
0.0
 40
2.5399921
100
AcDbArc
 50
80.00100710000928
 51
179.9989013999862
  0
CIRCLE
  5
A2F
330
1F
100
AcDbEntity
  8
WORKLAYER
  6
CONTINUOUS
100
AcDbCircle
 10
163.6242442314554
 20
273.1559484518352
 30
0.0
 40
1.3000031
  0
ARC
  5
A30
330
1F
100
AcDbEntity
  8
WORKLAYER
  6
CONTINUOUS
100
AcDbCircle
 10
159.1743960314555
 20
274.3114474518356
 30
0.0
 40
1.749991999999999
100
AcDbArc
 50
89.9989928999877
 51
180.0
  0
ARC
  5
A31
330
1F
100
AcDbEntity
  8
WORKLAYER
  6
CONTINUOUS
100
AcDbCircle
 10
168.2242537314644
 20
274.3114474518356
 30
0.0
 40
1.749989
100
AcDbArc
 50
0.0002517999638526
 51
90.00100710001229
  0
CIRCLE
  5
A32
330
1F
100
AcDbEntity
  8
WORKLAYER
  6
CONTINUOUS
100
AcDbCircle
 10
163.6243434314559
 20
273.1559484518352
 30
0.0
 40
1.5500031
  0
CIRCLE
  5
A33
330
1F
100
AcDbEntity
  8
WORKLAYER
  6
CONTINUOUS
100
AcDbCircle
 10
163.6242442314554
 20
273.1559484518352
 30
0.0
 40
1.0
  0
CIRCLE
  5
A34
330
1F
100
AcDbEntity
  8
WORKLAYER
  6
CONTINUOUS
100
AcDbCircle
 10
163.6242442314554
 20
273.1559484518352
 30
0.0
 40
2.5114751
  0
LINE
  5
A35
330
1F
100
AcDbEntity
  8
WORKLAYER
  6
CONTINUOUS
100
AcDbLine
 10
160.7242541314548
 20
273.1559534518351
 30
0.0
 11
162.1742434314559
 21
275.6674474518354
 31
0.0
  0
LINE
  5
A36
330
1F
100
AcDbEntity
  8
WORKLAYER
  6
CONTINUOUS
100
AcDbLine
 10
162.1742434314559
 20
270.6444505518343
 30
0.0
 11
160.7242465314551
 21
273.1559474518348
 31
0.0
  0
LINE
  5
A37
330
1F
100
AcDbEntity
  8
WORKLAYER
  6
CONTINUOUS
100
AcDbLine
 10
165.074245031455
 20
270.6444515518346
 30
0.0
 11
162.1742434314559
 21
270.6444515518346
 31
0.0
  0
LINE
  5
A38
330
1F
100
AcDbEntity
  8
WORKLAYER
  6
CONTINUOUS
100
AcDbLine
 10
162.1742434314559
 20
275.6674465518358
 30
0.0
 11
165.074245031455
 21
275.6674465518358
 31
0.0
  0
LINE
  5
A39
330
1F
100
AcDbEntity
  8
WORKLAYER
  6
CONTINUOUS
100
AcDbLine
 10
159.1743960314555
 20
276.0614475518345
 30
0.0
 11
169.974242731448
 21
276.0614475518345
 31
0.0
  0
LINE
  5
A3A
330
1F
100
AcDbEntity
  8
WORKLAYER
  6
CONTINUOUS
100
AcDbLine
 10
166.5242038314548
 20
273.1559464518345
 30
0.0
 11
165.074245031455
 21
270.6444505518343
 31
0.0
  0
LINE
  5
A3B
330
1F
100
AcDbEntity
  8
WORKLAYER
  6
CONTINUOUS
100
AcDbLine
 10
165.074245031455
 20
275.6674434518358
 30
0.0
 11
166.5241961314562
 21
273.1559484518352
 31
0.0
  0
CIRCLE
  5
A3C
330
1F
100
AcDbEntity
  8
WORKLAYER
  6
CONTINUOUS
100
AcDbCircle
 10
165.0443949314552
 20
259.2912012518358
 30
0.0
 40
0.5500030000000001
  0
CIRCLE
  5
A3D
330
1F
100
AcDbEntity
  8
WORKLAYER
  6
CONTINUOUS
100
AcDbCircle
 10
165.0443949314552
 20
262.0310776518349
 30
0.0
 40
0.5500030000000001
  0
CIRCLE
  5
A3E
330
1F
100
AcDbEntity
  8
WORKLAYER
  6
CONTINUOUS
100
AcDbCircle
 10
165.0443949314552
 20
264.7709540518358
 30
0.0
 40
1.0
  0
CIRCLE
  5
A3F
330
1F
100
AcDbEntity
  8
WORKLAYER
  6
CONTINUOUS
100
AcDbCircle
 10
165.0443949314552
 20
264.7709540518358
 30
0.0
 40
0.5500030000000001
  0
CIRCLE
  5
A40
330
1F
100
AcDbEntity
  8
WORKLAYER
  6
CONTINUOUS
100
AcDbCircle
 10
165.0443949314552
 20
262.0310776518349
 30
0.0
 40
1.0
  0
CIRCLE
  5
A41
330
1F
100
AcDbEntity
  8
WORKLAYER
  6
CONTINUOUS
100
AcDbCircle
 10
162.2043948314561
 20
263.4010732518349
 30
0.0
 40
1.0
  0
CIRCLE
  5
A42
330
1F
100
AcDbEntity
  8
WORKLAYER
  6
CONTINUOUS
100
AcDbCircle
 10
162.2043948314561
 20
263.4010732518349
 30
0.0
 40
0.5500030000000001
  0
CIRCLE
  5
A43
330
1F
100
AcDbEntity
  8
WORKLAYER
  6
CONTINUOUS
100
AcDbCircle
 10
162.2043948314561
 20
260.6611968518359
 30
0.0
 40
1.0
  0
CIRCLE
  5
A44
330
1F
100
AcDbEntity
  8
WORKLAYER
  6
CONTINUOUS
100
AcDbCircle
 10
162.2043948314561
 20
260.6611968518359
 30
0.0
 40
0.5500030000000001
  0
ARC
  5
A45
330
1F
100
AcDbEntity
  8
WORKLAYER
  6
CONTINUOUS
100
AcDbCircle
 10
165.4241965309823
 20
266.0179098495504
 30
0.0
 40
2.249988999999999
100
AcDbArc
 50
0.0002135999506279
 51
80.00090030000706
  0
ARC
  5
A46
330
1F
100
AcDbEntity
  8
WORKLAYER
  6
CONTINUOUS
100
AcDbCircle
 10
165.4241965309823
 20
266.0379069495506
 30
0.0
 40
1.449996899999999
100
AcDbArc
 50
359.9999770999606
 51
80.00090030000706
  0
ARC
  5
A47
330
1F
100
AcDbEntity
  8
WORKLAYER
  6
CONTINUOUS
100
AcDbCircle
 10
162.3562247984222
 20
266.1345699516482
 30
0.0
 40
1.888403919785388
100
AcDbArc
 50
82.0835676047635
 51
175.2356827658355
  0
ARC
  5
A48
330
1F
100
AcDbEntity
  8
WORKLAYER
  6
CONTINUOUS
100
AcDbCircle
 10
162.2642463309833
 20
266.2914155495514
 30
0.0
 40
1.639993
100
AcDbArc
 50
80.00090030000706
 51
180.0
  0
ARC
  5
A49
330
1F
100
AcDbEntity
  8
WORKLAYER
  6
CONTINUOUS
100
AcDbCircle
 10
165.1841987309829
 20
265.7764089495508
 30
0.0
 40
1.639991999999999
100
AcDbArc
 50
0.0002822999643171
 51
80.00109860002964
  0
CIRCLE
  5
A4A
330
1F
100
AcDbEntity
  8
WORKLAYER
  6
CONTINUOUS
100
AcDbCircle
 10
162.2043948314561
 20
266.1409496518358
 30
0.0
 40
1.0
  0
CIRCLE
  5
A4B
330
1F
100
AcDbEntity
  8
WORKLAYER
  6
CONTINUOUS
100
AcDbCircle
 10
162.2043948314561
 20
266.1409496518358
 30
0.0
 40
0.5500030000000001
  0
LINE
  5
A4C
330
1F
100
AcDbEntity
  8
WORKLAYER
  6
CONTINUOUS
100
AcDbLine
 10
165.4688476309833
 20
267.3914097495512
 30
0.0
 11
162.5488456309825
 21
267.9064086495514
 31
0.0
  0
LINE
  5
A4D
330
1F
100
AcDbEntity
  8
WORKLAYER
  6
CONTINUOUS
100
AcDbLine
 10
165.8148482309837
 20
268.2334116495499
 30
0.0
 11
162.7551978309833
 21
268.7729109495508
 31
0.0
  0
LINE
  5
A4E
330
1F
100
AcDbEntity
  8
WORKLAYER
  6
CONTINUOUS
100
AcDbLine
 10
165.6759360309837
 20
267.4653747495508
 30
0.0
 11
162.6162971309835
 21
268.0048726495501
 31
0.0
  0
LINE
  5
A4F
330
1F
100
AcDbEntity
  8
WORKLAYER
  6
CONTINUOUS
100
AcDbLine
 10
160.4743457314556
 20
260.6614445518357
 30
0.0
 11
160.4743457314556
 21
266.2914642518358
 31
0.0
  0
CIRCLE
  5
A50
330
1F
100
AcDbEntity
  8
WORKLAYER
  6
CONTINUOUS
100
AcDbCircle
 10
163.7241016314486
 20
248.1664446518357
 30
0.0
 40
1.299998999999999
  0
CIRCLE
  5
A51
330
1F
100
AcDbEntity
  8
WORKLAYER
  6
CONTINUOUS
100
AcDbCircle
 10
163.7241016314486
 20
248.1664446518357
 30
0.0
 40
1.520001099999999
  0
CIRCLE
  5
A52
330
1F
100
AcDbEntity
  8
WORKLAYER
  6
CONTINUOUS
100
AcDbCircle
 10
163.7241016314486
 20
248.1664446518357
 30
0.0
 40
1.0
  0
CIRCLE
  5
A53
330
1F
100
AcDbEntity
  8
WORKLAYER
  6
CONTINUOUS
100
AcDbCircle
 10
163.7241016314486
 20
248.1664446518357
 30
0.0
 40
2.5114751
  0
LINE
  5
A54
330
1F
100
AcDbEntity
  8
WORKLAYER
  6
CONTINUOUS
100
AcDbLine
 10
162.2741008314491
 20
245.6549452518343
 30
0.0
 11
160.8241039314483
 21
248.1664351518343
 31
0.0
  0
LINE
  5
A55
330
1F
100
AcDbEntity
  8
WORKLAYER
  6
CONTINUOUS
100
AcDbLine
 10
166.6240840314488
 20
248.1664236518358
 30
0.0
 11
165.1741329314494
 21
245.6549147518348
 31
0.0
  0
CIRCLE
  5
A56
330
1F
100
AcDbEntity
  8
WORKLAYER
  6
CONTINUOUS
100
AcDbCircle
 10
162.2043948314561
 20
257.921320451835
 30
0.0
 40
0.5500030000000001
  0
ARC
  5
A57
330
1F
100
AcDbEntity
  8
WORKLAYER
  6
CONTINUOUS
100
AcDbCircle
 10
162.356232143261
 20
255.188279315087
 30
0.0
 40
1.888411934066741
100
AcDbArc
 50
184.7645516588018
 51
277.9162839849423
  0
ARC
  5
A58
330
1F
100
AcDbEntity
  8
WORKLAYER
  6
CONTINUOUS
100
AcDbCircle
 10
162.2642513314489
 20
255.0314253518358
 30
0.0
 40
1.639993
100
AcDbArc
 50
180.0
 51
279.9990282000253
  0
ARC
  5
A59
330
1F
100
AcDbEntity
  8
WORKLAYER
  6
CONTINUOUS
100
AcDbCircle
 10
165.1842037314485
 20
255.5464343518347
 30
0.0
 40
1.639991999999999
100
AcDbArc
 50
279.998890900045
 51
359.9996795999698
  0
ARC
  5
A5A
330
1F
100
AcDbEntity
  8
WORKLAYER
  6
CONTINUOUS
100
AcDbCircle
 10
165.4242015314479
 20
255.2849348518343
 30
0.0
 40
1.449996899999999
100
AcDbArc
 50
279.9990282000253
 51
359.9999770999606
  0
ARC
  5
A5B
330
1F
100
AcDbEntity
  8
WORKLAYER
  6
CONTINUOUS
100
AcDbCircle
 10
162.3142009314482
 20
255.0514449518345
 30
0.0
 40
2.5399921
100
AcDbArc
 50
180.0010071000123
 51
279.9989328000399
  0
ARC
  5
A5C
330
1F
100
AcDbEntity
  8
WORKLAYER
  6
CONTINUOUS
100
AcDbCircle
 10
165.4242015314479
 20
255.3049353518349
 30
0.0
 40
2.249988999999999
100
AcDbArc
 50
279.9990282000253
 51
359.9997482000361
  0
CIRCLE
  5
A5D
330
1F
100
AcDbEntity
  8
WORKLAYER
  6
CONTINUOUS
100
AcDbCircle
 10
162.3042522314493
 20
255.1814440518342
 30
0.0
 40
0.5499990000000001
  0
CIRCLE
  5
A5E
330
1F
100
AcDbEntity
  8
WORKLAYER
  6
CONTINUOUS
100
AcDbCircle
 10
165.1442523314484
 20
256.5514449518345
 30
0.0
 40
0.5500030000000001
  0
CIRCLE
  5
A5F
330
1F
100
AcDbEntity
  8
WORKLAYER
  6
CONTINUOUS
100
AcDbCircle
 10
162.3042522314493
 20
255.1814440518342
 30
0.0
 40
1.0
  0
CIRCLE
  5
A60
330
1F
100
AcDbEntity
  8
WORKLAYER
  6
CONTINUOUS
100
AcDbCircle
 10
165.1442523314484
 20
256.5514449518345
 30
0.0
 40
1.0
  0
LINE
  5
A61
330
1F
100
AcDbEntity
  8
WORKLAYER
  6
CONTINUOUS
100
AcDbLine
 10
165.4688526314488
 20
253.9314345518346
 30
0.0
 11
162.548850631448
 21
253.4164351518343
 31
0.0
  0
LINE
  5
A62
330
1F
100
AcDbEntity
  8
WORKLAYER
  6
CONTINUOUS
100
AcDbLine
 10
165.8148532314493
 20
253.0894335518355
 30
0.0
 11
162.7552028314488
 21
252.5499342518346
 31
0.0
  0
LINE
  5
A63
330
1F
100
AcDbEntity
  8
WORKLAYER
  6
CONTINUOUS
100
AcDbLine
 10
165.6759410314492
 20
253.8574751518358
 30
0.0
 11
162.616302131449
 21
253.317973951835
 31
0.0
  0
LINE
  5
A64
330
1F
100
AcDbEntity
  8
WORKLAYER
  6
CONTINUOUS
100
AcDbLine
 10
165.1741329314494
 20
250.6779650518351
 30
0.0
 11
166.6240840314488
 21
248.1664637518356
 31
0.0
  0
LINE
  5
A65
330
1F
100
AcDbEntity
  8
WORKLAYER
  6
CONTINUOUS
100
AcDbLine
 10
160.8240924314481
 20
248.166454251836
 30
0.0
 11
162.2740932314494
 21
250.6779536518356
 31
0.0
  0
LINE
  5
A66
330
1F
100
AcDbEntity
  8
WORKLAYER
  6
CONTINUOUS
100
AcDbLine
 10
162.2741008314491
 20
250.6779536518356
 30
0.0
 11
165.1741024314482
 21
250.6779536518356
 31
0.0
  0
ARC
  5
A67
330
1F
100
AcDbEntity
  8
0
  6
CONTINUOUS
100
AcDbCircle
 10
168.224242731448
 20
247.0114439518352
 30
0.0
 40
1.749989
100
AcDbArc
 50
270.0
 51
0.0003891000438531
  0
ARC
  5
A68
330
1F
100
AcDbEntity
  8
WORKLAYER
  6
CONTINUOUS
100
AcDbCircle
 10
159.352080910195
 20
247.1993361065437
 30
0.0
 40
1.939454335564851
100
AcDbArc
 50
186.3019934180303
 51
267.7001862741153
  0
LINE
  5
A69
330
1F
100
AcDbEntity
  8
0
  6
CONTINUOUS
100
AcDbLine
 10
159.2742534314487
 20
245.2614439518352
 30
0.0
 11
169.9742008314491
 21
245.2614439518352
 31
0.0
  0
LINE
  5
A6A
330
1F
100
AcDbEntity
  8
WORKLAYER
  6
CONTINUOUS
100
AcDbLine
 10
165.1741024314482
 20
245.6549452518343
 30
0.0
 11
162.2741008314491
 21
245.6549452518343
 31
0.0
  0
LINE
  5
A6B
330
1F
100
AcDbEntity
  8
0
100
AcDbLine
 10
156.0743419314507
 20
244.5114439518352
 30
0.0
 11
170.4742427314498
 21
244.5114439518352
 31
0.0
  0
LINE
  5
A6C
330
1F
100
AcDbEntity
  8
0
100
AcDbLine
 10
170.4742427314498
 20
244.5114439518352
 30
0.0
 11
170.4742427314498
 21
276.8114475518327
 31
0.0
  0
LINE
  5
A6D
330
1F
100
AcDbEntity
  8
0
100
AcDbLine
 10
156.0743419314507
 20
276.8114475518327
 30
0.0
 11
170.4742427314498
 21
276.8114475518327
 31
0.0
  0
LINE
  5
A6E
330
1F
100
AcDbEntity
  8
0
 62
     0
100
AcDbLine
 10
175.274416243997
 20
286.8940464277461
 30
0.0
 11
175.274416243997
 21
284.1940464277454
 31
0.0
  0
LINE
  5
A6F
330
1F
100
AcDbEntity
  8
0
 62
     0
100
AcDbLine
 10
176.8744162439974
 20
284.1940464277454
 30
0.0
 11
176.8744162439974
 21
286.8940464277461
 31
0.0
  0
LINE
  5
A70
330
1F
100
AcDbEntity
  8
0
 62
     0
100
AcDbLine
 10
175.274416243997
 20
286.8940464277461
 30
0.0
 11
176.8744162439974
 21
286.8940464277461
 31
0.0
  0
LINE
  5
A71
330
1F
100
AcDbEntity
  8
0
 62
     0
100
AcDbLine
 10
175.274416243997
 20
284.1940464277454
 30
0.0
 11
176.8744162439974
 21
284.1940464277454
 31
0.0
  0
LINE
  5
A72
330
1F
100
AcDbEntity
  8
0
 62
     0
100
AcDbLine
 10
174.0742676189014
 20
286.8940464277461
 30
0.0
 11
174.0742676189014
 21
284.1940464277454
 31
0.0
  0
LINE
  5
A73
330
1F
100
AcDbEntity
  8
0
 62
     0
100
AcDbLine
 10
172.474267618901
 20
284.1940464277454
 30
0.0
 11
172.474267618901
 21
286.8940464277461
 31
0.0
  0
LINE
  5
A74
330
1F
100
AcDbEntity
  8
0
 62
     0
100
AcDbLine
 10
174.0742676189014
 20
286.8940464277461
 30
0.0
 11
172.474267618901
 21
286.8940464277461
 31
0.0
  0
LINE
  5
A75
330
1F
100
AcDbEntity
  8
0
 62
     0
100
AcDbLine
 10
174.0742676189014
 20
284.1940464277454
 30
0.0
 11
172.474267618901
 21
284.1940464277454
 31
0.0
  0
LINE
  5
A76
330
1F
100
AcDbEntity
  8
0
 62
     0
100
AcDbLine
 10
174.0742676189014
 20
281.3940504277857
 30
0.0
 11
174.0742676189014
 21
278.694050427785
 31
0.0
  0
LINE
  5
A77
330
1F
100
AcDbEntity
  8
0
 62
     0
100
AcDbLine
 10
172.474267618901
 20
278.694050427785
 30
0.0
 11
172.474267618901
 21
281.3940504277857
 31
0.0
  0
LINE
  5
A78
330
1F
100
AcDbEntity
  8
0
 62
     0
100
AcDbLine
 10
174.0742676189014
 20
281.3940504277857
 30
0.0
 11
172.474267618901
 21
281.3940504277857
 31
0.0
  0
LINE
  5
A79
330
1F
100
AcDbEntity
  8
0
 62
     0
100
AcDbLine
 10
174.0742676189014
 20
278.694050427785
 30
0.0
 11
172.474267618901
 21
278.694050427785
 31
0.0
  0
LINE
  5
A7A
330
1F
100
AcDbEntity
  8
外枠
 62
     0
100
AcDbLine
 10
172.7743419314478
 20
279.3940504277839
 30
0.0
 11
173.8743419314499
 21
279.3940504277839
 31
0.0
  0
LINE
  5
A7B
330
1F
100
AcDbEntity
  8
外枠
 62
     0
100
AcDbLine
 10
172.7743419314478
 20
280.6940504277831
 30
0.0
 11
173.8743419314499
 21
280.6940504277831
 31
0.0
  0
LINE
  5
A7C
330
1F
100
AcDbEntity
  8
外枠
 62
     0
100
AcDbLine
 10
172.7743419314478
 20
280.6940504277831
 30
0.0
 11
173.8743419314499
 21
280.6940504277831
 31
0.0
  0
LINE
  5
A7D
330
1F
100
AcDbEntity
  8
外枠
 62
     0
100
AcDbLine
 10
172.7743419314478
 20
279.3940504277839
 30
0.0
 11
173.8743419314499
 21
279.3940504277839
 31
0.0
  0
LINE
  5
A7E
330
1F
100
AcDbEntity
  8
外枠
 62
     0
100
AcDbLine
 10
172.7743419314478
 20
279.3940504277857
 30
0.0
 11
172.7743419314478
 21
280.694050427785
 31
0.0
  0
LINE
  5
A7F
330
1F
100
AcDbEntity
  8
外枠
 62
     0
100
AcDbLine
 10
172.7743419314478
 20
284.8940504277838
 30
0.0
 11
173.8743419314499
 21
284.8940504277838
 31
0.0
  0
LINE
  5
A80
330
1F
100
AcDbEntity
  8
外枠
 62
     0
100
AcDbLine
 10
172.7743419314478
 20
286.1940504277831
 30
0.0
 11
173.8743419314499
 21
286.1940504277831
 31
0.0
  0
LINE
  5
A81
330
1F
100
AcDbEntity
  8
外枠
 62
     0
100
AcDbLine
 10
172.7743419314478
 20
286.1940504277831
 30
0.0
 11
173.8743419314499
 21
286.1940504277831
 31
0.0
  0
LINE
  5
A82
330
1F
100
AcDbEntity
  8
外枠
 62
     0
100
AcDbLine
 10
172.7743419314478
 20
284.8940504277838
 30
0.0
 11
173.8743419314499
 21
284.8940504277838
 31
0.0
  0
LINE
  5
A83
330
1F
100
AcDbEntity
  8
外枠
 62
     0
100
AcDbLine
 10
172.7743419314478
 20
284.8940504277857
 30
0.0
 11
172.7743419314478
 21
286.1940504277849
 31
0.0
  0
LINE
  5
A84
330
1F
100
AcDbEntity
  8
外枠
 62
     0
100
AcDbLine
 10
176.5743419314507
 20
284.8940504277838
 30
0.0
 11
175.4743419314485
 21
284.8940504277838
 31
0.0
  0
LINE
  5
A85
330
1F
100
AcDbEntity
  8
外枠
 62
     0
100
AcDbLine
 10
176.5743419314507
 20
286.1940504277831
 30
0.0
 11
175.4743419314485
 21
286.1940504277831
 31
0.0
  0
LINE
  5
A86
330
1F
100
AcDbEntity
  8
外枠
 62
     0
100
AcDbLine
 10
176.5743419314507
 20
286.1940504277831
 30
0.0
 11
175.4743419314485
 21
286.1940504277831
 31
0.0
  0
LINE
  5
A87
330
1F
100
AcDbEntity
  8
外枠
 62
     0
100
AcDbLine
 10
176.5743419314507
 20
284.8940504277838
 30
0.0
 11
175.4743419314485
 21
284.8940504277838
 31
0.0
  0
LINE
  5
A88
330
1F
100
AcDbEntity
  8
外枠
 62
     0
100
AcDbLine
 10
176.5743419314525
 20
284.8940504277857
 30
0.0
 11
176.5743419314507
 21
286.1940504277849
 31
0.0
  0
LINE
  5
A89
330
1F
100
AcDbEntity
  8
0
 62
     0
100
AcDbLine
 10
173.8743419314499
 20
286.1940504277831
 30
0.0
 11
173.8743419314499
 21
284.8940504277838
 31
0.0
  0
LINE
  5
A8A
330
1F
100
AcDbEntity
  8
0
 62
     0
100
AcDbLine
 10
175.4743419314503
 20
286.1940504277831
 30
0.0
 11
175.4743419314503
 21
284.8940504277838
 31
0.0
  0
LINE
  5
A8B
330
1F
100
AcDbEntity
  8
0
 62
     0
100
AcDbLine
 10
173.8743419314499
 20
280.6940504277831
 30
0.0
 11
173.8743419314499
 21
279.3940504277839
 31
0.0
  0
LINE
  5
A8C
330
1F
100
AcDbEntity
  8
外枠
  6
BYBLOCK
100
AcDbLine
 10
156.0743419314507
 20
276.8114475518327
 30
0.0
 11
156.0743419314503
 21
291.7331389893902
 31
0.0
  0
LINE
  5
A8D
330
1F
100
AcDbEntity
  8
WORKLAYER
  6
CONTINUOUS
100
AcDbLine
 10
160.4743457314556
 20
260.6609491518361
 30
0.0
 11
160.4743457314556
 21
255.030929451836
 31
0.0
  0
ARC
  5
A8E
330
1F
100
AcDbEntity
  8
0
  6
BYBLOCK
100
AcDbCircle
 10
168.4741338041094
 20
468.7181808115335
 30
0.0
 40
100.0
100
AcDbArc
 50
262.160173000003
 51
277.8398260000032
  0
ARC
  5
A8F
330
1F
100
AcDbEntity
  8
0
100
AcDbCircle
 10
181.9781508041096
 20
370.6435068115335
 30
0.0
 40
1.0
100
AcDbArc
 50
277.8398260000032
 51
359.117643
  0
ARC
  5
A90
330
1F
100
AcDbEntity
  8
0
100
AcDbCircle
 10
154.9701168041097
 20
370.6435078115335
 30
0.0
 40
1.0
100
AcDbArc
 50
180.8823569999998
 51
262.160173000003
  0
POINT
  5
A91
330
1F
100
AcDbEntity
  8
0
100
AcDbPoint
 10
153.9833948041098
 20
369.7736578115335
 30
0.0
  0
ARC
  5
A92
330
1F
100
AcDbEntity
  8
0
  6
CONTINUOUS
100
AcDbCircle
 10
165.8002688012444
 20
365.6761963263674
 30
0.0
 40
0.868871
100
AcDbArc
 50
213.4440001999776
 51
303.6632804999949
  0
LINE
  5
A93
330
1F
100
AcDbEntity
  8
0
  6
CONTINUOUS
100
AcDbLine
 10
166.1367404012446
 20
364.8073361263674
 30
0.0
 11
166.5242038314549
 21
365.1973965263666
 31
0.0
  0
ARC
  5
A94
330
1F
100
AcDbEntity
  8
0
  6
CONTINUOUS
100
AcDbCircle
 10
163.6252657012458
 20
367.697846726366
 30
0.0
 40
2.890501
100
AcDbArc
 50
269.9992981000255
 51
300.1085205000148
  0
LINE
  5
A95
330
1F
100
AcDbEntity
  8
0
  6
CONTINUOUS
100
AcDbLine
 10
161.1137835012461
 20
364.8073466263643
 30
0.0
 11
160.7242541314553
 21
365.1973460263663
 31
0.0
  0
ARC
  5
A96
330
1F
100
AcDbEntity
  8
0
  6
CONTINUOUS
100
AcDbCircle
 10
161.4502703012445
 20
365.6761963263647
 30
0.0
 40
0.868876
100
AcDbArc
 50
236.3349991000114
 51
326.5544281000265
  0
ARC
  5
A97
330
1F
100
AcDbEntity
  8
0
  6
CONTINUOUS
100
AcDbCircle
 10
163.6252657012458
 20
367.697846726366
 30
0.0
 40
2.890501
100
AcDbArc
 50
239.8909988000474
 51
269.9996033000292
  0
LINE
  5
A98
330
1F
100
AcDbEntity
  8
0
  6
CONTINUOUS
100
AcDbLine
 10
166.3742066314479
 20
364.8073519263663
 30
0.0
 11
161.0741912181051
 21
364.8073519263886
 31
0.0
  0
LINE
  5
A99
330
1F
100
AcDbEntity
  8
0
  6
CONTINUOUS
100
AcDbLine
 10
167.6742015314479
 20
366.1073468263653
 30
0.0
 11
167.6742015314479
 21
368.7291311604083
 31
0.0
  0
LINE
  5
A9A
330
1F
100
AcDbEntity
  8
0
  6
CONTINUOUS
100
AcDbLine
 10
159.7742044546496
 20
369.1029649642493
 30
0.0
 11
159.77420445465
 21
366.1073468263642
 31
0.0
  0
ARC
  5
A9B
330
1F
100
AcDbEntity
  8
0
  6
CONTINUOUS
100
AcDbCircle
 10
166.3742066314479
 20
366.1073468263663
 30
0.0
 40
1.299994899999999
100
AcDbArc
 50
269.9995575000547
 51
0.0000000000325689
  0
ARC
  5
A9C
330
1F
100
AcDbEntity
  8
0
  6
CONTINUOUS
100
AcDbCircle
 10
161.0741993544492
 20
366.1073468263631
 30
0.0
 40
1.299994899999999
100
AcDbArc
 50
180.0010071000448
 51
269.9996413999908
  0
LINE
  5
A9D
330
1F
100
AcDbEntity
  8
0
  6
CONTINUOUS
100
AcDbLine
 10
165.0752703012439
 20
368.7774238651227
 30
0.0
 11
165.0752703012449
 21
365.1973460263669
 31
0.0
  0
LINE
  5
A9E
330
1F
100
AcDbEntity
  8
0
  6
CONTINUOUS
100
AcDbLine
 10
166.5242038314549
 20
365.1973965263666
 30
0.0
 11
166.5242038314539
 21
368.7400997973414
 31
0.0
  0
LINE
  5
A9F
330
1F
100
AcDbEntity
  8
0
  6
CONTINUOUS
100
AcDbLine
 10
160.7242541314553
 20
365.1973460263663
 30
0.0
 11
160.7242541314543
 21
369.0159204131816
 31
0.0
  0
LINE
  5
AA0
330
1F
100
AcDbEntity
  8
0
  6
CONTINUOUS
100
AcDbLine
 10
162.1752688012447
 20
365.1973460263652
 30
0.0
 11
162.1752688012437
 21
368.9152902833142
 31
0.0
  0
LINE
  5
AA1
330
1F
100
AcDbEntity
  8
CLASS1
100
AcDbLine
 10
2.499999657193754
 20
298.33055998939
 30
0.0
 11
2.499999657193754
 21
293.3292699893901
 31
0.0
  0
LINE
  5
AA2
330
1F
100
AcDbEntity
  8
CLASS1
100
AcDbLine
 10
68.12251665719355
 20
296.8525749893899
 30
0.0
 11
2.499999657193754
 21
298.33055998939
 31
0.0
  0
LINE
  5
AA3
330
1F
100
AcDbEntity
  8
CLASS1
100
AcDbLine
 10
-0.0000003428063593
 20
126.8290109893901
 30
0.0
 11
-0.0000003428062456
 21
305.3290109893901
 31
0.0
  0
LINE
  5
AA5
330
1F
100
AcDbEntity
  8
CLASS1
100
AcDbLine
 10
61.96772765719327
 20
141.7001089893899
 30
0.0
 11
2.523001657193546
 21
140.3324129893901
 31
0.0
  0
LINE
  5
AA6
330
1F
100
AcDbEntity
  8
CLASS1
100
AcDbLine
 10
68.12251665719343
 20
136.8085449893899
 30
0.0
 11
2.49999965719364
 21
135.3305599893899
 31
0.0
  0
LINE
  5
AA7
330
1F
100
AcDbEntity
  8
CLASS1
100
AcDbLine
 10
2.522720657193573
 20
293.3287529893902
 30
0.0
 11
61.96744765719363
 21
291.9777359893901
 31
0.0
  0
LINE
  5
AA8
330
1F
100
AcDbEntity
  8
CLASS1
100
AcDbLine
 10
62.94472565719336
 20
142.69984398939
 30
0.0
 11
62.94472565719347
 21
290.9779939893899
 31
0.0
  0
LINE
  5
AA9
330
1F
100
AcDbEntity
  8
CLASS1
100
AcDbLine
 10
68.79999965719348
 20
294.3305599893899
 30
0.0
 11
68.79999965719337
 21
139.3305599893899
 31
0.0
  0
LINE
  5
AAA
330
1F
100
AcDbEntity
  8
CLASS1
100
AcDbLine
 10
68.3156736571937
 20
294.3305599893899
 30
0.0
 11
68.31567365719358
 21
139.3305599893899
 31
0.0
  0
LINE
  5
AAB
330
1F
100
AcDbEntity
  8
CLASS1
100
AcDbLine
 10
68.04452265719378
 20
295.87660098939
 30
0.0
 11
68.04452265719366
 21
137.7845189893901
 31
0.0
  0
ARC
  5
AAC
330
1F
100
AcDbEntity
  8
CLASS1
100
AcDbCircle
 10
68.09999965719332
 20
137.8082909893898
 30
0.0
 40
1.0
100
AcDbArc
 50
271.2902270000052
 51
0.0
  0
LINE
  5
AAD
330
1F
100
AcDbEntity
  8
CLASS1
100
AcDbLine
 10
68.31567365719358
 20
139.3305599893899
 30
0.0
 11
69.09999965719355
 21
139.3305599893899
 31
0.0
  0
LINE
  5
AAE
330
1F
100
AcDbEntity
  8
CLASS1
100
AcDbLine
 10
69.09999965719355
 20
137.8082909893898
 30
0.0
 11
69.09999965719355
 21
139.3305599893899
 31
0.0
  0
ARC
  5
AAF
330
1F
100
AcDbEntity
  8
CLASS1
100
AcDbCircle
 10
67.04452265719344
 20
137.7845189893901
 30
0.0
 40
1.0
100
AcDbArc
 50
271.2902270000052
 51
0.0
  0
ARC
  5
AB0
330
1F
100
AcDbEntity
  8
CLASS1
100
AcDbCircle
 10
61.94472565719313
 20
142.69984398939
 30
0.0
 40
1.0
100
AcDbArc
 50
271.318021000004
 51
0.0
  0
LINE
  5
AB1
330
1F
100
AcDbEntity
  8
0
100
AcDbLine
 10
69.29999965719325
 20
189.2544289893899
 30
0.0
 11
69.29999965719314
 21
186.2544289893899
 31
0.0
  0
LINE
  5
AB2
330
1F
100
AcDbEntity
  8
0
100
AcDbLine
 10
69.29999965719325
 20
189.2544289893899
 30
0.0
 11
68.31567365719347
 21
189.25442898939
 31
0.0
  0
LINE
  5
AB3
330
1F
100
AcDbEntity
  8
0
100
AcDbLine
 10
69.29999965719314
 20
186.2544289893899
 30
0.0
 11
68.31567365719336
 21
186.25442898939
 31
0.0
  0
LINE
  5
AB4
330
1F
100
AcDbEntity
  8
0
100
AcDbLine
 10
69.29999965719325
 20
230.4084169893901
 30
0.0
 11
69.29999965719325
 21
227.4084169893901
 31
0.0
  0
LINE
  5
AB5
330
1F
100
AcDbEntity
  8
0
100
AcDbLine
 10
69.29999965719325
 20
230.4084169893901
 30
0.0
 11
68.31567365719347
 21
230.4084169893902
 31
0.0
  0
LINE
  5
AB6
330
1F
100
AcDbEntity
  8
0
100
AcDbLine
 10
69.29999965719325
 20
227.4084169893901
 30
0.0
 11
68.31567365719347
 21
227.4084169893902
 31
0.0
  0
LINE
  5
AB7
330
1F
100
AcDbEntity
  8
CLASS1
100
AcDbLine
 10
68.3156736571937
 20
294.3305599893899
 30
0.0
 11
69.09999965719366
 21
294.3305599893899
 31
0.0
  0
LINE
  5
AB8
330
1F
100
AcDbEntity
  8
CLASS1
100
AcDbLine
 10
69.09999965719366
 20
295.8528289893899
 30
0.0
 11
69.09999965719366
 21
294.3305599893899
 31
0.0
  0
ARC
  5
AB9
330
1F
100
AcDbEntity
  8
CLASS1
100
AcDbCircle
 10
68.09999965719377
 20
295.8528289893899
 30
0.0
 40
1.0
100
AcDbArc
 50
0.0
 51
88.70977299999479
  0
ARC
  5
ABA
330
1F
100
AcDbEntity
  8
CLASS1
100
AcDbCircle
 10
67.04452265719389
 20
295.87660098939
 30
0.0
 40
1.0
100
AcDbArc
 50
0.0
 51
88.70977299999479
  0
ARC
  5
ABB
330
1F
100
AcDbEntity
  8
CLASS1
100
AcDbCircle
 10
61.94472565719358
 20
290.9779939893899
 30
0.0
 40
1.0
100
AcDbArc
 50
0.0
 51
88.69804600000646
  0
LINE
  5
ABC
330
1F
100
AcDbEntity
  8
CLASS1
100
AcDbLine
 10
1.49999965719364
 20
141.33214798939
 30
0.0
 11
1.499999657193754
 21
292.3290109893902
 31
0.0
  0
LINE
  5
ABD
330
1F
100
AcDbEntity
  8
0
100
AcDbLine
 10
2.49999965719364
 20
135.3305599893899
 30
0.0
 11
2.49999965719364
 21
126.8290109893901
 31
0.0
  0
LINE
  5
ABE
330
1F
100
AcDbEntity
  8
CLASS1
100
AcDbLine
 10
2.49999965719364
 20
126.8290109893901
 30
0.0
 11
-0.0000003428063593
 21
126.8290109893901
 31
0.0
  0
ARC
  5
ABF
330
1F
100
AcDbEntity
  8
CLASS1
100
AcDbCircle
 10
2.499999657193413
 20
141.33214798939
 30
0.0
 40
1.0
100
AcDbArc
 50
180.0
 51
271.318021000004
  0
LINE
  5
AC0
330
1F
100
AcDbEntity
  8
CLASS1
100
AcDbLine
 10
2.49999965719364
 20
135.3305599893899
 30
0.0
 11
2.49999965719364
 21
140.33188398939
 31
0.0
  0
ARC
  5
AC1
330
1F
100
AcDbEntity
  8
CLASS1
100
AcDbCircle
 10
2.499999657193868
 20
292.3290109893901
 30
0.0
 40
1.0
100
AcDbArc
 50
88.69804699999894
 51
180.0
  0
LINE
  5
AC2
330
1F
100
AcDbEntity
  8
CLASS1
100
AcDbLine
 10
2.499999657193754
 20
305.3290109893901
 30
0.0
 11
-0.0000003428062456
 21
305.3290109893901
 31
0.0
  0
LINE
  5
AC3
330
1F
100
AcDbEntity
  8
0
100
AcDbLine
 10
2.499999657193754
 20
305.3290109893901
 30
0.0
 11
2.499999657193754
 21
298.33055998939
 31
0.0
  0
LINE
  5
AC4
330
1F
100
AcDbEntity
  8
CLASS1
100
AcDbLine
 10
334.4485642057067
 20
133.8274619893902
 30
0.0
 11
334.4485642057067
 21
138.8287519893901
 31
0.0
  0
LINE
  5
AC5
330
1F
100
AcDbEntity
  8
CLASS1
100
AcDbLine
 10
268.8260472057069
 20
135.3054469893903
 30
0.0
 11
334.4485642057067
 21
133.8274619893902
 31
0.0
  0
LINE
  5
AC6
330
1F
100
AcDbEntity
  8
CLASS1
100
AcDbLine
 10
336.9485642057069
 20
305.3290109893901
 30
0.0
 11
336.9485642057067
 21
126.8290109893901
 31
0.0
  0
LINE
  5
AC7
330
1F
100
AcDbEntity
  8
CLASS1
100
AcDbLine
 10
288.9255624633305
 20
266.49901098939
 30
0.0
 11
335.4485642057069
 21
267.5790109893902
 31
0.0
  0
LINE
  5
AC8
330
1F
100
AcDbEntity
  8
CLASS1
100
AcDbLine
 10
289.4255622057067
 20
266.2701199893902
 30
0.0
 11
335.4485642057069
 21
267.3290109893902
 31
0.0
  0
LINE
  5
ACF
330
1F
100
AcDbEntity
  8
CLASS1
100
AcDbLine
 10
274.9808362057073
 20
290.4579129893903
 30
0.0
 11
334.425562205707
 21
291.8256089893901
 31
0.0
  0
LINE
  5
AD0
330
1F
100
AcDbEntity
  8
CLASS1
100
AcDbLine
 10
268.8260472057071
 20
295.3494769893903
 30
0.0
 11
334.4485642057069
 21
296.8274619893903
 31
0.0
  0
LINE
  5
AD1
330
1F
100
AcDbEntity
  8
CLASS1
100
AcDbLine
 10
288.7375449431067
 20
164.1590109893901
 30
0.0
 11
335.4485642057067
 21
163.0790109893901
 31
0.0
  0
LINE
  5
AD2
330
1F
100
AcDbEntity
  8
CLASS1
100
AcDbLine
 10
289.4255622057066
 20
164.3879019893903
 30
0.0
 11
335.4485642057067
 21
163.32901098939
 31
0.0
  0
LINE
  5
AD3
330
1F
100
AcDbEntity
  8
CLASS1
100
AcDbLine
 10
334.4258432057069
 20
138.8292689893901
 30
0.0
 11
274.9811162057068
 21
140.18028598939
 31
0.0
  0
LINE
  5
AD4
330
1F
100
AcDbEntity
  8
CLASS1
100
AcDbLine
 10
287.9485642057069
 20
265.5016673197384
 30
0.0
 11
287.9485642057067
 21
165.1414375165223
 31
0.0
  0
LINE
  5
AD5
330
1F
100
AcDbEntity
  8
CLASS1
100
AcDbLine
 10
288.4485642057067
 20
165.3876369893902
 30
0.0
 11
288.4485642057069
 21
265.2703849893902
 31
0.0
  0
LINE
  5
AD6
330
1F
100
AcDbEntity
  8
CLASS1
100
AcDbLine
 10
274.0038382057071
 20
289.4581779893902
 30
0.0
 11
274.003838205707
 21
141.1800279893902
 31
0.0
  0
LINE
  5
AD7
330
1F
100
AcDbEntity
  8
CLASS1
100
AcDbLine
 10
268.148564205707
 20
137.8274619893903
 30
0.0
 11
268.1485642057072
 21
292.8274619893903
 31
0.0
  0
LINE
  5
AD8
330
1F
100
AcDbEntity
  8
CLASS1
100
AcDbLine
 10
268.6328902057068
 20
137.8274619893903
 30
0.0
 11
268.6328902057069
 21
292.8274619893903
 31
0.0
  0
LINE
  5
AD9
330
1F
100
AcDbEntity
  8
CLASS1
100
AcDbLine
 10
268.9040412057067
 20
136.2814209893903
 30
0.0
 11
268.9040412057069
 21
294.3735029893902
 31
0.0
  0
ARC
  5
ADA
330
1F
100
AcDbEntity
  8
CLASS1
100
AcDbCircle
 10
268.8485642057071
 20
294.3497309893904
 30
0.0
 40
1.0
100
AcDbArc
 50
91.29022700000518
 51
180.0
  0
LINE
  5
ADB
330
1F
100
AcDbEntity
  8
CLASS1
100
AcDbLine
 10
268.6328902057069
 20
292.8274619893903
 30
0.0
 11
267.848564205707
 21
292.8274619893903
 31
0.0
  0
LINE
  5
ADC
330
1F
100
AcDbEntity
  8
CLASS1
100
AcDbLine
 10
267.848564205707
 20
294.3497309893904
 30
0.0
 11
267.848564205707
 21
292.8274619893903
 31
0.0
  0
ARC
  5
ADD
330
1F
100
AcDbEntity
  8
CLASS1
100
AcDbCircle
 10
269.904041205707
 20
294.3735029893902
 30
0.0
 40
1.0
100
AcDbArc
 50
91.29022700000518
 51
180.0
  0
ARC
  5
ADE
330
1F
100
AcDbEntity
  8
CLASS1
100
AcDbCircle
 10
275.0038382057074
 20
289.4581779893902
 30
0.0
 40
1.0
100
AcDbArc
 50
91.31802100000404
 51
180.0
  0
ARC
  5
ADF
330
1F
100
AcDbEntity
  8
CLASS1
100
AcDbCircle
 10
288.9485613452975
 20
265.4992754980638
 30
0.0
 40
1.0
100
AcDbArc
 50
91.31801900000615
 51
180.0
  0
ARC
  5
AE0
330
1F
100
AcDbEntity
  8
CLASS1
100
AcDbCircle
 10
289.448564205707
 20
265.2703849893904
 30
0.0
 40
1.0
100
AcDbArc
 50
91.31801899999311
 51
180.0
  0
LINE
  5
AE1
330
1F
100
AcDbEntity
  8
0
100
AcDbLine
 10
267.6485642057071
 20
227.4071259893904
 30
0.0
 11
267.6485642057072
 21
230.4071259893904
 31
0.0
  0
LINE
  5
AE2
330
1F
100
AcDbEntity
  8
0
100
AcDbLine
 10
267.6485642057071
 20
227.4071259893904
 30
0.0
 11
268.6328902057069
 21
227.4071259893903
 31
0.0
  0
LINE
  5
AE3
330
1F
100
AcDbEntity
  8
0
100
AcDbLine
 10
267.6485642057072
 20
230.4071259893904
 30
0.0
 11
268.632890205707
 21
230.4071259893903
 31
0.0
  0
LINE
  5
AE4
330
1F
100
AcDbEntity
  8
0
100
AcDbLine
 10
267.6485642057071
 20
186.2531379893902
 30
0.0
 11
267.6485642057071
 21
189.2531379893902
 31
0.0
  0
LINE
  5
AE5
330
1F
100
AcDbEntity
  8
0
100
AcDbLine
 10
267.6485642057071
 20
186.2531379893902
 30
0.0
 11
268.6328902057069
 21
186.25313798939
 31
0.0
  0
LINE
  5
AE6
330
1F
100
AcDbEntity
  8
0
100
AcDbLine
 10
267.6485642057071
 20
189.2531379893902
 30
0.0
 11
268.6328902057069
 21
189.2531379893901
 31
0.0
  0
LINE
  5
AE7
330
1F
100
AcDbEntity
  8
CLASS1
100
AcDbLine
 10
268.6328902057068
 20
137.8274619893903
 30
0.0
 11
267.8485642057068
 21
137.8274619893903
 31
0.0
  0
LINE
  5
AE8
330
1F
100
AcDbEntity
  8
CLASS1
100
AcDbLine
 10
267.8485642057068
 20
136.3051929893903
 30
0.0
 11
267.8485642057068
 21
137.8274619893903
 31
0.0
  0
ARC
  5
AE9
330
1F
100
AcDbEntity
  8
CLASS1
100
AcDbCircle
 10
268.8485642057067
 20
136.3051929893903
 30
0.0
 40
1.0
100
AcDbArc
 50
180.0
 51
268.7097729999947
  0
ARC
  5
AEA
330
1F
100
AcDbEntity
  8
CLASS1
100
AcDbCircle
 10
269.9040412057066
 20
136.2814209893903
 30
0.0
 40
1.0
100
AcDbArc
 50
180.0
 51
268.7097729999947
  0
ARC
  5
B05
330
1F
100
AcDbEntity
  8
CLASS1
100
AcDbCircle
 10
288.948332897528
 20
165.1363195735929
 30
0.0
 40
0.9997817914353083
100
AcDbArc
 50
179.706698188669
 51
257.8287710900051
  0
ARC
  5
B06
330
1F
100
AcDbEntity
  8
CLASS1
100
AcDbCircle
 10
289.4485642057066
 20
165.3876369893904
 30
0.0
 40
1.0
100
AcDbArc
 50
180.0
 51
268.6819809999938
  0
ARC
  5
B07
330
1F
100
AcDbEntity
  8
CLASS1
100
AcDbCircle
 10
275.0038382057069
 20
141.1800279893903
 30
0.0
 40
1.0
100
AcDbArc
 50
180.0
 51
268.6980460000064
  0
LINE
  5
B08
330
1F
100
AcDbEntity
  8
CLASS1
100
AcDbLine
 10
335.4485642057069
 20
290.8258739893902
 30
0.0
 11
335.4485642057067
 21
139.8290109893901
 31
0.0
  0
LINE
  5
B09
330
1F
100
AcDbEntity
  8
CLASS1
100
AcDbLine
 10
335.4485642057067
 20
163.32901098939
 30
0.0
 11
335.4485642057069
 21
267.3290109893902
 31
0.0
  0
LINE
  5
B0A
330
1F
100
AcDbEntity
  8
CLASS1
100
AcDbLine
 10
335.4485642057067
 20
152.32609998939
 30
0.0
 11
335.4485642057069
 21
278.3319219893902
 31
0.0
  0
LINE
  5
B0B
330
1F
100
AcDbEntity
  8
0
100
AcDbLine
 10
334.4485642057069
 20
296.8274619893903
 30
0.0
 11
334.4485642057069
 21
305.3290109893901
 31
0.0
  0
LINE
  5
B0C
330
1F
100
AcDbEntity
  8
CLASS1
100
AcDbLine
 10
334.4485642057069
 20
305.3290109893901
 30
0.0
 11
336.9485642057069
 21
305.3290109893901
 31
0.0
  0
ARC
  5
B0D
330
1F
100
AcDbEntity
  8
CLASS1
100
AcDbCircle
 10
334.448564205707
 20
290.8258739893901
 30
0.0
 40
1.0
100
AcDbArc
 50
0.0
 51
91.31802100000404
  0
LINE
  5
B0E
330
1F
100
AcDbEntity
  8
CLASS1
100
AcDbLine
 10
325.9485642057069
 20
269.8290109893902
 30
0.0
 11
325.9485642057069
 21
275.8290109893902
 31
0.0
  0
LINE
  5
B0F
330
1F
100
AcDbEntity
  8
CLASS1
100
AcDbLine
 10
329.4485642057069
 20
269.8290109893902
 30
0.0
 11
329.4485642057069
 21
275.8290109893902
 31
0.0
  0
LINE
  5
B10
330
1F
100
AcDbEntity
  8
CLASS1
100
AcDbLine
 10
326.9381702057068
 20
275.3290109893902
 30
0.0
 11
326.9381702057068
 21
270.3290109893902
 31
0.0
  0
LINE
  5
B11
330
1F
100
AcDbEntity
  8
CLASS1
100
AcDbLine
 10
328.9485642057069
 20
275.3290109893902
 30
0.0
 11
328.9485642057069
 21
270.3290109893902
 31
0.0
  0
LINE
  5
B12
330
1F
100
AcDbEntity
  8
CLASS1
100
AcDbLine
 10
329.4485642057069
 20
275.3290109893902
 30
0.0
 11
329.4485642057069
 21
270.3290109893902
 31
0.0
  0
LINE
  5
B13
330
1F
100
AcDbEntity
  8
CLASS1
100
AcDbLine
 10
334.4485642057069
 20
296.8274619893903
 30
0.0
 11
334.4485642057069
 21
291.8261379893903
 31
0.0
  0
LINE
  5
B14
330
1F
100
AcDbEntity
  8
CLASS1
100
AcDbLine
 10
325.9485642057069
 20
275.8290109893902
 30
0.0
 11
329.4485642057069
 21
275.8290109893902
 31
0.0
  0
LINE
  5
B15
330
1F
100
AcDbEntity
  8
CLASS1
100
AcDbLine
 10
329.4485642057069
 20
275.3290109893902
 30
0.0
 11
326.9381702057068
 21
275.3290109893902
 31
0.0
  0
LINE
  5
B16
330
1F
100
AcDbEntity
  8
CLASS1
100
AcDbLine
 10
325.9485642057069
 20
269.8290109893902
 30
0.0
 11
329.4485642057069
 21
269.8290109893902
 31
0.0
  0
LINE
  5
B17
330
1F
100
AcDbEntity
  8
CLASS1
100
AcDbLine
 10
326.9381702057068
 20
270.3290109893902
 30
0.0
 11
329.4485642057069
 21
270.3290109893902
 31
0.0
  0
ARC
  5
B26
330
1F
100
AcDbEntity
  8
CLASS1
100
AcDbCircle
 10
334.4485642057067
 20
139.8290109893902
 30
0.0
 40
1.0
100
AcDbArc
 50
268.6980469999989
 51
0.0
  0
LINE
  5
B27
330
1F
100
AcDbEntity
  8
CLASS1
100
AcDbLine
 10
325.9485642057067
 20
160.8290109893901
 30
0.0
 11
325.9485642057067
 21
154.82901098939
 31
0.0
  0
LINE
  5
B28
330
1F
100
AcDbEntity
  8
CLASS1
100
AcDbLine
 10
326.9381702057066
 20
155.32901098939
 30
0.0
 11
326.9381702057066
 21
160.32901098939
 31
0.0
  0
LINE
  5
B29
330
1F
100
AcDbEntity
  8
CLASS1
100
AcDbLine
 10
328.9485642057067
 20
155.32901098939
 30
0.0
 11
328.9485642057067
 21
160.32901098939
 31
0.0
  0
LINE
  5
B2A
330
1F
100
AcDbEntity
  8
CLASS1
100
AcDbLine
 10
329.4485642057067
 20
160.8290109893901
 30
0.0
 11
329.4485642057067
 21
154.82901098939
 31
0.0
  0
LINE
  5
B2B
330
1F
100
AcDbEntity
  8
CLASS1
100
AcDbLine
 10
329.4485642057067
 20
155.32901098939
 30
0.0
 11
329.4485642057067
 21
160.32901098939
 31
0.0
  0
LINE
  5
B2C
330
1F
100
AcDbEntity
  8
CLASS1
100
AcDbLine
 10
325.9485642057067
 20
154.82901098939
 30
0.0
 11
329.4485642057067
 21
154.82901098939
 31
0.0
  0
LINE
  5
B2D
330
1F
100
AcDbEntity
  8
CLASS1
100
AcDbLine
 10
325.9485642057067
 20
160.8290109893901
 30
0.0
 11
329.4485642057067
 21
160.8290109893901
 31
0.0
  0
LINE
  5
B2E
330
1F
100
AcDbEntity
  8
CLASS1
100
AcDbLine
 10
326.9381702057066
 20
160.32901098939
 30
0.0
 11
329.4485642057067
 21
160.32901098939
 31
0.0
  0
LINE
  5
B2F
330
1F
100
AcDbEntity
  8
CLASS1
100
AcDbLine
 10
329.4485642057067
 20
155.32901098939
 30
0.0
 11
326.9381702057066
 21
155.32901098939
 31
0.0
  0
LINE
  5
B30
330
1F
100
AcDbEntity
  8
CLASS1
100
AcDbLine
 10
334.4485642057067
 20
126.8290109893901
 30
0.0
 11
336.9485642057067
 21
126.8290109893901
 31
0.0
  0
LINE
  5
B31
330
1F
100
AcDbEntity
  8
0
100
AcDbLine
 10
334.4485642057067
 20
126.8290109893901
 30
0.0
 11
334.4485642057067
 21
133.8274619893902
 31
0.0
  0
LINE
  5
B32
330
1F
100
AcDbEntity
  8
外枠
  6
BYBLOCK
100
AcDbLine
 10
262.9485642057071
 20
252.5219785529766
 30
0.0
 11
262.9485642057071
 21
268.8219214506931
 31
0.0
  0
LINE
  5
B33
330
1F
100
AcDbEntity
  8
外枠
  6
BYBLOCK
100
AcDbLine
 10
268.1485642057071
 20
275.6784290506934
 30
0.0
 11
262.9485642057071
 21
275.6784290506934
 31
0.0
  0
LINE
  5
B34
330
1F
100
AcDbEntity
  8
外枠
  6
BYBLOCK
100
AcDbLine
 10
268.1485642057071
 20
274.4227051006923
 30
0.0
 11
262.9485642057071
 21
274.4227051006923
 31
0.0
  0
LINE
  5
B35
330
1F
100
AcDbEntity
  8
外枠
  6
BYBLOCK
100
AcDbLine
 10
268.1485642057071
 20
271.9111599006923
 30
0.0
 11
262.9485642057071
 21
271.9111599006923
 31
0.0
  0
LINE
  5
B36
330
1F
100
AcDbEntity
  8
外枠
  6
BYBLOCK
100
AcDbLine
 10
268.1485642057071
 20
270.6554092506926
 30
0.0
 11
262.9485337057059
 21
270.6554092506926
 31
0.0
  0
LINE
  5
B37
330
1F
100
AcDbEntity
  8
外枠
  6
BYBLOCK
100
AcDbLine
 10
268.1485642057071
 20
268.8219214506931
 30
0.0
 11
262.9485642057071
 21
268.8219214506931
 31
0.0
  0
LINE
  5
B38
330
1F
100
AcDbEntity
  8
外枠
  6
BYBLOCK
100
AcDbLine
 10
268.1485642057071
 20
252.5219785529766
 30
0.0
 11
262.9485642057071
 21
252.5219785529766
 31
0.0
  0
LINE
  5
B39
330
1F
100
AcDbEntity
  8
外枠
  6
BYBLOCK
100
AcDbLine
 10
268.1485642057071
 20
250.6889506506927
 30
0.0
 11
262.9485642057071
 21
250.6889506506927
 31
0.0
  0
LINE
  5
B3A
330
1F
100
AcDbEntity
  8
外枠
  6
BYBLOCK
100
AcDbLine
 10
268.1485642057071
 20
249.4332267006916
 30
0.0
 11
262.9485642057071
 21
249.4332267006916
 31
0.0
  0
LINE
  5
B3B
330
1F
100
AcDbEntity
  8
外枠
  6
BYBLOCK
100
AcDbLine
 10
268.1485642057071
 20
246.9216815006916
 30
0.0
 11
262.9485642057071
 21
246.9216815006916
 31
0.0
  0
LINE
  5
B3C
330
1F
100
AcDbEntity
  8
外枠
  6
BYBLOCK
100
AcDbLine
 10
268.1485642057071
 20
245.6659308506918
 30
0.0
 11
262.9485337057059
 21
245.6659308506918
 31
0.0
  0
LINE
  5
B3D
330
1F
100
AcDbEntity
  8
外枠
  6
BYBLOCK
100
AcDbLine
 10
262.9485642057071
 20
270.6554092506926
 30
0.0
 11
262.9485642057071
 21
275.6784290506934
 31
0.0
  0
LINE
  5
B3E
330
1F
100
AcDbEntity
  8
外枠
  6
BYBLOCK
100
AcDbLine
 10
262.9485642057071
 20
245.6659308506918
 30
0.0
 11
262.9485642057071
 21
250.6889506506927
 31
0.0
  0
LINE
  5
B40
330
1F
100
AcDbEntity
  8
外枠
  6
BYBLOCK
100
AcDbLine
 10
73.99999965719342
 20
268.8223813484087
 30
0.0
 11
73.99999965719342
 21
252.5224384506922
 31
0.0
  0
LINE
  5
B41
330
1F
100
AcDbEntity
  8
外枠
  6
BYBLOCK
100
AcDbLine
 10
68.79999965719337
 20
245.6659308506918
 30
0.0
 11
73.99999965719342
 21
245.6659308506918
 31
0.0
  0
LINE
  5
B42
330
1F
100
AcDbEntity
  8
外枠
  6
BYBLOCK
100
AcDbLine
 10
68.79999965719337
 20
246.9216548006929
 30
0.0
 11
73.99999965719342
 21
246.9216548006929
 31
0.0
  0
LINE
  5
B43
330
1F
100
AcDbEntity
  8
外枠
  6
BYBLOCK
100
AcDbLine
 10
68.79999965719337
 20
249.433200000693
 30
0.0
 11
73.99999965719342
 21
249.433200000693
 31
0.0
  0
LINE
  5
B44
330
1F
100
AcDbEntity
  8
外枠
  6
BYBLOCK
100
AcDbLine
 10
68.79999965719337
 20
250.6889506506927
 30
0.0
 11
74.00003015719464
 21
250.6889506506927
 31
0.0
  0
LINE
  5
B45
330
1F
100
AcDbEntity
  8
外枠
  6
BYBLOCK
100
AcDbLine
 10
68.79999965719337
 20
252.5224384506922
 30
0.0
 11
73.99999965719342
 21
252.5224384506922
 31
0.0
  0
LINE
  5
B46
330
1F
100
AcDbEntity
  8
外枠
  6
BYBLOCK
100
AcDbLine
 10
68.79999965719337
 20
268.8223813484087
 30
0.0
 11
73.99999965719342
 21
268.8223813484087
 31
0.0
  0
LINE
  5
B47
330
1F
100
AcDbEntity
  8
外枠
  6
BYBLOCK
100
AcDbLine
 10
68.79999965719337
 20
270.6554092506926
 30
0.0
 11
73.99999965719342
 21
270.6554092506926
 31
0.0
  0
LINE
  5
B48
330
1F
100
AcDbEntity
  8
外枠
  6
BYBLOCK
100
AcDbLine
 10
68.79999965719348
 20
271.9111332006937
 30
0.0
 11
73.99999965719342
 21
271.9111332006937
 31
0.0
  0
LINE
  5
B49
330
1F
100
AcDbEntity
  8
外枠
  6
BYBLOCK
100
AcDbLine
 10
68.79999965719348
 20
274.4226784006936
 30
0.0
 11
73.99999965719342
 21
274.4226784006936
 31
0.0
  0
LINE
  5
B4A
330
1F
100
AcDbEntity
  8
外枠
  6
BYBLOCK
100
AcDbLine
 10
68.79999965719348
 20
275.6784290506934
 30
0.0
 11
74.00003015719464
 21
275.6784290506934
 31
0.0
  0
LINE
  5
B4B
330
1F
100
AcDbEntity
  8
外枠
  6
BYBLOCK
100
AcDbLine
 10
73.99999965719342
 20
250.6889506506927
 30
0.0
 11
73.99999965719342
 21
245.6659308506918
 31
0.0
  0
LINE
  5
B4C
330
1F
100
AcDbEntity
  8
外枠
  6
BYBLOCK
100
AcDbLine
 10
73.99999965719342
 20
275.6784290506934
 30
0.0
 11
73.99999965719342
 21
270.6554092506926
 31
0.0
  0
ARC
  5
B51
330
1F
100
AcDbEntity
  8
0
  6
CONTINUOUS
100
AcDbCircle
 10
165.8002769377896
 20
73.13115581162776
 30
0.0
 40
0.868871
100
AcDbArc
 50
56.33671950000503
 51
146.5559998000223
  0
LINE
  5
B52
330
1F
100
AcDbEntity
  8
0
  6
CONTINUOUS
100
AcDbLine
 10
166.1367485377897
 20
74.00001601162762
 30
0.0
 11
166.524211968
 21
73.60995561162837
 31
0.0
  0
ARC
  5
B53
330
1F
100
AcDbEntity
  8
0
  6
CONTINUOUS
100
AcDbCircle
 10
163.6252738377909
 20
71.10950541162913
 30
0.0
 40
2.890501
100
AcDbArc
 50
59.8914794999852
 51
90.00070189997444
  0
LINE
  5
B54
330
1F
100
AcDbEntity
  8
0
  6
CONTINUOUS
100
AcDbLine
 10
161.1137916377912
 20
74.00000551163066
 30
0.0
 11
160.7242622680004
 21
73.61000611162876
 31
0.0
  0
ARC
  5
B55
330
1F
100
AcDbEntity
  8
0
  6
CONTINUOUS
100
AcDbCircle
 10
161.4502784377897
 20
73.13115581163038
 30
0.0
 40
0.868876
100
AcDbArc
 50
33.4455718999734
 51
123.6650008999885
  0
ARC
  5
B56
330
1F
100
AcDbEntity
  8
0
  6
CONTINUOUS
100
AcDbCircle
 10
163.6252738377909
 20
71.10950541162913
 30
0.0
 40
2.890501
100
AcDbArc
 50
90.00039669997079
 51
120.1090011999512
  0
LINE
  5
B57
330
1F
100
AcDbEntity
  8
0
  6
CONTINUOUS
100
AcDbLine
 10
166.374214767993
 20
74.00000021162873
 30
0.0
 11
161.0741993546502
 21
74.00000021160645
 31
0.0
  0
LINE
  5
B58
330
1F
100
AcDbEntity
  8
0
  6
CONTINUOUS
100
AcDbLine
 10
167.674209667993
 20
72.70000531162975
 30
0.0
 11
167.674209667993
 21
70.07822097758674
 31
0.0
  0
LINE
  5
B59
330
1F
100
AcDbEntity
  8
0
  6
CONTINUOUS
100
AcDbLine
 10
159.7742125911947
 20
69.70438717374566
 30
0.0
 11
159.7742125911951
 21
72.70000531163077
 31
0.0
  0
ARC
  5
B5A
330
1F
100
AcDbEntity
  8
0
  6
CONTINUOUS
100
AcDbCircle
 10
166.3742147679931
 20
72.70000531162884
 30
0.0
 40
1.299994899999999
100
AcDbArc
 50
359.9999999999674
 51
90.00044249994518
  0
ARC
  5
B5B
330
1F
100
AcDbEntity
  8
0
  6
CONTINUOUS
100
AcDbCircle
 10
161.0742074909943
 20
72.70000531163202
 30
0.0
 40
1.299994899999999
100
AcDbArc
 50
90.00035860000917
 51
179.9989928999551
  0
LINE
  5
B5C
330
1F
100
AcDbEntity
  8
0
  6
CONTINUOUS
100
AcDbLine
 10
165.0752784377891
 20
70.02992827287233
 30
0.0
 11
165.07527843779
 21
73.61000611162808
 31
0.0
  0
LINE
  5
B5D
330
1F
100
AcDbEntity
  8
0
  6
CONTINUOUS
100
AcDbLine
 10
166.524211968
 20
73.60995561162837
 30
0.0
 11
166.524211967999
 21
70.06725234065356
 31
0.0
  0
LINE
  5
B5E
330
1F
100
AcDbEntity
  8
0
  6
CONTINUOUS
100
AcDbLine
 10
160.7242622680004
 20
73.61000611162876
 30
0.0
 11
160.7242622679994
 21
69.79143172481338
 31
0.0
  0
LINE
  5
B5F
330
1F
100
AcDbEntity
  8
0
  6
CONTINUOUS
100
AcDbLine
 10
162.1752769377898
 20
73.61000611162978
 30
0.0
 11
162.1752769377888
 21
69.89206185468083
 31
0.0
  0
ARC
  5
B60
330
1F
100
AcDbEntity
  8
0
100
AcDbCircle
 10
168.4741329314504
 20
-29.89999978838886
 30
0.0
 40
100.0
100
AcDbArc
 50
82.16017300000391
 51
97.83982600000406
  0
ARC
  5
B61
330
1F
100
AcDbEntity
  8
0
100
AcDbCircle
 10
154.9701159314502
 20
68.17467421161109
 30
0.0
 40
1.0
100
AcDbArc
 50
97.83982600000406
 51
179.1176430000001
  0
ARC
  5
B62
330
1F
100
AcDbEntity
  8
0
100
AcDbCircle
 10
181.9781499314502
 20
68.17467321161121
 30
0.0
 40
1.0
100
AcDbArc
 50
0.8823569999998676
 51
82.16017300000391
  0
LINE
  5
B63
330
1F
100
AcDbEntity
  8
外枠
  6
BYBLOCK
100
AcDbLine
 10
169.2951769314503
 20
70.60000021161113
 30
0.0
 11
171.2600989314503
 21
70.60000021161113
 31
0.0
  0
LINE
  5
B64
330
1F
100
AcDbEntity
  8
外枠
  6
BYBLOCK
100
AcDbLine
 10
169.2951769314503
 20
70.60000021161113
 30
0.0
 11
169.2951769314503
 21
70.09662958855597
 31
0.0
  0
LINE
  5
B65
330
1F
100
AcDbEntity
  8
外枠
  6
BYBLOCK
100
AcDbLine
 10
171.2600989314503
 20
70.60000021161113
 30
0.0
 11
171.2600989314503
 21
70.03614569091905
 31
0.0
  0
LINE
  5
B66
330
1F
100
AcDbEntity
  8
外枠
  6
BYBLOCK
100
AcDbLine
 10
169.2951769314503
 20
368.2181808115335
 30
0.0
 11
171.2600989314503
 21
368.2181808115335
 31
0.0
  0
LINE
  5
B67
330
1F
100
AcDbEntity
  8
外枠
  6
BYBLOCK
100
AcDbLine
 10
169.2951769314503
 20
368.2181808115335
 30
0.0
 11
169.2951769314503
 21
368.7215514274236
 31
0.0
  0
LINE
  5
B68
330
1F
100
AcDbEntity
  8
外枠
  6
BYBLOCK
100
AcDbLine
 10
171.2600989314503
 20
368.2181808115335
 30
0.0
 11
171.2600989314503
 21
368.7569963532187
 31
0.0
  0
ENDSEC
  0
SECTION
  2
OBJECTS
  0
DICTIONARY
  5
C
330
0
100
AcDbDictionary
  3
ACAD_GROUP
350
D
  3
ACAD_LAYOUT
350
1A
  3
ACAD_MLINESTYLE
350
17
  3
ACAD_PLOTSETTINGS
350
19
  3
ACAD_PLOTSTYLENAME
350
E
  3
ACDBHEADERROUNDTRIPXREC
350
BEF
  3
ACDBVARIABLEDICTIONARY
350
BEB
  0
DICTIONARY
  5
8F
330
2
100
AcDbDictionary
280
     1
  3
ACAD_LAYERSTATES
360
90
  0
DICTIONARY
  5
C11
330
1F
100
AcDbDictionary
280
     1
  3
ACAD_LAYOUTSELFREF
360
C12
  0
DICTIONARY
  5
C0F
330
1B
100
AcDbDictionary
280
     1
  3
ACAD_LAYOUTSELFREF
360
C10
  0
DICTIONARY
  5
D
102
{ACAD_REACTORS
330
C
102
}
330
C
100
AcDbDictionary
  0
DICTIONARY
  5
1A
102
{ACAD_REACTORS
330
C
102
}
330
C
100
AcDbDictionary
  0
DICTIONARY
  5
17
102
{ACAD_REACTORS
330
C
102
}
330
C
100
AcDbDictionary
  3
STANDARD
350
18
  0
DICTIONARY
  5
19
102
{ACAD_REACTORS
330
C
102
}
330
C
100
AcDbDictionary
  0
ACDBDICTIONARYWDFLT
  5
E
102
{ACAD_REACTORS
330
C
102
}
330
C
100
AcDbDictionary
281
     1
  3
Normal
350
F
100
AcDbDictionaryWithDefault
340
F
  0
DICTIONARY
  5
BEF
102
{ACAD_REACTORS
330
C
102
}
330
C
100
AcDbDictionary
  3
CEPSNTYPE
350
BF9
  3
FINGERPRINTGUID
350
BFA
  3
HYPERLINKBASE
350
BF2
  3
INSUNITS
350
BF8
  3
LAYOUTDICT
350
BF4
  3
LWETCUNION
350
BF7
  3
PLOTSETDICT
350
BF5
  3
PLOTSTYLNAMDICT
350
BF6
  3
PSVPSCALE
350
BFC
  3
PUCSBASE
350
BFF
  3
PUCSORGBACK
350
C05
  3
PUCSORGBOTTOM
350
C01
  3
PUCSORGFRONT
350
C04
  3
PUCSORGLEFT
350
C02
  3
PUCSORGRIGHT
350
C03
  3
PUCSORGTOP
350
C00
  3
PUCSORTHOREF
350
BFD
  3
PUCSORTHOVIEW
350
BFE
  3
STYLESHEET
350
BF3
  3
TSTACKALIGN
350
BF0
  3
TSTACKSIZE
350
BF1
  3
UCSBASE
350
C08
  3
UCSORGBACK
350
C0E
  3
UCSORGBOTTOM
350
C0A
  3
UCSORGFRONT
350
C0D
  3
UCSORGLEFT
350
C0B
  3
UCSORGRIGHT
350
C0C
  3
UCSORGTOP
350
C09
  3
UCSORTHOREF
350
C06
  3
UCSORTHOVIEW
350
C07
  3
VERSIONGUID
350
BFB
  0
DICTIONARY
  5
BEB
102
{ACAD_REACTORS
330
C
102
}
330
C
100
AcDbDictionary
  3
DIMASSOC
350
BED
  3
HIDETEXT
350
BEC
  0
DICTIONARY
  5
90
102
{ACAD_REACTORS
330
8F
102
}
330
8F
100
AcDbDictionary
  0
XRECORD
  5
C12
102
{ACAD_REACTORS
330
C11
102
}
330
C11
100
AcDbXrecord
340
1F
  0
XRECORD
  5
C10
102
{ACAD_REACTORS
330
C0F
102
}
330
C0F
100
AcDbXrecord
340
1B
  0
MLINESTYLE
  5
18
102
{ACAD_REACTORS
330
17
102
}
330
17
100
AcDbMlineStyle
  2
STANDARD
 70
     0
  3

 62
   256
 51
90.0
 52
90.0
 71
     2
 49
0.5
 62
   256
  6
BYLAYER
 49
-0.5
 62
   256
  6
BYLAYER
  0
ACDBPLACEHOLDER
  5
F
102
{ACAD_REACTORS
330
E
102
}
330
E
100
AcDbPlaceHolder
280
     0
  0
XRECORD
  5
BF9
102
{ACAD_REACTORS
330
BEF
102
}
330
BEF
100
AcDbXrecord
 90
        0
  0
XRECORD
  5
BFA
102
{ACAD_REACTORS
330
BEF
102
}
330
BEF
100
AcDbXrecord
  1
{E8A249C4-EEF8-4374-A792-65883202639C}
  0
XRECORD
  5
BF2
102
{ACAD_REACTORS
330
BEF
102
}
330
BEF
100
AcDbXrecord
  1

  0
XRECORD
  5
BF8
102
{ACAD_REACTORS
330
BEF
102
}
330
BEF
100
AcDbXrecord
 90
        4
  0
XRECORD
  5
BF4
102
{ACAD_REACTORS
330
BEF
102
}
330
BEF
100
AcDbXrecord
340
1A
  0
XRECORD
  5
BF7
102
{ACAD_REACTORS
330
BEF
102
}
330
BEF
100
AcDbXrecord
 90
    10781
  0
XRECORD
  5
BF5
102
{ACAD_REACTORS
330
BEF
102
}
330
BEF
100
AcDbXrecord
340
19
  0
XRECORD
  5
BF6
102
{ACAD_REACTORS
330
BEF
102
}
330
BEF
100
AcDbXrecord
340
E
  0
XRECORD
  5
BFC
102
{ACAD_REACTORS
330
BEF
102
}
330
BEF
100
AcDbXrecord
 40
0.0
  0
XRECORD
  5
BFF
102
{ACAD_REACTORS
330
BEF
102
}
330
BEF
100
AcDbXrecord
340
0
  0
XRECORD
  5
C05
102
{ACAD_REACTORS
330
BEF
102
}
330
BEF
100
AcDbXrecord
 10
0.0
 20
0.0
 30
0.0
  0
XRECORD
  5
C01
102
{ACAD_REACTORS
330
BEF
102
}
330
BEF
100
AcDbXrecord
 10
0.0
 20
0.0
 30
0.0
  0
XRECORD
  5
C04
102
{ACAD_REACTORS
330
BEF
102
}
330
BEF
100
AcDbXrecord
 10
0.0
 20
0.0
 30
0.0
  0
XRECORD
  5
C02
102
{ACAD_REACTORS
330
BEF
102
}
330
BEF
100
AcDbXrecord
 10
0.0
 20
0.0
 30
0.0
  0
XRECORD
  5
C03
102
{ACAD_REACTORS
330
BEF
102
}
330
BEF
100
AcDbXrecord
 10
0.0
 20
0.0
 30
0.0
  0
XRECORD
  5
C00
102
{ACAD_REACTORS
330
BEF
102
}
330
BEF
100
AcDbXrecord
 10
0.0
 20
0.0
 30
0.0
  0
XRECORD
  5
BFD
102
{ACAD_REACTORS
330
BEF
102
}
330
BEF
100
AcDbXrecord
340
0
  0
XRECORD
  5
BFE
102
{ACAD_REACTORS
330
BEF
102
}
330
BEF
100
AcDbXrecord
 70
     0
  0
XRECORD
  5
BF3
102
{ACAD_REACTORS
330
BEF
102
}
330
BEF
100
AcDbXrecord
  1

  0
XRECORD
  5
BF0
102
{ACAD_REACTORS
330
BEF
102
}
330
BEF
100
AcDbXrecord
 90
        1
  0
XRECORD
  5
BF1
102
{ACAD_REACTORS
330
BEF
102
}
330
BEF
100
AcDbXrecord
 90
       70
  0
XRECORD
  5
C08
102
{ACAD_REACTORS
330
BEF
102
}
330
BEF
100
AcDbXrecord
340
0
  0
XRECORD
  5
C0E
102
{ACAD_REACTORS
330
BEF
102
}
330
BEF
100
AcDbXrecord
 10
0.0
 20
0.0
 30
0.0
  0
XRECORD
  5
C0A
102
{ACAD_REACTORS
330
BEF
102
}
330
BEF
100
AcDbXrecord
 10
0.0
 20
0.0
 30
0.0
  0
XRECORD
  5
C0D
102
{ACAD_REACTORS
330
BEF
102
}
330
BEF
100
AcDbXrecord
 10
0.0
 20
0.0
 30
0.0
  0
XRECORD
  5
C0B
102
{ACAD_REACTORS
330
BEF
102
}
330
BEF
100
AcDbXrecord
 10
0.0
 20
0.0
 30
0.0
  0
XRECORD
  5
C0C
102
{ACAD_REACTORS
330
BEF
102
}
330
BEF
100
AcDbXrecord
 10
0.0
 20
0.0
 30
0.0
  0
XRECORD
  5
C09
102
{ACAD_REACTORS
330
BEF
102
}
330
BEF
100
AcDbXrecord
 10
0.0
 20
0.0
 30
0.0
  0
XRECORD
  5
C06
102
{ACAD_REACTORS
330
BEF
102
}
330
BEF
100
AcDbXrecord
340
0
  0
XRECORD
  5
C07
102
{ACAD_REACTORS
330
BEF
102
}
330
BEF
100
AcDbXrecord
 70
     0
  0
XRECORD
  5
BFB
102
{ACAD_REACTORS
330
BEF
102
}
330
BEF
100
AcDbXrecord
  1
{54A1E120-288E-4DC3-8006-D7603F5110AA}
  0
DICTIONARYVAR
  5
BED
102
{ACAD_REACTORS
330
BEB
102
}
330
BEB
100
DictionaryVariables
280
     0
  1
2
  0
DICTIONARYVAR
  5
BEC
102
{ACAD_REACTORS
330
BEB
102
}
330
BEB
100
DictionaryVariables
280
     0
  1
1
  0
ENDSEC
  0
EOF
