  0
SECTION
  2
HEADER
  9
$ACADVER
  1
AC1014
  9
$ACADMAINTVER
 70
     9
  9
$DWGCODEPAGE
  3
ANSI_932
  9
$INSBASE
 10
0.0
 20
0.0
 30
0.0
  9
$EXTMIN
 10
-0.0064049753888185
 20
-0.0035959399999683
 30
-0.0000000000112498
  9
$EXTMAX
 10
157.0481623086497
 20
382.8061891255178
 30
0.0000000000002956
  9
$LIMMIN
 10
0.0
 20
0.0
  9
$LIMMAX
 10
420.0
 20
297.0
  9
$ORTHOMODE
 70
     0
  9
$REGENMODE
 70
     1
  9
$FILLMODE
 70
     1
  9
$QTEXTMODE
 70
     0
  9
$MIRRTEXT
 70
     1
  9
$DRAGMODE
 70
     2
  9
$LTSCALE
 40
1.0
  9
$OSMODE
 70
    55
  9
$ATTMODE
 70
     1
  9
$TEXTSIZE
 40
10.0
  9
$TRACEWID
 40
1.0
  9
$TEXTSTYLE
  7
STANDARD
  9
$CLAYER
  8
0
  9
$CELTYPE
  6
BYLAYER
  9
$CECOLOR
 62
   256
  9
$CELTSCALE
 40
1.0
  9
$DELOBJ
 70
     1
  9
$DISPSILH
 70
     0
  9
$DIMSCALE
 40
1.0
  9
$DIMASZ
 40
2.5
  9
$DIMEXO
 40
0.625
  9
$DIMDLI
 40
3.75
  9
$DIMRND
 40
0.0
  9
$DIMDLE
 40
0.0
  9
$DIMEXE
 40
1.25
  9
$DIMTP
 40
0.0
  9
$DIMTM
 40
0.0
  9
$DIMTXT
 40
2.5
  9
$DIMCEN
 40
2.5
  9
$DIMTSZ
 40
0.0
  9
$DIMTOL
 70
     0
  9
$DIMLIM
 70
     0
  9
$DIMTIH
 70
     0
  9
$DIMTOH
 70
     0
  9
$DIMSE1
 70
     0
  9
$DIMSE2
 70
     0
  9
$DIMTAD
 70
     1
  9
$DIMZIN
 70
     8
  9
$DIMBLK
  1

  9
$DIMASO
 70
     1
  9
$DIMSHO
 70
     1
  9
$DIMPOST
  1

  9
$DIMAPOST
  1

  9
$DIMALT
 70
     0
  9
$DIMALTD
 70
     3
  9
$DIMALTF
 40
0.03937007874016
  9
$DIMLFAC
 40
1.0
  9
$DIMTOFL
 70
     1
  9
$DIMTVP
 40
0.0
  9
$DIMTIX
 70
     0
  9
$DIMSOXD
 70
     0
  9
$DIMSAH
 70
     0
  9
$DIMBLK1
  1

  9
$DIMBLK2
  1

  9
$DIMSTYLE
  2
ISO-25
  9
$DIMCLRD
 70
     0
  9
$DIMCLRE
 70
     0
  9
$DIMCLRT
 70
     0
  9
$DIMTFAC
 40
1.0
  9
$DIMGAP
 40
0.625
  9
$DIMJUST
 70
     0
  9
$DIMSD1
 70
     0
  9
$DIMSD2
 70
     0
  9
$DIMTOLJ
 70
     1
  9
$DIMTZIN
 70
     0
  9
$DIMALTZ
 70
     0
  9
$DIMALTTZ
 70
     0
  9
$DIMFIT
 70
     3
  9
$DIMUPT
 70
     0
  9
$DIMUNIT
 70
     2
  9
$DIMDEC
 70
     4
  9
$DIMTDEC
 70
     4
  9
$DIMALTU
 70
     2
  9
$DIMALTTD
 70
     2
  9
$DIMTXSTY
  7
STANDARD
  9
$DIMAUNIT
 70
     0
  9
$LUNITS
 70
     2
  9
$LUPREC
 70
     4
  9
$SKETCHINC
 40
1.0
  9
$FILLETRAD
 40
10.0
  9
$AUNITS
 70
     0
  9
$AUPREC
 70
     0
  9
$MENU
  1
.
  9
$ELEVATION
 40
0.0
  9
$PELEVATION
 40
0.0
  9
$THICKNESS
 40
0.0
  9
$LIMCHECK
 70
     0
  9
$BLIPMODE
 70
     0
  9
$CHAMFERA
 40
10.0
  9
$CHAMFERB
 40
10.0
  9
$CHAMFERC
 40
0.0
  9
$CHAMFERD
 40
0.0
  9
$SKPOLY
 70
     0
  9
$TDCREATE
 40
2453944.668111516
  9
$TDUPDATE
 40
2455244.730224456
  9
$TDINDWG
 40
0.0051258796
  9
$TDUSRTIMER
 40
0.0051237037
  9
$USRTIMER
 70
     1
  9
$ANGBASE
 50
0.0
  9
$ANGDIR
 70
     0
  9
$PDMODE
 70
     0
  9
$PDSIZE
 40
0.0
  9
$PLINEWID
 40
0.0
  9
$COORDS
 70
     0
  9
$SPLFRAME
 70
     0
  9
$SPLINETYPE
 70
     6
  9
$SPLINESEGS
 70
     8
  9
$ATTDIA
 70
     0
  9
$ATTREQ
 70
     1
  9
$HANDLING
 70
 22529
  9
$HANDSEED
  5
1CED
  9
$SURFTAB1
 70
     6
  9
$SURFTAB2
 70
     6
  9
$SURFTYPE
 70
     6
  9
$SURFU
 70
     6
  9
$SURFV
 70
     6
  9
$UCSNAME
  2

  9
$UCSORG
 10
0.0
 20
0.0
 30
0.0
  9
$UCSXDIR
 10
1.0
 20
0.0
 30
0.0
  9
$UCSYDIR
 10
0.0
 20
1.0
 30
0.0
  9
$PUCSNAME
  2

  9
$PUCSORG
 10
0.0
 20
0.0
 30
0.0
  9
$PUCSXDIR
 10
1.0
 20
0.0
 30
0.0
  9
$PUCSYDIR
 10
0.0
 20
1.0
 30
0.0
  9
$USERI1
 70
     0
  9
$USERI2
 70
     0
  9
$USERI3
 70
     0
  9
$USERI4
 70
     0
  9
$USERI5
 70
     0
  9
$USERR1
 40
0.0
  9
$USERR2
 40
0.0
  9
$USERR3
 40
0.0
  9
$USERR4
 40
0.0
  9
$USERR5
 40
0.0
  9
$WORLDVIEW
 70
     1
  9
$SHADEDGE
 70
     3
  9
$SHADEDIF
 70
    70
  9
$TILEMODE
 70
     1
  9
$MAXACTVP
 70
    64
  9
$PINSBASE
 10
0.0
 20
0.0
 30
0.0
  9
$PLIMCHECK
 70
     0
  9
$PEXTMIN
 10
1.000000000000000E+20
 20
1.000000000000000E+20
 30
1.000000000000000E+20
  9
$PEXTMAX
 10
-1.000000000000000E+20
 20
-1.000000000000000E+20
 30
-1.000000000000000E+20
  9
$PLIMMIN
 10
0.0
 20
0.0
  9
$PLIMMAX
 10
420.0
 20
297.0
  9
$UNITMODE
 70
     0
  9
$VISRETAIN
 70
     1
  9
$PLINEGEN
 70
     0
  9
$PSLTSCALE
 70
     1
  9
$TREEDEPTH
 70
  3020
  9
$PICKSTYLE
 70
     1
  9
$CMLSTYLE
  2
STANDARD
  9
$CMLJUST
 70
     0
  9
$CMLSCALE
 40
1.0
  9
$PROXYGRAPHICS
 70
     1
  9
$MEASUREMENT
 70
     0
  0
ENDSEC
  0
SECTION
  2
CLASSES
  0
CLASS
  1
ACDBDICTIONARYWDFLT
  2
AcDbDictionaryWithDefault
  3
AutoCAD 2000
 90
        0
280
     0
281
     0
  0
CLASS
  1
ACDBPLACEHOLDER
  2
AcDbPlaceHolder
  3
AutoCAD 2000
 90
        0
280
     0
281
     0
  0
CLASS
  1
LAYOUT
  2
AcDbLayout
  3
AutoCAD 2000
 90
        0
280
     0
281
     0
  0
CLASS
  1
DICTIONARYVAR
  2
AcDbDictionaryVar
  3
AutoCAD 2000
 90
        0
280
     0
281
     0
  0
CLASS
  1
LONG_TRANSACTION
  2
AcDbLongTransaction
  3
AutoCAD 2000
 90
        0
280
     0
281
     0
  0
CLASS
  1
LWPOLYLINE
  2
AcDbPolyline
  3
AutoCAD 2000
 90
        0
280
     0
281
     1
  0
CLASS
  1
HATCH
  2
AcDbHatch
  3
AutoCAD 2000
 90
        0
280
     0
281
     1
  0
CLASS
  1
XRECORD
  2
AcDbXrecord
  3
AutoCAD 2000
 90
        0
280
     0
281
     0
  0
CLASS
  1
LONG_TRANSACTION
  2
AcDbLongTransaction
  3
AutoCAD 2000
 90
        0
280
     0
281
     0
  0
CLASS
  1
LWPOLYLINE
  2
AcDbPolyline
  3
AutoCAD 2000
 90
        0
280
     0
281
     1
  0
CLASS
  1
HATCH
  2
AcDbHatch
  3
AutoCAD 2000
 90
        0
280
     0
281
     1
  0
CLASS
  1
XRECORD
  2
AcDbXrecord
  3
AutoCAD 2000
 90
        0
280
     0
281
     0
  0
ENDSEC
  0
SECTION
  2
TABLES
  0
TABLE
  2
VPORT
  5
16B6
330
0
100
AcDbSymbolTable
 70
     2
  0
VPORT
  5
1CCA
330
16B6
100
AcDbSymbolTableRecord
100
AcDbViewportTableRecord
  2
*ACTIVE
 70
     0
 10
0.0
 20
0.0
 11
1.0
 21
1.0
 12
78.52087866663044
 22
191.4012965927589
 13
0.0
 23
0.0
 14
10.0
 24
10.0
 15
10.0
 25
10.0
 16
0.0
 26
0.0
 36
1.0
 17
0.0
 27
0.0
 37
0.0
 40
385.8082951313052
 41
1.220915032679738
 42
50.0
 43
0.0
 44
0.0
 50
0.0
 51
0.0
 71
     0
 72
   100
 73
     1
 74
     3
 75
     0
 76
     0
 77
     0
 78
     0
  0
ENDTAB
  0
TABLE
  2
LTYPE
  5
16B3
330
0
100
AcDbSymbolTable
 70
     1
  0
LTYPE
  5
16C1
330
16B3
100
AcDbSymbolTableRecord
100
AcDbLinetypeTableRecord
  2
BYBLOCK
 70
     0
  3

 72
    65
 73
     0
 40
0.0
  0
LTYPE
  5
16C2
330
16B3
100
AcDbSymbolTableRecord
100
AcDbLinetypeTableRecord
  2
BYLAYER
 70
     0
  3

 72
    65
 73
     0
 40
0.0
  0
LTYPE
  5
16C3
330
16B3
100
AcDbSymbolTableRecord
100
AcDbLinetypeTableRecord
  2
CONTINUOUS
 70
     0
  3
Solid line
 72
    65
 73
     0
 40
0.0
  0
ENDTAB
  0
TABLE
  2
LAYER
  5
16B0
330
0
100
AcDbSymbolTable
 70
     4
  0
LAYER
  5
16BE
330
16B0
100
AcDbSymbolTableRecord
100
AcDbLayerTableRecord
  2
0
 70
     0
 62
     7
  6
CONTINUOUS
  0
LAYER
  5
16D1
330
16B0
100
AcDbSymbolTableRecord
100
AcDbLayerTableRecord
  2
外枠
 70
     0
 62
     7
  6
CONTINUOUS
  0
LAYER
  5
16D2
330
16B0
100
AcDbSymbolTableRecord
100
AcDbLayerTableRecord
  2
中心線
 70
     0
 62
   160
  6
CONTINUOUS
  0
LAYER
  5
16D3
330
16B0
100
AcDbSymbolTableRecord
100
AcDbLayerTableRecord
  2
CLASS1
 70
     0
 62
     7
  6
CONTINUOUS
  0
ENDTAB
  0
TABLE
  2
STYLE
  5
16B1
330
0
100
AcDbSymbolTable
 70
     1
  0
STYLE
  5
16BF
330
16B1
100
AcDbSymbolTableRecord
100
AcDbTextStyleTableRecord
  2
STANDARD
 70
     0
 40
0.0
 41
1.0
 50
0.0
 71
     0
 42
10.0
  3
txt
  4

  0
ENDTAB
  0
TABLE
  2
VIEW
  5
16B4
330
0
100
AcDbSymbolTable
 70
     0
  0
ENDTAB
  0
TABLE
  2
UCS
  5
16B5
330
0
100
AcDbSymbolTable
 70
     0
  0
ENDTAB
  0
TABLE
  2
APPID
  5
16B7
330
0
100
AcDbSymbolTable
 70
     2
  0
APPID
  5
16C0
330
16B7
100
AcDbSymbolTableRecord
100
AcDbRegAppTableRecord
  2
ACAD
 70
     0
  0
APPID
  5
16D4
330
16B7
100
AcDbSymbolTableRecord
100
AcDbRegAppTableRecord
  2
CONTENTBLOCKICON
 70
     0
  0
ENDTAB
  0
TABLE
  2
DIMSTYLE
  5
16B8
330
0
100
AcDbSymbolTable
 70
     1
  0
DIMSTYLE
105
16D5
330
16B8
100
AcDbSymbolTableRecord
100
AcDbDimStyleTableRecord
  2
ISO-25
 70
     0
  3

  4

  5

  6

  7

 40
1.0
 41
2.5
 42
0.625
 43
3.75
 44
1.25
 45
0.0
 46
0.0
 47
0.0
 48
0.0
140
2.5
141
2.5
142
0.0
143
0.03937007874016
144
1.0
145
0.0
146
1.0
147
0.625
 71
     0
 72
     0
 73
     0
 74
     0
 75
     0
 76
     0
 77
     1
 78
     8
170
     0
171
     3
172
     1
173
     0
174
     0
175
     0
176
     0
177
     0
178
     0
270
     2
271
     4
272
     4
273
     2
274
     3
340
16BF
275
     0
280
     0
281
     0
282
     0
283
     1
284
     8
285
     8
286
     8
287
     3
288
     0
  0
ENDTAB
  0
TABLE
  2
BLOCK_RECORD
  5
16AF
330
0
100
AcDbSymbolTable
 70
     1
  0
BLOCK_RECORD
  5
16CC
102
{ACAD_XDICTIONARY
360
1CC1
102
}
330
16AF
100
AcDbSymbolTableRecord
100
AcDbBlockTableRecord
  2
*MODEL_SPACE
  0
BLOCK_RECORD
  5
16C8
102
{ACAD_XDICTIONARY
360
1CBF
102
}
330
16AF
100
AcDbSymbolTableRecord
100
AcDbBlockTableRecord
  2
*PAPER_SPACE
  0
BLOCK_RECORD
  5
16E9
330
16AF
100
AcDbSymbolTableRecord
100
AcDbBlockTableRecord
  2
カバ_横
  0
ENDTAB
  0
ENDSEC
  0
SECTION
  2
BLOCKS
  0
BLOCK
  5
16CD
330
16CC
100
AcDbEntity
  8
0
100
AcDbBlockBegin
  2
*MODEL_SPACE
 70
     0
 10
0.0
 20
0.0
 30
0.0
  3
*MODEL_SPACE
  1

  0
ENDBLK
  5
16CE
330
16CC
100
AcDbEntity
  8
0
100
AcDbBlockEnd
  0
BLOCK
  5
16C9
330
16C8
100
AcDbEntity
 67
     1
  8
0
100
AcDbBlockBegin
  2
*PAPER_SPACE
 70
     0
 10
0.0
 20
0.0
 30
0.0
  3
*PAPER_SPACE
  1

  0
ENDBLK
  5
16CA
330
16C8
100
AcDbEntity
 67
     1
  8
0
100
AcDbBlockEnd
  0
BLOCK
  5
16EA
330
16E9
100
AcDbEntity
  8
0
100
AcDbBlockBegin
  2
カバ_横
 70
     0
 10
0.0
 20
0.0
 30
0.0
  3
カバ_横
  1

  0
LINE
  5
16EB
330
16E9
100
AcDbEntity
  8
CLASS1
  6
CONTINUOUS
100
AcDbLine
 10
57.62300200000002
 20
-79.99015499999997
 30
0.0
 11
-8.0
 21
-81.5
 31
0.0
  0
LINE
  5
16EC
330
16E9
100
AcDbEntity
  8
CLASS1
  6
CONTINUOUS
100
AcDbLine
 10
-7.999999999999769
 20
81.5
 30
0.0
 11
57.6227220000003
 21
80.00857500000007
 31
0.0
  0
LINE
  5
16ED
330
16E9
100
AcDbEntity
  8
CLASS1
  6
CONTINUOUS
100
AcDbLine
 10
-7.977278999999952
 20
76.49819300000013
 30
0.0
 11
51.46744800000011
 21
75.14717599999993
 31
0.0
  0
LINE
  5
16EE
330
16E9
100
AcDbEntity
  8
CLASS1
  6
CONTINUOUS
100
AcDbLine
 10
51.46772799999984
 20
-75.13045099999998
 30
0.0
 11
-7.976997999999866
 21
-76.49814699999978
 31
0.0
  0
LINE
  5
16EF
330
16E9
100
AcDbEntity
  8
CLASS1
  6
CONTINUOUS
100
AcDbLine
 10
-9.0
 20
-75.4984119999999
 30
0.0
 11
-8.999999999999772
 21
75.49845099999993
 31
0.0
  0
LINE
  5
16F0
330
16E9
100
AcDbEntity
  8
CLASS1
  6
CONTINUOUS
100
AcDbLine
 10
-7.999999999999769
 20
81.5
 30
0.0
 11
-7.999999999999769
 21
76.49871000000008
 31
0.0
  0
ARC
  5
16F1
330
16E9
100
AcDbEntity
  8
CLASS1
  6
CONTINUOUS
100
AcDbCircle
 10
-8.0
 20
75.49845099999993
 30
0.0
 40
1.0
100
AcDbArc
 50
88.69804699999894
 51
180.0
  0
LINE
  5
16F2
330
16E9
100
AcDbEntity
  8
CLASS1
  6
CONTINUOUS
100
AcDbLine
 10
-2.100000000000135
 20
-8.0
 30
0.0
 11
0.0
 21
-8.0
 31
0.0
  0
LINE
  5
16F3
330
16E9
100
AcDbEntity
  8
CLASS1
  6
CONTINUOUS
100
AcDbLine
 10
0.0
 20
8.0
 30
0.0
 11
-2.100000000000135
 21
8.0
 31
0.0
  0
LINE
  5
16F4
330
16E9
100
AcDbEntity
  8
CLASS1
  6
CONTINUOUS
100
AcDbLine
 10
-2.100000000000135
 20
8.0
 30
0.0
 11
-2.100000000000135
 21
-8.0
 31
0.0
  0
LINE
  5
16F5
330
16E9
100
AcDbEntity
  8
CLASS1
  6
CONTINUOUS
100
AcDbLine
 10
0.0
 20
8.0
 30
0.0
 11
0.0
 21
-8.0
 31
0.0
  0
LINE
  5
16F6
330
16E9
100
AcDbEntity
  8
CLASS1
  6
CONTINUOUS
100
AcDbLine
 10
-8.0
 20
-81.5
 30
0.0
 11
-8.0
 21
-76.49867599999993
 31
0.0
  0
ARC
  5
16F7
330
16E9
100
AcDbEntity
  8
CLASS1
  6
CONTINUOUS
100
AcDbCircle
 10
-8.0
 20
-75.4984119999999
 30
0.0
 40
1.0
100
AcDbArc
 50
180.0
 51
271.318020999991
  0
LINE
  5
16F8
330
16E9
100
AcDbEntity
  8
CLASS1
  6
CONTINUOUS
100
AcDbLine
 10
52.44472599999993
 20
-74.13071599999989
 30
0.0
 11
52.44472600000017
 21
74.14743399999998
 31
0.0
  0
LINE
  5
16F9
330
16E9
100
AcDbEntity
  8
CLASS1
  6
CONTINUOUS
100
AcDbLine
 10
58.30000000000018
 20
77.5
 30
0.0
 11
58.29999999999993
 21
-77.5
 31
0.0
  0
LINE
  5
16FA
330
16E9
100
AcDbEntity
  8
CLASS1
  6
CONTINUOUS
100
AcDbLine
 10
57.81567400000017
 20
77.5
 30
0.0
 11
57.81567400000017
 21
-77.5
 31
0.0
  0
LINE
  5
16FB
330
16E9
100
AcDbEntity
  8
CLASS1
  6
CONTINUOUS
100
AcDbLine
 10
57.54452300000025
 20
79.03282100000024
 30
0.0
 11
57.54452300000002
 21
-79.01470399999992
 31
0.0
  0
ARC
  5
16FC
330
16E9
100
AcDbEntity
  8
CLASS1
  6
CONTINUOUS
100
AcDbCircle
 10
57.60000000000013
 20
79.00883299999986
 30
0.0
 40
1.0
100
AcDbArc
 50
0.0
 51
88.69804699999894
  0
LINE
  5
16FD
330
16E9
100
AcDbEntity
  8
CLASS1
  6
CONTINUOUS
100
AcDbLine
 10
58.60000000000013
 20
79.0088330000001
 30
0.0
 11
58.60000000000013
 21
77.5
 31
0.0
  0
LINE
  5
16FE
330
16E9
100
AcDbEntity
  8
CLASS1
  6
CONTINUOUS
100
AcDbLine
 10
57.81567400000017
 20
77.5
 30
0.0
 11
58.60000000000013
 21
77.5
 31
0.0
  0
ARC
  5
16FF
330
16E9
100
AcDbEntity
  8
CLASS1
  6
CONTINUOUS
100
AcDbCircle
 10
56.54452300000002
 20
79.03282100000001
 30
0.0
 40
1.0
100
AcDbArc
 50
0.0
 51
88.69804699999894
  0
POINT
  5
1700
330
16E9
100
AcDbEntity
  8
CLASS1
  6
CONTINUOUS
100
AcDbPoint
 10
57.54452300000025
 20
80.01035200000023
 30
0.0
  0
ARC
  5
1701
330
16E9
100
AcDbEntity
  8
CLASS1
  6
CONTINUOUS
100
AcDbCircle
 10
51.44472600000018
 20
74.14743399999974
 30
0.0
 40
1.0
100
AcDbArc
 50
0.0
 51
88.69804599999346
  0
ARC
  5
1702
330
16E9
100
AcDbEntity
  8
CLASS1
  6
CONTINUOUS
100
AcDbCircle
 10
51.44472600000018
 20
-74.13071600000012
 30
0.0
 40
1.0
100
AcDbArc
 50
271.318020999991
 51
0.0
  0
ARC
  5
1703
330
16E9
100
AcDbEntity
  8
CLASS1
  6
CONTINUOUS
100
AcDbCircle
 10
57.60000000000013
 20
-78.99041899999997
 30
0.0
 40
1.0
100
AcDbArc
 50
271.318020999991
 51
0.0
  0
LINE
  5
1704
330
16E9
100
AcDbEntity
  8
CLASS1
  6
CONTINUOUS
100
AcDbLine
 10
58.60000000000013
 20
-78.99041899999973
 30
0.0
 11
58.60000000000013
 21
-77.5
 31
0.0
  0
LINE
  5
1705
330
16E9
100
AcDbEntity
  8
CLASS1
  6
CONTINUOUS
100
AcDbLine
 10
57.81567400000017
 20
-77.5
 30
0.0
 11
58.60000000000013
 21
-77.5
 31
0.0
  0
ARC
  5
1706
330
16E9
100
AcDbEntity
  8
CLASS1
  6
CONTINUOUS
100
AcDbCircle
 10
56.54452300000002
 20
-79.01470400000015
 30
0.0
 40
1.0
100
AcDbArc
 50
271.318020999991
 51
0.0
  0
POINT
  5
1707
330
16E9
100
AcDbEntity
  8
CLASS1
  6
CONTINUOUS
100
AcDbPoint
 10
57.54452300000002
 20
-79.99196099999993
 30
0.0
  0
ENDBLK
  5
1708
330
16E9
100
AcDbEntity
  8
0
100
AcDbBlockEnd
  0
ENDSEC
  0
SECTION
  2
ENTITIES
  0
LINE
  5
1709
330
16CC
100
AcDbEntity
  8
外枠
100
AcDbLine
 10
144.7107970241719
 20
201.5097230449538
 30
0.0
 11
144.7107970241719
 21
247.0097230449534
 31
0.0
  0
LINE
  5
170A
330
16CC
100
AcDbEntity
  8
外枠
100
AcDbLine
 10
144.7107970241719
 20
191.0837100449536
 30
0.0
 11
144.7107970241719
 21
191.4837100449537
 31
0.0
  0
LINE
  5
170B
330
16CC
100
AcDbEntity
  8
外枠
100
AcDbLine
 10
144.7107970241719
 20
185.3337100449536
 30
0.0
 11
144.7107970241719
 21
186.0837100449536
 31
0.0
  0
LINE
  5
170C
330
16CC
100
AcDbEntity
  8
外枠
100
AcDbLine
 10
144.7107970241719
 20
169.7536953859009
 30
0.0
 11
144.7107970241719
 21
171.3337100449536
 31
0.0
  0
LINE
  5
170D
330
16CC
100
AcDbEntity
  8
外枠
100
AcDbLine
 10
144.7107970241719
 20
149.9297220449536
 30
0.0
 11
144.7107970241719
 21
151.8536953859008
 31
0.0
  0
LINE
  5
170E
330
16CC
100
AcDbEntity
  8
外枠
100
AcDbLine
 10
144.7107970241719
 20
144.1797220449515
 30
0.0
 11
144.7107970241719
 21
144.9297220449536
 31
0.0
  0
LINE
  5
170F
330
16CC
100
AcDbEntity
  8
外枠
100
AcDbLine
 10
144.7107970241719
 20
133.9797220449526
 30
0.0
 11
144.7107970241719
 21
103.5097230449538
 31
0.0
  0
LINE
  5
1710
330
16CC
100
AcDbEntity
  8
0
100
AcDbLine
 10
145.3107970241719
 20
35.09999973577139
 30
0.0
 11
145.3107970241719
 21
37.0999997357714
 31
0.0
  0
LINE
  5
1711
330
16CC
100
AcDbEntity
  8
0
100
AcDbLine
 10
133.3107970241719
 20
37.0999997357714
 30
0.0
 11
133.3107970241719
 21
35.09999973577139
 31
0.0
  0
LINE
  5
1712
330
16CC
100
AcDbEntity
  8
0
100
AcDbLine
 10
145.3107970241719
 20
37.0999997357714
 30
0.0
 11
133.3107970241719
 21
37.0999997357714
 31
0.0
  0
LINE
  5
1713
330
16CC
100
AcDbEntity
  8
0
100
AcDbLine
 10
133.3107970241719
 20
35.09999973577139
 30
0.0
 11
145.3107970241719
 21
35.09999973577139
 31
0.0
  0
LINE
  5
1714
330
16CC
100
AcDbEntity
  8
0
100
AcDbLine
 10
145.3107970241719
 20
39.09999973577139
 30
0.0
 11
145.3107970241719
 21
41.09999973577139
 31
0.0
  0
LINE
  5
1715
330
16CC
100
AcDbEntity
  8
0
100
AcDbLine
 10
133.3107970241719
 20
41.09999973577139
 30
0.0
 11
133.3107970241719
 21
39.09999973577139
 31
0.0
  0
LINE
  5
1716
330
16CC
100
AcDbEntity
  8
0
100
AcDbLine
 10
145.3107970241719
 20
41.09999973577139
 30
0.0
 11
133.3107970241719
 21
41.09999973577139
 31
0.0
  0
LINE
  5
1717
330
16CC
100
AcDbEntity
  8
0
100
AcDbLine
 10
133.3107970241719
 20
39.09999973577139
 30
0.0
 11
145.3107970241719
 21
39.09999973577139
 31
0.0
  0
LINE
  5
1718
330
16CC
100
AcDbEntity
  8
CLASS1
100
AcDbLine
 10
133.3107965241719
 20
19.09999973577112
 30
0.0
 11
133.3107965241719
 21
21.09999973577111
 31
0.0
  0
LINE
  5
1719
330
16CC
100
AcDbEntity
  8
CLASS1
100
AcDbLine
 10
133.3107965241719
 20
15.09999973577111
 30
0.0
 11
133.3107965241719
 21
17.09999973577112
 31
0.0
  0
LINE
  5
171A
330
16CC
100
AcDbEntity
  8
CLASS1
100
AcDbLine
 10
133.3107965241719
 20
11.09999973577111
 30
0.0
 11
133.3107965241719
 21
13.09999973577111
 31
0.0
  0
LINE
  5
171B
330
16CC
100
AcDbEntity
  8
CLASS1
100
AcDbLine
 10
134.3107965241719
 20
25.39999973577085
 30
0.0
 11
140.3107965241719
 21
25.39999973577085
 31
0.0
  0
LINE
  5
171C
330
16CC
100
AcDbEntity
  8
CLASS1
100
AcDbLine
 10
132.3107965241719
 20
23.89999973577084
 30
0.0
 11
142.3107965241719
 21
23.89999973577084
 31
0.0
  0
LINE
  5
171D
330
16CC
100
AcDbEntity
  8
CLASS1
100
AcDbLine
 10
133.3107965241719
 20
7.099999735771119
 30
0.0
 11
133.3107965241719
 21
9.099999735771119
 31
0.0
  0
LINE
  5
171E
330
16CC
100
AcDbEntity
  8
CLASS1
100
AcDbLine
 10
145.3107965241719
 20
21.09999973577111
 30
0.0
 11
145.3107965241719
 21
19.09999973577112
 31
0.0
  0
LINE
  5
171F
330
16CC
100
AcDbEntity
  8
CLASS1
100
AcDbLine
 10
145.3107965241719
 20
17.09999973577112
 30
0.0
 11
145.3107965241719
 21
15.09999973577111
 31
0.0
  0
LINE
  5
1720
330
16CC
100
AcDbEntity
  8
CLASS1
100
AcDbLine
 10
145.3107965241719
 20
23.09999973577112
 30
0.0
 11
143.8107965241719
 21
23.09999973577112
 31
0.0
  0
LINE
  5
1721
330
16CC
100
AcDbEntity
  8
CLASS1
100
AcDbLine
 10
143.8107965241719
 20
25.09999973577112
 30
0.0
 11
145.3107965241719
 21
25.09999973577112
 31
0.0
  0
LINE
  5
1722
330
16CC
100
AcDbEntity
  8
CLASS1
100
AcDbLine
 10
145.3107965241719
 20
25.09999973577112
 30
0.0
 11
145.3107965241719
 21
23.09999973577112
 31
0.0
  0
LINE
  5
1723
330
16CC
100
AcDbEntity
  8
CLASS1
100
AcDbLine
 10
143.8107965241719
 20
25.09999973577112
 30
0.0
 11
143.8107965241719
 21
23.09999973577112
 31
0.0
  0
LINE
  5
1724
330
16CC
100
AcDbEntity
  8
CLASS1
100
AcDbLine
 10
145.3107965241719
 20
13.09999973577111
 30
0.0
 11
145.3107965241719
 21
11.09999973577111
 31
0.0
  0
LINE
  5
1725
330
16CC
100
AcDbEntity
  8
CLASS1
100
AcDbLine
 10
145.3107965241719
 20
9.099999735771119
 30
0.0
 11
145.3107965241719
 21
7.099999735771119
 31
0.0
  0
LINE
  5
1726
330
16CC
100
AcDbEntity
  8
CLASS1
100
AcDbLine
 10
145.3107965241719
 20
19.09999973577112
 30
0.0
 11
133.3107965241719
 21
19.09999973577112
 31
0.0
  0
LINE
  5
1727
330
16CC
100
AcDbEntity
  8
CLASS1
100
AcDbLine
 10
133.3107965241719
 20
21.09999973577111
 30
0.0
 11
145.3107965241719
 21
21.09999973577111
 31
0.0
  0
LINE
  5
1728
330
16CC
100
AcDbEntity
  8
CLASS1
100
AcDbLine
 10
145.3107965241719
 20
15.09999973577111
 30
0.0
 11
133.3107965241719
 21
15.09999973577111
 31
0.0
  0
LINE
  5
1729
330
16CC
100
AcDbEntity
  8
CLASS1
100
AcDbLine
 10
133.3107965241719
 20
17.09999973577112
 30
0.0
 11
145.3107965241719
 21
17.09999973577112
 31
0.0
  0
LINE
  5
172A
330
16CC
100
AcDbEntity
  8
CLASS1
100
AcDbLine
 10
145.3107965241719
 20
7.099999735771119
 30
0.0
 11
133.3107965241719
 21
7.099999735771119
 31
0.0
  0
LINE
  5
172B
330
16CC
100
AcDbEntity
  8
CLASS1
100
AcDbLine
 10
133.3107965241719
 20
9.099999735771119
 30
0.0
 11
145.3107965241719
 21
9.099999735771119
 31
0.0
  0
LINE
  5
172C
330
16CC
100
AcDbEntity
  8
CLASS1
100
AcDbLine
 10
145.3107965241719
 20
11.09999973577111
 30
0.0
 11
133.3107965241719
 21
11.09999973577111
 31
0.0
  0
LINE
  5
172D
330
16CC
100
AcDbEntity
  8
CLASS1
100
AcDbLine
 10
133.3107965241719
 20
13.09999973577111
 30
0.0
 11
145.3107965241719
 21
13.09999973577111
 31
0.0
  0
LINE
  5
172E
330
16CC
100
AcDbEntity
  8
CLASS1
100
AcDbLine
 10
132.3107965241719
 20
29.64999973577084
 30
0.0
 11
133.8107965241719
 21
29.64999973577084
 31
0.0
  0
LINE
  5
172F
330
16CC
100
AcDbEntity
  8
CLASS1
100
AcDbLine
 10
132.3107965241719
 20
28.14999973577084
 30
0.0
 11
133.8107965241719
 21
28.14999973577084
 31
0.0
  0
ARC
  5
1730
330
16CC
100
AcDbEntity
  8
CLASS1
100
AcDbCircle
 10
134.3107965241719
 20
31.89999973577084
 30
0.0
 40
0.5
100
AcDbArc
 50
89.99999999999998
 51
180.0
  0
LINE
  5
1731
330
16CC
100
AcDbEntity
  8
CLASS1
100
AcDbLine
 10
133.8107965241719
 20
31.89999973577084
 30
0.0
 11
133.8107965241719
 21
25.89999973577084
 31
0.0
  0
LINE
  5
1732
330
16CC
100
AcDbEntity
  8
CLASS1
100
AcDbLine
 10
140.8107965241718
 20
29.64999973577084
 30
0.0
 11
142.3107965241719
 21
29.64999973577084
 31
0.0
  0
LINE
  5
1733
330
16CC
100
AcDbEntity
  8
CLASS1
100
AcDbLine
 10
140.8107965241718
 20
28.14999973577084
 30
0.0
 11
142.3107965241719
 21
28.14999973577084
 31
0.0
  0
ARC
  5
1734
330
16CC
100
AcDbEntity
  8
CLASS1
100
AcDbCircle
 10
140.3107965241719
 20
31.89999973577084
 30
0.0
 40
0.5
100
AcDbArc
 50
0.0
 51
89.99999999999998
  0
LINE
  5
1735
330
16CC
100
AcDbEntity
  8
CLASS1
100
AcDbLine
 10
140.8107965241718
 20
25.89999973577084
 30
0.0
 11
140.8107965241718
 21
31.89999973577084
 31
0.0
  0
LINE
  5
1736
330
16CC
100
AcDbEntity
  8
CLASS1
100
AcDbLine
 10
140.3107965241719
 20
32.39999973577084
 30
0.0
 11
134.3107965241719
 21
32.39999973577084
 31
0.0
  0
LINE
  5
1737
330
16CC
100
AcDbEntity
  8
CLASS1
100
AcDbLine
 10
142.3107965241719
 20
33.89999973577085
 30
0.0
 11
132.3107965241719
 21
33.89999973577085
 31
0.0
  0
LINE
  5
1738
330
16CC
100
AcDbEntity
  8
CLASS1
100
AcDbLine
 10
143.8107965241719
 20
29.09999973577112
 30
0.0
 11
145.3107965241719
 21
29.09999973577112
 31
0.0
  0
LINE
  5
1739
330
16CC
100
AcDbEntity
  8
CLASS1
100
AcDbLine
 10
145.3107965241719
 20
27.09999973577112
 30
0.0
 11
143.8107965241719
 21
27.09999973577112
 31
0.0
  0
LINE
  5
173A
330
16CC
100
AcDbEntity
  8
CLASS1
100
AcDbLine
 10
145.3107965241719
 20
29.09999973577112
 30
0.0
 11
145.3107965241719
 21
27.09999973577112
 31
0.0
  0
LINE
  5
173B
330
16CC
100
AcDbEntity
  8
CLASS1
100
AcDbLine
 10
143.8107965241719
 20
29.09999973577112
 30
0.0
 11
143.8107965241719
 21
27.09999973577112
 31
0.0
  0
LINE
  5
173C
330
16CC
100
AcDbEntity
  8
CLASS1
100
AcDbLine
 10
143.8107965241719
 20
33.09999973577112
 30
0.0
 11
143.8107965241719
 21
31.09999973577112
 31
0.0
  0
LINE
  5
173D
330
16CC
100
AcDbEntity
  8
CLASS1
100
AcDbLine
 10
145.3107965241719
 20
31.09999973577112
 30
0.0
 11
143.8107965241719
 21
31.09999973577112
 31
0.0
  0
LINE
  5
173E
330
16CC
100
AcDbEntity
  8
CLASS1
100
AcDbLine
 10
143.8107965241719
 20
33.09999973577112
 30
0.0
 11
145.3107965241719
 21
33.09999973577112
 31
0.0
  0
LINE
  5
173F
330
16CC
100
AcDbEntity
  8
CLASS1
100
AcDbLine
 10
145.3107965241719
 20
33.09999973577112
 30
0.0
 11
145.3107965241719
 21
31.09999973577112
 31
0.0
  0
ARC
  5
1740
330
16CC
100
AcDbEntity
  8
CLASS1
100
AcDbCircle
 10
134.3107965241719
 20
25.89999973577084
 30
0.0
 40
0.5
100
AcDbArc
 50
180.0
 51
270.0
  0
ARC
  5
1741
330
16CC
100
AcDbEntity
  8
CLASS1
100
AcDbCircle
 10
140.3107965241719
 20
25.89999973577084
 30
0.0
 40
0.5
100
AcDbArc
 50
270.0
 51
0.0
  0
LINE
  5
1742
330
16CC
100
AcDbEntity
  8
CLASS1
100
AcDbLine
 10
132.3107965241719
 20
33.89999973577085
 30
0.0
 11
132.3107965241719
 21
23.89999973577084
 31
0.0
  0
LINE
  5
1743
330
16CC
100
AcDbEntity
  8
CLASS1
100
AcDbLine
 10
142.3107965241719
 20
23.89999973577084
 30
0.0
 11
142.3107965241719
 21
33.89999973577085
 31
0.0
  0
LINE
  5
1744
330
16CC
100
AcDbEntity
  8
CLASS1
100
AcDbLine
 10
133.3107978968312
 20
315.0713493985006
 30
0.0
 11
133.3107978968312
 21
313.0713493985006
 31
0.0
  0
LINE
  5
1745
330
16CC
100
AcDbEntity
  8
CLASS1
100
AcDbLine
 10
133.3107978968312
 20
311.0713493985006
 30
0.0
 11
133.3107978968312
 21
309.0713493985006
 31
0.0
  0
LINE
  5
1746
330
16CC
100
AcDbEntity
  8
CLASS1
100
AcDbLine
 10
133.3107978968313
 20
319.0713493985006
 30
0.0
 11
133.3107978968312
 21
317.0713493985006
 31
0.0
  0
LINE
  5
1747
330
16CC
100
AcDbEntity
  8
CLASS1
100
AcDbLine
 10
133.3107978968313
 20
327.0713493985006
 30
0.0
 11
133.3107978968313
 21
325.0713493985006
 31
0.0
  0
LINE
  5
1748
330
16CC
100
AcDbEntity
  8
CLASS1
100
AcDbLine
 10
133.3107978968313
 20
323.0713493985006
 30
0.0
 11
133.3107978968313
 21
321.0713493985006
 31
0.0
  0
LINE
  5
1749
330
16CC
100
AcDbEntity
  8
CLASS1
100
AcDbLine
 10
136.4107978968312
 20
319.0713493985006
 30
0.0
 11
136.4107978968312
 21
318.0713493985006
 31
0.0
  0
LINE
  5
174A
330
16CC
100
AcDbEntity
  8
CLASS1
100
AcDbLine
 10
136.4107978968312
 20
323.0713493985006
 30
0.0
 11
136.4107978968312
 21
321.0713493985006
 31
0.0
  0
LINE
  5
174B
330
16CC
100
AcDbEntity
  8
CLASS1
100
AcDbLine
 10
136.4107978968312
 20
331.0713493985006
 30
0.0
 11
136.4107978968312
 21
329.0713493985006
 31
0.0
  0
LINE
  5
174C
330
16CC
100
AcDbEntity
  8
CLASS1
100
AcDbLine
 10
136.4107978968312
 20
327.0713493985006
 30
0.0
 11
136.4107978968312
 21
325.0713493985006
 31
0.0
  0
LINE
  5
174D
330
16CC
100
AcDbEntity
  8
CLASS1
100
AcDbLine
 10
138.2107978968313
 20
321.1713493985005
 30
0.0
 11
138.8357978968313
 21
321.1713493985005
 31
0.0
  0
LINE
  5
174E
330
16CC
100
AcDbEntity
  8
CLASS1
100
AcDbLine
 10
138.2107978968313
 20
321.1713493985005
 30
0.0
 11
138.2107978968313
 21
330.9713493985003
 31
0.0
  0
LINE
  5
174F
330
16CC
100
AcDbEntity
  8
CLASS1
100
AcDbLine
 10
138.8357978968313
 20
319.9213493985005
 30
0.0
 11
138.8357978968313
 21
321.1713493985005
 31
0.0
  0
LINE
  5
1750
330
16CC
100
AcDbEntity
  8
CLASS1
100
AcDbLine
 10
141.9107978968311
 20
322.5713493985006
 30
0.0
 11
141.9107978968311
 21
329.5713493985006
 31
0.0
  0
LINE
  5
1751
330
16CC
100
AcDbEntity
  8
CLASS1
100
AcDbLine
 10
140.4107978968312
 20
322.0713493985006
 30
0.0
 11
141.4107978968312
 21
322.0713493985006
 31
0.0
  0
ARC
  5
1752
330
16CC
100
AcDbEntity
  8
CLASS1
100
AcDbCircle
 10
141.4107978968312
 20
322.5713493985006
 30
0.0
 40
0.5
100
AcDbArc
 50
270.0
 51
0.0
  0
ARC
  5
1753
330
16CC
100
AcDbEntity
  8
CLASS1
100
AcDbCircle
 10
141.4107978968312
 20
329.5713493985006
 30
0.0
 40
0.5
100
AcDbArc
 50
0.0
 51
89.99999999999998
  0
LINE
  5
1754
330
16CC
100
AcDbEntity
  8
CLASS1
100
AcDbLine
 10
138.2107978968313
 20
326.6713493985005
 30
0.0
 11
139.9107978968312
 21
326.6713493985005
 31
0.0
  0
LINE
  5
1755
330
16CC
100
AcDbEntity
  8
CLASS1
100
AcDbLine
 10
138.2107978968313
 20
325.4713493985003
 30
0.0
 11
139.9107978968312
 21
325.4713493985003
 31
0.0
  0
LINE
  5
1756
330
16CC
100
AcDbEntity
  8
CLASS1
100
AcDbLine
 10
139.9107978968312
 20
322.5713493985006
 30
0.0
 11
139.9107978968312
 21
329.5713493985006
 31
0.0
  0
ARC
  5
1757
330
16CC
100
AcDbEntity
  8
CLASS1
100
AcDbCircle
 10
140.4107978968312
 20
322.5713493985006
 30
0.0
 40
0.5
100
AcDbArc
 50
180.0
 51
270.0
  0
LINE
  5
1758
330
16CC
100
AcDbEntity
  8
CLASS1
100
AcDbLine
 10
140.4107978968312
 20
330.0713493985006
 30
0.0
 11
141.4107978968312
 21
330.0713493985006
 31
0.0
  0
ARC
  5
1759
330
16CC
100
AcDbEntity
  8
CLASS1
100
AcDbCircle
 10
140.4107978968312
 20
329.5713493985006
 30
0.0
 40
0.5
100
AcDbArc
 50
89.99999999999998
 51
180.0
  0
LINE
  5
175A
330
16CC
100
AcDbEntity
  8
CLASS1
100
AcDbLine
 10
138.8357978968313
 20
330.9713493985003
 30
0.0
 11
138.8357978968313
 21
332.2213493985003
 31
0.0
  0
LINE
  5
175B
330
16CC
100
AcDbEntity
  8
CLASS1
100
AcDbLine
 10
138.2107978968313
 20
330.9713493985003
 30
0.0
 11
138.8357978968313
 21
330.9713493985003
 31
0.0
  0
LINE
  5
175C
330
16CC
100
AcDbEntity
  8
CLASS1
100
AcDbLine
 10
140.910797896831
 20
321.0713493985006
 30
0.0
 11
140.910797896831
 21
333.1050923985005
 31
0.0
  0
LINE
  5
175D
330
16CC
100
AcDbEntity
  8
CLASS1
100
AcDbLine
 10
133.3107978968313
 20
333.0713493985006
 30
0.0
 11
136.4107978968312
 21
333.0713493985006
 31
0.0
  0
LINE
  5
175E
330
16CC
100
AcDbEntity
  8
CLASS1
100
AcDbLine
 10
136.4107978968312
 20
319.0713493985006
 30
0.0
 11
133.3107978968313
 21
319.0713493985006
 31
0.0
  0
LINE
  5
175F
330
16CC
100
AcDbEntity
  8
CLASS1
100
AcDbLine
 10
133.3107978968313
 20
321.0713493985006
 30
0.0
 11
136.4107978968312
 21
321.0713493985006
 31
0.0
  0
LINE
  5
1760
330
16CC
100
AcDbEntity
  8
CLASS1
100
AcDbLine
 10
136.4107978968312
 20
323.0713493985006
 30
0.0
 11
133.3107978968313
 21
323.0713493985006
 31
0.0
  0
LINE
  5
1761
330
16CC
100
AcDbEntity
  8
CLASS1
100
AcDbLine
 10
136.4107978968312
 20
327.0713493985006
 30
0.0
 11
133.3107978968313
 21
327.0713493985006
 31
0.0
  0
LINE
  5
1762
330
16CC
100
AcDbEntity
  8
CLASS1
100
AcDbLine
 10
133.3107978968313
 20
329.0713493985006
 30
0.0
 11
136.4107978968312
 21
329.0713493985006
 31
0.0
  0
LINE
  5
1763
330
16CC
100
AcDbEntity
  8
CLASS1
100
AcDbLine
 10
136.4107978968312
 20
331.0713493985006
 30
0.0
 11
133.3107978968313
 21
331.0713493985006
 31
0.0
  0
LINE
  5
1764
330
16CC
100
AcDbEntity
  8
CLASS1
100
AcDbLine
 10
133.3107978968313
 20
325.0713493985006
 30
0.0
 11
136.4107978968312
 21
325.0713493985006
 31
0.0
  0
LINE
  5
1765
330
16CC
100
AcDbEntity
  8
CLASS1
100
AcDbLine
 10
145.3107978968311
 20
313.0713493985006
 30
0.0
 11
145.3107978968311
 21
315.0713493985006
 31
0.0
  0
LINE
  5
1766
330
16CC
100
AcDbEntity
  8
CLASS1
100
AcDbLine
 10
145.3107978968311
 20
309.0713493985006
 30
0.0
 11
145.3107978968311
 21
311.0713493985006
 31
0.0
  0
LINE
  5
1767
330
16CC
100
AcDbEntity
  8
CLASS1
100
AcDbLine
 10
145.3107978968311
 20
317.0713493985006
 30
0.0
 11
145.3107978968313
 21
318.0713493985006
 31
0.0
  0
LINE
  5
1768
330
16CC
100
AcDbEntity
  8
CLASS1
100
AcDbLine
 10
143.5107978968311
 20
328.0713493985006
 30
0.0
 11
143.5107978968311
 21
330.9713493985003
 31
0.0
  0
LINE
  5
1769
330
16CC
100
AcDbEntity
  8
CLASS1
100
AcDbLine
 10
145.2107978968313
 20
324.0713493985006
 30
0.0
 11
145.2107978968313
 21
328.0713493985006
 31
0.0
  0
LINE
  5
176A
330
16CC
100
AcDbEntity
  8
CLASS1
100
AcDbLine
 10
142.9857978968312
 20
319.9213493985005
 30
0.0
 11
142.9857978968312
 21
321.1713493985005
 31
0.0
  0
LINE
  5
176B
330
16CC
100
AcDbEntity
  8
CLASS1
100
AcDbLine
 10
143.485797896831
 20
321.1713493985005
 30
0.0
 11
143.485797896831
 21
324.0713493985006
 31
0.0
  0
LINE
  5
176C
330
16CC
100
AcDbEntity
  8
CLASS1
100
AcDbLine
 10
143.485797896831
 20
324.0713493985006
 30
0.0
 11
145.2107978968313
 21
324.0713493985006
 31
0.0
  0
LINE
  5
176D
330
16CC
100
AcDbEntity
  8
CLASS1
100
AcDbLine
 10
142.9857978968312
 20
321.1713493985005
 30
0.0
 11
143.485797896831
 21
321.1713493985005
 31
0.0
  0
LINE
  5
176E
330
16CC
100
AcDbEntity
  8
CLASS1
100
AcDbLine
 10
142.9857978968312
 20
330.9713493985003
 30
0.0
 11
142.9857978968312
 21
332.2213493985003
 31
0.0
  0
LINE
  5
176F
330
16CC
100
AcDbEntity
  8
CLASS1
100
AcDbLine
 10
143.5107978968311
 20
328.0713493985006
 30
0.0
 11
145.2107978968313
 21
328.0713493985006
 31
0.0
  0
LINE
  5
1770
330
16CC
100
AcDbEntity
  8
CLASS1
100
AcDbLine
 10
142.9857978968312
 20
330.9713493985003
 30
0.0
 11
143.5107978968311
 21
330.9713493985003
 31
0.0
  0
LINE
  5
1771
330
16CC
100
AcDbEntity
  8
CLASS1
100
AcDbLine
 10
136.4107978968312
 20
318.0713493985006
 30
0.0
 11
145.3107978968313
 21
318.0713493985006
 31
0.0
  0
LINE
  5
1772
330
16CC
100
AcDbEntity
  8
CLASS1
100
AcDbLine
 10
133.3107978968312
 20
317.0713493985006
 30
0.0
 11
145.3107978968311
 21
317.0713493985006
 31
0.0
  0
LINE
  5
1773
330
16CC
100
AcDbEntity
  8
CLASS1
100
AcDbLine
 10
138.8357978968313
 20
319.9213493985005
 30
0.0
 11
142.9857978968312
 21
319.9213493985005
 31
0.0
  0
LINE
  5
1774
330
16CC
100
AcDbEntity
  8
CLASS1
100
AcDbLine
 10
138.8357978968313
 20
332.2213493985003
 30
0.0
 11
142.9857978968312
 21
332.2213493985003
 31
0.0
  0
LINE
  5
1775
330
16CC
100
AcDbEntity
  8
CLASS1
100
AcDbLine
 10
141.9107978968311
 20
325.4713493985003
 30
0.0
 11
145.2107978968313
 21
325.4713493985003
 31
0.0
  0
LINE
  5
1776
330
16CC
100
AcDbEntity
  8
CLASS1
100
AcDbLine
 10
141.9107978968311
 20
326.6713493985005
 30
0.0
 11
145.2107978968313
 21
326.6713493985005
 31
0.0
  0
LINE
  5
1777
330
16CC
100
AcDbEntity
  8
CLASS1
100
AcDbLine
 10
133.3107978968312
 20
309.0713493985006
 30
0.0
 11
145.3107978968311
 21
309.0713493985006
 31
0.0
  0
LINE
  5
1778
330
16CC
100
AcDbEntity
  8
CLASS1
100
AcDbLine
 10
145.3107978968311
 20
315.0713493985006
 30
0.0
 11
133.3107978968312
 21
315.0713493985006
 31
0.0
  0
LINE
  5
1779
330
16CC
100
AcDbEntity
  8
CLASS1
100
AcDbLine
 10
133.3107978968312
 20
313.0713493985006
 30
0.0
 11
145.3107978968311
 21
313.0713493985006
 31
0.0
  0
LINE
  5
177A
330
16CC
100
AcDbEntity
  8
CLASS1
100
AcDbLine
 10
145.3107978968311
 20
311.0713493985006
 30
0.0
 11
133.3107978968312
 21
311.0713493985006
 31
0.0
  0
LINE
  5
177B
330
16CC
100
AcDbEntity
  8
CLASS1
100
AcDbLine
 10
145.3107978968313
 20
334.0713493985006
 30
0.0
 11
145.3107978968313
 21
335.0713493985006
 31
0.0
  0
LINE
  5
177C
330
16CC
100
AcDbEntity
  8
CLASS1
100
AcDbLine
 10
145.3107978968313
 20
334.0713493985006
 30
0.0
 11
136.4107978968312
 21
334.0713493985006
 31
0.0
  0
LINE
  5
177D
330
16CC
100
AcDbEntity
  8
CLASS1
100
AcDbLine
 10
136.4107978968312
 20
334.0713493985006
 30
0.0
 11
136.4107978968312
 21
333.0713493985006
 31
0.0
  0
LINE
  5
177E
330
16CC
100
AcDbEntity
  8
外枠
100
AcDbLine
 10
139.7107970241719
 20
151.8536953859008
 30
0.0
 11
144.7107970241719
 21
151.8536953859008
 31
0.0
  0
LINE
  5
177F
330
16CC
100
AcDbEntity
  8
0
100
AcDbLine
 10
139.7107970241719
 20
151.8536953859008
 30
0.0
 11
144.7107970241719
 21
151.8536953859008
 31
0.0
  0
LINE
  5
1780
330
16CC
100
AcDbEntity
  8
外枠
100
AcDbLine
 10
139.7107970241719
 20
169.7536953859009
 30
0.0
 11
144.7107970241719
 21
169.7536953859009
 31
0.0
  0
ARC
  5
1781
330
16CC
100
AcDbEntity
  8
0
100
AcDbCircle
 10
153.8110050241719
 20
255.5058540449534
 30
0.0
 40
1.0
100
AcDbArc
 50
0.0
 51
89.99999999999998
  0
LINE
  5
1782
330
16CC
100
AcDbEntity
  8
0
100
AcDbLine
 10
154.811006024172
 20
254.5647220449534
 30
0.0
 11
154.811006024172
 21
263.5055950449535
 31
0.0
  0
ARC
  5
1783
330
16CC
100
AcDbEntity
  8
0
100
AcDbCircle
 10
148.8529690241721
 20
256.1298500449535
 30
0.0
 40
1.0
100
AcDbArc
 50
270.1244089999974
 51
326.0984159999948
  0
LINE
  5
1784
330
16CC
100
AcDbEntity
  8
0
100
AcDbLine
 10
149.682966024172
 20
255.5720820449534
 30
0.0
 11
150.310472024172
 21
256.5058540449534
 31
0.0
  0
ARC
  5
1785
330
16CC
100
AcDbEntity
  8
0
100
AcDbCircle
 10
129.7686250241721
 20
256.1298500449535
 30
0.0
 40
1.0
100
AcDbArc
 50
213.901584000005
 51
269.8755909999992
  0
ARC
  5
1786
330
16CC
100
AcDbEntity
  8
0
100
AcDbCircle
 10
125.310588024172
 20
263.5055950449535
 30
0.0
 40
1.5
100
AcDbArc
 50
89.99999999999998
 51
180.0
  0
ARC
  5
1787
330
16CC
100
AcDbEntity
  8
0
100
AcDbCircle
 10
124.8105880241719
 20
255.5058540449534
 30
0.0
 40
1.0
100
AcDbArc
 50
89.99999999999998
 51
180.0
  0
ARC
  5
1788
330
16CC
100
AcDbEntity
  8
0
100
AcDbCircle
 10
125.818515024172
 20
253.9944910449538
 30
0.0
 40
1.0
100
AcDbArc
 50
89.99999999999998
 51
180.0
  0
LINE
  5
1789
330
16CC
100
AcDbEntity
  8
0
100
AcDbLine
 10
124.8105880241719
 20
256.5058540449534
 30
0.0
 11
128.3111210241719
 21
256.5058540449534
 31
0.0
  0
LINE
  5
178A
330
16CC
100
AcDbEntity
  8
0
100
AcDbLine
 10
128.9386280241719
 20
255.5720820449534
 30
0.0
 11
128.3111210241719
 21
256.5058540449534
 31
0.0
  0
LINE
  5
178B
330
16CC
100
AcDbEntity
  8
0
100
AcDbLine
 10
123.810588024172
 20
255.5058540449535
 30
0.0
 11
123.810588024172
 21
263.5055950449535
 31
0.0
  0
LINE
  5
178C
330
16CC
100
AcDbEntity
  8
0
100
AcDbLine
 10
128.9871980241721
 20
255.5058540449535
 30
0.0
 11
149.638460024172
 21
255.5058540449535
 31
0.0
  0
ARC
  5
178D
330
16CC
100
AcDbEntity
  8
0
100
AcDbCircle
 10
139.3107970241731
 20
4650.715149044953
 30
0.0
 40
4395.595658
100
AcDbArc
 50
269.8755909999992
 51
270.1244089999974
  0
LINE
  5
178E
330
16CC
100
AcDbEntity
  8
中心線
100
AcDbLine
 10
146.8107970241718
 20
260.2555950449535
 30
0.0
 11
131.8107970241719
 21
260.2555950449535
 31
0.0
  0
LINE
  5
178F
330
16CC
100
AcDbEntity
  8
0
100
AcDbLine
 10
125.310588024172
 20
265.0055950449535
 30
0.0
 11
153.3110060241719
 21
265.0055950449535
 31
0.0
  0
LINE
  5
1790
330
16CC
100
AcDbEntity
  8
0
100
AcDbLine
 10
125.818515024172
 20
254.9944910449537
 30
0.0
 11
152.803080024172
 21
254.9944910449537
 31
0.0
  0
CIRCLE
  5
1791
330
16CC
100
AcDbEntity
  8
0
100
AcDbCircle
 10
139.3107970241719
 20
260.2555950449535
 30
0.0
 40
2.5
  0
ARC
  5
1792
330
16CC
100
AcDbEntity
  8
0
100
AcDbCircle
 10
152.803080024172
 20
253.9944910449538
 30
0.0
 40
1.0
100
AcDbArc
 50
0.0
 51
89.99999999999998
  0
LINE
  5
1793
330
16CC
100
AcDbEntity
  8
0
100
AcDbLine
 10
150.310472024172
 20
256.5058540449534
 30
0.0
 11
153.8110050241719
 21
256.5058540449534
 31
0.0
  0
ARC
  5
1794
330
16CC
100
AcDbEntity
  8
0
100
AcDbCircle
 10
153.3110060241719
 20
263.5055950449535
 30
0.0
 40
1.5
100
AcDbArc
 50
0.0
 51
89.99999999999998
  0
LINE
  5
1795
330
16CC
100
AcDbEntity
  8
0
100
AcDbLine
 10
154.880508024172
 20
250.1308190449539
 30
0.0
 11
153.880080024172
 21
250.1308190449539
 31
0.0
  0
LINE
  5
1796
330
16CC
100
AcDbEntity
  8
0
100
AcDbLine
 10
154.880508024172
 20
250.1308190449539
 30
0.0
 11
153.880080024172
 21
250.1308190449539
 31
0.0
  0
ARC
  5
1797
330
16CC
100
AcDbEntity
  8
0
100
AcDbCircle
 10
154.880508024172
 20
249.1308190449539
 30
0.0
 40
1.0
100
AcDbArc
 50
0.0
 51
89.99999999999998
  0
ARC
  5
1798
330
16CC
100
AcDbEntity
  8
0
100
AcDbCircle
 10
154.880508024172
 20
249.1308190449539
 30
0.0
 40
1.0
100
AcDbArc
 50
0.0
 51
89.99999999999998
  0
LINE
  5
1799
330
16CC
100
AcDbEntity
  8
0
100
AcDbLine
 10
154.811006024172
 20
251.4815770449537
 30
0.0
 11
155.795796024172
 21
251.4815770449537
 31
0.0
  0
ARC
  5
179A
330
16CC
100
AcDbEntity
  8
0
100
AcDbCircle
 10
155.795796024172
 20
250.4815770449538
 30
0.0
 40
1.0
100
AcDbArc
 50
0.0
 51
89.99999999999998
  0
LINE
  5
179B
330
16CC
100
AcDbEntity
  8
0
100
AcDbLine
 10
154.811006024172
 20
251.4815770449537
 30
0.0
 11
153.880080024172
 21
250.1308190449539
 31
0.0
  0
LINE
  5
179C
330
16CC
100
AcDbEntity
  8
0
100
AcDbLine
 10
154.811006024172
 20
251.4815770449537
 30
0.0
 11
153.880080024172
 21
250.1308190449539
 31
0.0
  0
ARC
  5
179D
330
16CC
100
AcDbEntity
  8
0
100
AcDbCircle
 10
150.710797024172
 20
251.4097230449535
 30
0.0
 40
1.0
100
AcDbArc
 50
0.0
 51
89.99999999999998
  0
ARC
  5
179E
330
16CC
100
AcDbEntity
  8
0
100
AcDbCircle
 10
150.8107970241719
 20
251.5058540449534
 30
0.0
 40
1.0
100
AcDbArc
 50
0.0
 51
89.99999999999998
  0
LINE
  5
179F
330
16CC
100
AcDbEntity
  8
0
100
AcDbLine
 10
147.710797024172
 20
243.9097230449537
 30
0.0
 11
147.710797024172
 21
246.6097230449538
 31
0.0
  0
LINE
  5
17A0
330
16CC
100
AcDbEntity
  8
0
100
AcDbLine
 10
146.110797024172
 20
246.6097230449538
 30
0.0
 11
146.110797024172
 21
243.9097230449537
 31
0.0
  0
LINE
  5
17A1
330
16CC
100
AcDbEntity
  8
0
100
AcDbLine
 10
146.110797024172
 20
246.6097230449538
 30
0.0
 11
147.710797024172
 21
246.6097230449538
 31
0.0
  0
LINE
  5
17A2
330
16CC
100
AcDbEntity
  8
0
100
AcDbLine
 10
147.410797024172
 20
244.4647220449535
 30
0.0
 11
147.410797024172
 21
246.0647220449533
 31
0.0
  0
LINE
  5
17A3
330
16CC
100
AcDbEntity
  8
0
100
AcDbLine
 10
147.410797024172
 20
244.4647220449535
 30
0.0
 11
147.410797024172
 21
246.0647220449533
 31
0.0
  0
LINE
  5
17A4
330
16CC
100
AcDbEntity
  8
0
100
AcDbLine
 10
147.410797024172
 20
244.4647220449535
 30
0.0
 11
147.410797024172
 21
246.0647220449533
 31
0.0
  0
LINE
  5
17A5
330
16CC
100
AcDbEntity
  8
0
100
AcDbLine
 10
146.3107970241719
 20
244.4647220449535
 30
0.0
 11
147.410797024172
 21
244.4647220449535
 31
0.0
  0
LINE
  5
17A6
330
16CC
100
AcDbEntity
  8
0
100
AcDbLine
 10
146.3107970241719
 20
244.4647220449535
 30
0.0
 11
147.410797024172
 21
244.4647220449535
 31
0.0
  0
LINE
  5
17A7
330
16CC
100
AcDbEntity
  8
0
100
AcDbLine
 10
146.3107970241719
 20
246.0647220449533
 30
0.0
 11
147.410797024172
 21
246.0647220449533
 31
0.0
  0
LINE
  5
17A8
330
16CC
100
AcDbEntity
  8
0
100
AcDbLine
 10
146.3107970241719
 20
246.0647220449533
 30
0.0
 11
147.410797024172
 21
246.0647220449533
 31
0.0
  0
LINE
  5
17A9
330
16CC
100
AcDbEntity
  8
0
100
AcDbLine
 10
146.110797024172
 20
243.9097230449537
 30
0.0
 11
147.710797024172
 21
243.9097230449537
 31
0.0
  0
LINE
  5
17AA
330
16CC
100
AcDbEntity
  8
0
100
AcDbLine
 10
146.3107970241719
 20
246.0647220449533
 30
0.0
 11
146.3107970241719
 21
244.4647220449535
 31
0.0
  0
LINE
  5
17AB
330
16CC
100
AcDbEntity
  8
0
100
AcDbLine
 10
144.7107970241719
 20
236.0547220449535
 30
0.0
 11
144.460797024172
 21
236.0547220449535
 31
0.0
  0
LINE
  5
17AC
330
16CC
100
AcDbEntity
  8
0
100
AcDbLine
 10
144.7107970241719
 20
236.5547220449534
 30
0.0
 11
144.460797024172
 21
236.5547220449534
 31
0.0
  0
LINE
  5
17AD
330
16CC
100
AcDbEntity
  8
0
100
AcDbLine
 10
144.7107970241719
 20
239.9647220449534
 30
0.0
 11
144.460797024172
 21
239.9647220449534
 31
0.0
  0
LINE
  5
17AE
330
16CC
100
AcDbEntity
  8
0
100
AcDbLine
 10
141.7176120241719
 20
240.7868160449535
 30
0.0
 11
141.7176120241719
 21
242.8647220449537
 31
0.0
  0
LINE
  5
17AF
330
16CC
100
AcDbEntity
  8
0
100
AcDbLine
 10
138.4532560241719
 20
240.7868160449535
 30
0.0
 11
138.4532560241719
 21
242.8647220449537
 31
0.0
  0
LINE
  5
17B0
330
16CC
100
AcDbEntity
  8
0
100
AcDbLine
 10
143.757837024172
 20
242.8647220449537
 30
0.0
 11
141.7176120241719
 21
242.8647220449537
 31
0.0
  0
LINE
  5
17B1
330
16CC
100
AcDbEntity
  8
0
100
AcDbLine
 10
138.844979024172
 20
236.100701044954
 30
0.0
 11
139.2530240241718
 21
236.100701044954
 31
0.0
  0
LINE
  5
17B2
330
16CC
100
AcDbEntity
  8
0
100
AcDbLine
 10
140.917847024172
 20
236.100701044954
 30
0.0
 11
141.325889024172
 21
236.100701044954
 31
0.0
  0
LINE
  5
17B3
330
16CC
100
AcDbEntity
  8
0
100
AcDbLine
 10
141.325889024172
 20
236.5087430449538
 30
0.0
 11
140.917847024172
 21
236.5087430449538
 31
0.0
  0
LINE
  5
17B4
330
16CC
100
AcDbEntity
  8
0
100
AcDbLine
 10
139.2530240241718
 20
236.5087430449538
 30
0.0
 11
138.844979024172
 21
236.5087430449538
 31
0.0
  0
LINE
  5
17B5
330
16CC
100
AcDbEntity
  8
0
100
AcDbLine
 10
138.844979024172
 20
236.5087430449538
 30
0.0
 11
138.844979024172
 21
236.100701044954
 31
0.0
  0
LINE
  5
17B6
330
16CC
100
AcDbEntity
  8
0
100
AcDbLine
 10
139.2530240241718
 20
236.100701044954
 30
0.0
 11
139.2530240241718
 21
236.5087430449538
 31
0.0
  0
LINE
  5
17B7
330
16CC
100
AcDbEntity
  8
0
100
AcDbLine
 10
140.917847024172
 20
236.5087430449538
 30
0.0
 11
140.917847024172
 21
236.100701044954
 31
0.0
  0
LINE
  5
17B8
330
16CC
100
AcDbEntity
  8
0
100
AcDbLine
 10
141.325889024172
 20
236.100701044954
 30
0.0
 11
141.325889024172
 21
236.5087430449538
 31
0.0
  0
LINE
  5
17B9
330
16CC
100
AcDbEntity
  8
0
100
AcDbLine
 10
138.453259024172
 20
241.5325980449535
 30
0.0
 11
141.717615024172
 21
241.5325970449536
 31
0.0
  0
LINE
  5
17BA
330
16CC
100
AcDbEntity
  8
0
100
AcDbLine
 10
138.453259024172
 20
241.8450850449537
 30
0.0
 11
141.717615024172
 21
241.8450840449537
 31
0.0
  0
LINE
  5
17BB
330
16CC
100
AcDbEntity
  8
0
100
AcDbLine
 10
138.453260024172
 20
242.1575720449534
 30
0.0
 11
141.717615024172
 21
242.1575720449534
 31
0.0
  0
LINE
  5
17BC
330
16CC
100
AcDbEntity
  8
0
100
AcDbLine
 10
138.453260024172
 20
242.4700600449539
 30
0.0
 11
141.717615024172
 21
242.4700590449536
 31
0.0
  0
LINE
  5
17BD
330
16CC
100
AcDbEntity
  8
0
100
AcDbLine
 10
141.7176120241719
 20
240.7868160449535
 30
0.0
 11
138.4532560241719
 21
240.7868160449535
 31
0.0
  0
LINE
  5
17BE
330
16CC
100
AcDbEntity
  8
0
100
AcDbLine
 10
141.7176120241719
 20
242.7955330449535
 30
0.0
 11
138.4532560241719
 21
242.7955330449535
 31
0.0
  0
LINE
  5
17BF
330
16CC
100
AcDbEntity
  8
0
100
AcDbLine
 10
141.7176120241719
 20
242.8647220449537
 30
0.0
 11
141.7176120241719
 21
245.3167380449535
 31
0.0
  0
LINE
  5
17C0
330
16CC
100
AcDbEntity
  8
0
100
AcDbLine
 10
138.4532560241719
 20
242.7955330449535
 30
0.0
 11
138.4532560241719
 21
245.3167380449535
 31
0.0
  0
LINE
  5
17C1
330
16CC
100
AcDbEntity
  8
0
100
AcDbLine
 10
143.757837024172
 20
240.2532360449537
 30
0.0
 11
143.757837024172
 21
245.3167380449535
 31
0.0
  0
LINE
  5
17C2
330
16CC
100
AcDbEntity
  8
0
100
AcDbLine
 10
144.7107970241719
 20
239.9647220449534
 30
0.0
 11
144.7107970241719
 21
246.0647220449533
 31
0.0
  0
LINE
  5
17C3
330
16CC
100
AcDbEntity
  8
0
100
AcDbLine
 10
144.7107970241719
 20
220.0447220449536
 30
0.0
 11
144.460797024172
 21
220.0447220449536
 31
0.0
  0
LINE
  5
17C4
330
16CC
100
AcDbEntity
  8
0
100
AcDbLine
 10
144.7107970241719
 20
218.7747220449534
 30
0.0
 11
144.460797024172
 21
218.7747220449534
 31
0.0
  0
LINE
  5
17C5
330
16CC
100
AcDbEntity
  8
0
100
AcDbLine
 10
144.7107970241719
 20
219.5447220449534
 30
0.0
 11
144.460797024172
 21
219.5447220449534
 31
0.0
  0
LINE
  5
17C6
330
16CC
100
AcDbEntity
  8
0
100
AcDbLine
 10
144.7107970241719
 20
220.8147220449534
 30
0.0
 11
144.460797024172
 21
220.8147220449534
 31
0.0
  0
LINE
  5
17C7
330
16CC
100
AcDbEntity
  8
0
100
AcDbLine
 10
144.7107970241719
 20
221.3147220449534
 30
0.0
 11
144.460797024172
 21
221.3147220449534
 31
0.0
  0
LINE
  5
17C8
330
16CC
100
AcDbEntity
  8
0
100
AcDbLine
 10
144.7107970241719
 20
225.1247220449537
 30
0.0
 11
144.460797024172
 21
225.1247220449537
 31
0.0
  0
LINE
  5
17C9
330
16CC
100
AcDbEntity
  8
0
100
AcDbLine
 10
144.7107970241719
 20
225.8947220449538
 30
0.0
 11
144.460797024172
 21
225.8947220449535
 31
0.0
  0
LINE
  5
17CA
330
16CC
100
AcDbEntity
  8
0
100
AcDbLine
 10
144.7107970241719
 20
226.3947220449535
 30
0.0
 11
144.460797024172
 21
226.3947220449535
 31
0.0
  0
LINE
  5
17CB
330
16CC
100
AcDbEntity
  8
0
100
AcDbLine
 10
144.7107970241719
 20
222.0847220449535
 30
0.0
 11
144.460797024172
 21
222.0847220449536
 31
0.0
  0
LINE
  5
17CC
330
16CC
100
AcDbEntity
  8
0
100
AcDbLine
 10
144.7107970241719
 20
222.5847220449536
 30
0.0
 11
144.460797024172
 21
222.5847220449536
 31
0.0
  0
LINE
  5
17CD
330
16CC
100
AcDbEntity
  8
0
100
AcDbLine
 10
144.7107970241719
 20
223.3547220449537
 30
0.0
 11
144.460797024172
 21
223.3547220449537
 31
0.0
  0
LINE
  5
17CE
330
16CC
100
AcDbEntity
  8
0
100
AcDbLine
 10
144.7107970241719
 20
223.8547220449536
 30
0.0
 11
144.460797024172
 21
223.8547220449536
 31
0.0
  0
LINE
  5
17CF
330
16CC
100
AcDbEntity
  8
0
100
AcDbLine
 10
144.7107970241719
 20
224.6247220449537
 30
0.0
 11
144.460797024172
 21
224.6247220449537
 31
0.0
  0
LINE
  5
17D0
330
16CC
100
AcDbEntity
  8
0
100
AcDbLine
 10
144.7107970241719
 20
228.9347220449537
 30
0.0
 11
144.460797024172
 21
228.9347220449537
 31
0.0
  0
LINE
  5
17D1
330
16CC
100
AcDbEntity
  8
0
100
AcDbLine
 10
144.7107970241719
 20
227.1647220449537
 30
0.0
 11
144.460797024172
 21
227.1647220449537
 31
0.0
  0
LINE
  5
17D2
330
16CC
100
AcDbEntity
  8
0
100
AcDbLine
 10
144.7107970241719
 20
227.6647220449536
 30
0.0
 11
144.460797024172
 21
227.6647220449536
 31
0.0
  0
LINE
  5
17D3
330
16CC
100
AcDbEntity
  8
0
100
AcDbLine
 10
144.7107970241719
 20
228.4347220449537
 30
0.0
 11
144.460797024172
 21
228.4347220449537
 31
0.0
  0
LINE
  5
17D4
330
16CC
100
AcDbEntity
  8
0
100
AcDbLine
 10
144.7107970241719
 20
233.5147220449534
 30
0.0
 11
144.460797024172
 21
233.5147220449534
 31
0.0
  0
LINE
  5
17D5
330
16CC
100
AcDbEntity
  8
0
100
AcDbLine
 10
144.7107970241719
 20
234.0147220449535
 30
0.0
 11
144.460797024172
 21
234.0147220449535
 31
0.0
  0
LINE
  5
17D6
330
16CC
100
AcDbEntity
  8
0
100
AcDbLine
 10
144.7107970241719
 20
234.7847220449533
 30
0.0
 11
144.460797024172
 21
234.7847220449534
 31
0.0
  0
LINE
  5
17D7
330
16CC
100
AcDbEntity
  8
0
100
AcDbLine
 10
144.7107970241719
 20
235.2847220449536
 30
0.0
 11
144.460797024172
 21
235.2847220449536
 31
0.0
  0
LINE
  5
17D8
330
16CC
100
AcDbEntity
  8
0
100
AcDbLine
 10
144.7107970241719
 20
232.7447220449534
 30
0.0
 11
144.460797024172
 21
232.7447220449534
 31
0.0
  0
LINE
  5
17D9
330
16CC
100
AcDbEntity
  8
0
100
AcDbLine
 10
144.7107970241719
 20
229.7047220449534
 30
0.0
 11
144.460797024172
 21
229.7047220449534
 31
0.0
  0
LINE
  5
17DA
330
16CC
100
AcDbEntity
  8
0
100
AcDbLine
 10
144.7107970241719
 20
230.2047220449538
 30
0.0
 11
144.460797024172
 21
230.2047220449535
 31
0.0
  0
LINE
  5
17DB
330
16CC
100
AcDbEntity
  8
0
100
AcDbLine
 10
144.7107970241719
 20
230.9747220449534
 30
0.0
 11
144.460797024172
 21
230.9747220449534
 31
0.0
  0
LINE
  5
17DC
330
16CC
100
AcDbEntity
  8
0
100
AcDbLine
 10
144.7107970241719
 20
231.4747220449536
 30
0.0
 11
144.460797024172
 21
231.4747220449536
 31
0.0
  0
LINE
  5
17DD
330
16CC
100
AcDbEntity
  8
0
100
AcDbLine
 10
144.7107970241719
 20
232.2447220449534
 30
0.0
 11
144.460797024172
 21
232.2447220449534
 31
0.0
  0
LINE
  5
17DE
330
16CC
100
AcDbEntity
  8
0
100
AcDbLine
 10
141.325889024172
 20
218.7287430449538
 30
0.0
 11
140.917847024172
 21
218.7287430449538
 31
0.0
  0
LINE
  5
17DF
330
16CC
100
AcDbEntity
  8
0
100
AcDbLine
 10
139.2530240241718
 20
218.7287430449538
 30
0.0
 11
138.844979024172
 21
218.7287430449538
 31
0.0
  0
LINE
  5
17E0
330
16CC
100
AcDbEntity
  8
0
100
AcDbLine
 10
138.844979024172
 20
219.5907010449539
 30
0.0
 11
139.2530240241718
 21
219.5907010449539
 31
0.0
  0
LINE
  5
17E1
330
16CC
100
AcDbEntity
  8
0
100
AcDbLine
 10
140.917847024172
 20
219.5907010449539
 30
0.0
 11
141.325889024172
 21
219.5907010449539
 31
0.0
  0
LINE
  5
17E2
330
16CC
100
AcDbEntity
  8
0
100
AcDbLine
 10
141.325889024172
 20
219.9987430449538
 30
0.0
 11
140.917847024172
 21
219.9987430449538
 31
0.0
  0
LINE
  5
17E3
330
16CC
100
AcDbEntity
  8
0
100
AcDbLine
 10
139.2530240241718
 20
219.9987430449538
 30
0.0
 11
138.844979024172
 21
219.9987430449538
 31
0.0
  0
LINE
  5
17E4
330
16CC
100
AcDbEntity
  8
0
100
AcDbLine
 10
138.844979024172
 20
219.9987430449538
 30
0.0
 11
138.844979024172
 21
219.5907010449539
 31
0.0
  0
LINE
  5
17E5
330
16CC
100
AcDbEntity
  8
0
100
AcDbLine
 10
139.2530240241718
 20
219.5907010449539
 30
0.0
 11
139.2530240241718
 21
219.9987430449538
 31
0.0
  0
LINE
  5
17E6
330
16CC
100
AcDbEntity
  8
0
100
AcDbLine
 10
140.917847024172
 20
219.9987430449538
 30
0.0
 11
140.917847024172
 21
219.5907010449539
 31
0.0
  0
LINE
  5
17E7
330
16CC
100
AcDbEntity
  8
0
100
AcDbLine
 10
141.325889024172
 20
219.5907010449539
 30
0.0
 11
141.325889024172
 21
219.9987430449538
 31
0.0
  0
LINE
  5
17E8
330
16CC
100
AcDbEntity
  8
0
100
AcDbLine
 10
138.844979024172
 20
220.860701044954
 30
0.0
 11
139.2530240241718
 21
220.860701044954
 31
0.0
  0
LINE
  5
17E9
330
16CC
100
AcDbEntity
  8
0
100
AcDbLine
 10
140.917847024172
 20
220.860701044954
 30
0.0
 11
141.325889024172
 21
220.860701044954
 31
0.0
  0
LINE
  5
17EA
330
16CC
100
AcDbEntity
  8
0
100
AcDbLine
 10
141.325889024172
 20
221.2687430449536
 30
0.0
 11
140.917847024172
 21
221.2687430449536
 31
0.0
  0
LINE
  5
17EB
330
16CC
100
AcDbEntity
  8
0
100
AcDbLine
 10
139.2530240241718
 20
221.2687430449536
 30
0.0
 11
138.844979024172
 21
221.2687430449536
 31
0.0
  0
LINE
  5
17EC
330
16CC
100
AcDbEntity
  8
0
100
AcDbLine
 10
138.844979024172
 20
221.2687430449536
 30
0.0
 11
138.844979024172
 21
220.860701044954
 31
0.0
  0
LINE
  5
17ED
330
16CC
100
AcDbEntity
  8
0
100
AcDbLine
 10
139.2530240241718
 20
220.860701044954
 30
0.0
 11
139.2530240241718
 21
221.2687430449536
 31
0.0
  0
LINE
  5
17EE
330
16CC
100
AcDbEntity
  8
0
100
AcDbLine
 10
140.917847024172
 20
221.2687430449536
 30
0.0
 11
140.917847024172
 21
220.860701044954
 31
0.0
  0
LINE
  5
17EF
330
16CC
100
AcDbEntity
  8
0
100
AcDbLine
 10
141.325889024172
 20
220.860701044954
 30
0.0
 11
141.325889024172
 21
221.2687430449536
 31
0.0
  0
LINE
  5
17F0
330
16CC
100
AcDbEntity
  8
0
100
AcDbLine
 10
138.844979024172
 20
222.130701044954
 30
0.0
 11
139.2530240241718
 21
222.130701044954
 31
0.0
  0
LINE
  5
17F1
330
16CC
100
AcDbEntity
  8
0
100
AcDbLine
 10
140.917847024172
 20
222.130701044954
 30
0.0
 11
141.325889024172
 21
222.130701044954
 31
0.0
  0
LINE
  5
17F2
330
16CC
100
AcDbEntity
  8
0
100
AcDbLine
 10
141.325889024172
 20
222.5387430449538
 30
0.0
 11
140.917847024172
 21
222.5387430449538
 31
0.0
  0
LINE
  5
17F3
330
16CC
100
AcDbEntity
  8
0
100
AcDbLine
 10
139.2530240241718
 20
222.5387430449538
 30
0.0
 11
138.844979024172
 21
222.5387430449538
 31
0.0
  0
LINE
  5
17F4
330
16CC
100
AcDbEntity
  8
0
100
AcDbLine
 10
138.844979024172
 20
222.5387430449538
 30
0.0
 11
138.844979024172
 21
222.130701044954
 31
0.0
  0
LINE
  5
17F5
330
16CC
100
AcDbEntity
  8
0
100
AcDbLine
 10
139.2530240241718
 20
222.130701044954
 30
0.0
 11
139.2530240241718
 21
222.5387430449538
 31
0.0
  0
LINE
  5
17F6
330
16CC
100
AcDbEntity
  8
0
100
AcDbLine
 10
140.917847024172
 20
222.5387430449538
 30
0.0
 11
140.917847024172
 21
222.130701044954
 31
0.0
  0
LINE
  5
17F7
330
16CC
100
AcDbEntity
  8
0
100
AcDbLine
 10
141.325889024172
 20
222.130701044954
 30
0.0
 11
141.325889024172
 21
222.5387430449538
 31
0.0
  0
LINE
  5
17F8
330
16CC
100
AcDbEntity
  8
0
100
AcDbLine
 10
138.844979024172
 20
223.4007010449539
 30
0.0
 11
139.2530240241718
 21
223.4007010449539
 31
0.0
  0
LINE
  5
17F9
330
16CC
100
AcDbEntity
  8
0
100
AcDbLine
 10
140.917847024172
 20
223.4007010449539
 30
0.0
 11
141.325889024172
 21
223.4007010449539
 31
0.0
  0
LINE
  5
17FA
330
16CC
100
AcDbEntity
  8
0
100
AcDbLine
 10
141.325889024172
 20
223.8087430449537
 30
0.0
 11
140.917847024172
 21
223.8087430449537
 31
0.0
  0
LINE
  5
17FB
330
16CC
100
AcDbEntity
  8
0
100
AcDbLine
 10
139.2530240241718
 20
223.8087430449537
 30
0.0
 11
138.844979024172
 21
223.8087430449537
 31
0.0
  0
LINE
  5
17FC
330
16CC
100
AcDbEntity
  8
0
100
AcDbLine
 10
138.844979024172
 20
223.8087430449537
 30
0.0
 11
138.844979024172
 21
223.4007010449539
 31
0.0
  0
LINE
  5
17FD
330
16CC
100
AcDbEntity
  8
0
100
AcDbLine
 10
139.2530240241718
 20
223.4007010449539
 30
0.0
 11
139.2530240241718
 21
223.8087430449537
 31
0.0
  0
LINE
  5
17FE
330
16CC
100
AcDbEntity
  8
0
100
AcDbLine
 10
140.917847024172
 20
223.8087430449537
 30
0.0
 11
140.917847024172
 21
223.4007010449539
 31
0.0
  0
LINE
  5
17FF
330
16CC
100
AcDbEntity
  8
0
100
AcDbLine
 10
141.325889024172
 20
223.4007010449539
 30
0.0
 11
141.325889024172
 21
223.8087430449537
 31
0.0
  0
LINE
  5
1800
330
16CC
100
AcDbEntity
  8
0
100
AcDbLine
 10
138.844979024172
 20
224.6707010449537
 30
0.0
 11
139.2530240241718
 21
224.6707010449537
 31
0.0
  0
LINE
  5
1801
330
16CC
100
AcDbEntity
  8
0
100
AcDbLine
 10
140.917847024172
 20
224.6707010449537
 30
0.0
 11
141.325889024172
 21
224.6707010449537
 31
0.0
  0
LINE
  5
1802
330
16CC
100
AcDbEntity
  8
0
100
AcDbLine
 10
141.325889024172
 20
225.0787430449535
 30
0.0
 11
140.917847024172
 21
225.0787430449535
 31
0.0
  0
LINE
  5
1803
330
16CC
100
AcDbEntity
  8
0
100
AcDbLine
 10
139.2530240241718
 20
225.0787430449535
 30
0.0
 11
138.844979024172
 21
225.0787430449535
 31
0.0
  0
LINE
  5
1804
330
16CC
100
AcDbEntity
  8
0
100
AcDbLine
 10
138.844979024172
 20
225.0787430449535
 30
0.0
 11
138.844979024172
 21
224.6707010449537
 31
0.0
  0
LINE
  5
1805
330
16CC
100
AcDbEntity
  8
0
100
AcDbLine
 10
139.2530240241718
 20
224.6707010449537
 30
0.0
 11
139.2530240241718
 21
225.0787430449535
 31
0.0
  0
LINE
  5
1806
330
16CC
100
AcDbEntity
  8
0
100
AcDbLine
 10
140.917847024172
 20
225.0787430449535
 30
0.0
 11
140.917847024172
 21
224.6707010449537
 31
0.0
  0
LINE
  5
1807
330
16CC
100
AcDbEntity
  8
0
100
AcDbLine
 10
141.325889024172
 20
224.6707010449537
 30
0.0
 11
141.325889024172
 21
225.0787430449535
 31
0.0
  0
LINE
  5
1808
330
16CC
100
AcDbEntity
  8
0
100
AcDbLine
 10
138.844979024172
 20
225.9407010449539
 30
0.0
 11
139.2530240241718
 21
225.9407010449539
 31
0.0
  0
LINE
  5
1809
330
16CC
100
AcDbEntity
  8
0
100
AcDbLine
 10
140.917847024172
 20
225.9407010449539
 30
0.0
 11
141.325889024172
 21
225.9407010449539
 31
0.0
  0
LINE
  5
180A
330
16CC
100
AcDbEntity
  8
0
100
AcDbLine
 10
141.325889024172
 20
226.3487430449536
 30
0.0
 11
140.917847024172
 21
226.3487430449536
 31
0.0
  0
LINE
  5
180B
330
16CC
100
AcDbEntity
  8
0
100
AcDbLine
 10
139.2530240241718
 20
226.3487430449536
 30
0.0
 11
138.844979024172
 21
226.3487430449536
 31
0.0
  0
LINE
  5
180C
330
16CC
100
AcDbEntity
  8
0
100
AcDbLine
 10
138.844979024172
 20
226.3487430449536
 30
0.0
 11
138.844979024172
 21
225.9407010449539
 31
0.0
  0
LINE
  5
180D
330
16CC
100
AcDbEntity
  8
0
100
AcDbLine
 10
139.2530240241718
 20
225.9407010449539
 30
0.0
 11
139.2530240241718
 21
226.3487430449536
 31
0.0
  0
LINE
  5
180E
330
16CC
100
AcDbEntity
  8
0
100
AcDbLine
 10
140.917847024172
 20
226.3487430449536
 30
0.0
 11
140.917847024172
 21
225.9407010449539
 31
0.0
  0
LINE
  5
180F
330
16CC
100
AcDbEntity
  8
0
100
AcDbLine
 10
141.325889024172
 20
225.9407010449539
 30
0.0
 11
141.325889024172
 21
226.3487430449536
 31
0.0
  0
LINE
  5
1810
330
16CC
100
AcDbEntity
  8
0
100
AcDbLine
 10
138.844979024172
 20
227.2107010449539
 30
0.0
 11
139.2530240241718
 21
227.2107010449539
 31
0.0
  0
LINE
  5
1811
330
16CC
100
AcDbEntity
  8
0
100
AcDbLine
 10
140.917847024172
 20
227.2107010449539
 30
0.0
 11
141.325889024172
 21
227.2107010449539
 31
0.0
  0
LINE
  5
1812
330
16CC
100
AcDbEntity
  8
0
100
AcDbLine
 10
141.325889024172
 20
227.6187430449537
 30
0.0
 11
140.917847024172
 21
227.6187430449537
 31
0.0
  0
LINE
  5
1813
330
16CC
100
AcDbEntity
  8
0
100
AcDbLine
 10
139.2530240241718
 20
227.6187430449537
 30
0.0
 11
138.844979024172
 21
227.6187430449537
 31
0.0
  0
LINE
  5
1814
330
16CC
100
AcDbEntity
  8
0
100
AcDbLine
 10
138.844979024172
 20
227.6187430449537
 30
0.0
 11
138.844979024172
 21
227.2107010449539
 31
0.0
  0
LINE
  5
1815
330
16CC
100
AcDbEntity
  8
0
100
AcDbLine
 10
139.2530240241718
 20
227.2107010449539
 30
0.0
 11
139.2530240241718
 21
227.6187430449537
 31
0.0
  0
LINE
  5
1816
330
16CC
100
AcDbEntity
  8
0
100
AcDbLine
 10
140.917847024172
 20
227.6187430449537
 30
0.0
 11
140.917847024172
 21
227.2107010449539
 31
0.0
  0
LINE
  5
1817
330
16CC
100
AcDbEntity
  8
0
100
AcDbLine
 10
141.325889024172
 20
227.2107010449539
 30
0.0
 11
141.325889024172
 21
227.6187430449537
 31
0.0
  0
LINE
  5
1818
330
16CC
100
AcDbEntity
  8
0
100
AcDbLine
 10
138.844979024172
 20
228.4807010449537
 30
0.0
 11
139.2530240241718
 21
228.4807010449537
 31
0.0
  0
LINE
  5
1819
330
16CC
100
AcDbEntity
  8
0
100
AcDbLine
 10
140.917847024172
 20
228.4807010449537
 30
0.0
 11
141.325889024172
 21
228.4807010449537
 31
0.0
  0
LINE
  5
181A
330
16CC
100
AcDbEntity
  8
0
100
AcDbLine
 10
141.325889024172
 20
228.8887430449535
 30
0.0
 11
140.917847024172
 21
228.8887430449535
 31
0.0
  0
LINE
  5
181B
330
16CC
100
AcDbEntity
  8
0
100
AcDbLine
 10
139.2530240241718
 20
228.8887430449535
 30
0.0
 11
138.844979024172
 21
228.8887430449535
 31
0.0
  0
LINE
  5
181C
330
16CC
100
AcDbEntity
  8
0
100
AcDbLine
 10
138.844979024172
 20
228.8887430449535
 30
0.0
 11
138.844979024172
 21
228.4807010449537
 31
0.0
  0
LINE
  5
181D
330
16CC
100
AcDbEntity
  8
0
100
AcDbLine
 10
139.2530240241718
 20
228.4807010449537
 30
0.0
 11
139.2530240241718
 21
228.8887430449535
 31
0.0
  0
LINE
  5
181E
330
16CC
100
AcDbEntity
  8
0
100
AcDbLine
 10
140.917847024172
 20
228.8887430449535
 30
0.0
 11
140.917847024172
 21
228.4807010449537
 31
0.0
  0
LINE
  5
181F
330
16CC
100
AcDbEntity
  8
0
100
AcDbLine
 10
141.325889024172
 20
228.4807010449537
 30
0.0
 11
141.325889024172
 21
228.8887430449535
 31
0.0
  0
LINE
  5
1820
330
16CC
100
AcDbEntity
  8
0
100
AcDbLine
 10
138.844979024172
 20
229.7507010449537
 30
0.0
 11
139.2530240241718
 21
229.7507010449537
 31
0.0
  0
LINE
  5
1821
330
16CC
100
AcDbEntity
  8
0
100
AcDbLine
 10
140.917847024172
 20
229.7507010449537
 30
0.0
 11
141.325889024172
 21
229.7507010449537
 31
0.0
  0
LINE
  5
1822
330
16CC
100
AcDbEntity
  8
0
100
AcDbLine
 10
141.325889024172
 20
230.1587430449536
 30
0.0
 11
140.917847024172
 21
230.1587430449536
 31
0.0
  0
LINE
  5
1823
330
16CC
100
AcDbEntity
  8
0
100
AcDbLine
 10
139.2530240241718
 20
230.1587430449536
 30
0.0
 11
138.844979024172
 21
230.1587430449536
 31
0.0
  0
LINE
  5
1824
330
16CC
100
AcDbEntity
  8
0
100
AcDbLine
 10
138.844979024172
 20
230.1587430449536
 30
0.0
 11
138.844979024172
 21
229.7507010449537
 31
0.0
  0
LINE
  5
1825
330
16CC
100
AcDbEntity
  8
0
100
AcDbLine
 10
139.2530240241718
 20
229.7507010449537
 30
0.0
 11
139.2530240241718
 21
230.1587430449536
 31
0.0
  0
LINE
  5
1826
330
16CC
100
AcDbEntity
  8
0
100
AcDbLine
 10
140.917847024172
 20
230.1587430449536
 30
0.0
 11
140.917847024172
 21
229.7507010449537
 31
0.0
  0
LINE
  5
1827
330
16CC
100
AcDbEntity
  8
0
100
AcDbLine
 10
141.325889024172
 20
229.7507010449537
 30
0.0
 11
141.325889024172
 21
230.1587430449536
 31
0.0
  0
LINE
  5
1828
330
16CC
100
AcDbEntity
  8
0
100
AcDbLine
 10
138.844979024172
 20
231.0207010449536
 30
0.0
 11
139.2530240241718
 21
231.0207010449536
 31
0.0
  0
LINE
  5
1829
330
16CC
100
AcDbEntity
  8
0
100
AcDbLine
 10
140.917847024172
 20
231.0207010449536
 30
0.0
 11
141.325889024172
 21
231.0207010449536
 31
0.0
  0
LINE
  5
182A
330
16CC
100
AcDbEntity
  8
0
100
AcDbLine
 10
141.325889024172
 20
231.4287430449535
 30
0.0
 11
140.917847024172
 21
231.4287430449535
 31
0.0
  0
LINE
  5
182B
330
16CC
100
AcDbEntity
  8
0
100
AcDbLine
 10
139.2530240241718
 20
231.4287430449535
 30
0.0
 11
138.844979024172
 21
231.4287430449535
 31
0.0
  0
LINE
  5
182C
330
16CC
100
AcDbEntity
  8
0
100
AcDbLine
 10
138.844979024172
 20
231.4287430449535
 30
0.0
 11
138.844979024172
 21
231.0207010449536
 31
0.0
  0
LINE
  5
182D
330
16CC
100
AcDbEntity
  8
0
100
AcDbLine
 10
139.2530240241718
 20
231.0207010449536
 30
0.0
 11
139.2530240241718
 21
231.4287430449535
 31
0.0
  0
LINE
  5
182E
330
16CC
100
AcDbEntity
  8
0
100
AcDbLine
 10
140.917847024172
 20
231.4287430449535
 30
0.0
 11
140.917847024172
 21
231.0207010449536
 31
0.0
  0
LINE
  5
182F
330
16CC
100
AcDbEntity
  8
0
100
AcDbLine
 10
141.325889024172
 20
231.0207010449536
 30
0.0
 11
141.325889024172
 21
231.4287430449535
 31
0.0
  0
LINE
  5
1830
330
16CC
100
AcDbEntity
  8
0
100
AcDbLine
 10
138.844979024172
 20
232.2907010449537
 30
0.0
 11
139.2530240241718
 21
232.2907010449537
 31
0.0
  0
LINE
  5
1831
330
16CC
100
AcDbEntity
  8
0
100
AcDbLine
 10
140.917847024172
 20
232.2907010449537
 30
0.0
 11
141.325889024172
 21
232.2907010449537
 31
0.0
  0
LINE
  5
1832
330
16CC
100
AcDbEntity
  8
0
100
AcDbLine
 10
141.325889024172
 20
232.6987430449539
 30
0.0
 11
140.917847024172
 21
232.6987430449539
 31
0.0
  0
LINE
  5
1833
330
16CC
100
AcDbEntity
  8
0
100
AcDbLine
 10
139.2530240241718
 20
232.6987430449539
 30
0.0
 11
138.844979024172
 21
232.6987430449539
 31
0.0
  0
LINE
  5
1834
330
16CC
100
AcDbEntity
  8
0
100
AcDbLine
 10
138.844979024172
 20
232.6987430449539
 30
0.0
 11
138.844979024172
 21
232.2907010449537
 31
0.0
  0
LINE
  5
1835
330
16CC
100
AcDbEntity
  8
0
100
AcDbLine
 10
139.2530240241718
 20
232.2907010449537
 30
0.0
 11
139.2530240241718
 21
232.6987430449539
 31
0.0
  0
LINE
  5
1836
330
16CC
100
AcDbEntity
  8
0
100
AcDbLine
 10
140.917847024172
 20
232.6987430449539
 30
0.0
 11
140.917847024172
 21
232.2907010449537
 31
0.0
  0
LINE
  5
1837
330
16CC
100
AcDbEntity
  8
0
100
AcDbLine
 10
141.325889024172
 20
232.2907010449537
 30
0.0
 11
141.325889024172
 21
232.6987430449539
 31
0.0
  0
LINE
  5
1838
330
16CC
100
AcDbEntity
  8
0
100
AcDbLine
 10
138.844979024172
 20
233.5607010449539
 30
0.0
 11
139.2530240241718
 21
233.5607010449539
 31
0.0
  0
LINE
  5
1839
330
16CC
100
AcDbEntity
  8
0
100
AcDbLine
 10
140.917847024172
 20
233.5607010449539
 30
0.0
 11
141.325889024172
 21
233.5607010449539
 31
0.0
  0
LINE
  5
183A
330
16CC
100
AcDbEntity
  8
0
100
AcDbLine
 10
141.325889024172
 20
233.9687430449538
 30
0.0
 11
140.917847024172
 21
233.9687430449538
 31
0.0
  0
LINE
  5
183B
330
16CC
100
AcDbEntity
  8
0
100
AcDbLine
 10
139.2530240241718
 20
233.9687430449538
 30
0.0
 11
138.844979024172
 21
233.9687430449538
 31
0.0
  0
LINE
  5
183C
330
16CC
100
AcDbEntity
  8
0
100
AcDbLine
 10
138.844979024172
 20
233.9687430449538
 30
0.0
 11
138.844979024172
 21
233.5607010449539
 31
0.0
  0
LINE
  5
183D
330
16CC
100
AcDbEntity
  8
0
100
AcDbLine
 10
139.2530240241718
 20
233.5607010449539
 30
0.0
 11
139.2530240241718
 21
233.9687430449538
 31
0.0
  0
LINE
  5
183E
330
16CC
100
AcDbEntity
  8
0
100
AcDbLine
 10
140.917847024172
 20
233.9687430449538
 30
0.0
 11
140.917847024172
 21
233.5607010449539
 31
0.0
  0
LINE
  5
183F
330
16CC
100
AcDbEntity
  8
0
100
AcDbLine
 10
141.325889024172
 20
233.5607010449539
 30
0.0
 11
141.325889024172
 21
233.9687430449538
 31
0.0
  0
LINE
  5
1840
330
16CC
100
AcDbEntity
  8
0
100
AcDbLine
 10
138.844979024172
 20
234.830701044954
 30
0.0
 11
139.2530240241718
 21
234.830701044954
 31
0.0
  0
LINE
  5
1841
330
16CC
100
AcDbEntity
  8
0
100
AcDbLine
 10
140.917847024172
 20
234.830701044954
 30
0.0
 11
141.325889024172
 21
234.830701044954
 31
0.0
  0
LINE
  5
1842
330
16CC
100
AcDbEntity
  8
0
100
AcDbLine
 10
141.325889024172
 20
235.2387430449536
 30
0.0
 11
140.917847024172
 21
235.2387430449536
 31
0.0
  0
LINE
  5
1843
330
16CC
100
AcDbEntity
  8
0
100
AcDbLine
 10
139.2530240241718
 20
235.2387430449536
 30
0.0
 11
138.844979024172
 21
235.2387430449536
 31
0.0
  0
LINE
  5
1844
330
16CC
100
AcDbEntity
  8
0
100
AcDbLine
 10
138.844979024172
 20
235.2387430449536
 30
0.0
 11
138.844979024172
 21
234.830701044954
 31
0.0
  0
LINE
  5
1845
330
16CC
100
AcDbEntity
  8
0
100
AcDbLine
 10
139.2530240241718
 20
234.830701044954
 30
0.0
 11
139.2530240241718
 21
235.2387430449536
 31
0.0
  0
LINE
  5
1846
330
16CC
100
AcDbEntity
  8
0
100
AcDbLine
 10
140.917847024172
 20
235.2387430449536
 30
0.0
 11
140.917847024172
 21
234.830701044954
 31
0.0
  0
LINE
  5
1847
330
16CC
100
AcDbEntity
  8
0
100
AcDbLine
 10
141.325889024172
 20
234.830701044954
 30
0.0
 11
141.325889024172
 21
235.2387430449536
 31
0.0
  0
LINE
  5
1848
330
16CC
100
AcDbEntity
  8
0
100
AcDbLine
 10
144.460797024172
 20
227.4947220449535
 30
0.0
 11
144.460797024172
 21
246.0647220449533
 31
0.0
  0
LINE
  5
1849
330
16CC
100
AcDbEntity
  8
0
100
AcDbLine
 10
144.460797024172
 20
246.0647220449533
 30
0.0
 11
144.460797024172
 21
219.7947220449534
 31
0.0
  0
LINE
  5
184A
330
16CC
100
AcDbEntity
  8
0
100
AcDbLine
 10
136.6170570241719
 20
240.2532360449537
 30
0.0
 11
136.617057024172
 21
245.3167380449535
 31
0.0
  0
ARC
  5
184B
330
16CC
100
AcDbEntity
  8
0
100
AcDbCircle
 10
127.910797024172
 20
251.4097230449535
 30
0.0
 40
1.0
100
AcDbArc
 50
89.99999999999998
 51
180.0
  0
ARC
  5
184C
330
16CC
100
AcDbEntity
  8
0
100
AcDbCircle
 10
127.8107970241719
 20
251.5058540449534
 30
0.0
 40
1.0
100
AcDbArc
 50
89.99999999999998
 51
180.0
  0
LINE
  5
184D
330
16CC
100
AcDbEntity
  8
0
100
AcDbLine
 10
123.810588024172
 20
251.4815770449537
 30
0.0
 11
122.8256780241721
 21
251.4815770449537
 31
0.0
  0
LINE
  5
184E
330
16CC
100
AcDbEntity
  8
0
100
AcDbLine
 10
123.7410860241719
 20
250.1308190449539
 30
0.0
 11
124.7415150241721
 21
250.1308190449539
 31
0.0
  0
LINE
  5
184F
330
16CC
100
AcDbEntity
  8
0
100
AcDbLine
 10
123.7410860241719
 20
250.1308190449539
 30
0.0
 11
124.7415150241721
 21
250.1308190449539
 31
0.0
  0
ARC
  5
1850
330
16CC
100
AcDbEntity
  8
0
100
AcDbCircle
 10
123.7410860241719
 20
249.1308190449539
 30
0.0
 40
1.0
100
AcDbArc
 50
89.99999999999998
 51
180.0
  0
ARC
  5
1851
330
16CC
100
AcDbEntity
  8
0
100
AcDbCircle
 10
123.7410860241719
 20
249.1308190449539
 30
0.0
 40
1.0
100
AcDbArc
 50
89.99999999999998
 51
180.0
  0
LINE
  5
1852
330
16CC
100
AcDbEntity
  8
0
100
AcDbLine
 10
123.810588024172
 20
251.4815770449537
 30
0.0
 11
124.7415150241721
 21
250.1308190449539
 31
0.0
  0
LINE
  5
1853
330
16CC
100
AcDbEntity
  8
0
100
AcDbLine
 10
123.810588024172
 20
251.4815770449537
 30
0.0
 11
124.7415150241721
 21
250.1308190449539
 31
0.0
  0
LINE
  5
1854
330
16CC
100
AcDbEntity
  8
0
100
AcDbLine
 10
126.810797024172
 20
251.5058540449535
 30
0.0
 11
126.810797024172
 21
237.5647230449537
 31
0.0
  0
LINE
  5
1855
330
16CC
100
AcDbEntity
  8
0
100
AcDbLine
 10
137.025102024172
 20
222.5667395449534
 30
0.0
 11
136.6170570241719
 21
222.5667395449534
 31
0.0
  0
LINE
  5
1856
330
16CC
100
AcDbEntity
  8
0
100
AcDbLine
 10
137.025102024172
 20
225.9127045449536
 30
0.0
 11
136.6170570241719
 21
225.9127045449536
 31
0.0
  0
LINE
  5
1857
330
16CC
100
AcDbEntity
  8
0
100
AcDbLine
 10
135.960797024172
 20
219.7947220449534
 30
0.0
 11
135.960797024172
 21
246.0647220449533
 31
0.0
  0
LINE
  5
1858
330
16CC
100
AcDbEntity
  8
0
100
AcDbLine
 10
137.025102024172
 20
237.8865770449535
 30
0.0
 11
137.025102024172
 21
225.9127045449536
 31
0.0
  0
LINE
  5
1859
330
16CC
100
AcDbEntity
  8
0
100
AcDbLine
 10
127.8107970241719
 20
252.5058540449534
 30
0.0
 11
150.8107970241719
 21
252.5058540449534
 31
0.0
  0
LINE
  5
185A
330
16CC
100
AcDbEntity
  8
0
100
AcDbLine
 10
127.910797024172
 20
252.4097230449537
 30
0.0
 11
150.710797024172
 21
252.4097230449537
 31
0.0
  0
LINE
  5
185B
330
16CC
100
AcDbEntity
  8
0
100
AcDbLine
 10
135.960797024172
 20
246.0647220449533
 30
0.0
 11
144.460797024172
 21
246.0647220449533
 31
0.0
  0
LINE
  5
185C
330
16CC
100
AcDbEntity
  8
0
100
AcDbLine
 10
144.7107970241719
 20
246.0647220449533
 30
0.0
 11
135.960797024172
 21
246.0647220449533
 31
0.0
  0
LINE
  5
185D
330
16CC
100
AcDbEntity
  8
0
100
AcDbLine
 10
136.617057024172
 20
245.3167380449535
 30
0.0
 11
143.757837024172
 21
245.3167380449535
 31
0.0
  0
LINE
  5
185E
330
16CC
100
AcDbEntity
  8
0
100
AcDbLine
 10
143.757837024172
 20
237.8865770449535
 30
0.0
 11
136.6170570241719
 21
237.8865770449535
 31
0.0
  0
LINE
  5
185F
330
16CC
100
AcDbEntity
  8
0
100
AcDbLine
 10
143.757837024172
 20
240.2532360449537
 30
0.0
 11
136.6170570241719
 21
240.2532360449537
 31
0.0
  0
LINE
  5
1860
330
16CC
100
AcDbEntity
  8
0
100
AcDbLine
 10
138.4532560241719
 20
242.8647220449537
 30
0.0
 11
136.617057024172
 21
242.8647220449537
 31
0.0
  0
LINE
  5
1861
330
16CC
100
AcDbEntity
  8
0
100
AcDbLine
 10
145.2107970241719
 20
247.0097230449534
 30
0.0
 11
135.410797024172
 21
247.0097230449534
 31
0.0
  0
LINE
  5
1862
330
16CC
100
AcDbEntity
  8
0
100
AcDbLine
 10
144.7107970241719
 20
211.9247220449535
 30
0.0
 11
144.460797024172
 21
211.9247220449535
 31
0.0
  0
LINE
  5
1863
330
16CC
100
AcDbEntity
  8
0
100
AcDbLine
 10
144.7107970241719
 20
212.4247220449535
 30
0.0
 11
144.460797024172
 21
212.4247220449535
 31
0.0
  0
LINE
  5
1864
330
16CC
100
AcDbEntity
  8
0
100
AcDbLine
 10
144.7107970241719
 20
213.1947220449537
 30
0.0
 11
144.460797024172
 21
213.1947220449537
 31
0.0
  0
LINE
  5
1865
330
16CC
100
AcDbEntity
  8
0
100
AcDbLine
 10
144.7107970241719
 20
213.6947220449534
 30
0.0
 11
144.460797024172
 21
213.6947220449534
 31
0.0
  0
LINE
  5
1866
330
16CC
100
AcDbEntity
  8
0
100
AcDbLine
 10
144.7107970241719
 20
214.4647220449535
 30
0.0
 11
144.460797024172
 21
214.4647220449535
 31
0.0
  0
LINE
  5
1867
330
16CC
100
AcDbEntity
  8
0
100
AcDbLine
 10
144.7107970241719
 20
214.9647220449534
 30
0.0
 11
144.460797024172
 21
214.9647220449534
 31
0.0
  0
LINE
  5
1868
330
16CC
100
AcDbEntity
  8
0
100
AcDbLine
 10
144.7107970241719
 20
215.7347220449534
 30
0.0
 11
144.460797024172
 21
215.7347220449534
 31
0.0
  0
LINE
  5
1869
330
16CC
100
AcDbEntity
  8
0
100
AcDbLine
 10
144.7107970241719
 20
216.2347220449535
 30
0.0
 11
144.460797024172
 21
216.2347220449535
 31
0.0
  0
LINE
  5
186A
330
16CC
100
AcDbEntity
  8
0
100
AcDbLine
 10
144.7107970241719
 20
217.0047220449534
 30
0.0
 11
144.460797024172
 21
217.0047220449534
 31
0.0
  0
LINE
  5
186B
330
16CC
100
AcDbEntity
  8
0
100
AcDbLine
 10
144.7107970241719
 20
217.5047220449534
 30
0.0
 11
144.460797024172
 21
217.5047220449534
 31
0.0
  0
LINE
  5
186C
330
16CC
100
AcDbEntity
  8
0
100
AcDbLine
 10
144.7107970241719
 20
218.2747220449535
 30
0.0
 11
144.460797024172
 21
218.2747220449535
 31
0.0
  0
LINE
  5
186D
330
16CC
100
AcDbEntity
  8
0
100
AcDbLine
 10
138.844979024172
 20
216.1887430449535
 30
0.0
 11
138.844979024172
 21
215.7807010449537
 31
0.0
  0
LINE
  5
186E
330
16CC
100
AcDbEntity
  8
0
100
AcDbLine
 10
139.2530240241718
 20
215.7807010449537
 30
0.0
 11
139.2530240241718
 21
216.1887430449535
 31
0.0
  0
LINE
  5
186F
330
16CC
100
AcDbEntity
  8
0
100
AcDbLine
 10
140.917847024172
 20
216.1887430449535
 30
0.0
 11
140.917847024172
 21
215.7807010449537
 31
0.0
  0
LINE
  5
1870
330
16CC
100
AcDbEntity
  8
0
100
AcDbLine
 10
141.325889024172
 20
215.7807010449537
 30
0.0
 11
141.325889024172
 21
216.1887430449535
 31
0.0
  0
LINE
  5
1871
330
16CC
100
AcDbEntity
  8
0
100
AcDbLine
 10
138.844979024172
 20
211.9707010449539
 30
0.0
 11
139.2530240241718
 21
211.9707010449539
 31
0.0
  0
LINE
  5
1872
330
16CC
100
AcDbEntity
  8
0
100
AcDbLine
 10
140.917847024172
 20
211.9707010449539
 30
0.0
 11
141.325889024172
 21
211.9707010449539
 31
0.0
  0
LINE
  5
1873
330
16CC
100
AcDbEntity
  8
0
100
AcDbLine
 10
141.325889024172
 20
212.3787430449535
 30
0.0
 11
140.917847024172
 21
212.3787430449535
 31
0.0
  0
LINE
  5
1874
330
16CC
100
AcDbEntity
  8
0
100
AcDbLine
 10
139.2530240241718
 20
212.3787430449535
 30
0.0
 11
138.844979024172
 21
212.3787430449535
 31
0.0
  0
LINE
  5
1875
330
16CC
100
AcDbEntity
  8
0
100
AcDbLine
 10
138.844979024172
 20
212.3787430449535
 30
0.0
 11
138.844979024172
 21
211.9707010449539
 31
0.0
  0
LINE
  5
1876
330
16CC
100
AcDbEntity
  8
0
100
AcDbLine
 10
139.2530240241718
 20
211.9707010449539
 30
0.0
 11
139.2530240241718
 21
212.3787430449535
 31
0.0
  0
LINE
  5
1877
330
16CC
100
AcDbEntity
  8
0
100
AcDbLine
 10
140.917847024172
 20
212.3787430449535
 30
0.0
 11
140.917847024172
 21
211.9707010449539
 31
0.0
  0
LINE
  5
1878
330
16CC
100
AcDbEntity
  8
0
100
AcDbLine
 10
141.325889024172
 20
211.9707010449539
 30
0.0
 11
141.325889024172
 21
212.3787430449535
 31
0.0
  0
LINE
  5
1879
330
16CC
100
AcDbEntity
  8
0
100
AcDbLine
 10
138.844979024172
 20
213.2407010449539
 30
0.0
 11
139.2530240241718
 21
213.2407010449539
 31
0.0
  0
LINE
  5
187A
330
16CC
100
AcDbEntity
  8
0
100
AcDbLine
 10
140.917847024172
 20
213.2407010449539
 30
0.0
 11
141.325889024172
 21
213.2407010449539
 31
0.0
  0
LINE
  5
187B
330
16CC
100
AcDbEntity
  8
0
100
AcDbLine
 10
141.325889024172
 20
213.6487430449535
 30
0.0
 11
140.917847024172
 21
213.6487430449535
 31
0.0
  0
LINE
  5
187C
330
16CC
100
AcDbEntity
  8
0
100
AcDbLine
 10
139.2530240241718
 20
213.6487430449535
 30
0.0
 11
138.844979024172
 21
213.6487430449535
 31
0.0
  0
LINE
  5
187D
330
16CC
100
AcDbEntity
  8
0
100
AcDbLine
 10
138.844979024172
 20
213.6487430449535
 30
0.0
 11
138.844979024172
 21
213.2407010449539
 31
0.0
  0
LINE
  5
187E
330
16CC
100
AcDbEntity
  8
0
100
AcDbLine
 10
139.2530240241718
 20
213.2407010449539
 30
0.0
 11
139.2530240241718
 21
213.6487430449535
 31
0.0
  0
LINE
  5
187F
330
16CC
100
AcDbEntity
  8
0
100
AcDbLine
 10
140.917847024172
 20
213.6487430449535
 30
0.0
 11
140.917847024172
 21
213.2407010449539
 31
0.0
  0
LINE
  5
1880
330
16CC
100
AcDbEntity
  8
0
100
AcDbLine
 10
141.325889024172
 20
213.2407010449539
 30
0.0
 11
141.325889024172
 21
213.6487430449535
 31
0.0
  0
LINE
  5
1881
330
16CC
100
AcDbEntity
  8
0
100
AcDbLine
 10
138.844979024172
 20
214.5107010449537
 30
0.0
 11
139.2530240241718
 21
214.5107010449537
 31
0.0
  0
LINE
  5
1882
330
16CC
100
AcDbEntity
  8
0
100
AcDbLine
 10
140.917847024172
 20
214.5107010449537
 30
0.0
 11
141.325889024172
 21
214.5107010449537
 31
0.0
  0
LINE
  5
1883
330
16CC
100
AcDbEntity
  8
0
100
AcDbLine
 10
141.325889024172
 20
214.9187430449535
 30
0.0
 11
140.917847024172
 21
214.9187430449535
 31
0.0
  0
LINE
  5
1884
330
16CC
100
AcDbEntity
  8
0
100
AcDbLine
 10
139.2530240241718
 20
214.9187430449535
 30
0.0
 11
138.844979024172
 21
214.9187430449535
 31
0.0
  0
LINE
  5
1885
330
16CC
100
AcDbEntity
  8
0
100
AcDbLine
 10
138.844979024172
 20
214.9187430449535
 30
0.0
 11
138.844979024172
 21
214.5107010449537
 31
0.0
  0
LINE
  5
1886
330
16CC
100
AcDbEntity
  8
0
100
AcDbLine
 10
139.2530240241718
 20
214.5107010449537
 30
0.0
 11
139.2530240241718
 21
214.9187430449535
 31
0.0
  0
LINE
  5
1887
330
16CC
100
AcDbEntity
  8
0
100
AcDbLine
 10
140.917847024172
 20
214.9187430449535
 30
0.0
 11
140.917847024172
 21
214.5107010449537
 31
0.0
  0
LINE
  5
1888
330
16CC
100
AcDbEntity
  8
0
100
AcDbLine
 10
141.325889024172
 20
214.5107010449537
 30
0.0
 11
141.325889024172
 21
214.9187430449535
 31
0.0
  0
LINE
  5
1889
330
16CC
100
AcDbEntity
  8
0
100
AcDbLine
 10
138.844979024172
 20
215.7807010449537
 30
0.0
 11
139.2530240241718
 21
215.7807010449537
 31
0.0
  0
LINE
  5
188A
330
16CC
100
AcDbEntity
  8
0
100
AcDbLine
 10
140.917847024172
 20
215.7807010449537
 30
0.0
 11
141.325889024172
 21
215.7807010449537
 31
0.0
  0
LINE
  5
188B
330
16CC
100
AcDbEntity
  8
0
100
AcDbLine
 10
144.7107970241719
 20
208.5147220449534
 30
0.0
 11
144.7107970241719
 21
202.4147220449535
 31
0.0
  0
LINE
  5
188C
330
16CC
100
AcDbEntity
  8
0
100
AcDbLine
 10
144.7107970241719
 20
208.5147220449534
 30
0.0
 11
144.460797024172
 21
208.5147220449534
 31
0.0
  0
LINE
  5
188D
330
16CC
100
AcDbEntity
  8
0
100
AcDbLine
 10
141.7176120241719
 20
207.6853730449535
 30
0.0
 11
141.7176120241719
 21
205.6074680449539
 31
0.0
  0
LINE
  5
188E
330
16CC
100
AcDbEntity
  8
0
100
AcDbLine
 10
138.4532560241719
 20
207.6853730449535
 30
0.0
 11
138.4532560241719
 21
205.6074680449539
 31
0.0
  0
LINE
  5
188F
330
16CC
100
AcDbEntity
  8
0
100
AcDbLine
 10
141.7176120241719
 20
205.6766570449539
 30
0.0
 11
141.7176120241719
 21
203.1627060449535
 31
0.0
  0
LINE
  5
1890
330
16CC
100
AcDbEntity
  8
0
100
AcDbLine
 10
138.4532560241719
 20
205.6074680449539
 30
0.0
 11
138.4532560241719
 21
203.1627060449535
 31
0.0
  0
LINE
  5
1891
330
16CC
100
AcDbEntity
  8
0
100
AcDbLine
 10
143.757837024172
 20
205.6074680449539
 30
0.0
 11
143.757837024172
 21
203.1627060449535
 31
0.0
  0
LINE
  5
1892
330
16CC
100
AcDbEntity
  8
0
100
AcDbLine
 10
141.7176120241719
 20
205.6074680449539
 30
0.0
 11
143.757837024172
 21
205.6074680449539
 31
0.0
  0
LINE
  5
1893
330
16CC
100
AcDbEntity
  8
0
100
AcDbLine
 10
138.4532560241719
 20
206.6271040449535
 30
0.0
 11
141.7176120241719
 21
206.6271040449535
 31
0.0
  0
LINE
  5
1894
330
16CC
100
AcDbEntity
  8
0
100
AcDbLine
 10
138.4532560241719
 20
206.3146170449535
 30
0.0
 11
141.7176120241719
 21
206.3146170449535
 31
0.0
  0
LINE
  5
1895
330
16CC
100
AcDbEntity
  8
0
100
AcDbLine
 10
138.4532560241719
 20
206.0021290449535
 30
0.0
 11
141.7176120241719
 21
206.0021290449535
 31
0.0
  0
LINE
  5
1896
330
16CC
100
AcDbEntity
  8
0
100
AcDbLine
 10
138.4532560241719
 20
205.6766570449539
 30
0.0
 11
141.7176120241719
 21
205.6766570449539
 31
0.0
  0
LINE
  5
1897
330
16CC
100
AcDbEntity
  8
0
100
AcDbLine
 10
138.4532560241719
 20
206.9395910449538
 30
0.0
 11
141.7176120241719
 21
206.9395910449538
 31
0.0
  0
LINE
  5
1898
330
16CC
100
AcDbEntity
  8
0
100
AcDbLine
 10
138.4532560241719
 20
207.6853730449535
 30
0.0
 11
141.7176120241719
 21
207.6853730449535
 31
0.0
  0
LINE
  5
1899
330
16CC
100
AcDbEntity
  8
0
100
AcDbLine
 10
141.325889024172
 20
216.1887430449535
 30
0.0
 11
140.917847024172
 21
216.1887430449535
 31
0.0
  0
LINE
  5
189A
330
16CC
100
AcDbEntity
  8
0
100
AcDbLine
 10
139.2530240241718
 20
216.1887430449535
 30
0.0
 11
138.844979024172
 21
216.1887430449535
 31
0.0
  0
LINE
  5
189B
330
16CC
100
AcDbEntity
  8
0
100
AcDbLine
 10
138.844979024172
 20
217.050701044954
 30
0.0
 11
139.2530240241718
 21
217.050701044954
 31
0.0
  0
LINE
  5
189C
330
16CC
100
AcDbEntity
  8
0
100
AcDbLine
 10
140.917847024172
 20
217.050701044954
 30
0.0
 11
141.325889024172
 21
217.050701044954
 31
0.0
  0
LINE
  5
189D
330
16CC
100
AcDbEntity
  8
0
100
AcDbLine
 10
141.325889024172
 20
217.4587430449536
 30
0.0
 11
140.917847024172
 21
217.4587430449536
 31
0.0
  0
LINE
  5
189E
330
16CC
100
AcDbEntity
  8
0
100
AcDbLine
 10
139.2530240241718
 20
217.4587430449536
 30
0.0
 11
138.844979024172
 21
217.4587430449536
 31
0.0
  0
LINE
  5
189F
330
16CC
100
AcDbEntity
  8
0
100
AcDbLine
 10
138.844979024172
 20
217.4587430449536
 30
0.0
 11
138.844979024172
 21
217.050701044954
 31
0.0
  0
LINE
  5
18A0
330
16CC
100
AcDbEntity
  8
0
100
AcDbLine
 10
139.2530240241718
 20
217.050701044954
 30
0.0
 11
139.2530240241718
 21
217.4587430449536
 31
0.0
  0
LINE
  5
18A1
330
16CC
100
AcDbEntity
  8
0
100
AcDbLine
 10
140.917847024172
 20
217.4587430449536
 30
0.0
 11
140.917847024172
 21
217.050701044954
 31
0.0
  0
LINE
  5
18A2
330
16CC
100
AcDbEntity
  8
0
100
AcDbLine
 10
141.325889024172
 20
217.050701044954
 30
0.0
 11
141.325889024172
 21
217.4587430449536
 31
0.0
  0
LINE
  5
18A3
330
16CC
100
AcDbEntity
  8
0
100
AcDbLine
 10
138.844979024172
 20
218.320701044954
 30
0.0
 11
139.2530240241718
 21
218.320701044954
 31
0.0
  0
LINE
  5
18A4
330
16CC
100
AcDbEntity
  8
0
100
AcDbLine
 10
140.917847024172
 20
218.320701044954
 30
0.0
 11
141.325889024172
 21
218.320701044954
 31
0.0
  0
LINE
  5
18A5
330
16CC
100
AcDbEntity
  8
0
100
AcDbLine
 10
142.562403024172
 20
195.9447600449539
 30
0.0
 11
142.562403024172
 21
195.6226590449536
 31
0.0
  0
LINE
  5
18A6
330
16CC
100
AcDbEntity
  8
0
100
AcDbLine
 10
138.8533600241719
 20
195.7837100449538
 30
0.0
 11
139.7288680241719
 21
196.3639000449536
 31
0.0
  0
LINE
  5
18A7
330
16CC
100
AcDbEntity
  8
0
100
AcDbLine
 10
139.7288680241719
 20
196.3639000449536
 30
0.0
 11
139.7288680241719
 21
195.9447600449539
 31
0.0
  0
LINE
  5
18A8
330
16CC
100
AcDbEntity
  8
0
100
AcDbLine
 10
139.7288680241719
 20
195.9447600449539
 30
0.0
 11
142.562403024172
 21
195.9447600449539
 31
0.0
  0
CIRCLE
  5
18A9
330
16CC
100
AcDbEntity
  8
0
100
AcDbCircle
 10
140.7607970241721
 20
195.7837100449538
 30
0.0
 40
1.907437032355004
  0
LINE
  5
18AB
330
16CC
100
AcDbEntity
  8
0
100
AcDbLine
 10
139.7288684843264
 20
195.944760521113
 30
0.0
 11
142.562402932361
 21
195.944760521113
 31
0.0
  0
LINE
  5
18AC
330
16CC
100
AcDbEntity
  8
0
100
AcDbLine
 10
138.8533599918178
 20
195.7837100449538
 30
0.0
 11
139.7288684843264
 21
196.3639000771797
 31
0.0
  0
LINE
  5
18AD
330
16CC
100
AcDbEntity
  8
0
100
AcDbLine
 10
139.7288684843264
 20
196.3639000771797
 30
0.0
 11
139.7288684843264
 21
195.944760521113
 31
0.0
  0
LINE
  5
18AE
330
16CC
100
AcDbEntity
  8
0
100
AcDbLine
 10
142.562402932361
 20
195.944760521113
 30
0.0
 11
142.562402932361
 21
195.6226595687908
 31
0.0
  0
LINE
  5
18B5
330
16CC
100
AcDbEntity
  8
0
100
AcDbLine
 10
144.460797024172
 20
195.7837100449538
 30
0.0
 11
144.460797024172
 21
191.4837100449537
 31
0.0
  0
LINE
  5
18B6
330
16CC
100
AcDbEntity
  8
0
100
AcDbLine
 10
139.7288684843264
 20
195.6226595687908
 30
0.0
 11
142.562402932361
 21
195.6226595687908
 31
0.0
  0
LINE
  5
18B8
330
16CC
100
AcDbEntity
  8
0
100
AcDbLine
 10
139.7288684843264
 20
195.6226595687908
 30
0.0
 11
139.7288684843264
 21
195.203520012728
 31
0.0
  0
LINE
  5
18B9
330
16CC
100
AcDbEntity
  8
0
100
AcDbLine
 10
138.8533599918178
 20
195.7837100449538
 30
0.0
 11
139.7288684843264
 21
195.203520012728
 31
0.0
  0
LINE
  5
18BF
330
16CC
100
AcDbEntity
  8
0
100
AcDbLine
 10
144.4607970241719
 20
193.543710044954
 30
0.0
 11
144.310797024172
 21
193.5437100449538
 31
0.0
  0
LINE
  5
18C0
330
16CC
100
AcDbEntity
  8
0
100
AcDbLine
 10
144.4607970241719
 20
192.9437100449538
 30
0.0
 11
144.310797024172
 21
192.9437100449538
 31
0.0
  0
LINE
  5
18C1
330
16CC
100
AcDbEntity
  8
0
100
AcDbLine
 10
144.310797024172
 20
194.7938452405755
 30
0.0
 11
144.310797024172
 21
192.0337100449538
 31
0.0
  0
LINE
  5
18C2
330
16CC
100
AcDbEntity
  8
0
100
AcDbLine
 10
144.460797024172
 20
191.4837100449537
 30
0.0
 11
145.2107970241719
 21
191.4837100449537
 31
0.0
  0
LINE
  5
18C3
330
16CC
100
AcDbEntity
  8
0
100
AcDbLine
 10
139.7288680241719
 20
195.6226590449536
 30
0.0
 11
139.7288680241719
 21
195.2035200449535
 31
0.0
  0
LINE
  5
18C4
330
16CC
100
AcDbEntity
  8
0
100
AcDbLine
 10
138.8533600241719
 20
195.7837100449538
 30
0.0
 11
139.7288680241719
 21
195.2035200449535
 31
0.0
  0
LINE
  5
18C5
330
16CC
100
AcDbEntity
  8
0
100
AcDbLine
 10
139.7288680241719
 20
195.6226590449536
 30
0.0
 11
142.562403024172
 21
195.6226590449536
 31
0.0
  0
LINE
  5
18C6
330
16CC
100
AcDbEntity
  8
0
100
AcDbLine
 10
144.7107970241719
 20
191.0837100449536
 30
0.0
 11
144.7107970241719
 21
186.0837100449536
 31
0.0
  0
LINE
  5
18C7
330
16CC
100
AcDbEntity
  8
0
100
AcDbLine
 10
140.1316320241718
 20
187.0837100449536
 30
0.0
 11
142.096554024172
 21
187.0837100449536
 31
0.0
  0
LINE
  5
18C8
330
16CC
100
AcDbEntity
  8
0
100
AcDbLine
 10
140.1316320241718
 20
190.0837100449536
 30
0.0
 11
142.096554024172
 21
190.0837100449536
 31
0.0
  0
LINE
  5
18C9
330
16CC
100
AcDbEntity
  8
0
100
AcDbLine
 10
142.096554024172
 20
190.0837100449536
 30
0.0
 11
142.096554024172
 21
187.0837100449536
 31
0.0
  0
LINE
  5
18CA
330
16CC
100
AcDbEntity
  8
0
100
AcDbLine
 10
140.1316320241718
 20
190.0837100449536
 30
0.0
 11
140.1316320241718
 21
187.0837100449536
 31
0.0
  0
LINE
  5
18CB
330
16CC
100
AcDbEntity
  8
0
100
AcDbLine
 10
136.6170570241719
 20
205.6074680449539
 30
0.0
 11
136.6170570241719
 21
203.1627060449535
 31
0.0
  0
LINE
  5
18CC
330
16CC
100
AcDbEntity
  8
0
100
AcDbLine
 10
137.0607970241719
 20
195.7837100449538
 30
0.0
 11
137.0607970241719
 21
191.0837100449536
 31
0.0
  0
LINE
  5
18CD
330
16CC
100
AcDbEntity
  8
0
100
AcDbLine
 10
137.0607970241719
 20
185.8097230449538
 30
0.0
 11
137.0607970241719
 21
191.0837100449536
 31
0.0
  0
LINE
  5
18CE
330
16CC
100
AcDbEntity
  8
0
100
AcDbLine
 10
131.410797024172
 20
185.8097230449538
 30
0.0
 11
137.0607970241719
 21
185.8097230449538
 31
0.0
  0
LINE
  5
18CF
330
16CC
100
AcDbEntity
  8
0
100
AcDbLine
 10
137.7107970241719
 20
186.0837100449536
 30
0.0
 11
137.7107970241719
 21
191.0837100449536
 31
0.0
  0
LINE
  5
18D0
330
16CC
100
AcDbEntity
  8
0
100
AcDbLine
 10
126.810797024172
 20
202.9518060449535
 30
0.0
 11
126.810797024172
 21
195.5837100449536
 31
0.0
  0
LINE
  5
18D1
330
16CC
100
AcDbEntity
  8
0
100
AcDbLine
 10
143.757837024172
 20
210.5856110449535
 30
0.0
 11
136.6170570241719
 21
210.5856110449535
 31
0.0
  0
LINE
  5
18D2
330
16CC
100
AcDbEntity
  8
0
100
AcDbLine
 10
136.6170570241719
 20
203.1627060449535
 30
0.0
 11
143.757837024172
 21
203.1627060449535
 31
0.0
  0
LINE
  5
18D3
330
16CC
100
AcDbEntity
  8
0
100
AcDbLine
 10
143.757837024172
 20
208.2189520449535
 30
0.0
 11
136.6170570241719
 21
208.2189520449535
 31
0.0
  0
LINE
  5
18D4
330
16CC
100
AcDbEntity
  8
0
100
AcDbLine
 10
136.6170570241719
 20
205.6074680449539
 30
0.0
 11
138.4532560241719
 21
205.6074680449539
 31
0.0
  0
LINE
  5
18D5
330
16CC
100
AcDbEntity
  8
0
100
AcDbLine
 10
145.2107970241719
 20
201.5097230449538
 30
0.0
 11
135.410797024172
 21
201.5097230449538
 31
0.0
  0
LINE
  5
18D6
330
16CC
100
AcDbEntity
  8
0
100
AcDbLine
 10
135.960797024172
 20
202.4147220449535
 30
0.0
 11
144.460797024172
 21
202.4147220449535
 31
0.0
  0
LINE
  5
18D7
330
16CC
100
AcDbEntity
  8
0
100
AcDbLine
 10
144.7107970241719
 20
202.4147220449535
 30
0.0
 11
135.960797024172
 21
202.4147220449535
 31
0.0
  0
ARC
  5
18D8
330
16CC
100
AcDbEntity
  8
0
100
AcDbCircle
 10
140.760797024172
 20
195.7837100449538
 30
0.0
 40
3.69999999999993
100
AcDbArc
 50
0.0
 51
180.0
  0
CIRCLE
  5
18D9
330
16CC
100
AcDbEntity
  8
0
100
AcDbCircle
 10
140.7607970241721
 20
195.7837100449538
 30
0.0
 40
3.7
  0
CIRCLE
  5
18DA
330
16CC
100
AcDbEntity
  8
0
100
AcDbCircle
 10
140.7607970241721
 20
195.7837100449538
 30
0.0
 40
3.7
  0
LINE
  5
18DD
330
16CC
100
AcDbEntity
  8
0
100
AcDbLine
 10
137.0607970241719
 20
192.0337100449538
 30
0.0
 11
144.460797024172
 21
192.0337100449538
 31
0.0
  0
LINE
  5
18DF
330
16CC
100
AcDbEntity
  8
0
100
AcDbLine
 10
137.0607970241719
 20
192.033710044954
 30
0.0
 11
144.460797024172
 21
192.0337100449538
 31
0.0
  0
LINE
  5
18E0
330
16CC
100
AcDbEntity
  8
0
100
AcDbLine
 10
131.910797024172
 20
185.3337100449536
 30
0.0
 11
144.7107970241719
 21
185.3337100449536
 31
0.0
  0
LINE
  5
18E1
330
16CC
100
AcDbEntity
  8
0
100
AcDbLine
 10
137.7107970241719
 20
191.0837100449536
 30
0.0
 11
144.7107970241719
 21
191.0837100449536
 31
0.0
  0
LINE
  5
18E2
330
16CC
100
AcDbEntity
  8
0
100
AcDbLine
 10
137.7107970241719
 20
186.0837100449536
 30
0.0
 11
144.7107970241719
 21
186.0837100449536
 31
0.0
  0
LINE
  5
18E3
330
16CC
100
AcDbEntity
  8
0
100
AcDbLine
 10
137.025102024172
 20
222.5667395449534
 30
0.0
 11
137.025102024172
 21
210.5856110449535
 31
0.0
  0
LINE
  5
18E4
330
16CC
100
AcDbEntity
  8
0
100
AcDbLine
 10
144.460797024172
 20
202.4147220449535
 30
0.0
 11
144.460797024172
 21
219.7947220449534
 31
0.0
  0
LINE
  5
18E5
330
16CC
100
AcDbEntity
  8
0
100
AcDbLine
 10
135.960797024172
 20
219.7947220449534
 30
0.0
 11
135.960797024172
 21
202.4147220449535
 31
0.0
  0
LINE
  5
18E6
330
16CC
100
AcDbEntity
  8
0
100
AcDbLine
 10
145.2107970241719
 20
247.0097230449534
 30
0.0
 11
145.2107970241719
 21
201.5097230449538
 31
0.0
  0
LINE
  5
18E7
330
16CC
100
AcDbEntity
  8
0
100
AcDbLine
 10
135.410797024172
 20
201.5097230449538
 30
0.0
 11
135.410797024172
 21
247.0097230449534
 31
0.0
  0
LINE
  5
18E8
330
16CC
100
AcDbEntity
  8
0
100
AcDbLine
 10
136.6170570241719
 20
240.2532360449537
 30
0.0
 11
136.6170570241719
 21
205.6074680449539
 31
0.0
  0
LINE
  5
18E9
330
16CC
100
AcDbEntity
  8
0
100
AcDbLine
 10
143.145769024172
 20
237.8865770449535
 30
0.0
 11
143.145769024172
 21
210.5856110449535
 31
0.0
  0
LINE
  5
18EA
330
16CC
100
AcDbEntity
  8
0
100
AcDbLine
 10
143.757837024172
 20
205.6074680449539
 30
0.0
 11
143.757837024172
 21
240.2532360449537
 31
0.0
  0
LINE
  5
18EB
330
16CC
100
AcDbEntity
  8
0
100
AcDbLine
 10
144.460797024172
 20
227.4947220449535
 30
0.0
 11
144.460797024172
 21
202.4147220449535
 31
0.0
  0
LINE
  5
18EC
330
16CC
100
AcDbEntity
  8
0
100
AcDbLine
 10
138.844979024172
 20
218.7287430449538
 30
0.0
 11
138.844979024172
 21
218.320701044954
 31
0.0
  0
LINE
  5
18ED
330
16CC
100
AcDbEntity
  8
0
100
AcDbLine
 10
139.2530240241718
 20
218.320701044954
 30
0.0
 11
139.2530240241718
 21
218.7287430449538
 31
0.0
  0
LINE
  5
18EE
330
16CC
100
AcDbEntity
  8
0
100
AcDbLine
 10
140.917847024172
 20
218.7287430449538
 30
0.0
 11
140.917847024172
 21
218.320701044954
 31
0.0
  0
LINE
  5
18EF
330
16CC
100
AcDbEntity
  8
0
100
AcDbLine
 10
141.325889024172
 20
218.320701044954
 30
0.0
 11
141.325889024172
 21
218.7287430449538
 31
0.0
  0
LINE
  5
18F0
330
16CC
100
AcDbEntity
  8
0
100
AcDbLine
 10
123.810588024172
 20
255.5058540449535
 30
0.0
 11
123.810588024172
 21
251.4815770449537
 31
0.0
  0
LINE
  5
18F1
330
16CC
100
AcDbEntity
  8
中心線
100
AcDbLine
 10
139.3107970241719
 20
267.7555950449534
 30
0.0
 11
139.3107970241719
 21
252.7555950449535
 31
0.0
  0
LINE
  5
18F2
330
16CC
100
AcDbEntity
  8
0
100
AcDbLine
 10
154.8110050241719
 20
255.5058540449535
 30
0.0
 11
154.8110050241719
 21
251.4815770449537
 31
0.0
  0
LINE
  5
18F3
330
16CC
100
AcDbEntity
  8
0
100
AcDbLine
 10
139.440100024172
 20
181.2479900449535
 30
0.0
 11
137.9721440241719
 21
181.2479900449535
 31
0.0
  0
LINE
  5
18F4
330
16CC
100
AcDbEntity
  8
0
100
AcDbLine
 10
139.440100024172
 20
179.8859710449538
 30
0.0
 11
139.440100024172
 21
181.2479900449535
 31
0.0
  0
LINE
  5
18F5
330
16CC
100
AcDbEntity
  8
0
100
AcDbLine
 10
137.9721440241719
 20
181.2479900449535
 30
0.0
 11
137.9721440241719
 21
179.8859710449538
 31
0.0
  0
LINE
  5
18F6
330
16CC
100
AcDbEntity
  8
0
100
AcDbLine
 10
137.9721440241719
 20
181.2479900449535
 30
0.0
 11
138.4094990241719
 21
180.8666180449535
 31
0.0
  0
LINE
  5
18F7
330
16CC
100
AcDbEntity
  8
0
100
AcDbLine
 10
139.440100024172
 20
181.2479900449535
 30
0.0
 11
139.002573024172
 21
180.8666180449535
 31
0.0
  0
LINE
  5
18F8
330
16CC
100
AcDbEntity
  8
0
100
AcDbLine
 10
139.440100024172
 20
178.0652380449535
 30
0.0
 11
139.440100024172
 21
179.4272570449536
 31
0.0
  0
LINE
  5
18F9
330
16CC
100
AcDbEntity
  8
0
100
AcDbLine
 10
139.440100024172
 20
179.4272570449536
 30
0.0
 11
137.9721440241719
 21
179.4272570449536
 31
0.0
  0
LINE
  5
18FA
330
16CC
100
AcDbEntity
  8
0
100
AcDbLine
 10
137.9721440241719
 20
179.4272570449536
 30
0.0
 11
137.9721440241719
 21
178.0652380449535
 31
0.0
  0
LINE
  5
18FB
330
16CC
100
AcDbEntity
  8
0
100
AcDbLine
 10
137.9721440241719
 20
178.0652380449535
 30
0.0
 11
139.440100024172
 21
178.0652380449535
 31
0.0
  0
LINE
  5
18FC
330
16CC
100
AcDbEntity
  8
0
100
AcDbLine
 10
139.002573024172
 20
178.0652380449535
 30
0.0
 11
139.002573024172
 21
179.0462290449535
 31
0.0
  0
LINE
  5
18FD
330
16CC
100
AcDbEntity
  8
0
100
AcDbLine
 10
139.002573024172
 20
179.0462290449535
 30
0.0
 11
138.410016024172
 21
179.0462290449535
 31
0.0
  0
LINE
  5
18FE
330
16CC
100
AcDbEntity
  8
0
100
AcDbLine
 10
138.410016024172
 20
179.0462290449535
 30
0.0
 11
138.410016024172
 21
178.0652380449535
 31
0.0
  0
LINE
  5
18FF
330
16CC
100
AcDbEntity
  8
0
100
AcDbLine
 10
138.410016024172
 20
178.0652380449535
 30
0.0
 11
139.002573024172
 21
178.0652380449535
 31
0.0
  0
LINE
  5
1900
330
16CC
100
AcDbEntity
  8
0
100
AcDbLine
 10
139.002228024172
 20
175.7220560449534
 30
0.0
 11
139.002228024172
 21
176.7032200449538
 31
0.0
  0
LINE
  5
1901
330
16CC
100
AcDbEntity
  8
0
100
AcDbLine
 10
139.002228024172
 20
176.7032200449538
 30
0.0
 11
138.4094990241719
 21
176.7032200449538
 31
0.0
  0
LINE
  5
1902
330
16CC
100
AcDbEntity
  8
0
100
AcDbLine
 10
138.4094990241719
 20
176.7032200449538
 30
0.0
 11
138.4094990241719
 21
175.7220560449534
 31
0.0
  0
LINE
  5
1903
330
16CC
100
AcDbEntity
  8
0
100
AcDbLine
 10
138.4094990241719
 20
175.7220560449534
 30
0.0
 11
139.002228024172
 21
175.7220560449534
 31
0.0
  0
LINE
  5
1904
330
16CC
100
AcDbEntity
  8
0
100
AcDbLine
 10
139.440100024172
 20
175.3410290449535
 30
0.0
 11
139.002228024172
 21
175.7220560449534
 31
0.0
  0
LINE
  5
1905
330
16CC
100
AcDbEntity
  8
0
100
AcDbLine
 10
137.9721440241719
 20
175.3410290449535
 30
0.0
 11
138.4094990241719
 21
175.7220560449534
 31
0.0
  0
LINE
  5
1906
330
16CC
100
AcDbEntity
  8
0
100
AcDbLine
 10
141.1902080241719
 20
176.731469044954
 30
0.0
 11
141.1902080241719
 21
178.0934880449535
 31
0.0
  0
LINE
  5
1907
330
16CC
100
AcDbEntity
  8
0
100
AcDbLine
 10
141.1902080241719
 20
178.0934880449535
 30
0.0
 11
139.722253024172
 21
178.0934880449535
 31
0.0
  0
LINE
  5
1908
330
16CC
100
AcDbEntity
  8
0
100
AcDbLine
 10
139.722253024172
 20
178.0934880449535
 30
0.0
 11
139.722253024172
 21
176.731469044954
 31
0.0
  0
LINE
  5
1909
330
16CC
100
AcDbEntity
  8
0
100
AcDbLine
 10
139.722253024172
 20
176.731469044954
 30
0.0
 11
141.1902080241719
 21
176.731469044954
 31
0.0
  0
LINE
  5
190A
330
16CC
100
AcDbEntity
  8
0
100
AcDbLine
 10
140.752337024172
 20
177.1123250449536
 30
0.0
 11
140.752337024172
 21
178.0934880449535
 31
0.0
  0
LINE
  5
190B
330
16CC
100
AcDbEntity
  8
0
100
AcDbLine
 10
140.752337024172
 20
178.0934880449535
 30
0.0
 11
140.1597800241719
 21
178.0934880449535
 31
0.0
  0
LINE
  5
190C
330
16CC
100
AcDbEntity
  8
0
100
AcDbLine
 10
140.1597800241719
 20
178.0934880449535
 30
0.0
 11
140.1597800241719
 21
177.1123250449536
 31
0.0
  0
LINE
  5
190D
330
16CC
100
AcDbEntity
  8
0
100
AcDbLine
 10
140.1597800241719
 20
177.1123250449536
 30
0.0
 11
140.752337024172
 21
177.1123250449536
 31
0.0
  0
LINE
  5
190E
330
16CC
100
AcDbEntity
  8
0
100
AcDbLine
 10
139.440100024172
 20
175.3410290449535
 30
0.0
 11
139.440100024172
 21
176.7032200449538
 31
0.0
  0
LINE
  5
190F
330
16CC
100
AcDbEntity
  8
0
100
AcDbLine
 10
139.440100024172
 20
176.7032200449538
 30
0.0
 11
137.9721440241719
 21
176.7032200449538
 31
0.0
  0
LINE
  5
1910
330
16CC
100
AcDbEntity
  8
0
100
AcDbLine
 10
137.9721440241719
 20
176.7032200449538
 30
0.0
 11
137.9721440241719
 21
175.3410290449535
 31
0.0
  0
LINE
  5
1911
330
16CC
100
AcDbEntity
  8
0
100
AcDbLine
 10
137.9721440241719
 20
175.3410290449535
 30
0.0
 11
139.440100024172
 21
175.3410290449535
 31
0.0
  0
LINE
  5
1912
330
16CC
100
AcDbEntity
  8
0
100
AcDbLine
 10
141.1902080241719
 20
176.731469044954
 30
0.0
 11
140.752337024172
 21
177.1123250449536
 31
0.0
  0
LINE
  5
1913
330
16CC
100
AcDbEntity
  8
0
100
AcDbLine
 10
139.722253024172
 20
176.731469044954
 30
0.0
 11
140.1597800241719
 21
177.1123250449536
 31
0.0
  0
LINE
  5
1914
330
16CC
100
AcDbEntity
  8
0
100
AcDbLine
 10
139.722253024172
 20
178.5590930449538
 30
0.0
 11
139.722253024172
 21
179.9212830449534
 31
0.0
  0
LINE
  5
1915
330
16CC
100
AcDbEntity
  8
0
100
AcDbLine
 10
139.722253024172
 20
179.9212830449534
 30
0.0
 11
141.1902080241719
 21
179.9212830449534
 31
0.0
  0
LINE
  5
1916
330
16CC
100
AcDbEntity
  8
0
100
AcDbLine
 10
141.1902080241719
 20
179.9212830449534
 30
0.0
 11
141.1902080241719
 21
178.5590930449538
 31
0.0
  0
LINE
  5
1917
330
16CC
100
AcDbEntity
  8
0
100
AcDbLine
 10
141.1902080241719
 20
178.5590930449538
 30
0.0
 11
139.722253024172
 21
178.5590930449538
 31
0.0
  0
LINE
  5
1918
330
16CC
100
AcDbEntity
  8
0
100
AcDbLine
 10
140.1597800241719
 20
178.5590930449538
 30
0.0
 11
140.1597800241719
 21
179.5402560449536
 31
0.0
  0
LINE
  5
1919
330
16CC
100
AcDbEntity
  8
0
100
AcDbLine
 10
140.1597800241719
 20
179.5402560449536
 30
0.0
 11
140.752337024172
 21
179.5402560449536
 31
0.0
  0
LINE
  5
191A
330
16CC
100
AcDbEntity
  8
0
100
AcDbLine
 10
140.752337024172
 20
179.5402560449536
 30
0.0
 11
140.752337024172
 21
178.5590930449538
 31
0.0
  0
LINE
  5
191B
330
16CC
100
AcDbEntity
  8
0
100
AcDbLine
 10
140.752337024172
 20
178.5590930449538
 30
0.0
 11
140.1597800241719
 21
178.5590930449538
 31
0.0
  0
LINE
  5
191C
330
16CC
100
AcDbEntity
  8
0
100
AcDbLine
 10
141.1902080241719
 20
179.9212830449534
 30
0.0
 11
140.752337024172
 21
179.5402560449536
 31
0.0
  0
LINE
  5
191D
330
16CC
100
AcDbEntity
  8
0
100
AcDbLine
 10
139.722253024172
 20
179.9212830449534
 30
0.0
 11
140.1597800241719
 21
179.5402560449536
 31
0.0
  0
LINE
  5
191E
330
16CC
100
AcDbEntity
  8
0
100
AcDbLine
 10
139.440100024172
 20
179.4272570449536
 30
0.0
 11
139.002573024172
 21
179.0458850449539
 31
0.0
  0
LINE
  5
191F
330
16CC
100
AcDbEntity
  8
0
100
AcDbLine
 10
137.9721440241719
 20
179.8859710449538
 30
0.0
 11
139.440100024172
 21
179.8859710449538
 31
0.0
  0
LINE
  5
1920
330
16CC
100
AcDbEntity
  8
0
100
AcDbLine
 10
139.002573024172
 20
179.8859710449538
 30
0.0
 11
139.002573024172
 21
180.866962044954
 31
0.0
  0
LINE
  5
1921
330
16CC
100
AcDbEntity
  8
0
100
AcDbLine
 10
139.002573024172
 20
180.866962044954
 30
0.0
 11
138.410016024172
 21
180.866962044954
 31
0.0
  0
LINE
  5
1922
330
16CC
100
AcDbEntity
  8
0
100
AcDbLine
 10
138.410016024172
 20
180.866962044954
 30
0.0
 11
138.410016024172
 21
179.8859710449538
 31
0.0
  0
LINE
  5
1923
330
16CC
100
AcDbEntity
  8
0
100
AcDbLine
 10
138.410016024172
 20
179.8859710449538
 30
0.0
 11
139.002573024172
 21
179.8859710449538
 31
0.0
  0
LINE
  5
1924
330
16CC
100
AcDbEntity
  8
0
100
AcDbLine
 10
137.9721440241719
 20
179.4272570449536
 30
0.0
 11
138.4094990241719
 21
179.0458850449539
 31
0.0
  0
LINE
  5
1925
330
16CC
100
AcDbEntity
  8
0
100
AcDbLine
 10
140.9607970241719
 20
167.3837100449538
 30
0.0
 11
141.460797024172
 21
167.3837100449538
 31
0.0
  0
LINE
  5
1926
330
16CC
100
AcDbEntity
  8
0
100
AcDbLine
 10
141.300797024172
 20
167.5436580449534
 30
0.0
 11
141.210797024172
 21
167.5436580449534
 31
0.0
  0
LINE
  5
1927
330
16CC
100
AcDbEntity
  8
0
100
AcDbLine
 10
141.300797024172
 20
167.5436580449534
 30
0.0
 11
141.210797024172
 21
167.5436580449534
 31
0.0
  0
LINE
  5
1928
330
16CC
100
AcDbEntity
  8
0
100
AcDbLine
 10
141.1207970241719
 20
167.5436580449534
 30
0.0
 11
141.210797024172
 21
167.5436580449534
 31
0.0
  0
LINE
  5
1929
330
16CC
100
AcDbEntity
  8
0
100
AcDbLine
 10
141.1207970241719
 20
167.5436580449534
 30
0.0
 11
141.210797024172
 21
167.5436580449534
 31
0.0
  0
LINE
  5
192A
330
16CC
100
AcDbEntity
  8
0
100
AcDbLine
 10
140.9607970241719
 20
167.8837100449538
 30
0.0
 11
141.460797024172
 21
167.8837100449538
 31
0.0
  0
LINE
  5
192B
330
16CC
100
AcDbEntity
  8
0
100
AcDbLine
 10
141.300797024172
 20
167.7237620449535
 30
0.0
 11
141.210797024172
 21
167.7237620449535
 31
0.0
  0
LINE
  5
192C
330
16CC
100
AcDbEntity
  8
0
100
AcDbLine
 10
141.1207970241719
 20
167.7237620449535
 30
0.0
 11
141.210797024172
 21
167.7237620449535
 31
0.0
  0
LINE
  5
192D
330
16CC
100
AcDbEntity
  8
0
100
AcDbLine
 10
141.300797024172
 20
167.7237620449535
 30
0.0
 11
141.300797024172
 21
167.5436580449534
 31
0.0
  0
LINE
  5
192E
330
16CC
100
AcDbEntity
  8
0
100
AcDbLine
 10
141.1207970241719
 20
167.7237620449535
 30
0.0
 11
141.1207970241719
 21
167.5436580449534
 31
0.0
  0
LINE
  5
192F
330
16CC
100
AcDbEntity
  8
0
100
AcDbLine
 10
141.460797024172
 20
167.3837100449538
 30
0.0
 11
141.460797024172
 21
167.8837100449538
 31
0.0
  0
LINE
  5
1930
330
16CC
100
AcDbEntity
  8
0
100
AcDbLine
 10
140.9607970241719
 20
167.8837100449538
 30
0.0
 11
140.9607970241719
 21
167.3837100449538
 31
0.0
  0
LINE
  5
1931
330
16CC
100
AcDbEntity
  8
0
100
AcDbLine
 10
143.1207970241719
 20
167.5436580449534
 30
0.0
 11
143.2107970241719
 21
167.5436580449534
 31
0.0
  0
LINE
  5
1932
330
16CC
100
AcDbEntity
  8
0
100
AcDbLine
 10
143.1207970241719
 20
167.5436580449534
 30
0.0
 11
143.2107970241719
 21
167.5436580449534
 31
0.0
  0
LINE
  5
1933
330
16CC
100
AcDbEntity
  8
0
100
AcDbLine
 10
143.3007970241719
 20
167.5436580449534
 30
0.0
 11
143.2107970241719
 21
167.5436580449534
 31
0.0
  0
LINE
  5
1934
330
16CC
100
AcDbEntity
  8
0
100
AcDbLine
 10
143.3007970241719
 20
167.5436580449534
 30
0.0
 11
143.2107970241719
 21
167.5436580449534
 31
0.0
  0
LINE
  5
1935
330
16CC
100
AcDbEntity
  8
0
100
AcDbLine
 10
143.1207970241719
 20
167.7237620449535
 30
0.0
 11
143.2107970241719
 21
167.7237620449535
 31
0.0
  0
LINE
  5
1936
330
16CC
100
AcDbEntity
  8
0
100
AcDbLine
 10
143.3007970241719
 20
167.7237620449535
 30
0.0
 11
143.2107970241719
 21
167.7237620449535
 31
0.0
  0
LINE
  5
1937
330
16CC
100
AcDbEntity
  8
0
100
AcDbLine
 10
143.1207970241719
 20
167.7237620449535
 30
0.0
 11
143.1207970241719
 21
167.5436580449534
 31
0.0
  0
LINE
  5
1938
330
16CC
100
AcDbEntity
  8
0
100
AcDbLine
 10
143.3007970241719
 20
167.7237620449535
 30
0.0
 11
143.3007970241719
 21
167.5436580449534
 31
0.0
  0
LINE
  5
1939
330
16CC
100
AcDbEntity
  8
0
100
AcDbLine
 10
143.460797024172
 20
167.3837100449538
 30
0.0
 11
143.460797024172
 21
167.8837100449538
 31
0.0
  0
LINE
  5
193A
330
16CC
100
AcDbEntity
  8
0
100
AcDbLine
 10
142.9607970241718
 20
167.8837100449538
 30
0.0
 11
142.9607970241718
 21
167.3837100449538
 31
0.0
  0
LINE
  5
193B
330
16CC
100
AcDbEntity
  8
0
100
AcDbLine
 10
142.9607970241718
 20
167.3837100449538
 30
0.0
 11
143.460797024172
 21
167.3837100449538
 31
0.0
  0
LINE
  5
193C
330
16CC
100
AcDbEntity
  8
0
100
AcDbLine
 10
142.9607970241718
 20
167.8837100449538
 30
0.0
 11
143.460797024172
 21
167.8837100449538
 31
0.0
  0
LINE
  5
193D
330
16CC
100
AcDbEntity
  8
0
100
AcDbLine
 10
139.7107970241719
 20
169.7536953859009
 30
0.0
 11
144.7107970241719
 21
169.7536953859009
 31
0.0
  0
LINE
  5
193E
330
16CC
100
AcDbEntity
  8
0
100
AcDbLine
 10
141.1207970241719
 20
159.5436580449534
 30
0.0
 11
141.210797024172
 21
159.5436580449534
 31
0.0
  0
LINE
  5
193F
330
16CC
100
AcDbEntity
  8
0
100
AcDbLine
 10
141.1207970241719
 20
159.5436580449534
 30
0.0
 11
141.210797024172
 21
159.5436580449534
 31
0.0
  0
LINE
  5
1940
330
16CC
100
AcDbEntity
  8
0
100
AcDbLine
 10
141.1207970241719
 20
159.7237620449537
 30
0.0
 11
141.210797024172
 21
159.7237620449537
 31
0.0
  0
LINE
  5
1941
330
16CC
100
AcDbEntity
  8
0
100
AcDbLine
 10
141.300797024172
 20
159.7237620449537
 30
0.0
 11
141.210797024172
 21
159.7237620449537
 31
0.0
  0
LINE
  5
1942
330
16CC
100
AcDbEntity
  8
0
100
AcDbLine
 10
141.300797024172
 20
159.5436580449534
 30
0.0
 11
141.210797024172
 21
159.5436580449534
 31
0.0
  0
LINE
  5
1943
330
16CC
100
AcDbEntity
  8
0
100
AcDbLine
 10
141.300797024172
 20
159.5436580449534
 30
0.0
 11
141.210797024172
 21
159.5436580449534
 31
0.0
  0
LINE
  5
1944
330
16CC
100
AcDbEntity
  8
0
100
AcDbLine
 10
141.300797024172
 20
159.7237620449537
 30
0.0
 11
141.300797024172
 21
159.5436580449534
 31
0.0
  0
LINE
  5
1945
330
16CC
100
AcDbEntity
  8
0
100
AcDbLine
 10
140.9607970241719
 20
159.3837100449538
 30
0.0
 11
141.460797024172
 21
159.3837100449538
 31
0.0
  0
LINE
  5
1946
330
16CC
100
AcDbEntity
  8
0
100
AcDbLine
 10
140.9607970241719
 20
159.8837100449538
 30
0.0
 11
140.9607970241719
 21
159.3837100449538
 31
0.0
  0
LINE
  5
1947
330
16CC
100
AcDbEntity
  8
0
100
AcDbLine
 10
141.460797024172
 20
159.3837100449538
 30
0.0
 11
141.460797024172
 21
159.8837100449538
 31
0.0
  0
LINE
  5
1948
330
16CC
100
AcDbEntity
  8
0
100
AcDbLine
 10
140.9607970241719
 20
161.8837100449538
 30
0.0
 11
140.9607970241719
 21
161.3837100449537
 31
0.0
  0
LINE
  5
1949
330
16CC
100
AcDbEntity
  8
0
100
AcDbLine
 10
141.460797024172
 20
161.3837100449537
 30
0.0
 11
141.460797024172
 21
161.8837100449538
 31
0.0
  0
LINE
  5
194A
330
16CC
100
AcDbEntity
  8
0
100
AcDbLine
 10
141.1207970241719
 20
161.7237620449537
 30
0.0
 11
141.1207970241719
 21
161.5436580449534
 31
0.0
  0
LINE
  5
194B
330
16CC
100
AcDbEntity
  8
0
100
AcDbLine
 10
141.1207970241719
 20
161.5436580449534
 30
0.0
 11
141.210797024172
 21
161.5436580449534
 31
0.0
  0
LINE
  5
194C
330
16CC
100
AcDbEntity
  8
0
100
AcDbLine
 10
141.1207970241719
 20
161.5436580449534
 30
0.0
 11
141.210797024172
 21
161.5436580449534
 31
0.0
  0
LINE
  5
194D
330
16CC
100
AcDbEntity
  8
0
100
AcDbLine
 10
141.1207970241719
 20
161.7237620449537
 30
0.0
 11
141.210797024172
 21
161.7237620449537
 31
0.0
  0
LINE
  5
194E
330
16CC
100
AcDbEntity
  8
0
100
AcDbLine
 10
141.300797024172
 20
161.7237620449537
 30
0.0
 11
141.210797024172
 21
161.7237620449537
 31
0.0
  0
LINE
  5
194F
330
16CC
100
AcDbEntity
  8
0
100
AcDbLine
 10
141.300797024172
 20
161.5436580449534
 30
0.0
 11
141.210797024172
 21
161.5436580449534
 31
0.0
  0
LINE
  5
1950
330
16CC
100
AcDbEntity
  8
0
100
AcDbLine
 10
141.300797024172
 20
161.5436580449534
 30
0.0
 11
141.210797024172
 21
161.5436580449534
 31
0.0
  0
LINE
  5
1951
330
16CC
100
AcDbEntity
  8
0
100
AcDbLine
 10
141.300797024172
 20
161.7237620449537
 30
0.0
 11
141.300797024172
 21
161.5436580449534
 31
0.0
  0
LINE
  5
1952
330
16CC
100
AcDbEntity
  8
0
100
AcDbLine
 10
140.9607970241719
 20
161.8837100449538
 30
0.0
 11
141.460797024172
 21
161.8837100449538
 31
0.0
  0
LINE
  5
1953
330
16CC
100
AcDbEntity
  8
0
100
AcDbLine
 10
140.9607970241719
 20
161.3837100449537
 30
0.0
 11
141.460797024172
 21
161.3837100449537
 31
0.0
  0
LINE
  5
1954
330
16CC
100
AcDbEntity
  8
0
100
AcDbLine
 10
140.9607970241719
 20
159.8837100449538
 30
0.0
 11
141.460797024172
 21
159.8837100449538
 31
0.0
  0
LINE
  5
1955
330
16CC
100
AcDbEntity
  8
0
100
AcDbLine
 10
141.1207970241719
 20
159.7237620449537
 30
0.0
 11
141.1207970241719
 21
159.5436580449534
 31
0.0
  0
LINE
  5
1956
330
16CC
100
AcDbEntity
  8
0
100
AcDbLine
 10
140.9607970241719
 20
163.8837100449539
 30
0.0
 11
140.9607970241719
 21
163.3837100449538
 31
0.0
  0
LINE
  5
1957
330
16CC
100
AcDbEntity
  8
0
100
AcDbLine
 10
141.460797024172
 20
163.3837100449538
 30
0.0
 11
141.460797024172
 21
163.8837100449539
 31
0.0
  0
LINE
  5
1958
330
16CC
100
AcDbEntity
  8
0
100
AcDbLine
 10
141.1207970241719
 20
163.7237620449537
 30
0.0
 11
141.1207970241719
 21
163.5436580449534
 31
0.0
  0
LINE
  5
1959
330
16CC
100
AcDbEntity
  8
0
100
AcDbLine
 10
141.1207970241719
 20
163.5436580449534
 30
0.0
 11
141.210797024172
 21
163.5436580449534
 31
0.0
  0
LINE
  5
195A
330
16CC
100
AcDbEntity
  8
0
100
AcDbLine
 10
141.1207970241719
 20
163.5436580449534
 30
0.0
 11
141.210797024172
 21
163.5436580449534
 31
0.0
  0
LINE
  5
195B
330
16CC
100
AcDbEntity
  8
0
100
AcDbLine
 10
141.1207970241719
 20
163.7237620449537
 30
0.0
 11
141.210797024172
 21
163.7237620449537
 31
0.0
  0
LINE
  5
195C
330
16CC
100
AcDbEntity
  8
0
100
AcDbLine
 10
141.300797024172
 20
163.7237620449537
 30
0.0
 11
141.210797024172
 21
163.7237620449537
 31
0.0
  0
LINE
  5
195D
330
16CC
100
AcDbEntity
  8
0
100
AcDbLine
 10
141.300797024172
 20
163.5436580449534
 30
0.0
 11
141.210797024172
 21
163.5436580449534
 31
0.0
  0
LINE
  5
195E
330
16CC
100
AcDbEntity
  8
0
100
AcDbLine
 10
141.300797024172
 20
163.5436580449534
 30
0.0
 11
141.210797024172
 21
163.5436580449534
 31
0.0
  0
LINE
  5
195F
330
16CC
100
AcDbEntity
  8
0
100
AcDbLine
 10
141.300797024172
 20
163.7237620449537
 30
0.0
 11
141.300797024172
 21
163.5436580449534
 31
0.0
  0
LINE
  5
1960
330
16CC
100
AcDbEntity
  8
0
100
AcDbLine
 10
140.9607970241719
 20
163.8837100449539
 30
0.0
 11
141.460797024172
 21
163.8837100449539
 31
0.0
  0
LINE
  5
1961
330
16CC
100
AcDbEntity
  8
0
100
AcDbLine
 10
140.9607970241719
 20
163.3837100449538
 30
0.0
 11
141.460797024172
 21
163.3837100449538
 31
0.0
  0
LINE
  5
1962
330
16CC
100
AcDbEntity
  8
0
100
AcDbLine
 10
143.3007970241719
 20
161.7237620449537
 30
0.0
 11
143.3007970241719
 21
161.5436580449534
 31
0.0
  0
LINE
  5
1963
330
16CC
100
AcDbEntity
  8
0
100
AcDbLine
 10
143.3007970241719
 20
161.5436580449534
 30
0.0
 11
143.2107970241719
 21
161.5436580449534
 31
0.0
  0
LINE
  5
1964
330
16CC
100
AcDbEntity
  8
0
100
AcDbLine
 10
143.3007970241719
 20
161.5436580449534
 30
0.0
 11
143.2107970241719
 21
161.5436580449534
 31
0.0
  0
LINE
  5
1965
330
16CC
100
AcDbEntity
  8
0
100
AcDbLine
 10
143.3007970241719
 20
161.7237620449537
 30
0.0
 11
143.2107970241719
 21
161.7237620449537
 31
0.0
  0
LINE
  5
1966
330
16CC
100
AcDbEntity
  8
0
100
AcDbLine
 10
143.1207970241719
 20
161.7237620449537
 30
0.0
 11
143.2107970241719
 21
161.7237620449537
 31
0.0
  0
LINE
  5
1967
330
16CC
100
AcDbEntity
  8
0
100
AcDbLine
 10
143.1207970241719
 20
161.5436580449534
 30
0.0
 11
143.2107970241719
 21
161.5436580449534
 31
0.0
  0
LINE
  5
1968
330
16CC
100
AcDbEntity
  8
0
100
AcDbLine
 10
143.1207970241719
 20
161.5436580449534
 30
0.0
 11
143.2107970241719
 21
161.5436580449534
 31
0.0
  0
LINE
  5
1969
330
16CC
100
AcDbEntity
  8
0
100
AcDbLine
 10
143.1207970241719
 20
161.7237620449537
 30
0.0
 11
143.1207970241719
 21
161.5436580449534
 31
0.0
  0
LINE
  5
196A
330
16CC
100
AcDbEntity
  8
0
100
AcDbLine
 10
143.460797024172
 20
161.3837100449537
 30
0.0
 11
143.460797024172
 21
161.8837100449538
 31
0.0
  0
LINE
  5
196B
330
16CC
100
AcDbEntity
  8
0
100
AcDbLine
 10
143.3007970241719
 20
159.7237620449537
 30
0.0
 11
143.3007970241719
 21
159.5436580449534
 31
0.0
  0
LINE
  5
196C
330
16CC
100
AcDbEntity
  8
0
100
AcDbLine
 10
143.3007970241719
 20
159.5436580449534
 30
0.0
 11
143.2107970241719
 21
159.5436580449534
 31
0.0
  0
LINE
  5
196D
330
16CC
100
AcDbEntity
  8
0
100
AcDbLine
 10
143.3007970241719
 20
159.5436580449534
 30
0.0
 11
143.2107970241719
 21
159.5436580449534
 31
0.0
  0
LINE
  5
196E
330
16CC
100
AcDbEntity
  8
0
100
AcDbLine
 10
143.3007970241719
 20
159.7237620449537
 30
0.0
 11
143.2107970241719
 21
159.7237620449537
 31
0.0
  0
LINE
  5
196F
330
16CC
100
AcDbEntity
  8
0
100
AcDbLine
 10
143.1207970241719
 20
159.7237620449537
 30
0.0
 11
143.2107970241719
 21
159.7237620449537
 31
0.0
  0
LINE
  5
1970
330
16CC
100
AcDbEntity
  8
0
100
AcDbLine
 10
143.1207970241719
 20
159.5436580449534
 30
0.0
 11
143.2107970241719
 21
159.5436580449534
 31
0.0
  0
LINE
  5
1971
330
16CC
100
AcDbEntity
  8
0
100
AcDbLine
 10
143.1207970241719
 20
159.5436580449534
 30
0.0
 11
143.2107970241719
 21
159.5436580449534
 31
0.0
  0
LINE
  5
1972
330
16CC
100
AcDbEntity
  8
0
100
AcDbLine
 10
143.1207970241719
 20
159.7237620449537
 30
0.0
 11
143.1207970241719
 21
159.5436580449534
 31
0.0
  0
LINE
  5
1973
330
16CC
100
AcDbEntity
  8
0
100
AcDbLine
 10
143.460797024172
 20
159.3837100449538
 30
0.0
 11
143.460797024172
 21
159.8837100449538
 31
0.0
  0
LINE
  5
1974
330
16CC
100
AcDbEntity
  8
0
100
AcDbLine
 10
142.9607970241718
 20
161.8837100449538
 30
0.0
 11
142.9607970241718
 21
161.3837100449537
 31
0.0
  0
LINE
  5
1975
330
16CC
100
AcDbEntity
  8
0
100
AcDbLine
 10
142.9607970241718
 20
159.8837100449538
 30
0.0
 11
142.9607970241718
 21
159.3837100449538
 31
0.0
  0
LINE
  5
1976
330
16CC
100
AcDbEntity
  8
0
100
AcDbLine
 10
142.9607970241718
 20
161.3837100449537
 30
0.0
 11
143.460797024172
 21
161.3837100449537
 31
0.0
  0
LINE
  5
1977
330
16CC
100
AcDbEntity
  8
0
100
AcDbLine
 10
142.9607970241718
 20
161.8837100449538
 30
0.0
 11
143.460797024172
 21
161.8837100449538
 31
0.0
  0
LINE
  5
1978
330
16CC
100
AcDbEntity
  8
0
100
AcDbLine
 10
142.9607970241718
 20
159.8837100449538
 30
0.0
 11
143.460797024172
 21
159.8837100449538
 31
0.0
  0
LINE
  5
1979
330
16CC
100
AcDbEntity
  8
0
100
AcDbLine
 10
142.9607970241718
 20
159.3837100449538
 30
0.0
 11
143.460797024172
 21
159.3837100449538
 31
0.0
  0
LINE
  5
197A
330
16CC
100
AcDbEntity
  8
0
100
AcDbLine
 10
143.3007970241719
 20
163.7237620449537
 30
0.0
 11
143.3007970241719
 21
163.5436580449534
 31
0.0
  0
LINE
  5
197B
330
16CC
100
AcDbEntity
  8
0
100
AcDbLine
 10
143.3007970241719
 20
163.5436580449534
 30
0.0
 11
143.2107970241719
 21
163.5436580449534
 31
0.0
  0
LINE
  5
197C
330
16CC
100
AcDbEntity
  8
0
100
AcDbLine
 10
143.3007970241719
 20
163.5436580449534
 30
0.0
 11
143.2107970241719
 21
163.5436580449534
 31
0.0
  0
LINE
  5
197D
330
16CC
100
AcDbEntity
  8
0
100
AcDbLine
 10
143.3007970241719
 20
163.7237620449537
 30
0.0
 11
143.2107970241719
 21
163.7237620449537
 31
0.0
  0
LINE
  5
197E
330
16CC
100
AcDbEntity
  8
0
100
AcDbLine
 10
143.1207970241719
 20
163.7237620449537
 30
0.0
 11
143.2107970241719
 21
163.7237620449537
 31
0.0
  0
LINE
  5
197F
330
16CC
100
AcDbEntity
  8
0
100
AcDbLine
 10
143.1207970241719
 20
163.5436580449534
 30
0.0
 11
143.2107970241719
 21
163.5436580449534
 31
0.0
  0
LINE
  5
1980
330
16CC
100
AcDbEntity
  8
0
100
AcDbLine
 10
143.1207970241719
 20
163.5436580449534
 30
0.0
 11
143.2107970241719
 21
163.5436580449534
 31
0.0
  0
LINE
  5
1981
330
16CC
100
AcDbEntity
  8
0
100
AcDbLine
 10
143.1207970241719
 20
163.7237620449537
 30
0.0
 11
143.1207970241719
 21
163.5436580449534
 31
0.0
  0
LINE
  5
1982
330
16CC
100
AcDbEntity
  8
0
100
AcDbLine
 10
143.460797024172
 20
163.3837100449538
 30
0.0
 11
143.460797024172
 21
163.8837100449539
 31
0.0
  0
LINE
  5
1983
330
16CC
100
AcDbEntity
  8
0
100
AcDbLine
 10
142.9607970241718
 20
163.8837100449539
 30
0.0
 11
142.9607970241718
 21
163.3837100449538
 31
0.0
  0
LINE
  5
1984
330
16CC
100
AcDbEntity
  8
0
100
AcDbLine
 10
142.9607970241718
 20
163.3837100449538
 30
0.0
 11
143.460797024172
 21
163.3837100449538
 31
0.0
  0
LINE
  5
1985
330
16CC
100
AcDbEntity
  8
0
100
AcDbLine
 10
142.9607970241718
 20
163.8837100449539
 30
0.0
 11
143.460797024172
 21
163.8837100449539
 31
0.0
  0
LINE
  5
1986
330
16CC
100
AcDbEntity
  8
0
100
AcDbLine
 10
140.1316320241718
 20
148.9297220449536
 30
0.0
 11
142.096554024172
 21
148.9297220449536
 31
0.0
  0
LINE
  5
1987
330
16CC
100
AcDbEntity
  8
0
100
AcDbLine
 10
140.9607970241719
 20
153.8837100449538
 30
0.0
 11
141.460797024172
 21
153.8837100449538
 31
0.0
  0
LINE
  5
1988
330
16CC
100
AcDbEntity
  8
0
100
AcDbLine
 10
141.1207970241719
 20
153.7237620449537
 30
0.0
 11
141.210797024172
 21
153.7237620449537
 31
0.0
  0
LINE
  5
1989
330
16CC
100
AcDbEntity
  8
0
100
AcDbLine
 10
141.300797024172
 20
153.7237620449537
 30
0.0
 11
141.210797024172
 21
153.7237620449537
 31
0.0
  0
LINE
  5
198A
330
16CC
100
AcDbEntity
  8
0
100
AcDbLine
 10
141.1207970241719
 20
153.5436580449534
 30
0.0
 11
141.210797024172
 21
153.5436580449534
 31
0.0
  0
LINE
  5
198B
330
16CC
100
AcDbEntity
  8
0
100
AcDbLine
 10
141.1207970241719
 20
153.5436580449534
 30
0.0
 11
141.210797024172
 21
153.5436580449534
 31
0.0
  0
LINE
  5
198C
330
16CC
100
AcDbEntity
  8
0
100
AcDbLine
 10
141.300797024172
 20
153.5436580449534
 30
0.0
 11
141.210797024172
 21
153.5436580449534
 31
0.0
  0
LINE
  5
198D
330
16CC
100
AcDbEntity
  8
0
100
AcDbLine
 10
141.300797024172
 20
153.5436580449534
 30
0.0
 11
141.210797024172
 21
153.5436580449534
 31
0.0
  0
LINE
  5
198E
330
16CC
100
AcDbEntity
  8
0
100
AcDbLine
 10
140.9607970241719
 20
153.3837100449538
 30
0.0
 11
141.460797024172
 21
153.3837100449538
 31
0.0
  0
LINE
  5
198F
330
16CC
100
AcDbEntity
  8
0
100
AcDbLine
 10
141.1207970241719
 20
153.7237620449537
 30
0.0
 11
141.1207970241719
 21
153.5436580449534
 31
0.0
  0
LINE
  5
1990
330
16CC
100
AcDbEntity
  8
0
100
AcDbLine
 10
141.300797024172
 20
153.7237620449537
 30
0.0
 11
141.300797024172
 21
153.5436580449534
 31
0.0
  0
LINE
  5
1991
330
16CC
100
AcDbEntity
  8
0
100
AcDbLine
 10
140.9607970241719
 20
153.8837100449538
 30
0.0
 11
140.9607970241719
 21
153.3837100449538
 31
0.0
  0
LINE
  5
1992
330
16CC
100
AcDbEntity
  8
0
100
AcDbLine
 10
141.460797024172
 20
153.3837100449538
 30
0.0
 11
141.460797024172
 21
153.8837100449538
 31
0.0
  0
LINE
  5
1993
330
16CC
100
AcDbEntity
  8
0
100
AcDbLine
 10
143.3007970241719
 20
153.7237620449537
 30
0.0
 11
143.2107970241719
 21
153.7237620449537
 31
0.0
  0
LINE
  5
1994
330
16CC
100
AcDbEntity
  8
0
100
AcDbLine
 10
143.1207970241719
 20
153.7237620449537
 30
0.0
 11
143.2107970241719
 21
153.7237620449537
 31
0.0
  0
LINE
  5
1995
330
16CC
100
AcDbEntity
  8
0
100
AcDbLine
 10
142.9607970241718
 20
153.8837100449538
 30
0.0
 11
143.460797024172
 21
153.8837100449538
 31
0.0
  0
LINE
  5
1996
330
16CC
100
AcDbEntity
  8
0
100
AcDbLine
 10
143.3007970241719
 20
153.5436580449534
 30
0.0
 11
143.2107970241719
 21
153.5436580449534
 31
0.0
  0
LINE
  5
1997
330
16CC
100
AcDbEntity
  8
0
100
AcDbLine
 10
143.3007970241719
 20
153.5436580449534
 30
0.0
 11
143.2107970241719
 21
153.5436580449534
 31
0.0
  0
LINE
  5
1998
330
16CC
100
AcDbEntity
  8
0
100
AcDbLine
 10
143.1207970241719
 20
153.5436580449534
 30
0.0
 11
143.2107970241719
 21
153.5436580449534
 31
0.0
  0
LINE
  5
1999
330
16CC
100
AcDbEntity
  8
0
100
AcDbLine
 10
143.1207970241719
 20
153.5436580449534
 30
0.0
 11
143.2107970241719
 21
153.5436580449534
 31
0.0
  0
LINE
  5
199A
330
16CC
100
AcDbEntity
  8
0
100
AcDbLine
 10
142.9607970241718
 20
153.3837100449538
 30
0.0
 11
143.460797024172
 21
153.3837100449538
 31
0.0
  0
LINE
  5
199B
330
16CC
100
AcDbEntity
  8
0
100
AcDbLine
 10
143.3007970241719
 20
153.7237620449537
 30
0.0
 11
143.3007970241719
 21
153.5436580449534
 31
0.0
  0
LINE
  5
199C
330
16CC
100
AcDbEntity
  8
0
100
AcDbLine
 10
143.1207970241719
 20
153.7237620449537
 30
0.0
 11
143.1207970241719
 21
153.5436580449534
 31
0.0
  0
LINE
  5
199D
330
16CC
100
AcDbEntity
  8
0
100
AcDbLine
 10
143.460797024172
 20
153.3837100449538
 30
0.0
 11
143.460797024172
 21
153.8837100449538
 31
0.0
  0
LINE
  5
199E
330
16CC
100
AcDbEntity
  8
0
100
AcDbLine
 10
142.9607970241718
 20
153.8837100449538
 30
0.0
 11
142.9607970241718
 21
153.3837100449538
 31
0.0
  0
LINE
  5
199F
330
16CC
100
AcDbEntity
  8
0
100
AcDbLine
 10
141.460797024172
 20
155.3837100449538
 30
0.0
 11
141.460797024172
 21
155.8837100449538
 31
0.0
  0
LINE
  5
19A0
330
16CC
100
AcDbEntity
  8
0
100
AcDbLine
 10
140.9607970241719
 20
155.8837100449538
 30
0.0
 11
140.9607970241719
 21
155.3837100449538
 31
0.0
  0
LINE
  5
19A1
330
16CC
100
AcDbEntity
  8
0
100
AcDbLine
 10
140.9607970241719
 20
155.3837100449538
 30
0.0
 11
141.460797024172
 21
155.3837100449538
 31
0.0
  0
LINE
  5
19A2
330
16CC
100
AcDbEntity
  8
0
100
AcDbLine
 10
141.300797024172
 20
155.7237620449537
 30
0.0
 11
141.210797024172
 21
155.7237620449537
 31
0.0
  0
LINE
  5
19A3
330
16CC
100
AcDbEntity
  8
0
100
AcDbLine
 10
141.1207970241719
 20
155.7237620449537
 30
0.0
 11
141.210797024172
 21
155.7237620449537
 31
0.0
  0
LINE
  5
19A4
330
16CC
100
AcDbEntity
  8
0
100
AcDbLine
 10
140.9607970241719
 20
155.8837100449538
 30
0.0
 11
141.460797024172
 21
155.8837100449538
 31
0.0
  0
LINE
  5
19A5
330
16CC
100
AcDbEntity
  8
0
100
AcDbLine
 10
141.300797024172
 20
155.5436580449534
 30
0.0
 11
141.210797024172
 21
155.5436580449534
 31
0.0
  0
LINE
  5
19A6
330
16CC
100
AcDbEntity
  8
0
100
AcDbLine
 10
141.300797024172
 20
155.5436580449534
 30
0.0
 11
141.210797024172
 21
155.5436580449534
 31
0.0
  0
LINE
  5
19A7
330
16CC
100
AcDbEntity
  8
0
100
AcDbLine
 10
141.1207970241719
 20
155.5436580449534
 30
0.0
 11
141.210797024172
 21
155.5436580449534
 31
0.0
  0
LINE
  5
19A8
330
16CC
100
AcDbEntity
  8
0
100
AcDbLine
 10
141.1207970241719
 20
155.5436580449534
 30
0.0
 11
141.210797024172
 21
155.5436580449534
 31
0.0
  0
LINE
  5
19A9
330
16CC
100
AcDbEntity
  8
0
100
AcDbLine
 10
141.300797024172
 20
155.7237620449537
 30
0.0
 11
141.300797024172
 21
155.5436580449534
 31
0.0
  0
LINE
  5
19AA
330
16CC
100
AcDbEntity
  8
0
100
AcDbLine
 10
141.1207970241719
 20
155.7237620449537
 30
0.0
 11
141.1207970241719
 21
155.5436580449534
 31
0.0
  0
LINE
  5
19AB
330
16CC
100
AcDbEntity
  8
0
100
AcDbLine
 10
141.460797024172
 20
157.3837100449537
 30
0.0
 11
141.460797024172
 21
157.8837100449538
 31
0.0
  0
LINE
  5
19AC
330
16CC
100
AcDbEntity
  8
0
100
AcDbLine
 10
140.9607970241719
 20
157.8837100449538
 30
0.0
 11
140.9607970241719
 21
157.3837100449537
 31
0.0
  0
LINE
  5
19AD
330
16CC
100
AcDbEntity
  8
0
100
AcDbLine
 10
140.9607970241719
 20
157.3837100449537
 30
0.0
 11
141.460797024172
 21
157.3837100449537
 31
0.0
  0
LINE
  5
19AE
330
16CC
100
AcDbEntity
  8
0
100
AcDbLine
 10
141.300797024172
 20
157.7237620449537
 30
0.0
 11
141.210797024172
 21
157.7237620449537
 31
0.0
  0
LINE
  5
19AF
330
16CC
100
AcDbEntity
  8
0
100
AcDbLine
 10
141.1207970241719
 20
157.7237620449537
 30
0.0
 11
141.210797024172
 21
157.7237620449537
 31
0.0
  0
LINE
  5
19B0
330
16CC
100
AcDbEntity
  8
0
100
AcDbLine
 10
140.9607970241719
 20
157.8837100449538
 30
0.0
 11
141.460797024172
 21
157.8837100449538
 31
0.0
  0
LINE
  5
19B1
330
16CC
100
AcDbEntity
  8
0
100
AcDbLine
 10
141.300797024172
 20
157.5436580449534
 30
0.0
 11
141.210797024172
 21
157.5436580449534
 31
0.0
  0
LINE
  5
19B2
330
16CC
100
AcDbEntity
  8
0
100
AcDbLine
 10
141.300797024172
 20
157.5436580449534
 30
0.0
 11
141.210797024172
 21
157.5436580449534
 31
0.0
  0
LINE
  5
19B3
330
16CC
100
AcDbEntity
  8
0
100
AcDbLine
 10
141.1207970241719
 20
157.5436580449534
 30
0.0
 11
141.210797024172
 21
157.5436580449534
 31
0.0
  0
LINE
  5
19B4
330
16CC
100
AcDbEntity
  8
0
100
AcDbLine
 10
141.1207970241719
 20
157.5436580449534
 30
0.0
 11
141.210797024172
 21
157.5436580449534
 31
0.0
  0
LINE
  5
19B5
330
16CC
100
AcDbEntity
  8
0
100
AcDbLine
 10
141.300797024172
 20
157.7237620449537
 30
0.0
 11
141.300797024172
 21
157.5436580449534
 31
0.0
  0
LINE
  5
19B6
330
16CC
100
AcDbEntity
  8
0
100
AcDbLine
 10
141.1207970241719
 20
157.7237620449537
 30
0.0
 11
141.1207970241719
 21
157.5436580449534
 31
0.0
  0
LINE
  5
19B7
330
16CC
100
AcDbEntity
  8
0
100
AcDbLine
 10
143.460797024172
 20
155.3837100449538
 30
0.0
 11
143.460797024172
 21
155.8837100449538
 31
0.0
  0
LINE
  5
19B8
330
16CC
100
AcDbEntity
  8
0
100
AcDbLine
 10
142.9607970241718
 20
155.8837100449538
 30
0.0
 11
142.9607970241718
 21
155.3837100449538
 31
0.0
  0
LINE
  5
19B9
330
16CC
100
AcDbEntity
  8
0
100
AcDbLine
 10
142.9607970241718
 20
155.3837100449538
 30
0.0
 11
143.460797024172
 21
155.3837100449538
 31
0.0
  0
LINE
  5
19BA
330
16CC
100
AcDbEntity
  8
0
100
AcDbLine
 10
143.1207970241719
 20
155.7237620449537
 30
0.0
 11
143.2107970241719
 21
155.7237620449537
 31
0.0
  0
LINE
  5
19BB
330
16CC
100
AcDbEntity
  8
0
100
AcDbLine
 10
143.3007970241719
 20
155.7237620449537
 30
0.0
 11
143.2107970241719
 21
155.7237620449537
 31
0.0
  0
LINE
  5
19BC
330
16CC
100
AcDbEntity
  8
0
100
AcDbLine
 10
142.9607970241718
 20
155.8837100449538
 30
0.0
 11
143.460797024172
 21
155.8837100449538
 31
0.0
  0
LINE
  5
19BD
330
16CC
100
AcDbEntity
  8
0
100
AcDbLine
 10
143.1207970241719
 20
155.5436580449534
 30
0.0
 11
143.2107970241719
 21
155.5436580449534
 31
0.0
  0
LINE
  5
19BE
330
16CC
100
AcDbEntity
  8
0
100
AcDbLine
 10
143.1207970241719
 20
155.5436580449534
 30
0.0
 11
143.2107970241719
 21
155.5436580449534
 31
0.0
  0
LINE
  5
19BF
330
16CC
100
AcDbEntity
  8
0
100
AcDbLine
 10
143.3007970241719
 20
155.5436580449534
 30
0.0
 11
143.2107970241719
 21
155.5436580449534
 31
0.0
  0
LINE
  5
19C0
330
16CC
100
AcDbEntity
  8
0
100
AcDbLine
 10
143.3007970241719
 20
155.5436580449534
 30
0.0
 11
143.2107970241719
 21
155.5436580449534
 31
0.0
  0
LINE
  5
19C1
330
16CC
100
AcDbEntity
  8
0
100
AcDbLine
 10
143.1207970241719
 20
155.7237620449537
 30
0.0
 11
143.1207970241719
 21
155.5436580449534
 31
0.0
  0
LINE
  5
19C2
330
16CC
100
AcDbEntity
  8
0
100
AcDbLine
 10
143.3007970241719
 20
155.7237620449537
 30
0.0
 11
143.3007970241719
 21
155.5436580449534
 31
0.0
  0
LINE
  5
19C3
330
16CC
100
AcDbEntity
  8
0
100
AcDbLine
 10
143.460797024172
 20
157.3837100449537
 30
0.0
 11
143.460797024172
 21
157.8837100449538
 31
0.0
  0
LINE
  5
19C4
330
16CC
100
AcDbEntity
  8
0
100
AcDbLine
 10
142.9607970241718
 20
157.8837100449538
 30
0.0
 11
142.9607970241718
 21
157.3837100449537
 31
0.0
  0
LINE
  5
19C5
330
16CC
100
AcDbEntity
  8
0
100
AcDbLine
 10
142.9607970241718
 20
157.3837100449537
 30
0.0
 11
143.460797024172
 21
157.3837100449537
 31
0.0
  0
LINE
  5
19C6
330
16CC
100
AcDbEntity
  8
0
100
AcDbLine
 10
143.1207970241719
 20
157.7237620449537
 30
0.0
 11
143.2107970241719
 21
157.7237620449537
 31
0.0
  0
LINE
  5
19C7
330
16CC
100
AcDbEntity
  8
0
100
AcDbLine
 10
143.3007970241719
 20
157.7237620449537
 30
0.0
 11
143.2107970241719
 21
157.7237620449537
 31
0.0
  0
LINE
  5
19C8
330
16CC
100
AcDbEntity
  8
0
100
AcDbLine
 10
142.9607970241718
 20
157.8837100449538
 30
0.0
 11
143.460797024172
 21
157.8837100449538
 31
0.0
  0
LINE
  5
19C9
330
16CC
100
AcDbEntity
  8
0
100
AcDbLine
 10
143.1207970241719
 20
157.5436580449534
 30
0.0
 11
143.2107970241719
 21
157.5436580449534
 31
0.0
  0
LINE
  5
19CA
330
16CC
100
AcDbEntity
  8
0
100
AcDbLine
 10
143.1207970241719
 20
157.5436580449534
 30
0.0
 11
143.2107970241719
 21
157.5436580449534
 31
0.0
  0
LINE
  5
19CB
330
16CC
100
AcDbEntity
  8
0
100
AcDbLine
 10
143.3007970241719
 20
157.5436580449534
 30
0.0
 11
143.2107970241719
 21
157.5436580449534
 31
0.0
  0
LINE
  5
19CC
330
16CC
100
AcDbEntity
  8
0
100
AcDbLine
 10
143.3007970241719
 20
157.5436580449534
 30
0.0
 11
143.2107970241719
 21
157.5436580449534
 31
0.0
  0
LINE
  5
19CD
330
16CC
100
AcDbEntity
  8
0
100
AcDbLine
 10
143.1207970241719
 20
157.7237620449537
 30
0.0
 11
143.1207970241719
 21
157.5436580449534
 31
0.0
  0
LINE
  5
19CE
330
16CC
100
AcDbEntity
  8
0
100
AcDbLine
 10
143.3007970241719
 20
157.7237620449537
 30
0.0
 11
143.3007970241719
 21
157.5436580449534
 31
0.0
  0
LINE
  5
19CF
330
16CC
100
AcDbEntity
  8
0
100
AcDbLine
 10
140.9607970241719
 20
165.8837100449538
 30
0.0
 11
140.9607970241719
 21
165.3837100449537
 31
0.0
  0
LINE
  5
19D0
330
16CC
100
AcDbEntity
  8
0
100
AcDbLine
 10
141.460797024172
 20
165.3837100449537
 30
0.0
 11
141.460797024172
 21
165.8837100449538
 31
0.0
  0
LINE
  5
19D1
330
16CC
100
AcDbEntity
  8
0
100
AcDbLine
 10
141.1207970241719
 20
165.7237620449537
 30
0.0
 11
141.1207970241719
 21
165.5436580449534
 31
0.0
  0
LINE
  5
19D2
330
16CC
100
AcDbEntity
  8
0
100
AcDbLine
 10
141.1207970241719
 20
165.5436580449534
 30
0.0
 11
141.210797024172
 21
165.5436580449534
 31
0.0
  0
LINE
  5
19D3
330
16CC
100
AcDbEntity
  8
0
100
AcDbLine
 10
141.1207970241719
 20
165.5436580449534
 30
0.0
 11
141.210797024172
 21
165.5436580449534
 31
0.0
  0
LINE
  5
19D4
330
16CC
100
AcDbEntity
  8
0
100
AcDbLine
 10
141.1207970241719
 20
165.7237620449537
 30
0.0
 11
141.210797024172
 21
165.7237620449537
 31
0.0
  0
LINE
  5
19D5
330
16CC
100
AcDbEntity
  8
0
100
AcDbLine
 10
141.300797024172
 20
165.7237620449537
 30
0.0
 11
141.210797024172
 21
165.7237620449537
 31
0.0
  0
LINE
  5
19D6
330
16CC
100
AcDbEntity
  8
0
100
AcDbLine
 10
141.300797024172
 20
165.5436580449534
 30
0.0
 11
141.210797024172
 21
165.5436580449534
 31
0.0
  0
LINE
  5
19D7
330
16CC
100
AcDbEntity
  8
0
100
AcDbLine
 10
141.300797024172
 20
165.5436580449534
 30
0.0
 11
141.210797024172
 21
165.5436580449534
 31
0.0
  0
LINE
  5
19D8
330
16CC
100
AcDbEntity
  8
0
100
AcDbLine
 10
141.300797024172
 20
165.7237620449537
 30
0.0
 11
141.300797024172
 21
165.5436580449534
 31
0.0
  0
LINE
  5
19D9
330
16CC
100
AcDbEntity
  8
0
100
AcDbLine
 10
140.9607970241719
 20
165.8837100449538
 30
0.0
 11
141.460797024172
 21
165.8837100449538
 31
0.0
  0
LINE
  5
19DA
330
16CC
100
AcDbEntity
  8
0
100
AcDbLine
 10
140.9607970241719
 20
165.3837100449537
 30
0.0
 11
141.460797024172
 21
165.3837100449537
 31
0.0
  0
LINE
  5
19DB
330
16CC
100
AcDbEntity
  8
0
100
AcDbLine
 10
143.3007970241719
 20
165.7237620449537
 30
0.0
 11
143.3007970241719
 21
165.5436580449534
 31
0.0
  0
LINE
  5
19DC
330
16CC
100
AcDbEntity
  8
0
100
AcDbLine
 10
143.3007970241719
 20
165.5436580449534
 30
0.0
 11
143.2107970241719
 21
165.5436580449534
 31
0.0
  0
LINE
  5
19DD
330
16CC
100
AcDbEntity
  8
0
100
AcDbLine
 10
143.3007970241719
 20
165.5436580449534
 30
0.0
 11
143.2107970241719
 21
165.5436580449534
 31
0.0
  0
LINE
  5
19DE
330
16CC
100
AcDbEntity
  8
0
100
AcDbLine
 10
143.3007970241719
 20
165.7237620449537
 30
0.0
 11
143.2107970241719
 21
165.7237620449537
 31
0.0
  0
LINE
  5
19DF
330
16CC
100
AcDbEntity
  8
0
100
AcDbLine
 10
143.1207970241719
 20
165.7237620449537
 30
0.0
 11
143.2107970241719
 21
165.7237620449537
 31
0.0
  0
LINE
  5
19E0
330
16CC
100
AcDbEntity
  8
0
100
AcDbLine
 10
143.1207970241719
 20
165.5436580449534
 30
0.0
 11
143.2107970241719
 21
165.5436580449534
 31
0.0
  0
LINE
  5
19E1
330
16CC
100
AcDbEntity
  8
0
100
AcDbLine
 10
143.1207970241719
 20
165.5436580449534
 30
0.0
 11
143.2107970241719
 21
165.5436580449534
 31
0.0
  0
LINE
  5
19E2
330
16CC
100
AcDbEntity
  8
0
100
AcDbLine
 10
143.1207970241719
 20
165.7237620449537
 30
0.0
 11
143.1207970241719
 21
165.5436580449534
 31
0.0
  0
LINE
  5
19E3
330
16CC
100
AcDbEntity
  8
0
100
AcDbLine
 10
143.460797024172
 20
165.3837100449537
 30
0.0
 11
143.460797024172
 21
165.8837100449538
 31
0.0
  0
LINE
  5
19E4
330
16CC
100
AcDbEntity
  8
0
100
AcDbLine
 10
142.9607970241718
 20
165.8837100449538
 30
0.0
 11
142.9607970241718
 21
165.3837100449537
 31
0.0
  0
LINE
  5
19E5
330
16CC
100
AcDbEntity
  8
0
100
AcDbLine
 10
142.9607970241718
 20
165.3837100449537
 30
0.0
 11
143.460797024172
 21
165.3837100449537
 31
0.0
  0
LINE
  5
19E6
330
16CC
100
AcDbEntity
  8
0
100
AcDbLine
 10
142.9607970241718
 20
165.8837100449538
 30
0.0
 11
143.460797024172
 21
165.8837100449538
 31
0.0
  0
LINE
  5
19E7
330
16CC
100
AcDbEntity
  8
0
100
AcDbLine
 10
139.210797024172
 20
170.8097230449538
 30
0.0
 11
139.210797024172
 21
150.4097230449539
 31
0.0
  0
LINE
  5
19E8
330
16CC
100
AcDbEntity
  8
0
100
AcDbLine
 10
139.7107970241719
 20
169.7536953859009
 30
0.0
 11
139.7107970241719
 21
151.8536953859008
 31
0.0
  0
LINE
  5
19E9
330
16CC
100
AcDbEntity
  8
0
100
AcDbLine
 10
144.7107970241719
 20
169.7536953859009
 30
0.0
 11
144.7107970241719
 21
151.8536953859008
 31
0.0
  0
LINE
  5
19EA
330
16CC
100
AcDbEntity
  8
0
100
AcDbLine
 10
137.555460024172
 20
179.1023840449536
 30
0.0
 11
136.193442024172
 21
179.1023840449536
 31
0.0
  0
LINE
  5
19EB
330
16CC
100
AcDbEntity
  8
0
100
AcDbLine
 10
136.193442024172
 20
177.6344290449537
 30
0.0
 11
137.555460024172
 21
177.6344290449537
 31
0.0
  0
LINE
  5
19EC
330
16CC
100
AcDbEntity
  8
0
100
AcDbLine
 10
137.555460024172
 20
178.6650290449536
 30
0.0
 11
136.574469024172
 21
178.6650290449536
 31
0.0
  0
LINE
  5
19ED
330
16CC
100
AcDbEntity
  8
0
100
AcDbLine
 10
136.574469024172
 20
178.0723010449538
 30
0.0
 11
137.555460024172
 21
178.0723010449538
 31
0.0
  0
LINE
  5
19EE
330
16CC
100
AcDbEntity
  8
0
100
AcDbLine
 10
137.555460024172
 20
177.2606360449536
 30
0.0
 11
136.193442024172
 21
177.2606360449536
 31
0.0
  0
LINE
  5
19EF
330
16CC
100
AcDbEntity
  8
0
100
AcDbLine
 10
136.193442024172
 20
175.7926810449534
 30
0.0
 11
137.555460024172
 21
175.7926810449534
 31
0.0
  0
LINE
  5
19F0
330
16CC
100
AcDbEntity
  8
0
100
AcDbLine
 10
137.555460024172
 20
176.8231090449539
 30
0.0
 11
136.574469024172
 21
176.8231090449539
 31
0.0
  0
LINE
  5
19F1
330
16CC
100
AcDbEntity
  8
0
100
AcDbLine
 10
136.574469024172
 20
176.2303800449539
 30
0.0
 11
137.555460024172
 21
176.2303800449539
 31
0.0
  0
LINE
  5
19F2
330
16CC
100
AcDbEntity
  8
0
100
AcDbLine
 10
137.555460024172
 20
180.9446490449535
 30
0.0
 11
136.193442024172
 21
180.9446490449535
 31
0.0
  0
LINE
  5
19F3
330
16CC
100
AcDbEntity
  8
0
100
AcDbLine
 10
136.193442024172
 20
179.4766940449538
 30
0.0
 11
137.555460024172
 21
179.4766940449538
 31
0.0
  0
LINE
  5
19F4
330
16CC
100
AcDbEntity
  8
0
100
AcDbLine
 10
137.555460024172
 20
180.5067770449535
 30
0.0
 11
136.574469024172
 21
180.5067770449535
 31
0.0
  0
LINE
  5
19F5
330
16CC
100
AcDbEntity
  8
0
100
AcDbLine
 10
136.574469024172
 20
179.9142210449539
 30
0.0
 11
137.555460024172
 21
179.9142210449539
 31
0.0
  0
LINE
  5
19F6
330
16CC
100
AcDbEntity
  8
0
100
AcDbLine
 10
136.193442024172
 20
179.1023840449536
 30
0.0
 11
136.193442024172
 21
177.6344290449537
 31
0.0
  0
LINE
  5
19F7
330
16CC
100
AcDbEntity
  8
0
100
AcDbLine
 10
136.574469024172
 20
178.6650290449536
 30
0.0
 11
136.574469024172
 21
178.0723010449538
 31
0.0
  0
LINE
  5
19F8
330
16CC
100
AcDbEntity
  8
0
100
AcDbLine
 10
136.193786024172
 20
177.6344290449537
 30
0.0
 11
136.574814024172
 21
178.0723010449538
 31
0.0
  0
LINE
  5
19F9
330
16CC
100
AcDbEntity
  8
0
100
AcDbLine
 10
136.193442024172
 20
177.2606360449536
 30
0.0
 11
136.193442024172
 21
175.7926810449534
 31
0.0
  0
LINE
  5
19FA
330
16CC
100
AcDbEntity
  8
0
100
AcDbLine
 10
136.574469024172
 20
176.8231090449539
 30
0.0
 11
136.574469024172
 21
176.2303800449539
 31
0.0
  0
LINE
  5
19FB
330
16CC
100
AcDbEntity
  8
0
100
AcDbLine
 10
136.193786024172
 20
175.7926810449534
 30
0.0
 11
136.574814024172
 21
176.2303800449539
 31
0.0
  0
LINE
  5
19FC
330
16CC
100
AcDbEntity
  8
0
100
AcDbLine
 10
136.193786024172
 20
177.2606360449536
 30
0.0
 11
136.574814024172
 21
176.8231090449539
 31
0.0
  0
LINE
  5
19FD
330
16CC
100
AcDbEntity
  8
0
100
AcDbLine
 10
136.193786024172
 20
179.1023840449536
 30
0.0
 11
136.574814024172
 21
178.6650290449536
 31
0.0
  0
LINE
  5
19FE
330
16CC
100
AcDbEntity
  8
0
100
AcDbLine
 10
136.193442024172
 20
180.9446490449535
 30
0.0
 11
136.193442024172
 21
179.4766940449538
 31
0.0
  0
LINE
  5
19FF
330
16CC
100
AcDbEntity
  8
0
100
AcDbLine
 10
136.574469024172
 20
180.5067770449535
 30
0.0
 11
136.574469024172
 21
179.9142210449539
 31
0.0
  0
LINE
  5
1A00
330
16CC
100
AcDbEntity
  8
0
100
AcDbLine
 10
136.193786024172
 20
179.4766940449538
 30
0.0
 11
136.574814024172
 21
179.9142210449539
 31
0.0
  0
LINE
  5
1A01
330
16CC
100
AcDbEntity
  8
0
100
AcDbLine
 10
136.193786024172
 20
180.9443040449535
 30
0.0
 11
136.574814024172
 21
180.5067770449535
 31
0.0
  0
LINE
  5
1A02
330
16CC
100
AcDbEntity
  8
0
100
AcDbLine
 10
135.572463024172
 20
177.5992890449539
 30
0.0
 11
135.572463024172
 21
179.0670720449535
 31
0.0
  0
LINE
  5
1A03
330
16CC
100
AcDbEntity
  8
0
100
AcDbLine
 10
135.572463024172
 20
179.0670720449535
 30
0.0
 11
133.6530280241719
 21
179.0670720449535
 31
0.0
  0
LINE
  5
1A04
330
16CC
100
AcDbEntity
  8
0
100
AcDbLine
 10
133.6530280241719
 20
179.0670720449535
 30
0.0
 11
133.6530280241719
 21
177.5992890449539
 31
0.0
  0
LINE
  5
1A05
330
16CC
100
AcDbEntity
  8
0
100
AcDbLine
 10
133.6530280241719
 20
177.5992890449539
 30
0.0
 11
135.572463024172
 21
177.5992890449539
 31
0.0
  0
LINE
  5
1A06
330
16CC
100
AcDbEntity
  8
0
100
AcDbLine
 10
135.572463024172
 20
177.5992890449539
 30
0.0
 11
135.572463024172
 21
179.0670720449535
 31
0.0
  0
LINE
  5
1A07
330
16CC
100
AcDbEntity
  8
0
100
AcDbLine
 10
135.572463024172
 20
179.0670720449535
 30
0.0
 11
133.6530280241719
 21
179.0670720449535
 31
0.0
  0
LINE
  5
1A08
330
16CC
100
AcDbEntity
  8
0
100
AcDbLine
 10
133.6530280241719
 20
179.0670720449535
 30
0.0
 11
133.6530280241719
 21
177.5992890449539
 31
0.0
  0
LINE
  5
1A09
330
16CC
100
AcDbEntity
  8
0
100
AcDbLine
 10
133.6530280241719
 20
177.5992890449539
 30
0.0
 11
135.572463024172
 21
177.5992890449539
 31
0.0
  0
LINE
  5
1A0A
330
16CC
100
AcDbEntity
  8
0
100
AcDbLine
 10
137.555460024172
 20
177.6344290449537
 30
0.0
 11
137.555460024172
 21
179.1023840449536
 31
0.0
  0
LINE
  5
1A0B
330
16CC
100
AcDbEntity
  8
0
100
AcDbLine
 10
137.555460024172
 20
178.0723010449538
 30
0.0
 11
137.555460024172
 21
178.6650290449536
 31
0.0
  0
LINE
  5
1A0C
330
16CC
100
AcDbEntity
  8
0
100
AcDbLine
 10
137.555460024172
 20
175.7926810449534
 30
0.0
 11
137.555460024172
 21
177.2606360449536
 31
0.0
  0
LINE
  5
1A0D
330
16CC
100
AcDbEntity
  8
0
100
AcDbLine
 10
137.555460024172
 20
176.2303800449539
 30
0.0
 11
137.555460024172
 21
176.8231090449539
 31
0.0
  0
LINE
  5
1A0E
330
16CC
100
AcDbEntity
  8
0
100
AcDbLine
 10
137.555460024172
 20
179.4766940449538
 30
0.0
 11
137.555460024172
 21
180.9446490449535
 31
0.0
  0
LINE
  5
1A0F
330
16CC
100
AcDbEntity
  8
0
100
AcDbLine
 10
137.555460024172
 20
179.9142210449539
 30
0.0
 11
137.555460024172
 21
180.5067770449535
 31
0.0
  0
CIRCLE
  5
1A10
330
16CC
100
AcDbEntity
  8
0
100
AcDbCircle
 10
138.3105390241718
 20
178.3334390449539
 30
0.0
 40
4.448565999999998
  0
CIRCLE
  5
1A11
330
16CC
100
AcDbEntity
  8
0
100
AcDbCircle
 10
138.3107970241719
 20
178.3334390449539
 30
0.0
 40
5.029838999999999
  0
CIRCLE
  5
1A12
330
16CC
100
AcDbEntity
  8
0
100
AcDbCircle
 10
138.3107970241719
 20
178.3334390449539
 30
0.0
 40
5.029838999999999
  0
LINE
  5
1A13
330
16CC
100
AcDbEntity
  8
0
100
AcDbLine
 10
137.210797024172
 20
150.4097230449539
 30
0.0
 11
139.210797024172
 21
150.4097230449539
 31
0.0
  0
LINE
  5
1A14
330
16CC
100
AcDbEntity
  8
0
100
AcDbLine
 10
137.7107970241719
 20
149.9297220449536
 30
0.0
 11
144.7107970241719
 21
149.9297220449536
 31
0.0
  0
LINE
  5
1A15
330
16CC
100
AcDbEntity
  8
0
100
AcDbLine
 10
131.410797024172
 20
170.8097230449538
 30
0.0
 11
139.210797024172
 21
170.8097230449538
 31
0.0
  0
LINE
  5
1A16
330
16CC
100
AcDbEntity
  8
0
100
AcDbLine
 10
131.910797024172
 20
171.3337100449536
 30
0.0
 11
144.7107970241719
 21
171.3337100449536
 31
0.0
  0
LINE
  5
1A17
330
16CC
100
AcDbEntity
  8
0
100
AcDbLine
 10
140.1316320241718
 20
145.9297220449536
 30
0.0
 11
142.096554024172
 21
145.9297220449536
 31
0.0
  0
LINE
  5
1A18
330
16CC
100
AcDbEntity
  8
0
100
AcDbLine
 10
139.4107970241725
 20
135.5797220449532
 30
0.0
 11
139.4107970241725
 21
137.5797220449532
 31
0.0
  0
LINE
  5
1A19
330
16CC
100
AcDbEntity
  8
0
100
AcDbLine
 10
139.4107970241725
 20
137.5797220449532
 30
0.0
 11
139.9107970241727
 21
137.5797220449532
 31
0.0
  0
LINE
  5
1A1A
330
16CC
100
AcDbEntity
  8
0
100
AcDbLine
 10
139.4107970241725
 20
135.5797220449532
 30
0.0
 11
139.9107970241727
 21
135.5797220449532
 31
0.0
  0
LINE
  5
1A1B
330
16CC
100
AcDbEntity
  8
0
100
AcDbLine
 10
139.9107970241727
 20
135.5797220449532
 30
0.0
 11
139.9107970241727
 21
137.5797220449532
 31
0.0
  0
LINE
  5
1A1C
330
16CC
100
AcDbEntity
  8
0
100
AcDbLine
 10
139.4107970241725
 20
138.0797220449532
 30
0.0
 11
139.4107970241725
 21
140.0797220449532
 31
0.0
  0
LINE
  5
1A1D
330
16CC
100
AcDbEntity
  8
0
100
AcDbLine
 10
139.4107970241725
 20
140.0797220449532
 30
0.0
 11
139.9107970241727
 21
140.0797220449532
 31
0.0
  0
LINE
  5
1A1E
330
16CC
100
AcDbEntity
  8
0
100
AcDbLine
 10
139.4107970241725
 20
138.0797220449532
 30
0.0
 11
139.9107970241727
 21
138.0797220449532
 31
0.0
  0
LINE
  5
1A1F
330
16CC
100
AcDbEntity
  8
0
100
AcDbLine
 10
139.9107970241727
 20
138.0797220449532
 30
0.0
 11
139.9107970241727
 21
140.0797220449532
 31
0.0
  0
LINE
  5
1A20
330
16CC
100
AcDbEntity
  8
0
100
AcDbLine
 10
139.9107970241727
 20
140.579722044953
 30
0.0
 11
139.9107970241727
 21
142.579722044953
 31
0.0
  0
LINE
  5
1A21
330
16CC
100
AcDbEntity
  8
0
100
AcDbLine
 10
139.4107970241725
 20
140.579722044953
 30
0.0
 11
139.9107970241727
 21
140.579722044953
 31
0.0
  0
LINE
  5
1A22
330
16CC
100
AcDbEntity
  8
0
100
AcDbLine
 10
139.4107970241725
 20
142.579722044953
 30
0.0
 11
139.9107970241727
 21
142.579722044953
 31
0.0
  0
LINE
  5
1A23
330
16CC
100
AcDbEntity
  8
0
100
AcDbLine
 10
139.4107970241725
 20
140.579722044953
 30
0.0
 11
139.4107970241725
 21
142.579722044953
 31
0.0
  0
LINE
  5
1A24
330
16CC
100
AcDbEntity
  8
0
100
AcDbLine
 10
143.1107970241734
 20
143.779722044952
 30
0.0
 11
143.1107970241734
 21
134.3797220449524
 31
0.0
  0
ARC
  5
1A25
330
16CC
100
AcDbEntity
  8
0
100
AcDbCircle
 10
142.710797024172
 20
143.779722044952
 30
0.0
 40
0.4
100
AcDbArc
 50
0.0
 51
89.99999999999998
  0
ARC
  5
1A26
330
16CC
100
AcDbEntity
  8
0
100
AcDbCircle
 10
142.710797024172
 20
134.3797220449524
 30
0.0
 40
0.4
100
AcDbArc
 50
270.0
 51
0.0
  0
LINE
  5
1A27
330
16CC
100
AcDbEntity
  8
0
100
AcDbLine
 10
142.710797024172
 20
143.2797220449538
 30
0.0
 11
142.710797024172
 21
134.8797220449525
 31
0.0
  0
ARC
  5
1A28
330
16CC
100
AcDbEntity
  8
0
100
AcDbCircle
 10
142.3107970241704
 20
143.2797220449538
 30
0.0
 40
0.4
100
AcDbArc
 50
0.0
 51
89.99999999999998
  0
ARC
  5
1A29
330
16CC
100
AcDbEntity
  8
0
100
AcDbCircle
 10
142.3107970241704
 20
134.8797220449525
 30
0.0
 40
0.4
100
AcDbArc
 50
270.0
 51
0.0
  0
LINE
  5
1A2A
330
16CC
100
AcDbEntity
  8
0
100
AcDbLine
 10
144.7107970241719
 20
144.1797220449515
 30
0.0
 11
142.710797024172
 21
144.1797220449515
 31
0.0
  0
LINE
  5
1A2B
330
16CC
100
AcDbEntity
  8
0
100
AcDbLine
 10
144.7107970241719
 20
133.9797220449526
 30
0.0
 11
142.710797024172
 21
133.9797220449526
 31
0.0
  0
LINE
  5
1A2C
330
16CC
100
AcDbEntity
  8
0
100
AcDbLine
 10
143.1107970241734
 20
140.6306695444529
 30
0.0
 11
144.5578013748906
 21
140.6306695444529
 31
0.0
  0
LINE
  5
1A2D
330
16CC
100
AcDbEntity
  8
0
100
AcDbLine
 10
143.1107970241734
 20
137.4306695444519
 30
0.0
 11
144.5578013748906
 21
137.4306695444519
 31
0.0
  0
LINE
  5
1A2E
330
16CC
100
AcDbEntity
  8
0
100
AcDbLine
 10
144.5578013748906
 20
137.4306695444519
 30
0.0
 11
144.7107970241719
 21
137.2776738951708
 31
0.0
  0
LINE
  5
1A2F
330
16CC
100
AcDbEntity
  8
0
100
AcDbLine
 10
144.5578013748906
 20
140.6306695444529
 30
0.0
 11
144.7107970241719
 21
140.783665193734
 31
0.0
  0
LINE
  5
1A30
330
16CC
100
AcDbEntity
  8
0
100
AcDbLine
 10
144.7107970241719
 20
133.9797220449526
 30
0.0
 11
144.7107970241719
 21
144.1797220449515
 31
0.0
  0
LINE
  5
1A31
330
16CC
100
AcDbEntity
  8
0
100
AcDbLine
 10
139.3407970241719
 20
130.7297220449537
 30
0.0
 11
139.3407970241719
 21
126.9197220449534
 31
0.0
  0
LINE
  5
1A32
330
16CC
100
AcDbEntity
  8
0
100
AcDbLine
 10
144.2107970241719
 20
124.5197220449537
 30
0.0
 11
144.7107970241719
 21
124.5197220449537
 31
0.0
  0
LINE
  5
1A33
330
16CC
100
AcDbEntity
  8
0
100
AcDbLine
 10
144.2107970241719
 20
128.3297220449536
 30
0.0
 11
144.7107970241719
 21
128.3297220449536
 31
0.0
  0
LINE
  5
1A34
330
16CC
100
AcDbEntity
  8
0
100
AcDbLine
 10
144.2107970241719
 20
127.0297220449537
 30
0.0
 11
144.7107970241719
 21
127.0297220449537
 31
0.0
  0
LINE
  5
1A35
330
16CC
100
AcDbEntity
  8
0
100
AcDbLine
 10
144.7107970241719
 20
128.3297220449536
 30
0.0
 11
144.7107970241719
 21
127.9297220449534
 31
0.0
  0
LINE
  5
1A36
330
16CC
100
AcDbEntity
  8
0
100
AcDbLine
 10
144.7107970241719
 20
127.9297220449534
 30
0.0
 11
144.7107970241719
 21
127.4297220449534
 31
0.0
  0
LINE
  5
1A37
330
16CC
100
AcDbEntity
  8
0
100
AcDbLine
 10
144.7107970241719
 20
127.4297220449534
 30
0.0
 11
144.7107970241719
 21
127.0297220449537
 31
0.0
  0
LINE
  5
1A38
330
16CC
100
AcDbEntity
  8
0
100
AcDbLine
 10
144.2107970241719
 20
128.3297220449536
 30
0.0
 11
144.2107970241719
 21
127.0297220449537
 31
0.0
  0
LINE
  5
1A39
330
16CC
100
AcDbEntity
  8
0
100
AcDbLine
 10
144.2107970241719
 20
127.0297220449537
 30
0.0
 11
144.2107970241719
 21
126.9197220449534
 31
0.0
  0
LINE
  5
1A3A
330
16CC
100
AcDbEntity
  8
0
100
AcDbLine
 10
144.7107970241719
 20
124.1197220449535
 30
0.0
 11
144.7107970241719
 21
123.6197220449535
 31
0.0
  0
LINE
  5
1A3B
330
16CC
100
AcDbEntity
  8
0
100
AcDbLine
 10
144.2107970241719
 20
123.2197220449537
 30
0.0
 11
144.7107970241719
 21
123.2197220449537
 31
0.0
  0
LINE
  5
1A3C
330
16CC
100
AcDbEntity
  8
0
100
AcDbLine
 10
144.7107970241719
 20
123.6197220449535
 30
0.0
 11
144.7107970241719
 21
123.2197220449537
 31
0.0
  0
LINE
  5
1A3D
330
16CC
100
AcDbEntity
  8
0
100
AcDbLine
 10
144.2107970241719
 20
123.2197220449537
 30
0.0
 11
144.2107970241719
 21
123.1097220449536
 31
0.0
  0
LINE
  5
1A3E
330
16CC
100
AcDbEntity
  8
0
100
AcDbLine
 10
144.7107970241719
 20
124.5197220449537
 30
0.0
 11
144.7107970241719
 21
124.1197220449535
 31
0.0
  0
LINE
  5
1A3F
330
16CC
100
AcDbEntity
  8
0
100
AcDbLine
 10
141.3107970241719
 20
126.9197220449534
 30
0.0
 11
143.7107970241719
 21
126.9197220449534
 31
0.0
  0
LINE
  5
1A40
330
16CC
100
AcDbEntity
  8
0
100
AcDbLine
 10
139.3407970241719
 20
126.9197220449534
 30
0.0
 11
143.7107970241719
 21
126.9197220449534
 31
0.0
  0
LINE
  5
1A41
330
16CC
100
AcDbEntity
  8
0
100
AcDbLine
 10
141.3107970241719
 20
123.1097220449536
 30
0.0
 11
143.7107970241719
 21
123.1097220449536
 31
0.0
  0
LINE
  5
1A42
330
16CC
100
AcDbEntity
  8
0
100
AcDbLine
 10
139.3407970241719
 20
123.1097220449536
 30
0.0
 11
143.7107970241719
 21
123.1097220449536
 31
0.0
  0
LINE
  5
1A43
330
16CC
100
AcDbEntity
  8
0
100
AcDbLine
 10
138.380797024172
 20
126.9197220449534
 30
0.0
 11
139.140797024172
 21
126.9197220449534
 31
0.0
  0
LINE
  5
1A44
330
16CC
100
AcDbEntity
  8
0
100
AcDbLine
 10
139.3407970241719
 20
126.9197220449534
 30
0.0
 11
139.140797024172
 21
126.9197220449534
 31
0.0
  0
LINE
  5
1A45
330
16CC
100
AcDbEntity
  8
0
100
AcDbLine
 10
139.910797024172
 20
126.9197220449534
 30
0.0
 11
141.3107970241719
 21
126.9197220449534
 31
0.0
  0
LINE
  5
1A46
330
16CC
100
AcDbEntity
  8
0
100
AcDbLine
 10
139.7807970241718
 20
126.9197220449534
 30
0.0
 11
139.910797024172
 21
126.9197220449534
 31
0.0
  0
LINE
  5
1A47
330
16CC
100
AcDbEntity
  8
0
100
AcDbLine
 10
139.3407970241719
 20
126.9197220449534
 30
0.0
 11
139.7807970241718
 21
126.9197220449534
 31
0.0
  0
LINE
  5
1A48
330
16CC
100
AcDbEntity
  8
0
100
AcDbLine
 10
139.3407970241719
 20
126.9197220449534
 30
0.0
 11
139.140797024172
 21
126.9197220449534
 31
0.0
  0
LINE
  5
1A49
330
16CC
100
AcDbEntity
  8
0
100
AcDbLine
 10
138.380797024172
 20
123.1097220449536
 30
0.0
 11
139.140797024172
 21
123.1097220449536
 31
0.0
  0
LINE
  5
1A4A
330
16CC
100
AcDbEntity
  8
0
100
AcDbLine
 10
139.3407970241719
 20
123.1097220449536
 30
0.0
 11
139.7807970241717
 21
123.1097220449536
 31
0.0
  0
LINE
  5
1A4B
330
16CC
100
AcDbEntity
  8
0
100
AcDbLine
 10
139.7807970241717
 20
123.1097220449536
 30
0.0
 11
139.9107970241719
 21
123.1097220449536
 31
0.0
  0
LINE
  5
1A4C
330
16CC
100
AcDbEntity
  8
0
100
AcDbLine
 10
139.9107970241719
 20
123.1097220449536
 30
0.0
 11
141.3107970241719
 21
123.1097220449536
 31
0.0
  0
LINE
  5
1A4D
330
16CC
100
AcDbEntity
  8
0
100
AcDbLine
 10
139.3407970241719
 20
123.1097220449536
 30
0.0
 11
139.140797024172
 21
123.1097220449536
 31
0.0
  0
LINE
  5
1A4E
330
16CC
100
AcDbEntity
  8
0
100
AcDbLine
 10
139.3407970241719
 20
123.1097220449536
 30
0.0
 11
139.140797024172
 21
123.1097220449536
 31
0.0
  0
LINE
  5
1A4F
330
16CC
100
AcDbEntity
  8
0
100
AcDbLine
 10
139.3407970241719
 20
126.9197220449534
 30
0.0
 11
139.3407970241719
 21
123.1097220449536
 31
0.0
  0
LINE
  5
1A50
330
16CC
100
AcDbEntity
  8
0
100
AcDbLine
 10
144.2107970241719
 20
126.9197220449534
 30
0.0
 11
143.7107970241719
 21
126.9197220449534
 31
0.0
  0
LINE
  5
1A51
330
16CC
100
AcDbEntity
  8
0
100
AcDbLine
 10
144.2107970241719
 20
126.9197220449534
 30
0.0
 11
143.7107970241719
 21
126.9197220449534
 31
0.0
  0
LINE
  5
1A52
330
16CC
100
AcDbEntity
  8
0
100
AcDbLine
 10
144.2107970241719
 20
123.1097220449536
 30
0.0
 11
143.7107970241719
 21
123.1097220449536
 31
0.0
  0
LINE
  5
1A53
330
16CC
100
AcDbEntity
  8
0
100
AcDbLine
 10
144.2107970241719
 20
123.1097220449536
 30
0.0
 11
143.7107970241719
 21
123.1097220449536
 31
0.0
  0
LINE
  5
1A54
330
16CC
100
AcDbEntity
  8
0
100
AcDbLine
 10
144.2107970241719
 20
115.5997220449535
 30
0.0
 11
144.2107970241719
 21
115.4897220449536
 31
0.0
  0
LINE
  5
1A55
330
16CC
100
AcDbEntity
  8
0
100
AcDbLine
 10
144.7107970241719
 20
120.3097220449537
 30
0.0
 11
144.7107970241719
 21
119.8097220449537
 31
0.0
  0
LINE
  5
1A56
330
16CC
100
AcDbEntity
  8
0
100
AcDbLine
 10
144.2107970241719
 20
119.4097220449535
 30
0.0
 11
144.2107970241719
 21
119.2997220449537
 31
0.0
  0
LINE
  5
1A57
330
16CC
100
AcDbEntity
  8
0
100
AcDbLine
 10
144.7107970241719
 20
119.8097220449537
 30
0.0
 11
144.7107970241719
 21
119.4097220449535
 31
0.0
  0
LINE
  5
1A58
330
16CC
100
AcDbEntity
  8
0
100
AcDbLine
 10
144.2107970241719
 20
119.4097220449535
 30
0.0
 11
144.7107970241719
 21
119.4097220449535
 31
0.0
  0
LINE
  5
1A59
330
16CC
100
AcDbEntity
  8
0
100
AcDbLine
 10
144.2107970241719
 20
116.8997220449536
 30
0.0
 11
144.7107970241719
 21
116.8997220449536
 31
0.0
  0
LINE
  5
1A5A
330
16CC
100
AcDbEntity
  8
0
100
AcDbLine
 10
144.2107970241719
 20
115.5997220449535
 30
0.0
 11
144.7107970241719
 21
115.5997220449535
 31
0.0
  0
LINE
  5
1A5B
330
16CC
100
AcDbEntity
  8
0
100
AcDbLine
 10
144.7107970241719
 20
116.8997220449536
 30
0.0
 11
144.7107970241719
 21
116.4997220449537
 31
0.0
  0
LINE
  5
1A5C
330
16CC
100
AcDbEntity
  8
0
100
AcDbLine
 10
144.7107970241719
 20
116.4997220449537
 30
0.0
 11
144.7107970241719
 21
115.9997220449537
 31
0.0
  0
LINE
  5
1A5D
330
16CC
100
AcDbEntity
  8
0
100
AcDbLine
 10
144.7107970241719
 20
115.9997220449537
 30
0.0
 11
144.7107970241719
 21
115.5997220449535
 31
0.0
  0
LINE
  5
1A5E
330
16CC
100
AcDbEntity
  8
0
100
AcDbLine
 10
144.7107970241719
 20
120.7097220449538
 30
0.0
 11
144.7107970241719
 21
120.3097220449537
 31
0.0
  0
LINE
  5
1A5F
330
16CC
100
AcDbEntity
  8
0
100
AcDbLine
 10
144.2107970241719
 20
120.7097220449538
 30
0.0
 11
144.7107970241719
 21
120.7097220449538
 31
0.0
  0
LINE
  5
1A60
330
16CC
100
AcDbEntity
  8
0
100
AcDbLine
 10
139.3407970241719
 20
119.2997220449537
 30
0.0
 11
143.7107970241719
 21
119.2997220449537
 31
0.0
  0
LINE
  5
1A61
330
16CC
100
AcDbEntity
  8
0
100
AcDbLine
 10
141.3107970241719
 20
115.4897220449536
 30
0.0
 11
143.7107970241719
 21
115.4897220449536
 31
0.0
  0
LINE
  5
1A62
330
16CC
100
AcDbEntity
  8
0
100
AcDbLine
 10
139.3407970241719
 20
115.4897220449536
 30
0.0
 11
143.7107970241719
 21
115.4897220449536
 31
0.0
  0
LINE
  5
1A63
330
16CC
100
AcDbEntity
  8
0
100
AcDbLine
 10
141.3107970241719
 20
119.2997220449537
 30
0.0
 11
143.7107970241719
 21
119.2997220449537
 31
0.0
  0
LINE
  5
1A64
330
16CC
100
AcDbEntity
  8
0
100
AcDbLine
 10
139.3407970241719
 20
119.2997220449537
 30
0.0
 11
139.3407970241719
 21
115.4897220449536
 31
0.0
  0
LINE
  5
1A65
330
16CC
100
AcDbEntity
  8
0
100
AcDbLine
 10
138.380797024172
 20
115.4897220449536
 30
0.0
 11
139.140797024172
 21
115.4897220449536
 31
0.0
  0
LINE
  5
1A66
330
16CC
100
AcDbEntity
  8
0
100
AcDbLine
 10
139.3407970241719
 20
115.4897220449536
 30
0.0
 11
139.7807970241717
 21
115.4897220449536
 31
0.0
  0
LINE
  5
1A67
330
16CC
100
AcDbEntity
  8
0
100
AcDbLine
 10
139.7807970241717
 20
115.4897220449536
 30
0.0
 11
139.9107970241719
 21
115.4897220449536
 31
0.0
  0
LINE
  5
1A68
330
16CC
100
AcDbEntity
  8
0
100
AcDbLine
 10
139.9107970241719
 20
115.4897220449536
 30
0.0
 11
141.3107970241719
 21
115.4897220449536
 31
0.0
  0
LINE
  5
1A69
330
16CC
100
AcDbEntity
  8
0
100
AcDbLine
 10
139.3407970241719
 20
115.4897220449536
 30
0.0
 11
139.140797024172
 21
115.4897220449536
 31
0.0
  0
LINE
  5
1A6A
330
16CC
100
AcDbEntity
  8
0
100
AcDbLine
 10
139.3407970241719
 20
115.4897220449536
 30
0.0
 11
139.140797024172
 21
115.4897220449536
 31
0.0
  0
LINE
  5
1A6B
330
16CC
100
AcDbEntity
  8
0
100
AcDbLine
 10
139.3407970241719
 20
119.2997220449537
 30
0.0
 11
139.140797024172
 21
119.2997220449537
 31
0.0
  0
LINE
  5
1A6C
330
16CC
100
AcDbEntity
  8
0
100
AcDbLine
 10
138.380797024172
 20
119.2997220449537
 30
0.0
 11
139.140797024172
 21
119.2997220449537
 31
0.0
  0
LINE
  5
1A6D
330
16CC
100
AcDbEntity
  8
0
100
AcDbLine
 10
139.3407970241719
 20
119.2997220449537
 30
0.0
 11
139.140797024172
 21
119.2997220449537
 31
0.0
  0
LINE
  5
1A6E
330
16CC
100
AcDbEntity
  8
0
100
AcDbLine
 10
139.9107970241719
 20
119.2997220449537
 30
0.0
 11
141.3107970241719
 21
119.2997220449537
 31
0.0
  0
LINE
  5
1A6F
330
16CC
100
AcDbEntity
  8
0
100
AcDbLine
 10
139.7807970241717
 20
119.2997220449537
 30
0.0
 11
139.9107970241719
 21
119.2997220449537
 31
0.0
  0
LINE
  5
1A70
330
16CC
100
AcDbEntity
  8
0
100
AcDbLine
 10
139.3407970241719
 20
119.2997220449537
 30
0.0
 11
139.7807970241717
 21
119.2997220449537
 31
0.0
  0
LINE
  5
1A71
330
16CC
100
AcDbEntity
  8
0
100
AcDbLine
 10
144.2107970241719
 20
115.4897220449536
 30
0.0
 11
143.7107970241719
 21
115.4897220449536
 31
0.0
  0
LINE
  5
1A72
330
16CC
100
AcDbEntity
  8
0
100
AcDbLine
 10
144.2107970241719
 20
115.4897220449536
 30
0.0
 11
143.7107970241719
 21
115.4897220449536
 31
0.0
  0
LINE
  5
1A73
330
16CC
100
AcDbEntity
  8
0
100
AcDbLine
 10
144.2107970241719
 20
119.2997220449537
 30
0.0
 11
143.7107970241719
 21
119.2997220449537
 31
0.0
  0
LINE
  5
1A74
330
16CC
100
AcDbEntity
  8
0
100
AcDbLine
 10
144.2107970241719
 20
119.2997220449537
 30
0.0
 11
143.7107970241719
 21
119.2997220449537
 31
0.0
  0
LINE
  5
1A75
330
16CC
100
AcDbEntity
  8
0
100
AcDbLine
 10
139.3407970241719
 20
123.1097220449536
 30
0.0
 11
139.3407970241719
 21
119.2997220449537
 31
0.0
  0
LINE
  5
1A76
330
16CC
100
AcDbEntity
  8
0
100
AcDbLine
 10
139.3407970241719
 20
130.7297220449537
 30
0.0
 11
139.3407970241719
 21
133.2297220449536
 31
0.0
  0
LINE
  5
1A77
330
16CC
100
AcDbEntity
  8
0
100
AcDbLine
 10
135.4107970241725
 20
140.579722044953
 30
0.0
 11
135.4107970241725
 21
142.579722044953
 31
0.0
  0
LINE
  5
1A78
330
16CC
100
AcDbEntity
  8
0
100
AcDbLine
 10
135.4107970241725
 20
142.579722044953
 30
0.0
 11
135.9107970241727
 21
142.579722044953
 31
0.0
  0
LINE
  5
1A79
330
16CC
100
AcDbEntity
  8
0
100
AcDbLine
 10
135.4107970241725
 20
140.579722044953
 30
0.0
 11
135.9107970241727
 21
140.579722044953
 31
0.0
  0
LINE
  5
1A7A
330
16CC
100
AcDbEntity
  8
0
100
AcDbLine
 10
135.9107970241727
 20
140.579722044953
 30
0.0
 11
135.9107970241727
 21
142.579722044953
 31
0.0
  0
LINE
  5
1A7B
330
16CC
100
AcDbEntity
  8
0
100
AcDbLine
 10
135.9107970241727
 20
138.0797220449532
 30
0.0
 11
135.9107970241727
 21
140.0797220449532
 31
0.0
  0
LINE
  5
1A7C
330
16CC
100
AcDbEntity
  8
0
100
AcDbLine
 10
135.4107970241725
 20
138.0797220449532
 30
0.0
 11
135.9107970241727
 21
138.0797220449532
 31
0.0
  0
LINE
  5
1A7D
330
16CC
100
AcDbEntity
  8
0
100
AcDbLine
 10
135.4107970241725
 20
140.0797220449532
 30
0.0
 11
135.9107970241727
 21
140.0797220449532
 31
0.0
  0
LINE
  5
1A7E
330
16CC
100
AcDbEntity
  8
0
100
AcDbLine
 10
135.4107970241725
 20
138.0797220449532
 30
0.0
 11
135.4107970241725
 21
140.0797220449532
 31
0.0
  0
LINE
  5
1A7F
330
16CC
100
AcDbEntity
  8
0
100
AcDbLine
 10
135.9107970241727
 20
135.5797220449532
 30
0.0
 11
135.9107970241727
 21
137.5797220449532
 31
0.0
  0
LINE
  5
1A80
330
16CC
100
AcDbEntity
  8
0
100
AcDbLine
 10
135.4107970241725
 20
135.5797220449532
 30
0.0
 11
135.9107970241727
 21
135.5797220449532
 31
0.0
  0
LINE
  5
1A81
330
16CC
100
AcDbEntity
  8
0
100
AcDbLine
 10
135.4107970241725
 20
137.5797220449532
 30
0.0
 11
135.9107970241727
 21
137.5797220449532
 31
0.0
  0
LINE
  5
1A82
330
16CC
100
AcDbEntity
  8
0
100
AcDbLine
 10
135.4107970241725
 20
135.5797220449532
 30
0.0
 11
135.4107970241725
 21
137.5797220449532
 31
0.0
  0
LINE
  5
1A83
330
16CC
100
AcDbEntity
  8
0
100
AcDbLine
 10
130.9107970241725
 20
134.4797220449526
 30
0.0
 11
130.9107970241725
 21
143.6797220449536
 31
0.0
  0
LINE
  5
1A84
330
16CC
100
AcDbEntity
  8
0
100
AcDbLine
 10
129.510797024172
 20
144.7097230449539
 30
0.0
 11
129.510797024172
 21
133.4097230449538
 31
0.0
  0
LINE
  5
1A85
330
16CC
100
AcDbEntity
  8
0
100
AcDbLine
 10
130.0107970241713
 20
143.5695818903151
 30
0.0
 11
130.0107970241713
 21
134.6879672005907
 31
0.0
  0
LINE
  5
1A86
330
16CC
100
AcDbEntity
  8
0
100
AcDbLine
 10
129.510797024172
 20
133.4097230449538
 30
0.0
 11
131.0107970241718
 21
133.4097230449538
 31
0.0
  0
LINE
  5
1A87
330
16CC
100
AcDbEntity
  8
0
100
AcDbLine
 10
137.210797024172
 20
144.7097230449539
 30
0.0
 11
129.510797024172
 21
144.7097230449539
 31
0.0
  0
LINE
  5
1A88
330
16CC
100
AcDbEntity
  8
0
100
AcDbLine
 10
130.0107970241713
 20
143.5695818903151
 30
0.0
 11
130.5316291033609
 21
144.1797220449515
 31
0.0
  0
LINE
  5
1A89
330
16CC
100
AcDbEntity
  8
0
100
AcDbLine
 10
130.0107970241713
 20
134.6879672005907
 30
0.0
 11
130.5316291033609
 21
133.9797220449526
 31
0.0
  0
LINE
  5
1A8A
330
16CC
100
AcDbEntity
  8
0
100
AcDbLine
 10
131.510797024172
 20
127.2597220449537
 30
0.0
 11
131.510797024172
 21
130.3597220449536
 31
0.0
  0
LINE
  5
1A8B
330
16CC
100
AcDbEntity
  8
0
100
AcDbLine
 10
132.160797024172
 20
130.6597220449535
 30
0.0
 11
132.160797024172
 21
127.8597220449535
 31
0.0
  0
LINE
  5
1A8C
330
16CC
100
AcDbEntity
  8
0
100
AcDbLine
 10
133.360797024172
 20
127.8597220449535
 30
0.0
 11
133.360797024172
 21
130.6597220449535
 31
0.0
  0
LINE
  5
1A8D
330
16CC
100
AcDbEntity
  8
0
100
AcDbLine
 10
134.010797024172
 20
127.2597220449537
 30
0.0
 11
134.010797024172
 21
129.9597220449537
 31
0.0
  0
LINE
  5
1A8E
330
16CC
100
AcDbEntity
  8
0
100
AcDbLine
 10
134.160797024172
 20
129.9597220449537
 30
0.0
 11
134.160797024172
 21
126.9197220449534
 31
0.0
  0
ARC
  5
1A8F
330
16CC
100
AcDbEntity
  8
0
100
AcDbCircle
 10
136.3107970241719
 20
128.8247220449538
 30
0.0
 40
0.85
100
AcDbArc
 50
0.0
 51
323.269604999998
  0
CIRCLE
  5
1A90
330
16CC
100
AcDbEntity
  8
0
100
AcDbCircle
 10
136.3107970241719
 20
128.8247220449538
 30
0.0
 40
1.564999999999999
  0
CIRCLE
  5
1A91
330
16CC
100
AcDbEntity
  8
0
100
AcDbCircle
 10
136.3107970241719
 20
125.0147220449536
 30
0.0
 40
1.564999999999999
  0
CIRCLE
  5
1A92
330
16CC
100
AcDbEntity
  8
0
100
AcDbCircle
 10
136.3107970241719
 20
117.3947220449537
 30
0.0
 40
1.564999999999999
  0
CIRCLE
  5
1A93
330
16CC
100
AcDbEntity
  8
0
100
AcDbCircle
 10
136.3107970241719
 20
121.2047220449536
 30
0.0
 40
1.564999999999999
  0
ARC
  5
1A94
330
16CC
100
AcDbEntity
  8
0
100
AcDbCircle
 10
136.3107970241719
 20
125.0147220449536
 30
0.0
 40
0.85
100
AcDbArc
 50
323.269604999998
 51
0.0
  0
ARC
  5
1A95
330
16CC
100
AcDbEntity
  8
0
100
AcDbCircle
 10
136.3107970241719
 20
128.8247220449538
 30
0.0
 40
0.85
100
AcDbArc
 50
323.269604999998
 51
0.0
  0
LINE
  5
1A96
330
16CC
100
AcDbEntity
  8
0
100
AcDbLine
 10
134.1607970241717
 20
123.1097220449536
 30
0.0
 11
134.1607970241717
 21
123.0397220449537
 31
0.0
  0
ARC
  5
1A97
330
16CC
100
AcDbEntity
  8
0
100
AcDbCircle
 10
131.8107970241719
 20
123.4497220449538
 30
0.0
 40
0.3
100
AcDbArc
 50
180.0
 51
270.0
  0
ARC
  5
1A98
330
16CC
100
AcDbEntity
  8
0
100
AcDbCircle
 10
133.7107970241719
 20
123.4497220449538
 30
0.0
 40
0.3
100
AcDbArc
 50
270.0
 51
0.0
  0
LINE
  5
1A99
330
16CC
100
AcDbEntity
  8
0
100
AcDbLine
 10
134.1607970241717
 20
123.0397220449537
 30
0.0
 11
134.1607970241717
 21
122.3397220449536
 31
0.0
  0
LINE
  5
1A9A
330
16CC
100
AcDbEntity
  8
0
100
AcDbLine
 10
133.3607970241718
 20
123.0397220449537
 30
0.0
 11
133.0607970241719
 21
123.0397220449537
 31
0.0
  0
LINE
  5
1A9B
330
16CC
100
AcDbEntity
  8
0
100
AcDbLine
 10
133.3607970241718
 20
123.0397220449537
 30
0.0
 11
133.6107970241718
 21
123.0397220449537
 31
0.0
  0
LINE
  5
1A9C
330
16CC
100
AcDbEntity
  8
0
100
AcDbLine
 10
134.010797024172
 20
123.0397220449537
 30
0.0
 11
134.1607970241717
 21
123.0397220449537
 31
0.0
  0
LINE
  5
1A9D
330
16CC
100
AcDbEntity
  8
0
100
AcDbLine
 10
133.6107970241718
 20
123.0397220449537
 30
0.0
 11
134.010797024172
 21
123.0397220449537
 31
0.0
  0
LINE
  5
1A9E
330
16CC
100
AcDbEntity
  8
0
100
AcDbLine
 10
134.010797024172
 20
122.3397220449536
 30
0.0
 11
134.1607970241717
 21
122.3397220449536
 31
0.0
  0
LINE
  5
1A9F
330
16CC
100
AcDbEntity
  8
0
100
AcDbLine
 10
134.010797024172
 20
122.3397220449536
 30
0.0
 11
134.010797024172
 21
123.0397220449537
 31
0.0
  0
LINE
  5
1AA0
330
16CC
100
AcDbEntity
  8
0
100
AcDbLine
 10
132.4607970241719
 20
123.0397220449537
 30
0.0
 11
132.1607970241717
 21
123.0397220449537
 31
0.0
  0
LINE
  5
1AA1
330
16CC
100
AcDbEntity
  8
0
100
AcDbLine
 10
131.9107970241717
 20
123.0397220449537
 30
0.0
 11
132.1607970241717
 21
123.0397220449537
 31
0.0
  0
LINE
  5
1AA2
330
16CC
100
AcDbEntity
  8
0
100
AcDbLine
 10
132.4607970241719
 20
123.0397220449537
 30
0.0
 11
133.0607970241719
 21
123.0397220449537
 31
0.0
  0
LINE
  5
1AA3
330
16CC
100
AcDbEntity
  8
0
100
AcDbLine
 10
131.8107970241719
 20
123.0397220449537
 30
0.0
 11
131.9107970241717
 21
123.0397220449537
 31
0.0
  0
ARC
  5
1AA4
330
16CC
100
AcDbEntity
  8
0
100
AcDbCircle
 10
131.8107970241719
 20
122.7397220449536
 30
0.0
 40
0.3
100
AcDbArc
 50
89.99999999999998
 51
180.0
  0
LINE
  5
1AA5
330
16CC
100
AcDbEntity
  8
0
100
AcDbLine
 10
134.010797024172
 20
126.1497220449536
 30
0.0
 11
134.010797024172
 21
126.8497220449535
 31
0.0
  0
LINE
  5
1AA6
330
16CC
100
AcDbEntity
  8
0
100
AcDbLine
 10
134.010797024172
 20
126.1497220449536
 30
0.0
 11
134.160797024172
 21
126.1497220449536
 31
0.0
  0
LINE
  5
1AA7
330
16CC
100
AcDbEntity
  8
0
100
AcDbLine
 10
133.610797024172
 20
126.8497220449535
 30
0.0
 11
134.010797024172
 21
126.8497220449535
 31
0.0
  0
LINE
  5
1AA8
330
16CC
100
AcDbEntity
  8
0
100
AcDbLine
 10
134.010797024172
 20
126.8497220449535
 30
0.0
 11
134.160797024172
 21
126.8497220449535
 31
0.0
  0
LINE
  5
1AA9
330
16CC
100
AcDbEntity
  8
0
100
AcDbLine
 10
133.360797024172
 20
126.8497220449535
 30
0.0
 11
133.610797024172
 21
126.8497220449535
 31
0.0
  0
LINE
  5
1AAA
330
16CC
100
AcDbEntity
  8
0
100
AcDbLine
 10
133.360797024172
 20
126.8497220449535
 30
0.0
 11
133.0607970241719
 21
126.8497220449535
 31
0.0
  0
ARC
  5
1AAB
330
16CC
100
AcDbEntity
  8
0
100
AcDbCircle
 10
132.4607970241719
 20
127.8597220449535
 30
0.0
 40
0.3
100
AcDbArc
 50
180.0
 51
270.0
  0
ARC
  5
1AAC
330
16CC
100
AcDbEntity
  8
0
100
AcDbCircle
 10
131.8107970241719
 20
127.2597220449537
 30
0.0
 40
0.3
100
AcDbArc
 50
180.0
 51
270.0
  0
ARC
  5
1AAD
330
16CC
100
AcDbEntity
  8
0
100
AcDbCircle
 10
133.7107970241719
 20
127.2597220449537
 30
0.0
 40
0.3
100
AcDbArc
 50
270.0
 51
0.0
  0
ARC
  5
1AAE
330
16CC
100
AcDbEntity
  8
0
100
AcDbCircle
 10
133.0607970241719
 20
127.8597220449535
 30
0.0
 40
0.3
100
AcDbArc
 50
270.0
 51
0.0
  0
LINE
  5
1AAF
330
16CC
100
AcDbEntity
  8
0
100
AcDbLine
 10
131.8107970241719
 20
126.9597220449538
 30
0.0
 11
131.910797024172
 21
126.9597220449538
 31
0.0
  0
LINE
  5
1AB0
330
16CC
100
AcDbEntity
  8
0
100
AcDbLine
 10
131.910797024172
 20
126.9597220449538
 30
0.0
 11
133.610797024172
 21
126.9597220449538
 31
0.0
  0
LINE
  5
1AB1
330
16CC
100
AcDbEntity
  8
0
100
AcDbLine
 10
132.4607970241719
 20
127.5597220449535
 30
0.0
 11
133.0607970241719
 21
127.5597220449535
 31
0.0
  0
LINE
  5
1AB2
330
16CC
100
AcDbEntity
  8
0
100
AcDbLine
 10
133.610797024172
 20
126.9597220449538
 30
0.0
 11
133.7107970241719
 21
126.9597220449538
 31
0.0
  0
LINE
  5
1AB3
330
16CC
100
AcDbEntity
  8
0
100
AcDbLine
 10
134.660797024172
 20
126.9197220449534
 30
0.0
 11
134.160797024172
 21
126.9197220449534
 31
0.0
  0
LINE
  5
1AB4
330
16CC
100
AcDbEntity
  8
0
100
AcDbLine
 10
134.660797024172
 20
126.9197220449534
 30
0.0
 11
134.160797024172
 21
126.9197220449534
 31
0.0
  0
LINE
  5
1AB5
330
16CC
100
AcDbEntity
  8
0
100
AcDbLine
 10
134.160797024172
 20
126.8497220449535
 30
0.0
 11
134.160797024172
 21
126.1497220449536
 31
0.0
  0
LINE
  5
1AB6
330
16CC
100
AcDbEntity
  8
0
100
AcDbLine
 10
134.160797024172
 20
126.9197220449534
 30
0.0
 11
134.160797024172
 21
126.8497220449535
 31
0.0
  0
ARC
  5
1AB7
330
16CC
100
AcDbEntity
  8
0
100
AcDbCircle
 10
131.8107970241719
 20
126.5497220449537
 30
0.0
 40
0.3
100
AcDbArc
 50
89.99999999999998
 51
180.0
  0
LINE
  5
1AB8
330
16CC
100
AcDbEntity
  8
0
100
AcDbLine
 10
131.8107970241719
 20
126.8497220449535
 30
0.0
 11
131.910797024172
 21
126.8497220449535
 31
0.0
  0
LINE
  5
1AB9
330
16CC
100
AcDbEntity
  8
0
100
AcDbLine
 10
132.4607970241719
 20
126.8497220449535
 30
0.0
 11
133.0607970241719
 21
126.8497220449535
 31
0.0
  0
LINE
  5
1ABA
330
16CC
100
AcDbEntity
  8
0
100
AcDbLine
 10
131.910797024172
 20
126.8497220449535
 30
0.0
 11
132.160797024172
 21
126.8497220449535
 31
0.0
  0
LINE
  5
1ABB
330
16CC
100
AcDbEntity
  8
0
100
AcDbLine
 10
132.4607970241719
 20
126.8497220449535
 30
0.0
 11
132.160797024172
 21
126.8497220449535
 31
0.0
  0
LINE
  5
1ABC
330
16CC
100
AcDbEntity
  8
0
100
AcDbLine
 10
132.4607970241719
 20
123.7497220449537
 30
0.0
 11
133.0607970241719
 21
123.7497220449537
 31
0.0
  0
ARC
  5
1ABD
330
16CC
100
AcDbEntity
  8
0
100
AcDbCircle
 10
132.4607970241719
 20
124.0497220449537
 30
0.0
 40
0.3
100
AcDbArc
 50
180.0
 51
270.0
  0
ARC
  5
1ABE
330
16CC
100
AcDbEntity
  8
0
100
AcDbCircle
 10
133.0607970241719
 20
124.0497220449537
 30
0.0
 40
0.3
100
AcDbArc
 50
270.0
 51
0.0
  0
LINE
  5
1ABF
330
16CC
100
AcDbEntity
  8
0
100
AcDbLine
 10
134.6607970241719
 20
123.1097220449536
 30
0.0
 11
134.1607970241717
 21
123.1097220449536
 31
0.0
  0
LINE
  5
1AC0
330
16CC
100
AcDbEntity
  8
0
100
AcDbLine
 10
134.6607970241719
 20
123.1097220449536
 30
0.0
 11
134.1607970241717
 21
123.1097220449536
 31
0.0
  0
LINE
  5
1AC1
330
16CC
100
AcDbEntity
  8
0
100
AcDbLine
 10
131.8107970241719
 20
123.1497220449536
 30
0.0
 11
131.9107970241717
 21
123.1497220449536
 31
0.0
  0
LINE
  5
1AC2
330
16CC
100
AcDbEntity
  8
0
100
AcDbLine
 10
131.9107970241717
 20
123.1497220449536
 30
0.0
 11
133.6107970241718
 21
123.1497220449536
 31
0.0
  0
LINE
  5
1AC3
330
16CC
100
AcDbEntity
  8
0
100
AcDbLine
 10
133.6107970241718
 20
123.1497220449536
 30
0.0
 11
133.7107970241719
 21
123.1497220449536
 31
0.0
  0
LINE
  5
1AC4
330
16CC
100
AcDbEntity
  8
0
100
AcDbLine
 10
133.3607970241718
 20
124.0497220449537
 30
0.0
 11
133.360797024172
 21
126.8497220449535
 31
0.0
  0
LINE
  5
1AC5
330
16CC
100
AcDbEntity
  8
0
100
AcDbLine
 10
134.160797024172
 20
126.1497220449536
 30
0.0
 11
134.1607970241717
 21
123.1097220449536
 31
0.0
  0
LINE
  5
1AC6
330
16CC
100
AcDbEntity
  8
0
100
AcDbLine
 10
131.510797024172
 20
123.4497220449538
 30
0.0
 11
131.510797024172
 21
126.5497220449537
 31
0.0
  0
LINE
  5
1AC7
330
16CC
100
AcDbEntity
  8
0
100
AcDbLine
 10
134.010797024172
 20
123.4497220449538
 30
0.0
 11
134.010797024172
 21
126.1497220449536
 31
0.0
  0
LINE
  5
1AC8
330
16CC
100
AcDbEntity
  8
0
100
AcDbLine
 10
132.160797024172
 20
126.8497220449535
 30
0.0
 11
132.1607970241717
 21
124.0497220449537
 31
0.0
  0
ARC
  5
1AC9
330
16CC
100
AcDbEntity
  8
0
100
AcDbCircle
 10
136.3107970241719
 20
125.0147220449536
 30
0.0
 40
0.85
100
AcDbArc
 50
0.0
 51
323.269604999998
  0
ARC
  5
1ACA
330
16CC
100
AcDbEntity
  8
0
100
AcDbCircle
 10
136.3107970241719
 20
121.2047220449536
 30
0.0
 40
0.85
100
AcDbArc
 50
323.269604999998
 51
0.0
  0
ARC
  5
1ACB
330
16CC
100
AcDbEntity
  8
0
100
AcDbCircle
 10
136.3107970241719
 20
117.3947220449537
 30
0.0
 40
0.85
100
AcDbArc
 50
323.269604999998
 51
0.0
  0
LINE
  5
1ACC
330
16CC
100
AcDbEntity
  8
0
100
AcDbLine
 10
134.1607970241717
 20
118.5297220449537
 30
0.0
 11
134.1607970241717
 21
115.4897220449536
 31
0.0
  0
ARC
  5
1ACD
330
16CC
100
AcDbEntity
  8
0
100
AcDbCircle
 10
131.8107970241719
 20
115.8297220449536
 30
0.0
 40
0.3
100
AcDbArc
 50
180.0
 51
270.0
  0
ARC
  5
1ACE
330
16CC
100
AcDbEntity
  8
0
100
AcDbCircle
 10
133.7107970241719
 20
115.8297220449536
 30
0.0
 40
0.3
100
AcDbArc
 50
270.0
 51
0.0
  0
LINE
  5
1ACF
330
16CC
100
AcDbEntity
  8
0
100
AcDbLine
 10
134.1607970241717
 20
115.4897220449536
 30
0.0
 11
134.1607970241717
 21
115.4197220449534
 31
0.0
  0
LINE
  5
1AD0
330
16CC
100
AcDbEntity
  8
0
100
AcDbLine
 10
134.1607970241717
 20
115.4197220449534
 30
0.0
 11
134.1607970241717
 21
114.7197220449537
 31
0.0
  0
LINE
  5
1AD1
330
16CC
100
AcDbEntity
  8
0
100
AcDbLine
 10
134.6607970241719
 20
115.4897220449536
 30
0.0
 11
134.1607970241717
 21
115.4897220449536
 31
0.0
  0
LINE
  5
1AD2
330
16CC
100
AcDbEntity
  8
0
100
AcDbLine
 10
133.3607970241718
 20
115.4197220449534
 30
0.0
 11
133.0607970241719
 21
115.4197220449534
 31
0.0
  0
LINE
  5
1AD3
330
16CC
100
AcDbEntity
  8
0
100
AcDbLine
 10
133.3607970241718
 20
115.4197220449534
 30
0.0
 11
133.6107970241718
 21
115.4197220449534
 31
0.0
  0
LINE
  5
1AD4
330
16CC
100
AcDbEntity
  8
0
100
AcDbLine
 10
134.010797024172
 20
115.4197220449534
 30
0.0
 11
134.1607970241717
 21
115.4197220449534
 31
0.0
  0
LINE
  5
1AD5
330
16CC
100
AcDbEntity
  8
0
100
AcDbLine
 10
133.6107970241718
 20
115.4197220449534
 30
0.0
 11
134.010797024172
 21
115.4197220449534
 31
0.0
  0
LINE
  5
1AD6
330
16CC
100
AcDbEntity
  8
0
100
AcDbLine
 10
134.010797024172
 20
114.7197220449537
 30
0.0
 11
134.1607970241717
 21
114.7197220449537
 31
0.0
  0
LINE
  5
1AD7
330
16CC
100
AcDbEntity
  8
0
100
AcDbLine
 10
134.010797024172
 20
114.7197220449537
 30
0.0
 11
134.010797024172
 21
115.4197220449534
 31
0.0
  0
LINE
  5
1AD8
330
16CC
100
AcDbEntity
  8
0
100
AcDbLine
 10
132.4607970241719
 20
115.4197220449534
 30
0.0
 11
132.1607970241717
 21
115.4197220449534
 31
0.0
  0
LINE
  5
1AD9
330
16CC
100
AcDbEntity
  8
0
100
AcDbLine
 10
131.9107970241717
 20
115.4197220449534
 30
0.0
 11
132.1607970241717
 21
115.4197220449534
 31
0.0
  0
LINE
  5
1ADA
330
16CC
100
AcDbEntity
  8
0
100
AcDbLine
 10
132.4607970241719
 20
115.4197220449534
 30
0.0
 11
133.0607970241719
 21
115.4197220449534
 31
0.0
  0
LINE
  5
1ADB
330
16CC
100
AcDbEntity
  8
0
100
AcDbLine
 10
131.8107970241719
 20
115.4197220449534
 30
0.0
 11
131.9107970241717
 21
115.4197220449534
 31
0.0
  0
ARC
  5
1ADC
330
16CC
100
AcDbEntity
  8
0
100
AcDbCircle
 10
131.8107970241719
 20
115.1197220449535
 30
0.0
 40
0.3
100
AcDbArc
 50
89.99999999999998
 51
180.0
  0
LINE
  5
1ADD
330
16CC
100
AcDbEntity
  8
0
100
AcDbLine
 10
134.6607970241719
 20
115.4897220449536
 30
0.0
 11
134.1607970241717
 21
115.4897220449536
 31
0.0
  0
ARC
  5
1ADE
330
16CC
100
AcDbEntity
  8
0
100
AcDbCircle
 10
133.0607970241719
 20
120.2397220449537
 30
0.0
 40
0.3
100
AcDbArc
 50
270.0
 51
0.0
  0
ARC
  5
1ADF
330
16CC
100
AcDbEntity
  8
0
100
AcDbCircle
 10
132.4607970241719
 20
120.2397220449537
 30
0.0
 40
0.3
100
AcDbArc
 50
180.0
 51
270.0
  0
LINE
  5
1AE0
330
16CC
100
AcDbEntity
  8
0
100
AcDbLine
 10
134.6607970241719
 20
119.2997220449537
 30
0.0
 11
134.1607970241717
 21
119.2997220449537
 31
0.0
  0
LINE
  5
1AE1
330
16CC
100
AcDbEntity
  8
0
100
AcDbLine
 10
133.6107970241718
 20
119.3397220449536
 30
0.0
 11
133.7107970241719
 21
119.3397220449536
 31
0.0
  0
LINE
  5
1AE2
330
16CC
100
AcDbEntity
  8
0
100
AcDbLine
 10
131.9107970241717
 20
119.3397220449536
 30
0.0
 11
133.6107970241718
 21
119.3397220449536
 31
0.0
  0
LINE
  5
1AE3
330
16CC
100
AcDbEntity
  8
0
100
AcDbLine
 10
131.8107970241719
 20
119.3397220449536
 30
0.0
 11
131.9107970241717
 21
119.3397220449536
 31
0.0
  0
ARC
  5
1AE4
330
16CC
100
AcDbEntity
  8
0
100
AcDbCircle
 10
133.7107970241719
 20
119.6397220449536
 30
0.0
 40
0.3
100
AcDbArc
 50
270.0
 51
0.0
  0
ARC
  5
1AE5
330
16CC
100
AcDbEntity
  8
0
100
AcDbCircle
 10
131.8107970241719
 20
119.6397220449536
 30
0.0
 40
0.3
100
AcDbArc
 50
180.0
 51
270.0
  0
LINE
  5
1AE6
330
16CC
100
AcDbEntity
  8
0
100
AcDbLine
 10
134.6607970241719
 20
119.2997220449537
 30
0.0
 11
134.1607970241717
 21
119.2997220449537
 31
0.0
  0
LINE
  5
1AE7
330
16CC
100
AcDbEntity
  8
0
100
AcDbLine
 10
134.1607970241717
 20
119.2297220449537
 30
0.0
 11
134.1607970241717
 21
118.5297220449537
 31
0.0
  0
LINE
  5
1AE8
330
16CC
100
AcDbEntity
  8
0
100
AcDbLine
 10
134.1607970241717
 20
119.2997220449537
 30
0.0
 11
134.1607970241717
 21
119.2297220449537
 31
0.0
  0
ARC
  5
1AE9
330
16CC
100
AcDbEntity
  8
0
100
AcDbCircle
 10
131.8107970241719
 20
118.9297220449534
 30
0.0
 40
0.3
100
AcDbArc
 50
89.99999999999998
 51
180.0
  0
ARC
  5
1AEA
330
16CC
100
AcDbEntity
  8
0
100
AcDbCircle
 10
132.4607970241719
 20
116.4297220449534
 30
0.0
 40
0.3
100
AcDbArc
 50
180.0
 51
270.0
  0
ARC
  5
1AEB
330
16CC
100
AcDbEntity
  8
0
100
AcDbCircle
 10
133.0607970241719
 20
116.4297220449534
 30
0.0
 40
0.3
100
AcDbArc
 50
270.0
 51
0.0
  0
LINE
  5
1AEC
330
16CC
100
AcDbEntity
  8
0
100
AcDbLine
 10
131.8107970241719
 20
119.2297220449537
 30
0.0
 11
131.9107970241717
 21
119.2297220449537
 31
0.0
  0
LINE
  5
1AED
330
16CC
100
AcDbEntity
  8
0
100
AcDbLine
 10
131.8107970241719
 20
115.5297220449537
 30
0.0
 11
131.9107970241717
 21
115.5297220449537
 31
0.0
  0
LINE
  5
1AEE
330
16CC
100
AcDbEntity
  8
0
100
AcDbLine
 10
131.9107970241717
 20
115.5297220449537
 30
0.0
 11
133.6107970241718
 21
115.5297220449537
 31
0.0
  0
LINE
  5
1AEF
330
16CC
100
AcDbEntity
  8
0
100
AcDbLine
 10
131.510797024172
 20
115.8297220449536
 30
0.0
 11
131.510797024172
 21
118.9297220449534
 31
0.0
  0
LINE
  5
1AF0
330
16CC
100
AcDbEntity
  8
0
100
AcDbLine
 10
132.4607970241719
 20
119.2297220449537
 30
0.0
 11
133.0607970241719
 21
119.2297220449537
 31
0.0
  0
LINE
  5
1AF1
330
16CC
100
AcDbEntity
  8
0
100
AcDbLine
 10
132.1607970241717
 20
119.2297220449537
 30
0.0
 11
132.1607970241717
 21
116.4297220449534
 31
0.0
  0
LINE
  5
1AF2
330
16CC
100
AcDbEntity
  8
0
100
AcDbLine
 10
131.9107970241717
 20
119.2297220449537
 30
0.0
 11
132.1607970241717
 21
119.2297220449537
 31
0.0
  0
LINE
  5
1AF3
330
16CC
100
AcDbEntity
  8
0
100
AcDbLine
 10
132.4607970241719
 20
119.2297220449537
 30
0.0
 11
132.1607970241717
 21
119.2297220449537
 31
0.0
  0
LINE
  5
1AF4
330
16CC
100
AcDbEntity
  8
0
100
AcDbLine
 10
132.4607970241719
 20
116.1297220449535
 30
0.0
 11
133.0607970241719
 21
116.1297220449535
 31
0.0
  0
LINE
  5
1AF5
330
16CC
100
AcDbEntity
  8
0
100
AcDbLine
 10
133.6107970241718
 20
115.5297220449537
 30
0.0
 11
133.7107970241719
 21
115.5297220449537
 31
0.0
  0
LINE
  5
1AF6
330
16CC
100
AcDbEntity
  8
0
100
AcDbLine
 10
134.010797024172
 20
118.5297220449537
 30
0.0
 11
134.010797024172
 21
119.2297220449537
 31
0.0
  0
LINE
  5
1AF7
330
16CC
100
AcDbEntity
  8
0
100
AcDbLine
 10
134.010797024172
 20
118.5297220449537
 30
0.0
 11
134.1607970241717
 21
118.5297220449537
 31
0.0
  0
LINE
  5
1AF8
330
16CC
100
AcDbEntity
  8
0
100
AcDbLine
 10
133.3607970241718
 20
116.4297220449534
 30
0.0
 11
133.3607970241718
 21
119.2297220449537
 31
0.0
  0
LINE
  5
1AF9
330
16CC
100
AcDbEntity
  8
0
100
AcDbLine
 10
133.6107970241718
 20
119.2297220449537
 30
0.0
 11
134.010797024172
 21
119.2297220449537
 31
0.0
  0
LINE
  5
1AFA
330
16CC
100
AcDbEntity
  8
0
100
AcDbLine
 10
134.010797024172
 20
119.2297220449537
 30
0.0
 11
134.1607970241717
 21
119.2297220449537
 31
0.0
  0
LINE
  5
1AFB
330
16CC
100
AcDbEntity
  8
0
100
AcDbLine
 10
133.3607970241718
 20
119.2297220449537
 30
0.0
 11
133.6107970241718
 21
119.2297220449537
 31
0.0
  0
LINE
  5
1AFC
330
16CC
100
AcDbEntity
  8
0
100
AcDbLine
 10
133.3607970241718
 20
119.2297220449537
 30
0.0
 11
133.0607970241719
 21
119.2297220449537
 31
0.0
  0
LINE
  5
1AFD
330
16CC
100
AcDbEntity
  8
0
100
AcDbLine
 10
134.010797024172
 20
115.8297220449536
 30
0.0
 11
134.010797024172
 21
118.5297220449537
 31
0.0
  0
LINE
  5
1AFE
330
16CC
100
AcDbEntity
  8
0
100
AcDbLine
 10
132.4607970241719
 20
119.9397220449535
 30
0.0
 11
133.0607970241719
 21
119.9397220449535
 31
0.0
  0
ARC
  5
1AFF
330
16CC
100
AcDbEntity
  8
0
100
AcDbCircle
 10
136.3107970241719
 20
121.2047220449536
 30
0.0
 40
0.85
100
AcDbArc
 50
0.0
 51
323.269604999998
  0
ARC
  5
1B00
330
16CC
100
AcDbEntity
  8
0
100
AcDbCircle
 10
136.3107970241719
 20
117.3947220449537
 30
0.0
 40
0.85
100
AcDbArc
 50
0.0
 51
323.269604999998
  0
LINE
  5
1B01
330
16CC
100
AcDbEntity
  8
0
100
AcDbLine
 10
134.1607970241717
 20
122.3397220449536
 30
0.0
 11
134.1607970241717
 21
119.2997220449537
 31
0.0
  0
LINE
  5
1B02
330
16CC
100
AcDbEntity
  8
0
100
AcDbLine
 10
134.010797024172
 20
119.6397220449536
 30
0.0
 11
134.010797024172
 21
122.3397220449536
 31
0.0
  0
LINE
  5
1B03
330
16CC
100
AcDbEntity
  8
0
100
AcDbLine
 10
131.510797024172
 20
119.6397220449536
 30
0.0
 11
131.510797024172
 21
122.7397220449536
 31
0.0
  0
LINE
  5
1B04
330
16CC
100
AcDbEntity
  8
0
100
AcDbLine
 10
133.3607970241718
 20
120.2397220449537
 30
0.0
 11
133.3607970241718
 21
123.0397220449537
 31
0.0
  0
LINE
  5
1B05
330
16CC
100
AcDbEntity
  8
0
100
AcDbLine
 10
132.1607970241717
 20
123.0397220449537
 30
0.0
 11
132.1607970241717
 21
120.2397220449537
 31
0.0
  0
ARC
  5
1B06
330
16CC
100
AcDbEntity
  8
0
100
AcDbCircle
 10
131.8107970241719
 20
130.3597220449536
 30
0.0
 40
0.3
100
AcDbArc
 50
89.99999999999998
 51
180.0
  0
LINE
  5
1B07
330
16CC
100
AcDbEntity
  8
0
100
AcDbLine
 10
134.160797024172
 20
130.7297220449537
 30
0.0
 11
134.160797024172
 21
130.6597220449535
 31
0.0
  0
LINE
  5
1B08
330
16CC
100
AcDbEntity
  8
0
100
AcDbLine
 10
131.8107970241719
 20
130.6597220449535
 30
0.0
 11
131.910797024172
 21
130.6597220449535
 31
0.0
  0
LINE
  5
1B09
330
16CC
100
AcDbEntity
  8
0
100
AcDbLine
 10
132.4607970241719
 20
130.6597220449535
 30
0.0
 11
133.0607970241719
 21
130.6597220449535
 31
0.0
  0
LINE
  5
1B0A
330
16CC
100
AcDbEntity
  8
0
100
AcDbLine
 10
131.910797024172
 20
130.6597220449535
 30
0.0
 11
132.160797024172
 21
130.6597220449535
 31
0.0
  0
LINE
  5
1B0B
330
16CC
100
AcDbEntity
  8
0
100
AcDbLine
 10
132.4607970241719
 20
130.6597220449535
 30
0.0
 11
132.160797024172
 21
130.6597220449535
 31
0.0
  0
LINE
  5
1B0C
330
16CC
100
AcDbEntity
  8
0
100
AcDbLine
 10
134.010797024172
 20
129.9597220449537
 30
0.0
 11
134.010797024172
 21
130.6597220449535
 31
0.0
  0
LINE
  5
1B0D
330
16CC
100
AcDbEntity
  8
0
100
AcDbLine
 10
134.010797024172
 20
129.9597220449537
 30
0.0
 11
134.160797024172
 21
129.9597220449537
 31
0.0
  0
LINE
  5
1B0E
330
16CC
100
AcDbEntity
  8
0
100
AcDbLine
 10
133.610797024172
 20
130.6597220449535
 30
0.0
 11
134.010797024172
 21
130.6597220449535
 31
0.0
  0
LINE
  5
1B0F
330
16CC
100
AcDbEntity
  8
0
100
AcDbLine
 10
134.010797024172
 20
130.6597220449535
 30
0.0
 11
134.160797024172
 21
130.6597220449535
 31
0.0
  0
LINE
  5
1B10
330
16CC
100
AcDbEntity
  8
0
100
AcDbLine
 10
133.360797024172
 20
130.6597220449535
 30
0.0
 11
133.610797024172
 21
130.6597220449535
 31
0.0
  0
LINE
  5
1B11
330
16CC
100
AcDbEntity
  8
0
100
AcDbLine
 10
133.360797024172
 20
130.6597220449535
 30
0.0
 11
133.0607970241719
 21
130.6597220449535
 31
0.0
  0
LINE
  5
1B12
330
16CC
100
AcDbEntity
  8
0
100
AcDbLine
 10
134.160797024172
 20
130.6597220449535
 30
0.0
 11
134.160797024172
 21
129.9597220449537
 31
0.0
  0
LINE
  5
1B13
330
16CC
100
AcDbEntity
  8
0
100
AcDbLine
 10
134.160797024172
 20
130.7297220449537
 30
0.0
 11
134.160797024172
 21
133.2297220449536
 31
0.0
  0
LINE
  5
1B14
330
16CC
100
AcDbEntity
  8
0
100
AcDbLine
 10
134.660797024172
 20
126.9197220449534
 30
0.0
 11
138.380797024172
 21
126.9197220449534
 31
0.0
  0
LINE
  5
1B15
330
16CC
100
AcDbEntity
  8
0
100
AcDbLine
 10
134.660797024172
 20
126.9197220449534
 30
0.0
 11
139.140797024172
 21
126.9197220449534
 31
0.0
  0
LINE
  5
1B16
330
16CC
100
AcDbEntity
  8
0
100
AcDbLine
 10
134.6607970241719
 20
123.1097220449536
 30
0.0
 11
138.380797024172
 21
123.1097220449536
 31
0.0
  0
LINE
  5
1B17
330
16CC
100
AcDbEntity
  8
0
100
AcDbLine
 10
134.6607970241719
 20
123.1097220449536
 30
0.0
 11
139.140797024172
 21
123.1097220449536
 31
0.0
  0
LINE
  5
1B18
330
16CC
100
AcDbEntity
  8
0
100
AcDbLine
 10
134.6607970241719
 20
115.4897220449536
 30
0.0
 11
138.380797024172
 21
115.4897220449536
 31
0.0
  0
LINE
  5
1B19
330
16CC
100
AcDbEntity
  8
0
100
AcDbLine
 10
134.6607970241719
 20
115.4897220449536
 30
0.0
 11
139.140797024172
 21
115.4897220449536
 31
0.0
  0
LINE
  5
1B1A
330
16CC
100
AcDbEntity
  8
0
100
AcDbLine
 10
134.6607970241719
 20
119.2997220449537
 30
0.0
 11
139.140797024172
 21
119.2997220449537
 31
0.0
  0
LINE
  5
1B1B
330
16CC
100
AcDbEntity
  8
0
100
AcDbLine
 10
134.6607970241719
 20
119.2997220449537
 30
0.0
 11
138.380797024172
 21
119.2997220449537
 31
0.0
  0
LINE
  5
1B1C
330
16CC
100
AcDbEntity
  8
0
100
AcDbLine
 10
144.2107970241719
 20
133.2297220449536
 30
0.0
 11
134.160797024172
 21
133.2297220449536
 31
0.0
  0
LINE
  5
1B1D
330
16CC
100
AcDbEntity
  8
0
100
AcDbLine
 10
144.2107970241719
 20
130.7297220449537
 30
0.0
 11
134.160797024172
 21
130.7297220449537
 31
0.0
  0
LINE
  5
1B1E
330
16CC
100
AcDbEntity
  8
0
100
AcDbLine
 10
137.7107970241719
 20
144.9297220449536
 30
0.0
 11
144.7107970241719
 21
144.9297220449536
 31
0.0
  0
LINE
  5
1B1F
330
16CC
100
AcDbEntity
  8
0
100
AcDbLine
 10
130.5316291033609
 20
144.1797220449515
 30
0.0
 11
142.710797024172
 21
144.1797220449515
 31
0.0
  0
LINE
  5
1B20
330
16CC
100
AcDbEntity
  8
0
100
AcDbLine
 10
130.5316291033609
 20
133.9797220449526
 30
0.0
 11
142.710797024172
 21
133.9797220449526
 31
0.0
  0
LINE
  5
1B21
330
16CC
100
AcDbEntity
  8
0
100
AcDbLine
 10
130.9107970241725
 20
143.6797220449536
 30
0.0
 11
142.3107970241704
 21
143.6797220449516
 31
0.0
  0
LINE
  5
1B22
330
16CC
100
AcDbEntity
  8
0
100
AcDbLine
 10
142.3107970241704
 20
134.4797220449526
 30
0.0
 11
130.9107970241725
 21
134.4797220449526
 31
0.0
  0
LINE
  5
1B23
330
16CC
100
AcDbEntity
  8
0
100
AcDbLine
 10
144.7107970241719
 20
149.9297220449536
 30
0.0
 11
144.7107970241719
 21
144.9297220449536
 31
0.0
  0
LINE
  5
1B24
330
16CC
100
AcDbEntity
  8
0
100
AcDbLine
 10
137.210797024172
 20
144.7097230449539
 30
0.0
 11
137.210797024172
 21
150.4097230449539
 31
0.0
  0
LINE
  5
1B25
330
16CC
100
AcDbEntity
  8
0
100
AcDbLine
 10
137.7107970241719
 20
144.9297220449536
 30
0.0
 11
137.7107970241719
 21
149.9297220449536
 31
0.0
  0
LINE
  5
1B26
330
16CC
100
AcDbEntity
  8
0
100
AcDbLine
 10
142.096554024172
 20
148.9297220449536
 30
0.0
 11
142.096554024172
 21
145.9297220449536
 31
0.0
  0
LINE
  5
1B27
330
16CC
100
AcDbEntity
  8
0
100
AcDbLine
 10
140.1316320241718
 20
148.9297220449536
 30
0.0
 11
140.1316320241718
 21
145.9297220449536
 31
0.0
  0
LINE
  5
1B28
330
16CC
100
AcDbEntity
  8
0
100
AcDbLine
 10
154.8110050241717
 20
98.5424290449538
 30
0.0
 11
155.795796024172
 21
98.5424290449538
 31
0.0
  0
ARC
  5
1B29
330
16CC
100
AcDbEntity
  8
0
100
AcDbCircle
 10
155.795796024172
 20
99.5424290449538
 30
0.0
 40
1.0
100
AcDbArc
 50
270.0
 51
0.0
  0
LINE
  5
1B2A
330
16CC
100
AcDbEntity
  8
0
100
AcDbLine
 10
154.880508024172
 20
99.88089004495359
 30
0.0
 11
153.880080024172
 21
99.88089004495369
 31
0.0
  0
LINE
  5
1B2B
330
16CC
100
AcDbEntity
  8
0
100
AcDbLine
 10
154.811006024172
 20
98.53013104495369
 30
0.0
 11
153.880080024172
 21
99.88089004495369
 31
0.0
  0
ARC
  5
1B2C
330
16CC
100
AcDbEntity
  8
0
100
AcDbCircle
 10
154.880508024172
 20
100.8808900449535
 30
0.0
 40
1.0
100
AcDbArc
 50
270.0
 51
0.0
  0
ARC
  5
1B2D
330
16CC
100
AcDbEntity
  8
0
100
AcDbCircle
 10
153.8110050241719
 20
94.50585404495376
 30
0.0
 40
1.0
100
AcDbArc
 50
270.0
 51
0.0
  0
LINE
  5
1B2E
330
16CC
100
AcDbEntity
  8
0
100
AcDbLine
 10
154.811006024172
 20
88.0055890449538
 30
0.0
 11
154.811006024172
 21
98.56472204495355
 31
0.0
  0
LINE
  5
1B2F
330
16CC
100
AcDbEntity
  8
0
100
AcDbLine
 10
154.8110050241717
 20
94.50585404495368
 30
0.0
 11
154.8110050241717
 21
98.5424290449538
 31
0.0
  0
ARC
  5
1B30
330
16CC
100
AcDbEntity
  8
0
100
AcDbCircle
 10
150.710797024172
 20
98.60972304495382
 30
0.0
 40
1.0
100
AcDbArc
 50
270.0
 51
0.0
  0
ARC
  5
1B31
330
16CC
100
AcDbEntity
  8
0
100
AcDbCircle
 10
150.8107970241719
 20
98.50585404495376
 30
0.0
 40
1.0
100
AcDbArc
 50
270.0
 51
0.0
  0
LINE
  5
1B32
330
16CC
100
AcDbEntity
  8
0
100
AcDbLine
 10
144.2107970241719
 20
107.9797220449535
 30
0.0
 11
144.2107970241719
 21
107.8697220449535
 31
0.0
  0
LINE
  5
1B33
330
16CC
100
AcDbEntity
  8
0
100
AcDbLine
 10
144.2107970241719
 20
105.4697220449537
 30
0.0
 11
144.7107970241719
 21
105.4697220449537
 31
0.0
  0
LINE
  5
1B34
330
16CC
100
AcDbEntity
  8
0
100
AcDbLine
 10
144.7107970241719
 20
105.4697220449537
 30
0.0
 11
144.7107970241719
 21
105.0697220449535
 31
0.0
  0
LINE
  5
1B35
330
16CC
100
AcDbEntity
  8
0
100
AcDbLine
 10
144.7107970241719
 20
108.3797220449536
 30
0.0
 11
144.7107970241719
 21
107.9797220449535
 31
0.0
  0
LINE
  5
1B36
330
16CC
100
AcDbEntity
  8
0
100
AcDbLine
 10
144.7107970241719
 20
108.8797220449535
 30
0.0
 11
144.7107970241719
 21
108.3797220449536
 31
0.0
  0
LINE
  5
1B37
330
16CC
100
AcDbEntity
  8
0
100
AcDbLine
 10
144.7107970241719
 20
109.2797220449537
 30
0.0
 11
144.7107970241719
 21
108.8797220449535
 31
0.0
  0
LINE
  5
1B38
330
16CC
100
AcDbEntity
  8
0
100
AcDbLine
 10
144.2107970241719
 20
107.9797220449535
 30
0.0
 11
144.7107970241719
 21
107.9797220449535
 31
0.0
  0
LINE
  5
1B39
330
16CC
100
AcDbEntity
  8
0
100
AcDbLine
 10
144.2107970241719
 20
109.2797220449537
 30
0.0
 11
144.7107970241719
 21
109.2797220449537
 31
0.0
  0
LINE
  5
1B3A
330
16CC
100
AcDbEntity
  8
0
100
AcDbLine
 10
139.3407970241719
 20
107.8697220449535
 30
0.0
 11
143.7107970241719
 21
107.8697220449535
 31
0.0
  0
LINE
  5
1B3B
330
16CC
100
AcDbEntity
  8
0
100
AcDbLine
 10
141.3107970241719
 20
107.8697220449535
 30
0.0
 11
143.7107970241719
 21
107.8697220449535
 31
0.0
  0
LINE
  5
1B3C
330
16CC
100
AcDbEntity
  8
0
100
AcDbLine
 10
139.3407970241719
 20
107.8697220449535
 30
0.0
 11
139.140797024172
 21
107.8697220449535
 31
0.0
  0
LINE
  5
1B3D
330
16CC
100
AcDbEntity
  8
0
100
AcDbLine
 10
139.3407970241719
 20
107.8697220449535
 30
0.0
 11
139.140797024172
 21
107.8697220449535
 31
0.0
  0
LINE
  5
1B3E
330
16CC
100
AcDbEntity
  8
0
100
AcDbLine
 10
139.9107970241719
 20
107.8697220449535
 30
0.0
 11
141.3107970241719
 21
107.8697220449535
 31
0.0
  0
LINE
  5
1B3F
330
16CC
100
AcDbEntity
  8
0
100
AcDbLine
 10
139.7807970241717
 20
107.8697220449535
 30
0.0
 11
139.9107970241719
 21
107.8697220449535
 31
0.0
  0
LINE
  5
1B40
330
16CC
100
AcDbEntity
  8
0
100
AcDbLine
 10
139.3407970241719
 20
107.8697220449535
 30
0.0
 11
139.7807970241717
 21
107.8697220449535
 31
0.0
  0
LINE
  5
1B41
330
16CC
100
AcDbEntity
  8
0
100
AcDbLine
 10
138.380797024172
 20
107.8697220449535
 30
0.0
 11
139.140797024172
 21
107.8697220449535
 31
0.0
  0
LINE
  5
1B42
330
16CC
100
AcDbEntity
  8
0
100
AcDbLine
 10
144.2107970241719
 20
107.8697220449535
 30
0.0
 11
143.7107970241719
 21
107.8697220449535
 31
0.0
  0
LINE
  5
1B43
330
16CC
100
AcDbEntity
  8
0
100
AcDbLine
 10
144.2107970241719
 20
107.8697220449535
 30
0.0
 11
143.7107970241719
 21
107.8697220449535
 31
0.0
  0
LINE
  5
1B44
330
16CC
100
AcDbEntity
  8
0
100
AcDbLine
 10
144.2107970241719
 20
104.1697220449534
 30
0.0
 11
144.7107970241719
 21
104.1697220449534
 31
0.0
  0
LINE
  5
1B45
330
16CC
100
AcDbEntity
  8
0
100
AcDbLine
 10
144.7107970241719
 20
104.5697220449536
 30
0.0
 11
144.7107970241719
 21
104.1697220449534
 31
0.0
  0
LINE
  5
1B46
330
16CC
100
AcDbEntity
  8
0
100
AcDbLine
 10
144.2107970241719
 20
104.1697220449534
 30
0.0
 11
144.2107970241719
 21
104.0597220449537
 31
0.0
  0
LINE
  5
1B47
330
16CC
100
AcDbEntity
  8
0
100
AcDbLine
 10
139.3407970241719
 20
104.0597220449537
 30
0.0
 11
143.7107970241719
 21
104.0597220449537
 31
0.0
  0
LINE
  5
1B48
330
16CC
100
AcDbEntity
  8
0
100
AcDbLine
 10
139.3407970241719
 20
104.0597220449537
 30
0.0
 11
139.140797024172
 21
104.0597220449537
 31
0.0
  0
LINE
  5
1B49
330
16CC
100
AcDbEntity
  8
0
100
AcDbLine
 10
144.2107970241719
 20
104.0597220449537
 30
0.0
 11
143.7107970241719
 21
104.0597220449537
 31
0.0
  0
LINE
  5
1B4A
330
16CC
100
AcDbEntity
  8
0
100
AcDbLine
 10
139.3407970241719
 20
107.8697220449535
 30
0.0
 11
139.3407970241719
 21
104.0597220449537
 31
0.0
  0
LINE
  5
1B4B
330
16CC
100
AcDbEntity
  8
0
100
AcDbLine
 10
144.7107970241719
 20
105.0697220449535
 30
0.0
 11
144.7107970241719
 21
104.5697220449536
 31
0.0
  0
LINE
  5
1B4C
330
16CC
100
AcDbEntity
  8
0
100
AcDbLine
 10
139.3407970241719
 20
111.6797220449534
 30
0.0
 11
139.3407970241719
 21
107.8697220449535
 31
0.0
  0
LINE
  5
1B4D
330
16CC
100
AcDbEntity
  8
0
100
AcDbLine
 10
144.2107970241719
 20
111.7897220449536
 30
0.0
 11
144.2107970241719
 21
111.6797220449534
 31
0.0
  0
LINE
  5
1B4E
330
16CC
100
AcDbEntity
  8
0
100
AcDbLine
 10
144.7107970241719
 20
112.1897220449534
 30
0.0
 11
144.7107970241719
 21
111.7897220449536
 31
0.0
  0
LINE
  5
1B4F
330
16CC
100
AcDbEntity
  8
0
100
AcDbLine
 10
144.7107970241719
 20
112.6897220449535
 30
0.0
 11
144.7107970241719
 21
112.1897220449534
 31
0.0
  0
LINE
  5
1B50
330
16CC
100
AcDbEntity
  8
0
100
AcDbLine
 10
144.7107970241719
 20
113.0897220449536
 30
0.0
 11
144.7107970241719
 21
112.6897220449535
 31
0.0
  0
LINE
  5
1B51
330
16CC
100
AcDbEntity
  8
0
100
AcDbLine
 10
144.2107970241719
 20
111.7897220449536
 30
0.0
 11
144.7107970241719
 21
111.7897220449536
 31
0.0
  0
LINE
  5
1B52
330
16CC
100
AcDbEntity
  8
0
100
AcDbLine
 10
144.2107970241719
 20
113.0897220449536
 30
0.0
 11
144.7107970241719
 21
113.0897220449536
 31
0.0
  0
LINE
  5
1B53
330
16CC
100
AcDbEntity
  8
0
100
AcDbLine
 10
139.3407970241719
 20
111.6797220449534
 30
0.0
 11
143.7107970241719
 21
111.6797220449534
 31
0.0
  0
LINE
  5
1B54
330
16CC
100
AcDbEntity
  8
0
100
AcDbLine
 10
141.3107970241719
 20
111.6797220449534
 30
0.0
 11
143.7107970241719
 21
111.6797220449534
 31
0.0
  0
LINE
  5
1B55
330
16CC
100
AcDbEntity
  8
0
100
AcDbLine
 10
139.3407970241719
 20
111.6797220449534
 30
0.0
 11
139.140797024172
 21
111.6797220449534
 31
0.0
  0
LINE
  5
1B56
330
16CC
100
AcDbEntity
  8
0
100
AcDbLine
 10
139.3407970241719
 20
111.6797220449534
 30
0.0
 11
139.7807970241717
 21
111.6797220449534
 31
0.0
  0
LINE
  5
1B57
330
16CC
100
AcDbEntity
  8
0
100
AcDbLine
 10
139.7807970241717
 20
111.6797220449534
 30
0.0
 11
139.9107970241719
 21
111.6797220449534
 31
0.0
  0
LINE
  5
1B58
330
16CC
100
AcDbEntity
  8
0
100
AcDbLine
 10
139.9107970241719
 20
111.6797220449534
 30
0.0
 11
141.3107970241719
 21
111.6797220449534
 31
0.0
  0
LINE
  5
1B59
330
16CC
100
AcDbEntity
  8
0
100
AcDbLine
 10
139.3407970241719
 20
111.6797220449534
 30
0.0
 11
139.140797024172
 21
111.6797220449534
 31
0.0
  0
LINE
  5
1B5A
330
16CC
100
AcDbEntity
  8
0
100
AcDbLine
 10
138.380797024172
 20
111.6797220449534
 30
0.0
 11
139.140797024172
 21
111.6797220449534
 31
0.0
  0
LINE
  5
1B5B
330
16CC
100
AcDbEntity
  8
0
100
AcDbLine
 10
144.2107970241719
 20
111.6797220449534
 30
0.0
 11
143.7107970241719
 21
111.6797220449534
 31
0.0
  0
LINE
  5
1B5C
330
16CC
100
AcDbEntity
  8
0
100
AcDbLine
 10
144.2107970241719
 20
111.6797220449534
 30
0.0
 11
143.7107970241719
 21
111.6797220449534
 31
0.0
  0
LINE
  5
1B5D
330
16CC
100
AcDbEntity
  8
0
100
AcDbLine
 10
149.682966024172
 20
94.43962604495407
 30
0.0
 11
150.3104720241719
 21
93.50585404495376
 31
0.0
  0
ARC
  5
1B5E
330
16CC
100
AcDbEntity
  8
0
100
AcDbCircle
 10
148.852969024172
 20
93.88185804495373
 30
0.0
 40
1.0
100
AcDbArc
 50
33.9015840000051
 51
89.87559099999918
  0
LINE
  5
1B5F
330
16CC
100
AcDbEntity
  8
0
100
AcDbLine
 10
141.8107970241718
 20
89.75558904495386
 30
0.0
 11
141.8107970241718
 21
88.00558904495387
 31
0.0
  0
ARC
  5
1B60
330
16CC
100
AcDbEntity
  8
0
100
AcDbCircle
 10
143.3107970241719
 20
88.00558904495387
 30
0.0
 40
1.5
100
AcDbArc
 50
180.0
 51
270.0
  0
LINE
  5
1B61
330
16CC
100
AcDbEntity
  8
0
100
AcDbLine
 10
143.3107970241719
 20
86.50558904495389
 30
0.0
 11
153.3110060241718
 21
86.50558904495389
 31
0.0
  0
LINE
  5
1B62
330
16CC
100
AcDbEntity
  8
中心線
100
AcDbLine
 10
139.3107970241719
 20
97.25558904495386
 30
0.0
 11
139.3107970241719
 21
82.25558904495386
 31
0.0
  0
CIRCLE
  5
1B63
330
16CC
100
AcDbEntity
  8
0
100
AcDbCircle
 10
136.3107970241719
 20
105.9647220449535
 30
0.0
 40
1.564999999999999
  0
CIRCLE
  5
1B64
330
16CC
100
AcDbEntity
  8
0
100
AcDbCircle
 10
136.3107970241719
 20
109.7747220449534
 30
0.0
 40
1.564999999999999
  0
ARC
  5
1B65
330
16CC
100
AcDbEntity
  8
0
100
AcDbCircle
 10
136.3107970241719
 20
105.9647220449535
 30
0.0
 40
0.85
100
AcDbArc
 50
323.269604999998
 51
0.0
  0
ARC
  5
1B66
330
16CC
100
AcDbEntity
  8
0
100
AcDbCircle
 10
136.3107970241719
 20
109.7747220449534
 30
0.0
 40
0.85
100
AcDbArc
 50
323.269604999998
 51
0.0
  0
ARC
  5
1B67
330
16CC
100
AcDbEntity
  8
0
100
AcDbCircle
 10
133.7107970241719
 20
108.2097220449538
 30
0.0
 40
0.3
100
AcDbArc
 50
270.0
 51
0.0
  0
ARC
  5
1B68
330
16CC
100
AcDbEntity
  8
0
100
AcDbCircle
 10
131.8107970241719
 20
108.2097220449538
 30
0.0
 40
0.3
100
AcDbArc
 50
180.0
 51
270.0
  0
LINE
  5
1B69
330
16CC
100
AcDbEntity
  8
0
100
AcDbLine
 10
134.1607970241717
 20
110.9097220449535
 30
0.0
 11
134.1607970241717
 21
107.8697220449535
 31
0.0
  0
LINE
  5
1B6A
330
16CC
100
AcDbEntity
  8
0
100
AcDbLine
 10
134.6607970241719
 20
107.8697220449535
 30
0.0
 11
134.1607970241717
 21
107.8697220449535
 31
0.0
  0
ARC
  5
1B6B
330
16CC
100
AcDbEntity
  8
0
100
AcDbCircle
 10
131.8107970241719
 20
107.4997220449537
 30
0.0
 40
0.3
100
AcDbArc
 50
89.99999999999998
 51
180.0
  0
LINE
  5
1B6C
330
16CC
100
AcDbEntity
  8
0
100
AcDbLine
 10
131.8107970241719
 20
107.7997220449537
 30
0.0
 11
131.9107970241717
 21
107.7997220449537
 31
0.0
  0
LINE
  5
1B6D
330
16CC
100
AcDbEntity
  8
0
100
AcDbLine
 10
132.4607970241719
 20
107.7997220449537
 30
0.0
 11
133.0607970241719
 21
107.7997220449537
 31
0.0
  0
LINE
  5
1B6E
330
16CC
100
AcDbEntity
  8
0
100
AcDbLine
 10
132.1607970241717
 20
107.7997220449537
 30
0.0
 11
132.1607970241717
 21
104.9997220449537
 31
0.0
  0
LINE
  5
1B6F
330
16CC
100
AcDbEntity
  8
0
100
AcDbLine
 10
131.9107970241717
 20
107.7997220449537
 30
0.0
 11
132.1607970241717
 21
107.7997220449537
 31
0.0
  0
LINE
  5
1B70
330
16CC
100
AcDbEntity
  8
0
100
AcDbLine
 10
132.4607970241719
 20
107.7997220449537
 30
0.0
 11
132.1607970241717
 21
107.7997220449537
 31
0.0
  0
LINE
  5
1B71
330
16CC
100
AcDbEntity
  8
0
100
AcDbLine
 10
134.010797024172
 20
107.0997220449535
 30
0.0
 11
134.010797024172
 21
107.7997220449537
 31
0.0
  0
LINE
  5
1B72
330
16CC
100
AcDbEntity
  8
0
100
AcDbLine
 10
134.010797024172
 20
107.0997220449535
 30
0.0
 11
134.1607970241717
 21
107.0997220449535
 31
0.0
  0
LINE
  5
1B73
330
16CC
100
AcDbEntity
  8
0
100
AcDbLine
 10
133.3607970241718
 20
104.9997220449537
 30
0.0
 11
133.3607970241718
 21
107.7997220449537
 31
0.0
  0
LINE
  5
1B74
330
16CC
100
AcDbEntity
  8
0
100
AcDbLine
 10
133.6107970241718
 20
107.7997220449537
 30
0.0
 11
134.010797024172
 21
107.7997220449537
 31
0.0
  0
LINE
  5
1B75
330
16CC
100
AcDbEntity
  8
0
100
AcDbLine
 10
134.010797024172
 20
107.7997220449537
 30
0.0
 11
134.1607970241717
 21
107.7997220449537
 31
0.0
  0
LINE
  5
1B76
330
16CC
100
AcDbEntity
  8
0
100
AcDbLine
 10
133.3607970241718
 20
107.7997220449537
 30
0.0
 11
133.6107970241718
 21
107.7997220449537
 31
0.0
  0
LINE
  5
1B77
330
16CC
100
AcDbEntity
  8
0
100
AcDbLine
 10
133.3607970241718
 20
107.7997220449537
 30
0.0
 11
133.0607970241719
 21
107.7997220449537
 31
0.0
  0
LINE
  5
1B78
330
16CC
100
AcDbEntity
  8
0
100
AcDbLine
 10
134.6607970241719
 20
107.8697220449535
 30
0.0
 11
134.1607970241717
 21
107.8697220449535
 31
0.0
  0
LINE
  5
1B79
330
16CC
100
AcDbEntity
  8
0
100
AcDbLine
 10
134.1607970241717
 20
107.7997220449537
 30
0.0
 11
134.1607970241717
 21
107.0997220449535
 31
0.0
  0
LINE
  5
1B7A
330
16CC
100
AcDbEntity
  8
0
100
AcDbLine
 10
134.1607970241717
 20
107.8697220449535
 30
0.0
 11
134.1607970241717
 21
107.7997220449537
 31
0.0
  0
LINE
  5
1B7B
330
16CC
100
AcDbEntity
  8
0
100
AcDbLine
 10
133.3607970241718
 20
111.6097220449536
 30
0.0
 11
133.0607970241719
 21
111.6097220449536
 31
0.0
  0
LINE
  5
1B7C
330
16CC
100
AcDbEntity
  8
0
100
AcDbLine
 10
133.3607970241718
 20
111.6097220449536
 30
0.0
 11
133.6107970241718
 21
111.6097220449536
 31
0.0
  0
LINE
  5
1B7D
330
16CC
100
AcDbEntity
  8
0
100
AcDbLine
 10
134.010797024172
 20
111.6097220449536
 30
0.0
 11
134.1607970241717
 21
111.6097220449536
 31
0.0
  0
LINE
  5
1B7E
330
16CC
100
AcDbEntity
  8
0
100
AcDbLine
 10
133.6107970241718
 20
111.6097220449536
 30
0.0
 11
134.010797024172
 21
111.6097220449536
 31
0.0
  0
LINE
  5
1B7F
330
16CC
100
AcDbEntity
  8
0
100
AcDbLine
 10
132.4607970241719
 20
111.6097220449536
 30
0.0
 11
132.1607970241717
 21
111.6097220449536
 31
0.0
  0
LINE
  5
1B80
330
16CC
100
AcDbEntity
  8
0
100
AcDbLine
 10
131.9107970241717
 20
111.6097220449536
 30
0.0
 11
132.1607970241717
 21
111.6097220449536
 31
0.0
  0
LINE
  5
1B81
330
16CC
100
AcDbEntity
  8
0
100
AcDbLine
 10
132.4607970241719
 20
111.6097220449536
 30
0.0
 11
133.0607970241719
 21
111.6097220449536
 31
0.0
  0
LINE
  5
1B82
330
16CC
100
AcDbEntity
  8
0
100
AcDbLine
 10
131.8107970241719
 20
111.6097220449536
 30
0.0
 11
131.9107970241717
 21
111.6097220449536
 31
0.0
  0
LINE
  5
1B83
330
16CC
100
AcDbEntity
  8
0
100
AcDbLine
 10
134.010797024172
 20
108.2097220449538
 30
0.0
 11
134.010797024172
 21
110.9097220449535
 31
0.0
  0
LINE
  5
1B84
330
16CC
100
AcDbEntity
  8
0
100
AcDbLine
 10
134.010797024172
 20
110.9097220449535
 30
0.0
 11
134.1607970241717
 21
110.9097220449535
 31
0.0
  0
LINE
  5
1B85
330
16CC
100
AcDbEntity
  8
0
100
AcDbLine
 10
133.6107970241718
 20
107.9097220449535
 30
0.0
 11
133.7107970241719
 21
107.9097220449535
 31
0.0
  0
LINE
  5
1B86
330
16CC
100
AcDbEntity
  8
0
100
AcDbLine
 10
132.4607970241719
 20
108.5097220449537
 30
0.0
 11
133.0607970241719
 21
108.5097220449537
 31
0.0
  0
LINE
  5
1B87
330
16CC
100
AcDbEntity
  8
0
100
AcDbLine
 10
131.510797024172
 20
108.2097220449538
 30
0.0
 11
131.510797024172
 21
111.3097220449537
 31
0.0
  0
LINE
  5
1B88
330
16CC
100
AcDbEntity
  8
0
100
AcDbLine
 10
131.9107970241717
 20
107.9097220449535
 30
0.0
 11
133.6107970241718
 21
107.9097220449535
 31
0.0
  0
LINE
  5
1B89
330
16CC
100
AcDbEntity
  8
0
100
AcDbLine
 10
131.8107970241719
 20
107.9097220449535
 30
0.0
 11
131.9107970241717
 21
107.9097220449535
 31
0.0
  0
ARC
  5
1B8A
330
16CC
100
AcDbEntity
  8
0
100
AcDbCircle
 10
133.0607970241719
 20
108.8097220449535
 30
0.0
 40
0.3
100
AcDbArc
 50
270.0
 51
0.0
  0
ARC
  5
1B8B
330
16CC
100
AcDbEntity
  8
0
100
AcDbCircle
 10
132.4607970241719
 20
108.8097220449535
 30
0.0
 40
0.3
100
AcDbArc
 50
180.0
 51
270.0
  0
LINE
  5
1B8C
330
16CC
100
AcDbEntity
  8
0
100
AcDbLine
 10
133.3607970241718
 20
108.8097220449535
 30
0.0
 11
133.3607970241718
 21
111.6097220449536
 31
0.0
  0
LINE
  5
1B8D
330
16CC
100
AcDbEntity
  8
0
100
AcDbLine
 10
134.010797024172
 20
110.9097220449535
 30
0.0
 11
134.010797024172
 21
111.6097220449536
 31
0.0
  0
LINE
  5
1B8E
330
16CC
100
AcDbEntity
  8
0
100
AcDbLine
 10
132.1607970241717
 20
111.6097220449536
 30
0.0
 11
132.1607970241717
 21
108.8097220449535
 31
0.0
  0
LINE
  5
1B8F
330
16CC
100
AcDbEntity
  8
0
100
AcDbLine
 10
134.1607970241717
 20
111.6097220449536
 30
0.0
 11
134.1607970241717
 21
110.9097220449535
 31
0.0
  0
ARC
  5
1B90
330
16CC
100
AcDbEntity
  8
0
100
AcDbCircle
 10
131.8107970241719
 20
104.3997220449536
 30
0.0
 40
0.3
100
AcDbArc
 50
180.0
 51
270.0
  0
ARC
  5
1B91
330
16CC
100
AcDbEntity
  8
0
100
AcDbCircle
 10
133.7107970241719
 20
104.3997220449536
 30
0.0
 40
0.3
100
AcDbArc
 50
270.0
 51
0.0
  0
LINE
  5
1B92
330
16CC
100
AcDbEntity
  8
0
100
AcDbLine
 10
131.8107970241719
 20
104.0997220449535
 30
0.0
 11
131.9107970241717
 21
104.0997220449535
 31
0.0
  0
LINE
  5
1B93
330
16CC
100
AcDbEntity
  8
0
100
AcDbLine
 10
131.9107970241717
 20
104.0997220449535
 30
0.0
 11
133.6107970241718
 21
104.0997220449535
 31
0.0
  0
ARC
  5
1B94
330
16CC
100
AcDbEntity
  8
0
100
AcDbCircle
 10
136.3107970241719
 20
113.5847220449538
 30
0.0
 40
0.85
100
AcDbArc
 50
323.269604999998
 51
0.0
  0
LINE
  5
1B95
330
16CC
100
AcDbEntity
  8
0
100
AcDbLine
 10
134.6607970241719
 20
111.6797220449534
 30
0.0
 11
134.1607970241717
 21
111.6797220449534
 31
0.0
  0
LINE
  5
1B96
330
16CC
100
AcDbEntity
  8
0
100
AcDbLine
 10
133.6107970241718
 20
111.7197220449537
 30
0.0
 11
133.7107970241719
 21
111.7197220449537
 31
0.0
  0
LINE
  5
1B97
330
16CC
100
AcDbEntity
  8
0
100
AcDbLine
 10
132.4607970241719
 20
112.3197220449535
 30
0.0
 11
133.0607970241719
 21
112.3197220449535
 31
0.0
  0
LINE
  5
1B98
330
16CC
100
AcDbEntity
  8
0
100
AcDbLine
 10
131.9107970241717
 20
111.7197220449537
 30
0.0
 11
133.6107970241718
 21
111.7197220449537
 31
0.0
  0
LINE
  5
1B99
330
16CC
100
AcDbEntity
  8
0
100
AcDbLine
 10
131.8107970241719
 20
111.7197220449537
 30
0.0
 11
131.9107970241717
 21
111.7197220449537
 31
0.0
  0
ARC
  5
1B9A
330
16CC
100
AcDbEntity
  8
0
100
AcDbCircle
 10
133.0607970241719
 20
112.6197220449535
 30
0.0
 40
0.3
100
AcDbArc
 50
270.0
 51
0.0
  0
ARC
  5
1B9B
330
16CC
100
AcDbEntity
  8
0
100
AcDbCircle
 10
133.7107970241719
 20
112.0197220449537
 30
0.0
 40
0.3
100
AcDbArc
 50
270.0
 51
0.0
  0
ARC
  5
1B9C
330
16CC
100
AcDbEntity
  8
0
100
AcDbCircle
 10
131.8107970241719
 20
112.0197220449537
 30
0.0
 40
0.3
100
AcDbArc
 50
180.0
 51
270.0
  0
ARC
  5
1B9D
330
16CC
100
AcDbEntity
  8
0
100
AcDbCircle
 10
132.4607970241719
 20
112.6197220449535
 30
0.0
 40
0.3
100
AcDbArc
 50
180.0
 51
270.0
  0
LINE
  5
1B9E
330
16CC
100
AcDbEntity
  8
0
100
AcDbLine
 10
134.6607970241719
 20
111.6797220449534
 30
0.0
 11
134.1607970241717
 21
111.6797220449534
 31
0.0
  0
LINE
  5
1B9F
330
16CC
100
AcDbEntity
  8
0
100
AcDbLine
 10
132.4607970241719
 20
104.6997220449538
 30
0.0
 11
133.0607970241719
 21
104.6997220449538
 31
0.0
  0
LINE
  5
1BA0
330
16CC
100
AcDbEntity
  8
0
100
AcDbLine
 10
133.6107970241718
 20
104.0997220449535
 30
0.0
 11
133.7107970241719
 21
104.0997220449535
 31
0.0
  0
LINE
  5
1BA1
330
16CC
100
AcDbEntity
  8
0
100
AcDbLine
 10
134.6607970241719
 20
104.0597220449537
 30
0.0
 11
134.1607970241717
 21
104.0597220449537
 31
0.0
  0
ARC
  5
1BA2
330
16CC
100
AcDbEntity
  8
0
100
AcDbCircle
 10
132.4607970241719
 20
104.9997220449537
 30
0.0
 40
0.3
100
AcDbArc
 50
180.0
 51
270.0
  0
ARC
  5
1BA3
330
16CC
100
AcDbEntity
  8
0
100
AcDbCircle
 10
133.0607970241719
 20
104.9997220449537
 30
0.0
 40
0.3
100
AcDbArc
 50
270.0
 51
0.0
  0
LINE
  5
1BA4
330
16CC
100
AcDbEntity
  8
0
100
AcDbLine
 10
131.510797024172
 20
104.3997220449536
 30
0.0
 11
131.510797024172
 21
107.4997220449537
 31
0.0
  0
LINE
  5
1BA5
330
16CC
100
AcDbEntity
  8
0
100
AcDbLine
 10
134.010797024172
 20
104.3997220449536
 30
0.0
 11
134.010797024172
 21
107.0997220449535
 31
0.0
  0
LINE
  5
1BA6
330
16CC
100
AcDbEntity
  8
0
100
AcDbLine
 10
134.1607970241717
 20
107.0997220449535
 30
0.0
 11
134.1607970241717
 21
104.0597220449537
 31
0.0
  0
ARC
  5
1BA7
330
16CC
100
AcDbEntity
  8
0
100
AcDbCircle
 10
136.3107970241719
 20
105.9647220449535
 30
0.0
 40
0.85
100
AcDbArc
 50
0.0
 51
323.269604999998
  0
ARC
  5
1BA8
330
16CC
100
AcDbEntity
  8
0
100
AcDbCircle
 10
136.3107970241719
 20
109.7747220449534
 30
0.0
 40
0.85
100
AcDbArc
 50
0.0
 51
323.269604999998
  0
LINE
  5
1BA9
330
16CC
100
AcDbEntity
  8
0
100
AcDbLine
 10
134.1607970241717
 20
111.6797220449534
 30
0.0
 11
134.1607970241717
 21
111.6097220449536
 31
0.0
  0
ARC
  5
1BAA
330
16CC
100
AcDbEntity
  8
0
100
AcDbCircle
 10
131.8107970241719
 20
111.3097220449537
 30
0.0
 40
0.3
100
AcDbArc
 50
89.99999999999998
 51
180.0
  0
ARC
  5
1BAB
330
16CC
100
AcDbEntity
  8
0
100
AcDbCircle
 10
127.910797024172
 20
98.60972304495382
 30
0.0
 40
1.0
100
AcDbArc
 50
180.0
 51
270.0
  0
ARC
  5
1BAC
330
16CC
100
AcDbEntity
  8
0
100
AcDbCircle
 10
127.8107970241719
 20
98.50585404495376
 30
0.0
 40
1.0
100
AcDbArc
 50
180.0
 51
270.0
  0
LINE
  5
1BAD
330
16CC
100
AcDbEntity
  8
0
100
AcDbLine
 10
123.7410860241719
 20
99.88089004495369
 30
0.0
 11
124.7415150241721
 21
99.88089004495369
 31
0.0
  0
LINE
  5
1BAE
330
16CC
100
AcDbEntity
  8
0
100
AcDbLine
 10
123.8105880241719
 20
98.53013104495374
 30
0.0
 11
124.7415150241721
 21
99.88089004495369
 31
0.0
  0
ARC
  5
1BAF
330
16CC
100
AcDbEntity
  8
0
100
AcDbCircle
 10
123.7410860241719
 20
100.8808900449535
 30
0.0
 40
1.0
100
AcDbArc
 50
180.0
 51
270.0
  0
LINE
  5
1BB0
330
16CC
100
AcDbEntity
  8
0
100
AcDbLine
 10
123.8105880241719
 20
98.54242904495386
 30
0.0
 11
122.8256780241721
 21
98.54242904495386
 31
0.0
  0
LINE
  5
1BB1
330
16CC
100
AcDbEntity
  8
0
100
AcDbLine
 10
136.8107970241719
 20
89.75558904495386
 30
0.0
 11
136.8107970241719
 21
88.00558904495387
 31
0.0
  0
ARC
  5
1BB2
330
16CC
100
AcDbEntity
  8
0
100
AcDbCircle
 10
135.3107970241719
 20
88.00558904495387
 30
0.0
 40
1.5
100
AcDbArc
 50
270.0
 51
0.0
  0
ARC
  5
1BB3
330
16CC
100
AcDbEntity
  8
0
100
AcDbCircle
 10
129.7686250241719
 20
93.88185804495373
 30
0.0
 40
1.0
100
AcDbArc
 50
90.12440900000077
 51
146.0984159999948
  0
ARC
  5
1BB4
330
16CC
100
AcDbEntity
  8
0
100
AcDbCircle
 10
124.8105880241719
 20
94.50585404495376
 30
0.0
 40
1.0
100
AcDbArc
 50
180.0
 51
270.0
  0
LINE
  5
1BB5
330
16CC
100
AcDbEntity
  8
0
100
AcDbLine
 10
128.9386280241717
 20
94.43962604495407
 30
0.0
 11
128.3111210241719
 21
93.50585404495376
 31
0.0
  0
LINE
  5
1BB6
330
16CC
100
AcDbEntity
  8
0
100
AcDbLine
 10
124.8105880241719
 20
93.50585404495376
 30
0.0
 11
128.3111210241719
 21
93.50585404495376
 31
0.0
  0
ARC
  5
1BB7
330
16CC
100
AcDbEntity
  8
0
100
AcDbCircle
 10
125.3105880241718
 20
88.00558904495387
 30
0.0
 40
1.5
100
AcDbArc
 50
180.0
 51
270.0
  0
ARC
  5
1BB8
330
16CC
100
AcDbEntity
  8
0
100
AcDbCircle
 10
125.818515024172
 20
96.02897504495395
 30
0.0
 40
1.0
100
AcDbArc
 50
180.0
 51
270.0
  0
LINE
  5
1BB9
330
16CC
100
AcDbEntity
  8
0
100
AcDbLine
 10
123.8105880241719
 20
88.00558904495387
 30
0.0
 11
123.8105880241719
 21
94.50585404495376
 31
0.0
  0
LINE
  5
1BBA
330
16CC
100
AcDbEntity
  8
0
100
AcDbLine
 10
125.3105880241718
 20
86.50558904495389
 30
0.0
 11
135.3107970241719
 21
86.50558904495389
 31
0.0
  0
LINE
  5
1BBB
330
16CC
100
AcDbEntity
  8
0
100
AcDbLine
 10
123.8105880241719
 20
94.50585404495376
 30
0.0
 11
123.8105880241719
 21
98.54242904495386
 31
0.0
  0
LINE
  5
1BBC
330
16CC
100
AcDbEntity
  8
中心線
100
AcDbLine
 10
146.8107970241718
 20
89.75558904495386
 30
0.0
 11
131.8107970241719
 21
89.75558904495386
 31
0.0
  0
LINE
  5
1BBD
330
16CC
100
AcDbEntity
  8
0
100
AcDbLine
 10
127.910797024172
 20
97.60972304495382
 30
0.0
 11
150.710797024172
 21
97.60972304495382
 31
0.0
  0
LINE
  5
1BBE
330
16CC
100
AcDbEntity
  8
0
100
AcDbLine
 10
127.8107970241719
 20
97.50585404495376
 30
0.0
 11
150.8107970241719
 21
97.50585404495376
 31
0.0
  0
ARC
  5
1BBF
330
16CC
100
AcDbEntity
  8
0
100
AcDbCircle
 10
139.3107970241719
 20
89.75558904495386
 30
0.0
 40
2.5
100
AcDbArc
 50
0.0
 51
180.0
  0
LINE
  5
1BC0
330
16CC
100
AcDbEntity
  8
0
100
AcDbLine
 10
128.987198024172
 20
94.50585404495376
 30
0.0
 11
149.638460024172
 21
94.50585404495376
 31
0.0
  0
ARC
  5
1BC1
330
16CC
100
AcDbEntity
  8
0
100
AcDbCircle
 10
139.3107970241709
 20
-4300.703440955046
 30
0.0
 40
4395.595658
100
AcDbArc
 50
89.87559099999918
 51
90.12440900000077
  0
LINE
  5
1BC2
330
16CC
100
AcDbEntity
  8
0
100
AcDbLine
 10
125.818515024172
 20
95.02897504495392
 30
0.0
 11
152.803080024172
 21
95.02897504495392
 31
0.0
  0
LINE
  5
1BC3
330
16CC
100
AcDbEntity
  8
0
100
AcDbLine
 10
131.0107970241717
 20
103.5097230449538
 30
0.0
 11
145.2107970241719
 21
103.5097230449538
 31
0.0
  0
LINE
  5
1BC4
330
16CC
100
AcDbEntity
  8
0
100
AcDbLine
 10
134.6607970241719
 20
107.8697220449535
 30
0.0
 11
139.140797024172
 21
107.8697220449535
 31
0.0
  0
LINE
  5
1BC5
330
16CC
100
AcDbEntity
  8
0
100
AcDbLine
 10
134.6607970241719
 20
107.8697220449535
 30
0.0
 11
138.380797024172
 21
107.8697220449535
 31
0.0
  0
LINE
  5
1BC6
330
16CC
100
AcDbEntity
  8
0
100
AcDbLine
 10
134.6607970241719
 20
104.0597220449537
 30
0.0
 11
139.140797024172
 21
104.0597220449537
 31
0.0
  0
LINE
  5
1BC7
330
16CC
100
AcDbEntity
  8
0
100
AcDbLine
 10
134.6607970241719
 20
111.6797220449534
 30
0.0
 11
139.140797024172
 21
111.6797220449534
 31
0.0
  0
LINE
  5
1BC8
330
16CC
100
AcDbEntity
  8
0
100
AcDbLine
 10
134.6607970241719
 20
111.6797220449534
 30
0.0
 11
138.380797024172
 21
111.6797220449534
 31
0.0
  0
ARC
  5
1BC9
330
16CC
100
AcDbEntity
  8
0
100
AcDbCircle
 10
153.3110060241719
 20
88.00558904495387
 30
0.0
 40
1.5
100
AcDbArc
 50
270.0
 51
0.0
  0
ARC
  5
1BCA
330
16CC
100
AcDbEntity
  8
0
100
AcDbCircle
 10
152.803080024172
 20
96.02897504495395
 30
0.0
 40
1.0
100
AcDbArc
 50
270.0
 51
0.0
  0
LINE
  5
1BCB
330
16CC
100
AcDbEntity
  8
0
100
AcDbLine
 10
150.3104720241719
 20
93.50585404495376
 30
0.0
 11
153.8110050241717
 21
93.50585404495376
 31
0.0
  0
CIRCLE
  5
1BCC
330
16CC
100
AcDbEntity
  8
0
100
AcDbCircle
 10
136.3107970241719
 20
113.5847220449538
 30
0.0
 40
1.564999999999999
  0
LINE
  5
1BCD
330
16CC
100
AcDbEntity
  8
0
100
AcDbLine
 10
134.1607970241717
 20
114.7197220449537
 30
0.0
 11
134.1607970241717
 21
111.6797220449534
 31
0.0
  0
LINE
  5
1BCE
330
16CC
100
AcDbEntity
  8
0
100
AcDbLine
 10
134.010797024172
 20
112.0197220449537
 30
0.0
 11
134.010797024172
 21
114.7197220449537
 31
0.0
  0
LINE
  5
1BCF
330
16CC
100
AcDbEntity
  8
0
100
AcDbLine
 10
133.3607970241718
 20
112.6197220449535
 30
0.0
 11
133.3607970241718
 21
115.4197220449534
 31
0.0
  0
LINE
  5
1BD0
330
16CC
100
AcDbEntity
  8
0
100
AcDbLine
 10
132.1607970241717
 20
115.4197220449534
 30
0.0
 11
132.1607970241717
 21
112.6197220449535
 31
0.0
  0
LINE
  5
1BD1
330
16CC
100
AcDbEntity
  8
0
100
AcDbLine
 10
131.510797024172
 20
112.0197220449537
 30
0.0
 11
131.510797024172
 21
115.1197220449535
 31
0.0
  0
ARC
  5
1BD2
330
16CC
100
AcDbEntity
  8
0
100
AcDbCircle
 10
136.3107970241719
 20
113.5847220449538
 30
0.0
 40
0.85
100
AcDbArc
 50
0.0
 51
323.269604999998
  0
LINE
  5
1BD3
330
16CC
100
AcDbEntity
  8
0
100
AcDbLine
 10
131.0107970241717
 20
103.5097230449538
 30
0.0
 11
131.0107970241718
 21
133.4097230449538
 31
0.0
  0
LINE
  5
1BD4
330
16CC
100
AcDbEntity
  8
0
100
AcDbLine
 10
144.2107970241719
 20
133.2297220449536
 30
0.0
 11
144.2107970241719
 21
104.1697220449534
 31
0.0
  0
LINE
  5
1BD5
330
16CC
100
AcDbEntity
  8
0
100
AcDbLine
 10
139.3407970241719
 20
115.4897220449536
 30
0.0
 11
139.3407970241719
 21
111.6797220449534
 31
0.0
  0
LINE
  5
1BD6
330
16CC
100
AcDbEntity
  8
0
100
AcDbLine
 10
151.710797024172
 20
251.4097230449535
 30
0.0
 11
151.710797024172
 21
98.50972304495389
 31
0.0
  0
LINE
  5
1BD7
330
16CC
100
AcDbEntity
  8
0
100
AcDbLine
 10
126.910797024172
 20
251.4097230449535
 30
0.0
 11
126.910797024172
 21
98.60972304495382
 31
0.0
  0
LINE
  5
1BD8
330
16CC
100
AcDbEntity
  8
0
100
AcDbLine
 10
122.741086024172
 20
249.1308190449539
 30
0.0
 11
122.741086024172
 21
100.8808900449535
 31
0.0
  0
LINE
  5
1BD9
330
16CC
100
AcDbEntity
  8
0
100
AcDbLine
 10
156.795796024172
 20
99.5424290449538
 30
0.0
 11
156.795796024172
 21
250.4815770449538
 31
0.0
  0
LINE
  5
1BDA
330
16CC
100
AcDbEntity
  8
0
100
AcDbLine
 10
153.803080024172
 20
253.9944910449539
 30
0.0
 11
153.803080024172
 21
96.02897504495395
 31
0.0
  0
LINE
  5
1BDB
330
16CC
100
AcDbEntity
  8
0
100
AcDbLine
 10
155.880508024172
 20
249.1308190449539
 30
0.0
 11
155.880508024172
 21
100.8808900449535
 31
0.0
  0
LINE
  5
1BDC
330
16CC
100
AcDbEntity
  8
0
100
AcDbLine
 10
151.8107970241719
 20
98.50585404495376
 30
0.0
 11
151.8107970241719
 21
251.5058540449535
 31
0.0
  0
LINE
  5
1BDD
330
16CC
100
AcDbEntity
  8
0
100
AcDbLine
 10
126.810797024172
 20
98.50585404495376
 30
0.0
 11
126.810797024172
 21
251.5058540449535
 31
0.0
  0
LINE
  5
1BDE
330
16CC
100
AcDbEntity
  8
0
100
AcDbLine
 10
124.818515024172
 20
253.9944910449539
 30
0.0
 11
124.818515024172
 21
96.02897504495395
 31
0.0
  0
LINE
  5
1BDF
330
16CC
100
AcDbEntity
  8
0
100
AcDbLine
 10
144.7107970241719
 20
171.3337100449536
 30
0.0
 11
144.7107970241719
 21
185.3337100449536
 31
0.0
  0
LINE
  5
1BE0
330
16CC
100
AcDbEntity
  8
0
100
AcDbLine
 10
131.410797024172
 20
185.8097230449538
 30
0.0
 11
131.410797024172
 21
170.8097230449538
 31
0.0
  0
LINE
  5
1BE1
330
16CC
100
AcDbEntity
  8
0
100
AcDbLine
 10
131.910797024172
 20
185.3337100449536
 30
0.0
 11
131.910797024172
 21
171.3337100449536
 31
0.0
  0
LINE
  5
1BE2
330
16CC
100
AcDbEntity
  8
0
100
AcDbLine
 10
145.2107970241719
 20
191.4837100449537
 30
0.0
 11
145.2107970241719
 21
103.5097230449538
 31
0.0
  0
LINE
  5
1BE3
330
16CC
100
AcDbEntity
  8
0
100
AcDbLine
 10
121.8256780241721
 20
99.54242904495387
 30
0.0
 11
121.8256780241721
 21
250.4815770449538
 31
0.0
  0
ARC
  5
1BE4
330
16CC
100
AcDbEntity
  8
0
100
AcDbCircle
 10
122.8256780241721
 20
99.54242904495387
 30
0.0
 40
1.0
100
AcDbArc
 50
180.0
 51
270.0
  0
ARC
  5
1BE5
330
16CC
100
AcDbEntity
  8
0
100
AcDbCircle
 10
122.8256780241721
 20
250.4815770449538
 30
0.0
 40
1.0
100
AcDbArc
 50
89.99999999999998
 51
180.0
  0
LWPOLYLINE
  5
1BE6
330
16CC
100
AcDbEntity
  8
0
100
AcDbPolyline
 90
        4
 70
     1
 43
0.0
 10
123.8105888968312
 20
358.1713493985005
 10
154.8110068968312
 20
358.1713493985002
 10
154.8110068968312
 20
356.6713493985005
 10
123.8105888968312
 20
356.6713493985005
  0
LINE
  5
1BEC
330
16CC
100
AcDbEntity
  8
0
100
AcDbLine
 10
125.3105880241716
 20
1.499999735771209
 30
0.0
 11
125.3105880241716
 21
-0.0000002642287882
 31
0.0
  0
LINE
  5
1BED
330
16CC
100
AcDbEntity
  8
0
100
AcDbLine
 10
153.3110060241718
 20
1.499999735771209
 30
0.0
 11
153.3110060241718
 21
-0.0000002642287882
 31
0.0
  0
LINE
  5
1BEE
330
16CC
100
AcDbEntity
  8
0
100
AcDbLine
 10
136.8107970241719
 20
1.499999735771209
 30
0.0
 11
136.8107970241719
 21
-0.0000002642287882
 31
0.0
  0
LINE
  5
1BEF
330
16CC
100
AcDbEntity
  8
0
100
AcDbLine
 10
141.8107970241718
 20
1.499999735771209
 30
0.0
 11
141.8107970241718
 21
-0.0000002642287882
 31
0.0
  0
LINE
  5
1BF0
330
16CC
100
AcDbEntity
  8
0
100
AcDbLine
 10
135.3107970241719
 20
1.499999735771209
 30
0.0
 11
135.3107970241719
 21
-0.0000002642287882
 31
0.0
  0
LINE
  5
1BF1
330
16CC
100
AcDbEntity
  8
0
100
AcDbLine
 10
143.3107970241719
 20
1.499999735771209
 30
0.0
 11
143.3107970241719
 21
-0.0000002642287882
 31
0.0
  0
LWPOLYLINE
  5
1BF2
330
16CC
100
AcDbEntity
  8
0
100
AcDbPolyline
 90
        4
 70
     1
 43
0.0
 10
123.8105880241716
 20
1.499999735771209
 10
154.8110060241718
 20
1.499999735771154
 10
154.8110060241718
 20
-0.000000264228845
 10
123.8105880241716
 20
-0.0000002642287882
  0
ARC
  5
1BF8
330
16CC
100
AcDbEntity
  8
0
100
AcDbCircle
 10
123.725804896831
 20
297.2266233985005
 30
0.0
 40
1.0
100
AcDbArc
 50
180.8823589999988
 51
270.0
  0
POINT
  5
1BF9
330
16CC
100
AcDbEntity
  8
0
100
AcDbPoint
 10
124.8200588968314
 20
291.1268263985005
 30
0.0
  0
ARC
  5
1BFA
330
16CC
100
AcDbEntity
  8
0
100
AcDbCircle
 10
125.8067808968313
 20
291.9966763985005
 30
0.0
 40
1.0
100
AcDbArc
 50
180.8823569999998
 51
262.1601730000026
  0
ARC
  5
1BFB
330
16CC
100
AcDbEntity
  8
0
100
AcDbCircle
 10
131.2241308968308
 20
297.4055623985003
 30
0.0
 40
2.0
100
AcDbArc
 50
180.8823600000014
 51
265.2667410000032
  0
LINE
  5
1BFC
330
16CC
100
AcDbEntity
  8
0
100
AcDbLine
 10
123.7258048968313
 20
296.2266233985005
 30
0.0
 11
124.7415158968313
 21
296.2266233985005
 31
0.0
  0
LINE
  5
1BFD
330
16CC
100
AcDbEntity
  8
0
100
AcDbLine
 10
133.3107978968312
 20
305.0713493985006
 30
0.0
 11
133.3107978968312
 21
307.0713493985006
 31
0.0
  0
LINE
  5
1BFE
330
16CC
100
AcDbEntity
  8
0
100
AcDbLine
 10
133.3107978968313
 20
313.0713493985006
 30
0.0
 11
133.3107978968313
 21
315.0713493985006
 31
0.0
  0
LINE
  5
1BFF
330
16CC
100
AcDbEntity
  8
0
100
AcDbLine
 10
133.3107978968312
 20
309.0713493985006
 30
0.0
 11
133.3107978968312
 21
311.0713493985006
 31
0.0
  0
LINE
  5
1C00
330
16CC
100
AcDbEntity
  8
0
100
AcDbLine
 10
133.3107978968312
 20
301.0713493985006
 30
0.0
 11
133.3107978968312
 21
303.0713493985006
 31
0.0
  0
ARC
  5
1C01
330
16CC
100
AcDbEntity
  8
0
100
AcDbCircle
 10
152.8148148968313
 20
291.9966753985006
 30
0.0
 40
1.0
100
AcDbArc
 50
277.8398260000025
 51
359.1176429999998
  0
ARC
  5
1C02
330
16CC
100
AcDbEntity
  8
0
100
AcDbCircle
 10
147.3974668968309
 20
297.4055633985005
 30
0.0
 40
2.0
100
AcDbArc
 50
274.7332589999968
 51
359.1176410000012
  0
LINE
  5
1C03
330
16CC
100
AcDbEntity
  8
0
100
AcDbLine
 10
154.8957918968313
 20
296.2266233985005
 30
0.0
 11
153.8800798968314
 21
296.2266233985005
 31
0.0
  0
ARC
  5
1C04
330
16CC
100
AcDbEntity
  8
0
100
AcDbCircle
 10
154.8957918968309
 20
297.2266233985005
 30
0.0
 40
1.0
100
AcDbArc
 50
270.0
 51
359.1176410000012
  0
LINE
  5
1C05
330
16CC
100
AcDbEntity
  8
0
100
AcDbLine
 10
145.3107978968311
 20
307.0713493985004
 30
0.0
 11
145.3107978968311
 21
305.0713493985004
 31
0.0
  0
LINE
  5
1C06
330
16CC
100
AcDbEntity
  8
0
100
AcDbLine
 10
145.3107978968313
 20
315.0713493985004
 30
0.0
 11
145.3107978968313
 21
313.0713493985004
 31
0.0
  0
LINE
  5
1C07
330
16CC
100
AcDbEntity
  8
0
100
AcDbLine
 10
145.3107978968311
 20
311.0713493985004
 30
0.0
 11
145.3107978968311
 21
309.0713493985004
 31
0.0
  0
LINE
  5
1C08
330
16CC
100
AcDbEntity
  8
0
100
AcDbLine
 10
145.3107978968311
 20
303.0713493985004
 30
0.0
 11
145.3107978968311
 21
301.0713493985003
 31
0.0
  0
LINE
  5
1C09
330
16CC
100
AcDbEntity
  8
0
100
AcDbLine
 10
145.3107978968313
 20
317.0713493985005
 30
0.0
 11
133.3107978968313
 21
317.0713493985006
 31
0.0
  0
LINE
  5
1C0A
330
16CC
100
AcDbEntity
  8
0
100
AcDbLine
 10
145.3107978968311
 20
309.0713493985004
 30
0.0
 11
133.3107978968312
 21
309.0713493985006
 31
0.0
  0
LINE
  5
1C0B
330
16CC
100
AcDbEntity
  8
0
100
AcDbLine
 10
133.3107978968312
 20
303.0713493985006
 30
0.0
 11
145.3107978968311
 21
303.0713493985004
 31
0.0
  0
LINE
  5
1C0C
330
16CC
100
AcDbEntity
  8
0
100
AcDbLine
 10
133.3107978968313
 20
315.0713493985006
 30
0.0
 11
145.3107978968313
 21
315.0713493985004
 31
0.0
  0
LINE
  5
1C0D
330
16CC
100
AcDbEntity
  8
0
100
AcDbLine
 10
145.3107978968313
 20
313.0713493985004
 30
0.0
 11
133.3107978968313
 21
313.0713493985006
 31
0.0
  0
LINE
  5
1C0E
330
16CC
100
AcDbEntity
  8
0
100
AcDbLine
 10
133.3107978968312
 20
311.0713493985006
 30
0.0
 11
145.3107978968311
 21
311.0713493985004
 31
0.0
  0
LINE
  5
1C0F
330
16CC
100
AcDbEntity
  8
0
100
AcDbLine
 10
145.3107978968311
 20
301.0713493985003
 30
0.0
 11
133.3107978968312
 21
301.0713493985006
 31
0.0
  0
LINE
  5
1C10
330
16CC
100
AcDbEntity
  8
0
100
AcDbLine
 10
133.3107978968312
 20
307.0713493985006
 30
0.0
 11
145.3107978968311
 21
307.0713493985004
 31
0.0
  0
LINE
  5
1C11
330
16CC
100
AcDbEntity
  8
0
100
AcDbLine
 10
145.3107978968311
 20
305.0713493985004
 30
0.0
 11
133.3107978968312
 21
305.0713493985006
 31
0.0
  0
ARC
  5
1C12
330
16CC
100
AcDbEntity
  8
0
100
AcDbCircle
 10
139.3107978968311
 20
395.0713493985005
 30
0.0
 40
100.0
100
AcDbArc
 50
265.2667410000032
 51
274.7332589999968
  0
ARC
  5
1C13
330
16CC
100
AcDbEntity
  8
0
100
AcDbCircle
 10
139.3107978968311
 20
390.0713493985005
 30
0.0
 40
100.0
100
AcDbArc
 50
262.1601730000026
 51
277.8398260000025
  0
LINE
  5
1C14
330
16CC
100
AcDbEntity
  8
0
100
AcDbLine
 10
133.3107978968313
 20
321.0713493985006
 30
0.0
 11
133.3107978968313
 21
323.0713493985006
 31
0.0
  0
LINE
  5
1C15
330
16CC
100
AcDbEntity
  8
0
100
AcDbLine
 10
133.3107978968313
 20
329.0713493985006
 30
0.0
 11
133.3107978968313
 21
331.0713493985006
 31
0.0
  0
LINE
  5
1C16
330
16CC
100
AcDbEntity
  8
0
100
AcDbLine
 10
133.3107978968313
 20
325.0713493985006
 30
0.0
 11
133.3107978968313
 21
327.0713493985006
 31
0.0
  0
LINE
  5
1C17
330
16CC
100
AcDbEntity
  8
0
100
AcDbLine
 10
133.3107978968313
 20
337.0713493985006
 30
0.0
 11
133.3107978968313
 21
339.0713493985006
 31
0.0
  0
LINE
  5
1C18
330
16CC
100
AcDbEntity
  8
0
100
AcDbLine
 10
133.3107978968313
 20
333.0713493985006
 30
0.0
 11
133.3107978968313
 21
335.0713493985006
 31
0.0
  0
LINE
  5
1C19
330
16CC
100
AcDbEntity
  8
0
100
AcDbLine
 10
133.3107978968313
 20
341.0713493985006
 30
0.0
 11
133.3107978968313
 21
343.0713493985006
 31
0.0
  0
LINE
  5
1C1A
330
16CC
100
AcDbEntity
  8
0
100
AcDbLine
 10
133.3107978968313
 20
345.0713493985006
 30
0.0
 11
133.3107978968313
 21
347.0713493985006
 31
0.0
  0
LINE
  5
1C1B
330
16CC
100
AcDbEntity
  8
0
100
AcDbLine
 10
145.3107978968313
 20
339.0713493985006
 30
0.0
 11
145.3107978968313
 21
337.0713493985006
 31
0.0
  0
LINE
  5
1C1C
330
16CC
100
AcDbEntity
  8
0
100
AcDbLine
 10
145.3107978968313
 20
343.0713493985006
 30
0.0
 11
145.3107978968313
 21
341.0713493985006
 31
0.0
  0
LINE
  5
1C1D
330
16CC
100
AcDbEntity
  8
0
100
AcDbLine
 10
145.3107978968313
 20
347.0713493985006
 30
0.0
 11
145.3107978968313
 21
345.0713493985006
 31
0.0
  0
LINE
  5
1C1E
330
16CC
100
AcDbEntity
  8
0
100
AcDbLine
 10
133.3107978968313
 20
343.0713493985006
 30
0.0
 11
145.3107978968313
 21
343.0713493985006
 31
0.0
  0
LINE
  5
1C1F
330
16CC
100
AcDbEntity
  8
0
100
AcDbLine
 10
145.3107978968313
 20
341.0713493985006
 30
0.0
 11
133.3107978968313
 21
341.0713493985006
 31
0.0
  0
LINE
  5
1C20
330
16CC
100
AcDbEntity
  8
0
100
AcDbLine
 10
133.3107978968313
 20
339.0713493985006
 30
0.0
 11
145.3107978968313
 21
339.0713493985006
 31
0.0
  0
LINE
  5
1C21
330
16CC
100
AcDbEntity
  8
0
100
AcDbLine
 10
145.3107978968313
 20
337.0713493985006
 30
0.0
 11
133.3107978968313
 21
337.0713493985006
 31
0.0
  0
LINE
  5
1C22
330
16CC
100
AcDbEntity
  8
0
100
AcDbLine
 10
133.3107978968313
 20
347.0713493985006
 30
0.0
 11
145.3107978968313
 21
347.0713493985006
 31
0.0
  0
LINE
  5
1C23
330
16CC
100
AcDbEntity
  8
0
100
AcDbLine
 10
145.3107978968313
 20
345.0713493985006
 30
0.0
 11
133.3107978968313
 21
345.0713493985006
 31
0.0
  0
LINE
  5
1C24
330
16CC
100
AcDbEntity
  8
0
100
AcDbLine
 10
133.3107978968313
 20
335.0713493985006
 30
0.0
 11
145.3107978968313
 21
335.0713493985005
 31
0.0
  0
LINE
  5
1C25
330
16CC
100
AcDbEntity
  8
0
100
AcDbLine
 10
123.8105888968314
 20
357.6713493985005
 30
0.0
 11
122.8102788968313
 21
357.6713493985005
 31
0.0
  0
ARC
  5
1C26
330
16CC
100
AcDbEntity
  8
0
100
AcDbCircle
 10
122.8102788968313
 20
356.6713493985007
 30
0.0
 40
1.0
100
AcDbArc
 50
89.99999999999998
 51
180.8823589999988
  0
LINE
  5
1C27
330
16CC
100
AcDbEntity
  8
0
100
AcDbLine
 10
123.8105888968314
 20
356.6713493985005
 30
0.0
 11
123.8105888968314
 21
357.6713493985005
 31
0.0
  0
LINE
  5
1C28
330
16CC
100
AcDbEntity
  8
0
100
AcDbLine
 10
133.3107978968313
 20
349.0713493985006
 30
0.0
 11
133.3107978968313
 21
351.0713493985006
 31
0.0
  0
LINE
  5
1C29
330
16CC
100
AcDbEntity
  8
0
100
AcDbLine
 10
145.3107978968313
 20
351.0713493985006
 30
0.0
 11
145.3107978968313
 21
349.0713493985006
 31
0.0
  0
ARC
  5
1C2A
330
16CC
100
AcDbEntity
  8
0
100
AcDbCircle
 10
155.8113178968309
 20
356.6713493985005
 30
0.0
 40
1.0
100
AcDbArc
 50
359.1176410000012
 51
89.99999999999998
  0
LINE
  5
1C2B
330
16CC
100
AcDbEntity
  8
0
100
AcDbLine
 10
154.8110068968312
 20
357.6713493985005
 30
0.0
 11
154.8110068968312
 21
356.6713493985005
 31
0.0
  0
LINE
  5
1C2C
330
16CC
100
AcDbEntity
  8
0
100
AcDbLine
 10
154.8110068968312
 20
357.6713493985005
 30
0.0
 11
155.8113178968313
 21
357.6713493985002
 31
0.0
  0
LINE
  5
1C2D
330
16CC
100
AcDbEntity
  8
0
100
AcDbLine
 10
133.3107978968313
 20
351.0713493985006
 30
0.0
 11
145.3107978968313
 21
351.0713493985006
 31
0.0
  0
LINE
  5
1C2E
330
16CC
100
AcDbEntity
  8
0
100
AcDbLine
 10
145.3107978968313
 20
349.0713493985006
 30
0.0
 11
133.3107978968313
 21
349.0713493985006
 31
0.0
  0
LINE
  5
1C2F
330
16CC
100
AcDbEntity
  8
0
100
AcDbLine
 10
123.8105888968314
 20
356.6713493985005
 30
0.0
 11
154.8110068968312
 21
356.6713493985005
 31
0.0
  0
LINE
  5
1C30
330
16CC
100
AcDbEntity
  8
0
100
AcDbLine
 10
155.8956738968314
 20
297.2112233985005
 30
0.0
 11
156.8111988968314
 21
356.6559503985005
 31
0.0
  0
LINE
  5
1C31
330
16CC
100
AcDbEntity
  8
0
100
AcDbLine
 10
133.3107978968313
 20
317.0713493985006
 30
0.0
 11
133.3107978968313
 21
319.0713493985006
 31
0.0
  0
LINE
  5
1C32
330
16CC
100
AcDbEntity
  8
0
100
AcDbLine
 10
122.7259228968312
 20
297.2112233985005
 30
0.0
 11
121.8103968968314
 21
356.6559503985005
 31
0.0
  0
LINE
  5
1C33
330
16CC
100
AcDbEntity
  8
0
100
AcDbLine
 10
149.3972298968313
 20
297.3747643985003
 30
0.0
 11
150.3104728968313
 21
356.6713493985005
 31
0.0
  0
LINE
  5
1C34
330
16CC
100
AcDbEntity
  8
0
100
AcDbLine
 10
129.2243678968314
 20
297.3747643985003
 30
0.0
 11
128.3111228968313
 21
356.6713493985005
 31
0.0
  0
LINE
  5
1C35
330
16CC
100
AcDbEntity
  8
0
100
AcDbLine
 10
153.8146968968311
 20
291.9812763985003
 30
0.0
 11
154.8110068968312
 21
356.6713493985005
 31
0.0
  0
LINE
  5
1C36
330
16CC
100
AcDbEntity
  8
0
100
AcDbLine
 10
124.8069008968312
 20
291.9812763985003
 30
0.0
 11
123.8105888968314
 21
356.6713493985005
 31
0.0
  0
ARC
  5
1C37
330
16CC
100
AcDbEntity
  8
0
100
AcDbCircle
 10
152.8148140241719
 20
66.17467273577148
 30
0.0
 40
1.0
100
AcDbArc
 50
0.8823569999998694
 51
82.16017300000265
  0
LINE
  5
1C38
330
16CC
100
AcDbEntity
  8
0
100
AcDbLine
 10
154.8957900241718
 20
61.94472573577115
 30
0.0
 11
153.8800780241718
 21
61.94472573577121
 31
0.0
  0
ARC
  5
1C39
330
16CC
100
AcDbEntity
  8
0
100
AcDbCircle
 10
147.3974640241721
 20
60.76578673577154
 30
0.0
 40
2.0
100
AcDbArc
 50
0.8823600000015577
 51
85.26674100000319
  0
ARC
  5
1C3A
330
16CC
100
AcDbEntity
  8
0
100
AcDbCircle
 10
125.806780024172
 20
66.17467373577136
 30
0.0
 40
1.0
100
AcDbArc
 50
97.83982600000276
 51
179.1176429999999
  0
ARC
  5
1C3B
330
16CC
100
AcDbEntity
  8
0
100
AcDbCircle
 10
131.2241280241721
 20
60.76578573577143
 30
0.0
 40
2.0
100
AcDbArc
 50
94.73325899999677
 51
179.1176410000009
  0
LINE
  5
1C3C
330
16CC
100
AcDbEntity
  8
0
100
AcDbLine
 10
123.7258030241717
 20
61.94472573577121
 30
0.0
 11
124.7415140241716
 21
61.94472573577121
 31
0.0
  0
ARC
  5
1C3D
330
16CC
100
AcDbEntity
  8
0
100
AcDbCircle
 10
123.7258030241719
 20
60.94472573577142
 30
0.0
 40
1.0
100
AcDbArc
 50
89.99999999999998
 51
179.1176410000009
  0
LINE
  5
1C3E
330
16CC
100
AcDbEntity
  8
0
100
AcDbLine
 10
145.3107970241719
 20
57.0999997357714
 30
0.0
 11
133.3107970241719
 21
57.0999997357714
 31
0.0
  0
ARC
  5
1C3F
330
16CC
100
AcDbEntity
  8
0
100
AcDbCircle
 10
139.3107970241717
 20
-36.90000026422858
 30
0.0
 40
100.0
100
AcDbArc
 50
85.26674100000319
 51
94.73325899999677
  0
ARC
  5
1C40
330
16CC
100
AcDbEntity
  8
0
100
AcDbCircle
 10
139.3107970241719
 20
-31.90000026422859
 30
0.0
 40
100.0
100
AcDbArc
 50
82.16017300000265
 51
97.83982600000276
  0
LINE
  5
1C41
330
16CC
100
AcDbEntity
  8
0
100
AcDbLine
 10
145.3107970241719
 20
51.09999973577139
 30
0.0
 11
145.3107970241719
 21
53.09999973577141
 31
0.0
  0
LINE
  5
1C42
330
16CC
100
AcDbEntity
  8
0
100
AcDbLine
 10
145.3107970241719
 20
43.09999973577141
 30
0.0
 11
145.3107970241719
 21
45.0999997357714
 31
0.0
  0
LINE
  5
1C43
330
16CC
100
AcDbEntity
  8
0
100
AcDbLine
 10
145.3107970241719
 20
47.09999973577139
 30
0.0
 11
145.3107970241719
 21
49.09999973577139
 31
0.0
  0
LINE
  5
1C44
330
16CC
100
AcDbEntity
  8
0
100
AcDbLine
 10
133.3107970241719
 20
53.09999973577141
 30
0.0
 11
133.3107970241719
 21
51.09999973577139
 31
0.0
  0
LINE
  5
1C45
330
16CC
100
AcDbEntity
  8
0
100
AcDbLine
 10
133.3107970241719
 20
45.0999997357714
 30
0.0
 11
133.3107970241719
 21
43.09999973577141
 31
0.0
  0
LINE
  5
1C46
330
16CC
100
AcDbEntity
  8
0
100
AcDbLine
 10
133.3107970241719
 20
49.09999973577139
 30
0.0
 11
133.3107970241719
 21
47.09999973577139
 31
0.0
  0
LINE
  5
1C47
330
16CC
100
AcDbEntity
  8
0
100
AcDbLine
 10
145.3107970241719
 20
53.09999973577141
 30
0.0
 11
133.3107970241719
 21
53.09999973577141
 31
0.0
  0
LINE
  5
1C48
330
16CC
100
AcDbEntity
  8
0
100
AcDbLine
 10
133.3107970241719
 20
51.09999973577139
 30
0.0
 11
145.3107970241719
 21
51.09999973577139
 31
0.0
  0
LINE
  5
1C49
330
16CC
100
AcDbEntity
  8
0
100
AcDbLine
 10
133.3107970241719
 20
47.09999973577139
 30
0.0
 11
145.3107970241719
 21
47.09999973577139
 31
0.0
  0
LINE
  5
1C4A
330
16CC
100
AcDbEntity
  8
0
100
AcDbLine
 10
145.3107970241719
 20
45.0999997357714
 30
0.0
 11
133.3107970241719
 21
45.0999997357714
 31
0.0
  0
LINE
  5
1C4B
330
16CC
100
AcDbEntity
  8
0
100
AcDbLine
 10
133.3107970241719
 20
43.09999973577141
 30
0.0
 11
145.3107970241719
 21
43.09999973577141
 31
0.0
  0
LINE
  5
1C4C
330
16CC
100
AcDbEntity
  8
0
100
AcDbLine
 10
133.3107970241719
 20
55.09999973577141
 30
0.0
 11
145.3107970241719
 21
55.09999973577141
 31
0.0
  0
LINE
  5
1C4D
330
16CC
100
AcDbEntity
  8
0
100
AcDbLine
 10
145.3107970241719
 20
49.09999973577139
 30
0.0
 11
133.3107970241719
 21
49.09999973577139
 31
0.0
  0
LINE
  5
1C4E
330
16CC
100
AcDbEntity
  8
0
100
AcDbLine
 10
133.3107970241719
 20
57.0999997357714
 30
0.0
 11
133.3107970241719
 21
55.09999973577141
 31
0.0
  0
LINE
  5
1C4F
330
16CC
100
AcDbEntity
  8
0
100
AcDbLine
 10
145.3107970241719
 20
55.09999973577141
 30
0.0
 11
145.3107970241719
 21
57.0999997357714
 31
0.0
  0
ARC
  5
1C50
330
16CC
100
AcDbEntity
  8
0
100
AcDbCircle
 10
154.8957900241721
 20
60.94472573577139
 30
0.0
 40
1.0
100
AcDbArc
 50
0.8823589999988234
 51
89.99999999999998
  0
LINE
  5
1C51
330
16CC
100
AcDbEntity
  8
0
100
AcDbLine
 10
154.8110060241716
 20
0.4999997357711551
 30
0.0
 11
154.8110060241716
 21
1.499999735771154
 31
0.0
  0
LINE
  5
1C52
330
16CC
100
AcDbEntity
  8
0
100
AcDbLine
 10
154.8110060241716
 20
0.4999997357711551
 30
0.0
 11
155.8113170241719
 21
0.4999997357711551
 31
0.0
  0
LINE
  5
1C53
330
16CC
100
AcDbEntity
  8
0
100
AcDbLine
 10
123.8105880241716
 20
1.499999735771209
 30
0.0
 11
123.8105880241716
 21
0.4999997357712119
 31
0.0
  0
ARC
  5
1C54
330
16CC
100
AcDbEntity
  8
0
100
AcDbCircle
 10
122.8102780241717
 20
1.499999735771324
 30
0.0
 40
1.0
100
AcDbArc
 50
179.1176410000009
 51
270.0
  0
LINE
  5
1C55
330
16CC
100
AcDbEntity
  8
0
100
AcDbLine
 10
123.8105880241716
 20
0.4999997357712119
 30
0.0
 11
122.8102780241717
 21
0.4999997357712119
 31
0.0
  0
LINE
  5
1C56
330
16CC
100
AcDbEntity
  8
0
100
AcDbLine
 10
123.8105880241716
 20
1.499999735771209
 30
0.0
 11
154.8110060241716
 21
1.499999735771154
 31
0.0
  0
ARC
  5
1C57
330
16CC
100
AcDbEntity
  8
0
100
AcDbCircle
 10
155.811317024172
 20
1.499999735771266
 30
0.0
 40
1.0
100
AcDbArc
 50
270.0
 51
0.8823589999988234
  0
LINE
  5
1C58
330
16CC
100
AcDbEntity
  8
0
100
AcDbLine
 10
124.8068990241719
 20
66.19007273577125
 30
0.0
 11
123.8105880241716
 21
1.499999735771209
 31
0.0
  0
LINE
  5
1C59
330
16CC
100
AcDbEntity
  8
0
100
AcDbLine
 10
153.8146950241718
 20
66.19007273577125
 30
0.0
 11
154.8110060241716
 21
1.499999735771154
 31
0.0
  0
LINE
  5
1C5A
330
16CC
100
AcDbEntity
  8
0
100
AcDbLine
 10
129.2243970241717
 20
60.79859473577124
 30
0.0
 11
128.3111220241717
 21
1.499999735771209
 31
0.0
  0
LINE
  5
1C5B
330
16CC
100
AcDbEntity
  8
0
100
AcDbLine
 10
149.3972280241718
 20
60.79658473577132
 30
0.0
 11
150.3104720241719
 21
1.499999735771209
 31
0.0
  0
LINE
  5
1C5C
330
16CC
100
AcDbEntity
  8
0
100
AcDbLine
 10
122.7259210241717
 20
60.96012573577143
 30
0.0
 11
121.8103960241716
 21
1.515398735771325
 31
0.0
  0
LINE
  5
1C5D
330
16CC
100
AcDbEntity
  8
0
100
AcDbLine
 10
155.8956720241718
 20
60.96012573577137
 30
0.0
 11
156.8111980241716
 21
1.515398735771268
 31
0.0
  0
LINE
  5
1C5E
330
16CC
100
AcDbEntity
  8
0
100
AcDbLine
 10
7.39999978662913
 20
167.5058530449535
 30
0.0
 11
9.29999978662922
 21
167.5058530449535
 31
0.0
  0
LINE
  5
1C5F
330
16CC
100
AcDbEntity
  8
0
100
AcDbLine
 10
0.4999997866293846
 20
182.5058530449535
 30
0.0
 11
-0.0000002133707294
 21
182.5058530449535
 31
0.0
  0
LINE
  5
1C60
330
16CC
100
AcDbEntity
  8
0
100
AcDbLine
 10
-0.0000002133707142
 20
265.0055950449535
 30
0.0
 11
1.499999786629284
 21
265.0055950449535
 31
0.0
  0
LINE
  5
1C61
330
16CC
100
AcDbEntity
  8
0
100
AcDbLine
 10
-0.000000213370729
 20
184.5058530449535
 30
0.0
 11
0.4999997866294984
 21
184.5058530449535
 31
0.0
  0
LINE
  5
1C62
330
16CC
100
AcDbEntity
  8
0
100
AcDbLine
 10
9.299999786629225
 20
182.5058530449535
 30
0.0
 11
7.399999786629133
 21
182.5058530449535
 31
0.0
  0
LINE
  5
1C63
330
16CC
100
AcDbEntity
  8
0
100
AcDbLine
 10
-0.0000002133707325
 20
165.5058530449536
 30
0.0
 11
0.499999786629495
 21
165.5058530449536
 31
0.0
  0
LINE
  5
1C64
330
16CC
100
AcDbEntity
  8
0
100
AcDbLine
 10
-0.0000002133707321
 20
167.5058530449535
 30
0.0
 11
0.4999997866293816
 21
167.5058530449535
 31
0.0
  0
LINE
  5
1C65
330
16CC
100
AcDbEntity
  8
0
100
AcDbLine
 10
7.799999786629225
 20
182.5058530449535
 30
0.0
 11
7.799999786629222
 21
167.5058530449535
 31
0.0
  0
LINE
  5
1C66
330
16CC
100
AcDbEntity
  8
0
100
AcDbLine
 10
9.299999786629225
 20
182.5058530449535
 30
0.0
 11
9.29999978662922
 21
167.5058530449535
 31
0.0
  0
LINE
  5
1C67
330
16CC
100
AcDbEntity
  8
0
100
AcDbLine
 10
1.493626786629199
 20
87.50558904495363
 30
0.0
 11
1.499999786629251
 21
87.51196204495363
 31
0.0
  0
LINE
  5
1C68
330
16CC
100
AcDbEntity
  8
0
100
AcDbLine
 10
-0.000000213370747
 20
86.50558904495364
 30
0.0
 11
1.49999978662925
 21
86.50558904495364
 31
0.0
  0
LINE
  5
1C69
330
16CC
100
AcDbEntity
  8
0
100
AcDbLine
 10
1.49999978662925
 20
86.50558904495364
 30
0.0
 11
1.499999786629254
 21
98.50744104495381
 31
0.0
  0
LINE
  5
1C6A
330
16CC
100
AcDbEntity
  8
0
100
AcDbLine
 10
1.499999786629282
 20
251.5043040449536
 30
0.0
 11
1.499999786629284
 21
265.0055950449535
 31
0.0
  0
LINE
  5
1C6B
330
16CC
100
AcDbEntity
  8
0
100
AcDbLine
 10
-0.000000213370747
 20
86.50558904495364
 30
0.0
 11
-0.0000002133707142
 21
265.0055950449535
 31
0.0
  0
INSERT
  5
1C6C
330
16CC
100
AcDbEntity
  8
0
100
AcDbBlockReference
  2
カバ_横
 10
9.499999786629267
 20
175.0058530449536
 30
0.0
  0
LINE
  5
1C6D
330
16CC
100
AcDbEntity
  8
0
100
AcDbLine
 10
78.96484117149829
 20
239.9647222620088
 30
0.0
 11
78.96484117149829
 21
237.924733913135
 31
0.0
  0
LINE
  5
1C6E
330
16CC
100
AcDbEntity
  8
0
100
AcDbLine
 10
83.79509564224637
 20
242.8647222620087
 30
0.0
 11
80.09261964960789
 21
237.924733913135
 31
0.0
  0
LINE
  5
1C6F
330
16CC
100
AcDbEntity
  8
0
100
AcDbLine
 10
78.96484117149829
 20
237.924733913135
 30
0.0
 11
80.09261964960789
 21
237.924733913135
 31
0.0
  0
LINE
  5
1C70
330
16CC
100
AcDbEntity
  8
0
100
AcDbLine
 10
74.59509564224656
 20
239.9647222620088
 30
0.0
 11
70.60499978662907
 21
238.6206899738009
 31
0.0
  0
LINE
  5
1C71
330
16CC
100
AcDbEntity
  8
0
100
AcDbLine
 10
68.51355679697795
 20
236.6514791935347
 30
0.0
 11
70.59509564224653
 21
237.8532562061792
 31
0.0
  0
LINE
  5
1C72
330
16CC
100
AcDbEntity
  8
0
100
AcDbLine
 10
74.60499978662909
 20
242.8647222620088
 30
0.0
 11
74.60499978662906
 21
239.9647222620088
 31
0.0
  0
LINE
  5
1C73
330
16CC
100
AcDbEntity
  8
0
100
AcDbLine
 10
74.59509564224656
 20
239.9647222620088
 30
0.0
 11
78.96484117149829
 21
239.9647222620088
 31
0.0
  0
LINE
  5
1C74
330
16CC
100
AcDbEntity
  8
0
100
AcDbLine
 10
83.79509564224637
 20
242.8647222620087
 30
0.0
 11
74.59509564224656
 21
242.8647222620087
 31
0.0
  0
LINE
  5
1C75
330
16CC
100
AcDbEntity
  8
0
100
AcDbLine
 10
78.96484117149829
 20
209.8067261767719
 30
0.0
 11
80.09261964960789
 21
209.8067261767719
 31
0.0
  0
LINE
  5
1C76
330
16CC
100
AcDbEntity
  8
0
100
AcDbLine
 10
74.59509564224656
 20
204.8667378278984
 30
0.0
 11
74.59509564224656
 21
207.7667378278984
 31
0.0
  0
LINE
  5
1C77
330
16CC
100
AcDbEntity
  8
0
100
AcDbLine
 10
74.60499978662906
 20
207.7667378278984
 30
0.0
 11
74.60499978662906
 21
204.8667378278984
 31
0.0
  0
LINE
  5
1C78
330
16CC
100
AcDbEntity
  8
0
100
AcDbLine
 10
74.59509564224656
 20
207.7667378278984
 30
0.0
 11
78.96484117149829
 21
207.7667378278984
 31
0.0
  0
LINE
  5
1C79
330
16CC
100
AcDbEntity
  8
0
100
AcDbLine
 10
83.79509564224637
 20
204.8667378278984
 30
0.0
 11
74.59509564224656
 21
204.8667378278984
 31
0.0
  0
LINE
  5
1C7A
330
16CC
100
AcDbEntity
  8
0
100
AcDbLine
 10
74.59509564224656
 20
207.7667378278984
 30
0.0
 11
70.60499978662907
 21
209.1107701161063
 31
0.0
  0
LINE
  5
1C7B
330
16CC
100
AcDbEntity
  8
0
100
AcDbLine
 10
78.96484117149829
 20
207.7667378278984
 30
0.0
 11
78.96484117149829
 21
209.8067261767719
 31
0.0
  0
LINE
  5
1C7C
330
16CC
100
AcDbEntity
  8
0
100
AcDbLine
 10
83.79509564224637
 20
204.8667378278984
 30
0.0
 11
80.09261964960789
 21
209.8067261767719
 31
0.0
  0
LINE
  5
1C7D
330
16CC
100
AcDbEntity
  8
0
100
AcDbLine
 10
68.51355679697795
 20
236.6514791935347
 30
0.0
 11
70.59509564224653
 21
235.4497021808902
 31
0.0
  0
LINE
  5
1C7E
330
16CC
100
AcDbEntity
  8
0
100
AcDbLine
 10
70.60499978662907
 20
209.1107701161063
 30
0.0
 11
70.60499978662907
 21
238.6206899738009
 31
0.0
  0
LINE
  5
1C7F
330
16CC
100
AcDbEntity
  8
0
100
AcDbLine
 10
74.59509564224656
 20
204.8667378278984
 30
0.0
 11
67.31567378662946
 21
202.4147220449535
 31
0.0
  0
LINE
  5
1C80
330
16CC
100
AcDbEntity
  8
0
100
AcDbLine
 10
74.59509564224656
 20
242.8647222620087
 30
0.0
 11
67.31567378662946
 21
245.3167380449535
 31
0.0
  0
LINE
  5
1C81
330
16CC
100
AcDbEntity
  8
0
100
AcDbLine
 10
68.29999978662922
 20
190.0837100449539
 30
0.0
 11
68.29999978662922
 21
187.0837100449539
 31
0.0
  0
LINE
  5
1C82
330
16CC
100
AcDbEntity
  8
0
100
AcDbLine
 10
67.39999978662914
 20
184.708710044954
 30
0.0
 11
67.39999978662914
 21
185.333710044954
 31
0.0
  0
LINE
  5
1C83
330
16CC
100
AcDbEntity
  8
0
100
AcDbLine
 10
67.39999978662908
 20
171.3337100449539
 30
0.0
 11
67.39999978662914
 21
184.708710044954
 31
0.0
  0
LINE
  5
1C84
330
16CC
100
AcDbEntity
  8
0
100
AcDbLine
 10
68.29999978662915
 20
148.9297220449536
 30
0.0
 11
68.29999978662915
 21
145.9297220449536
 31
0.0
  0
LINE
  5
1C85
330
16CC
100
AcDbEntity
  8
0
100
AcDbLine
 10
67.39999978662907
 20
133.979722044953
 30
0.0
 11
67.39999978662907
 21
144.1797220449529
 31
0.0
  0
LINE
  5
1C86
330
16CC
100
AcDbEntity
  8
0
100
AcDbLine
 10
67.39999978662907
 20
151.853695385901
 30
0.0
 11
67.39999978662908
 21
169.7536953859009
 31
0.0
  0
LINE
  5
1C87
330
16CC
100
AcDbEntity
  8
0
100
AcDbLine
 10
67.39999978662907
 20
133.1697220449538
 30
0.0
 11
67.39999978662885
 21
104.0997220449537
 31
0.0
  0
LINE
  5
1C88
330
16CC
100
AcDbEntity
  8
0
100
AcDbLine
 10
67.31567378662949
 20
130.7297220449535
 30
0.0
 11
67.39999978662907
 21
130.7297220449535
 31
0.0
  0
LINE
  5
1C89
330
16CC
100
AcDbEntity
  8
0
100
AcDbLine
 10
67.31567378662926
 20
104.0997220449537
 30
0.0
 11
67.39999978662885
 21
104.0997220449537
 31
0.0
  0
LINE
  5
1C8A
330
16CC
100
AcDbEntity
  8
0
100
AcDbLine
 10
67.31567378662926
 20
111.7197220449537
 30
0.0
 11
67.39999978662885
 21
111.7197220449537
 31
0.0
  0
LINE
  5
1C8B
330
16CC
100
AcDbEntity
  8
0
100
AcDbLine
 10
67.31567378662926
 20
107.9097220449538
 30
0.0
 11
67.39999978662885
 21
107.9097220449538
 31
0.0
  0
LINE
  5
1C8C
330
16CC
100
AcDbEntity
  8
0
100
AcDbLine
 10
67.31567378662949
 20
126.9197220449534
 30
0.0
 11
67.39999978662907
 21
126.9197220449534
 31
0.0
  0
LINE
  5
1C8D
330
16CC
100
AcDbEntity
  8
0
100
AcDbLine
 10
67.31567378662949
 20
123.1097220449534
 30
0.0
 11
67.39999978662907
 21
123.1097220449534
 31
0.0
  0
LINE
  5
1C8E
330
16CC
100
AcDbEntity
  8
0
100
AcDbLine
 10
67.31567378662926
 20
119.3397220449537
 30
0.0
 11
67.39999978662885
 21
119.3397220449537
 31
0.0
  0
LINE
  5
1C8F
330
16CC
100
AcDbEntity
  8
0
100
AcDbLine
 10
67.31567378662926
 20
115.5297220449537
 30
0.0
 11
67.39999978662885
 21
115.5297220449537
 31
0.0
  0
LINE
  5
1C90
330
16CC
100
AcDbEntity
  8
0
100
AcDbLine
 10
67.31567378662926
 20
133.979722044953
 30
0.0
 11
67.39999978662907
 21
133.979722044953
 31
0.0
  0
LINE
  5
1C91
330
16CC
100
AcDbEntity
  8
0
100
AcDbLine
 10
67.31567378662937
 20
151.853695385901
 30
0.0
 11
67.39999978662907
 21
151.853695385901
 31
0.0
  0
LINE
  5
1C92
330
16CC
100
AcDbEntity
  8
0
100
AcDbLine
 10
68.29999978662915
 20
145.9297220449536
 30
0.0
 11
67.31567378662937
 21
145.9297220449538
 31
0.0
  0
LINE
  5
1C93
330
16CC
100
AcDbEntity
  8
0
100
AcDbLine
 10
68.29999978662915
 20
148.9297220449536
 30
0.0
 11
67.31567378662937
 21
148.9297220449538
 31
0.0
  0
LINE
  5
1C94
330
16CC
100
AcDbEntity
  8
0
100
AcDbLine
 10
67.31567378662926
 20
144.1797220449529
 30
0.0
 11
67.39999978662907
 21
144.1797220449529
 31
0.0
  0
LINE
  5
1C95
330
16CC
100
AcDbEntity
  8
0
100
AcDbLine
 10
67.31567378662949
 20
133.1297220449535
 30
0.0
 11
67.39999978662907
 21
133.1297220449535
 31
0.0
  0
LINE
  5
1C96
330
16CC
100
AcDbEntity
  8
0
100
AcDbLine
 10
68.29999978662922
 20
190.0837100449539
 30
0.0
 11
67.31567378662946
 21
190.0837100449539
 31
0.0
  0
LINE
  5
1C97
330
16CC
100
AcDbEntity
  8
0
100
AcDbLine
 10
68.29999978662922
 20
187.0837100449539
 30
0.0
 11
67.31567378662946
 21
187.0837100449539
 31
0.0
  0
LINE
  5
1C98
330
16CC
100
AcDbEntity
  8
0
100
AcDbLine
 10
67.39999978662914
 20
185.333710044954
 30
0.0
 11
67.31567378662932
 21
185.333710044954
 31
0.0
  0
LINE
  5
1C99
330
16CC
100
AcDbEntity
  8
0
100
AcDbLine
 10
67.31567378662937
 20
169.7536953859009
 30
0.0
 11
67.39999978662908
 21
169.7536953859009
 31
0.0
  0
LINE
  5
1C9A
330
16CC
100
AcDbEntity
  8
0
100
AcDbLine
 10
67.39999978662908
 20
171.3337100449539
 30
0.0
 11
67.31567378662929
 21
171.3337100449539
 31
0.0
  0
TEXT
  5
1CC9
330
16CC
100
AcDbEntity
  8
0
100
AcDbText
 10
2.24187407528484
 20
376.7807701897696
 30
0.0
 40
6.0
  1
PCON-C/CG-**-I-NP/PN-*-0
100
AcDbText
  0
ENDSEC
  0
SECTION
  2
OBJECTS
  0
DICTIONARY
  5
16BA
330
0
100
AcDbDictionary
  3
ACAD_GROUP
350
16BB
  3
ACAD_LAYOUT
350
16C7
  3
ACAD_MLINESTYLE
350
16C4
  3
ACAD_PLOTSETTINGS
350
16C6
  3
ACAD_PLOTSTYLENAME
350
16BC
  3
ACDBHEADERROUNDTRIPXREC
350
1CCB
  3
ACDBVARIABLEDICTIONARY
350
1C9C
  0
DICTIONARY
  5
1CC1
330
16CC
100
AcDbDictionary
280
     1
  3
ACAD_LAYOUTSELFREF
360
1CEC
  0
DICTIONARY
  5
1CBF
330
16C8
100
AcDbDictionary
280
     1
  3
ACAD_LAYOUTSELFREF
360
1CEB
  0
DICTIONARY
  5
16BB
102
{ACAD_REACTORS
330
16BA
102
}
330
16BA
100
AcDbDictionary
  0
DICTIONARY
  5
16C7
102
{ACAD_REACTORS
330
16BA
102
}
330
16BA
100
AcDbDictionary
  0
DICTIONARY
  5
16C4
102
{ACAD_REACTORS
330
16BA
102
}
330
16BA
100
AcDbDictionary
  3
STANDARD
350
16C5
  0
DICTIONARY
  5
16C6
102
{ACAD_REACTORS
330
16BA
102
}
330
16BA
100
AcDbDictionary
  0
ACDBDICTIONARYWDFLT
  5
16BC
102
{ACAD_REACTORS
330
16BA
102
}
330
16BA
100
AcDbDictionary
281
     1
  3
Normal
350
16BD
100
AcDbDictionaryWithDefault
340
16BD
  0
DICTIONARY
  5
1CCB
102
{ACAD_REACTORS
330
16BA
102
}
330
16BA
100
AcDbDictionary
  3
CEPSNTYPE
350
1CD5
  3
FINGERPRINTGUID
350
1CD6
  3
HYPERLINKBASE
350
1CCE
  3
INSUNITS
350
1CD4
  3
LAYOUTDICT
350
1CD0
  3
LWETCUNION
350
1CD3
  3
PLOTSETDICT
350
1CD1
  3
PLOTSTYLNAMDICT
350
1CD2
  3
PSVPSCALE
350
1CD8
  3
PUCSBASE
350
1CDB
  3
PUCSORGBACK
350
1CE1
  3
PUCSORGBOTTOM
350
1CDD
  3
PUCSORGFRONT
350
1CE0
  3
PUCSORGLEFT
350
1CDE
  3
PUCSORGRIGHT
350
1CDF
  3
PUCSORGTOP
350
1CDC
  3
PUCSORTHOREF
350
1CD9
  3
PUCSORTHOVIEW
350
1CDA
  3
STYLESHEET
350
1CCF
  3
TSTACKALIGN
350
1CCC
  3
TSTACKSIZE
350
1CCD
  3
UCSBASE
350
1CE4
  3
UCSORGBACK
350
1CEA
  3
UCSORGBOTTOM
350
1CE6
  3
UCSORGFRONT
350
1CE9
  3
UCSORGLEFT
350
1CE7
  3
UCSORGRIGHT
350
1CE8
  3
UCSORGTOP
350
1CE5
  3
UCSORTHOREF
350
1CE2
  3
UCSORTHOVIEW
350
1CE3
  3
VERSIONGUID
350
1CD7
  0
DICTIONARY
  5
1C9C
102
{ACAD_REACTORS
330
16BA
102
}
330
16BA
100
AcDbDictionary
  3
DIMASSOC
350
1C9D
  0
XRECORD
  5
1CEC
102
{ACAD_REACTORS
330
1CC1
102
}
330
1CC1
100
AcDbXrecord
340
16CC
  0
XRECORD
  5
1CEB
102
{ACAD_REACTORS
330
1CBF
102
}
330
1CBF
100
AcDbXrecord
340
16C8
  0
MLINESTYLE
  5
16C5
102
{ACAD_REACTORS
330
16C4
102
}
330
16C4
100
AcDbMlineStyle
  2
STANDARD
 70
     0
  3

 62
   256
 51
90.0
 52
90.0
 71
     2
 49
0.5
 62
   256
  6
BYLAYER
 49
-0.5
 62
   256
  6
BYLAYER
  0
ACDBPLACEHOLDER
  5
16BD
102
{ACAD_REACTORS
330
16BC
102
}
330
16BC
100
AcDbPlaceHolder
280
     0
  0
XRECORD
  5
1CD5
102
{ACAD_REACTORS
330
1CCB
102
}
330
1CCB
100
AcDbXrecord
 90
        0
  0
XRECORD
  5
1CD6
102
{ACAD_REACTORS
330
1CCB
102
}
330
1CCB
100
AcDbXrecord
  1
{5F09EC89-BEFE-455B-BC24-2BDC1A3A269B}
  0
XRECORD
  5
1CCE
102
{ACAD_REACTORS
330
1CCB
102
}
330
1CCB
100
AcDbXrecord
  1

  0
XRECORD
  5
1CD4
102
{ACAD_REACTORS
330
1CCB
102
}
330
1CCB
100
AcDbXrecord
 90
        0
  0
XRECORD
  5
1CD0
102
{ACAD_REACTORS
330
1CCB
102
}
330
1CCB
100
AcDbXrecord
340
16C7
  0
XRECORD
  5
1CD3
102
{ACAD_REACTORS
330
1CCB
102
}
330
1CCB
100
AcDbXrecord
 90
    10781
  0
XRECORD
  5
1CD1
102
{ACAD_REACTORS
330
1CCB
102
}
330
1CCB
100
AcDbXrecord
340
16C6
  0
XRECORD
  5
1CD2
102
{ACAD_REACTORS
330
1CCB
102
}
330
1CCB
100
AcDbXrecord
340
16BC
  0
XRECORD
  5
1CD8
102
{ACAD_REACTORS
330
1CCB
102
}
330
1CCB
100
AcDbXrecord
 40
0.0
  0
XRECORD
  5
1CDB
102
{ACAD_REACTORS
330
1CCB
102
}
330
1CCB
100
AcDbXrecord
340
0
  0
XRECORD
  5
1CE1
102
{ACAD_REACTORS
330
1CCB
102
}
330
1CCB
100
AcDbXrecord
 10
0.0
 20
0.0
 30
0.0
  0
XRECORD
  5
1CDD
102
{ACAD_REACTORS
330
1CCB
102
}
330
1CCB
100
AcDbXrecord
 10
0.0
 20
0.0
 30
0.0
  0
XRECORD
  5
1CE0
102
{ACAD_REACTORS
330
1CCB
102
}
330
1CCB
100
AcDbXrecord
 10
0.0
 20
0.0
 30
0.0
  0
XRECORD
  5
1CDE
102
{ACAD_REACTORS
330
1CCB
102
}
330
1CCB
100
AcDbXrecord
 10
0.0
 20
0.0
 30
0.0
  0
XRECORD
  5
1CDF
102
{ACAD_REACTORS
330
1CCB
102
}
330
1CCB
100
AcDbXrecord
 10
0.0
 20
0.0
 30
0.0
  0
XRECORD
  5
1CDC
102
{ACAD_REACTORS
330
1CCB
102
}
330
1CCB
100
AcDbXrecord
 10
0.0
 20
0.0
 30
0.0
  0
XRECORD
  5
1CD9
102
{ACAD_REACTORS
330
1CCB
102
}
330
1CCB
100
AcDbXrecord
340
0
  0
XRECORD
  5
1CDA
102
{ACAD_REACTORS
330
1CCB
102
}
330
1CCB
100
AcDbXrecord
 70
     0
  0
XRECORD
  5
1CCF
102
{ACAD_REACTORS
330
1CCB
102
}
330
1CCB
100
AcDbXrecord
  1

  0
XRECORD
  5
1CCC
102
{ACAD_REACTORS
330
1CCB
102
}
330
1CCB
100
AcDbXrecord
 90
        1
  0
XRECORD
  5
1CCD
102
{ACAD_REACTORS
330
1CCB
102
}
330
1CCB
100
AcDbXrecord
 90
       70
  0
XRECORD
  5
1CE4
102
{ACAD_REACTORS
330
1CCB
102
}
330
1CCB
100
AcDbXrecord
340
0
  0
XRECORD
  5
1CEA
102
{ACAD_REACTORS
330
1CCB
102
}
330
1CCB
100
AcDbXrecord
 10
0.0
 20
0.0
 30
0.0
  0
XRECORD
  5
1CE6
102
{ACAD_REACTORS
330
1CCB
102
}
330
1CCB
100
AcDbXrecord
 10
0.0
 20
0.0
 30
0.0
  0
XRECORD
  5
1CE9
102
{ACAD_REACTORS
330
1CCB
102
}
330
1CCB
100
AcDbXrecord
 10
0.0
 20
0.0
 30
0.0
  0
XRECORD
  5
1CE7
102
{ACAD_REACTORS
330
1CCB
102
}
330
1CCB
100
AcDbXrecord
 10
0.0
 20
0.0
 30
0.0
  0
XRECORD
  5
1CE8
102
{ACAD_REACTORS
330
1CCB
102
}
330
1CCB
100
AcDbXrecord
 10
0.0
 20
0.0
 30
0.0
  0
XRECORD
  5
1CE5
102
{ACAD_REACTORS
330
1CCB
102
}
330
1CCB
100
AcDbXrecord
 10
0.0
 20
0.0
 30
0.0
  0
XRECORD
  5
1CE2
102
{ACAD_REACTORS
330
1CCB
102
}
330
1CCB
100
AcDbXrecord
340
0
  0
XRECORD
  5
1CE3
102
{ACAD_REACTORS
330
1CCB
102
}
330
1CCB
100
AcDbXrecord
 70
     0
  0
XRECORD
  5
1CD7
102
{ACAD_REACTORS
330
1CCB
102
}
330
1CCB
100
AcDbXrecord
  1
{44ECCE01-E6D0-4830-9F9D-A6976B75DE25}
  0
DICTIONARYVAR
  5
1C9D
102
{ACAD_REACTORS
330
1C9C
102
}
330
1C9C
100
DictionaryVariables
280
     0
  1
1
  0
ENDSEC
  0
EOF
