  0
SECTION
  2
HEADER
  9
$ACADVER
  1
AC1009
  9
$INSBASE
 10
0.0
 20
0.0
 30
0.0
  9
$EXTMIN
 10
-0.0128164049386896
 20
-0.1223595381276255
 30
-0.0015258207003583
  9
$EXTMAX
 10
152.0013434393347
 20
312.50802683260758
 30
0.0000000349246037
  9
$LIMMIN
 10
0.0
 20
0.0
  9
$LIMMAX
 10
420.0
 20
297.0
  9
$ORTHOMODE
 70
     0
  9
$REGENMODE
 70
     1
  9
$FILLMODE
 70
     1
  9
$QTEXTMODE
 70
     0
  9
$MIRRTEXT
 70
     1
  9
$DRAGMODE
 70
     2
  9
$LTSCALE
 40
1.0
  9
$OSMODE
 70
    49
  9
$ATTMODE
 70
     1
  9
$TEXTSIZE
 40
2.5
  9
$TRACEWID
 40
1.0
  9
$TEXTSTYLE
  7
STANDARD
  9
$CLAYER
  8
0
  9
$CELTYPE
  6
BYLAYER
  9
$CECOLOR
 62
   256
  9
$DIMSCALE
 40
1.0
  9
$DIMASZ
 40
2.5
  9
$DIMEXO
 40
0.625
  9
$DIMDLI
 40
3.75
  9
$DIMRND
 40
0.0
  9
$DIMDLE
 40
0.0
  9
$DIMEXE
 40
1.25
  9
$DIMTP
 40
0.0
  9
$DIMTM
 40
0.0
  9
$DIMTXT
 40
2.5
  9
$DIMCEN
 40
2.5
  9
$DIMTSZ
 40
0.0
  9
$DIMTOL
 70
     0
  9
$DIMLIM
 70
     0
  9
$DIMTIH
 70
     0
  9
$DIMTOH
 70
     0
  9
$DIMSE1
 70
     0
  9
$DIMSE2
 70
     0
  9
$DIMTAD
 70
     1
  9
$DIMZIN
 70
     8
  9
$DIMBLK
  1

  9
$DIMASO
 70
     1
  9
$DIMSHO
 70
     1
  9
$DIMPOST
  1

  9
$DIMAPOST
  1

  9
$DIMALT
 70
     0
  9
$DIMALTD
 70
     3
  9
$DIMALTF
 40
0.03937007874016
  9
$DIMLFAC
 40
1.0
  9
$DIMTOFL
 70
     1
  9
$DIMTVP
 40
0.0
  9
$DIMTIX
 70
     0
  9
$DIMSOXD
 70
     0
  9
$DIMSAH
 70
     0
  9
$DIMBLK1
  1

  9
$DIMBLK2
  1

  9
$DIMSTYLE
  2
ISO-25
  9
$DIMCLRD
 70
     0
  9
$DIMCLRE
 70
     0
  9
$DIMCLRT
 70
     0
  9
$DIMTFAC
 40
1.0
  9
$DIMGAP
 40
0.625
  9
$LUNITS
 70
     2
  9
$LUPREC
 70
     4
  9
$SKETCHINC
 40
1.0
  9
$FILLETRAD
 40
10.0
  9
$AUNITS
 70
     0
  9
$AUPREC
 70
     0
  9
$MENU
  1
.
  9
$ELEVATION
 40
0.0
  9
$PELEVATION
 40
0.0
  9
$THICKNESS
 40
0.0
  9
$LIMCHECK
 70
     0
  9
$BLIPMODE
 70
     0
  9
$CHAMFERA
 40
10.0
  9
$CHAMFERB
 40
10.0
  9
$SKPOLY
 70
     0
  9
$TDCREATE
 40
2453944.6631341311
  9
$TDUPDATE
 40
2453944.663476435
  9
$TDINDWG
 40
0.0003428472
  9
$TDUSRTIMER
 40
0.0003428472
  9
$USRTIMER
 70
     1
  9
$ANGBASE
 50
0.0
  9
$ANGDIR
 70
     0
  9
$PDMODE
 70
     0
  9
$PDSIZE
 40
0.0
  9
$PLINEWID
 40
0.0
  9
$COORDS
 70
     0
  9
$SPLFRAME
 70
     0
  9
$SPLINETYPE
 70
     6
  9
$SPLINESEGS
 70
     8
  9
$ATTDIA
 70
     0
  9
$ATTREQ
 70
     1
  9
$HANDLING
 70
 22529
  9
$HANDSEED
  5
802
  9
$SURFTAB1
 70
     6
  9
$SURFTAB2
 70
     6
  9
$SURFTYPE
 70
     6
  9
$SURFU
 70
     6
  9
$SURFV
 70
     6
  9
$UCSNAME
  2

  9
$UCSORG
 10
0.0
 20
0.0
 30
0.0
  9
$UCSXDIR
 10
1.0
 20
0.0
 30
0.0
  9
$UCSYDIR
 10
0.0
 20
1.0
 30
0.0
  9
$PUCSNAME
  2

  9
$PUCSORG
 10
0.0
 20
0.0
 30
0.0
  9
$PUCSXDIR
 10
1.0
 20
0.0
 30
0.0
  9
$PUCSYDIR
 10
0.0
 20
1.0
 30
0.0
  9
$USERI1
 70
     0
  9
$USERI2
 70
     0
  9
$USERI3
 70
     0
  9
$USERI4
 70
     0
  9
$USERI5
 70
     0
  9
$USERR1
 40
0.0
  9
$USERR2
 40
0.0
  9
$USERR3
 40
0.0
  9
$USERR4
 40
0.0
  9
$USERR5
 40
0.0
  9
$WORLDVIEW
 70
     1
  9
$SHADEDGE
 70
     3
  9
$SHADEDIF
 70
    70
  9
$TILEMODE
 70
     1
  9
$MAXACTVP
 70
    64
  9
$PLIMCHECK
 70
     0
  9
$PEXTMIN
 10
1.0000000000000000E+020
 20
1.0000000000000000E+020
 30
1.0000000000000000E+020
  9
$PEXTMAX
 10
-1.0000000000000000E+020
 20
-1.0000000000000000E+020
 30
-1.0000000000000000E+020
  9
$PLIMMIN
 10
0.0
 20
0.0
  9
$PLIMMAX
 10
420.0
 20
297.0
  9
$UNITMODE
 70
     0
  9
$VISRETAIN
 70
     1
  9
$PLINEGEN
 70
     0
  9
$PSLTSCALE
 70
     1
  0
ENDSEC
  0
SECTION
  2
TABLES
  0
TABLE
  2
VPORT
 70
     3
  0
VPORT
  2
*ACTIVE
 70
     0
 10
0.0
 20
0.0
 11
1.0
 21
1.0
 12
75.994263517198021
 22
156.19283364723989
 13
0.0
 23
0.0
 14
10.0
 24
10.0
 15
10.0
 25
10.0
 16
0.0
 26
0.0
 36
1.0
 17
0.0
 27
0.0
 37
0.0
 40
315.30244095510039
 41
1.7189728958630519
 42
50.0
 43
0.0
 44
0.0
 50
0.0
 51
0.0
 71
     0
 72
   100
 73
     1
 74
     3
 75
     0
 76
     0
 77
     0
 78
     0
  0
ENDTAB
  0
TABLE
  2
LTYPE
 70
     4
  0
LTYPE
  2
CONTINUOUS
 70
     0
  3
Solid line
 72
    65
 73
     0
 40
0.0
  0
LTYPE
  2
CENTER
 70
     0
  3
____ _ ____ _ ____ _ ____ _ ____ _ ____ _ ____
 72
    65
 73
     4
 40
2.0
 49
1.25
 49
-0.25
 49
0.25
 49
-0.25
  0
LTYPE
  2
DASHED
 70
     0
  3
Dashed __ __ __ __ __ __ __ __ __ __ __ __ __ _
 72
    65
 73
     2
 40
19.050000000000001
 49
12.699999999999999
 49
-6.3499999999999988
  0
LTYPE
  2
DIVIDE
 70
     0
  3
__ . . __ . . __ . . __ . . __ . . __ . . __
 72
    65
 73
     6
 40
1.25
 49
0.0
 49
-0.25
 49
0.0
 49
-0.25
 49
0.0
 49
-0.25
  0
ENDTAB
  0
TABLE
  2
LAYER
 70
     5
  0
LAYER
  2
0
 70
     0
 62
     7
  6
CONTINUOUS
  0
LAYER
  2
外枠
 70
     0
 62
     7
  6
CONTINUOUS
  0
LAYER
  2
追加
 70
     0
 62
    10
  6
CONTINUOUS
  0
LAYER
  2
ﾚｲﾔ_1
 70
     0
 62
    12
  6
CONTINUOUS
  0
LAYER
  2
2_カバ_
 70
     0
 62
     7
  6
DIVIDE
  0
ENDTAB
  0
TABLE
  2
STYLE
 70
     1
  0
STYLE
  2
STANDARD
 70
     0
 40
0.0
 41
1.0
 50
0.0
 71
     0
 42
2.5
  3
txt
  4

  0
ENDTAB
  0
TABLE
  2
VIEW
 70
     0
  0
ENDTAB
  0
TABLE
  2
UCS
 70
     0
  0
ENDTAB
  0
TABLE
  2
APPID
 70
     1
  0
APPID
  2
ACAD
 70
     0
  0
ENDTAB
  0
TABLE
  2
DIMSTYLE
 70
     7
  0
DIMSTYLE
  2
ISO-25
 70
     0
  3

  4

  5

  6

  7

 40
1.0
 41
2.5
 42
0.625
 43
3.75
 44
1.25
 45
0.0
 46
0.0
 47
0.0
 48
0.0
140
2.5
141
2.5
142
0.0
143
0.03937007874016
144
1.0
145
0.0
146
1.0
147
0.625
 71
     0
 72
     0
 73
     0
 74
     0
 75
     0
 76
     0
 77
     1
 78
     8
170
     0
171
     3
172
     1
173
     0
174
     0
175
     0
176
     0
177
     0
178
     0
  0
DIMSTYLE
  2
1
 70
     0
  3

  4

  5

  6

  7

 40
0.0
 41
2.0
 42
1.0
 43
0.38
 44
1.0
 45
0.0
 46
0.0
 47
0.1
 48
0.1
140
2.5
141
-1.0
142
0.0
143
25.399999999999999
144
1.0
145
0.0
146
0.5
147
0.5
 71
     0
 72
     0
 73
     0
 74
     0
 75
     0
 76
     0
 77
     1
 78
     0
170
     0
171
     2
172
     0
173
     0
174
     0
175
     0
176
     0
177
     0
178
     0
  0
DIMSTYLE
  2
DIMSTYLE
 70
     0
  3

  4

  5

  6
OPEN
  7
OPEN
 40
1.0
 41
1.0
 42
2.539999961853026
 43
0.38
 44
2.539999961853026
 45
0.0
 46
0.0
 47
0.0
 48
0.0
140
3.2000000476837158
141
0.09
142
0.0
143
25.399999999999999
144
1.0
145
1.0
146
1.0
147
1.6000000238418579
 71
     0
 72
     0
 73
     0
 74
     0
 75
     0
 76
     0
 77
     0
 78
     0
170
     0
171
     2
172
     0
173
     1
174
     0
175
     0
176
     0
177
     0
178
     0
  0
DIMSTYLE
  2
2
 70
     0
  3

  4

  5

  6
OPEN
  7
OPEN
 40
1.0
 41
1.0
 42
2.539999961853026
 43
0.38
 44
2.539999961853026
 45
0.0
 46
0.0
 47
0.0
 48
0.0
140
3.2000000476837158
141
0.09
142
0.0
143
25.399999999999999
144
1.0
145
1.0
146
1.0
147
1.6000000000000001
 71
     0
 72
     0
 73
     0
 74
     0
 75
     0
 76
     0
 77
     1
 78
     8
170
     0
171
     2
172
     1
173
     1
174
     0
175
     0
176
     0
177
     0
178
     0
  0
DIMSTYLE
  2
__
 70
     0
  3
(<>)
  4

  5

  6
OPEN
  7
OPEN
 40
1.0
 41
1.0
 42
2.539999961853026
 43
0.38
 44
2.539999961853026
 45
0.0
 46
0.0
 47
0.0
 48
0.0
140
3.2000000476837158
141
0.09
142
0.0
143
25.399999999999999
144
1.0
145
1.0
146
1.0
147
1.6000000000000001
 71
     0
 72
     0
 73
     0
 74
     0
 75
     0
 76
     0
 77
     1
 78
     8
170
     0
171
     2
172
     1
173
     1
174
     0
175
     0
176
     0
177
     0
178
     0
  0
DIMSTYLE
  2
CPY公差0-_2
 70
     0
  3

  4

  5

  6
OPEN
  7
OPEN
 40
1.0
 41
1.0
 42
2.539999961853026
 43
0.38
 44
2.539999961853026
 45
0.0
 46
0.0
 47
0.0
 48
0.2
140
3.2000000476837158
141
0.09
142
0.0
143
25.399999999999999
144
1.0
145
1.0
146
1.0
147
1.6000000000000001
 71
     1
 72
     0
 73
     0
 74
     0
 75
     0
 76
     0
 77
     1
 78
     0
170
     0
171
     2
172
     1
173
     1
174
     0
175
     0
176
     0
177
     0
178
     0
  0
DIMSTYLE
  2
3
 70
     0
  3

  4

  5

  6
OPEN
  7
OPEN
 40
1.0
 41
1.0
 42
2.539999961853026
 43
0.38
 44
2.539999961853026
 45
0.0
 46
0.0
 47
0.0
 48
0.0
140
2.0
141
0.09
142
0.0
143
25.399999999999999
144
1.0
145
1.0
146
1.0
147
0.9
 71
     0
 72
     0
 73
     0
 74
     0
 75
     0
 76
     0
 77
     1
 78
     8
170
     0
171
     2
172
     1
173
     1
174
     0
175
     0
176
     0
177
     0
178
     0
  0
ENDTAB
  0
ENDSEC
  0
SECTION
  2
BLOCKS
  0
BLOCK
  8
0
  2
$MODEL_SPACE
 70
     0
 10
0.0
 20
0.0
 30
0.0
  3
$MODEL_SPACE
  1

  0
ENDBLK
  5
21
  8
0
  0
BLOCK
 67
     1
  8
0
  2
$PAPER_SPACE
 70
     0
 10
0.0
 20
0.0
 30
0.0
  3
$PAPER_SPACE
  1

  0
ENDBLK
  5
1D
 67
     1
  8
0
  0
BLOCK
  8
0
  2
_OPEN
 70
     0
 10
0.0
 20
0.0
 30
0.0
  3
_OPEN
  1

  0
LINE
  5
2C
  8
0
  6
BYBLOCK
 62
     0
 10
0.0
 20
0.0
 30
0.0
 11
-3.1279999530221492
 21
-0.5619999915596267
 31
0.0
  0
LINE
  5
2D
  8
0
  6
BYBLOCK
 62
     0
 10
0.0
 20
0.0
 30
0.0
 11
-3.1279999530221572
 21
0.5619999915595885
 31
0.0
  0
LINE
  5
2E
  8
0
  6
BYBLOCK
 62
     0
 10
0.0
 20
0.0
 30
0.0
 11
-2.9999999549445211
 21
0.0
 31
0.0
  0
ENDBLK
  5
30
  8
0
  0
BLOCK
  8
0
  2
C37
 70
     0
 10
0.0
 20
0.0
 30
0.0
  3
C37
  1

  0
LINE
  5
32
  8
ﾚｲﾔ_1
  6
CONTINUOUS
 62
     7
 10
393.07816400000002
 20
-241.43821
 30
0.0
 11
393.07816400000002
 21
-240.45704599999991
 31
0.0
  0
LINE
  5
33
  8
ﾚｲﾔ_1
  6
CONTINUOUS
 62
     7
 10
393.07816400000002
 20
-240.45704599999991
 30
0.0
 11
392.485435
 21
-240.45704599999991
 31
0.0
  0
LINE
  5
34
  8
ﾚｲﾔ_1
  6
CONTINUOUS
 62
     7
 10
392.485435
 20
-240.45704599999991
 30
0.0
 11
392.485435
 21
-241.43821
 31
0.0
  0
LINE
  5
35
  8
ﾚｲﾔ_1
  6
CONTINUOUS
 62
     7
 10
392.485435
 20
-241.43821
 30
0.0
 11
393.07816400000002
 21
-241.43821
 31
0.0
  0
ENDBLK
  5
37
  8
0
  0
BLOCK
  8
0
  2
C38
 70
     0
 10
0.0
 20
0.0
 30
0.0
  3
C38
  1

  0
LINE
  5
39
  8
ﾚｲﾔ_1
  6
CONTINUOUS
 62
     7
 10
395.26614399999988
 20
-240.428797
 30
0.0
 11
395.26614399999988
 21
-239.06677799999991
 31
0.0
  0
LINE
  5
3A
  8
ﾚｲﾔ_1
  6
CONTINUOUS
 62
     7
 10
395.26614399999988
 20
-239.06677799999991
 30
0.0
 11
393.79818899999998
 21
-239.06677799999991
 31
0.0
  0
LINE
  5
3B
  8
ﾚｲﾔ_1
  6
CONTINUOUS
 62
     7
 10
393.79818899999998
 20
-239.06677799999991
 30
0.0
 11
393.79818899999998
 21
-240.428797
 31
0.0
  0
LINE
  5
3C
  8
ﾚｲﾔ_1
  6
CONTINUOUS
 62
     7
 10
393.79818899999998
 20
-240.428797
 30
0.0
 11
395.26614399999988
 21
-240.428797
 31
0.0
  0
ENDBLK
  5
3E
  8
0
  0
BLOCK
  8
0
  2
C39
 70
     0
 10
0.0
 20
0.0
 30
0.0
  3
C39
  1

  0
LINE
  5
40
  8
ﾚｲﾔ_1
  6
CONTINUOUS
 62
     7
 10
394.82827300000002
 20
-240.04794099999989
 30
0.0
 11
394.82827300000002
 21
-239.06677799999991
 31
0.0
  0
LINE
  5
41
  8
ﾚｲﾔ_1
  6
CONTINUOUS
 62
     7
 10
394.82827300000002
 20
-239.06677799999991
 30
0.0
 11
394.23571600000002
 21
-239.06677799999991
 31
0.0
  0
LINE
  5
42
  8
ﾚｲﾔ_1
  6
CONTINUOUS
 62
     7
 10
394.23571600000002
 20
-239.06677799999991
 30
0.0
 11
394.23571600000002
 21
-240.04794099999989
 31
0.0
  0
LINE
  5
43
  8
ﾚｲﾔ_1
  6
CONTINUOUS
 62
     7
 10
394.23571600000002
 20
-240.04794099999989
 30
0.0
 11
394.82827300000002
 21
-240.04794099999989
 31
0.0
  0
ENDBLK
  5
45
  8
0
  0
BLOCK
  8
0
  2
C40
 70
     0
 10
0.0
 20
0.0
 30
0.0
  3
C40
  1

  0
LINE
  5
47
  8
ﾚｲﾔ_1
  6
CONTINUOUS
 62
     7
 10
393.79818899999998
 20
-238.6011729999999
 30
0.0
 11
393.79818899999998
 21
-237.23898299999999
 31
0.0
  0
LINE
  5
48
  8
ﾚｲﾔ_1
  6
CONTINUOUS
 62
     7
 10
393.79818899999998
 20
-237.23898299999999
 30
0.0
 11
395.26614399999988
 21
-237.23898299999999
 31
0.0
  0
LINE
  5
49
  8
ﾚｲﾔ_1
  6
CONTINUOUS
 62
     7
 10
395.26614399999988
 20
-237.23898299999999
 30
0.0
 11
395.26614399999988
 21
-238.6011729999999
 31
0.0
  0
LINE
  5
4A
  8
ﾚｲﾔ_1
  6
CONTINUOUS
 62
     7
 10
395.26614399999988
 20
-238.6011729999999
 30
0.0
 11
393.79818899999998
 21
-238.6011729999999
 31
0.0
  0
ENDBLK
  5
4C
  8
0
  0
BLOCK
  8
0
  2
C41
 70
     0
 10
0.0
 20
0.0
 30
0.0
  3
C41
  1

  0
LINE
  5
4E
  8
ﾚｲﾔ_1
  6
CONTINUOUS
 62
     7
 10
394.23571600000002
 20
-238.6011729999999
 30
0.0
 11
394.23571600000002
 21
-237.62001000000001
 31
0.0
  0
LINE
  5
4F
  8
ﾚｲﾔ_1
  6
CONTINUOUS
 62
     7
 10
394.23571600000002
 20
-237.62001000000001
 30
0.0
 11
394.82827300000002
 21
-237.62001000000001
 31
0.0
  0
LINE
  5
50
  8
ﾚｲﾔ_1
  6
CONTINUOUS
 62
     7
 10
394.82827300000002
 20
-237.62001000000001
 30
0.0
 11
394.82827300000002
 21
-238.6011729999999
 31
0.0
  0
LINE
  5
51
  8
ﾚｲﾔ_1
  6
CONTINUOUS
 62
     7
 10
394.82827300000002
 20
-238.6011729999999
 30
0.0
 11
394.23571600000002
 21
-238.6011729999999
 31
0.0
  0
ENDBLK
  5
53
  8
0
  0
BLOCK
  8
0
  2
C42
 70
     0
 10
0.0
 20
0.0
 30
0.0
  3
C42
  1

  0
LINE
  5
55
  8
ﾚｲﾔ_1
  6
CONTINUOUS
 62
     7
 10
393.51603599999987
 20
-239.0950279999999
 30
0.0
 11
393.51603599999987
 21
-237.73300900000001
 31
0.0
  0
LINE
  5
56
  8
ﾚｲﾔ_1
  6
CONTINUOUS
 62
     7
 10
393.51603599999987
 20
-237.73300900000001
 30
0.0
 11
392.04807999999991
 21
-237.73300900000001
 31
0.0
  0
LINE
  5
57
  8
ﾚｲﾔ_1
  6
CONTINUOUS
 62
     7
 10
392.04807999999991
 20
-237.73300900000001
 30
0.0
 11
392.04807999999991
 21
-239.0950279999999
 31
0.0
  0
LINE
  5
58
  8
ﾚｲﾔ_1
  6
CONTINUOUS
 62
     7
 10
392.04807999999991
 20
-239.0950279999999
 30
0.0
 11
393.51603599999987
 21
-239.0950279999999
 31
0.0
  0
ENDBLK
  5
5A
  8
0
  0
BLOCK
  8
0
  2
C43
 70
     0
 10
0.0
 20
0.0
 30
0.0
  3
C43
  1

  0
LINE
  5
5C
  8
ﾚｲﾔ_1
  6
CONTINUOUS
 62
     7
 10
393.078509
 20
-239.0950279999999
 30
0.0
 11
393.078509
 21
-238.114037
 31
0.0
  0
LINE
  5
5D
  8
ﾚｲﾔ_1
  6
CONTINUOUS
 62
     7
 10
393.078509
 20
-238.114037
 30
0.0
 11
392.485952
 21
-238.114037
 31
0.0
  0
LINE
  5
5E
  8
ﾚｲﾔ_1
  6
CONTINUOUS
 62
     7
 10
392.485952
 20
-238.114037
 30
0.0
 11
392.485952
 21
-239.0950279999999
 31
0.0
  0
LINE
  5
5F
  8
ﾚｲﾔ_1
  6
CONTINUOUS
 62
     7
 10
392.485952
 20
-239.0950279999999
 30
0.0
 11
393.078509
 21
-239.0950279999999
 31
0.0
  0
ENDBLK
  5
61
  8
0
  0
BLOCK
  8
0
  2
C44
 70
     0
 10
0.0
 20
0.0
 30
0.0
  3
C44
  1

  0
LINE
  5
63
  8
ﾚｲﾔ_1
  6
CONTINUOUS
 62
     7
 10
393.51603599999987
 20
-237.274295
 30
0.0
 11
393.51603599999987
 21
-235.91227599999991
 31
0.0
  0
LINE
  5
64
  8
ﾚｲﾔ_1
  6
CONTINUOUS
 62
     7
 10
393.51603599999987
 20
-235.91227599999991
 30
0.0
 11
392.04807999999991
 21
-235.91227599999991
 31
0.0
  0
LINE
  5
65
  8
ﾚｲﾔ_1
  6
CONTINUOUS
 62
     7
 10
392.04807999999991
 20
-235.91227599999991
 30
0.0
 11
392.04807999999991
 21
-237.274295
 31
0.0
  0
LINE
  5
66
  8
ﾚｲﾔ_1
  6
CONTINUOUS
 62
     7
 10
392.04807999999991
 20
-237.274295
 30
0.0
 11
393.51603599999987
 21
-237.274295
 31
0.0
  0
ENDBLK
  5
68
  8
0
  0
BLOCK
  8
0
  2
C45
 70
     0
 10
0.0
 20
0.0
 30
0.0
  3
C45
  1

  0
LINE
  5
6A
  8
ﾚｲﾔ_1
  6
CONTINUOUS
 62
     7
 10
393.078509
 20
-237.274295
 30
0.0
 11
393.078509
 21
-236.29330400000001
 31
0.0
  0
LINE
  5
6B
  8
ﾚｲﾔ_1
  6
CONTINUOUS
 62
     7
 10
393.078509
 20
-236.29330400000001
 30
0.0
 11
392.485952
 21
-236.29330400000001
 31
0.0
  0
LINE
  5
6C
  8
ﾚｲﾔ_1
  6
CONTINUOUS
 62
     7
 10
392.485952
 20
-236.29330400000001
 30
0.0
 11
392.485952
 21
-237.274295
 31
0.0
  0
LINE
  5
6D
  8
ﾚｲﾔ_1
  6
CONTINUOUS
 62
     7
 10
392.485952
 20
-237.274295
 30
0.0
 11
393.078509
 21
-237.274295
 31
0.0
  0
ENDBLK
  5
6F
  8
0
  0
BLOCK
  8
0
  2
C46
 70
     0
 10
0.0
 20
0.0
 30
0.0
  3
C46
  1

  0
LINE
  5
71
  8
ﾚｲﾔ_1
  6
CONTINUOUS
 62
     7
 10
391.631396
 20
-239.525837
 30
0.0
 11
391.631396
 21
-238.05788199999989
 31
0.0
  0
LINE
  5
72
  8
ﾚｲﾔ_1
  6
CONTINUOUS
 62
     7
 10
391.631396
 20
-238.05788199999989
 30
0.0
 11
390.2693779999999
 21
-238.05788199999989
 31
0.0
  0
LINE
  5
73
  8
ﾚｲﾔ_1
  6
CONTINUOUS
 62
     7
 10
390.2693779999999
 20
-238.05788199999989
 30
0.0
 11
390.2693779999999
 21
-239.525837
 31
0.0
  0
LINE
  5
74
  8
ﾚｲﾔ_1
  6
CONTINUOUS
 62
     7
 10
390.2693779999999
 20
-239.525837
 30
0.0
 11
391.631396
 21
-239.525837
 31
0.0
  0
ENDBLK
  5
76
  8
0
  0
BLOCK
  8
0
  2
C47
 70
     0
 10
0.0
 20
0.0
 30
0.0
  3
C47
  1

  0
LINE
  5
78
  8
ﾚｲﾔ_1
  6
CONTINUOUS
 62
     7
 10
391.631396
 20
-239.087965
 30
0.0
 11
391.631396
 21
-238.495237
 31
0.0
  0
LINE
  5
79
  8
ﾚｲﾔ_1
  6
CONTINUOUS
 62
     7
 10
391.631396
 20
-238.495237
 30
0.0
 11
390.65040499999992
 21
-238.495237
 31
0.0
  0
LINE
  5
7A
  8
ﾚｲﾔ_1
  6
CONTINUOUS
 62
     7
 10
390.65040499999992
 20
-238.495237
 30
0.0
 11
390.65040499999992
 21
-239.087965
 31
0.0
  0
LINE
  5
7B
  8
ﾚｲﾔ_1
  6
CONTINUOUS
 62
     7
 10
390.65040499999992
 20
-239.087965
 30
0.0
 11
391.631396
 21
-239.087965
 31
0.0
  0
ENDBLK
  5
7D
  8
0
  0
BLOCK
  8
0
  2
C48
 70
     0
 10
0.0
 20
0.0
 30
0.0
  3
C48
  1

  0
LINE
  5
7F
  8
ﾚｲﾔ_1
  6
CONTINUOUS
 62
     7
 10
391.631396
 20
-237.683572
 30
0.0
 11
391.631396
 21
-236.2156169999999
 31
0.0
  0
LINE
  5
80
  8
ﾚｲﾔ_1
  6
CONTINUOUS
 62
     7
 10
391.631396
 20
-236.2156169999999
 30
0.0
 11
390.2693779999999
 21
-236.2156169999999
 31
0.0
  0
LINE
  5
81
  8
ﾚｲﾔ_1
  6
CONTINUOUS
 62
     7
 10
390.2693779999999
 20
-236.2156169999999
 30
0.0
 11
390.2693779999999
 21
-237.683572
 31
0.0
  0
LINE
  5
82
  8
ﾚｲﾔ_1
  6
CONTINUOUS
 62
     7
 10
390.2693779999999
 20
-237.683572
 30
0.0
 11
391.631396
 21
-237.683572
 31
0.0
  0
ENDBLK
  5
84
  8
0
  0
BLOCK
  8
0
  2
C49
 70
     0
 10
0.0
 20
0.0
 30
0.0
  3
C49
  1

  0
LINE
  5
86
  8
ﾚｲﾔ_1
  6
CONTINUOUS
 62
     7
 10
391.631396
 20
-237.24604500000001
 30
0.0
 11
391.631396
 21
-236.65348900000001
 31
0.0
  0
LINE
  5
87
  8
ﾚｲﾔ_1
  6
CONTINUOUS
 62
     7
 10
391.631396
 20
-236.65348900000001
 30
0.0
 11
390.65040499999992
 21
-236.65348900000001
 31
0.0
  0
LINE
  5
88
  8
ﾚｲﾔ_1
  6
CONTINUOUS
 62
     7
 10
390.65040499999992
 20
-236.65348900000001
 30
0.0
 11
390.65040499999992
 21
-237.24604500000001
 31
0.0
  0
LINE
  5
89
  8
ﾚｲﾔ_1
  6
CONTINUOUS
 62
     7
 10
390.65040499999992
 20
-237.24604500000001
 30
0.0
 11
391.631396
 21
-237.24604500000001
 31
0.0
  0
ENDBLK
  5
8B
  8
0
  0
BLOCK
  8
0
  2
C51
 70
     0
 10
0.0
 20
0.0
 30
0.0
  3
C51
  1

  0
LINE
  5
8D
  8
ﾚｲﾔ_1
  6
CONTINUOUS
 62
     7
 10
389.64839899999998
 20
-239.56097700000001
 30
0.0
 11
389.64839899999998
 21
-238.0931939999999
 31
0.0
  0
LINE
  5
8E
  8
ﾚｲﾔ_1
  6
CONTINUOUS
 62
     7
 10
389.64839899999998
 20
-238.0931939999999
 30
0.0
 11
387.72896400000002
 21
-238.0931939999999
 31
0.0
  0
LINE
  5
8F
  8
ﾚｲﾔ_1
  6
CONTINUOUS
 62
     7
 10
387.72896400000002
 20
-238.0931939999999
 30
0.0
 11
387.72896400000002
 21
-239.56097700000001
 31
0.0
  0
LINE
  5
90
  8
ﾚｲﾔ_1
  6
CONTINUOUS
 62
     7
 10
387.72896400000002
 20
-239.56097700000001
 30
0.0
 11
389.64839899999998
 21
-239.56097700000001
 31
0.0
  0
ENDBLK
  5
92
  8
0
  0
BLOCK
  8
0
  2
C52
 70
     0
 10
0.0
 20
0.0
 30
0.0
  3
C52
  1

  0
LINE
  5
94
  8
ﾚｲﾔ_1
  6
CONTINUOUS
 62
     7
 10
389.64839899999998
 20
-239.56097700000001
 30
0.0
 11
389.64839899999998
 21
-238.0931939999999
 31
0.0
  0
LINE
  5
95
  8
ﾚｲﾔ_1
  6
CONTINUOUS
 62
     7
 10
389.64839899999998
 20
-238.0931939999999
 30
0.0
 11
387.72896400000002
 21
-238.0931939999999
 31
0.0
  0
LINE
  5
96
  8
ﾚｲﾔ_1
  6
CONTINUOUS
 62
     7
 10
387.72896400000002
 20
-238.0931939999999
 30
0.0
 11
387.72896400000002
 21
-239.56097700000001
 31
0.0
  0
LINE
  5
97
  8
ﾚｲﾔ_1
  6
CONTINUOUS
 62
     7
 10
387.72896400000002
 20
-239.56097700000001
 30
0.0
 11
389.64839899999998
 21
-239.56097700000001
 31
0.0
  0
ENDBLK
  5
99
  8
0
  0
BLOCK
  8
0
  2
C53
 70
     0
 10
0.0
 20
0.0
 30
0.0
  3
C53
  1

  0
LINE
  5
9B
  8
ﾚｲﾔ_1
  6
CONTINUOUS
 62
     7
 10
391.631396
 20
-241.36758499999999
 30
0.0
 11
391.631396
 21
-239.89962999999989
 31
0.0
  0
LINE
  5
9C
  8
ﾚｲﾔ_1
  6
CONTINUOUS
 62
     7
 10
391.631396
 20
-239.89962999999989
 30
0.0
 11
390.2693779999999
 21
-239.89962999999989
 31
0.0
  0
LINE
  5
9D
  8
ﾚｲﾔ_1
  6
CONTINUOUS
 62
     7
 10
390.2693779999999
 20
-239.89962999999989
 30
0.0
 11
390.2693779999999
 21
-241.36758499999999
 31
0.0
  0
LINE
  5
9E
  8
ﾚｲﾔ_1
  6
CONTINUOUS
 62
     7
 10
390.2693779999999
 20
-241.36758499999999
 30
0.0
 11
391.631396
 21
-241.36758499999999
 31
0.0
  0
ENDBLK
  5
A0
  8
0
  0
BLOCK
  8
0
  2
C54
 70
     0
 10
0.0
 20
0.0
 30
0.0
  3
C54
  1

  0
LINE
  5
A2
  8
ﾚｲﾔ_1
  6
CONTINUOUS
 62
     7
 10
391.631396
 20
-240.9298859999999
 30
0.0
 11
391.631396
 21
-240.33715699999999
 31
0.0
  0
LINE
  5
A3
  8
ﾚｲﾔ_1
  6
CONTINUOUS
 62
     7
 10
391.631396
 20
-240.33715699999999
 30
0.0
 11
390.65040499999992
 21
-240.33715699999999
 31
0.0
  0
LINE
  5
A4
  8
ﾚｲﾔ_1
  6
CONTINUOUS
 62
     7
 10
390.65040499999992
 20
-240.33715699999999
 30
0.0
 11
390.65040499999992
 21
-240.9298859999999
 31
0.0
  0
LINE
  5
A5
  8
ﾚｲﾔ_1
  6
CONTINUOUS
 62
     7
 10
390.65040499999992
 20
-240.9298859999999
 30
0.0
 11
391.631396
 21
-240.9298859999999
 31
0.0
  0
ENDBLK
  5
A7
  8
0
  0
BLOCK
  8
0
  2
C55
 70
     0
 10
0.0
 20
0.0
 30
0.0
  3
C55
  1

  0
LINE
  5
A9
  8
ﾚｲﾔ_1
  6
CONTINUOUS
 62
     7
 10
393.51603599999987
 20
-241.81923699999999
 30
0.0
 11
393.51603599999987
 21
-240.45704599999991
 31
0.0
  0
LINE
  5
AA
  8
ﾚｲﾔ_1
  6
CONTINUOUS
 62
     7
 10
393.51603599999987
 20
-240.45704599999991
 30
0.0
 11
392.04807999999991
 21
-240.45704599999991
 31
0.0
  0
LINE
  5
AB
  8
ﾚｲﾔ_1
  6
CONTINUOUS
 62
     7
 10
392.04807999999991
 20
-240.45704599999991
 30
0.0
 11
392.04807999999991
 21
-241.81923699999999
 31
0.0
  0
LINE
  5
AC
  8
ﾚｲﾔ_1
  6
CONTINUOUS
 62
     7
 10
392.04807999999991
 20
-241.81923699999999
 30
0.0
 11
393.51603599999987
 21
-241.81923699999999
 31
0.0
  0
ENDBLK
  5
AE
  8
0
  0
ENDSEC
  0
SECTION
  2
ENTITIES
  0
LINE
  5
436
  8
0
  6
CONTINUOUS
 10
67.044631288554683
 20
205.41262805102409
 30
0.0
 11
67.044631288554683
 21
105.86738205102441
 31
0.0
  0
LINE
  5
437
  8
0
  6
CONTINUOUS
 10
61.944631288554312
 20
110.7519760510236
 30
0.0
 11
61.944631288554334
 21
200.52803305102361
 31
0.0
  0
LINE
  5
438
  8
0
  6
CONTINUOUS
 10
0.5000002885549293
 20
109.391576051024
 30
0.0
 11
0.5000002885549435
 21
201.88843405102349
 31
0.0
  0
LINE
  5
439
  8
0
  6
CONTINUOUS
 10
67.800000288555125
 20
203.89000505102331
 30
0.0
 11
67.800000288555111
 21
107.39000505102329
 31
0.0
  0
LINE
  5
43A
  8
0
  6
CONTINUOUS
 10
67.315674288554433
 20
203.89000505102331
 30
0.0
 11
67.315674288554405
 21
107.39000505102329
 31
0.0
  0
LINE
  5
43B
  8
0
  6
CONTINUOUS
 10
27.100000288554419
 20
288.89313705102398
 30
0.0
 11
29.100000288554419
 21
288.89313705102398
 31
0.0
  0
LINE
  5
43C
  8
0
  6
CONTINUOUS
 10
27.100000288554419
 20
300.8931360510237
 30
0.0
 11
29.100000288554419
 21
300.8931360510237
 31
0.0
  0
LINE
  5
43D
  8
0
  6
CONTINUOUS
 10
1.522879288554136
 20
202.88817205102399
 30
0.0
 11
60.967510288554429
 21
201.5277720510235
 31
0.0
  0
LINE
  5
43E
  8
0
  6
CONTINUOUS
 10
1.5000002885549431
 20
207.89000505102339
 30
0.0
 11
67.1228792885545
 21
206.3882140510236
 31
0.0
  0
LINE
  5
43F
  8
0
  6
CONTINUOUS
 10
60.796659288554586
 20
284.80739405102349
 30
0.0
 11
1.500000288554957
 21
283.89367105102389
 31
0.0
  0
LINE
  5
440
  8
0
  6
CONTINUOUS
 10
60.796658288555172
 20
304.97888005102368
 30
0.0
 11
1.500000288554957
 21
305.89260205102391
 31
0.0
  0
LINE
  5
441
  8
0
  6
CONTINUOUS
 10
60.960038288555133
 20
311.47713405102382
 30
0.0
 11
1.0077042885546199
 21
312.40096005102401
 31
0.0
  0
LINE
  5
442
  8
0
  6
CONTINUOUS
 10
60.960038288555118
 20
278.30914005102341
 30
0.0
 11
1.0077042885546059
 21
277.38531305102379
 31
0.0
  0
LINE
  5
443
  8
0
  6
CONTINUOUS
 10
66.190182288554325
 20
309.39630305102361
 30
0.0
 11
1.500000288554971
 21
310.39313705102398
 31
0.0
  0
LINE
  5
444
  8
0
  6
CONTINUOUS
 10
66.190182288554325
 20
280.38997005102419
 30
0.0
 11
1.500000288554957
 21
279.3931370510241
 31
0.0
  0
LINE
  5
445
  8
0
  6
CONTINUOUS
 10
1.500000288554957
 20
279.3931370510241
 30
0.0
 11
1.500000288554971
 21
310.39313705102398
 31
0.0
  0
ARC
  5
446
  8
0
  6
CONTINUOUS
 10
1.000000288554971
 20
311.90101905102392
 30
0.0
 40
0.5
 50
89.117178999979515
 51
180.0
  0
LINE
  5
447
  8
0
  6
CONTINUOUS
 10
0.500000288554972
 20
310.39313705102398
 30
0.0
 11
0.500000288554972
 21
311.90101905102392
 31
0.0
  0
LINE
  5
448
  8
0
  6
CONTINUOUS
 10
0.500000288554972
 20
310.39313705102398
 30
0.0
 11
1.500000288554971
 21
310.39313705102398
 31
0.0
  0
LINE
  5
449
  8
0
  6
CONTINUOUS
 10
12.10000028855441
 20
288.89313705102398
 30
0.0
 11
12.10000028855441
 21
297.79313705102368
 31
0.0
  0
LINE
  5
44A
  8
0
  6
CONTINUOUS
 10
7.100000288554412
 20
288.89313605102382
 30
0.0
 11
7.100000288554412
 21
300.8931360510237
 31
0.0
  0
LINE
  5
44B
  8
0
  6
CONTINUOUS
 10
9.100000288554412
 20
300.8931360510237
 30
0.0
 11
9.100000288554412
 21
288.89313605102382
 31
0.0
  0
LINE
  5
44C
  8
0
  6
CONTINUOUS
 10
11.10000028855441
 20
288.8931360510237
 30
0.0
 11
11.10000028855441
 21
300.8931360510237
 31
0.0
  0
LINE
  5
44D
  8
0
  6
CONTINUOUS
 10
27.100000288554419
 20
288.89313705102398
 30
0.0
 11
27.100000288554419
 21
300.8931360510237
 31
0.0
  0
LINE
  5
44E
  8
0
  6
CONTINUOUS
 10
17.100000288554408
 20
297.79313705102368
 30
0.0
 11
15.10000028855441
 21
297.79313705102368
 31
0.0
  0
LINE
  5
44F
  8
0
  6
CONTINUOUS
 10
17.100000288554408
 20
300.8931360510237
 30
0.0
 11
15.10000028855441
 21
300.8931360510237
 31
0.0
  0
LINE
  5
450
  8
0
  6
CONTINUOUS
 10
7.100000288554412
 20
300.8931360510237
 30
0.0
 11
9.100000288554412
 21
300.8931360510237
 31
0.0
  0
LINE
  5
451
  8
0
  6
CONTINUOUS
 10
12.10000028855441
 20
297.79313705102368
 30
0.0
 11
13.10000028855441
 21
297.79313705102368
 31
0.0
  0
LINE
  5
452
  8
0
  6
CONTINUOUS
 10
15.10000028855441
 20
300.8931360510237
 30
0.0
 11
15.10000028855441
 21
297.79313705102368
 31
0.0
  0
LINE
  5
453
  8
0
  6
CONTINUOUS
 10
13.10000028855441
 20
300.8931360510237
 30
0.0
 11
13.10000028855441
 21
297.79313705102368
 31
0.0
  0
LINE
  5
454
  8
0
  6
CONTINUOUS
 10
11.10000028855441
 20
300.8931360510237
 30
0.0
 11
13.10000028855441
 21
300.8931360510237
 31
0.0
  0
LINE
  5
455
  8
0
  6
CONTINUOUS
 10
21.100000288554408
 20
297.79313705102368
 30
0.0
 11
19.100000288554408
 21
297.79313705102368
 31
0.0
  0
LINE
  5
456
  8
0
  6
CONTINUOUS
 10
21.100000288554408
 20
300.8931360510237
 30
0.0
 11
19.100000288554408
 21
300.8931360510237
 31
0.0
  0
LINE
  5
457
  8
0
  6
CONTINUOUS
 10
17.100000288554408
 20
300.8931360510237
 30
0.0
 11
17.100000288554408
 21
297.79313705102368
 31
0.0
  0
LINE
  5
458
  8
0
  6
CONTINUOUS
 10
19.100000288554408
 20
300.8931360510237
 30
0.0
 11
19.100000288554408
 21
297.79313705102368
 31
0.0
  0
LINE
  5
459
  8
0
  6
CONTINUOUS
 10
21.100000288554408
 20
300.8931360510237
 30
0.0
 11
21.100000288554408
 21
297.79313705102368
 31
0.0
  0
LINE
  5
45A
  8
0
  6
CONTINUOUS
 10
25.100000288554419
 20
297.79313705102368
 30
0.0
 11
23.100000288554419
 21
297.79313705102368
 31
0.0
  0
LINE
  5
45B
  8
0
  6
CONTINUOUS
 10
25.100000288554419
 20
300.8931360510237
 30
0.0
 11
23.100000288554419
 21
300.8931360510237
 31
0.0
  0
LINE
  5
45C
  8
0
  6
CONTINUOUS
 10
25.100000288554419
 20
300.8931360510237
 30
0.0
 11
25.100000288554419
 21
297.79313705102368
 31
0.0
  0
LINE
  5
45D
  8
0
  6
CONTINUOUS
 10
23.100000288554419
 20
300.8931360510237
 30
0.0
 11
23.100000288554419
 21
297.79313705102368
 31
0.0
  0
LINE
  5
45E
  8
0
  6
CONTINUOUS
 10
24.30000028855515
 20
295.9931370510235
 30
0.0
 11
14.500000288554951
 21
295.9931370510235
 31
0.0
  0
LINE
  5
45F
  8
0
  6
CONTINUOUS
 10
22.900000288554601
 20
292.29313705102368
 30
0.0
 11
15.90000028855459
 21
292.29313705102368
 31
0.0
  0
LINE
  5
460
  8
0
  6
CONTINUOUS
 10
17.40000028855459
 20
290.69313705102422
 30
0.0
 11
14.500000288554951
 21
290.69313705102422
 31
0.0
  0
LINE
  5
461
  8
0
  6
CONTINUOUS
 10
22.900000288554601
 20
294.29313705102368
 30
0.0
 11
15.90000028855459
 21
294.29313705102368
 31
0.0
  0
LINE
  5
462
  8
0
  6
CONTINUOUS
 10
13.250000288554951
 20
295.3681370510235
 30
0.0
 11
13.250000288554951
 21
291.21813705102392
 31
0.0
  0
LINE
  5
463
  8
0
  6
CONTINUOUS
 10
15.40000028855459
 20
293.79313705102368
 30
0.0
 11
15.40000028855459
 21
292.79313705102368
 31
0.0
  0
ARC
  5
464
  8
0
  6
CONTINUOUS
 10
15.90000028855459
 20
293.79313705102368
 30
0.0
 40
0.5
 50
90.0
 51
180.0
  0
LINE
  5
465
  8
0
  6
CONTINUOUS
 10
14.500000288554951
 20
295.3681370510235
 30
0.0
 11
13.250000288554951
 21
295.3681370510235
 31
0.0
  0
LINE
  5
466
  8
0
  6
CONTINUOUS
 10
14.500000288554951
 20
295.9931370510235
 30
0.0
 11
14.500000288554951
 21
295.3681370510235
 31
0.0
  0
ARC
  5
467
  8
0
  6
CONTINUOUS
 10
15.90000028855459
 20
292.79313705102368
 30
0.0
 40
0.5
 50
180.0
 51
270.0
  0
LINE
  5
468
  8
0
  6
CONTINUOUS
 10
14.500000288554951
 20
291.21813705102392
 30
0.0
 11
13.250000288554951
 21
291.21813705102392
 31
0.0
  0
LINE
  5
469
  8
0
  6
CONTINUOUS
 10
14.500000288554951
 20
291.21813705102392
 30
0.0
 11
14.500000288554951
 21
290.69313705102422
 31
0.0
  0
LINE
  5
46A
  8
0
  6
CONTINUOUS
 10
9.100000288554412
 20
288.89313605102382
 30
0.0
 11
7.100000288554412
 21
288.89313605102382
 31
0.0
  0
LINE
  5
46B
  8
0
  6
CONTINUOUS
 10
12.10000028855441
 20
288.8931360510237
 30
0.0
 11
11.10000028855441
 21
288.8931360510237
 31
0.0
  0
LINE
  5
46C
  8
0
  6
CONTINUOUS
 10
21.40000028855459
 20
290.69313705102422
 30
0.0
 11
21.40000028855459
 21
288.9931370510235
 31
0.0
  0
LINE
  5
46D
  8
0
  6
CONTINUOUS
 10
17.40000028855459
 20
290.69313705102422
 30
0.0
 11
17.40000028855459
 21
288.9931370510235
 31
0.0
  0
LINE
  5
46E
  8
0
  6
CONTINUOUS
 10
20.000000288554951
 20
292.29313705102368
 30
0.0
 11
20.000000288554951
 21
288.9931370510235
 31
0.0
  0
LINE
  5
46F
  8
0
  6
CONTINUOUS
 10
18.80000028855514
 20
292.29313705102368
 30
0.0
 11
18.80000028855514
 21
288.9931370510235
 31
0.0
  0
LINE
  5
470
  8
0
  6
CONTINUOUS
 10
24.30000028855515
 20
290.69313705102422
 30
0.0
 11
21.40000028855459
 21
290.69313705102422
 31
0.0
  0
LINE
  5
471
  8
0
  6
CONTINUOUS
 10
18.80000028855514
 20
295.9931370510235
 30
0.0
 11
18.80000028855514
 21
294.29313705102368
 31
0.0
  0
LINE
  5
472
  8
0
  6
CONTINUOUS
 10
20.000000288554951
 20
295.9931370510235
 30
0.0
 11
20.000000288554951
 21
294.29313705102368
 31
0.0
  0
LINE
  5
473
  8
0
  6
CONTINUOUS
 10
25.55000028855515
 20
295.3681370510235
 30
0.0
 11
25.55000028855515
 21
291.21813705102392
 31
0.0
  0
LINE
  5
474
  8
0
  6
CONTINUOUS
 10
23.400000288554601
 20
293.79313705102368
 30
0.0
 11
23.400000288554601
 21
292.79313705102368
 31
0.0
  0
LINE
  5
475
  8
0
  6
CONTINUOUS
 10
24.30000028855515
 20
295.9931370510235
 30
0.0
 11
24.30000028855515
 21
295.3681370510235
 31
0.0
  0
LINE
  5
476
  8
0
  6
CONTINUOUS
 10
25.55000028855515
 20
295.3681370510235
 30
0.0
 11
24.30000028855515
 21
295.3681370510235
 31
0.0
  0
ARC
  5
477
  8
0
  6
CONTINUOUS
 10
22.900000288554601
 20
293.79313705102368
 30
0.0
 40
0.5
 50
0.0
 51
90.0
  0
LINE
  5
478
  8
0
  6
CONTINUOUS
 10
25.55000028855515
 20
291.21813705102392
 30
0.0
 11
24.30000028855515
 21
291.21813705102392
 31
0.0
  0
LINE
  5
479
  8
0
  6
CONTINUOUS
 10
24.30000028855515
 20
291.21813705102392
 30
0.0
 11
24.30000028855515
 21
290.69313705102422
 31
0.0
  0
ARC
  5
47A
  8
0
  6
CONTINUOUS
 10
22.900000288554601
 20
292.79313705102368
 30
0.0
 40
0.5
 50
270.0
 51
0.0
  0
LINE
  5
47B
  8
0
  6
CONTINUOUS
 10
21.40000028855459
 20
288.9931370510235
 30
0.0
 11
17.40000028855459
 21
288.9931370510235
 31
0.0
  0
ARC
  5
47C
  8
0
  6
CONTINUOUS
 10
1.000000288554957
 20
277.88525405102388
 30
0.0
 40
0.5
 50
180.0
 51
270.88282099996832
  0
LINE
  5
47D
  8
0
  6
CONTINUOUS
 10
0.5000002885549577
 20
279.3931370510241
 30
0.0
 11
0.5000002885549577
 21
277.88525405102388
 31
0.0
  0
LINE
  5
47E
  8
0
  6
CONTINUOUS
 10
1.500000288554957
 20
279.3931370510241
 30
0.0
 11
0.5000002885549577
 21
279.3931370510241
 31
0.0
  0
LINE
  5
47F
  8
0
  6
CONTINUOUS
 10
1.5000002885549431
 20
207.89000505102339
 30
0.0
 11
1.5000002885549431
 21
202.88871505102409
 31
0.0
  0
ARC
  5
480
  8
0
  6
CONTINUOUS
 10
1.5000002885549431
 20
201.88843405102349
 30
0.0
 40
1.0
 50
88.689004999999753
 51
180.0
  0
LINE
  5
481
  8
0
  6
CONTINUOUS
 10
6.4000002885545788
 20
160.64000505102331
 30
0.0
 11
6.4000002885545646
 21
150.64000505102331
 31
0.0
  0
LINE
  5
482
  8
0
  6
CONTINUOUS
 10
8.5000002885549435
 20
160.64000505102331
 30
0.0
 11
8.5000002885549293
 21
150.64000505102331
 31
0.0
  0
ARC
  5
483
  8
0
  6
CONTINUOUS
 10
5.9875002885551254
 20
159.14000505102331
 30
0.0
 40
0.8125
 50
300.51023700001957
 51
59.4897629999804
  0
LINE
  5
484
  8
0
  6
CONTINUOUS
 10
8.5000002885549435
 20
160.64000505102331
 30
0.0
 11
6.4000002885545788
 21
160.64000505102331
 31
0.0
  0
ARC
  5
485
  8
0
  6
CONTINUOUS
 10
5.9875002885551254
 20
152.14000505102331
 30
0.0
 40
0.8125
 50
300.51023700001957
 51
59.4897629999804
  0
LINE
  5
486
  8
0
  6
CONTINUOUS
 10
6.4000002885545646
 20
150.64000505102331
 30
0.0
 11
8.5000002885549293
 21
150.64000505102331
 31
0.0
  0
ARC
  5
487
  8
0
  6
CONTINUOUS
 10
-31.899999711445581
 20
294.89313605102382
 30
0.0
 40
100.0
 50
352.16060200003392
 51
7.8393999999920121
  0
LINE
  5
488
  8
0
  6
CONTINUOUS
 10
39.100000288554419
 20
288.8931360510237
 30
0.0
 11
39.100000288554419
 21
300.8931360510237
 31
0.0
  0
LINE
  5
489
  8
0
  6
CONTINUOUS
 10
41.100000288554412
 20
300.8931360510237
 30
0.0
 11
41.100000288554412
 21
288.8931360510237
 31
0.0
  0
LINE
  5
48A
  8
0
  6
CONTINUOUS
 10
33.100000288554419
 20
300.8931360510237
 30
0.0
 11
33.100000288554419
 21
288.89313705102398
 31
0.0
  0
LINE
  5
48B
  8
0
  6
CONTINUOUS
 10
49.100000288554419
 20
300.8931360510237
 30
0.0
 11
49.100000288554419
 21
288.8931360510237
 31
0.0
  0
LINE
  5
48C
  8
0
  6
CONTINUOUS
 10
43.100000288554419
 20
288.8931360510237
 30
0.0
 11
43.100000288554419
 21
300.8931360510237
 31
0.0
  0
LINE
  5
48D
  8
0
  6
CONTINUOUS
 10
45.100000288554419
 20
300.8931360510237
 30
0.0
 11
45.100000288554419
 21
288.8931360510237
 31
0.0
  0
LINE
  5
48E
  8
0
  6
CONTINUOUS
 10
47.100000288554419
 20
288.8931360510237
 30
0.0
 11
47.100000288554419
 21
300.8931360510237
 31
0.0
  0
LINE
  5
48F
  8
0
  6
CONTINUOUS
 10
35.100000288554419
 20
288.89313705102398
 30
0.0
 11
35.100000288554419
 21
300.8931360510237
 31
0.0
  0
LINE
  5
490
  8
0
  6
CONTINUOUS
 10
37.100000288554419
 20
300.8931360510237
 30
0.0
 11
37.100000288554419
 21
288.89313705102398
 31
0.0
  0
LINE
  5
491
  8
0
  6
CONTINUOUS
 10
29.100000288554419
 20
300.8931360510237
 30
0.0
 11
29.100000288554419
 21
288.89313705102398
 31
0.0
  0
LINE
  5
492
  8
0
  6
CONTINUOUS
 10
31.100000288554408
 20
288.89313705102398
 30
0.0
 11
31.100000288554408
 21
300.8931360510237
 31
0.0
  0
LINE
  5
493
  8
0
  6
CONTINUOUS
 10
39.100000288554419
 20
300.8931360510237
 30
0.0
 11
41.100000288554412
 21
300.8931360510237
 31
0.0
  0
LINE
  5
494
  8
0
  6
CONTINUOUS
 10
31.100000288554408
 20
300.8931360510237
 30
0.0
 11
33.100000288554419
 21
300.8931360510237
 31
0.0
  0
LINE
  5
495
  8
0
  6
CONTINUOUS
 10
35.100000288554419
 20
300.8931360510237
 30
0.0
 11
37.100000288554419
 21
300.8931360510237
 31
0.0
  0
LINE
  5
496
  8
0
  6
CONTINUOUS
 10
43.100000288554419
 20
300.8931360510237
 30
0.0
 11
45.100000288554419
 21
300.8931360510237
 31
0.0
  0
LINE
  5
497
  8
0
  6
CONTINUOUS
 10
47.100000288554419
 20
300.8931360510237
 30
0.0
 11
49.100000288554419
 21
300.8931360510237
 31
0.0
  0
LINE
  5
498
  8
0
  6
CONTINUOUS
 10
41.100000288554412
 20
288.8931360510237
 30
0.0
 11
39.100000288554419
 21
288.8931360510237
 31
0.0
  0
LINE
  5
499
  8
0
  6
CONTINUOUS
 10
31.100000288554408
 20
288.89313705102398
 30
0.0
 11
33.100000288554419
 21
288.89313705102398
 31
0.0
  0
LINE
  5
49A
  8
0
  6
CONTINUOUS
 10
35.100000288554419
 20
288.89313705102398
 30
0.0
 11
37.100000288554419
 21
288.89313705102398
 31
0.0
  0
LINE
  5
49B
  8
0
  6
CONTINUOUS
 10
45.100000288554419
 20
288.8931360510237
 30
0.0
 11
43.100000288554419
 21
288.8931360510237
 31
0.0
  0
LINE
  5
49C
  8
0
  6
CONTINUOUS
 10
49.100000288554419
 20
288.8931360510237
 30
0.0
 11
47.100000288554419
 21
288.8931360510237
 31
0.0
  0
LINE
  5
49D
  8
0
  6
CONTINUOUS
 10
55.100000288554412
 20
288.8931360510237
 30
0.0
 11
55.100000288554419
 21
300.8931360510237
 31
0.0
  0
LINE
  5
49E
  8
0
  6
CONTINUOUS
 10
57.100000288554419
 20
300.8931360510237
 30
0.0
 11
57.100000288554412
 21
288.8931360510237
 31
0.0
  0
LINE
  5
49F
  8
0
  6
CONTINUOUS
 10
51.100000288554412
 20
288.8931360510237
 30
0.0
 11
51.100000288554412
 21
300.8931360510237
 31
0.0
  0
LINE
  5
4A0
  8
0
  6
CONTINUOUS
 10
53.100000288554419
 20
300.8931360510237
 30
0.0
 11
53.100000288554419
 21
288.8931360510237
 31
0.0
  0
ARC
  5
4A1
  8
0
  6
CONTINUOUS
 10
-36.899999711445581
 20
294.89313605102382
 30
0.0
 40
100.0
 50
355.26714499998189
 51
4.7328559999832871
  0
ARC
  5
4A2
  8
0
  6
CONTINUOUS
 10
60.765843288555097
 20
302.97911705102388
 30
0.0
 40
2.0
 50
4.7328559999832871
 51
89.117178999979515
  0
LINE
  5
4A3
  8
0
  6
CONTINUOUS
 10
61.944631288554348
 20
310.4772520510237
 30
0.0
 11
61.944631288554348
 21
309.46172405102379
 31
0.0
  0
ARC
  5
4A4
  8
0
  6
CONTINUOUS
 10
60.944631288554348
 20
310.4772520510237
 30
0.0
 40
1.0
 50
0.0
 51
89.117178999979515
  0
LINE
  5
4A5
  8
0
  6
CONTINUOUS
 10
55.100000288554419
 20
300.8931360510237
 30
0.0
 11
57.100000288554419
 21
300.8931360510237
 31
0.0
  0
LINE
  5
4A6
  8
0
  6
CONTINUOUS
 10
51.100000288554412
 20
300.8931360510237
 30
0.0
 11
53.100000288554419
 21
300.8931360510237
 31
0.0
  0
ARC
  5
4A7
  8
0
  6
CONTINUOUS
 10
66.174774288555028
 20
308.39642205102382
 30
0.0
 40
1.0
 50
7.8393999999920121
 51
89.117178999979515
  0
LINE
  5
4A8
  8
2_カバ_
  6
CONTINUOUS
 62
     7
 10
67.044631288554712
 20
309.38313705102382
 30
0.0
 11
66.190182288554325
 21
309.39630305102361
 31
0.0
  0
ARC
  5
4A9
  8
2_カバ_
  6
CONTINUOUS
 62
     7
 10
-31.899999711445581
 20
294.89313605102382
 30
0.0
 40
100.0
 50
7.8398270000301693
 51
8.3314890000080162
  0
ARC
  5
4AA
  8
0
  6
CONTINUOUS
 10
60.765844288554518
 20
286.80715605102392
 30
0.0
 40
2.0
 50
270.88282099996832
 51
355.26714499998189
  0
LINE
  5
4AB
  8
0
  6
CONTINUOUS
 10
57.100000288554412
 20
288.8931360510237
 30
0.0
 11
55.100000288554412
 21
288.8931360510237
 31
0.0
  0
LINE
  5
4AC
  8
0
  6
CONTINUOUS
 10
53.100000288554419
 20
288.8931360510237
 30
0.0
 11
51.100000288554412
 21
288.8931360510237
 31
0.0
  0
ARC
  5
4AD
  8
0
  6
CONTINUOUS
 10
60.944631288554341
 20
279.3090210510241
 30
0.0
 40
1.0
 50
270.88282099996832
 51
0.0
  0
LINE
  5
4AE
  8
0
  6
CONTINUOUS
 10
61.944631288554348
 20
279.3090210510241
 30
0.0
 11
61.944631288554348
 21
280.32454905102389
 31
0.0
  0
ARC
  5
4AF
  8
0
  6
CONTINUOUS
 10
66.174774288555028
 20
281.38985105102392
 30
0.0
 40
1.0
 50
270.88282099996832
 51
352.16060200003392
  0
LINE
  5
4B0
  8
2_カバ_
  6
CONTINUOUS
 62
     7
 10
67.044631288554712
 20
280.40313705102341
 30
0.0
 11
66.190182288554325
 21
280.38997005102419
 31
0.0
  0
ARC
  5
4B1
  8
2_カバ_
  6
CONTINUOUS
 62
     7
 10
-31.899999711445581
 20
294.89313605102382
 30
0.0
 40
100.0
 50
351.66851200001781
 51
352.1601739999839
  0
ARC
  5
4B2
  8
0
  6
CONTINUOUS
 10
60.944631288554341
 20
200.52803305102361
 30
0.0
 40
1.0
 50
0.0
 51
88.689004999999753
  0
ARC
  5
4B3
  8
0
  6
CONTINUOUS
 10
67.100000288554384
 20
205.3884760510241
 30
0.0
 40
1.0
 50
0.0
 51
88.689004999999753
  0
ARC
  5
4B4
  8
0
  6
CONTINUOUS
 10
66.044631288554697
 20
205.41262805102409
 30
0.0
 40
1.0
 50
0.0
 51
88.689004999999753
  0
LINE
  5
4B5
  8
0
  6
CONTINUOUS
 10
67.044631288554683
 20
206.39000505102331
 30
0.0
 11
67.044631288554683
 21
205.41262805102409
 31
0.0
  0
LINE
  5
4B6
  8
0
  6
CONTINUOUS
 10
68.100000288554398
 20
205.3884760510241
 30
0.0
 11
68.100000288554398
 21
203.89000505102331
 31
0.0
  0
LINE
  5
4B7
  8
0
  6
CONTINUOUS
 10
67.315674288554433
 20
203.89000505102331
 30
0.0
 11
68.100000288554398
 21
203.89000505102331
 31
0.0
  0
LINE
  5
4B8
  8
0
  6
CONTINUOUS
 10
60.796659288554551
 20
27.593566051023629
 30
0.0
 11
1.5000002885549151
 21
28.507289051023289
 31
0.0
  0
LINE
  5
4B9
  8
0
  6
CONTINUOUS
 10
60.796658288555122
 20
7.4220800510243521
 30
0.0
 11
1.5000002885549151
 21
6.5083580510241168
 31
0.0
  0
LINE
  5
4BA
  8
0
  6
CONTINUOUS
 10
60.960038288555083
 20
0.9238260510242639
 30
0.0
 11
1.0077042885545631
 21
0.0000000510240739
 31
0.0
  0
LINE
  5
4BB
  8
0
  6
CONTINUOUS
 10
60.960038288555083
 20
34.09182005102371
 30
0.0
 11
1.0077042885545631
 21
35.015647051024239
 31
0.0
  0
LINE
  5
4BC
  8
0
  6
CONTINUOUS
 10
66.190182288554269
 20
3.0046570510235711
 30
0.0
 11
1.5000002885549151
 21
2.0078230510239901
 31
0.0
  0
LINE
  5
4BD
  8
0
  6
CONTINUOUS
 10
66.190182288554283
 20
32.010990051023832
 30
0.0
 11
1.5000002885549151
 21
33.007823051023991
 31
0.0
  0
LINE
  5
4BE
  8
0
  6
CONTINUOUS
 10
27.100000288554359
 20
11.50782405102432
 30
0.0
 11
29.100000288554359
 21
11.50782405102432
 31
0.0
  0
LINE
  5
4BF
  8
0
  6
CONTINUOUS
 10
29.100000288554369
 20
23.507824051024329
 30
0.0
 11
27.100000288554369
 21
23.507824051024329
 31
0.0
  0
LINE
  5
4C0
  8
0
  6
CONTINUOUS
 10
1.522879288554122
 20
108.3918380510236
 30
0.0
 11
60.967510288554422
 21
109.75223805102409
 31
0.0
  0
LINE
  5
4C1
  8
0
  6
CONTINUOUS
 10
1.5000002885549291
 20
103.39000505102329
 30
0.0
 11
67.122879288554486
 21
104.8917960510239
 31
0.0
  0
LINE
  5
4C2
  8
0
  6
CONTINUOUS
 10
25.100000288554359
 20
11.50782405102432
 30
0.0
 11
25.100000288554359
 21
23.507824051024329
 31
0.0
  0
LINE
  5
4C3
  8
0
  6
CONTINUOUS
 10
7.1000002885543694
 20
23.507824051024329
 30
0.0
 11
7.1000002885543694
 21
11.50782405102432
 31
0.0
  0
LINE
  5
4C4
  8
0
  6
CONTINUOUS
 10
9.1000002885543694
 20
11.50782405102432
 30
0.0
 11
9.1000002885543694
 21
23.507824051024329
 31
0.0
  0
LINE
  5
4C5
  8
0
  6
CONTINUOUS
 10
23.100000288554369
 20
23.507824051024329
 30
0.0
 11
23.100000288554359
 21
11.50782405102432
 31
0.0
  0
LINE
  5
4C6
  8
0
  6
CONTINUOUS
 10
27.100000288554369
 20
23.507824051024329
 30
0.0
 11
27.100000288554359
 21
11.50782405102432
 31
0.0
  0
LINE
  5
4C7
  8
0
  6
CONTINUOUS
 10
1.5000002885549151
 20
33.007823051023991
 30
0.0
 11
1.5000002885549151
 21
2.0078230510239901
 31
0.0
  0
ARC
  5
4C8
  8
0
  6
CONTINUOUS
 10
1.5000002885549291
 20
109.391576051024
 30
0.0
 40
1.0
 50
180.0
 51
271.31099500000022
  0
LINE
  5
4C9
  8
0
  6
CONTINUOUS
 10
1.5000002885549291
 20
103.39000505102329
 30
0.0
 11
1.5000002885549291
 21
108.3913290510241
 31
0.0
  0
ARC
  5
4CA
  8
0
  6
CONTINUOUS
 10
1.0000002885549151
 20
34.51570605102421
 30
0.0
 40
0.5
 50
89.117178999979515
 51
180.0
  0
LINE
  5
4CB
  8
0
  6
CONTINUOUS
 10
0.5000002885549151
 20
33.007823051023991
 30
0.0
 11
0.5000002885549151
 21
34.51570605102421
 31
0.0
  0
LINE
  5
4CC
  8
0
  6
CONTINUOUS
 10
1.5000002885549151
 20
33.007823051023991
 30
0.0
 11
0.5000002885549151
 21
33.007823051023991
 31
0.0
  0
LINE
  5
4CD
  8
0
  6
CONTINUOUS
 10
17.100000288554369
 20
19.007824051024318
 30
0.0
 11
15.10000028855436
 21
19.007824051024318
 31
0.0
  0
LINE
  5
4CE
  8
0
  6
CONTINUOUS
 10
17.100000288554369
 20
23.507824051024329
 30
0.0
 11
15.10000028855436
 21
23.507824051024329
 31
0.0
  0
LINE
  5
4CF
  8
0
  6
CONTINUOUS
 10
9.1000002885543694
 20
23.507824051024329
 30
0.0
 11
7.1000002885543694
 21
23.507824051024329
 31
0.0
  0
LINE
  5
4D0
  8
0
  6
CONTINUOUS
 10
15.10000028855436
 20
23.507824051024329
 30
0.0
 11
15.10000028855436
 21
19.007824051024318
 31
0.0
  0
LINE
  5
4D1
  8
0
  6
CONTINUOUS
 10
11.100000288554369
 20
23.507824051024329
 30
0.0
 11
11.100000288554369
 21
19.007824051024318
 31
0.0
  0
LINE
  5
4D2
  8
0
  6
CONTINUOUS
 10
13.10000028855436
 20
19.007824051024318
 30
0.0
 11
13.10000028855436
 21
23.507824051024329
 31
0.0
  0
LINE
  5
4D3
  8
0
  6
CONTINUOUS
 10
13.10000028855436
 20
23.507824051024329
 30
0.0
 11
11.100000288554369
 21
23.507824051024329
 31
0.0
  0
LINE
  5
4D4
  8
0
  6
CONTINUOUS
 10
13.10000028855436
 20
19.007824051024318
 30
0.0
 11
11.100000288554369
 21
19.007824051024318
 31
0.0
  0
LINE
  5
4D5
  8
0
  6
CONTINUOUS
 10
17.100000288554369
 20
19.007824051024318
 30
0.0
 11
17.100000288554369
 21
23.507824051024329
 31
0.0
  0
LINE
  5
4D6
  8
0
  6
CONTINUOUS
 10
19.100000288554369
 20
23.507824051024329
 30
0.0
 11
19.100000288554369
 21
19.007824051024318
 31
0.0
  0
LINE
  5
4D7
  8
0
  6
CONTINUOUS
 10
21.100000288554369
 20
19.007824051024318
 30
0.0
 11
21.100000288554369
 21
23.507824051024329
 31
0.0
  0
LINE
  5
4D8
  8
0
  6
CONTINUOUS
 10
21.100000288554369
 20
23.507824051024329
 30
0.0
 11
19.100000288554369
 21
23.507824051024329
 31
0.0
  0
LINE
  5
4D9
  8
0
  6
CONTINUOUS
 10
21.100000288554369
 20
19.007824051024318
 30
0.0
 11
19.100000288554369
 21
19.007824051024318
 31
0.0
  0
LINE
  5
4DA
  8
0
  6
CONTINUOUS
 10
25.100000288554359
 20
23.507824051024329
 30
0.0
 11
23.100000288554369
 21
23.507824051024329
 31
0.0
  0
ARC
  5
4DB
  8
0
  6
CONTINUOUS
 10
1.0000002885549151
 20
0.4999410510241092
 30
0.0
 40
0.5
 50
180.0
 51
270.88282099996832
  0
LINE
  5
4DC
  8
0
  6
CONTINUOUS
 10
0.5000002885549151
 20
2.0078230510239901
 30
0.0
 11
0.5000002885549151
 21
0.4999410510241092
 31
0.0
  0
LINE
  5
4DD
  8
0
  6
CONTINUOUS
 10
0.5000002885549151
 20
2.0078230510239901
 30
0.0
 11
1.5000002885549151
 21
2.0078230510239901
 31
0.0
  0
LINE
  5
4DE
  8
0
  6
CONTINUOUS
 10
20.100000288554359
 20
13.007824051024331
 30
0.0
 11
14.100000288554369
 21
13.007824051024331
 31
0.0
  0
LINE
  5
4DF
  8
0
  6
CONTINUOUS
 10
14.100000288554369
 20
16.007824051024329
 30
0.0
 11
20.100000288554359
 21
16.007824051024329
 31
0.0
  0
LINE
  5
4E0
  8
0
  6
CONTINUOUS
 10
12.100000288554369
 20
17.507824051024318
 30
0.0
 11
22.100000288554369
 21
17.507824051024318
 31
0.0
  0
LINE
  5
4E1
  8
0
  6
CONTINUOUS
 10
22.100000288554369
 20
11.50782405102432
 30
0.0
 11
12.100000288554369
 21
11.50782405102432
 31
0.0
  0
LINE
  5
4E2
  8
0
  6
CONTINUOUS
 10
7.1000002885543694
 20
11.50782405102432
 30
0.0
 11
9.1000002885543694
 21
11.50782405102432
 31
0.0
  0
LINE
  5
4E3
  8
0
  6
CONTINUOUS
 10
13.600000288554369
 20
13.507824051024331
 30
0.0
 11
13.600000288554369
 21
15.507824051024331
 31
0.0
  0
LINE
  5
4E4
  8
0
  6
CONTINUOUS
 10
12.100000288554369
 20
11.50782405102432
 30
0.0
 11
12.100000288554369
 21
17.507824051024318
 31
0.0
  0
ARC
  5
4E5
  8
0
  6
CONTINUOUS
 10
14.100000288554369
 20
15.507824051024331
 30
0.0
 40
0.5
 50
90.0
 51
180.0
  0
ARC
  5
4E6
  8
0
  6
CONTINUOUS
 10
14.100000288554369
 20
13.507824051024331
 30
0.0
 40
0.5
 50
180.0
 51
270.0
  0
LINE
  5
4E7
  8
0
  6
CONTINUOUS
 10
20.600000288554369
 20
15.507824051024331
 30
0.0
 11
20.600000288554369
 21
13.507824051024331
 31
0.0
  0
LINE
  5
4E8
  8
0
  6
CONTINUOUS
 10
16.350000288554359
 20
16.007824051024329
 30
0.0
 11
16.350000288554359
 21
17.507824051024318
 31
0.0
  0
LINE
  5
4E9
  8
0
  6
CONTINUOUS
 10
17.850000288554369
 20
16.007824051024329
 30
0.0
 11
17.850000288554369
 21
17.507824051024318
 31
0.0
  0
ARC
  5
4EA
  8
0
  6
CONTINUOUS
 10
20.100000288554359
 20
15.507824051024331
 30
0.0
 40
0.5
 50
0.0
 51
90.0
  0
LINE
  5
4EB
  8
0
  6
CONTINUOUS
 10
16.350000288554359
 20
11.50782405102432
 30
0.0
 11
16.350000288554359
 21
13.007824051024331
 31
0.0
  0
LINE
  5
4EC
  8
0
  6
CONTINUOUS
 10
17.850000288554369
 20
11.50782405102432
 30
0.0
 11
17.850000288554369
 21
13.007824051024331
 31
0.0
  0
ARC
  5
4ED
  8
0
  6
CONTINUOUS
 10
20.100000288554359
 20
13.507824051024331
 30
0.0
 40
0.5
 50
270.0
 51
0.0
  0
LINE
  5
4EE
  8
0
  6
CONTINUOUS
 10
22.100000288554369
 20
17.507824051024318
 30
0.0
 11
22.100000288554369
 21
11.50782405102432
 31
0.0
  0
LINE
  5
4EF
  8
0
  6
CONTINUOUS
 10
25.100000288554359
 20
11.50782405102432
 30
0.0
 11
23.100000288554359
 21
11.50782405102432
 31
0.0
  0
ARC
  5
4F0
  8
0
  6
CONTINUOUS
 10
-31.899999711445631
 20
17.507824051024318
 30
0.0
 40
100.0
 50
352.160600000008
 51
7.839397999966045
  0
ARC
  5
4F1
  8
0
  6
CONTINUOUS
 10
-36.899999711445631
 20
17.507824051024318
 30
0.0
 40
100.0
 50
355.26714400001669
 51
4.7328550000180583
  0
LINE
  5
4F2
  8
0
  6
CONTINUOUS
 10
39.100000288554369
 20
23.507824051024329
 30
0.0
 11
39.100000288554362
 21
11.50782405102432
 31
0.0
  0
LINE
  5
4F3
  8
0
  6
CONTINUOUS
 10
41.100000288554362
 20
11.50782405102432
 30
0.0
 11
41.100000288554369
 21
23.507824051024329
 31
0.0
  0
LINE
  5
4F4
  8
0
  6
CONTINUOUS
 10
33.100000288554362
 20
11.50782405102432
 30
0.0
 11
33.100000288554369
 21
23.507824051024329
 31
0.0
  0
LINE
  5
4F5
  8
0
  6
CONTINUOUS
 10
49.100000288554362
 20
11.50782405102432
 30
0.0
 11
49.100000288554369
 21
23.507824051024329
 31
0.0
  0
LINE
  5
4F6
  8
0
  6
CONTINUOUS
 10
55.100000288554362
 20
23.507824051024329
 30
0.0
 11
55.100000288554362
 21
11.50782405102432
 31
0.0
  0
LINE
  5
4F7
  8
0
  6
CONTINUOUS
 10
43.100000288554362
 20
23.507824051024329
 30
0.0
 11
43.100000288554362
 21
11.50782405102432
 31
0.0
  0
LINE
  5
4F8
  8
0
  6
CONTINUOUS
 10
45.100000288554362
 20
11.50782405102432
 30
0.0
 11
45.100000288554362
 21
23.507824051024329
 31
0.0
  0
LINE
  5
4F9
  8
0
  6
CONTINUOUS
 10
47.100000288554369
 20
23.507824051024329
 30
0.0
 11
47.100000288554362
 21
11.50782405102432
 31
0.0
  0
LINE
  5
4FA
  8
0
  6
CONTINUOUS
 10
35.100000288554362
 20
23.507824051024329
 30
0.0
 11
35.100000288554362
 21
11.50782405102432
 31
0.0
  0
LINE
  5
4FB
  8
0
  6
CONTINUOUS
 10
37.100000288554362
 20
11.50782405102432
 30
0.0
 11
37.100000288554369
 21
23.507824051024329
 31
0.0
  0
LINE
  5
4FC
  8
0
  6
CONTINUOUS
 10
57.100000288554369
 20
11.50782405102432
 30
0.0
 11
57.100000288554369
 21
23.507824051024329
 31
0.0
  0
LINE
  5
4FD
  8
0
  6
CONTINUOUS
 10
51.100000288554369
 20
23.507824051024329
 30
0.0
 11
51.100000288554362
 21
11.50782405102432
 31
0.0
  0
LINE
  5
4FE
  8
0
  6
CONTINUOUS
 10
53.100000288554362
 20
11.50782405102432
 30
0.0
 11
53.100000288554369
 21
23.507824051024329
 31
0.0
  0
LINE
  5
4FF
  8
0
  6
CONTINUOUS
 10
29.100000288554359
 20
11.50782405102432
 30
0.0
 11
29.100000288554369
 21
23.507824051024329
 31
0.0
  0
LINE
  5
500
  8
0
  6
CONTINUOUS
 10
31.100000288554369
 20
23.507824051024329
 30
0.0
 11
31.100000288554359
 21
11.50782405102432
 31
0.0
  0
ARC
  5
501
  8
0
  6
CONTINUOUS
 10
60.944631288554319
 20
110.7519760510236
 30
0.0
 40
1.0
 50
271.31099500000022
 51
0.0
  0
ARC
  5
502
  8
0
  6
CONTINUOUS
 10
67.100000288554384
 20
105.89153405102439
 30
0.0
 40
1.0
 50
271.31099500000022
 51
0.0
  0
LINE
  5
503
  8
0
  6
CONTINUOUS
 10
67.044631288554683
 20
105.86738205102441
 30
0.0
 11
67.044631288554683
 21
104.89000505102329
 31
0.0
  0
ARC
  5
504
  8
0
  6
CONTINUOUS
 10
66.044631288554683
 20
105.86738205102441
 30
0.0
 40
1.0
 50
271.31099500000022
 51
0.0
  0
LINE
  5
505
  8
0
  6
CONTINUOUS
 10
68.100000288554384
 20
105.89153405102439
 30
0.0
 11
68.100000288554384
 21
107.39000505102329
 31
0.0
  0
LINE
  5
506
  8
0
  6
CONTINUOUS
 10
67.315674288554405
 20
107.39000505102329
 30
0.0
 11
68.100000288554384
 21
107.39000505102329
 31
0.0
  0
LINE
  5
507
  8
0
  6
CONTINUOUS
 10
41.100000288554369
 20
23.507824051024329
 30
0.0
 11
39.100000288554369
 21
23.507824051024329
 31
0.0
  0
LINE
  5
508
  8
0
  6
CONTINUOUS
 10
33.100000288554369
 20
23.507824051024329
 30
0.0
 11
31.100000288554369
 21
23.507824051024329
 31
0.0
  0
LINE
  5
509
  8
0
  6
CONTINUOUS
 10
37.100000288554369
 20
23.507824051024329
 30
0.0
 11
35.100000288554362
 21
23.507824051024329
 31
0.0
  0
LINE
  5
50A
  8
0
  6
CONTINUOUS
 10
45.100000288554362
 20
23.507824051024329
 30
0.0
 11
43.100000288554362
 21
23.507824051024329
 31
0.0
  0
LINE
  5
50B
  8
0
  6
CONTINUOUS
 10
49.100000288554369
 20
23.507824051024329
 30
0.0
 11
47.100000288554369
 21
23.507824051024329
 31
0.0
  0
ARC
  5
50C
  8
0
  6
CONTINUOUS
 10
60.765844288554469
 20
25.593804051024161
 30
0.0
 40
2.0
 50
4.7328550000180583
 51
89.117178999979515
  0
ARC
  5
50D
  8
0
  6
CONTINUOUS
 10
60.944631288554298
 20
33.091939051023978
 30
0.0
 40
1.0
 50
0.0
 51
89.117178999979515
  0
LINE
  5
50E
  8
0
  6
CONTINUOUS
 10
61.944631288554312
 20
33.091939051023978
 30
0.0
 11
61.944631288554312
 21
32.076411051024081
 31
0.0
  0
LINE
  5
50F
  8
0
  6
CONTINUOUS
 10
57.100000288554369
 20
23.507824051024329
 30
0.0
 11
55.100000288554362
 21
23.507824051024329
 31
0.0
  0
LINE
  5
510
  8
0
  6
CONTINUOUS
 10
53.100000288554369
 20
23.507824051024329
 30
0.0
 11
51.100000288554369
 21
23.507824051024329
 31
0.0
  0
ARC
  5
511
  8
0
  6
CONTINUOUS
 10
66.174774288554985
 20
31.011109051024111
 30
0.0
 40
1.0
 50
7.839397999966045
 51
89.117178999979515
  0
LINE
  5
512
  8
0
  6
CONTINUOUS
 10
67.044631288554669
 20
31.997823051023769
 30
0.0
 11
66.190182288554283
 21
32.010990051023832
 31
0.0
  0
ARC
  5
513
  8
0
  6
CONTINUOUS
 10
-31.899999711445631
 20
17.507824051024318
 30
0.0
 40
100.0
 50
7.839826000016072
 51
8.3314879999821478
  0
LINE
  5
514
  8
0
  6
CONTINUOUS
 10
39.100000288554362
 20
11.50782405102432
 30
0.0
 11
41.100000288554362
 21
11.50782405102432
 31
0.0
  0
LINE
  5
515
  8
0
  6
CONTINUOUS
 10
31.100000288554359
 20
11.50782405102432
 30
0.0
 11
33.100000288554362
 21
11.50782405102432
 31
0.0
  0
LINE
  5
516
  8
0
  6
CONTINUOUS
 10
35.100000288554362
 20
11.50782405102432
 30
0.0
 11
37.100000288554362
 21
11.50782405102432
 31
0.0
  0
LINE
  5
517
  8
0
  6
CONTINUOUS
 10
43.100000288554362
 20
11.50782405102432
 30
0.0
 11
45.100000288554362
 21
11.50782405102432
 31
0.0
  0
LINE
  5
518
  8
0
  6
CONTINUOUS
 10
47.100000288554362
 20
11.50782405102432
 30
0.0
 11
49.100000288554362
 21
11.50782405102432
 31
0.0
  0
LINE
  5
519
  8
0
  6
CONTINUOUS
 10
61.944631288554298
 20
1.9237080510243341
 30
0.0
 11
61.944631288554298
 21
2.9392360510242379
 31
0.0
  0
ARC
  5
51A
  8
0
  6
CONTINUOUS
 10
60.765843288555047
 20
9.4218430510241546
 30
0.0
 40
2.0
 50
270.88282099996832
 51
355.26714400001669
  0
LINE
  5
51B
  8
0
  6
CONTINUOUS
 10
55.100000288554362
 20
11.50782405102432
 30
0.0
 11
57.100000288554369
 21
11.50782405102432
 31
0.0
  0
LINE
  5
51C
  8
0
  6
CONTINUOUS
 10
51.100000288554362
 20
11.50782405102432
 30
0.0
 11
53.100000288554362
 21
11.50782405102432
 31
0.0
  0
ARC
  5
51D
  8
2_カバ_
  6
CONTINUOUS
 62
   140
 10
66.174774288554971
 20
4.0045380510233031
 30
0.0
 40
1.0
 50
270.88282099996832
 51
352.160600000008
  0
LINE
  5
51E
  8
2_カバ_
  6
CONTINUOUS
 62
     7
 10
67.044631288554655
 20
3.0178230510242079
 30
0.0
 11
66.190182288554269
 21
3.0046570510235711
 31
0.0
  0
ARC
  5
51F
  8
2_カバ_
  6
CONTINUOUS
 62
     7
 10
-31.899999711445631
 20
17.507824051024318
 30
0.0
 40
100.0
 50
351.6685109999919
 51
352.1601729999698
  0
ARC
  5
520
  8
0
  6
CONTINUOUS
 10
60.944631288554298
 20
1.9237080510243341
 30
0.0
 40
1.0
 50
270.88282099996832
 51
0.0
  0
LINE
  5
521
  8
0
 10
0.0000002885549293
 20
95.640005051022456
 30
0.0
 11
0.0000002885549435
 21
215.64000505102331
 31
0.0
  0
LINE
  5
522
  8
0
 10
1.5000002885549431
 20
202.88843405102361
 30
0.0
 11
1.5000002885549431
 21
215.64000505102331
 31
0.0
  0
LINE
  5
523
  8
0
 10
1.5000002885549291
 20
95.640005051022456
 30
0.0
 11
1.5000002885549291
 21
107.6418570510218
 31
0.0
  0
LINE
  5
524
  8
0
 10
0.0000002885549293
 20
95.640005051022456
 30
0.0
 11
1.5000002885549291
 21
95.640005051022456
 31
0.0
  0
LINE
  5
525
  8
0
 10
1.4936272885547619
 20
96.640005051022456
 30
0.0
 11
1.5000002885549291
 21
96.646378051021713
 31
0.0
  0
LINE
  5
526
  8
0
 10
0.0000002885549435
 20
215.64000505102331
 30
0.0
 11
1.5000002885549431
 21
215.64000505102331
 31
0.0
  0
POLYLINE
  5
527
  8
0
 66
     1
 10
0.0
 20
0.0
 30
0.0
 70
     1
  0
VERTEX
  5
7DA
  8
0
 10
1.500000288554971
 20
310.39334605102391
 30
0.0
  0
VERTEX
  5
7DB
  8
0
 10
1.500000288554957
 20
279.39292805102428
 30
0.0
  0
VERTEX
  5
7DC
  8
0
 10
0.0000002885549577
 20
279.39292805102428
 30
0.0
  0
VERTEX
  5
7DD
  8
0
 10
0.0000002885549719
 20
310.39334605102391
 30
0.0
  0
SEQEND
  5
7DE
  8
0
  0
LINE
  5
528
  8
0
 10
1.5000002885549151
 20
33.008032051023797
 30
0.0
 11
1.5000002885549151
 21
2.0076140510241771
 31
0.0
  0
POLYLINE
  5
529
  8
0
 66
     1
 10
0.0
 20
0.0
 30
0.0
 70
     1
  0
VERTEX
  5
7DF
  8
0
 10
1.5000002885549151
 20
33.008032051023797
 30
0.0
  0
VERTEX
  5
7E0
  8
0
 10
1.5000002885549151
 20
2.0076140510241771
 30
0.0
  0
VERTEX
  5
7E1
  8
0
 10
0.0000002885549151
 20
2.0076140510241771
 30
0.0
  0
VERTEX
  5
7E2
  8
0
 10
0.0000002885549151
 20
33.008032051023797
 30
0.0
  0
SEQEND
  5
7E3
  8
0
  0
LINE
  5
52A
  8
0
 10
1.5000002885549151
 20
13.507823051023991
 30
0.0
 11
0.0000002885549151
 21
13.507823051023991
 31
0.0
  0
LINE
  5
52B
  8
0
 10
1.5000002885549151
 20
21.507823051023991
 30
0.0
 11
0.0000002885549151
 21
21.507823051023991
 31
0.0
  0
LINE
  5
52C
  8
0
 10
1.5000002885549151
 20
15.007823051023991
 30
0.0
 11
0.0000002885549151
 21
15.007823051023991
 31
0.0
  0
LINE
  5
52D
  8
0
 10
1.5000002885549151
 20
20.00782305102398
 30
0.0
 11
0.0000002885549151
 21
20.00782305102398
 31
0.0
  0
LINE
  5
52E
  8
0
  6
CONTINUOUS
 10
139.94902828855399
 20
194.7900050510228
 30
0.0
 11
139.94902828855399
 21
112.0900050510231
 31
0.0
  0
LINE
  5
52F
  8
0
  6
CONTINUOUS
 10
150.81785328855449
 20
200.50541105102309
 30
0.0
 11
150.81785328855449
 21
110.7746000510238
 31
0.0
  0
LINE
  5
530
  8
0
  6
CONTINUOUS
 10
129.14902828855469
 20
112.0900050510231
 30
0.0
 11
129.14902828855469
 21
129.5900050510231
 31
0.0
  0
LINE
  5
531
  8
0
  6
CONTINUOUS
 10
117.68020328855479
 20
200.5054110510232
 30
0.0
 11
117.68020328855479
 21
110.7746000510238
 31
0.0
  0
LINE
  5
532
  8
0
  6
CONTINUOUS
 10
146.7490282885542
 20
108.39000505102329
 30
0.0
 11
146.7490282885542
 21
202.89000505102331
 31
0.0
  0
LINE
  5
533
  8
0
  6
CONTINUOUS
 10
121.7490282885542
 20
108.39000505102329
 30
0.0
 11
121.7490282885542
 21
202.89000505102331
 31
0.0
  0
LINE
  5
534
  8
0
  6
CONTINUOUS
 10
151.7646752885544
 20
109.3684290510232
 30
0.0
 11
151.7646752885544
 21
201.9115810510234
 31
0.0
  0
LINE
  5
535
  8
0
  6
CONTINUOUS
 10
148.73902828855489
 20
205.3867820510236
 30
0.0
 11
148.73902828855489
 21
105.8932290510234
 31
0.0
  0
LINE
  5
536
  8
0
  6
CONTINUOUS
 10
116.733381288554
 20
109.3684290510232
 30
0.0
 11
116.733381288554
 21
201.9115810510234
 31
0.0
  0
LINE
  5
537
  8
0
  6
CONTINUOUS
 10
119.7590282885544
 20
205.3867820510236
 30
0.0
 11
119.7590282885544
 21
105.8932290510234
 31
0.0
  0
LINE
  5
538
  8
0
  6
CONTINUOUS
 10
121.84902828855461
 20
202.7900050510238
 30
0.0
 11
121.84902828855451
 21
108.4900050510237
 31
0.0
  0
LINE
  5
539
  8
0
  6
CONTINUOUS
 10
146.64902828855469
 20
202.7900050510238
 30
0.0
 11
146.64902828855469
 21
108.4900050510237
 31
0.0
  0
LINE
  5
53A
  8
0
  6
CONTINUOUS
 10
145.24849428855441
 20
103.39000505102329
 30
0.0
 11
148.7490282885542
 21
103.39000505102329
 31
0.0
  0
ARC
  5
53B
  8
0
  6
CONTINUOUS
 10
147.73902828855481
 20
105.8932290510233
 30
0.0
 40
1.0
 50
269.82221900001792
 51
0.0
  0
ARC
  5
53C
  8
0
  6
CONTINUOUS
 10
148.24902728855469
 20
97.890005051023309
 30
0.0
 40
1.5
 50
270.0
 51
0.0
  0
LINE
  5
53D
  8
0
  6
CONTINUOUS
 10
131.74902828855409
 20
99.640005051023365
 30
0.0
 11
131.74902828855409
 21
97.890005051023365
 31
0.0
  0
LINE
  5
53E
  8
0
  6
CONTINUOUS
 10
136.74902828855409
 20
99.640005051023365
 30
0.0
 11
136.74902828855409
 21
97.890005051023365
 31
0.0
  0
LINE
  5
53F
  8
0
  6
CONTINUOUS
 10
118.7490292885545
 20
97.890005051023365
 30
0.0
 11
118.7490292885545
 21
104.39000505102329
 31
0.0
  0
LINE
  5
540
  8
0
  6
CONTINUOUS
 10
120.2490292885545
 20
96.390005051023365
 30
0.0
 11
130.2490282885542
 21
96.390005051023365
 31
0.0
  0
ARC
  5
541
  8
0
  6
CONTINUOUS
 10
120.2490292885545
 20
97.890005051023365
 30
0.0
 40
1.5
 50
180.0
 51
270.0
  0
LINE
  5
542
  8
0
  6
CONTINUOUS
 10
138.2490282885542
 20
96.390005051023365
 30
0.0
 11
148.2490272885548
 21
96.390005051023365
 31
0.0
  0
ARC
  5
543
  8
0
  6
CONTINUOUS
 10
138.24902828855409
 20
97.890005051023309
 30
0.0
 40
1.5
 50
180.0
 51
270.0
  0
ARC
  5
544
  8
0
  6
CONTINUOUS
 10
130.24902828855409
 20
97.890005051023309
 30
0.0
 40
1.5
 50
270.0
 51
0.0
  0
LINE
  5
545
  8
0
  6
CONTINUOUS
 10
129.14902828855469
 20
112.0900050510231
 30
0.0
 11
139.94902828855399
 21
112.0900050510231
 31
0.0
  0
LINE
  5
546
  8
0
  6
CONTINUOUS
 10
122.7490282885542
 20
107.39000505102329
 30
0.0
 11
145.7490282885542
 21
107.39000505102329
 31
0.0
  0
LINE
  5
547
  8
0
  6
CONTINUOUS
 10
144.57335028855459
 20
104.3902670510238
 30
0.0
 11
123.9247072885541
 21
104.3902670510238
 31
0.0
  0
ARC
  5
548
  8
0
  6
CONTINUOUS
 10
134.24902828855201
 20
-4253.7694429489738
 30
0.0
 40
4358.5691749999987
 50
89.874759000016255
 51
90.125240999983731
  0
ARC
  5
549
  8
0
  6
CONTINUOUS
 10
134.24902828855201
 20
-4241.6825499489751
 30
0.0
 40
4346.5967079999991
 50
89.822218999965784
 51
90.177780999982076
  0
LINE
  5
54A
  8
0
  6
CONTINUOUS
 10
122.84902828855451
 20
107.4900050510237
 30
0.0
 11
145.64902828855469
 21
107.4900050510237
 31
0.0
  0
LINE
  5
54B
  8
0
  6
CONTINUOUS
 10
118.7490282885542
 20
104.39000505102329
 30
0.0
 11
118.7490282885542
 21
108.3684290510232
 31
0.0
  0
LINE
  5
54C
  8
0
  6
CONTINUOUS
 10
119.7490282885542
 20
103.39000505102329
 30
0.0
 11
123.2495622885539
 21
103.39000505102329
 31
0.0
  0
ARC
  5
54D
  8
0
  6
CONTINUOUS
 10
119.7490282885542
 20
104.39000505102329
 30
0.0
 40
1.0
 50
180.0
 51
270.0
  0
ARC
  5
54E
  8
0
  6
CONTINUOUS
 10
120.7590282885544
 20
105.8932290510234
 30
0.0
 40
1.0
 50
180.0
 51
270.17778099998202
  0
LINE
  5
54F
  8
0
  6
CONTINUOUS
 10
123.2495622885539
 20
103.39000505102329
 30
0.0
 11
123.894507288554
 21
104.3478440510239
 31
0.0
  0
ARC
  5
550
  8
0
  6
CONTINUOUS
 10
124.723997288554
 20
103.7893220510236
 30
0.0
 40
1.0
 50
90.125240999983731
 51
146.046303000009
  0
ARC
  5
551
  8
0
  6
CONTINUOUS
 10
118.68020328855479
 20
110.7746000510238
 30
0.0
 40
1.0
 50
180.0
 51
270.0
  0
LINE
  5
552
  8
0
  6
CONTINUOUS
 10
118.68020328855479
 20
109.7746000510238
 30
0.0
 11
119.6804402885541
 21
109.7746000510238
 31
0.0
  0
LINE
  5
553
  8
0
  6
CONTINUOUS
 10
118.7490282885542
 20
108.3684290510232
 30
0.0
 11
117.733381288554
 21
108.3684290510232
 31
0.0
  0
ARC
  5
554
  8
0
  6
CONTINUOUS
 10
117.733381288554
 20
109.3684290510232
 30
0.0
 40
1.0
 50
180.0
 51
270.0
  0
LINE
  5
555
  8
0
  6
CONTINUOUS
 10
118.7490282885542
 20
108.3684290510232
 30
0.0
 11
119.6804402885541
 21
109.7746000510238
 31
0.0
  0
ARC
  5
556
  8
0
  6
CONTINUOUS
 10
122.7490282885542
 20
108.39000505102329
 30
0.0
 40
1.0
 50
180.0
 51
270.0
  0
ARC
  5
557
  8
0
  6
CONTINUOUS
 10
122.84902828855451
 20
108.4900050510236
 30
0.0
 40
1.0
 50
180.0
 51
270.0
  0
ARC
  5
558
  8
0
  6
CONTINUOUS
 10
134.24902828855409
 20
99.640005051023309
 30
0.0
 40
2.5
 50
0.0
 51
180.0
  0
ARC
  5
559
  8
0
  6
CONTINUOUS
 10
143.77406028855461
 20
103.7893220510236
 30
0.0
 40
1.0
 50
33.953696999990932
 51
89.874759000016255
  0
LINE
  5
55A
  8
0
  6
CONTINUOUS
 10
145.24849428855441
 20
103.39000505102329
 30
0.0
 11
144.6035492885544
 21
104.3478440510239
 31
0.0
  0
ARC
  5
55B
  8
0
  6
CONTINUOUS
 10
145.7490282885542
 20
108.39000505102329
 30
0.0
 40
1.0
 50
270.0
 51
0.0
  0
ARC
  5
55C
  8
0
  6
CONTINUOUS
 10
145.64902828855469
 20
108.4900050510236
 30
0.0
 40
1.0
 50
270.0
 51
0.0
  0
LINE
  5
55D
  8
0
  6
CONTINUOUS
 10
149.74902728855469
 20
97.890005051023365
 30
0.0
 11
149.74902728855469
 21
104.39000505102329
 31
0.0
  0
LINE
  5
55E
  8
0
  6
CONTINUOUS
 10
149.7490282885542
 20
104.39000505102329
 30
0.0
 11
149.7490282885542
 21
108.3684290510232
 31
0.0
  0
ARC
  5
55F
  8
0
  6
CONTINUOUS
 10
148.7490282885542
 20
104.39000505102329
 30
0.0
 40
1.0
 50
270.0
 51
0.0
  0
LINE
  5
560
  8
0
  6
CONTINUOUS
 10
149.81785328855449
 20
109.7746000510238
 30
0.0
 11
148.81761628855429
 21
109.7746000510238
 31
0.0
  0
ARC
  5
561
  8
0
  6
CONTINUOUS
 10
149.81785328855449
 20
110.7746000510237
 30
0.0
 40
1.0
 50
270.0
 51
0.0
  0
ARC
  5
562
  8
0
  6
CONTINUOUS
 10
150.76467528855429
 20
109.3684290510232
 30
0.0
 40
1.0
 50
270.0
 51
0.0
  0
LINE
  5
563
  8
0
  6
CONTINUOUS
 10
149.7490282885542
 20
108.3684290510232
 30
0.0
 11
150.76467528855429
 21
108.3684290510232
 31
0.0
  0
LINE
  5
564
  8
0
  6
CONTINUOUS
 10
149.74902928855451
 20
108.3684280510238
 30
0.0
 11
148.81761628855429
 21
109.7746000510238
 31
0.0
  0
LINE
  5
565
  8
0
  6
CONTINUOUS
 10
134.14902828855469
 20
140.89000505102331
 30
0.0
 11
134.14902828855469
 21
161.2300050510234
 31
0.0
  0
LINE
  5
566
  8
0
  6
CONTINUOUS
 10
124.449028288554
 20
129.5900050510231
 30
0.0
 11
124.449028288554
 21
140.89000505102331
 31
0.0
  0
LINE
  5
567
  8
0
  6
CONTINUOUS
 10
129.14902828855469
 20
129.5900050510231
 30
0.0
 11
124.449028288554
 21
129.5900050510231
 31
0.0
  0
LINE
  5
568
  8
0
  6
CONTINUOUS
 10
124.449028288554
 20
140.89000505102331
 30
0.0
 11
134.14902828855469
 21
140.89000505102331
 31
0.0
  0
LINE
  5
569
  8
0
  6
CONTINUOUS
 10
126.34902828855461
 20
194.7900050510228
 30
0.0
 11
126.34902828855451
 21
161.2300050510234
 31
0.0
  0
LINE
  5
56A
  8
0
  6
CONTINUOUS
 10
134.14902828855469
 20
161.2300050510234
 30
0.0
 11
126.34902828855451
 21
161.2300050510234
 31
0.0
  0
LINE
  5
56B
  8
0
  6
CONTINUOUS
 10
139.94902828855399
 20
176.2300050510234
 30
0.0
 11
126.34902828855461
 21
176.2300050510234
 31
0.0
  0
LINE
  5
56C
  8
0
  6
CONTINUOUS
 10
145.24849428855441
 20
207.89000505102331
 30
0.0
 11
148.7490282885542
 21
207.89000505102331
 31
0.0
  0
ARC
  5
56D
  8
0
  6
CONTINUOUS
 10
148.2490272885548
 20
214.89000505102319
 30
0.0
 40
1.5
 50
0.0
 51
90.0
  0
ARC
  5
56E
  8
0
  6
CONTINUOUS
 10
147.73902828855489
 20
205.38678205102349
 30
0.0
 40
1.0
 50
0.0
 51
90.177780999982076
  0
CIRCLE
  5
56F
  8
0
  6
CONTINUOUS
 10
134.2490282885542
 20
211.64000505102319
 30
0.0
 40
2.5
  0
LINE
  5
570
  8
0
  6
CONTINUOUS
 10
118.7490292885545
 20
206.89000505102331
 30
0.0
 11
118.7490292885545
 21
214.89000505102331
 31
0.0
  0
LINE
  5
571
  8
0
  6
CONTINUOUS
 10
122.7490282885542
 20
203.89000505102331
 30
0.0
 11
145.7490282885542
 21
203.89000505102331
 31
0.0
  0
LINE
  5
572
  8
0
  6
CONTINUOUS
 10
123.9247072885541
 20
206.88974405102309
 30
0.0
 11
144.57335028855459
 21
206.88974405102309
 31
0.0
  0
ARC
  5
573
  8
0
  6
CONTINUOUS
 10
134.2490282885563
 20
4565.0494540510226
 30
0.0
 40
4358.5691749999987
 50
269.87475899996411
 51
270.12524100003583
  0
ARC
  5
574
  8
0
  6
CONTINUOUS
 10
134.2490282885563
 20
4552.9625610510238
 30
0.0
 40
4346.5967079999991
 50
269.82221900001792
 51
270.17778099998202
  0
LINE
  5
575
  8
0
  6
CONTINUOUS
 10
122.84902828855461
 20
203.7900050510238
 30
0.0
 11
145.6490282885548
 21
203.7900050510238
 31
0.0
  0
ARC
  5
576
  8
0
  6
CONTINUOUS
 10
117.733381288554
 20
201.91158105102329
 30
0.0
 40
1.0
 50
90.0
 51
180.0
  0
LINE
  5
577
  8
0
  6
CONTINUOUS
 10
118.7490282885542
 20
202.9115810510234
 30
0.0
 11
119.6804402885541
 21
201.5054110510232
 31
0.0
  0
LINE
  5
578
  8
0
  6
CONTINUOUS
 10
118.7490282885542
 20
202.9115810510234
 30
0.0
 11
119.6804402885541
 21
201.5054110510232
 31
0.0
  0
ARC
  5
579
  8
0
  6
CONTINUOUS
 10
118.68020328855479
 20
200.50541105102309
 30
0.0
 40
1.0
 50
90.0
 51
180.0
  0
LINE
  5
57A
  8
0
  6
CONTINUOUS
 10
118.68020328855479
 20
201.5054110510232
 30
0.0
 11
119.6804402885541
 21
201.5054110510232
 31
0.0
  0
LINE
  5
57B
  8
0
  6
CONTINUOUS
 10
119.7490282885542
 20
207.89000505102331
 30
0.0
 11
123.249562288554
 21
207.89000505102331
 31
0.0
  0
ARC
  5
57C
  8
0
  6
CONTINUOUS
 10
119.7490282885542
 20
206.89000505102319
 30
0.0
 40
1.0
 50
90.0
 51
180.0
  0
LINE
  5
57D
  8
0
  6
CONTINUOUS
 10
118.7490282885542
 20
202.9115810510234
 30
0.0
 11
117.733381288554
 21
202.9115810510234
 31
0.0
  0
LINE
  5
57E
  8
0
  6
CONTINUOUS
 10
118.7490282885542
 20
206.89000505102331
 30
0.0
 11
118.7490282885542
 21
202.9115810510234
 31
0.0
  0
ARC
  5
57F
  8
0
  6
CONTINUOUS
 10
120.7590282885544
 20
205.38678205102349
 30
0.0
 40
1.0
 50
89.822218999965784
 51
180.0
  0
LINE
  5
580
  8
0
  6
CONTINUOUS
 10
123.249562288554
 20
207.89000505102331
 30
0.0
 11
123.894507288554
 21
206.93216605102359
 31
0.0
  0
ARC
  5
581
  8
0
  6
CONTINUOUS
 10
124.7239972885541
 20
207.49068905102331
 30
0.0
 40
1.0
 50
213.95369699999091
 51
269.87475899996411
  0
ARC
  5
582
  8
0
  6
CONTINUOUS
 10
122.7490282885542
 20
202.89000505102331
 30
0.0
 40
1.0
 50
90.0
 51
180.0
  0
ARC
  5
583
  8
0
  6
CONTINUOUS
 10
122.84902828855461
 20
202.7900050510238
 30
0.0
 40
1.0
 50
90.0
 51
180.0
  0
LINE
  5
584
  8
0
  6
CONTINUOUS
 10
145.24849428855441
 20
207.89000505102331
 30
0.0
 11
144.6035492885544
 21
206.93216605102359
 31
0.0
  0
ARC
  5
585
  8
0
  6
CONTINUOUS
 10
143.77406028855469
 20
207.49068905102331
 30
0.0
 40
1.0
 50
270.12524100003583
 51
326.046303000009
  0
ARC
  5
586
  8
0
  6
CONTINUOUS
 10
145.7490282885542
 20
202.89000505102331
 30
0.0
 40
1.0
 50
0.0
 51
90.0
  0
ARC
  5
587
  8
0
  6
CONTINUOUS
 10
145.6490282885548
 20
202.7900050510238
 30
0.0
 40
1.0
 50
0.0
 51
90.0
  0
LINE
  5
588
  8
0
  6
CONTINUOUS
 10
120.2490292885545
 20
216.39000505102331
 30
0.0
 11
148.2490272885548
 21
216.39000505102331
 31
0.0
  0
ARC
  5
589
  8
0
  6
CONTINUOUS
 10
120.2490292885545
 20
214.89000505102319
 30
0.0
 40
1.5
 50
90.0
 51
180.0
  0
LINE
  5
58A
  8
0
  6
CONTINUOUS
 10
149.7490272885548
 20
206.89000505102331
 30
0.0
 11
149.7490272885548
 21
214.89000505102331
 31
0.0
  0
ARC
  5
58B
  8
0
  6
CONTINUOUS
 10
150.7646752885544
 20
201.91158105102329
 30
0.0
 40
1.0
 50
0.0
 51
89.999999000005104
  0
LINE
  5
58C
  8
0
  6
CONTINUOUS
 10
149.7490282885542
 20
202.9115810510234
 30
0.0
 11
148.81761628855429
 21
201.5054110510232
 31
0.0
  0
LINE
  5
58D
  8
0
  6
CONTINUOUS
 10
149.7490282885542
 20
202.9115810510234
 30
0.0
 11
148.81761628855429
 21
201.5054110510232
 31
0.0
  0
LINE
  5
58E
  8
0
  6
CONTINUOUS
 10
149.81785328855449
 20
201.5054110510232
 30
0.0
 11
148.81761628855429
 21
201.5054110510232
 31
0.0
  0
ARC
  5
58F
  8
0
  6
CONTINUOUS
 10
149.81785328855449
 20
200.50541105102309
 30
0.0
 40
1.0
 50
0.0
 51
90.0
  0
ARC
  5
590
  8
0
  6
CONTINUOUS
 10
148.7490282885542
 20
206.89000505102319
 30
0.0
 40
1.0
 50
0.0
 51
90.0
  0
LINE
  5
591
  8
0
  6
CONTINUOUS
 10
149.7490282885542
 20
202.9115810510234
 30
0.0
 11
150.7646752885544
 21
202.9115810510234
 31
0.0
  0
LINE
  5
592
  8
0
  6
CONTINUOUS
 10
149.7490282885542
 20
206.89000505102331
 30
0.0
 11
149.7490282885542
 21
202.9115810510234
 31
0.0
  0
LINE
  5
593
  8
0
  6
BYBLOCK
 10
139.64902828855199
 20
194.7900050510228
 30
0.0
 11
139.64902828855369
 21
112.0900050510231
 31
0.0
  0
LINE
  5
594
  8
0
  6
BYBLOCK
 10
129.64902828855381
 20
112.64000505102329
 30
0.0
 11
129.64902828855381
 21
129.380005051024
 31
0.0
  0
LINE
  5
595
  8
0
  6
BYBLOCK
 10
138.3758249607294
 20
129.1100050510245
 30
0.0
 11
138.3758249607294
 21
127.1100050510245
 31
0.0
  0
LINE
  5
596
  8
0
  6
BYBLOCK
 10
138.3758249607294
 20
126.5700050510236
 30
0.0
 11
138.3758249607294
 21
124.5700050510236
 31
0.0
  0
LINE
  5
597
  8
0
 10
131.14902828855381
 20
126.84000505102399
 30
0.0
 11
129.64902828855381
 21
126.84000505102399
 31
0.0
  0
LINE
  5
598
  8
0
 10
129.64902828855381
 20
126.84000505102399
 30
0.0
 11
131.14902828855381
 21
126.84000505102399
 31
0.0
  0
LINE
  5
599
  8
0
 10
129.64902828855381
 20
129.380005051024
 30
0.0
 11
131.14902828855381
 21
129.380005051024
 31
0.0
  0
LINE
  5
59A
  8
0
 10
131.14902828855381
 20
129.380005051024
 30
0.0
 11
129.64902828855381
 21
129.380005051024
 31
0.0
  0
LINE
  5
59B
  8
0
 10
134.25301345463089
 20
125.7704080675189
 30
0.0
 11
135.68747651260711
 21
125.7704080675189
 31
0.0
  0
LINE
  5
59C
  8
0
 10
132.9150283158437
 20
125.7704080675189
 30
0.0
 11
133.27250210083409
 21
125.7704080675189
 31
0.0
  0
ARC
  5
59D
  8
0
 10
133.6917648466156
 20
125.3954080675189
 30
0.0
 40
0.6750000000000079
 50
33.748988595899249
 51
146.25101140410069
  0
ARC
  5
59E
  8
0
 10
133.6917648466156
 20
125.3954080675189
 30
0.0
 40
0.5624999999999976
 50
41.81031489579803
 51
138.18968510420129
  0
LINE
  5
59F
  8
0
  6
BYBLOCK
 10
132.68747651260711
 20
126.192075752248
 30
0.0
 11
135.68747651260711
 21
126.192075752248
 31
0.0
  0
LINE
  5
5A0
  8
0
  6
BYBLOCK
 10
136.3758249607294
 20
127.1100050510245
 30
0.0
 11
136.3758249607294
 21
129.1100050510245
 31
0.0
  0
LINE
  5
5A1
  8
0
  6
BYBLOCK
 10
132.68747651260711
 20
128.73207575224799
 30
0.0
 11
135.68747651260711
 21
128.73207575224799
 31
0.0
  0
LINE
  5
5A2
  8
0
  6
BYBLOCK
 10
132.68747651260711
 20
127.43207575224871
 30
0.0
 11
135.68747651260711
 21
127.43207575224871
 31
0.0
  0
ARC
  5
5A3
  8
0
 10
133.6917648466156
 20
127.9354080675197
 30
0.0
 40
0.5624999999999976
 50
41.81031489579803
 51
138.18968510420129
  0
ARC
  5
5A4
  8
0
 10
133.6917648466156
 20
127.9354080675197
 30
0.0
 40
0.6750000000000079
 50
33.748988595899249
 51
146.25101140410069
  0
LINE
  5
5A5
  8
0
 10
132.9150283158437
 20
128.3104080675198
 30
0.0
 11
133.27250210083409
 21
128.3104080675198
 31
0.0
  0
LINE
  5
5A6
  8
0
 10
134.25301345463089
 20
128.3104080675198
 30
0.0
 11
135.68747651260711
 21
128.3104080675198
 31
0.0
  0
LINE
  5
5A7
  8
0
  6
BYBLOCK
 10
132.68747651260711
 20
128.73207575224799
 30
0.0
 11
132.68747651260711
 21
127.43207575224871
 31
0.0
  0
LINE
  5
5A8
  8
0
 10
135.68747651260711
 20
127.43207575224871
 30
0.0
 11
135.68747651260711
 21
128.73207575224799
 31
0.0
  0
LINE
  5
5A9
  8
0
 10
134.25301345463089
 20
127.90960203452831
 30
0.0
 11
135.68747651260711
 21
127.90960203452831
 31
0.0
  0
LINE
  5
5AA
  8
0
 10
132.9150283158437
 20
127.90960203452831
 30
0.0
 11
133.27250210083409
 21
127.90960203452831
 31
0.0
  0
ARC
  5
5AB
  8
0
 10
133.6917648466156
 20
128.28460203452821
 30
0.0
 40
0.5624999999999976
 50
221.810314895798
 51
318.18968510420137
  0
ARC
  5
5AC
  8
0
 10
133.6917648466156
 20
128.28460203452821
 30
0.0
 40
0.6750000000000079
 50
213.74898859589919
 51
326.25101140410072
  0
LINE
  5
5AD
  8
0
 10
135.68747651260711
 20
127.7350050510245
 30
0.0
 11
135.68747651260711
 21
128.4850050510245
 31
0.0
  0
LINE
  5
5AE
  8
0
 10
132.9150283158437
 20
127.90960203452831
 30
0.0
 11
132.9150283158437
 21
128.3104080675198
 31
0.0
  0
ARC
  5
5AF
  8
0
 10
133.6917648466156
 20
125.7446020345282
 30
0.0
 40
0.6750000000000079
 50
213.74898859589919
 51
326.25101140410072
  0
ARC
  5
5B0
  8
0
 10
133.6917648466156
 20
125.7446020345282
 30
0.0
 40
0.5624999999999976
 50
221.810314895798
 51
318.18968510420137
  0
LINE
  5
5B1
  8
0
 10
132.9150283158437
 20
125.3696020345283
 30
0.0
 11
133.27250210083409
 21
125.3696020345283
 31
0.0
  0
LINE
  5
5B2
  8
0
 10
134.25301345463089
 20
125.3696020345283
 30
0.0
 11
135.68747651260711
 21
125.3696020345283
 31
0.0
  0
LINE
  5
5B3
  8
0
  6
BYBLOCK
 10
132.68747651260711
 20
124.89207575224781
 30
0.0
 11
135.68747651260711
 21
124.89207575224781
 31
0.0
  0
LINE
  5
5B4
  8
0
 10
132.9150283158437
 20
125.3696020345283
 30
0.0
 11
132.9150283158437
 21
125.7704080675189
 31
0.0
  0
LINE
  5
5B5
  8
0
 10
135.68747651260711
 20
125.1950050510236
 30
0.0
 11
135.68747651260711
 21
125.9450050510236
 31
0.0
  0
LINE
  5
5B6
  8
0
 10
135.68747651260711
 20
124.89207575224781
 30
0.0
 11
135.68747651260711
 21
126.192075752248
 31
0.0
  0
LINE
  5
5B7
  8
0
  6
BYBLOCK
 10
132.68747651260711
 20
126.192075752248
 30
0.0
 11
132.68747651260711
 21
124.89207575224781
 31
0.0
  0
LINE
  5
5B8
  8
0
  6
BYBLOCK
 10
136.3758249607294
 20
124.5700050510236
 30
0.0
 11
136.3758249607294
 21
126.5700050510236
 31
0.0
  0
LINE
  5
5B9
  8
0
 10
129.64902828855381
 20
126.84000505102399
 30
0.0
 11
139.64902828855381
 21
126.84000505102399
 31
0.0
  0
LINE
  5
5BA
  8
0
 10
139.64902828855381
 20
126.84000505102399
 30
0.0
 11
129.64902828855381
 21
126.84000505102399
 31
0.0
  0
LINE
  5
5BB
  8
0
 10
129.64902828855381
 20
124.3000050510241
 30
0.0
 11
139.64902828855381
 21
124.3000050510241
 31
0.0
  0
LINE
  5
5BC
  8
0
 10
139.64902828855381
 20
124.3000050510241
 30
0.0
 11
129.64902828855381
 21
124.3000050510241
 31
0.0
  0
LINE
  5
5BD
  8
0
 10
139.64902828855381
 20
126.84000505102399
 30
0.0
 11
129.64902828855381
 21
126.84000505102399
 31
0.0
  0
LINE
  5
5BE
  8
0
 10
129.64902828855381
 20
126.84000505102399
 30
0.0
 11
139.64902828855381
 21
126.84000505102399
 31
0.0
  0
LINE
  5
5BF
  8
0
 10
139.64902828855381
 20
129.380005051024
 30
0.0
 11
129.64902828855381
 21
129.380005051024
 31
0.0
  0
LINE
  5
5C0
  8
0
 10
129.64902828855381
 20
129.380005051024
 30
0.0
 11
139.64902828855381
 21
129.380005051024
 31
0.0
  0
LINE
  5
5C1
  8
0
 10
135.44902828855311
 20
126.84000505102399
 30
0.0
 11
139.64902828855381
 21
126.84000505102399
 31
0.0
  0
LINE
  5
5C2
  8
0
  6
BYBLOCK
 10
136.3758249607294
 20
126.5700050510236
 30
0.0
 11
138.3758249607294
 21
126.5700050510236
 31
0.0
  0
POLYLINE
  5
5C3
  8
0
  6
BYBLOCK
 66
     1
 10
0.0
 20
0.0
 30
0.0
 70
     1
  0
VERTEX
  5
7E4
  8
0
  6
BYBLOCK
 10
136.66366776119179
 20
127.4269973082241
 30
0.0
  0
VERTEX
  5
7E5
  8
0
  6
BYBLOCK
 10
136.66366776119179
 20
128.7836157165562
 30
0.0
  0
VERTEX
  5
7E6
  8
0
  6
BYBLOCK
 10
138.06020463385761
 20
128.7836157165562
 30
0.0
  0
VERTEX
  5
7E7
  8
0
  6
BYBLOCK
 10
138.06020463385761
 20
127.4269973082241
 30
0.0
  0
SEQEND
  5
7E8
  8
0
  6
BYBLOCK
  0
LINE
  5
5C4
  8
0
  6
BYBLOCK
 10
136.3758249607294
 20
129.1100050510245
 30
0.0
 11
138.3758249607294
 21
129.1100050510245
 31
0.0
  0
LINE
  5
5C5
  8
0
  6
BYBLOCK
 10
138.3758249607294
 20
127.1100050510245
 30
0.0
 11
136.3758249607294
 21
127.1100050510245
 31
0.0
  0
LINE
  5
5C6
  8
0
 10
135.44902828855311
 20
129.380005051024
 30
0.0
 11
139.64902828855381
 21
129.380005051024
 31
0.0
  0
LINE
  5
5C7
  8
0
  6
BYBLOCK
 10
138.3758249607294
 20
124.5700050510236
 30
0.0
 11
136.3758249607294
 21
124.5700050510236
 31
0.0
  0
POLYLINE
  5
5C8
  8
0
  6
BYBLOCK
 66
     1
 10
0.0
 20
0.0
 30
0.0
 70
     1
  0
VERTEX
  5
7E9
  8
0
  6
BYBLOCK
 10
136.66366776119179
 20
124.8869973082233
 30
0.0
  0
VERTEX
  5
7EA
  8
0
  6
BYBLOCK
 10
136.66366776119179
 20
126.2436157165553
 30
0.0
  0
VERTEX
  5
7EB
  8
0
  6
BYBLOCK
 10
138.06020463385761
 20
126.2436157165553
 30
0.0
  0
VERTEX
  5
7EC
  8
0
  6
BYBLOCK
 10
138.06020463385761
 20
124.8869973082233
 30
0.0
  0
SEQEND
  5
7ED
  8
0
  6
BYBLOCK
  0
LINE
  5
5C9
  8
0
  6
BYBLOCK
 10
139.64902828855381
 20
130.2691500948263
 30
0.0
 11
139.64902828855381
 21
133.61615444554491
 31
0.0
  0
LINE
  5
5CA
  8
0
 10
134.64902828855111
 20
159.9800050510234
 30
0.0
 11
134.64902828855111
 21
142.08000505102379
 31
0.0
  0
LINE
  5
5CB
  8
0
 10
138.2390282885512
 20
146.12005704726599
 30
0.0
 11
138.2390282885512
 21
145.9399530547812
 31
0.0
  0
LINE
  5
5CC
  8
0
 10
138.0590282885527
 20
146.12005704726599
 30
0.0
 11
138.0590282885527
 21
145.9399530547812
 31
0.0
  0
LINE
  5
5CD
  8
0
 10
138.2390282885512
 20
145.9399530547812
 30
0.0
 11
138.14902828855111
 21
145.9399530547812
 31
0.0
  0
LINE
  5
5CE
  8
0
 10
138.2390282885512
 20
145.9399530547812
 30
0.0
 11
138.14902828855111
 21
145.9399530547812
 31
0.0
  0
LINE
  5
5CF
  8
0
 10
138.0590282885527
 20
145.9399530547812
 30
0.0
 11
138.14902828855111
 21
145.9399530547812
 31
0.0
  0
LINE
  5
5D0
  8
0
 10
138.0590282885527
 20
145.9399530547812
 30
0.0
 11
138.14902828855111
 21
145.9399530547812
 31
0.0
  0
LINE
  5
5D1
  8
0
 10
137.89902828855111
 20
147.78000505102361
 30
0.0
 11
138.39902828855111
 21
147.78000505102361
 31
0.0
  0
LINE
  5
5D2
  8
0
 10
137.89902828855111
 20
146.28000505102361
 30
0.0
 11
138.39902828855111
 21
146.28000505102361
 31
0.0
  0
LINE
  5
5D3
  8
0
 10
137.89902828855111
 20
148.28000505102361
 30
0.0
 11
138.39902828855111
 21
148.28000505102361
 31
0.0
  0
LINE
  5
5D4
  8
0
 10
137.89902828855111
 20
148.28000505102361
 30
0.0
 11
137.89902828855111
 21
147.78000505102361
 31
0.0
  0
LINE
  5
5D5
  8
0
 10
138.39902828855111
 20
147.78000505102361
 30
0.0
 11
138.39902828855111
 21
148.28000505102361
 31
0.0
  0
LINE
  5
5D6
  8
0
 10
138.0590282885527
 20
148.12005704726599
 30
0.0
 11
138.0590282885527
 21
147.93995305478111
 31
0.0
  0
LINE
  5
5D7
  8
0
 10
138.0590282885527
 20
147.93995305478111
 30
0.0
 11
138.14902828855111
 21
147.93995305478111
 31
0.0
  0
LINE
  5
5D8
  8
0
 10
138.0590282885527
 20
147.93995305478111
 30
0.0
 11
138.14902828855111
 21
147.93995305478111
 31
0.0
  0
LINE
  5
5D9
  8
0
 10
138.0590282885527
 20
148.12005704726599
 30
0.0
 11
138.14902828855111
 21
148.12005704726599
 31
0.0
  0
LINE
  5
5DA
  8
0
 10
138.2390282885512
 20
148.12005704726599
 30
0.0
 11
138.14902828855111
 21
148.12005704726599
 31
0.0
  0
LINE
  5
5DB
  8
0
 10
138.2390282885512
 20
147.93995305478111
 30
0.0
 11
138.14902828855111
 21
147.93995305478111
 31
0.0
  0
LINE
  5
5DC
  8
0
 10
138.2390282885512
 20
147.93995305478111
 30
0.0
 11
138.14902828855111
 21
147.93995305478111
 31
0.0
  0
LINE
  5
5DD
  8
0
 10
138.2390282885512
 20
148.12005704726599
 30
0.0
 11
138.2390282885512
 21
147.93995305478111
 31
0.0
  0
LINE
  5
5DE
  8
0
 10
138.2390282885512
 20
146.12005704726599
 30
0.0
 11
138.14902828855111
 21
146.12005704726599
 31
0.0
  0
LINE
  5
5DF
  8
0
 10
138.0590282885527
 20
146.12005704726599
 30
0.0
 11
138.14902828855111
 21
146.12005704726599
 31
0.0
  0
LINE
  5
5E0
  8
0
 10
137.89902828855111
 20
145.78000505102361
 30
0.0
 11
138.39902828855111
 21
145.78000505102361
 31
0.0
  0
LINE
  5
5E1
  8
0
 10
137.89902828855111
 20
146.28000505102361
 30
0.0
 11
137.89902828855111
 21
145.78000505102361
 31
0.0
  0
LINE
  5
5E2
  8
0
 10
138.39902828855111
 20
145.78000505102361
 30
0.0
 11
138.39902828855111
 21
146.28000505102361
 31
0.0
  0
LINE
  5
5E3
  8
0
 10
137.89902828855111
 20
144.28000505102361
 30
0.0
 11
137.89902828855111
 21
143.78000505102361
 31
0.0
  0
LINE
  5
5E4
  8
0
 10
138.39902828855111
 20
143.78000505102361
 30
0.0
 11
138.39902828855111
 21
144.28000505102361
 31
0.0
  0
LINE
  5
5E5
  8
0
 10
138.0590282885527
 20
144.12005704726599
 30
0.0
 11
138.0590282885527
 21
143.93995305478111
 31
0.0
  0
LINE
  5
5E6
  8
0
 10
138.2390282885512
 20
144.12005704726599
 30
0.0
 11
138.2390282885512
 21
143.93995305478111
 31
0.0
  0
LINE
  5
5E7
  8
0
 10
137.89902828855111
 20
143.78000505102361
 30
0.0
 11
138.39902828855111
 21
143.78000505102361
 31
0.0
  0
LINE
  5
5E8
  8
0
 10
138.0590282885527
 20
143.93995305478111
 30
0.0
 11
138.14902828855111
 21
143.93995305478111
 31
0.0
  0
LINE
  5
5E9
  8
0
 10
138.0590282885527
 20
143.93995305478111
 30
0.0
 11
138.14902828855111
 21
143.93995305478111
 31
0.0
  0
LINE
  5
5EA
  8
0
 10
138.2390282885512
 20
143.93995305478111
 30
0.0
 11
138.14902828855111
 21
143.93995305478111
 31
0.0
  0
LINE
  5
5EB
  8
0
 10
138.2390282885512
 20
143.93995305478111
 30
0.0
 11
138.14902828855111
 21
143.93995305478111
 31
0.0
  0
LINE
  5
5EC
  8
0
 10
137.89902828855111
 20
144.28000505102361
 30
0.0
 11
138.39902828855111
 21
144.28000505102361
 31
0.0
  0
LINE
  5
5ED
  8
0
 10
138.0590282885527
 20
144.12005704726599
 30
0.0
 11
138.14902828855111
 21
144.12005704726599
 31
0.0
  0
LINE
  5
5EE
  8
0
 10
138.2390282885512
 20
144.12005704726599
 30
0.0
 11
138.14902828855111
 21
144.12005704726599
 31
0.0
  0
LINE
  5
5EF
  8
0
 10
137.89902828855111
 20
154.28000505102361
 30
0.0
 11
138.39902828855111
 21
154.28000505102361
 31
0.0
  0
LINE
  5
5F0
  8
0
 10
137.89902828855111
 20
153.78000505102361
 30
0.0
 11
138.39902828855111
 21
153.78000505102361
 31
0.0
  0
LINE
  5
5F1
  8
0
 10
137.89902828855111
 20
154.28000505102361
 30
0.0
 11
137.89902828855111
 21
153.78000505102361
 31
0.0
  0
LINE
  5
5F2
  8
0
 10
138.39902828855111
 20
153.78000505102361
 30
0.0
 11
138.39902828855111
 21
154.28000505102361
 31
0.0
  0
LINE
  5
5F3
  8
0
 10
138.0590282885527
 20
154.12005704726599
 30
0.0
 11
138.0590282885527
 21
153.9399530547812
 31
0.0
  0
LINE
  5
5F4
  8
0
 10
138.0590282885527
 20
153.9399530547812
 30
0.0
 11
138.14902828855111
 21
153.9399530547812
 31
0.0
  0
LINE
  5
5F5
  8
0
 10
138.0590282885527
 20
153.9399530547812
 30
0.0
 11
138.14902828855111
 21
153.9399530547812
 31
0.0
  0
LINE
  5
5F6
  8
0
 10
138.0590282885527
 20
154.12005704726599
 30
0.0
 11
138.14902828855111
 21
154.12005704726599
 31
0.0
  0
LINE
  5
5F7
  8
0
 10
138.2390282885512
 20
154.12005704726599
 30
0.0
 11
138.14902828855111
 21
154.12005704726599
 31
0.0
  0
LINE
  5
5F8
  8
0
 10
138.2390282885512
 20
153.9399530547812
 30
0.0
 11
138.14902828855111
 21
153.9399530547812
 31
0.0
  0
LINE
  5
5F9
  8
0
 10
138.2390282885512
 20
153.9399530547812
 30
0.0
 11
138.14902828855111
 21
153.9399530547812
 31
0.0
  0
LINE
  5
5FA
  8
0
 10
138.2390282885512
 20
154.12005704726599
 30
0.0
 11
138.2390282885512
 21
153.9399530547812
 31
0.0
  0
LINE
  5
5FB
  8
0
 10
137.89902828855111
 20
150.28000505102361
 30
0.0
 11
138.39902828855111
 21
150.28000505102361
 31
0.0
  0
LINE
  5
5FC
  8
0
 10
137.89902828855111
 20
149.78000505102361
 30
0.0
 11
138.39902828855111
 21
149.78000505102361
 31
0.0
  0
LINE
  5
5FD
  8
0
 10
137.89902828855111
 20
150.28000505102361
 30
0.0
 11
137.89902828855111
 21
149.78000505102361
 31
0.0
  0
LINE
  5
5FE
  8
0
 10
138.39902828855111
 20
149.78000505102361
 30
0.0
 11
138.39902828855111
 21
150.28000505102361
 31
0.0
  0
LINE
  5
5FF
  8
0
 10
138.0590282885527
 20
150.12005704726599
 30
0.0
 11
138.0590282885527
 21
149.9399530547812
 31
0.0
  0
LINE
  5
600
  8
0
 10
138.0590282885527
 20
149.9399530547812
 30
0.0
 11
138.14902828855111
 21
149.9399530547812
 31
0.0
  0
LINE
  5
601
  8
0
 10
138.0590282885527
 20
149.9399530547812
 30
0.0
 11
138.14902828855111
 21
149.9399530547812
 31
0.0
  0
LINE
  5
602
  8
0
 10
138.0590282885527
 20
150.12005704726599
 30
0.0
 11
138.14902828855111
 21
150.12005704726599
 31
0.0
  0
LINE
  5
603
  8
0
 10
138.2390282885512
 20
150.12005704726599
 30
0.0
 11
138.14902828855111
 21
150.12005704726599
 31
0.0
  0
LINE
  5
604
  8
0
 10
138.2390282885512
 20
149.9399530547812
 30
0.0
 11
138.14902828855111
 21
149.9399530547812
 31
0.0
  0
LINE
  5
605
  8
0
 10
138.2390282885512
 20
149.9399530547812
 30
0.0
 11
138.14902828855111
 21
149.9399530547812
 31
0.0
  0
LINE
  5
606
  8
0
 10
138.2390282885512
 20
150.12005704726599
 30
0.0
 11
138.2390282885512
 21
149.9399530547812
 31
0.0
  0
LINE
  5
607
  8
0
 10
137.89902828855111
 20
152.28000505102361
 30
0.0
 11
138.39902828855111
 21
152.28000505102361
 31
0.0
  0
LINE
  5
608
  8
0
 10
137.89902828855111
 20
151.78000505102361
 30
0.0
 11
138.39902828855111
 21
151.78000505102361
 31
0.0
  0
LINE
  5
609
  8
0
 10
137.89902828855111
 20
152.28000505102361
 30
0.0
 11
137.89902828855111
 21
151.78000505102361
 31
0.0
  0
LINE
  5
60A
  8
0
 10
138.39902828855111
 20
151.78000505102361
 30
0.0
 11
138.39902828855111
 21
152.28000505102361
 31
0.0
  0
LINE
  5
60B
  8
0
 10
138.0590282885527
 20
152.12005704726599
 30
0.0
 11
138.0590282885527
 21
151.9399530547812
 31
0.0
  0
LINE
  5
60C
  8
0
 10
138.0590282885527
 20
151.9399530547812
 30
0.0
 11
138.14902828855111
 21
151.9399530547812
 31
0.0
  0
LINE
  5
60D
  8
0
 10
138.0590282885527
 20
151.9399530547812
 30
0.0
 11
138.14902828855111
 21
151.9399530547812
 31
0.0
  0
LINE
  5
60E
  8
0
 10
138.0590282885527
 20
152.12005704726599
 30
0.0
 11
138.14902828855111
 21
152.12005704726599
 31
0.0
  0
LINE
  5
60F
  8
0
 10
138.2390282885512
 20
152.12005704726599
 30
0.0
 11
138.14902828855111
 21
152.12005704726599
 31
0.0
  0
LINE
  5
610
  8
0
 10
138.2390282885512
 20
151.9399530547812
 30
0.0
 11
138.14902828855111
 21
151.9399530547812
 31
0.0
  0
LINE
  5
611
  8
0
 10
138.2390282885512
 20
151.9399530547812
 30
0.0
 11
138.14902828855111
 21
151.9399530547812
 31
0.0
  0
LINE
  5
612
  8
0
 10
138.2390282885512
 20
152.12005704726599
 30
0.0
 11
138.2390282885512
 21
151.9399530547812
 31
0.0
  0
LINE
  5
613
  8
0
 10
137.89902828855111
 20
156.28000505102361
 30
0.0
 11
138.39902828855111
 21
156.28000505102361
 31
0.0
  0
LINE
  5
614
  8
0
 10
137.89902828855111
 20
158.28000505102361
 30
0.0
 11
138.39902828855111
 21
158.28000505102361
 31
0.0
  0
LINE
  5
615
  8
0
 10
138.0590282885527
 20
158.12005704726599
 30
0.0
 11
138.0590282885527
 21
157.9399530547812
 31
0.0
  0
LINE
  5
616
  8
0
 10
138.0590282885527
 20
157.9399530547812
 30
0.0
 11
138.14902828855111
 21
157.9399530547812
 31
0.0
  0
LINE
  5
617
  8
0
 10
138.0590282885527
 20
157.9399530547812
 30
0.0
 11
138.14902828855111
 21
157.9399530547812
 31
0.0
  0
LINE
  5
618
  8
0
 10
138.0590282885527
 20
158.12005704726599
 30
0.0
 11
138.14902828855111
 21
158.12005704726599
 31
0.0
  0
LINE
  5
619
  8
0
 10
138.2390282885512
 20
158.12005704726599
 30
0.0
 11
138.14902828855111
 21
158.12005704726599
 31
0.0
  0
LINE
  5
61A
  8
0
 10
138.2390282885512
 20
157.9399530547812
 30
0.0
 11
138.14902828855111
 21
157.9399530547812
 31
0.0
  0
LINE
  5
61B
  8
0
 10
138.2390282885512
 20
157.9399530547812
 30
0.0
 11
138.14902828855111
 21
157.9399530547812
 31
0.0
  0
LINE
  5
61C
  8
0
 10
138.2390282885512
 20
158.12005704726599
 30
0.0
 11
138.2390282885512
 21
157.9399530547812
 31
0.0
  0
LINE
  5
61D
  8
0
 10
137.89902828855111
 20
157.78000505102361
 30
0.0
 11
138.39902828855111
 21
157.78000505102361
 31
0.0
  0
LINE
  5
61E
  8
0
 10
137.89902828855111
 20
158.28000505102361
 30
0.0
 11
137.89902828855111
 21
157.78000505102361
 31
0.0
  0
LINE
  5
61F
  8
0
 10
138.39902828855111
 20
157.78000505102361
 30
0.0
 11
138.39902828855111
 21
158.28000505102361
 31
0.0
  0
LINE
  5
620
  8
0
 10
137.89902828855111
 20
155.78000505102361
 30
0.0
 11
138.39902828855111
 21
155.78000505102361
 31
0.0
  0
LINE
  5
621
  8
0
 10
138.2390282885512
 20
156.12005704726599
 30
0.0
 11
138.2390282885512
 21
155.9399530547812
 31
0.0
  0
LINE
  5
622
  8
0
 10
138.0590282885527
 20
156.12005704726599
 30
0.0
 11
138.0590282885527
 21
155.9399530547812
 31
0.0
  0
LINE
  5
623
  8
0
 10
138.2390282885512
 20
156.12005704726599
 30
0.0
 11
138.14902828855111
 21
156.12005704726599
 31
0.0
  0
LINE
  5
624
  8
0
 10
138.0590282885527
 20
156.12005704726599
 30
0.0
 11
138.14902828855111
 21
156.12005704726599
 31
0.0
  0
LINE
  5
625
  8
0
 10
138.2390282885512
 20
155.9399530547812
 30
0.0
 11
138.14902828855111
 21
155.9399530547812
 31
0.0
  0
LINE
  5
626
  8
0
 10
138.2390282885512
 20
155.9399530547812
 30
0.0
 11
138.14902828855111
 21
155.9399530547812
 31
0.0
  0
LINE
  5
627
  8
0
 10
138.0590282885527
 20
155.9399530547812
 30
0.0
 11
138.14902828855111
 21
155.9399530547812
 31
0.0
  0
LINE
  5
628
  8
0
 10
138.0590282885527
 20
155.9399530547812
 30
0.0
 11
138.14902828855111
 21
155.9399530547812
 31
0.0
  0
LINE
  5
629
  8
0
 10
137.89902828855111
 20
156.28000505102361
 30
0.0
 11
137.89902828855111
 21
155.78000505102361
 31
0.0
  0
LINE
  5
62A
  8
0
 10
138.39902828855111
 20
155.78000505102361
 30
0.0
 11
138.39902828855111
 21
156.28000505102361
 31
0.0
  0
LINE
  5
62B
  8
0
 10
135.89902828855111
 20
146.28000505102361
 30
0.0
 11
136.39902828855111
 21
146.28000505102361
 31
0.0
  0
LINE
  5
62C
  8
0
 10
135.89902828855111
 20
148.28000505102361
 30
0.0
 11
136.39902828855111
 21
148.28000505102361
 31
0.0
  0
LINE
  5
62D
  8
0
 10
135.89902828855111
 20
147.78000505102361
 30
0.0
 11
136.39902828855111
 21
147.78000505102361
 31
0.0
  0
LINE
  5
62E
  8
0
 10
135.89902828855111
 20
145.78000505102361
 30
0.0
 11
136.39902828855111
 21
145.78000505102361
 31
0.0
  0
LINE
  5
62F
  8
0
 10
135.89902828855111
 20
143.78000505102361
 30
0.0
 11
136.39902828855111
 21
143.78000505102361
 31
0.0
  0
LINE
  5
630
  8
0
 10
135.89902828855111
 20
144.28000505102361
 30
0.0
 11
136.39902828855111
 21
144.28000505102361
 31
0.0
  0
LINE
  5
631
  8
0
 10
135.89902828855111
 20
153.78000505102361
 30
0.0
 11
136.39902828855111
 21
153.78000505102361
 31
0.0
  0
LINE
  5
632
  8
0
 10
135.89902828855111
 20
154.28000505102361
 30
0.0
 11
136.39902828855111
 21
154.28000505102361
 31
0.0
  0
LINE
  5
633
  8
0
 10
135.89902828855111
 20
149.78000505102361
 30
0.0
 11
136.39902828855111
 21
149.78000505102361
 31
0.0
  0
LINE
  5
634
  8
0
 10
135.89902828855111
 20
150.28000505102361
 30
0.0
 11
136.39902828855111
 21
150.28000505102361
 31
0.0
  0
LINE
  5
635
  8
0
 10
135.89902828855111
 20
151.78000505102361
 30
0.0
 11
136.39902828855111
 21
151.78000505102361
 31
0.0
  0
LINE
  5
636
  8
0
 10
135.89902828855111
 20
152.28000505102361
 30
0.0
 11
136.39902828855111
 21
152.28000505102361
 31
0.0
  0
LINE
  5
637
  8
0
 10
135.89902828855111
 20
148.28000505102361
 30
0.0
 11
135.89902828855111
 21
147.78000505102361
 31
0.0
  0
LINE
  5
638
  8
0
 10
135.89902828855111
 20
146.28000505102361
 30
0.0
 11
135.89902828855111
 21
145.78000505102361
 31
0.0
  0
LINE
  5
639
  8
0
 10
135.89902828855111
 20
144.28000505102361
 30
0.0
 11
135.89902828855111
 21
143.78000505102361
 31
0.0
  0
LINE
  5
63A
  8
0
 10
135.89902828855111
 20
154.28000505102361
 30
0.0
 11
135.89902828855111
 21
153.78000505102361
 31
0.0
  0
LINE
  5
63B
  8
0
 10
135.89902828855111
 20
150.28000505102361
 30
0.0
 11
135.89902828855111
 21
149.78000505102361
 31
0.0
  0
LINE
  5
63C
  8
0
 10
135.89902828855111
 20
152.28000505102361
 30
0.0
 11
135.89902828855111
 21
151.78000505102361
 31
0.0
  0
LINE
  5
63D
  8
0
 10
136.0590282885527
 20
146.12005704726599
 30
0.0
 11
136.0590282885527
 21
145.9399530547812
 31
0.0
  0
LINE
  5
63E
  8
0
 10
136.2390282885512
 20
146.12005704726599
 30
0.0
 11
136.2390282885512
 21
145.9399530547812
 31
0.0
  0
LINE
  5
63F
  8
0
 10
136.0590282885527
 20
145.9399530547812
 30
0.0
 11
136.14902828855111
 21
145.9399530547812
 31
0.0
  0
LINE
  5
640
  8
0
 10
136.0590282885527
 20
145.9399530547812
 30
0.0
 11
136.14902828855111
 21
145.9399530547812
 31
0.0
  0
LINE
  5
641
  8
0
 10
136.2390282885512
 20
145.9399530547812
 30
0.0
 11
136.14902828855111
 21
145.9399530547812
 31
0.0
  0
LINE
  5
642
  8
0
 10
136.2390282885512
 20
145.9399530547812
 30
0.0
 11
136.14902828855111
 21
145.9399530547812
 31
0.0
  0
LINE
  5
643
  8
0
 10
136.0590282885527
 20
148.12005704726599
 30
0.0
 11
136.0590282885527
 21
147.93995305478111
 31
0.0
  0
LINE
  5
644
  8
0
 10
136.0590282885527
 20
146.12005704726599
 30
0.0
 11
136.14902828855111
 21
146.12005704726599
 31
0.0
  0
LINE
  5
645
  8
0
 10
136.2390282885512
 20
146.12005704726599
 30
0.0
 11
136.14902828855111
 21
146.12005704726599
 31
0.0
  0
LINE
  5
646
  8
0
 10
136.39902828855111
 20
147.78000505102361
 30
0.0
 11
136.39902828855111
 21
148.28000505102361
 31
0.0
  0
LINE
  5
647
  8
0
 10
136.2390282885512
 20
148.12005704726599
 30
0.0
 11
136.2390282885512
 21
147.93995305478111
 31
0.0
  0
LINE
  5
648
  8
0
 10
136.2390282885512
 20
147.93995305478111
 30
0.0
 11
136.14902828855111
 21
147.93995305478111
 31
0.0
  0
LINE
  5
649
  8
0
 10
136.2390282885512
 20
147.93995305478111
 30
0.0
 11
136.14902828855111
 21
147.93995305478111
 31
0.0
  0
LINE
  5
64A
  8
0
 10
136.2390282885512
 20
148.12005704726599
 30
0.0
 11
136.14902828855111
 21
148.12005704726599
 31
0.0
  0
LINE
  5
64B
  8
0
 10
136.0590282885527
 20
148.12005704726599
 30
0.0
 11
136.14902828855111
 21
148.12005704726599
 31
0.0
  0
LINE
  5
64C
  8
0
 10
136.0590282885527
 20
147.93995305478111
 30
0.0
 11
136.14902828855111
 21
147.93995305478111
 31
0.0
  0
LINE
  5
64D
  8
0
 10
136.0590282885527
 20
147.93995305478111
 30
0.0
 11
136.14902828855111
 21
147.93995305478111
 31
0.0
  0
LINE
  5
64E
  8
0
 10
136.39902828855111
 20
145.78000505102361
 30
0.0
 11
136.39902828855111
 21
146.28000505102361
 31
0.0
  0
LINE
  5
64F
  8
0
 10
136.39902828855111
 20
143.78000505102361
 30
0.0
 11
136.39902828855111
 21
144.28000505102361
 31
0.0
  0
LINE
  5
650
  8
0
 10
136.2390282885512
 20
144.12005704726599
 30
0.0
 11
136.2390282885512
 21
143.93995305478111
 31
0.0
  0
LINE
  5
651
  8
0
 10
136.0590282885527
 20
144.12005704726599
 30
0.0
 11
136.0590282885527
 21
143.93995305478111
 31
0.0
  0
LINE
  5
652
  8
0
 10
136.2390282885512
 20
143.93995305478111
 30
0.0
 11
136.14902828855111
 21
143.93995305478111
 31
0.0
  0
LINE
  5
653
  8
0
 10
136.2390282885512
 20
143.93995305478111
 30
0.0
 11
136.14902828855111
 21
143.93995305478111
 31
0.0
  0
LINE
  5
654
  8
0
 10
136.0590282885527
 20
143.93995305478111
 30
0.0
 11
136.14902828855111
 21
143.93995305478111
 31
0.0
  0
LINE
  5
655
  8
0
 10
136.0590282885527
 20
143.93995305478111
 30
0.0
 11
136.14902828855111
 21
143.93995305478111
 31
0.0
  0
LINE
  5
656
  8
0
 10
136.2390282885512
 20
144.12005704726599
 30
0.0
 11
136.14902828855111
 21
144.12005704726599
 31
0.0
  0
LINE
  5
657
  8
0
 10
136.0590282885527
 20
144.12005704726599
 30
0.0
 11
136.14902828855111
 21
144.12005704726599
 31
0.0
  0
LINE
  5
658
  8
0
 10
136.2390282885512
 20
154.12005704726599
 30
0.0
 11
136.2390282885512
 21
153.9399530547812
 31
0.0
  0
LINE
  5
659
  8
0
 10
136.2390282885512
 20
153.9399530547812
 30
0.0
 11
136.14902828855111
 21
153.9399530547812
 31
0.0
  0
LINE
  5
65A
  8
0
 10
136.2390282885512
 20
153.9399530547812
 30
0.0
 11
136.14902828855111
 21
153.9399530547812
 31
0.0
  0
LINE
  5
65B
  8
0
 10
136.2390282885512
 20
154.12005704726599
 30
0.0
 11
136.14902828855111
 21
154.12005704726599
 31
0.0
  0
LINE
  5
65C
  8
0
 10
136.0590282885527
 20
154.12005704726599
 30
0.0
 11
136.14902828855111
 21
154.12005704726599
 31
0.0
  0
LINE
  5
65D
  8
0
 10
136.0590282885527
 20
153.9399530547812
 30
0.0
 11
136.14902828855111
 21
153.9399530547812
 31
0.0
  0
LINE
  5
65E
  8
0
 10
136.0590282885527
 20
153.9399530547812
 30
0.0
 11
136.14902828855111
 21
153.9399530547812
 31
0.0
  0
LINE
  5
65F
  8
0
 10
136.0590282885527
 20
154.12005704726599
 30
0.0
 11
136.0590282885527
 21
153.9399530547812
 31
0.0
  0
LINE
  5
660
  8
0
 10
136.39902828855111
 20
153.78000505102361
 30
0.0
 11
136.39902828855111
 21
154.28000505102361
 31
0.0
  0
LINE
  5
661
  8
0
 10
136.2390282885512
 20
150.12005704726599
 30
0.0
 11
136.2390282885512
 21
149.9399530547812
 31
0.0
  0
LINE
  5
662
  8
0
 10
136.2390282885512
 20
149.9399530547812
 30
0.0
 11
136.14902828855111
 21
149.9399530547812
 31
0.0
  0
LINE
  5
663
  8
0
 10
136.2390282885512
 20
149.9399530547812
 30
0.0
 11
136.14902828855111
 21
149.9399530547812
 31
0.0
  0
LINE
  5
664
  8
0
 10
136.2390282885512
 20
150.12005704726599
 30
0.0
 11
136.14902828855111
 21
150.12005704726599
 31
0.0
  0
LINE
  5
665
  8
0
 10
136.0590282885527
 20
150.12005704726599
 30
0.0
 11
136.14902828855111
 21
150.12005704726599
 31
0.0
  0
LINE
  5
666
  8
0
 10
136.0590282885527
 20
149.9399530547812
 30
0.0
 11
136.14902828855111
 21
149.9399530547812
 31
0.0
  0
LINE
  5
667
  8
0
 10
136.0590282885527
 20
149.9399530547812
 30
0.0
 11
136.14902828855111
 21
149.9399530547812
 31
0.0
  0
LINE
  5
668
  8
0
 10
136.0590282885527
 20
150.12005704726599
 30
0.0
 11
136.0590282885527
 21
149.9399530547812
 31
0.0
  0
LINE
  5
669
  8
0
 10
136.39902828855111
 20
149.78000505102361
 30
0.0
 11
136.39902828855111
 21
150.28000505102361
 31
0.0
  0
LINE
  5
66A
  8
0
 10
136.2390282885512
 20
152.12005704726599
 30
0.0
 11
136.2390282885512
 21
151.9399530547812
 31
0.0
  0
LINE
  5
66B
  8
0
 10
136.2390282885512
 20
151.9399530547812
 30
0.0
 11
136.14902828855111
 21
151.9399530547812
 31
0.0
  0
LINE
  5
66C
  8
0
 10
136.2390282885512
 20
151.9399530547812
 30
0.0
 11
136.14902828855111
 21
151.9399530547812
 31
0.0
  0
LINE
  5
66D
  8
0
 10
136.2390282885512
 20
152.12005704726599
 30
0.0
 11
136.14902828855111
 21
152.12005704726599
 31
0.0
  0
LINE
  5
66E
  8
0
 10
136.0590282885527
 20
152.12005704726599
 30
0.0
 11
136.14902828855111
 21
152.12005704726599
 31
0.0
  0
LINE
  5
66F
  8
0
 10
136.0590282885527
 20
151.9399530547812
 30
0.0
 11
136.14902828855111
 21
151.9399530547812
 31
0.0
  0
LINE
  5
670
  8
0
 10
136.0590282885527
 20
151.9399530547812
 30
0.0
 11
136.14902828855111
 21
151.9399530547812
 31
0.0
  0
LINE
  5
671
  8
0
 10
136.0590282885527
 20
152.12005704726599
 30
0.0
 11
136.0590282885527
 21
151.9399530547812
 31
0.0
  0
LINE
  5
672
  8
0
 10
136.39902828855111
 20
151.78000505102361
 30
0.0
 11
136.39902828855111
 21
152.28000505102361
 31
0.0
  0
LINE
  5
673
  8
0
 10
135.89902828855111
 20
156.28000505102361
 30
0.0
 11
136.39902828855111
 21
156.28000505102361
 31
0.0
  0
LINE
  5
674
  8
0
 10
135.89902828855111
 20
158.28000505102361
 30
0.0
 11
136.39902828855111
 21
158.28000505102361
 31
0.0
  0
LINE
  5
675
  8
0
 10
136.2390282885512
 20
158.12005704726599
 30
0.0
 11
136.2390282885512
 21
157.9399530547812
 31
0.0
  0
LINE
  5
676
  8
0
 10
136.2390282885512
 20
157.9399530547812
 30
0.0
 11
136.14902828855111
 21
157.9399530547812
 31
0.0
  0
LINE
  5
677
  8
0
 10
136.2390282885512
 20
157.9399530547812
 30
0.0
 11
136.14902828855111
 21
157.9399530547812
 31
0.0
  0
LINE
  5
678
  8
0
 10
136.2390282885512
 20
158.12005704726599
 30
0.0
 11
136.14902828855111
 21
158.12005704726599
 31
0.0
  0
LINE
  5
679
  8
0
 10
136.0590282885527
 20
158.12005704726599
 30
0.0
 11
136.14902828855111
 21
158.12005704726599
 31
0.0
  0
LINE
  5
67A
  8
0
 10
136.0590282885527
 20
157.9399530547812
 30
0.0
 11
136.14902828855111
 21
157.9399530547812
 31
0.0
  0
LINE
  5
67B
  8
0
 10
136.0590282885527
 20
157.9399530547812
 30
0.0
 11
136.14902828855111
 21
157.9399530547812
 31
0.0
  0
LINE
  5
67C
  8
0
 10
136.0590282885527
 20
158.12005704726599
 30
0.0
 11
136.0590282885527
 21
157.9399530547812
 31
0.0
  0
LINE
  5
67D
  8
0
 10
135.89902828855111
 20
157.78000505102361
 30
0.0
 11
136.39902828855111
 21
157.78000505102361
 31
0.0
  0
LINE
  5
67E
  8
0
 10
135.89902828855111
 20
158.28000505102361
 30
0.0
 11
135.89902828855111
 21
157.78000505102361
 31
0.0
  0
LINE
  5
67F
  8
0
 10
136.39902828855111
 20
157.78000505102361
 30
0.0
 11
136.39902828855111
 21
158.28000505102361
 31
0.0
  0
LINE
  5
680
  8
0
 10
135.89902828855111
 20
155.78000505102361
 30
0.0
 11
136.39902828855111
 21
155.78000505102361
 31
0.0
  0
LINE
  5
681
  8
0
 10
136.0590282885527
 20
156.12005704726599
 30
0.0
 11
136.0590282885527
 21
155.9399530547812
 31
0.0
  0
LINE
  5
682
  8
0
 10
136.2390282885512
 20
156.12005704726599
 30
0.0
 11
136.2390282885512
 21
155.9399530547812
 31
0.0
  0
LINE
  5
683
  8
0
 10
136.0590282885527
 20
156.12005704726599
 30
0.0
 11
136.14902828855111
 21
156.12005704726599
 31
0.0
  0
LINE
  5
684
  8
0
 10
136.2390282885512
 20
156.12005704726599
 30
0.0
 11
136.14902828855111
 21
156.12005704726599
 31
0.0
  0
LINE
  5
685
  8
0
 10
136.0590282885527
 20
155.9399530547812
 30
0.0
 11
136.14902828855111
 21
155.9399530547812
 31
0.0
  0
LINE
  5
686
  8
0
 10
136.0590282885527
 20
155.9399530547812
 30
0.0
 11
136.14902828855111
 21
155.9399530547812
 31
0.0
  0
LINE
  5
687
  8
0
 10
136.2390282885512
 20
155.9399530547812
 30
0.0
 11
136.14902828855111
 21
155.9399530547812
 31
0.0
  0
LINE
  5
688
  8
0
 10
136.2390282885512
 20
155.9399530547812
 30
0.0
 11
136.14902828855111
 21
155.9399530547812
 31
0.0
  0
LINE
  5
689
  8
0
 10
135.89902828855111
 20
156.28000505102361
 30
0.0
 11
135.89902828855111
 21
155.78000505102361
 31
0.0
  0
LINE
  5
68A
  8
0
 10
136.39902828855111
 20
155.78000505102361
 30
0.0
 11
136.39902828855111
 21
156.28000505102361
 31
0.0
  0
LINE
  5
68B
  8
0
 10
134.64902828855111
 20
142.08000505102379
 30
0.0
 11
139.64902828855111
 21
142.08000505102379
 31
0.0
  0
LINE
  5
68C
  8
0
 10
134.64902828855111
 20
159.9800050510234
 30
0.0
 11
139.64902828855111
 21
159.9800050510234
 31
0.0
  0
POLYLINE
  5
68D
  8
0
  6
BYBLOCK
 66
     1
 10
0.0
 20
0.0
 30
0.0
 70
     1
  0
VERTEX
  5
7EE
  8
0
  6
BYBLOCK
 10
136.66366776119179
 20
119.8069973082233
 30
0.0
  0
VERTEX
  5
7EF
  8
0
  6
BYBLOCK
 10
136.66366776119179
 20
121.1636157165554
 30
0.0
  0
VERTEX
  5
7F0
  8
0
  6
BYBLOCK
 10
138.06020463385761
 20
121.1636157165554
 30
0.0
  0
VERTEX
  5
7F1
  8
0
  6
BYBLOCK
 10
138.06020463385761
 20
119.8069973082233
 30
0.0
  0
SEQEND
  5
7F2
  8
0
  6
BYBLOCK
  0
LINE
  5
68E
  8
0
  6
BYBLOCK
 10
136.3758249607294
 20
116.4100050510238
 30
0.0
 11
138.3758249607294
 21
116.4100050510238
 31
0.0
  0
LINE
  5
68F
  8
0
  6
BYBLOCK
 10
138.3758249607294
 20
116.95000505102369
 30
0.0
 11
136.3758249607294
 21
116.95000505102369
 31
0.0
  0
LINE
  5
690
  8
0
  6
BYBLOCK
 10
136.3758249607294
 20
118.95000505102369
 30
0.0
 11
138.3758249607294
 21
118.95000505102369
 31
0.0
  0
POLYLINE
  5
691
  8
0
  6
BYBLOCK
 66
     1
 10
0.0
 20
0.0
 30
0.0
 70
     1
  0
VERTEX
  5
7F3
  8
0
  6
BYBLOCK
 10
136.66366776119179
 20
117.2669973082234
 30
0.0
  0
VERTEX
  5
7F4
  8
0
  6
BYBLOCK
 10
136.66366776119179
 20
118.62361571655541
 30
0.0
  0
VERTEX
  5
7F5
  8
0
  6
BYBLOCK
 10
138.06020463385761
 20
118.62361571655541
 30
0.0
  0
VERTEX
  5
7F6
  8
0
  6
BYBLOCK
 10
138.06020463385761
 20
117.2669973082234
 30
0.0
  0
SEQEND
  5
7F7
  8
0
  6
BYBLOCK
  0
LINE
  5
692
  8
0
  6
BYBLOCK
 10
138.3758249607294
 20
119.4900050510237
 30
0.0
 11
136.3758249607294
 21
119.4900050510237
 31
0.0
  0
LINE
  5
693
  8
0
 10
135.44902828855311
 20
124.30000505102321
 30
0.0
 11
139.64902828855381
 21
124.30000505102321
 31
0.0
  0
LINE
  5
694
  8
0
  6
BYBLOCK
 10
138.3758249607294
 20
122.03000505102371
 30
0.0
 11
136.3758249607294
 21
122.03000505102371
 31
0.0
  0
LINE
  5
695
  8
0
  6
BYBLOCK
 10
136.3758249607294
 20
124.03000505102371
 30
0.0
 11
138.3758249607294
 21
124.03000505102371
 31
0.0
  0
POLYLINE
  5
696
  8
0
  6
BYBLOCK
 66
     1
 10
0.0
 20
0.0
 30
0.0
 70
     1
  0
VERTEX
  5
7F8
  8
0
  6
BYBLOCK
 10
136.66366776119179
 20
122.34699730822329
 30
0.0
  0
VERTEX
  5
7F9
  8
0
  6
BYBLOCK
 10
136.66366776119179
 20
123.7036157165553
 30
0.0
  0
VERTEX
  5
7FA
  8
0
  6
BYBLOCK
 10
138.06020463385761
 20
123.7036157165553
 30
0.0
  0
VERTEX
  5
7FB
  8
0
  6
BYBLOCK
 10
138.06020463385761
 20
122.34699730822329
 30
0.0
  0
SEQEND
  5
7FC
  8
0
  6
BYBLOCK
  0
LINE
  5
697
  8
0
  6
BYBLOCK
 10
136.3758249607294
 20
121.4900050510237
 30
0.0
 11
138.3758249607294
 21
121.4900050510237
 31
0.0
  0
LINE
  5
698
  8
0
 10
135.44902828855311
 20
121.7600050510232
 30
0.0
 11
139.64902828855381
 21
121.7600050510232
 31
0.0
  0
LINE
  5
699
  8
0
  6
BYBLOCK
 10
138.3758249607294
 20
114.4100050510238
 30
0.0
 11
136.3758249607294
 21
114.4100050510238
 31
0.0
  0
POLYLINE
  5
69A
  8
0
  6
BYBLOCK
 66
     1
 10
0.0
 20
0.0
 30
0.0
 70
     1
  0
VERTEX
  5
7FD
  8
0
  6
BYBLOCK
 10
136.66366776119179
 20
114.7269973082234
 30
0.0
  0
VERTEX
  5
7FE
  8
0
  6
BYBLOCK
 10
136.66366776119179
 20
116.0836157165554
 30
0.0
  0
VERTEX
  5
7FF
  8
0
  6
BYBLOCK
 10
138.06020463385761
 20
116.0836157165554
 30
0.0
  0
VERTEX
  5
800
  8
0
  6
BYBLOCK
 10
138.06020463385761
 20
114.7269973082234
 30
0.0
  0
SEQEND
  5
801
  8
0
  6
BYBLOCK
  0
LINE
  5
69B
  8
0
 10
129.64902828855381
 20
124.30000505102321
 30
0.0
 11
139.64902828855381
 21
124.30000505102321
 31
0.0
  0
LINE
  5
69C
  8
0
 10
139.64902828855381
 20
124.30000505102321
 30
0.0
 11
129.64902828855381
 21
124.30000505102321
 31
0.0
  0
LINE
  5
69D
  8
0
 10
129.64902828855381
 20
121.76000505102409
 30
0.0
 11
139.64902828855381
 21
121.76000505102409
 31
0.0
  0
LINE
  5
69E
  8
0
 10
139.64902828855381
 20
121.76000505102409
 30
0.0
 11
129.64902828855381
 21
121.76000505102409
 31
0.0
  0
LINE
  5
69F
  8
0
 10
139.64902828855381
 20
116.6800050510233
 30
0.0
 11
129.64902828855381
 21
116.6800050510233
 31
0.0
  0
LINE
  5
6A0
  8
0
 10
129.64902828855381
 20
116.6800050510233
 30
0.0
 11
139.64902828855381
 21
116.6800050510233
 31
0.0
  0
LINE
  5
6A1
  8
0
 10
139.64902828855381
 20
119.22000505102331
 30
0.0
 11
129.64902828855381
 21
119.22000505102331
 31
0.0
  0
LINE
  5
6A2
  8
0
 10
129.64902828855381
 20
119.22000505102331
 30
0.0
 11
139.64902828855381
 21
119.22000505102331
 31
0.0
  0
LINE
  5
6A3
  8
0
 10
139.64902828855381
 20
121.7600050510232
 30
0.0
 11
129.64902828855381
 21
121.7600050510232
 31
0.0
  0
LINE
  5
6A4
  8
0
 10
129.64902828855381
 20
121.7600050510232
 30
0.0
 11
139.64902828855381
 21
121.7600050510232
 31
0.0
  0
LINE
  5
6A5
  8
0
 10
129.64902828855381
 20
114.14000505102329
 30
0.0
 11
139.64902828855381
 21
114.14000505102329
 31
0.0
  0
LINE
  5
6A6
  8
0
 10
139.64902828855381
 20
114.14000505102329
 30
0.0
 11
129.64902828855381
 21
114.14000505102329
 31
0.0
  0
LINE
  5
6A7
  8
0
 10
129.64902828855381
 20
112.64000505102329
 30
0.0
 11
139.64902828855381
 21
112.64000505102329
 31
0.0
  0
LINE
  5
6A8
  8
0
  6
BYBLOCK
 10
136.3758249607294
 20
119.4900050510237
 30
0.0
 11
136.3758249607294
 21
121.4900050510237
 31
0.0
  0
LINE
  5
6A9
  8
0
  6
BYBLOCK
 10
132.68747651260711
 20
121.11207575224719
 30
0.0
 11
132.68747651260711
 21
119.81207575224791
 31
0.0
  0
LINE
  5
6AA
  8
0
 10
135.68747651260711
 20
119.81207575224791
 30
0.0
 11
135.68747651260711
 21
121.11207575224719
 31
0.0
  0
LINE
  5
6AB
  8
0
 10
135.68747651260711
 20
120.1150050510237
 30
0.0
 11
135.68747651260711
 21
120.8650050510237
 31
0.0
  0
LINE
  5
6AC
  8
0
 10
132.9150283158437
 20
120.2896020345284
 30
0.0
 11
132.9150283158437
 21
120.690408067519
 31
0.0
  0
LINE
  5
6AD
  8
0
 10
132.9150283158437
 20
115.2096020345284
 30
0.0
 11
133.27250210083409
 21
115.2096020345284
 31
0.0
  0
LINE
  5
6AE
  8
0
 10
134.25301345463089
 20
115.2096020345284
 30
0.0
 11
135.68747651260711
 21
115.2096020345284
 31
0.0
  0
LINE
  5
6AF
  8
0
 10
134.25301345463089
 20
115.6104080675191
 30
0.0
 11
135.68747651260711
 21
115.6104080675191
 31
0.0
  0
LINE
  5
6B0
  8
0
 10
132.9150283158437
 20
115.6104080675191
 30
0.0
 11
133.27250210083409
 21
115.6104080675191
 31
0.0
  0
ARC
  5
6B1
  8
0
 10
133.6917648466156
 20
115.235408067519
 30
0.0
 40
0.6750000000000079
 50
33.748988595899249
 51
146.25101140410069
  0
ARC
  5
6B2
  8
0
 10
133.6917648466156
 20
115.235408067519
 30
0.0
 40
0.5624999999999976
 50
41.81031489579803
 51
138.18968510420129
  0
LINE
  5
6B3
  8
0
  6
BYBLOCK
 10
132.68747651260711
 20
116.0320757522472
 30
0.0
 11
135.68747651260711
 21
116.0320757522472
 31
0.0
  0
LINE
  5
6B4
  8
0
 10
132.9150283158437
 20
115.2096020345284
 30
0.0
 11
132.9150283158437
 21
115.6104080675191
 31
0.0
  0
LINE
  5
6B5
  8
0
  6
BYBLOCK
 10
136.3758249607294
 20
116.95000505102369
 30
0.0
 11
136.3758249607294
 21
118.95000505102369
 31
0.0
  0
LINE
  5
6B6
  8
0
 10
135.68747651260711
 20
117.57500505102369
 30
0.0
 11
135.68747651260711
 21
118.32500505102369
 31
0.0
  0
ARC
  5
6B7
  8
0
 10
133.6917648466156
 20
118.1246020345274
 30
0.0
 40
0.5624999999999976
 50
221.810314895798
 51
318.18968510420137
  0
ARC
  5
6B8
  8
0
 10
133.6917648466156
 20
118.1246020345274
 30
0.0
 40
0.6750000000000079
 50
213.74898859589919
 51
326.25101140410072
  0
LINE
  5
6B9
  8
0
 10
132.9150283158437
 20
117.7496020345275
 30
0.0
 11
133.27250210083409
 21
117.7496020345275
 31
0.0
  0
LINE
  5
6BA
  8
0
 10
134.25301345463089
 20
117.7496020345275
 30
0.0
 11
135.68747651260711
 21
117.7496020345275
 31
0.0
  0
LINE
  5
6BB
  8
0
 10
134.25301345463089
 20
118.15040806751909
 30
0.0
 11
135.68747651260711
 21
118.15040806751909
 31
0.0
  0
LINE
  5
6BC
  8
0
 10
132.9150283158437
 20
118.15040806751909
 30
0.0
 11
133.27250210083409
 21
118.15040806751909
 31
0.0
  0
ARC
  5
6BD
  8
0
 10
133.6917648466156
 20
117.775408067519
 30
0.0
 40
0.6750000000000079
 50
33.748988595899249
 51
146.25101140410069
  0
ARC
  5
6BE
  8
0
 10
133.6917648466156
 20
117.775408067519
 30
0.0
 40
0.5624999999999976
 50
41.81031489579803
 51
138.18968510420129
  0
LINE
  5
6BF
  8
0
  6
BYBLOCK
 10
132.68747651260711
 20
117.2720757522479
 30
0.0
 11
135.68747651260711
 21
117.2720757522479
 31
0.0
  0
LINE
  5
6C0
  8
0
  6
BYBLOCK
 10
132.68747651260711
 20
118.5720757522481
 30
0.0
 11
135.68747651260711
 21
118.5720757522481
 31
0.0
  0
LINE
  5
6C1
  8
0
 10
132.9150283158437
 20
117.7496020345275
 30
0.0
 11
132.9150283158437
 21
118.15040806751909
 31
0.0
  0
LINE
  5
6C2
  8
0
  6
BYBLOCK
 10
132.68747651260711
 20
118.5720757522481
 30
0.0
 11
132.68747651260711
 21
117.2720757522479
 31
0.0
  0
LINE
  5
6C3
  8
0
 10
135.68747651260711
 20
117.2720757522479
 30
0.0
 11
135.68747651260711
 21
118.5720757522481
 31
0.0
  0
LINE
  5
6C4
  8
0
  6
BYBLOCK
 10
132.68747651260711
 20
119.81207575224791
 30
0.0
 11
135.68747651260711
 21
119.81207575224791
 31
0.0
  0
LINE
  5
6C5
  8
0
 10
134.25301345463089
 20
120.2896020345284
 30
0.0
 11
135.68747651260711
 21
120.2896020345284
 31
0.0
  0
LINE
  5
6C6
  8
0
 10
132.9150283158437
 20
120.2896020345284
 30
0.0
 11
133.27250210083409
 21
120.2896020345284
 31
0.0
  0
ARC
  5
6C7
  8
0
 10
133.6917648466156
 20
120.6646020345283
 30
0.0
 40
0.5624999999999976
 50
221.810314895798
 51
318.18968510420137
  0
ARC
  5
6C8
  8
0
 10
133.6917648466156
 20
120.6646020345283
 30
0.0
 40
0.6750000000000079
 50
213.74898859589919
 51
326.25101140410072
  0
LINE
  5
6C9
  8
0
 10
132.9150283158437
 20
122.82960203452831
 30
0.0
 11
132.9150283158437
 21
123.23040806751899
 31
0.0
  0
LINE
  5
6CA
  8
0
 10
135.68747651260711
 20
122.65500505102359
 30
0.0
 11
135.68747651260711
 21
123.40500505102359
 31
0.0
  0
ARC
  5
6CB
  8
0
 10
133.6917648466156
 20
123.20460203452819
 30
0.0
 40
0.6750000000000079
 50
213.74898859589919
 51
326.25101140410072
  0
ARC
  5
6CC
  8
0
 10
133.6917648466156
 20
123.20460203452819
 30
0.0
 40
0.5624999999999976
 50
221.810314895798
 51
318.18968510420137
  0
LINE
  5
6CD
  8
0
 10
132.9150283158437
 20
122.82960203452831
 30
0.0
 11
133.27250210083409
 21
122.82960203452831
 31
0.0
  0
LINE
  5
6CE
  8
0
 10
134.25301345463089
 20
122.82960203452831
 30
0.0
 11
135.68747651260711
 21
122.82960203452831
 31
0.0
  0
LINE
  5
6CF
  8
0
 10
135.68747651260711
 20
122.3520757522479
 30
0.0
 11
135.68747651260711
 21
123.65207575224809
 31
0.0
  0
LINE
  5
6D0
  8
0
  6
BYBLOCK
 10
132.68747651260711
 20
123.65207575224809
 30
0.0
 11
132.68747651260711
 21
122.3520757522479
 31
0.0
  0
LINE
  5
6D1
  8
0
 10
134.25301345463089
 20
123.23040806751899
 30
0.0
 11
135.68747651260711
 21
123.23040806751899
 31
0.0
  0
LINE
  5
6D2
  8
0
 10
132.9150283158437
 20
123.23040806751899
 30
0.0
 11
133.27250210083409
 21
123.23040806751899
 31
0.0
  0
ARC
  5
6D3
  8
0
 10
133.6917648466156
 20
122.85540806751889
 30
0.0
 40
0.6750000000000079
 50
33.748988595899249
 51
146.25101140410069
  0
ARC
  5
6D4
  8
0
 10
133.6917648466156
 20
122.85540806751889
 30
0.0
 40
0.5624999999999976
 50
41.81031489579803
 51
138.18968510420129
  0
LINE
  5
6D5
  8
0
  6
BYBLOCK
 10
132.68747651260711
 20
122.3520757522479
 30
0.0
 11
135.68747651260711
 21
122.3520757522479
 31
0.0
  0
LINE
  5
6D6
  8
0
  6
BYBLOCK
 10
132.68747651260711
 20
123.65207575224809
 30
0.0
 11
135.68747651260711
 21
123.65207575224809
 31
0.0
  0
LINE
  5
6D7
  8
0
  6
BYBLOCK
 10
136.3758249607294
 20
122.03000505102371
 30
0.0
 11
136.3758249607294
 21
124.03000505102371
 31
0.0
  0
LINE
  5
6D8
  8
0
  6
BYBLOCK
 10
132.68747651260711
 20
121.11207575224719
 30
0.0
 11
135.68747651260711
 21
121.11207575224719
 31
0.0
  0
ARC
  5
6D9
  8
0
 10
133.6917648466156
 20
120.315408067519
 30
0.0
 40
0.5624999999999976
 50
41.81031489579803
 51
138.18968510420129
  0
ARC
  5
6DA
  8
0
 10
133.6917648466156
 20
120.315408067519
 30
0.0
 40
0.6750000000000079
 50
33.748988595899249
 51
146.25101140410069
  0
LINE
  5
6DB
  8
0
 10
132.9150283158437
 20
120.690408067519
 30
0.0
 11
133.27250210083409
 21
120.690408067519
 31
0.0
  0
LINE
  5
6DC
  8
0
 10
134.25301345463089
 20
120.690408067519
 30
0.0
 11
135.68747651260711
 21
120.690408067519
 31
0.0
  0
LINE
  5
6DD
  8
0
  6
BYBLOCK
 10
132.68747651260711
 20
114.73207575224799
 30
0.0
 11
135.68747651260711
 21
114.73207575224799
 31
0.0
  0
LINE
  5
6DE
  8
0
  6
BYBLOCK
 10
136.3758249607294
 20
114.4100050510238
 30
0.0
 11
136.3758249607294
 21
116.4100050510238
 31
0.0
  0
LINE
  5
6DF
  8
0
 10
135.68747651260711
 20
115.0350050510237
 30
0.0
 11
135.68747651260711
 21
115.7850050510238
 31
0.0
  0
ARC
  5
6E0
  8
0
 10
133.6917648466156
 20
115.5846020345284
 30
0.0
 40
0.5624999999999976
 50
221.810314895798
 51
318.18968510420137
  0
ARC
  5
6E1
  8
0
 10
133.6917648466156
 20
115.5846020345284
 30
0.0
 40
0.6750000000000079
 50
213.74898859589919
 51
326.25101140410072
  0
LINE
  5
6E2
  8
0
  6
BYBLOCK
 10
132.68747651260711
 20
116.0320757522472
 30
0.0
 11
132.68747651260711
 21
114.73207575224799
 31
0.0
  0
LINE
  5
6E3
  8
0
 10
135.68747651260711
 20
114.73207575224799
 30
0.0
 11
135.68747651260711
 21
116.0320757522472
 31
0.0
  0
LINE
  5
6E4
  8
0
 10
131.14902828855381
 20
124.30000505102321
 30
0.0
 11
129.64902828855381
 21
124.30000505102321
 31
0.0
  0
LINE
  5
6E5
  8
0
 10
129.64902828855381
 20
124.30000505102321
 30
0.0
 11
131.14902828855381
 21
124.30000505102321
 31
0.0
  0
LINE
  5
6E6
  8
0
 10
129.64902828855381
 20
121.7600050510232
 30
0.0
 11
131.14902828855381
 21
121.7600050510232
 31
0.0
  0
LINE
  5
6E7
  8
0
 10
131.14902828855381
 20
121.7600050510232
 30
0.0
 11
129.64902828855381
 21
121.7600050510232
 31
0.0
  0
LINE
  5
6E8
  8
0
 10
131.74315794177929
 20
117.95000505102369
 30
0.0
 11
131.74315794177929
 21
129.380005051024
 31
0.0
  0
LINE
  5
6E9
  8
0
 10
131.74315794177929
 20
114.14000505102329
 30
0.0
 11
131.74315794177929
 21
117.95000505102369
 31
0.0
  0
LINE
  5
6EA
  8
0
  6
BYBLOCK
 10
138.3758249607294
 20
121.4900050510237
 30
0.0
 11
138.3758249607294
 21
119.4900050510237
 31
0.0
  0
LINE
  5
6EB
  8
0
  6
BYBLOCK
 10
138.3758249607294
 20
118.95000505102369
 30
0.0
 11
138.3758249607294
 21
116.95000505102369
 31
0.0
  0
LINE
  5
6EC
  8
0
  6
BYBLOCK
 10
138.3758249607294
 20
124.03000505102371
 30
0.0
 11
138.3758249607294
 21
122.03000505102371
 31
0.0
  0
LINE
  5
6ED
  8
0
  6
BYBLOCK
 10
138.64902828855381
 20
114.14000505102329
 30
0.0
 11
138.64902828855381
 21
129.380005051024
 31
0.0
  0
LINE
  5
6EE
  8
0
 10
139.64902828855381
 20
112.3679343497993
 30
0.0
 11
139.64902828855381
 21
121.7879343497993
 31
0.0
  0
LINE
  5
6EF
  8
0
  6
BYBLOCK
 10
138.3758249607294
 20
116.4100050510238
 30
0.0
 11
138.3758249607294
 21
114.4100050510238
 31
0.0
  0
LINE
  5
6F0
  8
0
  6
BYBLOCK
 10
128.1490282885529
 20
193.88000505102309
 30
0.0
 11
139.6490282885529
 21
193.88000505102309
 31
0.0
  0
LINE
  5
6F1
  8
0
  6
BYBLOCK
 10
128.1490282885529
 20
176.4800050510234
 30
0.0
 11
139.6490282885529
 21
176.4800050510234
 31
0.0
  0
LINE
  5
6F2
  8
0
  6
BYBLOCK
 10
128.1490282885529
 20
193.88000505102309
 30
0.0
 11
128.1490282885529
 21
188.68054219029219
 31
0.0
  0
LINE
  5
6F3
  8
0
  6
BYBLOCK
 10
128.9490282885522
 20
193.08000505102291
 30
0.0
 11
139.6490282885529
 21
193.08000505102291
 31
0.0
  0
LINE
  5
6F4
  8
0
  6
BYBLOCK
 10
128.9490282885522
 20
177.28000505102361
 30
0.0
 11
139.6490282885529
 21
177.28000505102361
 31
0.0
  0
LINE
  5
6F5
  8
0
  6
BYBLOCK
 10
128.9490282885522
 20
188.68054219029219
 30
0.0
 11
128.9490282885522
 21
193.08000505102291
 31
0.0
  0
LINE
  5
6F6
  8
0
  6
BYBLOCK
 10
129.9490282885522
 20
187.68054219029219
 30
0.0
 11
129.9490282885522
 21
188.68054219029219
 31
0.0
  0
LINE
  5
6F7
  8
0
  6
BYBLOCK
 10
129.9490282885522
 20
188.68054219029219
 30
0.0
 11
127.9490282885522
 21
188.68054219029219
 31
0.0
  0
LINE
  5
6F8
  8
0
  6
BYBLOCK
 10
127.9490282885522
 20
188.68054219029219
 30
0.0
 11
127.9490282885522
 21
185.18054219029131
 31
0.0
  0
LINE
  5
6F9
  8
0
  6
BYBLOCK
 10
128.4490282885522
 20
187.68054219029219
 30
0.0
 11
128.4490282885522
 21
185.18054219029131
 31
0.0
  0
LINE
  5
6FA
  8
0
  6
BYBLOCK
 10
128.6990282885522
 20
185.18054219029131
 30
0.0
 11
128.6990282885522
 21
186.18054219029131
 31
0.0
  0
LINE
  5
6FB
  8
0
  6
BYBLOCK
 10
128.6990282885522
 20
186.18054219029131
 30
0.0
 11
128.4490282885522
 21
186.18054219029131
 31
0.0
  0
LINE
  5
6FC
  8
0
  6
BYBLOCK
 10
129.9490282885522
 20
187.68054219029219
 30
0.0
 11
128.4490282885522
 21
187.68054219029219
 31
0.0
  0
LINE
  5
6FD
  8
0
  6
BYBLOCK
 10
127.9490282885522
 20
182.18054219029219
 30
0.0
 11
127.9490282885522
 21
185.18054219029219
 31
0.0
  0
LINE
  5
6FE
  8
0
  6
BYBLOCK
 10
129.9490282885522
 20
183.18054219029219
 30
0.0
 11
129.9490282885522
 21
182.18054219029219
 31
0.0
  0
LINE
  5
6FF
  8
0
  6
BYBLOCK
 10
128.4490282885522
 20
183.18054219029219
 30
0.0
 11
128.4490282885522
 21
185.18054219029219
 31
0.0
  0
LINE
  5
700
  8
0
  6
BYBLOCK
 10
129.9490282885522
 20
183.18054219029219
 30
0.0
 11
128.4490282885522
 21
183.18054219029219
 31
0.0
  0
LINE
  5
701
  8
0
  6
BYBLOCK
 10
128.6990282885522
 20
184.18054219029219
 30
0.0
 11
128.4490282885522
 21
184.18054219029131
 31
0.0
  0
LINE
  5
702
  8
0
  6
BYBLOCK
 10
128.6990282885522
 20
185.18054219029219
 30
0.0
 11
128.6990282885522
 21
184.18054219029219
 31
0.0
  0
LINE
  5
703
  8
0
  6
BYBLOCK
 10
128.1490282885529
 20
176.4800050510234
 30
0.0
 11
128.1490282885529
 21
182.18054219029219
 31
0.0
  0
LINE
  5
704
  8
0
  6
BYBLOCK
 10
128.9490282885522
 20
182.18054219029219
 30
0.0
 11
128.9490282885522
 21
177.28000505102361
 31
0.0
  0
LINE
  5
705
  8
0
  6
BYBLOCK
 10
129.9490282885522
 20
182.18054219029219
 30
0.0
 11
127.9490282885522
 21
182.18054219029219
 31
0.0
  0
LINE
  5
706
  8
0
  6
BYBLOCK
 10
130.81819941703861
 20
177.28000505102361
 30
0.0
 11
130.81819941703861
 21
176.4800050510234
 31
0.0
  0
LINE
  5
707
  8
0
  6
BYBLOCK
 10
137.3990282885529
 20
178.88054219029209
 30
0.0
 11
137.3990282885529
 21
179.4805421902924
 31
0.0
  0
LINE
  5
708
  8
0
  6
BYBLOCK
 10
136.79902828855259
 20
178.88054219029209
 30
0.0
 11
137.3990282885529
 21
178.88054219029209
 31
0.0
  0
LINE
  5
709
  8
0
  6
BYBLOCK
 10
136.79902828855259
 20
179.4805421902924
 30
0.0
 11
137.3990282885529
 21
179.4805421902924
 31
0.0
  0
LINE
  5
70A
  8
0
  6
BYBLOCK
 10
136.79902828855259
 20
178.88054219029209
 30
0.0
 11
136.79902828855259
 21
179.4805421902924
 31
0.0
  0
LINE
  5
70B
  8
0
  6
BYBLOCK
 10
137.3990282885529
 20
180.88054219029209
 30
0.0
 11
137.3990282885529
 21
181.4805421902924
 31
0.0
  0
LINE
  5
70C
  8
0
  6
BYBLOCK
 10
136.79902828855259
 20
180.88054219029209
 30
0.0
 11
137.3990282885529
 21
180.88054219029209
 31
0.0
  0
LINE
  5
70D
  8
0
  6
BYBLOCK
 10
136.79902828855259
 20
181.4805421902924
 30
0.0
 11
137.3990282885529
 21
181.4805421902924
 31
0.0
  0
LINE
  5
70E
  8
0
  6
BYBLOCK
 10
136.79902828855259
 20
180.88054219029209
 30
0.0
 11
136.79902828855259
 21
181.4805421902924
 31
0.0
  0
LINE
  5
70F
  8
0
  6
BYBLOCK
 10
137.3990282885529
 20
182.880542190292
 30
0.0
 11
137.3990282885529
 21
183.4805421902924
 31
0.0
  0
LINE
  5
710
  8
0
  6
BYBLOCK
 10
136.79902828855259
 20
182.880542190292
 30
0.0
 11
137.3990282885529
 21
182.880542190292
 31
0.0
  0
LINE
  5
711
  8
0
  6
BYBLOCK
 10
136.79902828855259
 20
183.4805421902924
 30
0.0
 11
137.3990282885529
 21
183.4805421902924
 31
0.0
  0
LINE
  5
712
  8
0
  6
BYBLOCK
 10
136.79902828855259
 20
182.880542190292
 30
0.0
 11
136.79902828855259
 21
183.4805421902924
 31
0.0
  0
LINE
  5
713
  8
0
  6
BYBLOCK
 10
137.3990282885529
 20
184.880542190292
 30
0.0
 11
137.3990282885529
 21
185.4805421902924
 31
0.0
  0
LINE
  5
714
  8
0
  6
BYBLOCK
 10
136.79902828855259
 20
184.880542190292
 30
0.0
 11
137.3990282885529
 21
184.880542190292
 31
0.0
  0
LINE
  5
715
  8
0
  6
BYBLOCK
 10
136.79902828855259
 20
185.4805421902924
 30
0.0
 11
137.3990282885529
 21
185.4805421902924
 31
0.0
  0
LINE
  5
716
  8
0
  6
BYBLOCK
 10
136.79902828855259
 20
184.880542190292
 30
0.0
 11
136.79902828855259
 21
185.4805421902924
 31
0.0
  0
LINE
  5
717
  8
0
  6
BYBLOCK
 10
137.3990282885529
 20
186.880542190292
 30
0.0
 11
137.3990282885529
 21
187.4805421902924
 31
0.0
  0
LINE
  5
718
  8
0
  6
BYBLOCK
 10
136.79902828855259
 20
186.880542190292
 30
0.0
 11
137.3990282885529
 21
186.880542190292
 31
0.0
  0
LINE
  5
719
  8
0
  6
BYBLOCK
 10
136.79902828855259
 20
187.4805421902924
 30
0.0
 11
137.3990282885529
 21
187.4805421902924
 31
0.0
  0
LINE
  5
71A
  8
0
  6
BYBLOCK
 10
136.79902828855259
 20
186.880542190292
 30
0.0
 11
136.79902828855259
 21
187.4805421902924
 31
0.0
  0
LINE
  5
71B
  8
0
  6
BYBLOCK
 10
137.3990282885529
 20
188.880542190292
 30
0.0
 11
137.3990282885529
 21
189.4805421902924
 31
0.0
  0
LINE
  5
71C
  8
0
  6
BYBLOCK
 10
136.79902828855259
 20
188.880542190292
 30
0.0
 11
137.3990282885529
 21
188.880542190292
 31
0.0
  0
LINE
  5
71D
  8
0
  6
BYBLOCK
 10
136.79902828855259
 20
189.4805421902924
 30
0.0
 11
137.3990282885529
 21
189.4805421902924
 31
0.0
  0
LINE
  5
71E
  8
0
  6
BYBLOCK
 10
136.79902828855259
 20
188.880542190292
 30
0.0
 11
136.79902828855259
 21
189.4805421902924
 31
0.0
  0
LINE
  5
71F
  8
0
  6
BYBLOCK
 10
132.3990282885529
 20
188.880542190292
 30
0.0
 11
132.3990282885529
 21
189.4805421902924
 31
0.0
  0
LINE
  5
720
  8
0
  6
BYBLOCK
 10
131.79902828855259
 20
188.880542190292
 30
0.0
 11
132.3990282885529
 21
188.880542190292
 31
0.0
  0
LINE
  5
721
  8
0
  6
BYBLOCK
 10
131.79902828855259
 20
189.4805421902924
 30
0.0
 11
132.3990282885529
 21
189.4805421902924
 31
0.0
  0
LINE
  5
722
  8
0
  6
BYBLOCK
 10
131.79902828855259
 20
188.880542190292
 30
0.0
 11
131.79902828855259
 21
189.4805421902924
 31
0.0
  0
LINE
  5
723
  8
0
  6
BYBLOCK
 10
132.3990282885529
 20
186.880542190292
 30
0.0
 11
132.3990282885529
 21
187.4805421902924
 31
0.0
  0
LINE
  5
724
  8
0
  6
BYBLOCK
 10
131.79902828855259
 20
186.880542190292
 30
0.0
 11
132.3990282885529
 21
186.880542190292
 31
0.0
  0
LINE
  5
725
  8
0
  6
BYBLOCK
 10
131.79902828855259
 20
187.4805421902924
 30
0.0
 11
132.3990282885529
 21
187.4805421902924
 31
0.0
  0
LINE
  5
726
  8
0
  6
BYBLOCK
 10
131.79902828855259
 20
186.880542190292
 30
0.0
 11
131.79902828855259
 21
187.4805421902924
 31
0.0
  0
LINE
  5
727
  8
0
  6
BYBLOCK
 10
132.3990282885529
 20
184.880542190292
 30
0.0
 11
132.3990282885529
 21
185.4805421902924
 31
0.0
  0
LINE
  5
728
  8
0
  6
BYBLOCK
 10
131.79902828855259
 20
184.880542190292
 30
0.0
 11
132.3990282885529
 21
184.880542190292
 31
0.0
  0
LINE
  5
729
  8
0
  6
BYBLOCK
 10
131.79902828855259
 20
185.4805421902924
 30
0.0
 11
132.3990282885529
 21
185.4805421902924
 31
0.0
  0
LINE
  5
72A
  8
0
  6
BYBLOCK
 10
131.79902828855259
 20
184.880542190292
 30
0.0
 11
131.79902828855259
 21
185.4805421902924
 31
0.0
  0
LINE
  5
72B
  8
0
  6
BYBLOCK
 10
132.3990282885529
 20
182.880542190292
 30
0.0
 11
132.3990282885529
 21
183.4805421902924
 31
0.0
  0
LINE
  5
72C
  8
0
  6
BYBLOCK
 10
131.79902828855259
 20
182.880542190292
 30
0.0
 11
132.3990282885529
 21
182.880542190292
 31
0.0
  0
LINE
  5
72D
  8
0
  6
BYBLOCK
 10
131.79902828855259
 20
183.4805421902924
 30
0.0
 11
132.3990282885529
 21
183.4805421902924
 31
0.0
  0
LINE
  5
72E
  8
0
  6
BYBLOCK
 10
131.79902828855259
 20
182.880542190292
 30
0.0
 11
131.79902828855259
 21
183.4805421902924
 31
0.0
  0
LINE
  5
72F
  8
0
  6
BYBLOCK
 10
132.3990282885529
 20
180.88054219029209
 30
0.0
 11
132.3990282885529
 21
181.4805421902924
 31
0.0
  0
LINE
  5
730
  8
0
  6
BYBLOCK
 10
131.79902828855259
 20
180.88054219029209
 30
0.0
 11
132.3990282885529
 21
180.88054219029209
 31
0.0
  0
LINE
  5
731
  8
0
  6
BYBLOCK
 10
131.79902828855259
 20
181.4805421902924
 30
0.0
 11
132.3990282885529
 21
181.4805421902924
 31
0.0
  0
LINE
  5
732
  8
0
  6
BYBLOCK
 10
131.79902828855259
 20
180.88054219029209
 30
0.0
 11
131.79902828855259
 21
181.4805421902924
 31
0.0
  0
LINE
  5
733
  8
0
  6
BYBLOCK
 10
132.3990282885529
 20
178.88054219029209
 30
0.0
 11
132.3990282885529
 21
179.4805421902924
 31
0.0
  0
LINE
  5
734
  8
0
  6
BYBLOCK
 10
131.79902828855259
 20
178.88054219029209
 30
0.0
 11
132.3990282885529
 21
178.88054219029209
 31
0.0
  0
LINE
  5
735
  8
0
  6
BYBLOCK
 10
131.79902828855259
 20
179.4805421902924
 30
0.0
 11
132.3990282885529
 21
179.4805421902924
 31
0.0
  0
LINE
  5
736
  8
0
  6
BYBLOCK
 10
131.79902828855259
 20
178.88054219029209
 30
0.0
 11
131.79902828855259
 21
179.4805421902924
 31
0.0
  0
LINE
  5
737
  8
0
  6
BYBLOCK
 10
130.81819941703861
 20
193.88000505102309
 30
0.0
 11
130.81819941703861
 21
193.08000505102379
 31
0.0
  0
LINE
  5
738
  8
0
  6
BYBLOCK
 10
134.34902828855269
 20
131.91167734701551
 30
0.0
 11
134.34902828855269
 21
133.91167734701551
 31
0.0
  0
LINE
  5
739
  8
0
  6
BYBLOCK
 10
134.34902828855269
 20
133.91167734701551
 30
0.0
 11
134.84902828855269
 21
133.91167734701551
 31
0.0
  0
LINE
  5
73A
  8
0
  6
BYBLOCK
 10
134.34902828855269
 20
131.91167734701551
 30
0.0
 11
134.84902828855269
 21
131.91167734701551
 31
0.0
  0
LINE
  5
73B
  8
0
  6
BYBLOCK
 10
134.84902828855269
 20
131.91167734701551
 30
0.0
 11
134.84902828855269
 21
133.91167734701551
 31
0.0
  0
LINE
  5
73C
  8
0
  6
BYBLOCK
 10
134.34902828855269
 20
134.4116773470154
 30
0.0
 11
134.34902828855269
 21
136.4116773470154
 31
0.0
  0
LINE
  5
73D
  8
0
  6
BYBLOCK
 10
134.34902828855269
 20
136.4116773470154
 30
0.0
 11
134.84902828855269
 21
136.4116773470154
 31
0.0
  0
LINE
  5
73E
  8
0
  6
BYBLOCK
 10
134.34902828855269
 20
134.4116773470154
 30
0.0
 11
134.84902828855269
 21
134.4116773470154
 31
0.0
  0
LINE
  5
73F
  8
0
  6
BYBLOCK
 10
134.84902828855269
 20
134.4116773470154
 30
0.0
 11
134.84902828855269
 21
136.4116773470154
 31
0.0
  0
LINE
  5
740
  8
0
  6
BYBLOCK
 10
134.84902828855269
 20
136.9116773470154
 30
0.0
 11
134.84902828855269
 21
138.9116773470154
 31
0.0
  0
LINE
  5
741
  8
0
  6
BYBLOCK
 10
134.34902828855269
 20
136.9116773470154
 30
0.0
 11
134.84902828855269
 21
136.9116773470154
 31
0.0
  0
LINE
  5
742
  8
0
  6
BYBLOCK
 10
134.34902828855269
 20
138.9116773470154
 30
0.0
 11
134.84902828855269
 21
138.9116773470154
 31
0.0
  0
LINE
  5
743
  8
0
  6
BYBLOCK
 10
134.34902828855269
 20
136.9116773470154
 30
0.0
 11
134.34902828855269
 21
138.9116773470154
 31
0.0
  0
LINE
  5
744
  8
0
  6
BYBLOCK
 10
138.04902828855339
 20
140.11167734701431
 30
0.0
 11
138.04902828855339
 21
130.71167734701481
 31
0.0
  0
ARC
  5
745
  8
0
  6
BYBLOCK
 10
137.64902828855199
 20
140.11167734701431
 30
0.0
 40
0.4
 50
0.0
 51
90.0
  0
ARC
  5
746
  8
0
  6
BYBLOCK
 10
137.64902828855199
 20
130.7116773470147
 30
0.0
 40
0.4
 50
270.0
 51
0.0
  0
LINE
  5
747
  8
0
  6
BYBLOCK
 10
137.64902828855199
 20
139.61167734701519
 30
0.0
 11
137.64902828855199
 21
131.21167734701481
 31
0.0
  0
ARC
  5
748
  8
0
  6
BYBLOCK
 10
137.24902828855241
 20
139.61167734701519
 30
0.0
 40
0.4
 50
0.0
 51
90.0
  0
ARC
  5
749
  8
0
  6
BYBLOCK
 10
137.24902828855241
 20
131.2116773470147
 30
0.0
 40
0.4
 50
270.0
 51
0.0
  0
LINE
  5
74A
  8
0
  6
BYBLOCK
 10
130.34902828855269
 20
136.9116773470154
 30
0.0
 11
130.34902828855269
 21
138.9116773470154
 31
0.0
  0
LINE
  5
74B
  8
0
  6
BYBLOCK
 10
130.34902828855269
 20
138.9116773470154
 30
0.0
 11
130.84902828855269
 21
138.9116773470154
 31
0.0
  0
LINE
  5
74C
  8
0
  6
BYBLOCK
 10
130.34902828855269
 20
136.9116773470154
 30
0.0
 11
130.84902828855269
 21
136.9116773470154
 31
0.0
  0
LINE
  5
74D
  8
0
  6
BYBLOCK
 10
130.84902828855269
 20
136.9116773470154
 30
0.0
 11
130.84902828855269
 21
138.9116773470154
 31
0.0
  0
LINE
  5
74E
  8
0
  6
BYBLOCK
 10
130.84902828855269
 20
134.4116773470154
 30
0.0
 11
130.84902828855269
 21
136.4116773470154
 31
0.0
  0
LINE
  5
74F
  8
0
  6
BYBLOCK
 10
130.34902828855269
 20
134.4116773470154
 30
0.0
 11
130.84902828855269
 21
134.4116773470154
 31
0.0
  0
LINE
  5
750
  8
0
  6
BYBLOCK
 10
130.34902828855269
 20
136.4116773470154
 30
0.0
 11
130.84902828855269
 21
136.4116773470154
 31
0.0
  0
LINE
  5
751
  8
0
  6
BYBLOCK
 10
130.34902828855269
 20
134.4116773470154
 30
0.0
 11
130.34902828855269
 21
136.4116773470154
 31
0.0
  0
LINE
  5
752
  8
0
  6
BYBLOCK
 10
130.84902828855269
 20
131.91167734701551
 30
0.0
 11
130.84902828855269
 21
133.91167734701551
 31
0.0
  0
LINE
  5
753
  8
0
  6
BYBLOCK
 10
130.34902828855269
 20
131.91167734701551
 30
0.0
 11
130.84902828855269
 21
131.91167734701551
 31
0.0
  0
LINE
  5
754
  8
0
  6
BYBLOCK
 10
130.34902828855269
 20
133.91167734701551
 30
0.0
 11
130.84902828855269
 21
133.91167734701551
 31
0.0
  0
LINE
  5
755
  8
0
  6
BYBLOCK
 10
130.34902828855269
 20
131.91167734701551
 30
0.0
 11
130.34902828855269
 21
133.91167734701551
 31
0.0
  0
LINE
  5
756
  8
0
  6
BYBLOCK
 10
125.46986036774111
 20
140.51167734701491
 30
0.0
 11
137.64902828855199
 21
140.51167734701491
 31
0.0
  0
LINE
  5
757
  8
0
  6
BYBLOCK
 10
125.46986036774111
 20
130.31167734701509
 30
0.0
 11
137.64902828855199
 21
130.31167734701509
 31
0.0
  0
LINE
  5
758
  8
0
  6
BYBLOCK
 10
125.84902828855451
 20
140.01167734701579
 30
0.0
 11
137.2490282885523
 21
140.01167734701491
 31
0.0
  0
LINE
  5
759
  8
0
  6
BYBLOCK
 10
137.2490282885523
 20
130.81167734701509
 30
0.0
 11
125.8490282885527
 21
130.81167734701509
 31
0.0
  0
LINE
  5
75A
  8
0
  6
BYBLOCK
 10
139.64902828855199
 20
130.31167734701509
 30
0.0
 11
139.64902828855199
 21
133.65868169773381
 31
0.0
  0
LINE
  5
75B
  8
0
  6
BYBLOCK
 10
139.64902828855199
 20
140.51167734701491
 30
0.0
 11
137.64902828855199
 21
140.51167734701491
 31
0.0
  0
LINE
  5
75C
  8
0
  6
BYBLOCK
 10
139.64902828855199
 20
130.31167734701509
 30
0.0
 11
137.64902828855199
 21
130.31167734701509
 31
0.0
  0
LINE
  5
75D
  8
0
  6
BYBLOCK
 10
138.04902828855339
 20
137.01167734701491
 30
0.0
 11
139.4960326392706
 21
137.01167734701491
 31
0.0
  0
LINE
  5
75E
  8
0
  6
BYBLOCK
 10
138.04902828855339
 20
133.81167734701509
 30
0.0
 11
139.4960326392706
 21
133.81167734701509
 31
0.0
  0
LINE
  5
75F
  8
0
  6
BYBLOCK
 10
139.4960326392706
 20
133.81167734701509
 30
0.0
 11
139.64902828855199
 21
133.65868169773381
 31
0.0
  0
LINE
  5
760
  8
0
  6
BYBLOCK
 10
139.4960326392706
 20
137.01167734701491
 30
0.0
 11
139.64902828855199
 21
137.16467299629539
 31
0.0
  0
LINE
  5
761
  8
0
  6
BYBLOCK
 10
139.64902828855199
 20
133.65868169773381
 30
0.0
 11
139.64902828855199
 21
140.51167734701491
 31
0.0
  0
LINE
  5
762
  8
0
  6
BYBLOCK
 10
124.94902828855309
 20
139.9015371923783
 30
0.0
 11
124.94902828855309
 21
131.01992250265309
 31
0.0
  0
LINE
  5
763
  8
0
  6
BYBLOCK
 10
125.8490282885527
 20
130.81167734701509
 30
0.0
 11
125.84902828855451
 21
140.01167734701579
 31
0.0
  0
LINE
  5
764
  8
0
  6
BYBLOCK
 10
124.94902828855309
 20
139.9015371923783
 30
0.0
 11
125.46986036774111
 21
140.51167734701491
 31
0.0
  0
LINE
  5
765
  8
0
  6
BYBLOCK
 10
124.94902828855309
 20
131.01992250265309
 30
0.0
 11
125.46986036774111
 21
130.31167734701509
 31
0.0
  0
LINE
  5
766
  8
0
  6
CONTINUOUS
 10
134.6604842885522
 20
167.12776462719961
 30
0.0
 11
135.09801128855219
 21
167.50862062719941
 31
0.0
  0
LINE
  5
767
  8
0
  6
CONTINUOUS
 10
136.12843928855219
 20
167.12776462719961
 30
0.0
 11
135.69056828855221
 21
167.50862062719941
 31
0.0
  0
INSERT
  5
768
  8
0
  6
CONTINUOUS
  2
C55
 10
-259.13770471144869
 20
407.55656162720021
 30
0.0
  0
LINE
  5
769
  8
0
  6
CONTINUOUS
 10
131.13201728855211
 20
167.65693162720021
 30
0.0
 11
131.51304528855189
 21
167.21940462720019
 31
0.0
  0
LINE
  5
76A
  8
0
  6
CONTINUOUS
 10
131.13201728855211
 20
166.18897662720011
 30
0.0
 11
131.51304528855189
 21
166.6266756272002
 31
0.0
  0
INSERT
  5
76B
  8
0
  6
CONTINUOUS
  2
C54
 10
-259.13770471144869
 20
407.55656162720021
 30
0.0
  0
INSERT
  5
76C
  8
0
  6
CONTINUOUS
  2
C53
 10
-259.13770471144869
 20
407.55656162720021
 30
0.0
  0
INSERT
  5
76D
  8
0
  6
CONTINUOUS
  2
C52
 10
-259.13770471144869
 20
407.55656162720021
 30
0.0
  0
INSERT
  5
76E
  8
0
  6
CONTINUOUS
  2
C51
 10
-259.13770471144869
 20
407.55656162720021
 30
0.0
  0
LINE
  5
76F
  8
0
  6
CONTINUOUS
 10
132.91037528855171
 20
169.82355262720051
 30
0.0
 11
133.3477302885517
 21
169.44218062719889
 31
0.0
  0
CIRCLE
  5
770
  8
0
  6
CONTINUOUS
 10
133.24877028855229
 20
168.72973462719929
 30
0.0
 40
4.4485659999999996
  0
LINE
  5
771
  8
0
  6
CONTINUOUS
 10
131.13201728855211
 20
171.34059962719991
 30
0.0
 11
131.51304528855189
 21
170.90307262719989
 31
0.0
  0
LINE
  5
772
  8
0
  6
CONTINUOUS
 10
131.13201728855211
 20
169.87298962720021
 30
0.0
 11
131.51304528855189
 21
170.3105166272002
 31
0.0
  0
INSERT
  5
773
  8
0
  6
CONTINUOUS
  2
C49
 10
-259.13770471144869
 20
407.55656162720021
 30
0.0
  0
INSERT
  5
774
  8
0
  6
CONTINUOUS
  2
C48
 10
-259.13770471144869
 20
407.55656162720021
 30
0.0
  0
LINE
  5
775
  8
0
  6
CONTINUOUS
 10
131.13201728855211
 20
169.4986796271991
 30
0.0
 11
131.51304528855189
 21
169.0613246271991
 31
0.0
  0
LINE
  5
776
  8
0
  6
CONTINUOUS
 10
131.13201728855211
 20
168.03072462719911
 30
0.0
 11
131.51304528855189
 21
168.4685966271995
 31
0.0
  0
INSERT
  5
777
  8
0
  6
CONTINUOUS
  2
C47
 10
-259.13770471144869
 20
407.55656162720021
 30
0.0
  0
INSERT
  5
778
  8
0
  6
CONTINUOUS
  2
C46
 10
-259.13770471144869
 20
407.55656162720021
 30
0.0
  0
LINE
  5
779
  8
0
  6
CONTINUOUS
 10
134.37833128855209
 20
171.6442856271992
 30
0.0
 11
133.9408042885521
 21
171.2629136271994
 31
0.0
  0
LINE
  5
77A
  8
0
  6
CONTINUOUS
 10
132.91037528855171
 20
171.6442856271992
 30
0.0
 11
133.3477302885517
 21
171.2629136271994
 31
0.0
  0
INSERT
  5
77B
  8
0
  6
CONTINUOUS
  2
C45
 10
-259.13770471144869
 20
407.55656162720021
 30
0.0
  0
INSERT
  5
77C
  8
0
  6
CONTINUOUS
  2
C44
 10
-259.13770471144869
 20
407.55656162720021
 30
0.0
  0
LINE
  5
77D
  8
0
  6
CONTINUOUS
 10
134.37833128855209
 20
169.82355262720051
 30
0.0
 11
133.94080428855199
 21
169.44218062719889
 31
0.0
  0
INSERT
  5
77E
  8
0
  6
CONTINUOUS
  2
C43
 10
-259.13770471144869
 20
407.55656162720021
 30
0.0
  0
INSERT
  5
77F
  8
0
  6
CONTINUOUS
  2
C42
 10
-259.13770471144869
 20
407.55656162720021
 30
0.0
  0
LINE
  5
780
  8
0
  6
CONTINUOUS
 10
134.6604842885522
 20
170.317578627199
 30
0.0
 11
135.09801128855219
 21
169.93655162719961
 31
0.0
  0
LINE
  5
781
  8
0
  6
CONTINUOUS
 10
136.12843928855219
 20
170.317578627199
 30
0.0
 11
135.69056828855221
 21
169.93655162719961
 31
0.0
  0
INSERT
  5
782
  8
0
  6
CONTINUOUS
  2
C41
 10
-259.13770471144869
 20
407.55656162720021
 30
0.0
  0
INSERT
  5
783
  8
0
  6
CONTINUOUS
  2
C40
 10
-259.13770471144869
 20
407.55656162720021
 30
0.0
  0
INSERT
  5
784
  8
0
  6
CONTINUOUS
  2
C39
 10
-259.13770471144869
 20
407.55656162720021
 30
0.0
  0
INSERT
  5
785
  8
0
  6
CONTINUOUS
  2
C38
 10
-259.13770471144869
 20
407.55656162720021
 30
0.0
  0
LINE
  5
786
  8
0
  6
CONTINUOUS
 10
132.91037528855171
 20
165.73732462720039
 30
0.0
 11
133.3477302885517
 21
166.11835162719979
 31
0.0
  0
LINE
  5
787
  8
0
  6
CONTINUOUS
 10
134.37833128855209
 20
165.73732462720039
 30
0.0
 11
133.94045928855161
 21
166.11835162719979
 31
0.0
  0
INSERT
  5
788
  8
0
  6
CONTINUOUS
  2
C37
 10
-259.13770471144869
 20
407.55656162720021
 30
0.0
  0
CIRCLE
  5
789
  8
0
  6
CONTINUOUS
 10
133.24902828855241
 20
168.72973462719929
 30
0.0
 40
5.0298389999999991
  0
CIRCLE
  5
78A
  8
0
  6
CONTINUOUS
 10
133.24902828855241
 20
168.72973462719929
 30
0.0
 40
5.0298389999999991
  0
CIRCLE
  5
78B
  8
0
  6
CONTINUOUS
 10
133.24877028855229
 20
168.72973462719929
 30
0.0
 40
4.4485659999999996
  0
LINE
  5
78C
  8
0
 10
126.8490282885509
 20
175.7300050510234
 30
0.0
 11
126.8490282885509
 21
161.7300050510234
 31
0.0
  0
LINE
  5
78D
  8
0
 10
126.8490282885509
 20
161.7300050510234
 30
0.0
 11
139.64902828855199
 21
161.7300050510234
 31
0.0
  0
LINE
  5
78E
  8
0
 10
126.8490282885509
 20
175.7300050510234
 30
0.0
 11
139.64902828855199
 21
175.7300050510234
 31
0.0
  0
LINE
  5
78F
  8
0
  6
DASHED
 10
126.34902828855461
 20
194.7900050510228
 30
0.0
 11
139.94902828855399
 21
194.7900050510228
 31
0.0
  0
LINE
  5
790
  8
0
 10
139.94902828855399
 20
198.5900050510231
 30
0.0
 11
138.34902828855459
 21
198.5900050510231
 31
0.0
  0
LINE
  5
791
  8
0
 10
140.2490282885542
 20
195.69000505102349
 30
0.0
 11
138.04902828855441
 21
195.69000505102349
 31
0.0
  0
LINE
  5
792
  8
0
 10
140.2490282885542
 20
195.69000505102349
 30
0.0
 11
138.04902828855441
 21
195.69000505102349
 31
0.0
  0
LINE
  5
793
  8
0
 10
139.94902828855399
 20
195.99000505102359
 30
0.0
 11
138.34902828855459
 21
195.99000505102359
 31
0.0
  0
LINE
  5
794
  8
0
 10
138.04902828855441
 20
195.69000505102349
 30
0.0
 11
138.04902828855441
 21
198.89000505102331
 31
0.0
  0
LINE
  5
795
  8
0
 10
138.34902828855459
 20
195.99000505102359
 30
0.0
 11
138.34902828855459
 21
198.5900050510231
 31
0.0
  0
LINE
  5
796
  8
0
 10
140.2490282885542
 20
198.89000505102331
 30
0.0
 11
140.2490282885542
 21
195.69000505102349
 31
0.0
  0
LINE
  5
797
  8
0
 10
139.94902828855399
 20
198.5900050510231
 30
0.0
 11
139.94902828855399
 21
195.99000505102359
 31
0.0
  0
LINE
  5
798
  8
0
  6
CONTINUOUS
 10
138.04902828855421
 20
195.69000505102321
 30
0.0
 11
138.04902828855421
 21
198.99000505102339
 31
0.0
  0
LINE
  5
799
  8
0
  6
CONTINUOUS
 10
140.2490282885542
 20
198.99000505102339
 30
0.0
 11
140.2490282885542
 21
195.69000505102321
 31
0.0
  0
LINE
  5
79A
  8
0
  6
CONTINUOUS
 10
140.2490282885542
 20
198.99000505102339
 30
0.0
 11
138.04902828855421
 21
198.99000505102339
 31
0.0
  0
LINE
  5
79B
  8
0
  6
CONTINUOUS
 10
140.2490282885542
 20
195.69000505102321
 30
0.0
 11
138.04902828855421
 21
195.69000505102321
 31
0.0
  0
LINE
  5
79C
  8
追加
  6
CENTER
 62
     5
 10
139.24902828855551
 20
211.64000505102319
 30
0.0
 11
129.24902828855551
 21
211.64000505102319
 31
0.0
  0
LINE
  5
79D
  8
追加
  6
CENTER
 62
     5
 10
134.24902828855551
 20
206.64000505102319
 30
0.0
 11
134.24902828855551
 21
216.64000505102319
 31
0.0
  0
LINE
  5
79E
  8
追加
  6
CENTER
 62
     5
 10
139.24902828855639
 20
99.640005051022342
 30
0.0
 11
129.24902828855639
 21
99.640005051022342
 31
0.0
  0
LINE
  5
79F
  8
追加
  6
CENTER
 62
     5
 10
134.24902828855639
 20
94.640005051022342
 30
0.0
 11
134.24902828855639
 21
104.6400050510223
 31
0.0
  0
LINE
  5
7A0
  8
0
  6
BYBLOCK
 10
137.3990282885529
 20
190.880542190292
 30
0.0
 11
137.3990282885529
 21
191.4805421902924
 31
0.0
  0
LINE
  5
7A1
  8
0
  6
BYBLOCK
 10
136.79902828855259
 20
190.880542190292
 30
0.0
 11
137.3990282885529
 21
190.880542190292
 31
0.0
  0
LINE
  5
7A2
  8
0
  6
BYBLOCK
 10
136.79902828855259
 20
191.4805421902924
 30
0.0
 11
137.3990282885529
 21
191.4805421902924
 31
0.0
  0
LINE
  5
7A3
  8
0
  6
BYBLOCK
 10
136.79902828855259
 20
190.880542190292
 30
0.0
 11
136.79902828855259
 21
191.4805421902924
 31
0.0
  0
LINE
  5
7A4
  8
0
  6
BYBLOCK
 10
132.3990282885529
 20
190.880542190292
 30
0.0
 11
132.3990282885529
 21
191.4805421902924
 31
0.0
  0
LINE
  5
7A5
  8
0
  6
BYBLOCK
 10
131.79902828855259
 20
190.880542190292
 30
0.0
 11
132.3990282885529
 21
190.880542190292
 31
0.0
  0
LINE
  5
7A6
  8
0
  6
BYBLOCK
 10
131.79902828855259
 20
191.4805421902924
 30
0.0
 11
132.3990282885529
 21
191.4805421902924
 31
0.0
  0
LINE
  5
7A7
  8
0
  6
BYBLOCK
 10
131.79902828855259
 20
190.880542190292
 30
0.0
 11
131.79902828855259
 21
191.4805421902924
 31
0.0
  0
ENDSEC
  0
EOF
