  0
SECTION
  2
HEADER
  9
$ACADVER
  1
AC1009
  9
$INSBASE
 10
0.0
 20
0.0
 30
0.0
  9
$EXTMIN
 10
-0.0128164049386896
 20
-0.1223595381276255
 30
-0.0015258207003583
  9
$EXTMAX
 10
152.0013434393347
 20
312.50802683260758
 30
0.0000000349246037
  9
$LIMMIN
 10
0.0
 20
0.0
  9
$LIMMAX
 10
420.0
 20
297.0
  9
$ORTHOMODE
 70
     0
  9
$REGENMODE
 70
     1
  9
$FILLMODE
 70
     1
  9
$QTEXTMODE
 70
     0
  9
$MIRRTEXT
 70
     1
  9
$DRAGMODE
 70
     2
  9
$LTSCALE
 40
1.0
  9
$OSMODE
 70
    49
  9
$ATTMODE
 70
     1
  9
$TEXTSIZE
 40
2.5
  9
$TRACEWID
 40
1.0
  9
$TEXTSTYLE
  7
STANDARD
  9
$CLAYER
  8
0
  9
$CELTYPE
  6
BYLAYER
  9
$CECOLOR
 62
   256
  9
$DIMSCALE
 40
1.0
  9
$DIMASZ
 40
2.5
  9
$DIMEXO
 40
0.625
  9
$DIMDLI
 40
3.75
  9
$DIMRND
 40
0.0
  9
$DIMDLE
 40
0.0
  9
$DIMEXE
 40
1.25
  9
$DIMTP
 40
0.0
  9
$DIMTM
 40
0.0
  9
$DIMTXT
 40
2.5
  9
$DIMCEN
 40
2.5
  9
$DIMTSZ
 40
0.0
  9
$DIMTOL
 70
     0
  9
$DIMLIM
 70
     0
  9
$DIMTIH
 70
     0
  9
$DIMTOH
 70
     0
  9
$DIMSE1
 70
     0
  9
$DIMSE2
 70
     0
  9
$DIMTAD
 70
     1
  9
$DIMZIN
 70
     8
  9
$DIMBLK
  1

  9
$DIMASO
 70
     1
  9
$DIMSHO
 70
     1
  9
$DIMPOST
  1

  9
$DIMAPOST
  1

  9
$DIMALT
 70
     0
  9
$DIMALTD
 70
     3
  9
$DIMALTF
 40
0.03937007874016
  9
$DIMLFAC
 40
1.0
  9
$DIMTOFL
 70
     1
  9
$DIMTVP
 40
0.0
  9
$DIMTIX
 70
     0
  9
$DIMSOXD
 70
     0
  9
$DIMSAH
 70
     0
  9
$DIMBLK1
  1

  9
$DIMBLK2
  1

  9
$DIMSTYLE
  2
ISO-25
  9
$DIMCLRD
 70
     0
  9
$DIMCLRE
 70
     0
  9
$DIMCLRT
 70
     0
  9
$DIMTFAC
 40
1.0
  9
$DIMGAP
 40
0.625
  9
$LUNITS
 70
     2
  9
$LUPREC
 70
     4
  9
$SKETCHINC
 40
1.0
  9
$FILLETRAD
 40
10.0
  9
$AUNITS
 70
     0
  9
$AUPREC
 70
     0
  9
$MENU
  1
.
  9
$ELEVATION
 40
0.0
  9
$PELEVATION
 40
0.0
  9
$THICKNESS
 40
0.0
  9
$LIMCHECK
 70
     0
  9
$BLIPMODE
 70
     0
  9
$CHAMFERA
 40
10.0
  9
$CHAMFERB
 40
10.0
  9
$SKPOLY
 70
     0
  9
$TDCREATE
 40
2453948.6358197448
  9
$TDUPDATE
 40
2453948.6380173722
  9
$TDINDWG
 40
0.0021979861
  9
$TDUSRTIMER
 40
0.0021979861
  9
$USRTIMER
 70
     1
  9
$ANGBASE
 50
0.0
  9
$ANGDIR
 70
     0
  9
$PDMODE
 70
     0
  9
$PDSIZE
 40
0.0
  9
$PLINEWID
 40
0.0
  9
$COORDS
 70
     0
  9
$SPLFRAME
 70
     0
  9
$SPLINETYPE
 70
     6
  9
$SPLINESEGS
 70
     8
  9
$ATTDIA
 70
     0
  9
$ATTREQ
 70
     1
  9
$HANDLING
 70
 22529
  9
$HANDSEED
  5
DCC
  9
$SURFTAB1
 70
     6
  9
$SURFTAB2
 70
     6
  9
$SURFTYPE
 70
     6
  9
$SURFU
 70
     6
  9
$SURFV
 70
     6
  9
$UCSNAME
  2

  9
$UCSORG
 10
0.0
 20
0.0
 30
0.0
  9
$UCSXDIR
 10
1.0
 20
0.0
 30
0.0
  9
$UCSYDIR
 10
0.0
 20
1.0
 30
0.0
  9
$PUCSNAME
  2

  9
$PUCSORG
 10
0.0
 20
0.0
 30
0.0
  9
$PUCSXDIR
 10
1.0
 20
0.0
 30
0.0
  9
$PUCSYDIR
 10
0.0
 20
1.0
 30
0.0
  9
$USERI1
 70
     0
  9
$USERI2
 70
     0
  9
$USERI3
 70
     0
  9
$USERI4
 70
     0
  9
$USERI5
 70
     0
  9
$USERR1
 40
0.0
  9
$USERR2
 40
0.0
  9
$USERR3
 40
0.0
  9
$USERR4
 40
0.0
  9
$USERR5
 40
0.0
  9
$WORLDVIEW
 70
     1
  9
$SHADEDGE
 70
     3
  9
$SHADEDIF
 70
    70
  9
$TILEMODE
 70
     1
  9
$MAXACTVP
 70
    64
  9
$PLIMCHECK
 70
     0
  9
$PEXTMIN
 10
1.0000000000000000E+020
 20
1.0000000000000000E+020
 30
1.0000000000000000E+020
  9
$PEXTMAX
 10
-1.0000000000000000E+020
 20
-1.0000000000000000E+020
 30
-1.0000000000000000E+020
  9
$PLIMMIN
 10
0.0
 20
0.0
  9
$PLIMMAX
 10
420.0
 20
297.0
  9
$UNITMODE
 70
     0
  9
$VISRETAIN
 70
     1
  9
$PLINEGEN
 70
     0
  9
$PSLTSCALE
 70
     1
  0
ENDSEC
  0
SECTION
  2
TABLES
  0
TABLE
  2
VPORT
 70
     4
  0
VPORT
  2
*ACTIVE
 70
     0
 10
0.0
 20
0.0
 11
1.0
 21
1.0
 12
75.994263517198021
 22
156.19283364723989
 13
0.0
 23
0.0
 14
10.0
 24
10.0
 15
10.0
 25
10.0
 16
0.0
 26
0.0
 36
1.0
 17
0.0
 27
0.0
 37
0.0
 40
315.30244095510039
 41
1.7189728958630519
 42
50.0
 43
0.0
 44
0.0
 50
0.0
 51
0.0
 71
     0
 72
   100
 73
     1
 74
     3
 75
     0
 76
     0
 77
     0
 78
     0
  0
ENDTAB
  0
TABLE
  2
LTYPE
 70
     3
  0
LTYPE
  2
CONTINUOUS
 70
     0
  3
Solid line
 72
    65
 73
     0
 40
0.0
  0
LTYPE
  2
CENTER
 70
     0
  3
____ _ ____ _ ____ _ ____ _ ____ _ ____ _ ____
 72
    65
 73
     4
 40
2.0
 49
1.25
 49
-0.25
 49
0.25
 49
-0.25
  0
LTYPE
  2
DIVIDE
 70
     0
  3
__ . . __ . . __ . . __ . . __ . . __ . . __
 72
    65
 73
     6
 40
1.25
 49
0.0
 49
-0.25
 49
0.0
 49
-0.25
 49
0.0
 49
-0.25
  0
ENDTAB
  0
TABLE
  2
LAYER
 70
     5
  0
LAYER
  2
0
 70
     0
 62
     7
  6
CONTINUOUS
  0
LAYER
  2
外枠
 70
     0
 62
     7
  6
CONTINUOUS
  0
LAYER
  2
追加
 70
     0
 62
    10
  6
CONTINUOUS
  0
LAYER
  2
ﾚｲﾔ_1
 70
     0
 62
    12
  6
CONTINUOUS
  0
LAYER
  2
2_カバ_
 70
     0
 62
     7
  6
DIVIDE
  0
ENDTAB
  0
TABLE
  2
STYLE
 70
     1
  0
STYLE
  2
STANDARD
 70
     0
 40
0.0
 41
1.0
 50
0.0
 71
     0
 42
2.5
  3
txt
  4

  0
ENDTAB
  0
TABLE
  2
VIEW
 70
     0
  0
ENDTAB
  0
TABLE
  2
UCS
 70
     0
  0
ENDTAB
  0
TABLE
  2
APPID
 70
     1
  0
APPID
  2
ACAD
 70
     0
  0
ENDTAB
  0
TABLE
  2
DIMSTYLE
 70
     7
  0
DIMSTYLE
  2
ISO-25
 70
     0
  3

  4

  5

  6

  7

 40
1.0
 41
2.5
 42
0.625
 43
3.75
 44
1.25
 45
0.0
 46
0.0
 47
0.0
 48
0.0
140
2.5
141
2.5
142
0.0
143
0.03937007874016
144
1.0
145
0.0
146
1.0
147
0.625
 71
     0
 72
     0
 73
     0
 74
     0
 75
     0
 76
     0
 77
     1
 78
     8
170
     0
171
     3
172
     1
173
     0
174
     0
175
     0
176
     0
177
     0
178
     0
  0
DIMSTYLE
  2
1
 70
     0
  3

  4

  5

  6

  7

 40
0.0
 41
2.0
 42
1.0
 43
0.38
 44
1.0
 45
0.0
 46
0.0
 47
0.1
 48
0.1
140
2.5
141
-1.0
142
0.0
143
25.399999999999999
144
1.0
145
0.0
146
0.5
147
0.5
 71
     0
 72
     0
 73
     0
 74
     0
 75
     0
 76
     0
 77
     1
 78
     0
170
     0
171
     2
172
     0
173
     0
174
     0
175
     0
176
     0
177
     0
178
     0
  0
DIMSTYLE
  2
DIMSTYLE
 70
     0
  3

  4

  5

  6
OPEN
  7
OPEN
 40
1.0
 41
1.0
 42
2.539999961853026
 43
0.38
 44
2.539999961853026
 45
0.0
 46
0.0
 47
0.0
 48
0.0
140
3.2000000476837158
141
0.09
142
0.0
143
25.399999999999999
144
1.0
145
1.0
146
1.0
147
1.6000000238418579
 71
     0
 72
     0
 73
     0
 74
     0
 75
     0
 76
     0
 77
     0
 78
     0
170
     0
171
     2
172
     0
173
     1
174
     0
175
     0
176
     0
177
     0
178
     0
  0
DIMSTYLE
  2
2
 70
     0
  3

  4

  5

  6
OPEN
  7
OPEN
 40
1.0
 41
1.0
 42
2.539999961853026
 43
0.38
 44
2.539999961853026
 45
0.0
 46
0.0
 47
0.0
 48
0.0
140
3.2000000476837158
141
0.09
142
0.0
143
25.399999999999999
144
1.0
145
1.0
146
1.0
147
1.6000000000000001
 71
     0
 72
     0
 73
     0
 74
     0
 75
     0
 76
     0
 77
     1
 78
     8
170
     0
171
     2
172
     1
173
     1
174
     0
175
     0
176
     0
177
     0
178
     0
  0
DIMSTYLE
  2
__
 70
     0
  3
(<>)
  4

  5

  6
OPEN
  7
OPEN
 40
1.0
 41
1.0
 42
2.539999961853026
 43
0.38
 44
2.539999961853026
 45
0.0
 46
0.0
 47
0.0
 48
0.0
140
3.2000000476837158
141
0.09
142
0.0
143
25.399999999999999
144
1.0
145
1.0
146
1.0
147
1.6000000000000001
 71
     0
 72
     0
 73
     0
 74
     0
 75
     0
 76
     0
 77
     1
 78
     8
170
     0
171
     2
172
     1
173
     1
174
     0
175
     0
176
     0
177
     0
178
     0
  0
DIMSTYLE
  2
CPY公差0-_2
 70
     0
  3

  4

  5

  6
OPEN
  7
OPEN
 40
1.0
 41
1.0
 42
2.539999961853026
 43
0.38
 44
2.539999961853026
 45
0.0
 46
0.0
 47
0.0
 48
0.2
140
3.2000000476837158
141
0.09
142
0.0
143
25.399999999999999
144
1.0
145
1.0
146
1.0
147
1.6000000000000001
 71
     1
 72
     0
 73
     0
 74
     0
 75
     0
 76
     0
 77
     1
 78
     0
170
     0
171
     2
172
     1
173
     1
174
     0
175
     0
176
     0
177
     0
178
     0
  0
DIMSTYLE
  2
3
 70
     0
  3

  4

  5

  6
OPEN
  7
OPEN
 40
1.0
 41
1.0
 42
2.539999961853026
 43
0.38
 44
2.539999961853026
 45
0.0
 46
0.0
 47
0.0
 48
0.0
140
2.0
141
0.09
142
0.0
143
25.399999999999999
144
1.0
145
1.0
146
1.0
147
0.9
 71
     0
 72
     0
 73
     0
 74
     0
 75
     0
 76
     0
 77
     1
 78
     8
170
     0
171
     2
172
     1
173
     1
174
     0
175
     0
176
     0
177
     0
178
     0
  0
ENDTAB
  0
ENDSEC
  0
SECTION
  2
BLOCKS
  0
BLOCK
  8
0
  2
$MODEL_SPACE
 70
     0
 10
0.0
 20
0.0
 30
0.0
  3
$MODEL_SPACE
  1

  0
ENDBLK
  5
21
  8
0
  0
BLOCK
 67
     1
  8
0
  2
$PAPER_SPACE
 70
     0
 10
0.0
 20
0.0
 30
0.0
  3
$PAPER_SPACE
  1

  0
ENDBLK
  5
1D
 67
     1
  8
0
  0
BLOCK
  8
0
  2
_OPEN
 70
     0
 10
0.0
 20
0.0
 30
0.0
  3
_OPEN
  1

  0
LINE
  5
2C
  8
0
  6
BYBLOCK
 62
     0
 10
0.0
 20
0.0
 30
0.0
 11
-3.1279999530221492
 21
-0.5619999915596267
 31
0.0
  0
LINE
  5
2D
  8
0
  6
BYBLOCK
 62
     0
 10
0.0
 20
0.0
 30
0.0
 11
-3.1279999530221572
 21
0.5619999915595885
 31
0.0
  0
LINE
  5
2E
  8
0
  6
BYBLOCK
 62
     0
 10
0.0
 20
0.0
 30
0.0
 11
-2.9999999549445211
 21
0.0
 31
0.0
  0
ENDBLK
  5
30
  8
0
  0
BLOCK
  8
0
  2
C37
 70
     0
 10
0.0
 20
0.0
 30
0.0
  3
C37
  1

  0
LINE
  5
32
  8
ﾚｲﾔ_1
  6
CONTINUOUS
 62
     7
 10
393.07816400000002
 20
-241.43821
 30
0.0
 11
393.07816400000002
 21
-240.45704599999991
 31
0.0
  0
LINE
  5
33
  8
ﾚｲﾔ_1
  6
CONTINUOUS
 62
     7
 10
393.07816400000002
 20
-240.45704599999991
 30
0.0
 11
392.485435
 21
-240.45704599999991
 31
0.0
  0
LINE
  5
34
  8
ﾚｲﾔ_1
  6
CONTINUOUS
 62
     7
 10
392.485435
 20
-240.45704599999991
 30
0.0
 11
392.485435
 21
-241.43821
 31
0.0
  0
LINE
  5
35
  8
ﾚｲﾔ_1
  6
CONTINUOUS
 62
     7
 10
392.485435
 20
-241.43821
 30
0.0
 11
393.07816400000002
 21
-241.43821
 31
0.0
  0
ENDBLK
  5
37
  8
0
  0
BLOCK
  8
0
  2
C38
 70
     0
 10
0.0
 20
0.0
 30
0.0
  3
C38
  1

  0
LINE
  5
39
  8
ﾚｲﾔ_1
  6
CONTINUOUS
 62
     7
 10
395.26614399999988
 20
-240.428797
 30
0.0
 11
395.26614399999988
 21
-239.06677799999991
 31
0.0
  0
LINE
  5
3A
  8
ﾚｲﾔ_1
  6
CONTINUOUS
 62
     7
 10
395.26614399999988
 20
-239.06677799999991
 30
0.0
 11
393.79818899999998
 21
-239.06677799999991
 31
0.0
  0
LINE
  5
3B
  8
ﾚｲﾔ_1
  6
CONTINUOUS
 62
     7
 10
393.79818899999998
 20
-239.06677799999991
 30
0.0
 11
393.79818899999998
 21
-240.428797
 31
0.0
  0
LINE
  5
3C
  8
ﾚｲﾔ_1
  6
CONTINUOUS
 62
     7
 10
393.79818899999998
 20
-240.428797
 30
0.0
 11
395.26614399999988
 21
-240.428797
 31
0.0
  0
ENDBLK
  5
3E
  8
0
  0
BLOCK
  8
0
  2
C39
 70
     0
 10
0.0
 20
0.0
 30
0.0
  3
C39
  1

  0
LINE
  5
40
  8
ﾚｲﾔ_1
  6
CONTINUOUS
 62
     7
 10
394.82827300000002
 20
-240.04794099999989
 30
0.0
 11
394.82827300000002
 21
-239.06677799999991
 31
0.0
  0
LINE
  5
41
  8
ﾚｲﾔ_1
  6
CONTINUOUS
 62
     7
 10
394.82827300000002
 20
-239.06677799999991
 30
0.0
 11
394.23571600000002
 21
-239.06677799999991
 31
0.0
  0
LINE
  5
42
  8
ﾚｲﾔ_1
  6
CONTINUOUS
 62
     7
 10
394.23571600000002
 20
-239.06677799999991
 30
0.0
 11
394.23571600000002
 21
-240.04794099999989
 31
0.0
  0
LINE
  5
43
  8
ﾚｲﾔ_1
  6
CONTINUOUS
 62
     7
 10
394.23571600000002
 20
-240.04794099999989
 30
0.0
 11
394.82827300000002
 21
-240.04794099999989
 31
0.0
  0
ENDBLK
  5
45
  8
0
  0
BLOCK
  8
0
  2
C40
 70
     0
 10
0.0
 20
0.0
 30
0.0
  3
C40
  1

  0
LINE
  5
47
  8
ﾚｲﾔ_1
  6
CONTINUOUS
 62
     7
 10
393.79818899999998
 20
-238.6011729999999
 30
0.0
 11
393.79818899999998
 21
-237.23898299999999
 31
0.0
  0
LINE
  5
48
  8
ﾚｲﾔ_1
  6
CONTINUOUS
 62
     7
 10
393.79818899999998
 20
-237.23898299999999
 30
0.0
 11
395.26614399999988
 21
-237.23898299999999
 31
0.0
  0
LINE
  5
49
  8
ﾚｲﾔ_1
  6
CONTINUOUS
 62
     7
 10
395.26614399999988
 20
-237.23898299999999
 30
0.0
 11
395.26614399999988
 21
-238.6011729999999
 31
0.0
  0
LINE
  5
4A
  8
ﾚｲﾔ_1
  6
CONTINUOUS
 62
     7
 10
395.26614399999988
 20
-238.6011729999999
 30
0.0
 11
393.79818899999998
 21
-238.6011729999999
 31
0.0
  0
ENDBLK
  5
4C
  8
0
  0
BLOCK
  8
0
  2
C41
 70
     0
 10
0.0
 20
0.0
 30
0.0
  3
C41
  1

  0
LINE
  5
4E
  8
ﾚｲﾔ_1
  6
CONTINUOUS
 62
     7
 10
394.23571600000002
 20
-238.6011729999999
 30
0.0
 11
394.23571600000002
 21
-237.62001000000001
 31
0.0
  0
LINE
  5
4F
  8
ﾚｲﾔ_1
  6
CONTINUOUS
 62
     7
 10
394.23571600000002
 20
-237.62001000000001
 30
0.0
 11
394.82827300000002
 21
-237.62001000000001
 31
0.0
  0
LINE
  5
50
  8
ﾚｲﾔ_1
  6
CONTINUOUS
 62
     7
 10
394.82827300000002
 20
-237.62001000000001
 30
0.0
 11
394.82827300000002
 21
-238.6011729999999
 31
0.0
  0
LINE
  5
51
  8
ﾚｲﾔ_1
  6
CONTINUOUS
 62
     7
 10
394.82827300000002
 20
-238.6011729999999
 30
0.0
 11
394.23571600000002
 21
-238.6011729999999
 31
0.0
  0
ENDBLK
  5
53
  8
0
  0
BLOCK
  8
0
  2
C42
 70
     0
 10
0.0
 20
0.0
 30
0.0
  3
C42
  1

  0
LINE
  5
55
  8
ﾚｲﾔ_1
  6
CONTINUOUS
 62
     7
 10
393.51603599999987
 20
-239.0950279999999
 30
0.0
 11
393.51603599999987
 21
-237.73300900000001
 31
0.0
  0
LINE
  5
56
  8
ﾚｲﾔ_1
  6
CONTINUOUS
 62
     7
 10
393.51603599999987
 20
-237.73300900000001
 30
0.0
 11
392.04807999999991
 21
-237.73300900000001
 31
0.0
  0
LINE
  5
57
  8
ﾚｲﾔ_1
  6
CONTINUOUS
 62
     7
 10
392.04807999999991
 20
-237.73300900000001
 30
0.0
 11
392.04807999999991
 21
-239.0950279999999
 31
0.0
  0
LINE
  5
58
  8
ﾚｲﾔ_1
  6
CONTINUOUS
 62
     7
 10
392.04807999999991
 20
-239.0950279999999
 30
0.0
 11
393.51603599999987
 21
-239.0950279999999
 31
0.0
  0
ENDBLK
  5
5A
  8
0
  0
BLOCK
  8
0
  2
C43
 70
     0
 10
0.0
 20
0.0
 30
0.0
  3
C43
  1

  0
LINE
  5
5C
  8
ﾚｲﾔ_1
  6
CONTINUOUS
 62
     7
 10
393.078509
 20
-239.0950279999999
 30
0.0
 11
393.078509
 21
-238.114037
 31
0.0
  0
LINE
  5
5D
  8
ﾚｲﾔ_1
  6
CONTINUOUS
 62
     7
 10
393.078509
 20
-238.114037
 30
0.0
 11
392.485952
 21
-238.114037
 31
0.0
  0
LINE
  5
5E
  8
ﾚｲﾔ_1
  6
CONTINUOUS
 62
     7
 10
392.485952
 20
-238.114037
 30
0.0
 11
392.485952
 21
-239.0950279999999
 31
0.0
  0
LINE
  5
5F
  8
ﾚｲﾔ_1
  6
CONTINUOUS
 62
     7
 10
392.485952
 20
-239.0950279999999
 30
0.0
 11
393.078509
 21
-239.0950279999999
 31
0.0
  0
ENDBLK
  5
61
  8
0
  0
BLOCK
  8
0
  2
C44
 70
     0
 10
0.0
 20
0.0
 30
0.0
  3
C44
  1

  0
LINE
  5
63
  8
ﾚｲﾔ_1
  6
CONTINUOUS
 62
     7
 10
393.51603599999987
 20
-237.274295
 30
0.0
 11
393.51603599999987
 21
-235.91227599999991
 31
0.0
  0
LINE
  5
64
  8
ﾚｲﾔ_1
  6
CONTINUOUS
 62
     7
 10
393.51603599999987
 20
-235.91227599999991
 30
0.0
 11
392.04807999999991
 21
-235.91227599999991
 31
0.0
  0
LINE
  5
65
  8
ﾚｲﾔ_1
  6
CONTINUOUS
 62
     7
 10
392.04807999999991
 20
-235.91227599999991
 30
0.0
 11
392.04807999999991
 21
-237.274295
 31
0.0
  0
LINE
  5
66
  8
ﾚｲﾔ_1
  6
CONTINUOUS
 62
     7
 10
392.04807999999991
 20
-237.274295
 30
0.0
 11
393.51603599999987
 21
-237.274295
 31
0.0
  0
ENDBLK
  5
68
  8
0
  0
BLOCK
  8
0
  2
C45
 70
     0
 10
0.0
 20
0.0
 30
0.0
  3
C45
  1

  0
LINE
  5
6A
  8
ﾚｲﾔ_1
  6
CONTINUOUS
 62
     7
 10
393.078509
 20
-237.274295
 30
0.0
 11
393.078509
 21
-236.29330400000001
 31
0.0
  0
LINE
  5
6B
  8
ﾚｲﾔ_1
  6
CONTINUOUS
 62
     7
 10
393.078509
 20
-236.29330400000001
 30
0.0
 11
392.485952
 21
-236.29330400000001
 31
0.0
  0
LINE
  5
6C
  8
ﾚｲﾔ_1
  6
CONTINUOUS
 62
     7
 10
392.485952
 20
-236.29330400000001
 30
0.0
 11
392.485952
 21
-237.274295
 31
0.0
  0
LINE
  5
6D
  8
ﾚｲﾔ_1
  6
CONTINUOUS
 62
     7
 10
392.485952
 20
-237.274295
 30
0.0
 11
393.078509
 21
-237.274295
 31
0.0
  0
ENDBLK
  5
6F
  8
0
  0
BLOCK
  8
0
  2
C46
 70
     0
 10
0.0
 20
0.0
 30
0.0
  3
C46
  1

  0
LINE
  5
71
  8
ﾚｲﾔ_1
  6
CONTINUOUS
 62
     7
 10
391.631396
 20
-239.525837
 30
0.0
 11
391.631396
 21
-238.05788199999989
 31
0.0
  0
LINE
  5
72
  8
ﾚｲﾔ_1
  6
CONTINUOUS
 62
     7
 10
391.631396
 20
-238.05788199999989
 30
0.0
 11
390.2693779999999
 21
-238.05788199999989
 31
0.0
  0
LINE
  5
73
  8
ﾚｲﾔ_1
  6
CONTINUOUS
 62
     7
 10
390.2693779999999
 20
-238.05788199999989
 30
0.0
 11
390.2693779999999
 21
-239.525837
 31
0.0
  0
LINE
  5
74
  8
ﾚｲﾔ_1
  6
CONTINUOUS
 62
     7
 10
390.2693779999999
 20
-239.525837
 30
0.0
 11
391.631396
 21
-239.525837
 31
0.0
  0
ENDBLK
  5
76
  8
0
  0
BLOCK
  8
0
  2
C47
 70
     0
 10
0.0
 20
0.0
 30
0.0
  3
C47
  1

  0
LINE
  5
78
  8
ﾚｲﾔ_1
  6
CONTINUOUS
 62
     7
 10
391.631396
 20
-239.087965
 30
0.0
 11
391.631396
 21
-238.495237
 31
0.0
  0
LINE
  5
79
  8
ﾚｲﾔ_1
  6
CONTINUOUS
 62
     7
 10
391.631396
 20
-238.495237
 30
0.0
 11
390.65040499999992
 21
-238.495237
 31
0.0
  0
LINE
  5
7A
  8
ﾚｲﾔ_1
  6
CONTINUOUS
 62
     7
 10
390.65040499999992
 20
-238.495237
 30
0.0
 11
390.65040499999992
 21
-239.087965
 31
0.0
  0
LINE
  5
7B
  8
ﾚｲﾔ_1
  6
CONTINUOUS
 62
     7
 10
390.65040499999992
 20
-239.087965
 30
0.0
 11
391.631396
 21
-239.087965
 31
0.0
  0
ENDBLK
  5
7D
  8
0
  0
BLOCK
  8
0
  2
C48
 70
     0
 10
0.0
 20
0.0
 30
0.0
  3
C48
  1

  0
LINE
  5
7F
  8
ﾚｲﾔ_1
  6
CONTINUOUS
 62
     7
 10
391.631396
 20
-237.683572
 30
0.0
 11
391.631396
 21
-236.2156169999999
 31
0.0
  0
LINE
  5
80
  8
ﾚｲﾔ_1
  6
CONTINUOUS
 62
     7
 10
391.631396
 20
-236.2156169999999
 30
0.0
 11
390.2693779999999
 21
-236.2156169999999
 31
0.0
  0
LINE
  5
81
  8
ﾚｲﾔ_1
  6
CONTINUOUS
 62
     7
 10
390.2693779999999
 20
-236.2156169999999
 30
0.0
 11
390.2693779999999
 21
-237.683572
 31
0.0
  0
LINE
  5
82
  8
ﾚｲﾔ_1
  6
CONTINUOUS
 62
     7
 10
390.2693779999999
 20
-237.683572
 30
0.0
 11
391.631396
 21
-237.683572
 31
0.0
  0
ENDBLK
  5
84
  8
0
  0
BLOCK
  8
0
  2
C49
 70
     0
 10
0.0
 20
0.0
 30
0.0
  3
C49
  1

  0
LINE
  5
86
  8
ﾚｲﾔ_1
  6
CONTINUOUS
 62
     7
 10
391.631396
 20
-237.24604500000001
 30
0.0
 11
391.631396
 21
-236.65348900000001
 31
0.0
  0
LINE
  5
87
  8
ﾚｲﾔ_1
  6
CONTINUOUS
 62
     7
 10
391.631396
 20
-236.65348900000001
 30
0.0
 11
390.65040499999992
 21
-236.65348900000001
 31
0.0
  0
LINE
  5
88
  8
ﾚｲﾔ_1
  6
CONTINUOUS
 62
     7
 10
390.65040499999992
 20
-236.65348900000001
 30
0.0
 11
390.65040499999992
 21
-237.24604500000001
 31
0.0
  0
LINE
  5
89
  8
ﾚｲﾔ_1
  6
CONTINUOUS
 62
     7
 10
390.65040499999992
 20
-237.24604500000001
 30
0.0
 11
391.631396
 21
-237.24604500000001
 31
0.0
  0
ENDBLK
  5
8B
  8
0
  0
BLOCK
  8
0
  2
C51
 70
     0
 10
0.0
 20
0.0
 30
0.0
  3
C51
  1

  0
LINE
  5
8D
  8
ﾚｲﾔ_1
  6
CONTINUOUS
 62
     7
 10
389.64839899999998
 20
-239.56097700000001
 30
0.0
 11
389.64839899999998
 21
-238.0931939999999
 31
0.0
  0
LINE
  5
8E
  8
ﾚｲﾔ_1
  6
CONTINUOUS
 62
     7
 10
389.64839899999998
 20
-238.0931939999999
 30
0.0
 11
387.72896400000002
 21
-238.0931939999999
 31
0.0
  0
LINE
  5
8F
  8
ﾚｲﾔ_1
  6
CONTINUOUS
 62
     7
 10
387.72896400000002
 20
-238.0931939999999
 30
0.0
 11
387.72896400000002
 21
-239.56097700000001
 31
0.0
  0
LINE
  5
90
  8
ﾚｲﾔ_1
  6
CONTINUOUS
 62
     7
 10
387.72896400000002
 20
-239.56097700000001
 30
0.0
 11
389.64839899999998
 21
-239.56097700000001
 31
0.0
  0
ENDBLK
  5
92
  8
0
  0
BLOCK
  8
0
  2
C52
 70
     0
 10
0.0
 20
0.0
 30
0.0
  3
C52
  1

  0
LINE
  5
94
  8
ﾚｲﾔ_1
  6
CONTINUOUS
 62
     7
 10
389.64839899999998
 20
-239.56097700000001
 30
0.0
 11
389.64839899999998
 21
-238.0931939999999
 31
0.0
  0
LINE
  5
95
  8
ﾚｲﾔ_1
  6
CONTINUOUS
 62
     7
 10
389.64839899999998
 20
-238.0931939999999
 30
0.0
 11
387.72896400000002
 21
-238.0931939999999
 31
0.0
  0
LINE
  5
96
  8
ﾚｲﾔ_1
  6
CONTINUOUS
 62
     7
 10
387.72896400000002
 20
-238.0931939999999
 30
0.0
 11
387.72896400000002
 21
-239.56097700000001
 31
0.0
  0
LINE
  5
97
  8
ﾚｲﾔ_1
  6
CONTINUOUS
 62
     7
 10
387.72896400000002
 20
-239.56097700000001
 30
0.0
 11
389.64839899999998
 21
-239.56097700000001
 31
0.0
  0
ENDBLK
  5
99
  8
0
  0
BLOCK
  8
0
  2
C53
 70
     0
 10
0.0
 20
0.0
 30
0.0
  3
C53
  1

  0
LINE
  5
9B
  8
ﾚｲﾔ_1
  6
CONTINUOUS
 62
     7
 10
391.631396
 20
-241.36758499999999
 30
0.0
 11
391.631396
 21
-239.89962999999989
 31
0.0
  0
LINE
  5
9C
  8
ﾚｲﾔ_1
  6
CONTINUOUS
 62
     7
 10
391.631396
 20
-239.89962999999989
 30
0.0
 11
390.2693779999999
 21
-239.89962999999989
 31
0.0
  0
LINE
  5
9D
  8
ﾚｲﾔ_1
  6
CONTINUOUS
 62
     7
 10
390.2693779999999
 20
-239.89962999999989
 30
0.0
 11
390.2693779999999
 21
-241.36758499999999
 31
0.0
  0
LINE
  5
9E
  8
ﾚｲﾔ_1
  6
CONTINUOUS
 62
     7
 10
390.2693779999999
 20
-241.36758499999999
 30
0.0
 11
391.631396
 21
-241.36758499999999
 31
0.0
  0
ENDBLK
  5
A0
  8
0
  0
BLOCK
  8
0
  2
C54
 70
     0
 10
0.0
 20
0.0
 30
0.0
  3
C54
  1

  0
LINE
  5
A2
  8
ﾚｲﾔ_1
  6
CONTINUOUS
 62
     7
 10
391.631396
 20
-240.9298859999999
 30
0.0
 11
391.631396
 21
-240.33715699999999
 31
0.0
  0
LINE
  5
A3
  8
ﾚｲﾔ_1
  6
CONTINUOUS
 62
     7
 10
391.631396
 20
-240.33715699999999
 30
0.0
 11
390.65040499999992
 21
-240.33715699999999
 31
0.0
  0
LINE
  5
A4
  8
ﾚｲﾔ_1
  6
CONTINUOUS
 62
     7
 10
390.65040499999992
 20
-240.33715699999999
 30
0.0
 11
390.65040499999992
 21
-240.9298859999999
 31
0.0
  0
LINE
  5
A5
  8
ﾚｲﾔ_1
  6
CONTINUOUS
 62
     7
 10
390.65040499999992
 20
-240.9298859999999
 30
0.0
 11
391.631396
 21
-240.9298859999999
 31
0.0
  0
ENDBLK
  5
A7
  8
0
  0
BLOCK
  8
0
  2
C55
 70
     0
 10
0.0
 20
0.0
 30
0.0
  3
C55
  1

  0
LINE
  5
A9
  8
ﾚｲﾔ_1
  6
CONTINUOUS
 62
     7
 10
393.51603599999987
 20
-241.81923699999999
 30
0.0
 11
393.51603599999987
 21
-240.45704599999991
 31
0.0
  0
LINE
  5
AA
  8
ﾚｲﾔ_1
  6
CONTINUOUS
 62
     7
 10
393.51603599999987
 20
-240.45704599999991
 30
0.0
 11
392.04807999999991
 21
-240.45704599999991
 31
0.0
  0
LINE
  5
AB
  8
ﾚｲﾔ_1
  6
CONTINUOUS
 62
     7
 10
392.04807999999991
 20
-240.45704599999991
 30
0.0
 11
392.04807999999991
 21
-241.81923699999999
 31
0.0
  0
LINE
  5
AC
  8
ﾚｲﾔ_1
  6
CONTINUOUS
 62
     7
 10
392.04807999999991
 20
-241.81923699999999
 30
0.0
 11
393.51603599999987
 21
-241.81923699999999
 31
0.0
  0
ENDBLK
  5
AE
  8
0
  0
ENDSEC
  0
SECTION
  2
ENTITIES
  0
LINE
  5
A29
  8
追加
  6
CENTER
 62
     5
 10
134.24902821465679
 20
89.640004808227928
 30
0.0
 11
134.24902821465679
 21
99.640004808227928
 31
0.0
  0
LINE
  5
A2A
  8
追加
  6
CENTER
 62
     5
 10
139.24902821465679
 20
94.640004808227928
 30
0.0
 11
129.24902821465679
 21
94.640004808227928
 31
0.0
  0
LINE
  5
A2B
  8
追加
  6
CENTER
 62
     5
 10
134.2490282146581
 20
201.6400048082279
 30
0.0
 11
134.2490282146581
 21
211.6400048082279
 31
0.0
  0
LINE
  5
A2C
  8
追加
  6
CENTER
 62
     5
 10
139.2490282146581
 20
206.6400048082279
 30
0.0
 11
129.2490282146581
 21
206.6400048082279
 31
0.0
  0
LINE
  5
A2D
  8
0
  6
CONTINUOUS
 10
140.24902821465679
 20
190.6900048082278
 30
0.0
 11
138.0490282146568
 21
190.6900048082278
 31
0.0
  0
LINE
  5
A2E
  8
0
  6
CONTINUOUS
 10
140.24902821465679
 20
193.99000480822801
 30
0.0
 11
138.0490282146568
 21
193.99000480822801
 31
0.0
  0
LINE
  5
A2F
  8
0
  6
CONTINUOUS
 10
140.24902821465679
 20
193.99000480822801
 30
0.0
 11
140.24902821465679
 21
190.6900048082278
 31
0.0
  0
LINE
  5
A30
  8
0
  6
CONTINUOUS
 10
138.0490282146568
 20
190.6900048082278
 30
0.0
 11
138.0490282146568
 21
193.99000480822801
 31
0.0
  0
LINE
  5
A31
  8
0
 10
126.8490282146535
 20
170.73000480822799
 30
0.0
 11
139.64902821465461
 21
170.73000480822799
 31
0.0
  0
LINE
  5
A32
  8
0
 10
126.8490282146535
 20
156.73000480822799
 30
0.0
 11
139.64902821465461
 21
156.73000480822799
 31
0.0
  0
LINE
  5
A33
  8
0
 10
126.8490282146535
 20
170.73000480822799
 30
0.0
 11
126.8490282146535
 21
156.73000480822799
 31
0.0
  0
CIRCLE
  5
A34
  8
0
 10
133.24877021465491
 20
163.72973438440391
 30
0.0
 40
4.4485659999999996
  0
CIRCLE
  5
A35
  8
0
 10
133.249028214655
 20
163.72973438440391
 30
0.0
 40
5.0298389999999991
  0
CIRCLE
  5
A36
  8
0
 10
133.249028214655
 20
163.72973438440391
 30
0.0
 40
5.0298389999999991
  0
INSERT
  5
A37
  8
0
  2
C37
 10
-259.13770478534599
 20
402.55656138440492
 30
0.0
  0
LINE
  5
A38
  8
0
 10
134.37833121465471
 20
160.73732438440501
 30
0.0
 11
133.9404592146542
 21
161.11835138440449
 31
0.0
  0
LINE
  5
A39
  8
0
 10
132.91037521465421
 20
160.73732438440501
 30
0.0
 11
133.34773021465429
 21
161.11835138440449
 31
0.0
  0
INSERT
  5
A3A
  8
0
  2
C38
 10
-259.13770478534599
 20
402.55656138440492
 30
0.0
  0
INSERT
  5
A3B
  8
0
  2
C39
 10
-259.13770478534599
 20
402.55656138440492
 30
0.0
  0
INSERT
  5
A3C
  8
0
  2
C40
 10
-259.13770478534599
 20
402.55656138440492
 30
0.0
  0
INSERT
  5
A3D
  8
0
  2
C41
 10
-259.13770478534599
 20
402.55656138440492
 30
0.0
  0
LINE
  5
A3E
  8
0
 10
136.1284392146548
 20
165.31757838440359
 30
0.0
 11
135.6905682146548
 21
164.9365513844042
 31
0.0
  0
LINE
  5
A3F
  8
0
 10
134.66048421465479
 20
165.31757838440359
 30
0.0
 11
135.0980112146548
 21
164.9365513844042
 31
0.0
  0
INSERT
  5
A40
  8
0
  2
C42
 10
-259.13770478534599
 20
402.55656138440492
 30
0.0
  0
INSERT
  5
A41
  8
0
  2
C43
 10
-259.13770478534599
 20
402.55656138440492
 30
0.0
  0
LINE
  5
A42
  8
0
 10
134.37833121465471
 20
164.82355238440519
 30
0.0
 11
133.94080421465461
 21
164.44218038440351
 31
0.0
  0
INSERT
  5
A43
  8
0
  2
C44
 10
-259.13770478534599
 20
402.55656138440492
 30
0.0
  0
INSERT
  5
A44
  8
0
  2
C45
 10
-259.13770478534599
 20
402.55656138440492
 30
0.0
  0
LINE
  5
A45
  8
0
 10
132.91037521465421
 20
166.64428538440379
 30
0.0
 11
133.34773021465429
 21
166.26291338440399
 31
0.0
  0
LINE
  5
A46
  8
0
 10
134.37833121465471
 20
166.64428538440379
 30
0.0
 11
133.94080421465461
 21
166.26291338440399
 31
0.0
  0
INSERT
  5
A47
  8
0
  2
C46
 10
-259.13770478534599
 20
402.55656138440492
 30
0.0
  0
INSERT
  5
A48
  8
0
  2
C47
 10
-259.13770478534599
 20
402.55656138440492
 30
0.0
  0
LINE
  5
A49
  8
0
 10
131.1320172146547
 20
163.0307243844037
 30
0.0
 11
131.51304521465451
 21
163.46859638440409
 31
0.0
  0
LINE
  5
A4A
  8
0
 10
131.1320172146547
 20
164.4986793844038
 30
0.0
 11
131.51304521465451
 21
164.06132438440369
 31
0.0
  0
INSERT
  5
A4B
  8
0
  2
C48
 10
-259.13770478534599
 20
402.55656138440492
 30
0.0
  0
INSERT
  5
A4C
  8
0
  2
C49
 10
-259.13770478534599
 20
402.55656138440492
 30
0.0
  0
LINE
  5
A4D
  8
0
 10
131.1320172146547
 20
164.8729893844048
 30
0.0
 11
131.51304521465451
 21
165.31051638440491
 31
0.0
  0
LINE
  5
A4E
  8
0
 10
131.1320172146547
 20
166.3405993844045
 30
0.0
 11
131.51304521465451
 21
165.90307238440451
 31
0.0
  0
CIRCLE
  5
A4F
  8
0
 10
133.24877021465491
 20
163.72973438440391
 30
0.0
 40
4.4485659999999996
  0
LINE
  5
A50
  8
0
 10
132.91037521465421
 20
164.82355238440519
 30
0.0
 11
133.34773021465429
 21
164.44218038440351
 31
0.0
  0
INSERT
  5
A51
  8
0
  2
C51
 10
-259.13770478534599
 20
402.55656138440492
 30
0.0
  0
INSERT
  5
A52
  8
0
  2
C52
 10
-259.13770478534599
 20
402.55656138440492
 30
0.0
  0
INSERT
  5
A53
  8
0
  2
C53
 10
-259.13770478534599
 20
402.55656138440492
 30
0.0
  0
INSERT
  5
A54
  8
0
  2
C54
 10
-259.13770478534599
 20
402.55656138440492
 30
0.0
  0
LINE
  5
A55
  8
0
 10
131.1320172146547
 20
161.18897638440481
 30
0.0
 11
131.51304521465451
 21
161.62667538440479
 31
0.0
  0
LINE
  5
A56
  8
0
 10
131.1320172146547
 20
162.6569313844048
 30
0.0
 11
131.51304521465451
 21
162.21940438440481
 31
0.0
  0
INSERT
  5
A57
  8
0
  2
C55
 10
-259.13770478534599
 20
402.55656138440492
 30
0.0
  0
LINE
  5
A58
  8
0
 10
136.1284392146548
 20
162.1277643844042
 30
0.0
 11
135.6905682146548
 21
162.508620384404
 31
0.0
  0
LINE
  5
A59
  8
0
 10
134.66048421465479
 20
162.1277643844042
 30
0.0
 11
135.0980112146548
 21
162.508620384404
 31
0.0
  0
LINE
  5
A5A
  8
0
 10
124.94902808621769
 20
125.99199296108149
 30
0.0
 11
125.46986016540581
 21
125.2837478054436
 31
0.0
  0
LINE
  5
A5B
  8
0
 10
124.94902808621769
 20
134.8736076508068
 30
0.0
 11
125.46986016540581
 21
135.48374780544339
 31
0.0
  0
LINE
  5
A5C
  8
0
 10
125.8490280862174
 20
125.7837478054435
 30
0.0
 11
125.84902808621921
 21
134.9837478054443
 31
0.0
  0
LINE
  5
A5D
  8
0
 10
124.94902808621769
 20
134.8736076508068
 30
0.0
 11
124.94902808621769
 21
125.99199296108149
 31
0.0
  0
LINE
  5
A5E
  8
0
 10
139.6490280862167
 20
128.6307521561622
 30
0.0
 11
139.6490280862167
 21
135.48374780544339
 31
0.0
  0
LINE
  5
A5F
  8
0
 10
139.49603243693531
 20
131.98374780544339
 30
0.0
 11
139.6490280862167
 21
132.13674345472381
 31
0.0
  0
LINE
  5
A60
  8
0
 10
139.49603243693531
 20
128.78374780544351
 30
0.0
 11
139.6490280862167
 21
128.6307521561622
 31
0.0
  0
LINE
  5
A61
  8
0
 10
138.0490280862181
 20
128.78374780544351
 30
0.0
 11
139.49603243693531
 21
128.78374780544351
 31
0.0
  0
LINE
  5
A62
  8
0
 10
138.0490280862181
 20
131.98374780544339
 30
0.0
 11
139.49603243693531
 21
131.98374780544339
 31
0.0
  0
LINE
  5
A63
  8
0
 10
139.6490280862167
 20
125.2837478054436
 30
0.0
 11
137.6490280862167
 21
125.2837478054436
 31
0.0
  0
LINE
  5
A64
  8
0
 10
139.6490280862167
 20
135.48374780544339
 30
0.0
 11
137.6490280862167
 21
135.48374780544339
 31
0.0
  0
LINE
  5
A65
  8
0
 10
139.6490280862167
 20
125.2837478054436
 30
0.0
 11
139.6490280862167
 21
128.6307521561622
 31
0.0
  0
LINE
  5
A66
  8
0
 10
137.24902808621701
 20
125.7837478054435
 30
0.0
 11
125.8490280862174
 21
125.7837478054435
 31
0.0
  0
LINE
  5
A67
  8
0
 10
125.84902808621921
 20
134.9837478054443
 30
0.0
 11
137.24902808621701
 21
134.98374780544339
 31
0.0
  0
LINE
  5
A68
  8
0
 10
125.46986016540581
 20
125.2837478054436
 30
0.0
 11
137.6490280862167
 21
125.2837478054436
 31
0.0
  0
LINE
  5
A69
  8
0
 10
125.46986016540581
 20
135.48374780544339
 30
0.0
 11
137.6490280862167
 21
135.48374780544339
 31
0.0
  0
LINE
  5
A6A
  8
0
 10
130.3490280862174
 20
126.8837478054439
 30
0.0
 11
130.3490280862174
 21
128.8837478054439
 31
0.0
  0
LINE
  5
A6B
  8
0
 10
130.3490280862174
 20
128.8837478054439
 30
0.0
 11
130.8490280862174
 21
128.8837478054439
 31
0.0
  0
LINE
  5
A6C
  8
0
 10
130.3490280862174
 20
126.8837478054439
 30
0.0
 11
130.8490280862174
 21
126.8837478054439
 31
0.0
  0
LINE
  5
A6D
  8
0
 10
130.8490280862174
 20
126.8837478054439
 30
0.0
 11
130.8490280862174
 21
128.8837478054439
 31
0.0
  0
LINE
  5
A6E
  8
0
 10
130.3490280862174
 20
129.3837478054439
 30
0.0
 11
130.3490280862174
 21
131.3837478054439
 31
0.0
  0
LINE
  5
A6F
  8
0
 10
130.3490280862174
 20
131.3837478054439
 30
0.0
 11
130.8490280862174
 21
131.3837478054439
 31
0.0
  0
LINE
  5
A70
  8
0
 10
130.3490280862174
 20
129.3837478054439
 30
0.0
 11
130.8490280862174
 21
129.3837478054439
 31
0.0
  0
LINE
  5
A71
  8
0
 10
130.8490280862174
 20
129.3837478054439
 30
0.0
 11
130.8490280862174
 21
131.3837478054439
 31
0.0
  0
LINE
  5
A72
  8
0
 10
130.8490280862174
 20
131.8837478054439
 30
0.0
 11
130.8490280862174
 21
133.8837478054439
 31
0.0
  0
LINE
  5
A73
  8
0
 10
130.3490280862174
 20
131.8837478054439
 30
0.0
 11
130.8490280862174
 21
131.8837478054439
 31
0.0
  0
LINE
  5
A74
  8
0
 10
130.3490280862174
 20
133.8837478054439
 30
0.0
 11
130.8490280862174
 21
133.8837478054439
 31
0.0
  0
LINE
  5
A75
  8
0
 10
130.3490280862174
 20
131.8837478054439
 30
0.0
 11
130.3490280862174
 21
133.8837478054439
 31
0.0
  0
ARC
  5
A76
  8
0
 10
137.24902808621701
 20
126.1837478054432
 30
0.0
 40
0.4
 50
270.0
 51
0.0
  0
ARC
  5
A77
  8
0
 10
137.24902808621701
 20
134.58374780544369
 30
0.0
 40
0.4
 50
0.0
 51
89.999999999999986
  0
LINE
  5
A78
  8
0
 10
137.6490280862167
 20
134.58374780544369
 30
0.0
 11
137.6490280862167
 21
126.1837478054432
 31
0.0
  0
ARC
  5
A79
  8
0
 10
137.6490280862167
 20
125.6837478054432
 30
0.0
 40
0.4
 50
270.0
 51
0.0
  0
ARC
  5
A7A
  8
0
 10
137.6490280862167
 20
135.08374780544281
 30
0.0
 40
0.4
 50
0.0
 51
89.999999999999986
  0
LINE
  5
A7B
  8
0
 10
138.0490280862181
 20
135.08374780544281
 30
0.0
 11
138.0490280862181
 21
125.6837478054432
 31
0.0
  0
LINE
  5
A7C
  8
0
 10
134.3490280862174
 20
131.8837478054439
 30
0.0
 11
134.3490280862174
 21
133.8837478054439
 31
0.0
  0
LINE
  5
A7D
  8
0
 10
134.3490280862174
 20
133.8837478054439
 30
0.0
 11
134.8490280862174
 21
133.8837478054439
 31
0.0
  0
LINE
  5
A7E
  8
0
 10
134.3490280862174
 20
131.8837478054439
 30
0.0
 11
134.8490280862174
 21
131.8837478054439
 31
0.0
  0
LINE
  5
A7F
  8
0
 10
134.8490280862174
 20
131.8837478054439
 30
0.0
 11
134.8490280862174
 21
133.8837478054439
 31
0.0
  0
LINE
  5
A80
  8
0
 10
134.8490280862174
 20
129.3837478054439
 30
0.0
 11
134.8490280862174
 21
131.3837478054439
 31
0.0
  0
LINE
  5
A81
  8
0
 10
134.3490280862174
 20
129.3837478054439
 30
0.0
 11
134.8490280862174
 21
129.3837478054439
 31
0.0
  0
LINE
  5
A82
  8
0
 10
134.3490280862174
 20
131.3837478054439
 30
0.0
 11
134.8490280862174
 21
131.3837478054439
 31
0.0
  0
LINE
  5
A83
  8
0
 10
134.3490280862174
 20
129.3837478054439
 30
0.0
 11
134.3490280862174
 21
131.3837478054439
 31
0.0
  0
LINE
  5
A84
  8
0
 10
134.8490280862174
 20
126.8837478054439
 30
0.0
 11
134.8490280862174
 21
128.8837478054439
 31
0.0
  0
LINE
  5
A85
  8
0
 10
134.3490280862174
 20
126.8837478054439
 30
0.0
 11
134.8490280862174
 21
126.8837478054439
 31
0.0
  0
LINE
  5
A86
  8
0
 10
134.3490280862174
 20
128.8837478054439
 30
0.0
 11
134.8490280862174
 21
128.8837478054439
 31
0.0
  0
LINE
  5
A87
  8
0
 10
134.3490280862174
 20
126.8837478054439
 30
0.0
 11
134.3490280862174
 21
128.8837478054439
 31
0.0
  0
LINE
  5
A88
  8
0
 10
138.3758248868339
 20
111.41000480822829
 30
0.0
 11
138.3758248868339
 21
109.41000480822829
 31
0.0
  0
LINE
  5
A89
  8
0
 10
139.6490282146564
 20
107.3679341070038
 30
0.0
 11
139.6490282146564
 21
116.78793410700391
 31
0.0
  0
LINE
  5
A8A
  8
0
 10
138.6490282146564
 20
109.1400048082279
 30
0.0
 11
138.6490282146564
 21
124.38000480822861
 31
0.0
  0
LINE
  5
A8B
  8
0
 10
138.3758248868339
 20
119.0300048082282
 30
0.0
 11
138.3758248868339
 21
117.0300048082282
 31
0.0
  0
LINE
  5
A8C
  8
0
 10
138.3758248868339
 20
113.9500048082283
 30
0.0
 11
138.3758248868339
 21
111.9500048082283
 31
0.0
  0
LINE
  5
A8D
  8
0
 10
138.3758248868339
 20
116.49000480822821
 30
0.0
 11
138.3758248868339
 21
114.49000480822821
 31
0.0
  0
LINE
  5
A8E
  8
0
 10
131.74315786788381
 20
109.1400048082279
 30
0.0
 11
131.74315786788381
 21
112.9500048082283
 31
0.0
  0
LINE
  5
A8F
  8
0
 10
131.74315786788381
 20
112.9500048082283
 30
0.0
 11
131.74315786788381
 21
124.38000480822861
 31
0.0
  0
LINE
  5
A90
  8
0
 10
131.1490282146564
 20
116.76000480822781
 30
0.0
 11
129.6490282146564
 21
116.76000480822781
 31
0.0
  0
LINE
  5
A91
  8
0
 10
129.6490282146564
 20
116.76000480822781
 30
0.0
 11
131.1490282146564
 21
116.76000480822781
 31
0.0
  0
LINE
  5
A92
  8
0
 10
129.6490282146564
 20
119.3000048082277
 30
0.0
 11
131.1490282146564
 21
119.3000048082277
 31
0.0
  0
LINE
  5
A93
  8
0
 10
131.1490282146564
 20
119.3000048082277
 30
0.0
 11
129.6490282146564
 21
119.3000048082277
 31
0.0
  0
LINE
  5
A94
  8
0
 10
135.6874764387116
 20
109.7320755094525
 30
0.0
 11
135.6874764387116
 21
111.0320755094518
 31
0.0
  0
LINE
  5
A95
  8
0
 10
132.6874764387116
 20
111.0320755094518
 30
0.0
 11
132.6874764387116
 21
109.7320755094525
 31
0.0
  0
ARC
  5
A96
  8
0
 10
133.6917647727181
 20
110.58460179173299
 30
0.0
 40
0.6750000000000079
 50
213.74898859589939
 51
326.2510114041005
  0
ARC
  5
A97
  8
0
 10
133.6917647727181
 20
110.58460179173299
 30
0.0
 40
0.5624999999999976
 50
221.81031489579789
 51
318.18968510420189
  0
LINE
  5
A98
  8
0
 10
135.6874764387116
 20
110.03500480822829
 30
0.0
 11
135.6874764387116
 21
110.78500480822829
 31
0.0
  0
LINE
  5
A99
  8
0
 10
136.3758248868339
 20
109.41000480822829
 30
0.0
 11
136.3758248868339
 21
111.41000480822829
 31
0.0
  0
LINE
  5
A9A
  8
0
 10
132.6874764387116
 20
109.7320755094525
 30
0.0
 11
135.6874764387116
 21
109.7320755094525
 31
0.0
  0
LINE
  5
A9B
  8
0
 10
134.2530133807353
 20
115.69040782472359
 30
0.0
 11
135.6874764387116
 21
115.69040782472359
 31
0.0
  0
LINE
  5
A9C
  8
0
 10
132.91502824194811
 20
115.69040782472359
 30
0.0
 11
133.2725020269385
 21
115.69040782472359
 31
0.0
  0
ARC
  5
A9D
  8
0
 10
133.6917647727181
 20
115.31540782472359
 30
0.0
 40
0.6750000000000079
 50
33.748988595899391
 51
146.25101140410061
  0
ARC
  5
A9E
  8
0
 10
133.6917647727181
 20
115.31540782472359
 30
0.0
 40
0.5624999999999976
 50
41.810314895798008
 51
138.18968510420191
  0
LINE
  5
A9F
  8
0
 10
132.6874764387116
 20
116.1120755094517
 30
0.0
 11
135.6874764387116
 21
116.1120755094517
 31
0.0
  0
LINE
  5
AA0
  8
0
 10
136.3758248868339
 20
117.0300048082282
 30
0.0
 11
136.3758248868339
 21
119.0300048082282
 31
0.0
  0
LINE
  5
AA1
  8
0
 10
132.6874764387116
 20
118.6520755094526
 30
0.0
 11
135.6874764387116
 21
118.6520755094526
 31
0.0
  0
LINE
  5
AA2
  8
0
 10
132.6874764387116
 20
117.3520755094524
 30
0.0
 11
135.6874764387116
 21
117.3520755094524
 31
0.0
  0
ARC
  5
AA3
  8
0
 10
133.6917647727181
 20
117.8554078247235
 30
0.0
 40
0.5624999999999976
 50
41.810314895798008
 51
138.18968510420191
  0
ARC
  5
AA4
  8
0
 10
133.6917647727181
 20
117.8554078247235
 30
0.0
 40
0.6750000000000079
 50
33.748988595899391
 51
146.25101140410061
  0
LINE
  5
AA5
  8
0
 10
132.91502824194811
 20
118.2304078247235
 30
0.0
 11
133.2725020269385
 21
118.2304078247235
 31
0.0
  0
LINE
  5
AA6
  8
0
 10
134.2530133807353
 20
118.2304078247235
 30
0.0
 11
135.6874764387116
 21
118.2304078247235
 31
0.0
  0
LINE
  5
AA7
  8
0
 10
132.6874764387116
 20
118.6520755094526
 30
0.0
 11
132.6874764387116
 21
117.3520755094524
 31
0.0
  0
LINE
  5
AA8
  8
0
 10
135.6874764387116
 20
117.3520755094524
 30
0.0
 11
135.6874764387116
 21
118.6520755094526
 31
0.0
  0
LINE
  5
AA9
  8
0
 10
134.2530133807353
 20
117.8296017917329
 30
0.0
 11
135.6874764387116
 21
117.8296017917329
 31
0.0
  0
LINE
  5
AAA
  8
0
 10
132.91502824194811
 20
117.8296017917329
 30
0.0
 11
133.2725020269385
 21
117.8296017917329
 31
0.0
  0
ARC
  5
AAB
  8
0
 10
133.6917647727181
 20
118.2046017917329
 30
0.0
 40
0.5624999999999976
 50
221.81031489579789
 51
318.18968510420189
  0
ARC
  5
AAC
  8
0
 10
133.6917647727181
 20
118.2046017917329
 30
0.0
 40
0.6750000000000079
 50
213.74898859589939
 51
326.2510114041005
  0
LINE
  5
AAD
  8
0
 10
135.6874764387116
 20
117.6550048082282
 30
0.0
 11
135.6874764387116
 21
118.4050048082282
 31
0.0
  0
LINE
  5
AAE
  8
0
 10
132.91502824194811
 20
117.8296017917329
 30
0.0
 11
132.91502824194811
 21
118.2304078247235
 31
0.0
  0
ARC
  5
AAF
  8
0
 10
133.6917647727181
 20
115.66460179173291
 30
0.0
 40
0.6750000000000079
 50
213.74898859589939
 51
326.2510114041005
  0
ARC
  5
AB0
  8
0
 10
133.6917647727181
 20
115.66460179173291
 30
0.0
 40
0.5624999999999976
 50
221.81031489579789
 51
318.18968510420189
  0
LINE
  5
AB1
  8
0
 10
132.91502824194811
 20
115.28960179173291
 30
0.0
 11
133.2725020269385
 21
115.28960179173291
 31
0.0
  0
LINE
  5
AB2
  8
0
 10
134.2530133807353
 20
115.28960179173291
 30
0.0
 11
135.6874764387116
 21
115.28960179173291
 31
0.0
  0
LINE
  5
AB3
  8
0
 10
132.6874764387116
 20
114.8120755094525
 30
0.0
 11
135.6874764387116
 21
114.8120755094525
 31
0.0
  0
LINE
  5
AB4
  8
0
 10
135.6874764387116
 20
112.27207550945251
 30
0.0
 11
135.6874764387116
 21
113.5720755094527
 31
0.0
  0
LINE
  5
AB5
  8
0
 10
132.6874764387116
 20
113.5720755094527
 30
0.0
 11
132.6874764387116
 21
112.27207550945251
 31
0.0
  0
LINE
  5
AB6
  8
0
 10
132.91502824194811
 20
112.7496017917321
 30
0.0
 11
132.91502824194811
 21
113.1504078247236
 31
0.0
  0
LINE
  5
AB7
  8
0
 10
132.6874764387116
 20
113.5720755094527
 30
0.0
 11
135.6874764387116
 21
113.5720755094527
 31
0.0
  0
LINE
  5
AB8
  8
0
 10
132.6874764387116
 20
112.27207550945251
 30
0.0
 11
135.6874764387116
 21
112.27207550945251
 31
0.0
  0
ARC
  5
AB9
  8
0
 10
133.6917647727181
 20
112.7754078247236
 30
0.0
 40
0.5624999999999976
 50
41.810314895798008
 51
138.18968510420191
  0
ARC
  5
ABA
  8
0
 10
133.6917647727181
 20
112.7754078247236
 30
0.0
 40
0.6750000000000079
 50
33.748988595899391
 51
146.25101140410061
  0
LINE
  5
ABB
  8
0
 10
132.91502824194811
 20
113.1504078247236
 30
0.0
 11
133.2725020269385
 21
113.1504078247236
 31
0.0
  0
LINE
  5
ABC
  8
0
 10
134.2530133807353
 20
113.1504078247236
 30
0.0
 11
135.6874764387116
 21
113.1504078247236
 31
0.0
  0
LINE
  5
ABD
  8
0
 10
134.2530133807353
 20
112.7496017917321
 30
0.0
 11
135.6874764387116
 21
112.7496017917321
 31
0.0
  0
LINE
  5
ABE
  8
0
 10
132.91502824194811
 20
112.7496017917321
 30
0.0
 11
133.2725020269385
 21
112.7496017917321
 31
0.0
  0
ARC
  5
ABF
  8
0
 10
133.6917647727181
 20
113.124601791732
 30
0.0
 40
0.6750000000000079
 50
213.74898859589939
 51
326.2510114041005
  0
ARC
  5
AC0
  8
0
 10
133.6917647727181
 20
113.124601791732
 30
0.0
 40
0.5624999999999976
 50
221.81031489579789
 51
318.18968510420189
  0
LINE
  5
AC1
  8
0
 10
135.6874764387116
 20
112.5750048082283
 30
0.0
 11
135.6874764387116
 21
113.3250048082283
 31
0.0
  0
LINE
  5
AC2
  8
0
 10
136.3758248868339
 20
111.9500048082283
 30
0.0
 11
136.3758248868339
 21
113.9500048082283
 31
0.0
  0
LINE
  5
AC3
  8
0
 10
132.91502824194811
 20
110.20960179173299
 30
0.0
 11
132.91502824194811
 21
110.61040782472359
 31
0.0
  0
LINE
  5
AC4
  8
0
 10
132.6874764387116
 20
111.0320755094518
 30
0.0
 11
135.6874764387116
 21
111.0320755094518
 31
0.0
  0
ARC
  5
AC5
  8
0
 10
133.6917647727181
 20
110.23540782472359
 30
0.0
 40
0.5624999999999976
 50
41.810314895798008
 51
138.18968510420191
  0
ARC
  5
AC6
  8
0
 10
133.6917647727181
 20
110.23540782472359
 30
0.0
 40
0.6750000000000079
 50
33.748988595899391
 51
146.25101140410061
  0
LINE
  5
AC7
  8
0
 10
132.91502824194811
 20
110.61040782472359
 30
0.0
 11
133.2725020269385
 21
110.61040782472359
 31
0.0
  0
LINE
  5
AC8
  8
0
 10
134.2530133807353
 20
110.61040782472359
 30
0.0
 11
135.6874764387116
 21
110.61040782472359
 31
0.0
  0
LINE
  5
AC9
  8
0
 10
134.2530133807353
 20
110.20960179173299
 30
0.0
 11
135.6874764387116
 21
110.20960179173299
 31
0.0
  0
LINE
  5
ACA
  8
0
 10
132.91502824194811
 20
110.20960179173299
 30
0.0
 11
133.2725020269385
 21
110.20960179173299
 31
0.0
  0
LINE
  5
ACB
  8
0
 10
132.91502824194811
 20
115.28960179173291
 30
0.0
 11
132.91502824194811
 21
115.69040782472359
 31
0.0
  0
LINE
  5
ACC
  8
0
 10
135.6874764387116
 20
115.11500480822821
 30
0.0
 11
135.6874764387116
 21
115.86500480822831
 31
0.0
  0
LINE
  5
ACD
  8
0
 10
135.6874764387116
 20
114.8120755094525
 30
0.0
 11
135.6874764387116
 21
116.1120755094517
 31
0.0
  0
LINE
  5
ACE
  8
0
 10
132.6874764387116
 20
116.1120755094517
 30
0.0
 11
132.6874764387116
 21
114.8120755094525
 31
0.0
  0
LINE
  5
ACF
  8
0
 10
136.3758248868339
 20
114.49000480822821
 30
0.0
 11
136.3758248868339
 21
116.49000480822821
 31
0.0
  0
LINE
  5
AD0
  8
0
 10
129.6490282146564
 20
107.6400048082279
 30
0.0
 11
139.6490282146564
 21
107.6400048082279
 31
0.0
  0
LINE
  5
AD1
  8
0
 10
139.6490282146564
 20
109.1400048082279
 30
0.0
 11
129.6490282146564
 21
109.1400048082279
 31
0.0
  0
LINE
  5
AD2
  8
0
 10
129.6490282146564
 20
109.1400048082279
 30
0.0
 11
139.6490282146564
 21
109.1400048082279
 31
0.0
  0
LINE
  5
AD3
  8
0
 10
129.6490282146564
 20
116.76000480822781
 30
0.0
 11
139.6490282146564
 21
116.76000480822781
 31
0.0
  0
LINE
  5
AD4
  8
0
 10
139.6490282146564
 20
116.76000480822781
 30
0.0
 11
129.6490282146564
 21
116.76000480822781
 31
0.0
  0
LINE
  5
AD5
  8
0
 10
129.6490282146564
 20
114.2200048082278
 30
0.0
 11
139.6490282146564
 21
114.2200048082278
 31
0.0
  0
LINE
  5
AD6
  8
0
 10
139.6490282146564
 20
114.2200048082278
 30
0.0
 11
129.6490282146564
 21
114.2200048082278
 31
0.0
  0
LINE
  5
AD7
  8
0
 10
129.6490282146564
 20
111.68000480822781
 30
0.0
 11
139.6490282146564
 21
111.68000480822781
 31
0.0
  0
LINE
  5
AD8
  8
0
 10
139.6490282146564
 20
111.68000480822781
 30
0.0
 11
129.6490282146564
 21
111.68000480822781
 31
0.0
  0
LINE
  5
AD9
  8
0
 10
139.6490282146564
 20
116.7600048082287
 30
0.0
 11
129.6490282146564
 21
116.7600048082287
 31
0.0
  0
LINE
  5
ADA
  8
0
 10
129.6490282146564
 20
116.7600048082287
 30
0.0
 11
139.6490282146564
 21
116.7600048082287
 31
0.0
  0
LINE
  5
ADB
  8
0
 10
139.6490282146564
 20
119.3000048082277
 30
0.0
 11
129.6490282146564
 21
119.3000048082277
 31
0.0
  0
LINE
  5
ADC
  8
0
 10
129.6490282146564
 20
119.3000048082277
 30
0.0
 11
139.6490282146564
 21
119.3000048082277
 31
0.0
  0
POLYLINE
  5
ADD
  8
0
 66
     1
 10
0.0
 20
0.0
 30
0.0
 70
     1
  0
VERTEX
  5
DA4
  8
0
 10
136.6636676872962
 20
109.72699706542799
 30
0.0
  0
VERTEX
  5
DA5
  8
0
 10
136.6636676872962
 20
111.08361547376001
 30
0.0
  0
VERTEX
  5
DA6
  8
0
 10
138.0602045599621
 20
111.08361547376001
 30
0.0
  0
VERTEX
  5
DA7
  8
0
 10
138.0602045599621
 20
109.72699706542799
 30
0.0
  0
SEQEND
  5
DA8
  8
0
  0
LINE
  5
ADE
  8
0
 10
138.3758248868339
 20
109.41000480822829
 30
0.0
 11
136.3758248868339
 21
109.41000480822829
 31
0.0
  0
LINE
  5
ADF
  8
0
 10
135.44902821465749
 20
116.76000480822781
 30
0.0
 11
139.6490282146564
 21
116.76000480822781
 31
0.0
  0
LINE
  5
AE0
  8
0
 10
136.3758248868339
 20
116.49000480822821
 30
0.0
 11
138.3758248868339
 21
116.49000480822821
 31
0.0
  0
POLYLINE
  5
AE1
  8
0
 66
     1
 10
0.0
 20
0.0
 30
0.0
 70
     1
  0
VERTEX
  5
DA9
  8
0
 10
136.6636676872962
 20
117.3469970654279
 30
0.0
  0
VERTEX
  5
DAA
  8
0
 10
136.6636676872962
 20
118.7036154737599
 30
0.0
  0
VERTEX
  5
DAB
  8
0
 10
138.0602045599621
 20
118.7036154737599
 30
0.0
  0
VERTEX
  5
DAC
  8
0
 10
138.0602045599621
 20
117.3469970654279
 30
0.0
  0
SEQEND
  5
DAD
  8
0
  0
LINE
  5
AE2
  8
0
 10
136.3758248868339
 20
119.0300048082282
 30
0.0
 11
138.3758248868339
 21
119.0300048082282
 31
0.0
  0
LINE
  5
AE3
  8
0
 10
138.3758248868339
 20
117.0300048082282
 30
0.0
 11
136.3758248868339
 21
117.0300048082282
 31
0.0
  0
LINE
  5
AE4
  8
0
 10
135.44902821465749
 20
119.3000048082277
 30
0.0
 11
139.6490282146564
 21
119.3000048082277
 31
0.0
  0
LINE
  5
AE5
  8
0
 10
138.3758248868339
 20
114.49000480822821
 30
0.0
 11
136.3758248868339
 21
114.49000480822821
 31
0.0
  0
POLYLINE
  5
AE6
  8
0
 66
     1
 10
0.0
 20
0.0
 30
0.0
 70
     1
  0
VERTEX
  5
DAE
  8
0
 10
136.6636676872962
 20
112.2669970654279
 30
0.0
  0
VERTEX
  5
DAF
  8
0
 10
136.6636676872962
 20
113.62361547376
 30
0.0
  0
VERTEX
  5
DB0
  8
0
 10
138.0602045599621
 20
113.62361547376
 30
0.0
  0
VERTEX
  5
DB1
  8
0
 10
138.0602045599621
 20
112.2669970654279
 30
0.0
  0
SEQEND
  5
DB2
  8
0
  0
LINE
  5
AE7
  8
0
 10
136.3758248868339
 20
113.9500048082283
 30
0.0
 11
138.3758248868339
 21
113.9500048082283
 31
0.0
  0
LINE
  5
AE8
  8
0
 10
138.3758248868339
 20
111.9500048082283
 30
0.0
 11
136.3758248868339
 21
111.9500048082283
 31
0.0
  0
LINE
  5
AE9
  8
0
 10
136.3758248868339
 20
111.41000480822829
 30
0.0
 11
138.3758248868339
 21
111.41000480822829
 31
0.0
  0
POLYLINE
  5
AEA
  8
0
 66
     1
 10
0.0
 20
0.0
 30
0.0
 70
     1
  0
VERTEX
  5
DB3
  8
0
 10
136.6636676872962
 20
114.80699706542789
 30
0.0
  0
VERTEX
  5
DB4
  8
0
 10
136.6636676872962
 20
116.1636154737599
 30
0.0
  0
VERTEX
  5
DB5
  8
0
 10
138.0602045599621
 20
116.1636154737599
 30
0.0
  0
VERTEX
  5
DB6
  8
0
 10
138.0602045599621
 20
114.80699706542789
 30
0.0
  0
SEQEND
  5
DB7
  8
0
  0
LINE
  5
AEB
  8
0
 10
134.6490280862167
 20
154.95207550945099
 30
0.0
 11
139.6490280862167
 21
154.95207550945099
 31
0.0
  0
LINE
  5
AEC
  8
0
 10
134.6490280862167
 20
137.0520755094513
 30
0.0
 11
139.6490280862167
 21
137.0520755094513
 31
0.0
  0
LINE
  5
AED
  8
0
 10
136.3990280862167
 20
150.75207550945109
 30
0.0
 11
136.3990280862167
 21
151.2520755094512
 31
0.0
  0
LINE
  5
AEE
  8
0
 10
135.89902808621659
 20
151.2520755094512
 30
0.0
 11
135.89902808621659
 21
150.75207550945109
 31
0.0
  0
LINE
  5
AEF
  8
0
 10
136.23902808621679
 20
150.91202351320871
 30
0.0
 11
136.14902808621659
 21
150.91202351320871
 31
0.0
  0
LINE
  5
AF0
  8
0
 10
136.23902808621679
 20
150.91202351320871
 30
0.0
 11
136.14902808621659
 21
150.91202351320871
 31
0.0
  0
LINE
  5
AF1
  8
0
 10
136.05902808621829
 20
150.91202351320871
 30
0.0
 11
136.14902808621659
 21
150.91202351320871
 31
0.0
  0
LINE
  5
AF2
  8
0
 10
136.05902808621829
 20
150.91202351320871
 30
0.0
 11
136.14902808621659
 21
150.91202351320871
 31
0.0
  0
LINE
  5
AF3
  8
0
 10
136.23902808621679
 20
151.09212750569361
 30
0.0
 11
136.14902808621659
 21
151.09212750569361
 31
0.0
  0
LINE
  5
AF4
  8
0
 10
136.05902808621829
 20
151.09212750569361
 30
0.0
 11
136.14902808621659
 21
151.09212750569361
 31
0.0
  0
LINE
  5
AF5
  8
0
 10
136.23902808621679
 20
151.09212750569361
 30
0.0
 11
136.23902808621679
 21
150.91202351320871
 31
0.0
  0
LINE
  5
AF6
  8
0
 10
136.05902808621829
 20
151.09212750569361
 30
0.0
 11
136.05902808621829
 21
150.91202351320871
 31
0.0
  0
LINE
  5
AF7
  8
0
 10
135.89902808621659
 20
150.75207550945109
 30
0.0
 11
136.3990280862167
 21
150.75207550945109
 31
0.0
  0
LINE
  5
AF8
  8
0
 10
136.3990280862167
 20
152.7520755094512
 30
0.0
 11
136.3990280862167
 21
153.2520755094512
 31
0.0
  0
LINE
  5
AF9
  8
0
 10
135.89902808621659
 20
153.2520755094512
 30
0.0
 11
135.89902808621659
 21
152.7520755094512
 31
0.0
  0
LINE
  5
AFA
  8
0
 10
135.89902808621659
 20
152.7520755094512
 30
0.0
 11
136.3990280862167
 21
152.7520755094512
 31
0.0
  0
LINE
  5
AFB
  8
0
 10
136.05902808621829
 20
153.09212750569361
 30
0.0
 11
136.05902808621829
 21
152.91202351320871
 31
0.0
  0
LINE
  5
AFC
  8
0
 10
136.05902808621829
 20
152.91202351320871
 30
0.0
 11
136.14902808621659
 21
152.91202351320871
 31
0.0
  0
LINE
  5
AFD
  8
0
 10
136.05902808621829
 20
152.91202351320871
 30
0.0
 11
136.14902808621659
 21
152.91202351320871
 31
0.0
  0
LINE
  5
AFE
  8
0
 10
136.05902808621829
 20
153.09212750569361
 30
0.0
 11
136.14902808621659
 21
153.09212750569361
 31
0.0
  0
LINE
  5
AFF
  8
0
 10
136.23902808621679
 20
153.09212750569361
 30
0.0
 11
136.14902808621659
 21
153.09212750569361
 31
0.0
  0
LINE
  5
B00
  8
0
 10
136.23902808621679
 20
152.91202351320871
 30
0.0
 11
136.14902808621659
 21
152.91202351320871
 31
0.0
  0
LINE
  5
B01
  8
0
 10
136.23902808621679
 20
152.91202351320871
 30
0.0
 11
136.14902808621659
 21
152.91202351320871
 31
0.0
  0
LINE
  5
B02
  8
0
 10
136.23902808621679
 20
153.09212750569361
 30
0.0
 11
136.23902808621679
 21
152.91202351320871
 31
0.0
  0
LINE
  5
B03
  8
0
 10
135.89902808621659
 20
153.2520755094512
 30
0.0
 11
136.3990280862167
 21
153.2520755094512
 31
0.0
  0
LINE
  5
B04
  8
0
 10
135.89902808621659
 20
151.2520755094512
 30
0.0
 11
136.3990280862167
 21
151.2520755094512
 31
0.0
  0
LINE
  5
B05
  8
0
 10
136.3990280862167
 20
146.75207550945109
 30
0.0
 11
136.3990280862167
 21
147.2520755094512
 31
0.0
  0
LINE
  5
B06
  8
0
 10
136.05902808621829
 20
147.09212750569361
 30
0.0
 11
136.05902808621829
 21
146.91202351320871
 31
0.0
  0
LINE
  5
B07
  8
0
 10
136.05902808621829
 20
146.91202351320871
 30
0.0
 11
136.14902808621659
 21
146.91202351320871
 31
0.0
  0
LINE
  5
B08
  8
0
 10
136.05902808621829
 20
146.91202351320871
 30
0.0
 11
136.14902808621659
 21
146.91202351320871
 31
0.0
  0
LINE
  5
B09
  8
0
 10
136.05902808621829
 20
147.09212750569361
 30
0.0
 11
136.14902808621659
 21
147.09212750569361
 31
0.0
  0
LINE
  5
B0A
  8
0
 10
136.23902808621679
 20
147.09212750569361
 30
0.0
 11
136.14902808621659
 21
147.09212750569361
 31
0.0
  0
LINE
  5
B0B
  8
0
 10
136.23902808621679
 20
146.91202351320871
 30
0.0
 11
136.14902808621659
 21
146.91202351320871
 31
0.0
  0
LINE
  5
B0C
  8
0
 10
136.23902808621679
 20
146.91202351320871
 30
0.0
 11
136.14902808621659
 21
146.91202351320871
 31
0.0
  0
LINE
  5
B0D
  8
0
 10
136.23902808621679
 20
147.09212750569361
 30
0.0
 11
136.23902808621679
 21
146.91202351320871
 31
0.0
  0
LINE
  5
B0E
  8
0
 10
136.3990280862167
 20
144.75207550945109
 30
0.0
 11
136.3990280862167
 21
145.2520755094512
 31
0.0
  0
LINE
  5
B0F
  8
0
 10
136.05902808621829
 20
145.09212750569361
 30
0.0
 11
136.05902808621829
 21
144.91202351320871
 31
0.0
  0
LINE
  5
B10
  8
0
 10
136.05902808621829
 20
144.91202351320871
 30
0.0
 11
136.14902808621659
 21
144.91202351320871
 31
0.0
  0
LINE
  5
B11
  8
0
 10
136.05902808621829
 20
144.91202351320871
 30
0.0
 11
136.14902808621659
 21
144.91202351320871
 31
0.0
  0
LINE
  5
B12
  8
0
 10
136.05902808621829
 20
145.09212750569361
 30
0.0
 11
136.14902808621659
 21
145.09212750569361
 31
0.0
  0
LINE
  5
B13
  8
0
 10
136.23902808621679
 20
145.09212750569361
 30
0.0
 11
136.14902808621659
 21
145.09212750569361
 31
0.0
  0
LINE
  5
B14
  8
0
 10
136.23902808621679
 20
144.91202351320871
 30
0.0
 11
136.14902808621659
 21
144.91202351320871
 31
0.0
  0
LINE
  5
B15
  8
0
 10
136.23902808621679
 20
144.91202351320871
 30
0.0
 11
136.14902808621659
 21
144.91202351320871
 31
0.0
  0
LINE
  5
B16
  8
0
 10
136.23902808621679
 20
145.09212750569361
 30
0.0
 11
136.23902808621679
 21
144.91202351320871
 31
0.0
  0
LINE
  5
B17
  8
0
 10
136.3990280862167
 20
148.7520755094512
 30
0.0
 11
136.3990280862167
 21
149.2520755094512
 31
0.0
  0
LINE
  5
B18
  8
0
 10
136.05902808621829
 20
149.09212750569361
 30
0.0
 11
136.05902808621829
 21
148.91202351320871
 31
0.0
  0
LINE
  5
B19
  8
0
 10
136.05902808621829
 20
148.91202351320871
 30
0.0
 11
136.14902808621659
 21
148.91202351320871
 31
0.0
  0
LINE
  5
B1A
  8
0
 10
136.05902808621829
 20
148.91202351320871
 30
0.0
 11
136.14902808621659
 21
148.91202351320871
 31
0.0
  0
LINE
  5
B1B
  8
0
 10
136.05902808621829
 20
149.09212750569361
 30
0.0
 11
136.14902808621659
 21
149.09212750569361
 31
0.0
  0
LINE
  5
B1C
  8
0
 10
136.23902808621679
 20
149.09212750569361
 30
0.0
 11
136.14902808621659
 21
149.09212750569361
 31
0.0
  0
LINE
  5
B1D
  8
0
 10
136.23902808621679
 20
148.91202351320871
 30
0.0
 11
136.14902808621659
 21
148.91202351320871
 31
0.0
  0
LINE
  5
B1E
  8
0
 10
136.23902808621679
 20
148.91202351320871
 30
0.0
 11
136.14902808621659
 21
148.91202351320871
 31
0.0
  0
LINE
  5
B1F
  8
0
 10
136.23902808621679
 20
149.09212750569361
 30
0.0
 11
136.23902808621679
 21
148.91202351320871
 31
0.0
  0
LINE
  5
B20
  8
0
 10
136.05902808621829
 20
139.09212750569361
 30
0.0
 11
136.14902808621659
 21
139.09212750569361
 31
0.0
  0
LINE
  5
B21
  8
0
 10
136.23902808621679
 20
139.09212750569361
 30
0.0
 11
136.14902808621659
 21
139.09212750569361
 31
0.0
  0
LINE
  5
B22
  8
0
 10
136.05902808621829
 20
138.91202351320871
 30
0.0
 11
136.14902808621659
 21
138.91202351320871
 31
0.0
  0
LINE
  5
B23
  8
0
 10
136.05902808621829
 20
138.91202351320871
 30
0.0
 11
136.14902808621659
 21
138.91202351320871
 31
0.0
  0
LINE
  5
B24
  8
0
 10
136.23902808621679
 20
138.91202351320871
 30
0.0
 11
136.14902808621659
 21
138.91202351320871
 31
0.0
  0
LINE
  5
B25
  8
0
 10
136.23902808621679
 20
138.91202351320871
 30
0.0
 11
136.14902808621659
 21
138.91202351320871
 31
0.0
  0
LINE
  5
B26
  8
0
 10
136.05902808621829
 20
139.09212750569361
 30
0.0
 11
136.05902808621829
 21
138.91202351320871
 31
0.0
  0
LINE
  5
B27
  8
0
 10
136.23902808621679
 20
139.09212750569361
 30
0.0
 11
136.23902808621679
 21
138.91202351320871
 31
0.0
  0
LINE
  5
B28
  8
0
 10
136.3990280862167
 20
138.7520755094512
 30
0.0
 11
136.3990280862167
 21
139.2520755094512
 31
0.0
  0
LINE
  5
B29
  8
0
 10
136.3990280862167
 20
140.7520755094512
 30
0.0
 11
136.3990280862167
 21
141.2520755094512
 31
0.0
  0
LINE
  5
B2A
  8
0
 10
136.05902808621829
 20
142.91202351320871
 30
0.0
 11
136.14902808621659
 21
142.91202351320871
 31
0.0
  0
LINE
  5
B2B
  8
0
 10
136.05902808621829
 20
142.91202351320871
 30
0.0
 11
136.14902808621659
 21
142.91202351320871
 31
0.0
  0
LINE
  5
B2C
  8
0
 10
136.05902808621829
 20
143.09212750569361
 30
0.0
 11
136.14902808621659
 21
143.09212750569361
 31
0.0
  0
LINE
  5
B2D
  8
0
 10
136.23902808621679
 20
143.09212750569361
 30
0.0
 11
136.14902808621659
 21
143.09212750569361
 31
0.0
  0
LINE
  5
B2E
  8
0
 10
136.23902808621679
 20
142.91202351320871
 30
0.0
 11
136.14902808621659
 21
142.91202351320871
 31
0.0
  0
LINE
  5
B2F
  8
0
 10
136.23902808621679
 20
142.91202351320871
 30
0.0
 11
136.14902808621659
 21
142.91202351320871
 31
0.0
  0
LINE
  5
B30
  8
0
 10
136.23902808621679
 20
143.09212750569361
 30
0.0
 11
136.23902808621679
 21
142.91202351320871
 31
0.0
  0
LINE
  5
B31
  8
0
 10
136.3990280862167
 20
142.7520755094512
 30
0.0
 11
136.3990280862167
 21
143.2520755094512
 31
0.0
  0
LINE
  5
B32
  8
0
 10
136.23902808621679
 20
141.09212750569361
 30
0.0
 11
136.14902808621659
 21
141.09212750569361
 31
0.0
  0
LINE
  5
B33
  8
0
 10
136.05902808621829
 20
141.09212750569361
 30
0.0
 11
136.14902808621659
 21
141.09212750569361
 31
0.0
  0
LINE
  5
B34
  8
0
 10
136.05902808621829
 20
143.09212750569361
 30
0.0
 11
136.05902808621829
 21
142.91202351320871
 31
0.0
  0
LINE
  5
B35
  8
0
 10
136.23902808621679
 20
140.91202351320871
 30
0.0
 11
136.14902808621659
 21
140.91202351320871
 31
0.0
  0
LINE
  5
B36
  8
0
 10
136.23902808621679
 20
140.91202351320871
 30
0.0
 11
136.14902808621659
 21
140.91202351320871
 31
0.0
  0
LINE
  5
B37
  8
0
 10
136.05902808621829
 20
140.91202351320871
 30
0.0
 11
136.14902808621659
 21
140.91202351320871
 31
0.0
  0
LINE
  5
B38
  8
0
 10
136.05902808621829
 20
140.91202351320871
 30
0.0
 11
136.14902808621659
 21
140.91202351320871
 31
0.0
  0
LINE
  5
B39
  8
0
 10
136.23902808621679
 20
141.09212750569361
 30
0.0
 11
136.23902808621679
 21
140.91202351320871
 31
0.0
  0
LINE
  5
B3A
  8
0
 10
136.05902808621829
 20
141.09212750569361
 30
0.0
 11
136.05902808621829
 21
140.91202351320871
 31
0.0
  0
LINE
  5
B3B
  8
0
 10
135.89902808621659
 20
147.2520755094512
 30
0.0
 11
135.89902808621659
 21
146.75207550945109
 31
0.0
  0
LINE
  5
B3C
  8
0
 10
135.89902808621659
 20
145.2520755094512
 30
0.0
 11
135.89902808621659
 21
144.75207550945109
 31
0.0
  0
LINE
  5
B3D
  8
0
 10
135.89902808621659
 20
149.2520755094512
 30
0.0
 11
135.89902808621659
 21
148.7520755094512
 31
0.0
  0
LINE
  5
B3E
  8
0
 10
135.89902808621659
 20
139.2520755094512
 30
0.0
 11
135.89902808621659
 21
138.7520755094512
 31
0.0
  0
LINE
  5
B3F
  8
0
 10
135.89902808621659
 20
141.2520755094512
 30
0.0
 11
135.89902808621659
 21
140.7520755094512
 31
0.0
  0
LINE
  5
B40
  8
0
 10
135.89902808621659
 20
143.2520755094512
 30
0.0
 11
135.89902808621659
 21
142.7520755094512
 31
0.0
  0
LINE
  5
B41
  8
0
 10
135.89902808621659
 20
147.2520755094512
 30
0.0
 11
136.3990280862167
 21
147.2520755094512
 31
0.0
  0
LINE
  5
B42
  8
0
 10
135.89902808621659
 20
146.75207550945109
 30
0.0
 11
136.3990280862167
 21
146.75207550945109
 31
0.0
  0
LINE
  5
B43
  8
0
 10
135.89902808621659
 20
145.2520755094512
 30
0.0
 11
136.3990280862167
 21
145.2520755094512
 31
0.0
  0
LINE
  5
B44
  8
0
 10
135.89902808621659
 20
144.75207550945109
 30
0.0
 11
136.3990280862167
 21
144.75207550945109
 31
0.0
  0
LINE
  5
B45
  8
0
 10
135.89902808621659
 20
149.2520755094512
 30
0.0
 11
136.3990280862167
 21
149.2520755094512
 31
0.0
  0
LINE
  5
B46
  8
0
 10
135.89902808621659
 20
148.7520755094512
 30
0.0
 11
136.3990280862167
 21
148.7520755094512
 31
0.0
  0
LINE
  5
B47
  8
0
 10
135.89902808621659
 20
139.2520755094512
 30
0.0
 11
136.3990280862167
 21
139.2520755094512
 31
0.0
  0
LINE
  5
B48
  8
0
 10
135.89902808621659
 20
138.7520755094512
 30
0.0
 11
136.3990280862167
 21
138.7520755094512
 31
0.0
  0
LINE
  5
B49
  8
0
 10
135.89902808621659
 20
140.7520755094512
 30
0.0
 11
136.3990280862167
 21
140.7520755094512
 31
0.0
  0
LINE
  5
B4A
  8
0
 10
135.89902808621659
 20
142.7520755094512
 30
0.0
 11
136.3990280862167
 21
142.7520755094512
 31
0.0
  0
LINE
  5
B4B
  8
0
 10
135.89902808621659
 20
143.2520755094512
 30
0.0
 11
136.3990280862167
 21
143.2520755094512
 31
0.0
  0
LINE
  5
B4C
  8
0
 10
135.89902808621659
 20
141.2520755094512
 30
0.0
 11
136.3990280862167
 21
141.2520755094512
 31
0.0
  0
LINE
  5
B4D
  8
0
 10
138.3990280862167
 20
150.75207550945109
 30
0.0
 11
138.3990280862167
 21
151.2520755094512
 31
0.0
  0
LINE
  5
B4E
  8
0
 10
137.8990280862167
 20
151.2520755094512
 30
0.0
 11
137.8990280862167
 21
150.75207550945109
 31
0.0
  0
LINE
  5
B4F
  8
0
 10
138.05902808621829
 20
150.91202351320871
 30
0.0
 11
138.14902808621659
 21
150.91202351320871
 31
0.0
  0
LINE
  5
B50
  8
0
 10
138.05902808621829
 20
150.91202351320871
 30
0.0
 11
138.14902808621659
 21
150.91202351320871
 31
0.0
  0
LINE
  5
B51
  8
0
 10
138.23902808621679
 20
150.91202351320871
 30
0.0
 11
138.14902808621659
 21
150.91202351320871
 31
0.0
  0
LINE
  5
B52
  8
0
 10
138.23902808621679
 20
150.91202351320871
 30
0.0
 11
138.14902808621659
 21
150.91202351320871
 31
0.0
  0
LINE
  5
B53
  8
0
 10
138.05902808621829
 20
151.09212750569361
 30
0.0
 11
138.14902808621659
 21
151.09212750569361
 31
0.0
  0
LINE
  5
B54
  8
0
 10
138.23902808621679
 20
151.09212750569361
 30
0.0
 11
138.14902808621659
 21
151.09212750569361
 31
0.0
  0
LINE
  5
B55
  8
0
 10
138.05902808621829
 20
151.09212750569361
 30
0.0
 11
138.05902808621829
 21
150.91202351320871
 31
0.0
  0
LINE
  5
B56
  8
0
 10
138.23902808621679
 20
151.09212750569361
 30
0.0
 11
138.23902808621679
 21
150.91202351320871
 31
0.0
  0
LINE
  5
B57
  8
0
 10
137.8990280862167
 20
150.75207550945109
 30
0.0
 11
138.3990280862167
 21
150.75207550945109
 31
0.0
  0
LINE
  5
B58
  8
0
 10
138.3990280862167
 20
152.7520755094512
 30
0.0
 11
138.3990280862167
 21
153.2520755094512
 31
0.0
  0
LINE
  5
B59
  8
0
 10
137.8990280862167
 20
153.2520755094512
 30
0.0
 11
137.8990280862167
 21
152.7520755094512
 31
0.0
  0
LINE
  5
B5A
  8
0
 10
137.8990280862167
 20
152.7520755094512
 30
0.0
 11
138.3990280862167
 21
152.7520755094512
 31
0.0
  0
LINE
  5
B5B
  8
0
 10
138.23902808621679
 20
153.09212750569361
 30
0.0
 11
138.23902808621679
 21
152.91202351320871
 31
0.0
  0
LINE
  5
B5C
  8
0
 10
138.23902808621679
 20
152.91202351320871
 30
0.0
 11
138.14902808621659
 21
152.91202351320871
 31
0.0
  0
LINE
  5
B5D
  8
0
 10
138.23902808621679
 20
152.91202351320871
 30
0.0
 11
138.14902808621659
 21
152.91202351320871
 31
0.0
  0
LINE
  5
B5E
  8
0
 10
138.23902808621679
 20
153.09212750569361
 30
0.0
 11
138.14902808621659
 21
153.09212750569361
 31
0.0
  0
LINE
  5
B5F
  8
0
 10
138.05902808621829
 20
153.09212750569361
 30
0.0
 11
138.14902808621659
 21
153.09212750569361
 31
0.0
  0
LINE
  5
B60
  8
0
 10
138.05902808621829
 20
152.91202351320871
 30
0.0
 11
138.14902808621659
 21
152.91202351320871
 31
0.0
  0
LINE
  5
B61
  8
0
 10
138.05902808621829
 20
152.91202351320871
 30
0.0
 11
138.14902808621659
 21
152.91202351320871
 31
0.0
  0
LINE
  5
B62
  8
0
 10
138.05902808621829
 20
153.09212750569361
 30
0.0
 11
138.05902808621829
 21
152.91202351320871
 31
0.0
  0
LINE
  5
B63
  8
0
 10
137.8990280862167
 20
153.2520755094512
 30
0.0
 11
138.3990280862167
 21
153.2520755094512
 31
0.0
  0
LINE
  5
B64
  8
0
 10
137.8990280862167
 20
151.2520755094512
 30
0.0
 11
138.3990280862167
 21
151.2520755094512
 31
0.0
  0
LINE
  5
B65
  8
0
 10
138.23902808621679
 20
147.09212750569361
 30
0.0
 11
138.23902808621679
 21
146.91202351320871
 31
0.0
  0
LINE
  5
B66
  8
0
 10
138.23902808621679
 20
146.91202351320871
 30
0.0
 11
138.14902808621659
 21
146.91202351320871
 31
0.0
  0
LINE
  5
B67
  8
0
 10
138.23902808621679
 20
146.91202351320871
 30
0.0
 11
138.14902808621659
 21
146.91202351320871
 31
0.0
  0
LINE
  5
B68
  8
0
 10
138.23902808621679
 20
147.09212750569361
 30
0.0
 11
138.14902808621659
 21
147.09212750569361
 31
0.0
  0
LINE
  5
B69
  8
0
 10
138.05902808621829
 20
147.09212750569361
 30
0.0
 11
138.14902808621659
 21
147.09212750569361
 31
0.0
  0
LINE
  5
B6A
  8
0
 10
138.05902808621829
 20
146.91202351320871
 30
0.0
 11
138.14902808621659
 21
146.91202351320871
 31
0.0
  0
LINE
  5
B6B
  8
0
 10
138.05902808621829
 20
146.91202351320871
 30
0.0
 11
138.14902808621659
 21
146.91202351320871
 31
0.0
  0
LINE
  5
B6C
  8
0
 10
138.05902808621829
 20
147.09212750569361
 30
0.0
 11
138.05902808621829
 21
146.91202351320871
 31
0.0
  0
LINE
  5
B6D
  8
0
 10
138.3990280862167
 20
146.75207550945109
 30
0.0
 11
138.3990280862167
 21
147.2520755094512
 31
0.0
  0
LINE
  5
B6E
  8
0
 10
137.8990280862167
 20
147.2520755094512
 30
0.0
 11
137.8990280862167
 21
146.75207550945109
 31
0.0
  0
LINE
  5
B6F
  8
0
 10
137.8990280862167
 20
146.75207550945109
 30
0.0
 11
138.3990280862167
 21
146.75207550945109
 31
0.0
  0
LINE
  5
B70
  8
0
 10
137.8990280862167
 20
147.2520755094512
 30
0.0
 11
138.3990280862167
 21
147.2520755094512
 31
0.0
  0
LINE
  5
B71
  8
0
 10
138.23902808621679
 20
145.09212750569361
 30
0.0
 11
138.23902808621679
 21
144.91202351320871
 31
0.0
  0
LINE
  5
B72
  8
0
 10
138.23902808621679
 20
144.91202351320871
 30
0.0
 11
138.14902808621659
 21
144.91202351320871
 31
0.0
  0
LINE
  5
B73
  8
0
 10
138.23902808621679
 20
144.91202351320871
 30
0.0
 11
138.14902808621659
 21
144.91202351320871
 31
0.0
  0
LINE
  5
B74
  8
0
 10
138.23902808621679
 20
145.09212750569361
 30
0.0
 11
138.14902808621659
 21
145.09212750569361
 31
0.0
  0
LINE
  5
B75
  8
0
 10
138.05902808621829
 20
145.09212750569361
 30
0.0
 11
138.14902808621659
 21
145.09212750569361
 31
0.0
  0
LINE
  5
B76
  8
0
 10
138.05902808621829
 20
144.91202351320871
 30
0.0
 11
138.14902808621659
 21
144.91202351320871
 31
0.0
  0
LINE
  5
B77
  8
0
 10
138.05902808621829
 20
144.91202351320871
 30
0.0
 11
138.14902808621659
 21
144.91202351320871
 31
0.0
  0
LINE
  5
B78
  8
0
 10
138.05902808621829
 20
145.09212750569361
 30
0.0
 11
138.05902808621829
 21
144.91202351320871
 31
0.0
  0
LINE
  5
B79
  8
0
 10
138.3990280862167
 20
144.75207550945109
 30
0.0
 11
138.3990280862167
 21
145.2520755094512
 31
0.0
  0
LINE
  5
B7A
  8
0
 10
137.8990280862167
 20
145.2520755094512
 30
0.0
 11
137.8990280862167
 21
144.75207550945109
 31
0.0
  0
LINE
  5
B7B
  8
0
 10
137.8990280862167
 20
144.75207550945109
 30
0.0
 11
138.3990280862167
 21
144.75207550945109
 31
0.0
  0
LINE
  5
B7C
  8
0
 10
137.8990280862167
 20
145.2520755094512
 30
0.0
 11
138.3990280862167
 21
145.2520755094512
 31
0.0
  0
LINE
  5
B7D
  8
0
 10
138.23902808621679
 20
149.09212750569361
 30
0.0
 11
138.23902808621679
 21
148.91202351320871
 31
0.0
  0
LINE
  5
B7E
  8
0
 10
138.23902808621679
 20
148.91202351320871
 30
0.0
 11
138.14902808621659
 21
148.91202351320871
 31
0.0
  0
LINE
  5
B7F
  8
0
 10
138.23902808621679
 20
148.91202351320871
 30
0.0
 11
138.14902808621659
 21
148.91202351320871
 31
0.0
  0
LINE
  5
B80
  8
0
 10
138.23902808621679
 20
149.09212750569361
 30
0.0
 11
138.14902808621659
 21
149.09212750569361
 31
0.0
  0
LINE
  5
B81
  8
0
 10
138.05902808621829
 20
149.09212750569361
 30
0.0
 11
138.14902808621659
 21
149.09212750569361
 31
0.0
  0
LINE
  5
B82
  8
0
 10
138.05902808621829
 20
148.91202351320871
 30
0.0
 11
138.14902808621659
 21
148.91202351320871
 31
0.0
  0
LINE
  5
B83
  8
0
 10
138.05902808621829
 20
148.91202351320871
 30
0.0
 11
138.14902808621659
 21
148.91202351320871
 31
0.0
  0
LINE
  5
B84
  8
0
 10
138.05902808621829
 20
149.09212750569361
 30
0.0
 11
138.05902808621829
 21
148.91202351320871
 31
0.0
  0
LINE
  5
B85
  8
0
 10
138.3990280862167
 20
148.7520755094512
 30
0.0
 11
138.3990280862167
 21
149.2520755094512
 31
0.0
  0
LINE
  5
B86
  8
0
 10
137.8990280862167
 20
149.2520755094512
 30
0.0
 11
137.8990280862167
 21
148.7520755094512
 31
0.0
  0
LINE
  5
B87
  8
0
 10
137.8990280862167
 20
148.7520755094512
 30
0.0
 11
138.3990280862167
 21
148.7520755094512
 31
0.0
  0
LINE
  5
B88
  8
0
 10
137.8990280862167
 20
149.2520755094512
 30
0.0
 11
138.3990280862167
 21
149.2520755094512
 31
0.0
  0
LINE
  5
B89
  8
0
 10
138.23902808621679
 20
139.09212750569361
 30
0.0
 11
138.14902808621659
 21
139.09212750569361
 31
0.0
  0
LINE
  5
B8A
  8
0
 10
138.05902808621829
 20
139.09212750569361
 30
0.0
 11
138.14902808621659
 21
139.09212750569361
 31
0.0
  0
LINE
  5
B8B
  8
0
 10
137.8990280862167
 20
139.2520755094512
 30
0.0
 11
138.3990280862167
 21
139.2520755094512
 31
0.0
  0
LINE
  5
B8C
  8
0
 10
138.23902808621679
 20
138.91202351320871
 30
0.0
 11
138.14902808621659
 21
138.91202351320871
 31
0.0
  0
LINE
  5
B8D
  8
0
 10
138.23902808621679
 20
138.91202351320871
 30
0.0
 11
138.14902808621659
 21
138.91202351320871
 31
0.0
  0
LINE
  5
B8E
  8
0
 10
138.05902808621829
 20
138.91202351320871
 30
0.0
 11
138.14902808621659
 21
138.91202351320871
 31
0.0
  0
LINE
  5
B8F
  8
0
 10
138.05902808621829
 20
138.91202351320871
 30
0.0
 11
138.14902808621659
 21
138.91202351320871
 31
0.0
  0
LINE
  5
B90
  8
0
 10
137.8990280862167
 20
138.7520755094512
 30
0.0
 11
138.3990280862167
 21
138.7520755094512
 31
0.0
  0
LINE
  5
B91
  8
0
 10
138.23902808621679
 20
139.09212750569361
 30
0.0
 11
138.23902808621679
 21
138.91202351320871
 31
0.0
  0
LINE
  5
B92
  8
0
 10
138.05902808621829
 20
139.09212750569361
 30
0.0
 11
138.05902808621829
 21
138.91202351320871
 31
0.0
  0
LINE
  5
B93
  8
0
 10
138.3990280862167
 20
138.7520755094512
 30
0.0
 11
138.3990280862167
 21
139.2520755094512
 31
0.0
  0
LINE
  5
B94
  8
0
 10
137.8990280862167
 20
139.2520755094512
 30
0.0
 11
137.8990280862167
 21
138.7520755094512
 31
0.0
  0
LINE
  5
B95
  8
0
 10
138.3990280862167
 20
140.7520755094512
 30
0.0
 11
138.3990280862167
 21
141.2520755094512
 31
0.0
  0
LINE
  5
B96
  8
0
 10
137.8990280862167
 20
141.2520755094512
 30
0.0
 11
137.8990280862167
 21
140.7520755094512
 31
0.0
  0
LINE
  5
B97
  8
0
 10
137.8990280862167
 20
140.7520755094512
 30
0.0
 11
138.3990280862167
 21
140.7520755094512
 31
0.0
  0
LINE
  5
B98
  8
0
 10
138.05902808621829
 20
141.09212750569361
 30
0.0
 11
138.14902808621659
 21
141.09212750569361
 31
0.0
  0
LINE
  5
B99
  8
0
 10
138.23902808621679
 20
141.09212750569361
 30
0.0
 11
138.14902808621659
 21
141.09212750569361
 31
0.0
  0
LINE
  5
B9A
  8
0
 10
138.23902808621679
 20
143.09212750569361
 30
0.0
 11
138.23902808621679
 21
142.91202351320871
 31
0.0
  0
LINE
  5
B9B
  8
0
 10
138.23902808621679
 20
142.91202351320871
 30
0.0
 11
138.14902808621659
 21
142.91202351320871
 31
0.0
  0
LINE
  5
B9C
  8
0
 10
138.23902808621679
 20
142.91202351320871
 30
0.0
 11
138.14902808621659
 21
142.91202351320871
 31
0.0
  0
LINE
  5
B9D
  8
0
 10
138.23902808621679
 20
143.09212750569361
 30
0.0
 11
138.14902808621659
 21
143.09212750569361
 31
0.0
  0
LINE
  5
B9E
  8
0
 10
138.05902808621829
 20
143.09212750569361
 30
0.0
 11
138.14902808621659
 21
143.09212750569361
 31
0.0
  0
LINE
  5
B9F
  8
0
 10
138.05902808621829
 20
142.91202351320871
 30
0.0
 11
138.14902808621659
 21
142.91202351320871
 31
0.0
  0
LINE
  5
BA0
  8
0
 10
138.05902808621829
 20
142.91202351320871
 30
0.0
 11
138.14902808621659
 21
142.91202351320871
 31
0.0
  0
LINE
  5
BA1
  8
0
 10
138.05902808621829
 20
143.09212750569361
 30
0.0
 11
138.05902808621829
 21
142.91202351320871
 31
0.0
  0
LINE
  5
BA2
  8
0
 10
138.3990280862167
 20
142.7520755094512
 30
0.0
 11
138.3990280862167
 21
143.2520755094512
 31
0.0
  0
LINE
  5
BA3
  8
0
 10
137.8990280862167
 20
143.2520755094512
 30
0.0
 11
137.8990280862167
 21
142.7520755094512
 31
0.0
  0
LINE
  5
BA4
  8
0
 10
137.8990280862167
 20
143.2520755094512
 30
0.0
 11
138.3990280862167
 21
143.2520755094512
 31
0.0
  0
LINE
  5
BA5
  8
0
 10
137.8990280862167
 20
141.2520755094512
 30
0.0
 11
138.3990280862167
 21
141.2520755094512
 31
0.0
  0
LINE
  5
BA6
  8
0
 10
137.8990280862167
 20
142.7520755094512
 30
0.0
 11
138.3990280862167
 21
142.7520755094512
 31
0.0
  0
LINE
  5
BA7
  8
0
 10
138.05902808621829
 20
140.91202351320871
 30
0.0
 11
138.14902808621659
 21
140.91202351320871
 31
0.0
  0
LINE
  5
BA8
  8
0
 10
138.05902808621829
 20
140.91202351320871
 30
0.0
 11
138.14902808621659
 21
140.91202351320871
 31
0.0
  0
LINE
  5
BA9
  8
0
 10
138.23902808621679
 20
140.91202351320871
 30
0.0
 11
138.14902808621659
 21
140.91202351320871
 31
0.0
  0
LINE
  5
BAA
  8
0
 10
138.23902808621679
 20
140.91202351320871
 30
0.0
 11
138.14902808621659
 21
140.91202351320871
 31
0.0
  0
LINE
  5
BAB
  8
0
 10
138.05902808621829
 20
141.09212750569361
 30
0.0
 11
138.05902808621829
 21
140.91202351320871
 31
0.0
  0
LINE
  5
BAC
  8
0
 10
138.23902808621679
 20
141.09212750569361
 30
0.0
 11
138.23902808621679
 21
140.91202351320871
 31
0.0
  0
LINE
  5
BAD
  8
0
 10
134.6490280862167
 20
154.95207550945099
 30
0.0
 11
134.6490280862167
 21
137.0520755094513
 31
0.0
  0
POLYLINE
  5
BAE
  8
0
 66
     1
 10
0.0
 20
0.0
 30
0.0
 70
     1
  0
VERTEX
  5
DB8
  8
0
 10
136.6636676872962
 20
119.88699706542781
 30
0.0
  0
VERTEX
  5
DB9
  8
0
 10
136.6636676872962
 20
121.2436154737598
 30
0.0
  0
VERTEX
  5
DBA
  8
0
 10
138.0602045599621
 20
121.2436154737598
 30
0.0
  0
VERTEX
  5
DBB
  8
0
 10
138.0602045599621
 20
119.88699706542781
 30
0.0
  0
SEQEND
  5
DBC
  8
0
  0
LINE
  5
BAF
  8
0
 10
138.3758248868339
 20
119.57000480822821
 30
0.0
 11
136.3758248868339
 21
119.57000480822821
 31
0.0
  0
LINE
  5
BB0
  8
0
 10
135.44902821465749
 20
124.38000480822861
 30
0.0
 11
139.6490282146564
 21
124.38000480822861
 31
0.0
  0
LINE
  5
BB1
  8
0
 10
138.3758248868339
 20
122.11000480822899
 30
0.0
 11
136.3758248868339
 21
122.11000480822899
 31
0.0
  0
LINE
  5
BB2
  8
0
 10
136.3758248868339
 20
124.11000480822899
 30
0.0
 11
138.3758248868339
 21
124.11000480822899
 31
0.0
  0
POLYLINE
  5
BB3
  8
0
 66
     1
 10
0.0
 20
0.0
 30
0.0
 70
     1
  0
VERTEX
  5
DBD
  8
0
 10
136.6636676872962
 20
122.42699706542869
 30
0.0
  0
VERTEX
  5
DBE
  8
0
 10
136.6636676872962
 20
123.7836154737607
 30
0.0
  0
VERTEX
  5
DBF
  8
0
 10
138.0602045599621
 20
123.7836154737607
 30
0.0
  0
VERTEX
  5
DC0
  8
0
 10
138.0602045599621
 20
122.42699706542869
 30
0.0
  0
SEQEND
  5
DC1
  8
0
  0
LINE
  5
BB4
  8
0
 10
136.3758248868339
 20
121.57000480822821
 30
0.0
 11
138.3758248868339
 21
121.57000480822821
 31
0.0
  0
LINE
  5
BB5
  8
0
 10
135.44902821465749
 20
121.8400048082286
 30
0.0
 11
139.6490282146564
 21
121.8400048082286
 31
0.0
  0
LINE
  5
BB6
  8
0
 10
129.6490282146564
 20
124.38000480822861
 30
0.0
 11
139.6490282146564
 21
124.38000480822861
 31
0.0
  0
LINE
  5
BB7
  8
0
 10
139.6490282146564
 20
124.38000480822861
 30
0.0
 11
129.6490282146564
 21
124.38000480822861
 31
0.0
  0
LINE
  5
BB8
  8
0
 10
129.6490282146564
 20
121.8400048082286
 30
0.0
 11
139.6490282146564
 21
121.8400048082286
 31
0.0
  0
LINE
  5
BB9
  8
0
 10
139.6490282146564
 20
121.8400048082286
 30
0.0
 11
129.6490282146564
 21
121.8400048082286
 31
0.0
  0
LINE
  5
BBA
  8
0
 10
139.6490282146564
 20
119.30000480822861
 30
0.0
 11
129.6490282146564
 21
119.30000480822861
 31
0.0
  0
LINE
  5
BBB
  8
0
 10
129.6490282146564
 20
119.30000480822861
 30
0.0
 11
139.6490282146564
 21
119.30000480822861
 31
0.0
  0
LINE
  5
BBC
  8
0
 10
139.6490282146564
 20
121.8400048082286
 30
0.0
 11
129.6490282146564
 21
121.8400048082286
 31
0.0
  0
LINE
  5
BBD
  8
0
 10
129.6490282146564
 20
121.8400048082286
 30
0.0
 11
139.6490282146564
 21
121.8400048082286
 31
0.0
  0
LINE
  5
BBE
  8
0
 10
136.3758248868339
 20
119.57000480822821
 30
0.0
 11
136.3758248868339
 21
121.57000480822821
 31
0.0
  0
LINE
  5
BBF
  8
0
 10
132.6874764387116
 20
121.19207550945259
 30
0.0
 11
132.6874764387116
 21
119.8920755094524
 31
0.0
  0
LINE
  5
BC0
  8
0
 10
135.6874764387116
 20
119.8920755094524
 30
0.0
 11
135.6874764387116
 21
121.19207550945259
 31
0.0
  0
LINE
  5
BC1
  8
0
 10
135.6874764387116
 20
120.19500480822821
 30
0.0
 11
135.6874764387116
 21
120.94500480822821
 31
0.0
  0
LINE
  5
BC2
  8
0
 10
132.91502824194811
 20
120.3696017917328
 30
0.0
 11
132.91502824194811
 21
120.77040782472351
 31
0.0
  0
LINE
  5
BC3
  8
0
 10
132.6874764387116
 20
119.8920755094524
 30
0.0
 11
135.6874764387116
 21
119.8920755094524
 31
0.0
  0
LINE
  5
BC4
  8
0
 10
134.2530133807353
 20
120.3696017917328
 30
0.0
 11
135.6874764387116
 21
120.3696017917328
 31
0.0
  0
LINE
  5
BC5
  8
0
 10
132.91502824194811
 20
120.3696017917328
 30
0.0
 11
133.2725020269385
 21
120.3696017917328
 31
0.0
  0
ARC
  5
BC6
  8
0
 10
133.6917647727181
 20
120.7446017917328
 30
0.0
 40
0.5624999999999976
 50
221.81031489579789
 51
318.18968510420189
  0
ARC
  5
BC7
  8
0
 10
133.6917647727181
 20
120.7446017917328
 30
0.0
 40
0.6750000000000079
 50
213.74898859589939
 51
326.2510114041005
  0
LINE
  5
BC8
  8
0
 10
132.91502824194811
 20
122.9096017917328
 30
0.0
 11
132.91502824194811
 21
123.31040782472439
 31
0.0
  0
LINE
  5
BC9
  8
0
 10
135.6874764387116
 20
122.73500480822899
 30
0.0
 11
135.6874764387116
 21
123.48500480822911
 31
0.0
  0
ARC
  5
BCA
  8
0
 10
133.6917647727181
 20
123.2846017917328
 30
0.0
 40
0.6750000000000079
 50
213.74898859589939
 51
326.2510114041005
  0
ARC
  5
BCB
  8
0
 10
133.6917647727181
 20
123.2846017917328
 30
0.0
 40
0.5624999999999976
 50
221.81031489579789
 51
318.18968510420189
  0
LINE
  5
BCC
  8
0
 10
132.91502824194811
 20
122.9096017917328
 30
0.0
 11
133.2725020269385
 21
122.9096017917328
 31
0.0
  0
LINE
  5
BCD
  8
0
 10
134.2530133807353
 20
122.9096017917328
 30
0.0
 11
135.6874764387116
 21
122.9096017917328
 31
0.0
  0
LINE
  5
BCE
  8
0
 10
135.6874764387116
 20
122.4320755094533
 30
0.0
 11
135.6874764387116
 21
123.7320755094525
 31
0.0
  0
LINE
  5
BCF
  8
0
 10
132.6874764387116
 20
123.7320755094525
 30
0.0
 11
132.6874764387116
 21
122.4320755094533
 31
0.0
  0
LINE
  5
BD0
  8
0
 10
134.2530133807353
 20
123.31040782472439
 30
0.0
 11
135.6874764387116
 21
123.31040782472439
 31
0.0
  0
LINE
  5
BD1
  8
0
 10
132.91502824194811
 20
123.31040782472439
 30
0.0
 11
133.2725020269385
 21
123.31040782472439
 31
0.0
  0
ARC
  5
BD2
  8
0
 10
133.6917647727181
 20
122.93540782472439
 30
0.0
 40
0.6750000000000079
 50
33.748988595899391
 51
146.25101140410061
  0
ARC
  5
BD3
  8
0
 10
133.6917647727181
 20
122.93540782472439
 30
0.0
 40
0.5624999999999976
 50
41.810314895798008
 51
138.18968510420191
  0
LINE
  5
BD4
  8
0
 10
132.6874764387116
 20
122.4320755094533
 30
0.0
 11
135.6874764387116
 21
122.4320755094533
 31
0.0
  0
LINE
  5
BD5
  8
0
 10
132.6874764387116
 20
123.7320755094525
 30
0.0
 11
135.6874764387116
 21
123.7320755094525
 31
0.0
  0
LINE
  5
BD6
  8
0
 10
136.3758248868339
 20
122.11000480822899
 30
0.0
 11
136.3758248868339
 21
124.11000480822899
 31
0.0
  0
LINE
  5
BD7
  8
0
 10
132.6874764387116
 20
121.19207550945259
 30
0.0
 11
135.6874764387116
 21
121.19207550945259
 31
0.0
  0
ARC
  5
BD8
  8
0
 10
133.6917647727181
 20
120.39540782472351
 30
0.0
 40
0.5624999999999976
 50
41.810314895798008
 51
138.18968510420191
  0
ARC
  5
BD9
  8
0
 10
133.6917647727181
 20
120.39540782472351
 30
0.0
 40
0.6750000000000079
 50
33.748988595899391
 51
146.25101140410061
  0
LINE
  5
BDA
  8
0
 10
132.91502824194811
 20
120.77040782472351
 30
0.0
 11
133.2725020269385
 21
120.77040782472351
 31
0.0
  0
LINE
  5
BDB
  8
0
 10
134.2530133807353
 20
120.77040782472351
 30
0.0
 11
135.6874764387116
 21
120.77040782472351
 31
0.0
  0
LINE
  5
BDC
  8
0
 10
131.1490282146564
 20
124.38000480822861
 30
0.0
 11
129.6490282146564
 21
124.38000480822861
 31
0.0
  0
LINE
  5
BDD
  8
0
 10
129.6490282146564
 20
124.38000480822861
 30
0.0
 11
131.1490282146564
 21
124.38000480822861
 31
0.0
  0
LINE
  5
BDE
  8
0
 10
129.6490282146564
 20
121.8400048082286
 30
0.0
 11
131.1490282146564
 21
121.8400048082286
 31
0.0
  0
LINE
  5
BDF
  8
0
 10
131.1490282146564
 20
121.8400048082286
 30
0.0
 11
129.6490282146564
 21
121.8400048082286
 31
0.0
  0
LINE
  5
BE0
  8
0
 10
138.3758248868339
 20
121.57000480822821
 30
0.0
 11
138.3758248868339
 21
119.57000480822821
 31
0.0
  0
LINE
  5
BE1
  8
0
 10
138.3758248868339
 20
124.11000480822899
 30
0.0
 11
138.3758248868339
 21
122.11000480822899
 31
0.0
  0
LINE
  5
BE2
  8
0
 10
129.6490282146564
 20
107.6400048082279
 30
0.0
 11
129.6490282146564
 21
124.38000480822861
 31
0.0
  0
LINE
  5
BE3
  8
0
 10
139.6490280862167
 20
171.23000480822799
 30
0.0
 11
139.6490280862167
 21
107.0900048082277
 31
0.0
  0
LINE
  5
BE4
  8
0
 10
149.74902821465679
 20
201.8900048082279
 30
0.0
 11
149.74902821465679
 21
197.911580808228
 31
0.0
  0
LINE
  5
BE5
  8
0
 10
149.74902821465679
 20
197.911580808228
 30
0.0
 11
150.76467521465699
 21
197.911580808228
 31
0.0
  0
ARC
  5
BE6
  8
0
 10
148.74902821465679
 20
201.8900048082279
 30
0.0
 40
1.0
 50
0.0
 51
89.999999999999986
  0
ARC
  5
BE7
  8
0
 10
149.81785321465711
 20
195.50541080822779
 30
0.0
 40
1.0
 50
0.0
 51
89.999999999999986
  0
LINE
  5
BE8
  8
0
 10
149.81785321465711
 20
196.50541080822779
 30
0.0
 11
148.81761621465691
 21
196.50541080822779
 31
0.0
  0
LINE
  5
BE9
  8
0
 10
149.74902821465679
 20
197.911580808228
 30
0.0
 11
148.81761621465691
 21
196.50541080822779
 31
0.0
  0
LINE
  5
BEA
  8
0
 10
149.74902821465679
 20
197.911580808228
 30
0.0
 11
148.81761621465691
 21
196.50541080822779
 31
0.0
  0
ARC
  5
BEB
  8
0
 10
150.76467521465699
 20
196.911580808228
 30
0.0
 40
1.0
 50
0.0
 51
89.999999000005104
  0
LINE
  5
BEC
  8
0
 10
149.74902721465739
 20
201.8900048082279
 30
0.0
 11
149.74902721465739
 21
209.8900048082279
 31
0.0
  0
ARC
  5
BED
  8
0
 10
120.2490292146572
 20
209.8900048082279
 30
0.0
 40
1.5
 50
89.999999999999986
 51
180.0
  0
LINE
  5
BEE
  8
0
 10
120.2490292146572
 20
211.3900048082279
 30
0.0
 11
148.24902721465739
 21
211.3900048082279
 31
0.0
  0
ARC
  5
BEF
  8
0
 10
145.64902821465731
 20
197.79000480822839
 30
0.0
 40
1.0
 50
0.0
 51
89.999999999999986
  0
ARC
  5
BF0
  8
0
 10
145.74902821465679
 20
197.8900048082279
 30
0.0
 40
1.0
 50
0.0
 51
89.999999999999986
  0
ARC
  5
BF1
  8
0
 10
143.77406021465731
 20
202.4906888082279
 30
0.0
 40
1.0
 50
270.12524100003583
 51
326.04630300000889
  0
LINE
  5
BF2
  8
0
 10
145.248494214657
 20
202.8900048082279
 30
0.0
 11
144.60354921465699
 21
201.93216580822821
 31
0.0
  0
LINE
  5
BF3
  8
0
 10
139.94902821465661
 20
193.59000480822769
 30
0.0
 11
139.94902821465661
 21
190.99000480822829
 31
0.0
  0
LINE
  5
BF4
  8
0
 10
140.24902821465679
 20
193.8900048082279
 30
0.0
 11
140.24902821465679
 21
190.69000480822811
 31
0.0
  0
LINE
  5
BF5
  8
0
 10
138.34902821465721
 20
190.99000480822829
 30
0.0
 11
138.34902821465721
 21
193.59000480822769
 31
0.0
  0
LINE
  5
BF6
  8
0
 10
138.049028214657
 20
190.69000480822811
 30
0.0
 11
138.049028214657
 21
193.8900048082279
 31
0.0
  0
LINE
  5
BF7
  8
0
 10
139.94902821465661
 20
190.99000480822829
 30
0.0
 11
138.34902821465721
 21
190.99000480822829
 31
0.0
  0
LINE
  5
BF8
  8
0
 10
140.24902821465679
 20
190.69000480822811
 30
0.0
 11
138.049028214657
 21
190.69000480822811
 31
0.0
  0
LINE
  5
BF9
  8
0
 10
140.24902821465679
 20
190.69000480822811
 30
0.0
 11
138.049028214657
 21
190.69000480822811
 31
0.0
  0
LINE
  5
BFA
  8
0
 10
139.94902821465661
 20
193.59000480822769
 30
0.0
 11
138.34902821465721
 21
193.59000480822769
 31
0.0
  0
ARC
  5
BFB
  8
0
 10
122.8490282146572
 20
197.79000480822839
 30
0.0
 40
1.0
 50
89.999999999999986
 51
180.0
  0
ARC
  5
BFC
  8
0
 10
122.7490282146568
 20
197.8900048082279
 30
0.0
 40
1.0
 50
89.999999999999986
 51
180.0
  0
ARC
  5
BFD
  8
0
 10
124.72399721465671
 20
202.4906888082279
 30
0.0
 40
1.0
 50
213.953696999991
 51
269.87475899996411
  0
LINE
  5
BFE
  8
0
 10
123.24956221465661
 20
202.8900048082279
 30
0.0
 11
123.8945072146566
 21
201.93216580822821
 31
0.0
  0
ARC
  5
BFF
  8
0
 10
120.75902821465699
 20
200.38678180822819
 30
0.0
 40
1.0
 50
89.82221899996577
 51
180.0
  0
LINE
  5
C00
  8
0
 10
118.7490282146568
 20
201.8900048082279
 30
0.0
 11
118.7490282146568
 21
197.911580808228
 31
0.0
  0
LINE
  5
C01
  8
0
 10
118.7490282146568
 20
197.911580808228
 30
0.0
 11
117.7333812146566
 21
197.911580808228
 31
0.0
  0
ARC
  5
C02
  8
0
 10
119.7490282146568
 20
201.8900048082279
 30
0.0
 40
1.0
 50
89.999999999999986
 51
180.0
  0
LINE
  5
C03
  8
0
 10
119.7490282146568
 20
202.8900048082279
 30
0.0
 11
123.24956221465661
 21
202.8900048082279
 31
0.0
  0
LINE
  5
C04
  8
0
 10
118.6802032146574
 20
196.50541080822779
 30
0.0
 11
119.6804402146567
 21
196.50541080822779
 31
0.0
  0
ARC
  5
C05
  8
0
 10
118.6802032146574
 20
195.50541080822779
 30
0.0
 40
1.0
 50
89.999999999999986
 51
180.0
  0
LINE
  5
C06
  8
0
 10
118.7490282146568
 20
197.911580808228
 30
0.0
 11
119.6804402146567
 21
196.50541080822779
 31
0.0
  0
LINE
  5
C07
  8
0
 10
118.7490282146568
 20
197.911580808228
 30
0.0
 11
119.6804402146567
 21
196.50541080822779
 31
0.0
  0
ARC
  5
C08
  8
0
 10
117.7333812146566
 20
196.911580808228
 30
0.0
 40
1.0
 50
89.999999999999986
 51
180.0
  0
LINE
  5
C09
  8
0
 10
122.8490282146572
 20
198.79000480822839
 30
0.0
 11
145.64902821465731
 21
198.79000480822839
 31
0.0
  0
ARC
  5
C0A
  8
0
 10
134.24902821465889
 20
4547.9625608082279
 30
0.0
 40
4346.5967079999991
 50
269.82221900001792
 51
270.17778099998202
  0
ARC
  5
C0B
  8
0
 10
134.24902821465889
 20
4560.0494538082266
 30
0.0
 40
4358.5691749999987
 50
269.87475899996411
 51
270.12524100003583
  0
LINE
  5
C0C
  8
0
 10
123.92470721465681
 20
201.88974380822771
 30
0.0
 11
144.57335021465721
 21
201.88974380822771
 31
0.0
  0
LINE
  5
C0D
  8
0
 10
122.7490282146568
 20
198.8900048082279
 30
0.0
 11
145.74902821465679
 21
198.8900048082279
 31
0.0
  0
LINE
  5
C0E
  8
0
 10
118.7490292146571
 20
201.8900048082279
 30
0.0
 11
118.7490292146571
 21
209.8900048082279
 31
0.0
  0
CIRCLE
  5
C0F
  8
0
 10
134.24902821465679
 20
206.6400048082279
 30
0.0
 40
2.5
  0
ARC
  5
C10
  8
0
 10
147.73902821465751
 20
200.38678180822819
 30
0.0
 40
1.0
 50
0.0
 51
90.177780999982076
  0
ARC
  5
C11
  8
0
 10
148.24902721465739
 20
209.8900048082279
 30
0.0
 40
1.5
 50
0.0
 51
89.999999999999986
  0
LINE
  5
C12
  8
0
 10
145.248494214657
 20
202.8900048082279
 30
0.0
 11
148.74902821465679
 21
202.8900048082279
 31
0.0
  0
LINE
  5
C13
  8
0
 10
139.94902821465661
 20
171.23000480822799
 30
0.0
 11
126.3490282146571
 21
171.23000480822799
 31
0.0
  0
LINE
  5
C14
  8
0
 10
134.14902821465731
 20
156.23000480822799
 30
0.0
 11
126.3490282146571
 21
156.23000480822799
 31
0.0
  0
LINE
  5
C15
  8
0
 10
126.3490282146571
 20
171.23000480822799
 30
0.0
 11
126.3490282146571
 21
156.23000480822799
 31
0.0
  0
LINE
  5
C16
  8
0
 10
124.44902821465659
 20
135.8900048082279
 30
0.0
 11
134.14902821465731
 21
135.8900048082279
 31
0.0
  0
LINE
  5
C17
  8
0
 10
129.14902821465731
 20
124.5900048082277
 30
0.0
 11
124.44902821465659
 21
124.5900048082277
 31
0.0
  0
LINE
  5
C18
  8
0
 10
124.44902821465659
 20
124.5900048082277
 30
0.0
 11
124.44902821465659
 21
135.8900048082279
 31
0.0
  0
LINE
  5
C19
  8
0
 10
134.14902821465731
 20
135.8900048082279
 30
0.0
 11
134.14902821465731
 21
156.23000480822799
 31
0.0
  0
LINE
  5
C1A
  8
0
 10
149.7490292146571
 20
103.3684278082284
 30
0.0
 11
148.81761621465691
 21
104.7745998082283
 31
0.0
  0
LINE
  5
C1B
  8
0
 10
149.74902821465679
 20
103.3684288082278
 30
0.0
 11
150.76467521465699
 21
103.3684288082278
 31
0.0
  0
ARC
  5
C1C
  8
0
 10
150.76467521465699
 20
104.3684288082278
 30
0.0
 40
1.0
 50
270.0
 51
0.0
  0
ARC
  5
C1D
  8
0
 10
149.81785321465711
 20
105.7745998082283
 30
0.0
 40
1.0
 50
270.0
 51
0.0
  0
LINE
  5
C1E
  8
0
 10
149.81785321465711
 20
104.7745998082283
 30
0.0
 11
148.81761621465691
 21
104.7745998082283
 31
0.0
  0
ARC
  5
C1F
  8
0
 10
148.74902821465679
 20
99.390004808227928
 30
0.0
 40
1.0
 50
270.0
 51
0.0
  0
LINE
  5
C20
  8
0
 10
149.74902821465679
 20
99.390004808227928
 30
0.0
 11
149.74902821465679
 21
103.3684288082278
 31
0.0
  0
LINE
  5
C21
  8
0
 10
149.7490272146573
 20
92.890004808227914
 30
0.0
 11
149.7490272146573
 21
99.390004808227928
 31
0.0
  0
ARC
  5
C22
  8
0
 10
145.64902821465731
 20
103.49000480822821
 30
0.0
 40
1.0
 50
270.0
 51
0.0
  0
ARC
  5
C23
  8
0
 10
145.74902821465679
 20
103.3900048082279
 30
0.0
 40
1.0
 50
270.0
 51
0.0
  0
LINE
  5
C24
  8
0
 10
145.248494214657
 20
98.390004808227928
 30
0.0
 11
144.60354921465699
 21
99.347843808228546
 31
0.0
  0
ARC
  5
C25
  8
0
 10
143.7740602146572
 20
98.789321808228266
 30
0.0
 40
1.0
 50
33.953696999991038
 51
89.874759000016255
  0
ARC
  5
C26
  8
0
 10
134.24902821465679
 20
94.640004808227928
 30
0.0
 40
2.5
 50
0.0
 51
180.0
  0
ARC
  5
C27
  8
0
 10
122.8490282146571
 20
103.49000480822821
 30
0.0
 40
1.0
 50
180.0
 51
270.0
  0
ARC
  5
C28
  8
0
 10
122.7490282146568
 20
103.3900048082279
 30
0.0
 40
1.0
 50
180.0
 51
270.0
  0
LINE
  5
C29
  8
0
 10
118.7490282146568
 20
103.3684288082278
 30
0.0
 11
119.6804402146567
 21
104.7745998082283
 31
0.0
  0
ARC
  5
C2A
  8
0
 10
117.7333812146566
 20
104.3684288082278
 30
0.0
 40
1.0
 50
180.0
 51
270.0
  0
LINE
  5
C2B
  8
0
 10
118.7490282146568
 20
103.3684288082278
 30
0.0
 11
117.7333812146566
 21
103.3684288082278
 31
0.0
  0
LINE
  5
C2C
  8
0
 10
118.6802032146574
 20
104.7745998082283
 30
0.0
 11
119.6804402146567
 21
104.7745998082283
 31
0.0
  0
ARC
  5
C2D
  8
0
 10
118.6802032146574
 20
105.7745998082283
 30
0.0
 40
1.0
 50
180.0
 51
270.0
  0
ARC
  5
C2E
  8
0
 10
124.72399721465661
 20
98.789321808228266
 30
0.0
 40
1.0
 50
90.125240999983689
 51
146.04630300000889
  0
LINE
  5
C2F
  8
0
 10
123.24956221465651
 20
98.390004808227928
 30
0.0
 11
123.8945072146566
 21
99.347843808228546
 31
0.0
  0
ARC
  5
C30
  8
0
 10
120.75902821465699
 20
100.8932288082279
 30
0.0
 40
1.0
 50
180.0
 51
270.17778099998202
  0
ARC
  5
C31
  8
0
 10
119.7490282146568
 20
99.390004808227928
 30
0.0
 40
1.0
 50
180.0
 51
270.0
  0
LINE
  5
C32
  8
0
 10
119.7490282146567
 20
98.390004808227928
 30
0.0
 11
123.24956221465651
 21
98.390004808227928
 31
0.0
  0
LINE
  5
C33
  8
0
 10
118.7490282146567
 20
99.390004808227928
 30
0.0
 11
118.7490282146568
 21
103.3684288082278
 31
0.0
  0
LINE
  5
C34
  8
0
 10
122.8490282146571
 20
102.49000480822821
 30
0.0
 11
145.64902821465731
 21
102.49000480822821
 31
0.0
  0
ARC
  5
C35
  8
0
 10
134.2490282146546
 20
-4246.6825501917701
 30
0.0
 40
4346.5967079999991
 50
89.82221899996577
 51
90.177780999982076
  0
ARC
  5
C36
  8
0
 10
134.2490282146546
 20
-4258.7694431917689
 30
0.0
 40
4358.5691749999987
 50
89.874759000016255
 51
90.125240999983689
  0
LINE
  5
C37
  8
0
 10
144.57335021465721
 20
99.390266808228404
 30
0.0
 11
123.92470721465671
 21
99.390266808228404
 31
0.0
  0
LINE
  5
C38
  8
0
 10
122.7490282146568
 20
102.3900048082279
 30
0.0
 11
145.74902821465679
 21
102.3900048082279
 31
0.0
  0
LINE
  5
C39
  8
0
 10
129.14902821465731
 20
107.0900048082277
 30
0.0
 11
139.94902821465661
 21
107.0900048082277
 31
0.0
  0
ARC
  5
C3A
  8
0
 10
130.24902821465679
 20
92.890004808227914
 30
0.0
 40
1.5
 50
270.0
 51
0.0
  0
ARC
  5
C3B
  8
0
 10
138.24902821465679
 20
92.890004808227914
 30
0.0
 40
1.5
 50
180.0
 51
270.0
  0
LINE
  5
C3C
  8
0
 10
138.2490282146567
 20
91.390004808227914
 30
0.0
 11
148.2490272146573
 21
91.390004808227914
 31
0.0
  0
ARC
  5
C3D
  8
0
 10
120.2490292146571
 20
92.890004808227914
 30
0.0
 40
1.5
 50
180.0
 51
270.0
  0
LINE
  5
C3E
  8
0
 10
120.2490292146571
 20
91.390004808227914
 30
0.0
 11
130.2490282146567
 21
91.390004808227914
 31
0.0
  0
LINE
  5
C3F
  8
0
 10
118.7490292146571
 20
92.890004808227914
 30
0.0
 11
118.7490292146571
 21
99.390004808227928
 31
0.0
  0
LINE
  5
C40
  8
0
 10
136.7490282146567
 20
94.640004808227928
 30
0.0
 11
136.7490282146567
 21
92.890004808227914
 31
0.0
  0
LINE
  5
C41
  8
0
 10
131.7490282146567
 20
94.640004808227928
 30
0.0
 11
131.7490282146567
 21
92.890004808227914
 31
0.0
  0
ARC
  5
C42
  8
0
 10
148.2490272146573
 20
92.890004808227914
 30
0.0
 40
1.5
 50
270.0
 51
0.0
  0
ARC
  5
C43
  8
0
 10
147.73902821465751
 20
100.8932288082279
 30
0.0
 40
1.0
 50
269.82221900001792
 51
0.0
  0
LINE
  5
C44
  8
0
 10
145.248494214657
 20
98.390004808227928
 30
0.0
 11
148.74902821465679
 21
98.390004808227928
 31
0.0
  0
LINE
  5
C45
  8
0
 10
146.64902821465731
 20
197.79000480822839
 30
0.0
 11
146.64902821465731
 21
103.49000480822821
 31
0.0
  0
LINE
  5
C46
  8
0
 10
121.8490282146572
 20
197.79000480822839
 30
0.0
 11
121.8490282146571
 21
103.49000480822821
 31
0.0
  0
LINE
  5
C47
  8
0
 10
119.75902821465699
 20
200.38678180822819
 30
0.0
 11
119.75902821465699
 21
100.8932288082279
 31
0.0
  0
LINE
  5
C48
  8
0
 10
116.7333812146566
 20
104.3684288082278
 30
0.0
 11
116.7333812146566
 21
196.911580808228
 31
0.0
  0
LINE
  5
C49
  8
0
 10
148.73902821465751
 20
200.38678180822819
 30
0.0
 11
148.73902821465751
 21
100.8932288082279
 31
0.0
  0
LINE
  5
C4A
  8
0
 10
151.7646752146569
 20
104.3684288082278
 30
0.0
 11
151.76467521465699
 21
196.911580808228
 31
0.0
  0
LINE
  5
C4B
  8
0
 10
121.7490282146568
 20
103.3900048082279
 30
0.0
 11
121.7490282146568
 21
197.8900048082279
 31
0.0
  0
LINE
  5
C4C
  8
0
 10
146.74902821465679
 20
103.3900048082279
 30
0.0
 11
146.74902821465679
 21
197.8900048082279
 31
0.0
  0
LINE
  5
C4D
  8
0
 10
117.6802032146574
 20
195.50541080822779
 30
0.0
 11
117.6802032146574
 21
105.7745998082283
 31
0.0
  0
LINE
  5
C4E
  8
0
 10
129.14902821465731
 20
107.0900048082277
 30
0.0
 11
129.14902821465731
 21
124.5900048082277
 31
0.0
  0
LINE
  5
C4F
  8
0
 10
150.81785321465711
 20
195.50541080822779
 30
0.0
 11
150.81785321465711
 21
105.7745998082283
 31
0.0
  0
LINE
  5
C50
  8
0
 10
139.94902821465661
 20
171.23000480822799
 30
0.0
 11
139.94902821465661
 21
107.0900048082277
 31
0.0
  0
LINE
  5
C51
  8
0
 10
1.5000002146575211
 20
20.007822808228578
 30
0.0
 11
0.0000002146575216
 21
20.007822808228578
 31
0.0
  0
LINE
  5
C52
  8
0
 10
1.50000021465752
 20
15.00782280822858
 30
0.0
 11
0.0000002146575208
 21
15.00782280822858
 31
0.0
  0
LINE
  5
C53
  8
0
 10
1.5000002146575211
 20
21.507822808228578
 30
0.0
 11
0.000000214657522
 21
21.507822808228578
 31
0.0
  0
LINE
  5
C54
  8
0
 10
1.50000021465752
 20
13.50782280822858
 30
0.0
 11
0.0000002146575204
 21
13.50782280822858
 31
0.0
  0
POLYLINE
  5
C55
  8
0
 66
     1
 10
0.0
 20
0.0
 30
0.0
 70
     1
  0
VERTEX
  5
DC2
  8
0
 10
1.500000214657524
 20
33.008031808228388
 30
0.0
  0
VERTEX
  5
DC3
  8
0
 10
1.500000214657518
 20
2.007613808228768
 30
0.0
  0
VERTEX
  5
DC4
  8
0
 10
0.0000002146575184
 20
2.007613808228768
 30
0.0
  0
VERTEX
  5
DC5
  8
0
 10
0.0000002146575241
 20
33.008031808228388
 30
0.0
  0
SEQEND
  5
DC6
  8
0
  0
LINE
  5
C56
  8
0
 10
1.500000214657524
 20
33.008031808228388
 30
0.0
 11
1.500000214657518
 21
2.007613808228768
 31
0.0
  0
POLYLINE
  5
C57
  8
0
 66
     1
 10
0.0
 20
0.0
 30
0.0
 70
     1
  0
VERTEX
  5
DC7
  8
0
 10
1.5000002146575739
 20
310.3933458082285
 30
0.0
  0
VERTEX
  5
DC8
  8
0
 10
1.5000002146575691
 20
279.39292780822882
 30
0.0
  0
VERTEX
  5
DC9
  8
0
 10
0.0000002146575693
 20
279.39292780822882
 30
0.0
  0
VERTEX
  5
DCA
  8
0
 10
0.000000214657575
 20
310.3933458082285
 30
0.0
  0
SEQEND
  5
DCB
  8
0
  0
LINE
  5
C58
  8
0
 10
0.0000002146575576
 20
215.6400048082279
 30
0.0
 11
1.5000002146575571
 21
215.6400048082279
 31
0.0
  0
LINE
  5
C59
  8
0
 10
1.4936272146573679
 20
96.640004808227047
 30
0.0
 11
1.5000002146575351
 21
96.646377808226305
 31
0.0
  0
LINE
  5
C5A
  8
0
 10
0.0000002146575355
 20
95.640004808227033
 30
0.0
 11
1.5000002146575351
 21
95.640004808227033
 31
0.0
  0
LINE
  5
C5B
  8
0
 10
1.5000002146575351
 20
95.640004808227033
 30
0.0
 11
1.5000002146575371
 21
107.64185680822639
 31
0.0
  0
LINE
  5
C5C
  8
0
 10
1.5000002146575551
 20
202.88843380822809
 30
0.0
 11
1.5000002146575571
 21
215.6400048082279
 31
0.0
  0
LINE
  5
C5D
  8
0
 10
0.0000002146575355
 20
95.640004808227033
 30
0.0
 11
0.0000002146575576
 21
215.6400048082279
 31
0.0
  0
ARC
  5
C5E
  8
0
  6
CONTINUOUS
 10
60.944631214656908
 20
1.923707808228925
 30
0.0
 40
1.0
 50
270.88282099996832
 51
0.0
  0
ARC
  5
C5F
  8
2_カバ_
  6
CONTINUOUS
 62
     7
 10
-31.89999978534302
 20
17.50782380822892
 30
0.0
 40
100.0
 50
351.6685109999919
 51
352.1601729999698
  0
LINE
  5
C60
  8
2_カバ_
  6
CONTINUOUS
 62
     7
 10
67.044631214657272
 20
3.0178228082288001
 30
0.0
 11
66.190182214656886
 21
3.0046568082281619
 31
0.0
  0
ARC
  5
C61
  8
2_カバ_
  6
CONTINUOUS
 62
   140
 10
66.174774214657589
 20
4.0045378082278944
 30
0.0
 40
1.0
 50
270.88282099996832
 51
352.160600000008
  0
LINE
  5
C62
  8
0
  6
CONTINUOUS
 10
51.100000214656973
 20
11.50782380822892
 30
0.0
 11
53.100000214656973
 21
11.50782380822892
 31
0.0
  0
LINE
  5
C63
  8
0
  6
CONTINUOUS
 10
55.100000214656973
 20
11.50782380822892
 30
0.0
 11
57.100000214656973
 21
11.50782380822892
 31
0.0
  0
ARC
  5
C64
  8
0
  6
CONTINUOUS
 10
60.76584321465765
 20
9.4218428082287442
 30
0.0
 40
2.0
 50
270.88282099996832
 51
355.26714400001669
  0
LINE
  5
C65
  8
0
  6
CONTINUOUS
 10
61.944631214656908
 20
1.923707808228925
 30
0.0
 11
61.944631214656908
 21
2.9392358082288288
 31
0.0
  0
LINE
  5
C66
  8
0
  6
CONTINUOUS
 10
47.100000214656973
 20
11.50782380822892
 30
0.0
 11
49.100000214656973
 21
11.50782380822892
 31
0.0
  0
LINE
  5
C67
  8
0
  6
CONTINUOUS
 10
43.100000214656973
 20
11.50782380822892
 30
0.0
 11
45.100000214656973
 21
11.50782380822892
 31
0.0
  0
LINE
  5
C68
  8
0
  6
CONTINUOUS
 10
35.100000214656973
 20
11.50782380822892
 30
0.0
 11
37.100000214656973
 21
11.50782380822892
 31
0.0
  0
LINE
  5
C69
  8
0
  6
CONTINUOUS
 10
31.100000214656969
 20
11.50782380822892
 30
0.0
 11
33.100000214656973
 21
11.50782380822892
 31
0.0
  0
LINE
  5
C6A
  8
0
  6
CONTINUOUS
 10
39.100000214656973
 20
11.50782380822892
 30
0.0
 11
41.100000214656973
 21
11.50782380822892
 31
0.0
  0
ARC
  5
C6B
  8
0
  6
CONTINUOUS
 10
-31.89999978534302
 20
17.50782380822892
 30
0.0
 40
100.0
 50
7.8398260000161093
 51
8.3314879999821958
  0
LINE
  5
C6C
  8
0
  6
CONTINUOUS
 10
67.044631214657272
 20
31.99782280822836
 30
0.0
 11
66.190182214656886
 21
32.01098980822843
 31
0.0
  0
ARC
  5
C6D
  8
0
  6
CONTINUOUS
 10
66.174774214657589
 20
31.011108808228698
 30
0.0
 40
1.0
 50
7.8393979999627748
 51
89.117178999979487
  0
LINE
  5
C6E
  8
0
  6
CONTINUOUS
 10
53.10000021465698
 20
23.50782380822892
 30
0.0
 11
51.100000214656973
 21
23.50782380822892
 31
0.0
  0
LINE
  5
C6F
  8
0
  6
CONTINUOUS
 10
57.10000021465698
 20
23.50782380822892
 30
0.0
 11
55.10000021465698
 21
23.50782380822892
 31
0.0
  0
LINE
  5
C70
  8
0
  6
CONTINUOUS
 10
61.944631214656908
 20
33.091938808228569
 30
0.0
 11
61.944631214656908
 21
32.076410808228673
 31
0.0
  0
ARC
  5
C71
  8
0
  6
CONTINUOUS
 10
60.944631214656908
 20
33.091938808228569
 30
0.0
 40
1.0
 50
0.0
 51
89.117178999979487
  0
ARC
  5
C72
  8
0
  6
CONTINUOUS
 10
60.765844214657079
 20
25.593803808228749
 30
0.0
 40
2.0
 50
4.7328550000147827
 51
89.117178999979487
  0
LINE
  5
C73
  8
0
  6
CONTINUOUS
 10
49.10000021465698
 20
23.50782380822892
 30
0.0
 11
47.10000021465698
 21
23.50782380822892
 31
0.0
  0
LINE
  5
C74
  8
0
  6
CONTINUOUS
 10
45.10000021465698
 20
23.50782380822892
 30
0.0
 11
43.10000021465698
 21
23.50782380822892
 31
0.0
  0
LINE
  5
C75
  8
0
  6
CONTINUOUS
 10
37.10000021465698
 20
23.50782380822892
 30
0.0
 11
35.10000021465698
 21
23.50782380822892
 31
0.0
  0
LINE
  5
C76
  8
0
  6
CONTINUOUS
 10
33.10000021465698
 20
23.50782380822892
 30
0.0
 11
31.100000214656969
 21
23.50782380822892
 31
0.0
  0
LINE
  5
C77
  8
0
  6
CONTINUOUS
 10
41.100000214656973
 20
23.50782380822892
 30
0.0
 11
39.10000021465698
 21
23.50782380822892
 31
0.0
  0
LINE
  5
C78
  8
0
  6
CONTINUOUS
 10
67.315674214657022
 20
107.3900048082279
 30
0.0
 11
68.100000214656987
 21
107.3900048082279
 31
0.0
  0
LINE
  5
C79
  8
0
  6
CONTINUOUS
 10
68.100000214656987
 20
105.8915338082289
 30
0.0
 11
68.100000214656987
 21
107.3900048082279
 31
0.0
  0
ARC
  5
C7A
  8
0
  6
CONTINUOUS
 10
66.044631214657286
 20
105.867381808229
 30
0.0
 40
1.0
 50
271.31099500000022
 51
0.0
  0
LINE
  5
C7B
  8
0
  6
CONTINUOUS
 10
67.044631214657286
 20
105.867381808229
 30
0.0
 11
67.044631214657286
 21
104.8900048082279
 31
0.0
  0
ARC
  5
C7C
  8
0
  6
CONTINUOUS
 10
67.100000214656987
 20
105.8915338082289
 30
0.0
 40
1.0
 50
271.31099500000022
 51
0.0
  0
ARC
  5
C7D
  8
0
  6
CONTINUOUS
 10
60.94463121465693
 20
110.7519758082282
 30
0.0
 40
1.0
 50
271.31099500000022
 51
0.0
  0
LINE
  5
C7E
  8
0
  6
CONTINUOUS
 10
31.100000214656969
 20
23.50782380822892
 30
0.0
 11
31.100000214656969
 21
11.50782380822892
 31
0.0
  0
LINE
  5
C7F
  8
0
  6
CONTINUOUS
 10
29.100000214656969
 20
11.50782380822892
 30
0.0
 11
29.100000214656969
 21
23.50782380822892
 31
0.0
  0
LINE
  5
C80
  8
0
  6
CONTINUOUS
 10
53.100000214656973
 20
11.50782380822892
 30
0.0
 11
53.10000021465698
 21
23.50782380822892
 31
0.0
  0
LINE
  5
C81
  8
0
  6
CONTINUOUS
 10
51.100000214656973
 20
23.50782380822892
 30
0.0
 11
51.100000214656973
 21
11.50782380822892
 31
0.0
  0
LINE
  5
C82
  8
0
  6
CONTINUOUS
 10
57.100000214656973
 20
11.50782380822892
 30
0.0
 11
57.10000021465698
 21
23.50782380822892
 31
0.0
  0
LINE
  5
C83
  8
0
  6
CONTINUOUS
 10
37.100000214656973
 20
11.50782380822892
 30
0.0
 11
37.10000021465698
 21
23.50782380822892
 31
0.0
  0
LINE
  5
C84
  8
0
  6
CONTINUOUS
 10
35.10000021465698
 20
23.50782380822892
 30
0.0
 11
35.100000214656973
 21
11.50782380822892
 31
0.0
  0
LINE
  5
C85
  8
0
  6
CONTINUOUS
 10
47.10000021465698
 20
23.50782380822892
 30
0.0
 11
47.100000214656973
 21
11.50782380822892
 31
0.0
  0
LINE
  5
C86
  8
0
  6
CONTINUOUS
 10
45.100000214656973
 20
11.50782380822892
 30
0.0
 11
45.10000021465698
 21
23.50782380822892
 31
0.0
  0
LINE
  5
C87
  8
0
  6
CONTINUOUS
 10
43.10000021465698
 20
23.50782380822892
 30
0.0
 11
43.100000214656973
 21
11.50782380822892
 31
0.0
  0
LINE
  5
C88
  8
0
  6
CONTINUOUS
 10
55.10000021465698
 20
23.50782380822892
 30
0.0
 11
55.100000214656973
 21
11.50782380822892
 31
0.0
  0
LINE
  5
C89
  8
0
  6
CONTINUOUS
 10
49.100000214656973
 20
11.50782380822892
 30
0.0
 11
49.10000021465698
 21
23.50782380822892
 31
0.0
  0
LINE
  5
C8A
  8
0
  6
CONTINUOUS
 10
33.100000214656973
 20
11.50782380822892
 30
0.0
 11
33.10000021465698
 21
23.50782380822892
 31
0.0
  0
LINE
  5
C8B
  8
0
  6
CONTINUOUS
 10
41.100000214656973
 20
11.50782380822892
 30
0.0
 11
41.100000214656973
 21
23.50782380822892
 31
0.0
  0
LINE
  5
C8C
  8
0
  6
CONTINUOUS
 10
39.10000021465698
 20
23.50782380822892
 30
0.0
 11
39.100000214656973
 21
11.50782380822892
 31
0.0
  0
ARC
  5
C8D
  8
0
  6
CONTINUOUS
 10
-36.89999978534302
 20
17.50782380822892
 30
0.0
 40
100.0
 50
355.26714400001669
 51
4.7328550000147827
  0
ARC
  5
C8E
  8
0
  6
CONTINUOUS
 10
-31.89999978534302
 20
17.50782380822892
 30
0.0
 40
100.0
 50
352.160600000008
 51
7.8393979999627748
  0
LINE
  5
C8F
  8
0
  6
CONTINUOUS
 10
25.100000214656969
 20
11.50782380822892
 30
0.0
 11
23.100000214656969
 21
11.50782380822892
 31
0.0
  0
LINE
  5
C90
  8
0
  6
CONTINUOUS
 10
22.100000214656969
 20
17.50782380822892
 30
0.0
 11
22.100000214656969
 21
11.50782380822892
 31
0.0
  0
ARC
  5
C91
  8
0
  6
CONTINUOUS
 10
20.100000214656969
 20
13.50782380822892
 30
0.0
 40
0.5
 50
270.0
 51
0.0
  0
LINE
  5
C92
  8
0
  6
CONTINUOUS
 10
17.850000214656969
 20
11.50782380822892
 30
0.0
 11
17.850000214656969
 21
13.00782380822892
 31
0.0
  0
LINE
  5
C93
  8
0
  6
CONTINUOUS
 10
16.350000214656969
 20
11.50782380822892
 30
0.0
 11
16.350000214656969
 21
13.00782380822892
 31
0.0
  0
ARC
  5
C94
  8
0
  6
CONTINUOUS
 10
20.100000214656969
 20
15.50782380822892
 30
0.0
 40
0.5
 50
0.0
 51
89.999999999999986
  0
LINE
  5
C95
  8
0
  6
CONTINUOUS
 10
17.850000214656969
 20
16.00782380822892
 30
0.0
 11
17.850000214656969
 21
17.50782380822892
 31
0.0
  0
LINE
  5
C96
  8
0
  6
CONTINUOUS
 10
16.350000214656969
 20
16.00782380822892
 30
0.0
 11
16.350000214656969
 21
17.50782380822892
 31
0.0
  0
LINE
  5
C97
  8
0
  6
CONTINUOUS
 10
20.600000214656969
 20
15.50782380822892
 30
0.0
 11
20.600000214656969
 21
13.50782380822892
 31
0.0
  0
ARC
  5
C98
  8
0
  6
CONTINUOUS
 10
14.100000214656969
 20
13.50782380822892
 30
0.0
 40
0.5
 50
180.0
 51
270.0
  0
ARC
  5
C99
  8
0
  6
CONTINUOUS
 10
14.100000214656969
 20
15.50782380822892
 30
0.0
 40
0.5
 50
89.999999999999986
 51
180.0
  0
LINE
  5
C9A
  8
0
  6
CONTINUOUS
 10
12.100000214656969
 20
11.50782380822892
 30
0.0
 11
12.100000214656969
 21
17.50782380822892
 31
0.0
  0
LINE
  5
C9B
  8
0
  6
CONTINUOUS
 10
13.600000214656969
 20
13.50782380822892
 30
0.0
 11
13.600000214656969
 21
15.50782380822892
 31
0.0
  0
LINE
  5
C9C
  8
0
  6
CONTINUOUS
 10
7.1000002146569736
 20
11.50782380822892
 30
0.0
 11
9.1000002146569745
 21
11.50782380822892
 31
0.0
  0
LINE
  5
C9D
  8
0
  6
CONTINUOUS
 10
22.100000214656969
 20
11.50782380822892
 30
0.0
 11
12.100000214656969
 21
11.50782380822892
 31
0.0
  0
LINE
  5
C9E
  8
0
  6
CONTINUOUS
 10
12.100000214656969
 20
17.50782380822892
 30
0.0
 11
22.100000214656969
 21
17.50782380822892
 31
0.0
  0
LINE
  5
C9F
  8
0
  6
CONTINUOUS
 10
14.100000214656969
 20
16.00782380822892
 30
0.0
 11
20.100000214656969
 21
16.00782380822892
 31
0.0
  0
LINE
  5
CA0
  8
0
  6
CONTINUOUS
 10
20.100000214656969
 20
13.00782380822892
 30
0.0
 11
14.100000214656969
 21
13.00782380822892
 31
0.0
  0
LINE
  5
CA1
  8
0
  6
CONTINUOUS
 10
0.5000002146575184
 20
2.0078228082285809
 30
0.0
 11
1.500000214657518
 21
2.0078228082285809
 31
0.0
  0
LINE
  5
CA2
  8
0
  6
CONTINUOUS
 10
0.5000002146575184
 20
2.0078228082285809
 30
0.0
 11
0.5000002146575181
 21
0.4999408082287005
 31
0.0
  0
ARC
  5
CA3
  8
0
  6
CONTINUOUS
 10
1.0000002146575171
 20
0.4999408082287005
 30
0.0
 40
0.5
 50
180.0
 51
270.88282099996832
  0
LINE
  5
CA4
  8
0
  6
CONTINUOUS
 10
25.100000214656969
 20
23.50782380822892
 30
0.0
 11
23.100000214656969
 21
23.50782380822892
 31
0.0
  0
LINE
  5
CA5
  8
0
  6
CONTINUOUS
 10
21.100000214656969
 20
19.00782380822892
 30
0.0
 11
19.100000214656969
 21
19.00782380822892
 31
0.0
  0
LINE
  5
CA6
  8
0
  6
CONTINUOUS
 10
21.100000214656969
 20
23.50782380822892
 30
0.0
 11
19.100000214656969
 21
23.50782380822892
 31
0.0
  0
LINE
  5
CA7
  8
0
  6
CONTINUOUS
 10
21.100000214656969
 20
19.00782380822892
 30
0.0
 11
21.100000214656969
 21
23.50782380822892
 31
0.0
  0
LINE
  5
CA8
  8
0
  6
CONTINUOUS
 10
19.100000214656969
 20
23.50782380822892
 30
0.0
 11
19.100000214656969
 21
19.00782380822892
 31
0.0
  0
LINE
  5
CA9
  8
0
  6
CONTINUOUS
 10
17.100000214656969
 20
19.00782380822892
 30
0.0
 11
17.100000214656969
 21
23.50782380822892
 31
0.0
  0
LINE
  5
CAA
  8
0
  6
CONTINUOUS
 10
13.100000214656969
 20
19.00782380822892
 30
0.0
 11
11.100000214656969
 21
19.00782380822892
 31
0.0
  0
LINE
  5
CAB
  8
0
  6
CONTINUOUS
 10
13.100000214656969
 20
23.50782380822892
 30
0.0
 11
11.100000214656969
 21
23.50782380822892
 31
0.0
  0
LINE
  5
CAC
  8
0
  6
CONTINUOUS
 10
13.100000214656969
 20
19.00782380822892
 30
0.0
 11
13.100000214656969
 21
23.50782380822892
 31
0.0
  0
LINE
  5
CAD
  8
0
  6
CONTINUOUS
 10
11.100000214656969
 20
23.50782380822892
 30
0.0
 11
11.100000214656969
 21
19.00782380822892
 31
0.0
  0
LINE
  5
CAE
  8
0
  6
CONTINUOUS
 10
15.100000214656969
 20
23.50782380822892
 30
0.0
 11
15.100000214656969
 21
19.00782380822892
 31
0.0
  0
LINE
  5
CAF
  8
0
  6
CONTINUOUS
 10
9.1000002146569763
 20
23.50782380822892
 30
0.0
 11
7.1000002146569763
 21
23.50782380822892
 31
0.0
  0
LINE
  5
CB0
  8
0
  6
CONTINUOUS
 10
17.100000214656969
 20
23.50782380822892
 30
0.0
 11
15.100000214656969
 21
23.50782380822892
 31
0.0
  0
LINE
  5
CB1
  8
0
  6
CONTINUOUS
 10
17.100000214656969
 20
19.00782380822892
 30
0.0
 11
15.100000214656969
 21
19.00782380822892
 31
0.0
  0
LINE
  5
CB2
  8
0
  6
CONTINUOUS
 10
1.500000214657524
 20
33.007822808228582
 30
0.0
 11
0.5000002146575242
 21
33.007822808228582
 31
0.0
  0
LINE
  5
CB3
  8
0
  6
CONTINUOUS
 10
0.5000002146575242
 20
33.007822808228582
 30
0.0
 11
0.5000002146575243
 21
34.515705808228802
 31
0.0
  0
ARC
  5
CB4
  8
0
  6
CONTINUOUS
 10
1.000000214657524
 20
34.515705808228802
 30
0.0
 40
0.5
 50
89.117178999979487
 51
180.0
  0
LINE
  5
CB5
  8
0
  6
CONTINUOUS
 10
1.5000002146575371
 20
103.3900048082279
 30
0.0
 11
1.5000002146575371
 21
108.39132880822871
 31
0.0
  0
ARC
  5
CB6
  8
0
  6
CONTINUOUS
 10
1.500000214657538
 20
109.39157580822859
 30
0.0
 40
1.0
 50
180.0
 51
271.31099500000022
  0
LINE
  5
CB7
  8
0
  6
CONTINUOUS
 10
1.500000214657524
 20
33.007822808228582
 30
0.0
 11
1.500000214657518
 21
2.0078228082285809
 31
0.0
  0
LINE
  5
CB8
  8
0
  6
CONTINUOUS
 10
27.100000214656969
 20
23.50782380822892
 30
0.0
 11
27.100000214656969
 21
11.50782380822892
 31
0.0
  0
LINE
  5
CB9
  8
0
  6
CONTINUOUS
 10
23.100000214656969
 20
23.50782380822892
 30
0.0
 11
23.100000214656969
 21
11.50782380822892
 31
0.0
  0
LINE
  5
CBA
  8
0
  6
CONTINUOUS
 10
9.1000002146569745
 20
11.50782380822892
 30
0.0
 11
9.1000002146569763
 21
23.50782380822892
 31
0.0
  0
LINE
  5
CBB
  8
0
  6
CONTINUOUS
 10
7.1000002146569763
 20
23.50782380822892
 30
0.0
 11
7.1000002146569736
 21
11.50782380822892
 31
0.0
  0
LINE
  5
CBC
  8
0
  6
CONTINUOUS
 10
25.100000214656969
 20
11.50782380822892
 30
0.0
 11
25.100000214656969
 21
23.50782380822892
 31
0.0
  0
LINE
  5
CBD
  8
0
  6
CONTINUOUS
 10
1.5000002146575371
 20
103.3900048082279
 30
0.0
 11
67.122879214657075
 21
104.89179580822849
 31
0.0
  0
LINE
  5
CBE
  8
0
  6
CONTINUOUS
 10
1.5228792146567309
 20
108.3918378082282
 30
0.0
 11
60.967510214657032
 21
109.7522378082286
 31
0.0
  0
LINE
  5
CBF
  8
0
  6
CONTINUOUS
 10
29.100000214656969
 20
23.50782380822892
 30
0.0
 11
27.100000214656969
 21
23.50782380822892
 31
0.0
  0
LINE
  5
CC0
  8
0
  6
CONTINUOUS
 10
27.100000214656969
 20
11.50782380822892
 30
0.0
 11
29.100000214656969
 21
11.50782380822892
 31
0.0
  0
LINE
  5
CC1
  8
0
  6
CONTINUOUS
 10
66.190182214656886
 20
32.01098980822843
 30
0.0
 11
1.500000214657524
 21
33.007822808228582
 31
0.0
  0
LINE
  5
CC2
  8
0
  6
CONTINUOUS
 10
66.190182214656886
 20
3.0046568082281619
 30
0.0
 11
1.500000214657518
 21
2.0078228082285809
 31
0.0
  0
LINE
  5
CC3
  8
0
  6
CONTINUOUS
 10
60.960038214657693
 20
34.091819808228308
 30
0.0
 11
1.0077042146571731
 21
35.01564680822883
 31
0.0
  0
LINE
  5
CC4
  8
0
  6
CONTINUOUS
 10
60.960038214657679
 20
0.9238258082288552
 30
0.0
 11
1.007704214657166
 21
-0.0000001917713348
 31
0.0
  0
LINE
  5
CC5
  8
0
  6
CONTINUOUS
 10
60.796658214657732
 20
7.4220798082289434
 30
0.0
 11
1.5000002146575191
 21
6.508357808228709
 31
0.0
  0
LINE
  5
CC6
  8
0
  6
CONTINUOUS
 10
60.796659214657161
 20
27.59356580822822
 30
0.0
 11
1.5000002146575231
 21
28.50728880822788
 31
0.0
  0
LINE
  5
CC7
  8
0
  6
CONTINUOUS
 10
67.315674214657051
 20
203.8900048082279
 30
0.0
 11
68.100000214657015
 21
203.8900048082279
 31
0.0
  0
LINE
  5
CC8
  8
0
  6
CONTINUOUS
 10
68.100000214657015
 20
205.38847580822869
 30
0.0
 11
68.100000214657015
 21
203.8900048082279
 31
0.0
  0
LINE
  5
CC9
  8
0
  6
CONTINUOUS
 10
67.044631214657315
 20
206.3900048082279
 30
0.0
 11
67.044631214657315
 21
205.41262780822871
 31
0.0
  0
ARC
  5
CCA
  8
0
  6
CONTINUOUS
 10
66.044631214657315
 20
205.41262780822871
 30
0.0
 40
1.0
 50
0.0
 51
88.689004999999725
  0
ARC
  5
CCB
  8
0
  6
CONTINUOUS
 10
67.100000214657015
 20
205.38847580822869
 30
0.0
 40
1.0
 50
0.0
 51
88.689004999999725
  0
ARC
  5
CCC
  8
0
  6
CONTINUOUS
 10
60.944631214656937
 20
200.5280328082282
 30
0.0
 40
1.0
 50
0.0
 51
88.689004999999725
  0
ARC
  5
CCD
  8
2_カバ_
  6
CONTINUOUS
 62
     7
 10
-31.89999978534297
 20
294.89313580822829
 30
0.0
 40
100.0
 50
351.66851200001781
 51
352.1601739999839
  0
LINE
  5
CCE
  8
2_カバ_
  6
CONTINUOUS
 62
     7
 10
67.044631214657329
 20
280.40313680822788
 30
0.0
 11
66.190182214656943
 21
280.38996980822878
 31
0.0
  0
ARC
  5
CCF
  8
0
  6
CONTINUOUS
 10
66.174774214657646
 20
281.38985080822852
 30
0.0
 40
1.0
 50
270.88282099996832
 51
352.16060200003398
  0
LINE
  5
CD0
  8
0
  6
CONTINUOUS
 10
61.944631214656951
 20
279.30902080822858
 30
0.0
 11
61.944631214656951
 21
280.3245488082286
 31
0.0
  0
ARC
  5
CD1
  8
0
  6
CONTINUOUS
 10
60.944631214656958
 20
279.30902080822858
 30
0.0
 40
1.0
 50
270.88282099996832
 51
0.0
  0
LINE
  5
CD2
  8
0
  6
CONTINUOUS
 10
53.100000214657022
 20
288.89313580822829
 30
0.0
 11
51.100000214657022
 21
288.89313580822829
 31
0.0
  0
LINE
  5
CD3
  8
0
  6
CONTINUOUS
 10
57.100000214657022
 20
288.89313580822829
 30
0.0
 11
55.100000214657022
 21
288.89313580822829
 31
0.0
  0
ARC
  5
CD4
  8
0
  6
CONTINUOUS
 10
60.765844214657129
 20
286.80715580822852
 30
0.0
 40
2.0
 50
270.88282099996832
 51
355.26714499998189
  0
ARC
  5
CD5
  8
2_カバ_
  6
CONTINUOUS
 62
     7
 10
-31.89999978534297
 20
294.89313580822829
 30
0.0
 40
100.0
 50
7.8398270000301871
 51
8.3314890000080322
  0
LINE
  5
CD6
  8
2_カバ_
  6
CONTINUOUS
 62
     7
 10
67.044631214657329
 20
309.38313680822841
 30
0.0
 11
66.190182214656943
 21
309.39630280822809
 31
0.0
  0
ARC
  5
CD7
  8
0
  6
CONTINUOUS
 10
66.174774214657646
 20
308.39642180822841
 30
0.0
 40
1.0
 50
7.8393999999920077
 51
89.117178999979487
  0
LINE
  5
CD8
  8
0
  6
CONTINUOUS
 10
51.10000021465703
 20
300.89313580822829
 30
0.0
 11
53.10000021465703
 21
300.89313580822829
 31
0.0
  0
LINE
  5
CD9
  8
0
  6
CONTINUOUS
 10
55.10000021465703
 20
300.89313580822829
 30
0.0
 11
57.100000214657022
 21
300.89313580822829
 31
0.0
  0
ARC
  5
CDA
  8
0
  6
CONTINUOUS
 10
60.944631214656972
 20
310.47725180822829
 30
0.0
 40
1.0
 50
0.0
 51
89.117178999979487
  0
LINE
  5
CDB
  8
0
  6
CONTINUOUS
 10
61.944631214656958
 20
310.47725180822829
 30
0.0
 11
61.944631214656958
 21
309.46172380822838
 31
0.0
  0
ARC
  5
CDC
  8
0
  6
CONTINUOUS
 10
60.7658432146577
 20
302.97911680822853
 30
0.0
 40
2.0
 50
4.7328559999833058
 51
89.117178999979487
  0
ARC
  5
CDD
  8
0
  6
CONTINUOUS
 10
-36.89999978534297
 20
294.89313580822829
 30
0.0
 40
100.0
 50
355.26714499998189
 51
4.7328559999833058
  0
LINE
  5
CDE
  8
0
  6
CONTINUOUS
 10
53.10000021465703
 20
300.89313580822829
 30
0.0
 11
53.100000214657022
 21
288.89313580822829
 31
0.0
  0
LINE
  5
CDF
  8
0
  6
CONTINUOUS
 10
51.100000214657022
 20
288.89313580822829
 30
0.0
 11
51.10000021465703
 21
300.89313580822829
 31
0.0
  0
LINE
  5
CE0
  8
0
  6
CONTINUOUS
 10
57.100000214657022
 20
300.89313580822829
 30
0.0
 11
57.100000214657022
 21
288.89313580822829
 31
0.0
  0
LINE
  5
CE1
  8
0
  6
CONTINUOUS
 10
55.100000214657022
 20
288.89313580822829
 30
0.0
 11
55.10000021465703
 21
300.89313580822829
 31
0.0
  0
LINE
  5
CE2
  8
0
  6
CONTINUOUS
 10
49.100000214657022
 20
288.89313580822829
 30
0.0
 11
47.100000214657022
 21
288.89313580822829
 31
0.0
  0
LINE
  5
CE3
  8
0
  6
CONTINUOUS
 10
45.100000214657022
 20
288.89313580822829
 30
0.0
 11
43.100000214657022
 21
288.89313580822829
 31
0.0
  0
LINE
  5
CE4
  8
0
  6
CONTINUOUS
 10
35.100000214657022
 20
288.89313680822858
 30
0.0
 11
37.100000214657022
 21
288.89313680822858
 31
0.0
  0
LINE
  5
CE5
  8
0
  6
CONTINUOUS
 10
31.100000214657019
 20
288.89313680822858
 30
0.0
 11
33.100000214657022
 21
288.89313680822858
 31
0.0
  0
LINE
  5
CE6
  8
0
  6
CONTINUOUS
 10
41.100000214657022
 20
288.89313580822829
 30
0.0
 11
39.100000214657022
 21
288.89313580822829
 31
0.0
  0
LINE
  5
CE7
  8
0
  6
CONTINUOUS
 10
47.100000214657022
 20
300.89313580822829
 30
0.0
 11
49.10000021465703
 21
300.89313580822829
 31
0.0
  0
LINE
  5
CE8
  8
0
  6
CONTINUOUS
 10
43.10000021465703
 20
300.89313580822829
 30
0.0
 11
45.100000214657022
 21
300.89313580822829
 31
0.0
  0
LINE
  5
CE9
  8
0
  6
CONTINUOUS
 10
35.10000021465703
 20
300.89313580822829
 30
0.0
 11
37.100000214657022
 21
300.89313580822829
 31
0.0
  0
LINE
  5
CEA
  8
0
  6
CONTINUOUS
 10
31.100000214657019
 20
300.89313580822829
 30
0.0
 11
33.10000021465703
 21
300.89313580822829
 31
0.0
  0
LINE
  5
CEB
  8
0
  6
CONTINUOUS
 10
39.10000021465703
 20
300.89313580822829
 30
0.0
 11
41.10000021465703
 21
300.89313580822829
 31
0.0
  0
LINE
  5
CEC
  8
0
  6
CONTINUOUS
 10
31.100000214657019
 20
288.89313680822858
 30
0.0
 11
31.100000214657019
 21
300.89313580822829
 31
0.0
  0
LINE
  5
CED
  8
0
  6
CONTINUOUS
 10
29.100000214657019
 20
300.89313580822829
 30
0.0
 11
29.100000214657019
 21
288.89313680822858
 31
0.0
  0
LINE
  5
CEE
  8
0
  6
CONTINUOUS
 10
37.100000214657022
 20
300.89313580822829
 30
0.0
 11
37.100000214657022
 21
288.89313680822858
 31
0.0
  0
LINE
  5
CEF
  8
0
  6
CONTINUOUS
 10
35.100000214657022
 20
288.89313680822858
 30
0.0
 11
35.10000021465703
 21
300.89313580822829
 31
0.0
  0
LINE
  5
CF0
  8
0
  6
CONTINUOUS
 10
47.100000214657022
 20
288.89313580822829
 30
0.0
 11
47.100000214657022
 21
300.89313580822829
 31
0.0
  0
LINE
  5
CF1
  8
0
  6
CONTINUOUS
 10
45.100000214657022
 20
300.89313580822829
 30
0.0
 11
45.100000214657022
 21
288.89313580822829
 31
0.0
  0
LINE
  5
CF2
  8
0
  6
CONTINUOUS
 10
43.100000214657022
 20
288.89313580822829
 30
0.0
 11
43.10000021465703
 21
300.89313580822829
 31
0.0
  0
LINE
  5
CF3
  8
0
  6
CONTINUOUS
 10
49.10000021465703
 20
300.89313580822829
 30
0.0
 11
49.100000214657022
 21
288.89313580822829
 31
0.0
  0
LINE
  5
CF4
  8
0
  6
CONTINUOUS
 10
33.10000021465703
 20
300.89313580822829
 30
0.0
 11
33.100000214657022
 21
288.89313680822858
 31
0.0
  0
LINE
  5
CF5
  8
0
  6
CONTINUOUS
 10
41.10000021465703
 20
300.89313580822829
 30
0.0
 11
41.100000214657022
 21
288.89313580822829
 31
0.0
  0
LINE
  5
CF6
  8
0
  6
CONTINUOUS
 10
39.100000214657022
 20
288.89313580822829
 30
0.0
 11
39.10000021465703
 21
300.89313580822829
 31
0.0
  0
ARC
  5
CF7
  8
0
  6
CONTINUOUS
 10
-31.89999978534297
 20
294.89313580822829
 30
0.0
 40
100.0
 50
352.16060200003398
 51
7.8393999999920077
  0
LINE
  5
CF8
  8
0
  6
CONTINUOUS
 10
6.4000002146571822
 20
150.6400048082279
 30
0.0
 11
8.5000002146575451
 21
150.6400048082279
 31
0.0
  0
ARC
  5
CF9
  8
0
  6
CONTINUOUS
 10
5.987500214657727
 20
152.1400048082279
 30
0.0
 40
0.8125
 50
300.51023700001969
 51
59.489762999980307
  0
LINE
  5
CFA
  8
0
  6
CONTINUOUS
 10
8.5000002146575468
 20
160.6400048082279
 30
0.0
 11
6.4000002146571831
 21
160.6400048082279
 31
0.0
  0
ARC
  5
CFB
  8
0
  6
CONTINUOUS
 10
5.9875002146577287
 20
159.1400048082279
 30
0.0
 40
0.8125
 50
300.51023700001969
 51
59.489762999980307
  0
LINE
  5
CFC
  8
0
  6
CONTINUOUS
 10
8.5000002146575468
 20
160.6400048082279
 30
0.0
 11
8.5000002146575451
 21
150.6400048082279
 31
0.0
  0
LINE
  5
CFD
  8
0
  6
CONTINUOUS
 10
6.4000002146571831
 20
160.6400048082279
 30
0.0
 11
6.4000002146571822
 21
150.6400048082279
 31
0.0
  0
ARC
  5
CFE
  8
0
  6
CONTINUOUS
 10
1.5000002146575551
 20
201.88843380822809
 30
0.0
 40
1.0
 50
88.689004999999725
 51
180.0
  0
LINE
  5
CFF
  8
0
  6
CONTINUOUS
 10
1.500000214657556
 20
207.8900048082279
 30
0.0
 11
1.5000002146575551
 21
202.8887148082286
 31
0.0
  0
LINE
  5
D00
  8
0
  6
CONTINUOUS
 10
1.5000002146575691
 20
279.39313680822869
 30
0.0
 11
0.5000002146575693
 21
279.39313680822869
 31
0.0
  0
LINE
  5
D01
  8
0
  6
CONTINUOUS
 10
0.5000002146575693
 20
279.39313680822869
 30
0.0
 11
0.5000002146575691
 21
277.88525380822841
 31
0.0
  0
ARC
  5
D02
  8
0
  6
CONTINUOUS
 10
1.0000002146575691
 20
277.88525380822841
 30
0.0
 40
0.5
 50
180.0
 51
270.88282099996832
  0
LINE
  5
D03
  8
0
  6
CONTINUOUS
 10
21.400000214657201
 20
288.99313680822809
 30
0.0
 11
17.400000214657201
 21
288.99313680822809
 31
0.0
  0
ARC
  5
D04
  8
0
  6
CONTINUOUS
 10
22.900000214657201
 20
292.79313680822833
 30
0.0
 40
0.5
 50
270.0
 51
0.0
  0
LINE
  5
D05
  8
0
  6
CONTINUOUS
 10
24.30000021465775
 20
291.21813680822851
 30
0.0
 11
24.30000021465775
 21
290.69313680822881
 31
0.0
  0
LINE
  5
D06
  8
0
  6
CONTINUOUS
 10
25.55000021465775
 20
291.21813680822851
 30
0.0
 11
24.30000021465775
 21
291.21813680822851
 31
0.0
  0
ARC
  5
D07
  8
0
  6
CONTINUOUS
 10
22.900000214657201
 20
293.79313680822833
 30
0.0
 40
0.5
 50
0.0
 51
89.999999999999986
  0
LINE
  5
D08
  8
0
  6
CONTINUOUS
 10
25.55000021465775
 20
295.36813680822809
 30
0.0
 11
24.30000021465775
 21
295.36813680822809
 31
0.0
  0
LINE
  5
D09
  8
0
  6
CONTINUOUS
 10
24.30000021465775
 20
295.99313680822809
 30
0.0
 11
24.30000021465775
 21
295.36813680822809
 31
0.0
  0
LINE
  5
D0A
  8
0
  6
CONTINUOUS
 10
23.400000214657211
 20
293.79313680822833
 30
0.0
 11
23.400000214657211
 21
292.79313680822833
 31
0.0
  0
LINE
  5
D0B
  8
0
  6
CONTINUOUS
 10
25.55000021465775
 20
295.36813680822809
 30
0.0
 11
25.55000021465775
 21
291.21813680822851
 31
0.0
  0
LINE
  5
D0C
  8
0
  6
CONTINUOUS
 10
20.000000214657572
 20
295.99313680822809
 30
0.0
 11
20.000000214657572
 21
294.29313680822833
 31
0.0
  0
LINE
  5
D0D
  8
0
  6
CONTINUOUS
 10
18.80000021465775
 20
295.99313680822809
 30
0.0
 11
18.80000021465775
 21
294.29313680822833
 31
0.0
  0
LINE
  5
D0E
  8
0
  6
CONTINUOUS
 10
24.30000021465775
 20
290.69313680822881
 30
0.0
 11
21.400000214657201
 21
290.69313680822881
 31
0.0
  0
LINE
  5
D0F
  8
0
  6
CONTINUOUS
 10
18.80000021465775
 20
292.29313680822833
 30
0.0
 11
18.80000021465775
 21
288.99313680822809
 31
0.0
  0
LINE
  5
D10
  8
0
  6
CONTINUOUS
 10
20.000000214657572
 20
292.29313680822833
 30
0.0
 11
20.000000214657572
 21
288.99313680822809
 31
0.0
  0
LINE
  5
D11
  8
0
  6
CONTINUOUS
 10
17.400000214657201
 20
290.69313680822881
 30
0.0
 11
17.400000214657201
 21
288.99313680822809
 31
0.0
  0
LINE
  5
D12
  8
0
  6
CONTINUOUS
 10
21.400000214657201
 20
290.69313680822881
 30
0.0
 11
21.400000214657201
 21
288.99313680822809
 31
0.0
  0
LINE
  5
D13
  8
0
  6
CONTINUOUS
 10
12.100000214657021
 20
288.89313580822829
 30
0.0
 11
11.100000214657021
 21
288.89313580822829
 31
0.0
  0
LINE
  5
D14
  8
0
  6
CONTINUOUS
 10
9.100000214657026
 20
288.89313580822829
 30
0.0
 11
7.1000002146570251
 21
288.89313580822829
 31
0.0
  0
LINE
  5
D15
  8
0
  6
CONTINUOUS
 10
14.50000021465757
 20
291.21813680822851
 30
0.0
 11
14.50000021465757
 21
290.69313680822881
 31
0.0
  0
LINE
  5
D16
  8
0
  6
CONTINUOUS
 10
14.50000021465757
 20
291.21813680822851
 30
0.0
 11
13.25000021465757
 21
291.21813680822851
 31
0.0
  0
ARC
  5
D17
  8
0
  6
CONTINUOUS
 10
15.900000214657201
 20
292.79313680822833
 30
0.0
 40
0.5
 50
180.0
 51
270.0
  0
LINE
  5
D18
  8
0
  6
CONTINUOUS
 10
14.50000021465757
 20
295.99313680822809
 30
0.0
 11
14.50000021465757
 21
295.36813680822809
 31
0.0
  0
LINE
  5
D19
  8
0
  6
CONTINUOUS
 10
14.50000021465757
 20
295.36813680822809
 30
0.0
 11
13.25000021465757
 21
295.36813680822809
 31
0.0
  0
ARC
  5
D1A
  8
0
  6
CONTINUOUS
 10
15.900000214657201
 20
293.79313680822833
 30
0.0
 40
0.5
 50
89.999999999999986
 51
180.0
  0
LINE
  5
D1B
  8
0
  6
CONTINUOUS
 10
15.400000214657201
 20
293.79313680822833
 30
0.0
 11
15.400000214657201
 21
292.79313680822833
 31
0.0
  0
LINE
  5
D1C
  8
0
  6
CONTINUOUS
 10
13.25000021465757
 20
295.36813680822809
 30
0.0
 11
13.25000021465757
 21
291.21813680822851
 31
0.0
  0
LINE
  5
D1D
  8
0
  6
CONTINUOUS
 10
22.900000214657201
 20
294.29313680822833
 30
0.0
 11
15.900000214657201
 21
294.29313680822833
 31
0.0
  0
LINE
  5
D1E
  8
0
  6
CONTINUOUS
 10
17.400000214657201
 20
290.69313680822881
 30
0.0
 11
14.50000021465757
 21
290.69313680822881
 31
0.0
  0
LINE
  5
D1F
  8
0
  6
CONTINUOUS
 10
22.900000214657201
 20
292.29313680822833
 30
0.0
 11
15.900000214657201
 21
292.29313680822833
 31
0.0
  0
LINE
  5
D20
  8
0
  6
CONTINUOUS
 10
24.30000021465775
 20
295.99313680822809
 30
0.0
 11
14.50000021465757
 21
295.99313680822809
 31
0.0
  0
LINE
  5
D21
  8
0
  6
CONTINUOUS
 10
23.100000214657019
 20
300.89313580822829
 30
0.0
 11
23.100000214657019
 21
297.79313680822833
 31
0.0
  0
LINE
  5
D22
  8
0
  6
CONTINUOUS
 10
25.100000214657019
 20
300.89313580822829
 30
0.0
 11
25.100000214657019
 21
297.79313680822833
 31
0.0
  0
LINE
  5
D23
  8
0
  6
CONTINUOUS
 10
25.100000214657019
 20
300.89313580822829
 30
0.0
 11
23.100000214657019
 21
300.89313580822829
 31
0.0
  0
LINE
  5
D24
  8
0
  6
CONTINUOUS
 10
25.100000214657019
 20
297.79313680822833
 30
0.0
 11
23.100000214657019
 21
297.79313680822833
 31
0.0
  0
LINE
  5
D25
  8
0
  6
CONTINUOUS
 10
21.100000214657019
 20
300.89313580822829
 30
0.0
 11
21.100000214657019
 21
297.79313680822833
 31
0.0
  0
LINE
  5
D26
  8
0
  6
CONTINUOUS
 10
19.100000214657019
 20
300.89313580822829
 30
0.0
 11
19.100000214657019
 21
297.79313680822833
 31
0.0
  0
LINE
  5
D27
  8
0
  6
CONTINUOUS
 10
17.100000214657019
 20
300.89313580822829
 30
0.0
 11
17.100000214657019
 21
297.79313680822833
 31
0.0
  0
LINE
  5
D28
  8
0
  6
CONTINUOUS
 10
21.100000214657019
 20
300.89313580822829
 30
0.0
 11
19.100000214657019
 21
300.89313580822829
 31
0.0
  0
LINE
  5
D29
  8
0
  6
CONTINUOUS
 10
21.100000214657019
 20
297.79313680822833
 30
0.0
 11
19.100000214657019
 21
297.79313680822833
 31
0.0
  0
LINE
  5
D2A
  8
0
  6
CONTINUOUS
 10
11.100000214657021
 20
300.89313580822829
 30
0.0
 11
13.100000214657021
 21
300.89313580822829
 31
0.0
  0
LINE
  5
D2B
  8
0
  6
CONTINUOUS
 10
13.100000214657021
 20
300.89313580822829
 30
0.0
 11
13.100000214657021
 21
297.79313680822833
 31
0.0
  0
LINE
  5
D2C
  8
0
  6
CONTINUOUS
 10
15.100000214657021
 20
300.89313580822829
 30
0.0
 11
15.100000214657021
 21
297.79313680822833
 31
0.0
  0
LINE
  5
D2D
  8
0
  6
CONTINUOUS
 10
12.100000214657021
 20
297.79313680822833
 30
0.0
 11
13.100000214657021
 21
297.79313680822833
 31
0.0
  0
LINE
  5
D2E
  8
0
  6
CONTINUOUS
 10
7.1000002146570269
 20
300.89313580822829
 30
0.0
 11
9.1000002146570278
 21
300.89313580822829
 31
0.0
  0
LINE
  5
D2F
  8
0
  6
CONTINUOUS
 10
17.100000214657019
 20
300.89313580822829
 30
0.0
 11
15.100000214657021
 21
300.89313580822829
 31
0.0
  0
LINE
  5
D30
  8
0
  6
CONTINUOUS
 10
17.100000214657019
 20
297.79313680822833
 30
0.0
 11
15.100000214657021
 21
297.79313680822833
 31
0.0
  0
LINE
  5
D31
  8
0
  6
CONTINUOUS
 10
27.100000214657019
 20
288.89313680822858
 30
0.0
 11
27.100000214657019
 21
300.89313580822829
 31
0.0
  0
LINE
  5
D32
  8
0
  6
CONTINUOUS
 10
11.100000214657021
 20
288.89313580822829
 30
0.0
 11
11.100000214657021
 21
300.89313580822829
 31
0.0
  0
LINE
  5
D33
  8
0
  6
CONTINUOUS
 10
9.1000002146570278
 20
300.89313580822829
 30
0.0
 11
9.100000214657026
 21
288.89313580822829
 31
0.0
  0
LINE
  5
D34
  8
0
  6
CONTINUOUS
 10
7.1000002146570251
 20
288.89313580822829
 30
0.0
 11
7.1000002146570269
 21
300.89313580822829
 31
0.0
  0
LINE
  5
D35
  8
0
  6
CONTINUOUS
 10
12.100000214657021
 20
288.89313680822858
 30
0.0
 11
12.100000214657021
 21
297.79313680822833
 31
0.0
  0
LINE
  5
D36
  8
0
  6
CONTINUOUS
 10
0.5000002146575751
 20
310.39313680822869
 30
0.0
 11
1.5000002146575739
 21
310.39313680822869
 31
0.0
  0
LINE
  5
D37
  8
0
  6
CONTINUOUS
 10
0.5000002146575751
 20
310.39313680822869
 30
0.0
 11
0.5000002146575753
 21
311.90101880822851
 31
0.0
  0
ARC
  5
D38
  8
0
  6
CONTINUOUS
 10
1.000000214657575
 20
311.90101880822851
 30
0.0
 40
0.5
 50
89.117178999979487
 51
180.0
  0
LINE
  5
D39
  8
0
  6
CONTINUOUS
 10
1.5000002146575691
 20
279.39313680822869
 30
0.0
 11
1.5000002146575739
 21
310.39313680822869
 31
0.0
  0
LINE
  5
D3A
  8
0
  6
CONTINUOUS
 10
66.190182214656943
 20
280.38996980822878
 30
0.0
 11
1.5000002146575691
 21
279.39313680822869
 31
0.0
  0
LINE
  5
D3B
  8
0
  6
CONTINUOUS
 10
66.190182214656943
 20
309.39630280822809
 30
0.0
 11
1.5000002146575739
 21
310.39313680822869
 31
0.0
  0
LINE
  5
D3C
  8
0
  6
CONTINUOUS
 10
60.960038214657743
 20
278.309139808228
 30
0.0
 11
1.007704214657217
 21
277.38531280822838
 31
0.0
  0
LINE
  5
D3D
  8
0
  6
CONTINUOUS
 10
60.96003821465775
 20
311.47713380822842
 30
0.0
 11
1.007704214657223
 21
312.40095980822849
 31
0.0
  0
LINE
  5
D3E
  8
0
  6
CONTINUOUS
 10
60.796658214657782
 20
304.97887980822833
 30
0.0
 11
1.5000002146575739
 21
305.89260180822851
 31
0.0
  0
LINE
  5
D3F
  8
0
  6
CONTINUOUS
 10
60.796659214657197
 20
284.80739380822808
 30
0.0
 11
1.5000002146575691
 21
283.89367080822842
 31
0.0
  0
LINE
  5
D40
  8
0
  6
CONTINUOUS
 10
1.500000214657556
 20
207.8900048082279
 30
0.0
 11
67.122879214657118
 21
206.38821380822819
 31
0.0
  0
LINE
  5
D41
  8
0
  6
CONTINUOUS
 10
1.522879214656748
 20
202.88817180822861
 30
0.0
 11
60.967510214657047
 21
201.5277718082281
 31
0.0
  0
LINE
  5
D42
  8
0
  6
CONTINUOUS
 10
27.100000214657019
 20
300.89313580822829
 30
0.0
 11
29.100000214657019
 21
300.89313580822829
 31
0.0
  0
LINE
  5
D43
  8
0
  6
CONTINUOUS
 10
27.100000214657019
 20
288.89313680822858
 30
0.0
 11
29.100000214657019
 21
288.89313680822858
 31
0.0
  0
LINE
  5
D44
  8
0
  6
CONTINUOUS
 10
67.315674214657051
 20
203.8900048082279
 30
0.0
 11
67.315674214657022
 21
107.3900048082279
 31
0.0
  0
LINE
  5
D45
  8
0
  6
CONTINUOUS
 10
67.800000214657743
 20
203.8900048082279
 30
0.0
 11
67.800000214657715
 21
107.3900048082279
 31
0.0
  0
LINE
  5
D46
  8
0
  6
CONTINUOUS
 10
0.5000002146575381
 20
109.39157580822859
 30
0.0
 11
0.5000002146575551
 21
201.88843380822809
 31
0.0
  0
LINE
  5
D47
  8
0
  6
CONTINUOUS
 10
61.94463121465693
 20
110.7519758082282
 30
0.0
 11
61.944631214656951
 21
200.5280328082282
 31
0.0
  0
LINE
  5
D48
  8
0
  6
CONTINUOUS
 10
67.044631214657315
 20
205.41262780822871
 30
0.0
 11
67.044631214657286
 21
105.867381808229
 31
0.0
  0
ENDSEC
  0
EOF
