  0
SECTION
  2
HEADER
  9
$ACADVER
  1
AC1014
  9
$ACADMAINTVER
 70
     9
  9
$DWGCODEPAGE
  3
ANSI_932
  9
$INSBASE
 10
0.0
 20
0.0
 30
0.0
  9
$EXTMIN
 10
52.63471746152138
 20
-0.1035526628742065
 30
0.0
  9
$EXTMAX
 10
456.3944052753567
 20
448.627333736705
 30
0.0
  9
$LIMMIN
 10
0.0
 20
0.0
  9
$LIMMAX
 10
420.0
 20
297.0
  9
$ORTHOMODE
 70
     1
  9
$REGENMODE
 70
     1
  9
$FILLMODE
 70
     1
  9
$QTEXTMODE
 70
     0
  9
$MIRRTEXT
 70
     1
  9
$DRAGMODE
 70
     2
  9
$LTSCALE
 40
1.0
  9
$OSMODE
 70
    55
  9
$ATTMODE
 70
     1
  9
$TEXTSIZE
 40
2.5
  9
$TRACEWID
 40
1.0
  9
$TEXTSTYLE
  7
STANDARD
  9
$CLAYER
  8
0
  9
$CELTYPE
  6
BYLAYER
  9
$CECOLOR
 62
   256
  9
$CELTSCALE
 40
1.0
  9
$DELOBJ
 70
     1
  9
$DISPSILH
 70
     0
  9
$DIMSCALE
 40
1.0
  9
$DIMASZ
 40
2.5
  9
$DIMEXO
 40
0.625
  9
$DIMDLI
 40
3.75
  9
$DIMRND
 40
0.0
  9
$DIMDLE
 40
0.0
  9
$DIMEXE
 40
1.25
  9
$DIMTP
 40
0.0
  9
$DIMTM
 40
0.0
  9
$DIMTXT
 40
2.5
  9
$DIMCEN
 40
2.5
  9
$DIMTSZ
 40
0.0
  9
$DIMTOL
 70
     0
  9
$DIMLIM
 70
     0
  9
$DIMTIH
 70
     0
  9
$DIMTOH
 70
     0
  9
$DIMSE1
 70
     0
  9
$DIMSE2
 70
     0
  9
$DIMTAD
 70
     1
  9
$DIMZIN
 70
     8
  9
$DIMBLK
  1

  9
$DIMASO
 70
     1
  9
$DIMSHO
 70
     1
  9
$DIMPOST
  1

  9
$DIMAPOST
  1

  9
$DIMALT
 70
     0
  9
$DIMALTD
 70
     3
  9
$DIMALTF
 40
0.03937007874016
  9
$DIMLFAC
 40
1.0
  9
$DIMTOFL
 70
     1
  9
$DIMTVP
 40
0.0
  9
$DIMTIX
 70
     0
  9
$DIMSOXD
 70
     0
  9
$DIMSAH
 70
     0
  9
$DIMBLK1
  1

  9
$DIMBLK2
  1

  9
$DIMSTYLE
  2
ISO-25
  9
$DIMCLRD
 70
     0
  9
$DIMCLRE
 70
     0
  9
$DIMCLRT
 70
     0
  9
$DIMTFAC
 40
1.0
  9
$DIMGAP
 40
0.625
  9
$DIMJUST
 70
     0
  9
$DIMSD1
 70
     0
  9
$DIMSD2
 70
     0
  9
$DIMTOLJ
 70
     0
  9
$DIMTZIN
 70
     8
  9
$DIMALTZ
 70
     0
  9
$DIMALTTZ
 70
     0
  9
$DIMFIT
 70
     3
  9
$DIMUPT
 70
     0
  9
$DIMUNIT
 70
     2
  9
$DIMDEC
 70
     2
  9
$DIMTDEC
 70
     2
  9
$DIMALTU
 70
     2
  9
$DIMALTTD
 70
     3
  9
$DIMTXSTY
  7
STANDARD
  9
$DIMAUNIT
 70
     0
  9
$LUNITS
 70
     2
  9
$LUPREC
 70
     4
  9
$SKETCHINC
 40
1.0
  9
$FILLETRAD
 40
10.0
  9
$AUNITS
 70
     0
  9
$AUPREC
 70
     0
  9
$MENU
  1
.
  9
$ELEVATION
 40
0.0
  9
$PELEVATION
 40
0.0
  9
$THICKNESS
 40
0.0
  9
$LIMCHECK
 70
     0
  9
$BLIPMODE
 70
     0
  9
$CHAMFERA
 40
10.0
  9
$CHAMFERB
 40
10.0
  9
$CHAMFERC
 40
20.0
  9
$CHAMFERD
 40
0.0
  9
$SKPOLY
 70
     0
  9
$TDCREATE
 40
2454944.842057245
  9
$TDUPDATE
 40
2455244.710286099
  9
$TDINDWG
 40
0.0053816319
  9
$TDUSRTIMER
 40
0.0053810995
  9
$USRTIMER
 70
     1
  9
$ANGBASE
 50
0.0
  9
$ANGDIR
 70
     0
  9
$PDMODE
 70
     0
  9
$PDSIZE
 40
0.0
  9
$PLINEWID
 40
0.0
  9
$COORDS
 70
     0
  9
$SPLFRAME
 70
     0
  9
$SPLINETYPE
 70
     6
  9
$SPLINESEGS
 70
     8
  9
$ATTDIA
 70
     0
  9
$ATTREQ
 70
     1
  9
$HANDLING
 70
 22529
  9
$HANDSEED
  5
F81
  9
$SURFTAB1
 70
     6
  9
$SURFTAB2
 70
     6
  9
$SURFTYPE
 70
     6
  9
$SURFU
 70
     6
  9
$SURFV
 70
     6
  9
$UCSNAME
  2

  9
$UCSORG
 10
0.0
 20
0.0
 30
0.0
  9
$UCSXDIR
 10
1.0
 20
0.0
 30
0.0
  9
$UCSYDIR
 10
0.0
 20
1.0
 30
0.0
  9
$PUCSNAME
  2

  9
$PUCSORG
 10
0.0
 20
0.0
 30
0.0
  9
$PUCSXDIR
 10
1.0
 20
0.0
 30
0.0
  9
$PUCSYDIR
 10
0.0
 20
1.0
 30
0.0
  9
$USERI1
 70
     0
  9
$USERI2
 70
     0
  9
$USERI3
 70
     0
  9
$USERI4
 70
     0
  9
$USERI5
 70
     0
  9
$USERR1
 40
0.0
  9
$USERR2
 40
0.0
  9
$USERR3
 40
0.0
  9
$USERR4
 40
0.0
  9
$USERR5
 40
0.0
  9
$WORLDVIEW
 70
     1
  9
$SHADEDGE
 70
     3
  9
$SHADEDIF
 70
    70
  9
$TILEMODE
 70
     1
  9
$MAXACTVP
 70
    64
  9
$PINSBASE
 10
0.0
 20
0.0
 30
0.0
  9
$PLIMCHECK
 70
     0
  9
$PEXTMIN
 10
1.000000000000000E+20
 20
1.000000000000000E+20
 30
1.000000000000000E+20
  9
$PEXTMAX
 10
-1.000000000000000E+20
 20
-1.000000000000000E+20
 30
-1.000000000000000E+20
  9
$PLIMMIN
 10
0.0
 20
0.0
  9
$PLIMMAX
 10
420.0
 20
297.0
  9
$UNITMODE
 70
     0
  9
$VISRETAIN
 70
     1
  9
$PLINEGEN
 70
     0
  9
$PSLTSCALE
 70
     1
  9
$TREEDEPTH
 70
  3020
  9
$PICKSTYLE
 70
     1
  9
$CMLSTYLE
  2
STANDARD
  9
$CMLJUST
 70
     0
  9
$CMLSCALE
 40
20.0
  9
$PROXYGRAPHICS
 70
     1
  9
$MEASUREMENT
 70
     1
  0
ENDSEC
  0
SECTION
  2
CLASSES
  0
CLASS
  1
ACDBDICTIONARYWDFLT
  2
AcDbDictionaryWithDefault
  3
AutoCAD 2000
 90
        0
280
     0
281
     0
  0
CLASS
  1
ACDBPLACEHOLDER
  2
AcDbPlaceHolder
  3
AutoCAD 2000
 90
        0
280
     0
281
     0
  0
CLASS
  1
LAYOUT
  2
AcDbLayout
  3
AutoCAD 2000
 90
        0
280
     0
281
     0
  0
CLASS
  1
DIMASSOC
  2
AcDbDimAssoc
  3
"AcDbDimAssoc|Product Desc:     AcDim ARX App For Dimension|Company:          Autodesk, Inc.|WEB Address:      www.autodesk.com"
 90
        0
280
     0
281
     0
  0
CLASS
  1
DICTIONARYVAR
  2
AcDbDictionaryVar
  3
AutoCAD 2000
 90
        0
280
     0
281
     0
  0
CLASS
  1
LONG_TRANSACTION
  2
AcDbLongTransaction
  3
AutoCAD 2000
 90
        0
280
     0
281
     0
  0
CLASS
  1
LWPOLYLINE
  2
AcDbPolyline
  3
AutoCAD 2000
 90
        0
280
     0
281
     1
  0
CLASS
  1
HATCH
  2
AcDbHatch
  3
AutoCAD 2000
 90
        0
280
     0
281
     1
  0
CLASS
  1
XRECORD
  2
AcDbXrecord
  3
AutoCAD 2000
 90
        0
280
     0
281
     0
  0
CLASS
  1
LONG_TRANSACTION
  2
AcDbLongTransaction
  3
AutoCAD 2000
 90
        0
280
     0
281
     0
  0
CLASS
  1
LWPOLYLINE
  2
AcDbPolyline
  3
AutoCAD 2000
 90
        0
280
     0
281
     1
  0
CLASS
  1
HATCH
  2
AcDbHatch
  3
AutoCAD 2000
 90
        0
280
     0
281
     1
  0
CLASS
  1
XRECORD
  2
AcDbXrecord
  3
AutoCAD 2000
 90
        0
280
     0
281
     0
  0
CLASS
  1
LONG_TRANSACTION
  2
AcDbLongTransaction
  3
AutoCAD 2000
 90
        0
280
     0
281
     0
  0
CLASS
  1
LWPOLYLINE
  2
AcDbPolyline
  3
AutoCAD 2000
 90
        0
280
     0
281
     1
  0
CLASS
  1
HATCH
  2
AcDbHatch
  3
AutoCAD 2000
 90
        0
280
     0
281
     1
  0
CLASS
  1
XRECORD
  2
AcDbXrecord
  3
AutoCAD 2000
 90
        0
280
     0
281
     0
  0
ENDSEC
  0
SECTION
  2
TABLES
  0
TABLE
  2
VPORT
  5
8
330
0
100
AcDbSymbolTable
 70
     2
  0
VPORT
  5
F5E
330
8
100
AcDbSymbolTableRecord
100
AcDbViewportTableRecord
  2
*ACTIVE
 70
     0
 10
0.0
 20
0.0
 11
1.0
 21
1.0
 12
254.5148420891023
 22
224.2599340104715
 13
0.0
 23
0.0
 14
10.0
 24
10.0
 15
10.0
 25
10.0
 16
0.0
 26
0.0
 36
1.0
 17
0.0
 27
0.0
 37
0.0
 40
452.3054317145118
 41
1.645751633986928
 42
50.0
 43
0.0
 44
0.0
 50
0.0
 51
0.0
 71
     0
 72
   100
 73
     1
 74
     3
 75
     0
 76
     0
 77
     0
 78
     0
  0
ENDTAB
  0
TABLE
  2
LTYPE
  5
5
330
0
100
AcDbSymbolTable
 70
     1
  0
LTYPE
  5
14
330
5
100
AcDbSymbolTableRecord
100
AcDbLinetypeTableRecord
  2
BYBLOCK
 70
     0
  3

 72
    65
 73
     0
 40
0.0
  0
LTYPE
  5
15
330
5
100
AcDbSymbolTableRecord
100
AcDbLinetypeTableRecord
  2
BYLAYER
 70
     0
  3

 72
    65
 73
     0
 40
0.0
  0
LTYPE
  5
16
330
5
100
AcDbSymbolTableRecord
100
AcDbLinetypeTableRecord
  2
CONTINUOUS
 70
     0
  3
Solid line
 72
    65
 73
     0
 40
0.0
  0
ENDTAB
  0
TABLE
  2
LAYER
  5
2
102
{ACAD_XDICTIONARY
360
D4
102
}
330
0
100
AcDbSymbolTable
 70
     3
  0
LAYER
  5
10
330
2
100
AcDbSymbolTableRecord
100
AcDbLayerTableRecord
  2
0
 70
     0
 62
     7
  6
CONTINUOUS
  0
LAYER
  5
D0
330
2
100
AcDbSymbolTableRecord
100
AcDbLayerTableRecord
  2
1
 70
     0
 62
     7
  6
CONTINUOUS
  0
LAYER
  5
D1
330
2
100
AcDbSymbolTableRecord
100
AcDbLayerTableRecord
  2
DEFPOINTS
 70
     0
 62
     7
  6
CONTINUOUS
  0
ENDTAB
  0
TABLE
  2
STYLE
  5
3
330
0
100
AcDbSymbolTable
 70
     1
  0
STYLE
  5
11
330
3
100
AcDbSymbolTableRecord
100
AcDbTextStyleTableRecord
  2
STANDARD
 70
     0
 40
0.0
 41
1.0
 50
0.0
 71
     0
 42
2.5
  3
txt
  4

  0
ENDTAB
  0
TABLE
  2
VIEW
  5
6
330
0
100
AcDbSymbolTable
 70
     0
  0
ENDTAB
  0
TABLE
  2
UCS
  5
7
330
0
100
AcDbSymbolTable
 70
     0
  0
ENDTAB
  0
TABLE
  2
APPID
  5
9
330
0
100
AcDbSymbolTable
 70
     1
  0
APPID
  5
12
330
9
100
AcDbSymbolTableRecord
100
AcDbRegAppTableRecord
  2
ACAD
 70
     0
  0
ENDTAB
  0
TABLE
  2
DIMSTYLE
  5
A
330
0
100
AcDbSymbolTable
 70
     1
  0
DIMSTYLE
105
27
330
A
100
AcDbSymbolTableRecord
100
AcDbDimStyleTableRecord
  2
ISO-25
 70
     0
  3

  4

  5

  6

  7

 40
1.0
 41
2.5
 42
0.625
 43
3.75
 44
1.25
 45
0.0
 46
0.0
 47
0.0
 48
0.0
140
2.5
141
2.5
142
0.0
143
0.03937007874016
144
1.0
145
0.0
146
1.0
147
0.625
 71
     0
 72
     0
 73
     0
 74
     0
 75
     0
 76
     0
 77
     1
 78
     8
170
     0
171
     3
172
     1
173
     0
174
     0
175
     0
176
     0
177
     0
178
     0
270
     2
271
     2
272
     2
273
     2
274
     3
340
11
275
     0
280
     0
281
     0
282
     0
283
     0
284
     8
285
     0
286
     0
287
     3
288
     0
  0
ENDTAB
  0
TABLE
  2
BLOCK_RECORD
  5
1
330
0
100
AcDbSymbolTable
 70
     3
  0
BLOCK_RECORD
  5
1F
102
{ACAD_XDICTIONARY
360
F21
102
}
330
1
100
AcDbSymbolTableRecord
100
AcDbBlockTableRecord
  2
*MODEL_SPACE
  0
BLOCK_RECORD
  5
1B
102
{ACAD_XDICTIONARY
360
F1F
102
}
330
1
100
AcDbSymbolTableRecord
100
AcDbBlockTableRecord
  2
*PAPER_SPACE
  0
BLOCK_RECORD
  5
31
330
1
100
AcDbSymbolTableRecord
100
AcDbBlockTableRecord
  2
A$C09634F3C
  0
BLOCK_RECORD
  5
3B
330
1
100
AcDbSymbolTableRecord
100
AcDbBlockTableRecord
  2
A$C2DD26419
  0
ENDTAB
  0
ENDSEC
  0
SECTION
  2
BLOCKS
  0
BLOCK
  5
20
330
1F
100
AcDbEntity
  8
0
100
AcDbBlockBegin
  2
*MODEL_SPACE
 70
     0
 10
0.0
 20
0.0
 30
0.0
  3
*MODEL_SPACE
  1

  0
ENDBLK
  5
21
330
1F
100
AcDbEntity
  8
0
100
AcDbBlockEnd
  0
BLOCK
  5
1C
330
1B
100
AcDbEntity
 67
     1
  8
0
100
AcDbBlockBegin
  2
*PAPER_SPACE
 70
     0
 10
0.0
 20
0.0
 30
0.0
  3
*PAPER_SPACE
  1

  0
ENDBLK
  5
1D
330
1B
100
AcDbEntity
 67
     1
  8
0
100
AcDbBlockEnd
  0
BLOCK
  5
39
330
31
100
AcDbEntity
  8
0
100
AcDbBlockBegin
  2
A$C09634F3C
 70
     0
 10
0.0
 20
0.0
 30
0.0
  3
A$C09634F3C
  1

  0
CIRCLE
  5
32
330
31
100
AcDbEntity
  8
1
100
AcDbCircle
 10
2.749999557347535
 20
2.749999489143874
 30
0.0
 40
2.75
  0
LINE
  5
33
330
31
100
AcDbEntity
  8
1
100
AcDbLine
 10
1.595299018968376
 20
2.749999489143903
 30
0.0
 11
2.172649288157912
 21
1.749999489143874
 31
0.0
  0
LINE
  5
34
330
31
100
AcDbEntity
  8
1
100
AcDbLine
 10
2.17264928815794
 20
3.749999489143872
 30
0.0
 11
3.327349826537215
 21
3.749999489143903
 31
0.0
  0
LINE
  5
35
330
31
100
AcDbEntity
  8
1
100
AcDbLine
 10
1.59529901896829
 20
2.749999489143845
 30
0.0
 11
2.17264928815794
 21
3.749999489143872
 31
0.0
  0
LINE
  5
36
330
31
100
AcDbEntity
  8
1
100
AcDbLine
 10
3.327349826537242
 20
3.749999489143846
 30
0.0
 11
3.904700095726866
 21
2.749999489143903
 31
0.0
  0
LINE
  5
37
330
31
100
AcDbEntity
  8
1
100
AcDbLine
 10
3.327349826537128
 20
1.749999489143874
 30
0.0
 11
3.904700095726808
 21
2.749999489143874
 31
0.0
  0
LINE
  5
38
330
31
100
AcDbEntity
  8
1
100
AcDbLine
 10
2.17264928815797
 20
1.749999489143844
 30
0.0
 11
3.327349826537128
 21
1.749999489143815
 31
0.0
  0
ENDBLK
  5
3A
330
31
100
AcDbEntity
  8
0
100
AcDbBlockEnd
  0
BLOCK
  5
43
330
3B
100
AcDbEntity
  8
0
100
AcDbBlockBegin
  2
A$C2DD26419
 70
     0
 10
0.0
 20
0.0
 30
0.0
  3
A$C2DD26419
  1

  0
CIRCLE
  5
3C
330
3B
100
AcDbEntity
  8
1
100
AcDbCircle
 10
2.749997376993633
 20
2.749999174305229
 30
0.0
 40
2.75
  0
LINE
  5
3D
330
3B
100
AcDbEntity
  8
1
100
AcDbLine
 10
2.028309540506596
 20
1.499999174305173
 30
0.0
 11
3.471685213480441
 21
1.499999174305115
 31
0.0
  0
LINE
  5
3E
330
3B
100
AcDbEntity
  8
1
100
AcDbLine
 10
3.471685213480895
 20
1.499999174305173
 30
0.0
 11
4.193373049967703
 21
2.749999174304718
 31
0.0
  0
LINE
  5
3F
330
3B
100
AcDbEntity
  8
1
100
AcDbLine
 10
3.471685213480212
 20
3.999999174305228
 30
0.0
 11
4.193373049967474
 21
2.74999917430506
 31
0.0
  0
LINE
  5
40
330
3B
100
AcDbEntity
  8
1
100
AcDbLine
 10
1.306621704019562
 20
2.749999174304718
 30
0.0
 11
2.028309540507279
 21
3.999999174305287
 31
0.0
  0
LINE
  5
41
330
3B
100
AcDbEntity
  8
1
100
AcDbLine
 10
2.028309540506823
 20
3.999999174305228
 30
0.0
 11
3.471685213480212
 21
3.999999174305228
 31
0.0
  0
LINE
  5
42
330
3B
100
AcDbEntity
  8
1
100
AcDbLine
 10
1.306621704019789
 20
2.749999174304945
 30
0.0
 11
2.02830954050637
 21
1.499999174305173
 31
0.0
  0
ENDBLK
  5
44
330
3B
100
AcDbEntity
  8
0
100
AcDbBlockEnd
  0
ENDSEC
  0
SECTION
  2
ENTITIES
  0
LINE
  5
639
330
1F
100
AcDbEntity
  8
1
  6
CONTINUOUS
100
AcDbLine
 10
318.0362482089181
 20
262.9391784959973
 30
0.0
 11
311.0262455883999
 21
262.9391784959973
 31
0.0
  0
LINE
  5
63A
330
1F
100
AcDbEntity
  8
1
  6
CONTINUOUS
100
AcDbLine
 10
318.0312470066924
 20
247.2391809517085
 30
0.0
 11
309.531247476079
 21
247.2391809517085
 31
0.0
  0
LINE
  5
63B
330
1F
100
AcDbEntity
  8
1
  6
CONTINUOUS
100
AcDbLine
 10
318.0312470066924
 20
261.377972661847
 30
0.0
 11
311.0312467906255
 21
261.377972661847
 31
0.0
  0
LINE
  5
63C
330
1F
100
AcDbEntity
  8
1
  6
CONTINUOUS
100
AcDbLine
 10
309.531247476079
 20
178.239178954953
 30
0.0
 11
318.0312470066924
 21
178.239178954953
 31
0.0
  0
LINE
  5
63D
330
1F
100
AcDbEntity
  8
1
  6
CONTINUOUS
100
AcDbLine
 10
305.0312476697941
 20
157.7391783887089
 30
0.0
 11
326.0312469210106
 21
157.7391783887089
 31
0.0
  0
LINE
  5
63E
330
1F
100
AcDbEntity
  8
1
  6
CONTINUOUS
100
AcDbLine
 10
326.0312469210106
 20
157.7391783887089
 30
0.0
 11
305.0312476697941
 21
157.7391783887089
 31
0.0
  0
LINE
  5
63F
330
1F
100
AcDbEntity
  8
1
  6
CONTINUOUS
100
AcDbLine
 10
305.0312476697941
 20
157.7391783887089
 30
0.0
 11
326.0312469210106
 21
157.7391783887089
 31
0.0
  0
LINE
  5
640
330
1F
100
AcDbEntity
  8
1
  6
CONTINUOUS
100
AcDbLine
 10
305.0312476697941
 20
157.7391783887089
 30
0.0
 11
326.0312469210106
 21
157.7391783887089
 31
0.0
  0
LINE
  5
641
330
1F
100
AcDbEntity
  8
1
  6
CONTINUOUS
100
AcDbLine
 10
305.0312476697941
 20
157.7391783887089
 30
0.0
 11
318.5312470886488
 21
157.7391783887089
 31
0.0
  0
LINE
  5
642
330
1F
100
AcDbEntity
  8
1
  6
CONTINUOUS
100
AcDbLine
 10
318.5312470886488
 20
157.7391783887089
 30
0.0
 11
305.0312476697941
 21
157.7391783887089
 31
0.0
  0
LINE
  5
643
330
1F
100
AcDbEntity
  8
1
  6
CONTINUOUS
100
AcDbLine
 10
326.0312469210106
 20
157.7391783887089
 30
0.0
 11
305.0312476697941
 21
157.7391783887089
 31
0.0
  0
LINE
  5
644
330
1F
100
AcDbEntity
  8
1
  6
CONTINUOUS
100
AcDbLine
 10
305.0312476697941
 20
157.7391783887089
 30
0.0
 11
326.0312469210106
 21
157.7391783887089
 31
0.0
  0
LINE
  5
64F
330
1F
100
AcDbEntity
  8
1
  6
CONTINUOUS
100
AcDbLine
 10
56.7382065691454
 20
155.3634405130089
 30
0.0
 11
56.7382065691454
 21
160.4699976736249
 31
0.0
  0
LINE
  5
651
330
1F
100
AcDbEntity
  8
1
  6
CONTINUOUS
100
AcDbLine
 10
299.0312466863173
 20
164.3208275729359
 30
0.0
 11
299.0312466863173
 21
158.2358713442029
 31
0.0
  0
LINE
  5
652
330
1F
100
AcDbEntity
  8
1
  6
CONTINUOUS
100
AcDbLine
 10
248.8049977131454
 20
158.2391794019879
 30
0.0
 11
248.8049977131454
 21
165.8314923936069
 31
0.0
  0
LINE
  5
653
330
1F
100
AcDbEntity
  8
1
  6
CONTINUOUS
100
AcDbLine
 10
236.8049980744986
 20
164.0504311019124
 30
0.0
 11
236.8049980744986
 21
158.2391794019879
 31
0.0
  0
LINE
  5
654
330
1F
100
AcDbEntity
  8
1
  6
CONTINUOUS
100
AcDbLine
 10
233.8049980484214
 20
158.2391794019879
 30
0.0
 11
233.8049980484214
 21
164.0504311019124
 31
0.0
  0
LINE
  5
655
330
1F
100
AcDbEntity
  8
1
  6
CONTINUOUS
100
AcDbLine
 10
221.8049979441133
 20
165.8314923936069
 30
0.0
 11
221.8049979441133
 21
158.2391794019879
 31
0.0
  0
LINE
  5
656
330
1F
100
AcDbEntity
  8
1
  6
CONTINUOUS
100
AcDbLine
 10
145.4382086284858
 20
158.2358713442029
 30
0.0
 11
145.4382086284858
 21
164.3208275729359
 31
0.0
  0
LINE
  5
657
330
1F
100
AcDbEntity
  8
1
  6
CONTINUOUS
100
AcDbLine
 10
118.4382083937923
 20
161.654618679875
 30
0.0
 11
118.4382083937923
 21
158.2391794019879
 31
0.0
  0
LINE
  5
658
330
1F
100
AcDbEntity
  8
1
  6
CONTINUOUS
100
AcDbLine
 10
52.73820963878461
 20
158.039176016444
 30
0.0
 11
52.73820963878461
 21
160.3634405130089
 31
0.0
  0
LINE
  5
659
330
1F
100
AcDbEntity
  8
1
  6
CONTINUOUS
100
AcDbLine
 10
56.7382065691454
 20
158.039176016444
 30
0.0
 11
56.7382065691454
 21
160.3634405130089
 31
0.0
  0
ELLIPSE
  5
65C
330
1F
100
AcDbEntity
  8
1
  6
CONTINUOUS
100
AcDbEllipse
 10
56.43820827383752
 20
155.3634386599385
 30
0.0
 11
0.3000000119209574
 21
0.0
 31
0.0
210
0.0
220
0.0
230
1.0
 40
0.4142135186617532
 41
4.712388980384695
 42
6.283185307179584
  0
LINE
  5
65D
330
1F
100
AcDbEntity
  8
1
  6
CONTINUOUS
100
AcDbLine
 10
56.7382065691454
 20
153.0391722911538
 30
0.0
 11
56.7382065691454
 21
153.0391760164441
 31
0.0
  0
ARC
  5
65E
330
1F
100
AcDbEntity
  8
1
  6
CONTINUOUS
100
AcDbCircle
 10
56.43820827383752
 20
153.0391741140743
 30
0.0
 40
0.3000000173526587
100
AcDbArc
 50
270.0
 51
0.0109029728516361
  0
LINE
  5
65F
330
1F
100
AcDbEntity
  8
1
  6
CONTINUOUS
100
AcDbLine
 10
56.7382065691454
 20
153.0391760164441
 30
0.0
 11
56.7382065691454
 21
155.3634405130089
 31
0.0
  0
ARC
  5
660
330
1F
100
AcDbEntity
  8
1
  6
CONTINUOUS
100
AcDbCircle
 10
56.43820827383752
 20
153.0391744966131
 30
0.0
 40
0.3000000119209858
100
AcDbArc
 50
270.0
 51
0.0
  0
LINE
  5
661
330
1F
100
AcDbEntity
  8
1
  6
CONTINUOUS
100
AcDbLine
 10
53.03820726651975
 20
152.7391746634186
 30
0.0
 11
56.43820894141025
 21
152.7391746634186
 31
0.0
  0
LINE
  5
662
330
1F
100
AcDbEntity
  8
1
  6
CONTINUOUS
100
AcDbLine
 10
52.73820963878461
 20
153.0391722911538
 30
0.0
 11
52.73820963878461
 21
153.0391760164441
 31
0.0
  0
ARC
  5
663
330
1F
100
AcDbEntity
  8
1
  6
CONTINUOUS
100
AcDbCircle
 10
53.03820829767937
 20
153.0391741140743
 30
0.0
 40
0.3000000173527155
100
AcDbArc
 50
179.9890968845113
 51
270.0
  0
LINE
  5
664
330
1F
100
AcDbEntity
  8
1
  6
CONTINUOUS
100
AcDbLine
 10
56.43820894141025
 20
152.7391746634186
 30
0.0
 11
53.03820726651975
 21
152.7391746634186
 31
0.0
  0
LINE
  5
665
330
1F
100
AcDbEntity
  8
1
  6
CONTINUOUS
100
AcDbLine
 10
52.73820963878461
 20
153.0391760164441
 30
0.0
 11
52.73820963878461
 21
155.3634405130089
 31
0.0
  0
ARC
  5
666
330
1F
100
AcDbEntity
  8
1
  6
CONTINUOUS
100
AcDbCircle
 10
53.03820829767937
 20
153.0391744966131
 30
0.0
 40
0.3000000119209005
100
AcDbArc
 50
180.0
 51
270.0
  0
LINE
  5
667
330
1F
100
AcDbEntity
  8
1
  6
CONTINUOUS
100
AcDbLine
 10
53.03820726651975
 20
155.2391760045229
 30
0.0
 11
56.43820894141025
 21
155.2391760045229
 31
0.0
  0
ELLIPSE
  5
668
330
1F
100
AcDbEntity
  8
1
  6
CONTINUOUS
100
AcDbEllipse
 10
53.03820829767937
 20
155.3634386599385
 30
0.0
 11
0.3000000119209289
 21
0.0
 31
0.0
210
0.0
220
0.0
230
1.0
 40
0.4142135186617927
 41
3.141592653588876
 42
4.712388980384695
  0
LINE
  5
669
330
1F
100
AcDbEntity
  8
1
  6
CONTINUOUS
100
AcDbLine
 10
52.73820963878461
 20
155.3634405130089
 30
0.0
 11
52.73820963878461
 21
157.439175992602
 31
0.0
  0
ARC
  5
66A
330
1F
100
AcDbEntity
  8
1
  6
CONTINUOUS
100
AcDbCircle
 10
53.03820829767937
 20
158.0391744966131
 30
0.0
 40
0.3000000119209005
100
AcDbArc
 50
180.0
 51
270.0
  0
LINE
  5
66B
330
1F
100
AcDbEntity
  8
1
  6
CONTINUOUS
100
AcDbLine
 10
56.43820894141025
 20
157.7391746634186
 30
0.0
 11
53.03820726651975
 21
157.7391746634186
 31
0.0
  0
ARC
  5
66C
330
1F
100
AcDbEntity
  8
1
  6
CONTINUOUS
100
AcDbCircle
 10
56.43820827383752
 20
158.0391744966131
 30
0.0
 40
0.3000000119209858
100
AcDbArc
 50
270.0
 51
0.0
  0
ARC
  5
66D
330
1F
100
AcDbEntity
  8
1
  6
CONTINUOUS
100
AcDbCircle
 10
53.03820829767937
 20
158.0391741140743
 30
0.0
 40
0.3000000173527155
100
AcDbArc
 50
179.9890968845113
 51
270.0
  0
LINE
  5
66E
330
1F
100
AcDbEntity
  8
1
  6
CONTINUOUS
100
AcDbLine
 10
52.73820963878461
 20
158.0391722911538
 30
0.0
 11
52.73820963878461
 21
158.039176016444
 31
0.0
  0
ARC
  5
66F
330
1F
100
AcDbEntity
  8
1
  6
CONTINUOUS
100
AcDbCircle
 10
56.43820827383752
 20
158.0391741140743
 30
0.0
 40
0.3000000173526587
100
AcDbArc
 50
270.0
 51
0.0109029728516361
  0
LINE
  5
670
330
1F
100
AcDbEntity
  8
1
  6
CONTINUOUS
100
AcDbLine
 10
56.7382065691454
 20
158.0391722911538
 30
0.0
 11
56.7382065691454
 21
158.039176016444
 31
0.0
  0
LINE
  5
671
330
1F
100
AcDbEntity
  8
1
  6
CONTINUOUS
100
AcDbLine
 10
53.03820726651975
 20
157.7391746634186
 30
0.0
 11
56.43820894141025
 21
157.7391746634186
 31
0.0
  0
LINE
  5
672
330
1F
100
AcDbEntity
  8
1
  6
CONTINUOUS
100
AcDbLine
 10
139.4382076450092
 20
157.7391783887089
 30
0.0
 11
144.9382076152069
 21
157.7391783887089
 31
0.0
  0
LINE
  5
673
330
1F
100
AcDbEntity
  8
1
  6
CONTINUOUS
100
AcDbLine
 10
139.4382076450092
 20
157.7391783887089
 30
0.0
 11
144.4382084645731
 21
157.7391783887089
 31
0.0
  0
LINE
  5
674
330
1F
100
AcDbEntity
  8
1
  6
CONTINUOUS
100
AcDbLine
 10
139.4382076450092
 20
157.7391783887089
 30
0.0
 11
144.4382084645731
 21
157.7391783887089
 31
0.0
  0
LINE
  5
675
330
1F
100
AcDbEntity
  8
1
  6
CONTINUOUS
100
AcDbLine
 10
118.4382083937923
 20
157.7391783887089
 30
0.0
 11
118.4382083937923
 21
158.2391794019879
 31
0.0
  0
LINE
  5
676
330
1F
100
AcDbEntity
  8
1
  6
CONTINUOUS
100
AcDbLine
 10
139.4382076450092
 20
157.7391783887089
 30
0.0
 11
118.4382083937923
 21
157.7391783887089
 31
0.0
  0
LINE
  5
677
330
1F
100
AcDbEntity
  8
1
  6
CONTINUOUS
100
AcDbLine
 10
118.4382083937923
 20
157.7391783887089
 30
0.0
 11
139.4382076450092
 21
157.7391783887089
 31
0.0
  0
LINE
  5
678
330
1F
100
AcDbEntity
  8
1
  6
CONTINUOUS
100
AcDbLine
 10
125.9382082261545
 20
157.7391783887089
 30
0.0
 11
139.4382076450092
 21
157.7391783887089
 31
0.0
  0
LINE
  5
679
330
1F
100
AcDbEntity
  8
1
  6
CONTINUOUS
100
AcDbLine
 10
118.4382083937923
 20
157.7391783887089
 30
0.0
 11
139.4382076450092
 21
157.7391783887089
 31
0.0
  0
SPLINE
  5
67A
330
1F
100
AcDbEntity
  8
1
  6
CONTINUOUS
100
AcDbSpline
210
0.0
220
0.0
230
1.0
 70
    12
 71
     3
 72
    11
 73
     7
 74
     0
 42
0.0000000001
 43
0.0000000001
 40
0.0
 40
0.0
 40
0.0
 40
0.0
 40
0.2796556731787743
 40
0.5592016096977556
 40
0.7796731127430533
 40
1.0
 40
1.0
 40
1.0
 40
1.0
 10
145.4382086284858
 20
158.2391794019879
 30
0.0
 41
1.0
 10
145.4287798849994
 20
158.1658016344788
 30
0.0
 41
1.0
 10
145.4099260978573
 20
158.0190748928371
 30
0.0
 41
1.0
 10
145.2759992250415
 20
157.8547391426789
 30
0.0
 41
1.0
 10
145.1111864259399
 20
157.7566653527149
 30
0.0
 41
1.0
 10
144.9958546062143
 20
157.7450061016669
 30
0.0
 41
1.0
 10
144.9382076152069
 20
157.7391783887089
 30
0.0
 41
1.0
  0
LINE
  5
67B
330
1F
100
AcDbEntity
  8
1
  6
CONTINUOUS
100
AcDbLine
 10
221.8049979441133
 20
62.20000075266806
 30
0.0
 11
221.8049979441133
 21
16.00000100300781
 31
0.0
  0
LINE
  5
67C
330
1F
100
AcDbEntity
  8
1
  6
CONTINUOUS
100
AcDbLine
 10
248.8049981788067
 20
16.00000100300781
 30
0.0
 11
248.8049981788067
 21
62.20000075266806
 31
0.0
  0
LINE
  5
67D
330
1F
100
AcDbEntity
  8
1
  6
CONTINUOUS
100
AcDbLine
 10
249.304998260763
 20
62.20000075266806
 30
0.0
 11
249.304998260763
 21
16.00000100300775
 31
0.0
  0
LINE
  5
67E
330
1F
100
AcDbEntity
  8
1
  6
CONTINUOUS
100
AcDbLine
 10
221.1635844001984
 20
16.0000007526678
 30
0.0
 11
249.4464130655436
 21
16.00000075266791
 31
0.0
  0
LINE
  5
67F
330
1F
100
AcDbEntity
  8
1
  6
CONTINUOUS
100
AcDbLine
 10
245.8049995497135
 20
0.0000021056935111
 30
0.0
 11
239.7049994346021
 21
0.0000021056935111
 31
0.0
  0
LINE
  5
680
330
1F
100
AcDbEntity
  8
1
  6
CONTINUOUS
100
AcDbLine
 10
245.8049995497135
 20
2.000002433519056
 30
0.0
 11
239.7049994346021
 21
2.000002433519056
 31
0.0
  0
LINE
  5
681
330
1F
100
AcDbEntity
  8
1
  6
CONTINUOUS
100
AcDbLine
 10
239.7049994346021
 20
3.00000073478668
 30
0.0
 11
245.8049995497135
 21
3.00000073478668
 31
0.0
  0
LINE
  5
682
330
1F
100
AcDbEntity
  8
1
  6
CONTINUOUS
100
AcDbLine
 10
247.955907196578
 20
3.999999036054532
 30
0.0
 11
238.8048451997605
 21
3.999999036054532
 31
0.0
  0
LINE
  5
683
330
1F
100
AcDbEntity
  8
1
  6
CONTINUOUS
100
AcDbLine
 10
221.1635830484597
 20
5.999999363880077
 30
0.0
 11
249.446412608799
 21
5.999999363880077
 31
0.0
  0
LINE
  5
684
330
1F
100
AcDbEntity
  8
1
  6
CONTINUOUS
100
AcDbLine
 10
221.1635842089394
 20
6.5000007526678
 30
0.0
 11
249.4464132568014
 21
6.5000007526678
 31
0.0
  0
LINE
  5
685
330
1F
100
AcDbEntity
  8
1
  6
CONTINUOUS
100
AcDbLine
 10
221.1635844001984
 20
16.0000007526678
 30
0.0
 11
220.3049981315571
 21
16.0000007526678
 31
0.0
  0
LINE
  5
686
330
1F
100
AcDbEntity
  8
1
  6
CONTINUOUS
100
AcDbLine
 10
238.3049983203676
 20
4.500000049333491
 30
0.0
 11
238.3049983203676
 21
5.999999363880077
 31
0.0
  0
ARC
  5
687
330
1F
100
AcDbEntity
  8
1
  6
CONTINUOUS
100
AcDbCircle
 10
235.1948390375214
 20
4.376610737485407
 30
0.0
 40
3.629755363299848
100
AcDbArc
 50
354.0444563627805
 51
1.948078701165495
  0
ARC
  5
688
330
1F
100
AcDbEntity
  8
1
  6
CONTINUOUS
100
AcDbCircle
 10
238.8050010704068
 20
4.500001786089566
 30
0.0
 40
0.500002750042146
100
AcDbArc
 50
180.0
 51
269.9996942619193
  0
ELLIPSE
  5
689
330
1F
100
AcDbEntity
  8
1
  6
CONTINUOUS
100
AcDbEllipse
 10
235.1264962305254
 20
3.700000740746361
 30
0.0
 11
0.0
 21
0.3000000119209289
 31
0.0
210
0.0
220
0.0
230
1.0
 40
0.4142135186617927
 41
4.712388980384695
 42
6.283185307179584
  0
LINE
  5
68A
330
1F
100
AcDbEntity
  8
1
  6
CONTINUOUS
100
AcDbLine
 10
237.4507603839306
 20
3.999999036054532
 30
0.0
 11
235.1264963530269
 21
3.999999036054532
 31
0.0
  0
LINE
  5
68B
330
1F
100
AcDbEntity
  8
1
  6
CONTINUOUS
100
AcDbLine
 10
237.4507613152531
 20
3.999999036054475
 30
0.0
 11
237.4507603839306
 21
3.999999036054532
 31
0.0
  0
LINE
  5
68C
330
1F
100
AcDbEntity
  8
1
  6
CONTINUOUS
100
AcDbLine
 10
232.304998733875
 20
5.999999363880077
 30
0.0
 11
232.304998733875
 21
4.500000049333491
 31
0.0
  0
ARC
  5
68D
330
1F
100
AcDbEntity
  8
1
  6
CONTINUOUS
100
AcDbCircle
 10
231.8049957900683
 20
4.500001979856278
 30
0.0
 40
0.5000029438099639
100
AcDbArc
 50
270.0003279419013
 51
0.0
  0
ARC
  5
68E
330
1F
100
AcDbEntity
  8
1
  6
CONTINUOUS
100
AcDbCircle
 10
235.4153991758526
 20
4.376619190968653
 30
0.0
 40
3.629996561115988
100
AcDbArc
 50
178.0521842969924
 51
185.9552806390641
  0
ARC
  5
68F
330
1F
100
AcDbEntity
  8
1
  6
CONTINUOUS
100
AcDbCircle
 10
237.4507603938504
 20
3.700000740746076
 30
0.0
 40
0.3000000119212132
100
AcDbArc
 50
0.0109033437965283
 51
90.000000000013
  0
ARC
  5
690
330
1F
100
AcDbEntity
  8
1
  6
CONTINUOUS
100
AcDbCircle
 10
237.4507612449929
 20
3.700000740746303
 30
0.0
 40
0.3000000119209574
100
AcDbArc
 50
359.9904098373245
 51
90.0
  0
LINE
  5
691
330
1F
100
AcDbEntity
  8
1
  6
CONTINUOUS
100
AcDbLine
 10
238.8049984023241
 20
3.999999036054532
 30
0.0
 11
237.5282995075254
 21
3.999999036054532
 31
0.0
  0
LINE
  5
692
330
1F
100
AcDbEntity
  8
1
  6
CONTINUOUS
100
AcDbLine
 10
237.7507603399722
 20
0.2999997334288764
 30
0.0
 11
237.7507603399722
 21
2.800001074533383
 31
0.0
  0
LINE
  5
693
330
1F
100
AcDbEntity
  8
1
  6
CONTINUOUS
100
AcDbLine
 10
237.9233549021451
 20
2.49999972150789
 30
0.0
 11
237.7507603399722
 21
2.49999972150789
 31
0.0
  0
LINE
  5
694
330
1F
100
AcDbEntity
  8
1
  6
CONTINUOUS
100
AcDbLine
 10
239.7049994346021
 20
-0.00000161959656
 30
0.0
 11
238.4550027221707
 21
-0.00000161959656
 31
0.0
  0
LINE
  5
695
330
1F
100
AcDbEntity
  8
1
  6
CONTINUOUS
100
AcDbLine
 10
238.4550027221707
 20
-0.00000161959656
 30
0.0
 11
237.9550031058756
 21
-0.00000161959656
 31
0.0
  0
LINE
  5
696
330
1F
100
AcDbEntity
  8
1
  6
CONTINUOUS
100
AcDbLine
 10
237.9550031058756
 20
1.900000740747373
 30
0.0
 11
237.7507603399722
 21
1.900000740747373
 31
0.0
  0
LINE
  5
697
330
1F
100
AcDbEntity
  8
1
  6
CONTINUOUS
100
AcDbLine
 10
237.9550031058756
 20
2.400001754026332
 30
0.0
 11
237.7507603399722
 21
2.400001754026332
 31
0.0
  0
ELLIPSE
  5
698
330
1F
100
AcDbEntity
  8
1
  6
CONTINUOUS
100
AcDbEllipse
 10
235.1264962305254
 20
0.3000007645882761
 30
0.0
 11
0.0
 21
0.3000000119209574
 31
0.0
210
0.0
220
0.0
230
1.0
 40
0.4142135186617532
 41
3.141592653589336
 42
4.712388980384695
  0
LINE
  5
699
330
1F
100
AcDbEntity
  8
1
  6
CONTINUOUS
100
AcDbLine
 10
237.4507603839306
 20
0.0000021056937385
 30
0.0
 11
235.1264963530269
 21
0.0000021056937385
 31
0.0
  0
ARC
  5
69A
330
1F
100
AcDbEntity
  8
1
  6
CONTINUOUS
100
AcDbCircle
 10
237.4507603938504
 20
0.3000007645882761
 30
0.0
 40
0.3000000119209005
100
AcDbArc
 50
270.0
 51
0.0109030300132763
  0
ARC
  5
69B
330
1F
100
AcDbEntity
  8
1
  6
CONTINUOUS
100
AcDbCircle
 10
237.4507601799764
 20
0.3000022656997316
 30
0.0
 40
0.3000001600060056
100
AcDbArc
 50
270.000038952276
 51
0.0
  0
LINE
  5
69C
330
1F
100
AcDbEntity
  8
1
  6
CONTINUOUS
100
AcDbLine
 10
237.4510113753645
 20
0.0000021056937385
 30
0.0
 11
237.9550031058756
 21
0.0000021056937385
 31
0.0
  0
LINE
  5
69D
330
1F
100
AcDbEntity
  8
1
  6
CONTINUOUS
100
AcDbLine
 10
237.7507603399722
 20
3.700001408319392
 30
0.0
 11
237.7507603399722
 21
0.2999997334288764
 31
0.0
  0
LINE
  5
69E
330
1F
100
AcDbEntity
  8
1
  6
CONTINUOUS
100
AcDbLine
 10
235.2507599301902
 20
0.2999997334288764
 30
0.0
 11
235.2507599301902
 21
3.700001408319392
 31
0.0
  0
LINE
  5
69F
330
1F
100
AcDbEntity
  8
1
  6
CONTINUOUS
100
AcDbLine
 10
237.7507612712946
 20
2.800001074533326
 30
0.0
 11
237.7507612712946
 21
3.700001408319335
 31
0.0
  0
LINE
  5
6A0
330
1F
100
AcDbEntity
  8
1
  6
CONTINUOUS
100
AcDbLine
 10
238.4550027221707
 20
3.999999036054532
 30
0.0
 11
238.4550027221707
 21
-0.00000161959656
 31
0.0
  0
LINE
  5
6A1
330
1F
100
AcDbEntity
  8
1
  6
CONTINUOUS
100
AcDbLine
 10
239.7049994346021
 20
3.999999036054532
 30
0.0
 11
239.7049994346021
 21
-0.00000161959656
 31
0.0
  0
LINE
  5
6A2
330
1F
100
AcDbEntity
  8
1
  6
CONTINUOUS
100
AcDbLine
 10
237.9550031058756
 20
3.999999036054532
 30
0.0
 11
237.9550031058756
 21
-0.00000161959656
 31
0.0
  0
ELLIPSE
  5
6A3
330
1F
100
AcDbEntity
  8
1
  6
CONTINUOUS
100
AcDbEllipse
 10
226.3750243778245
 20
3.700000740746361
 30
0.0
 11
0.0
 21
0.3000000119209574
 31
0.0
210
0.0
220
0.0
230
1.0
 40
0.4142136060844648
 41
0.0
 42
1.570796326794896
  0
ARC
  5
6A4
330
1F
100
AcDbEntity
  8
1
  6
CONTINUOUS
100
AcDbCircle
 10
224.0507604176928
 20
3.700000740746361
 30
0.0
 40
0.3000000173527724
100
AcDbArc
 50
90.0
 51
180.0
  0
LINE
  5
6A5
330
1F
100
AcDbEntity
  8
1
  6
CONTINUOUS
100
AcDbLine
 10
226.3750238947837
 20
3.999999036054532
 30
0.0
 11
224.0507612608638
 21
3.999999036054532
 31
0.0
  0
LINE
  5
6A6
330
1F
100
AcDbEntity
  8
1
  6
CONTINUOUS
100
AcDbLine
 10
223.9732323818175
 20
3.999999036054532
 30
0.0
 11
222.6540884606805
 21
3.999999036054532
 31
0.0
  0
LINE
  5
6A7
330
1F
100
AcDbEntity
  8
1
  6
CONTINUOUS
100
AcDbLine
 10
221.8049979441133
 20
4.500000049333491
 30
0.0
 11
221.8049979441133
 21
5.999999363880077
 31
0.0
  0
ARC
  5
6A8
330
1F
100
AcDbEntity
  8
1
  6
CONTINUOUS
100
AcDbCircle
 10
222.3049999523468
 20
4.500001044288409
 30
0.0
 40
0.5000020082348679
100
AcDbArc
 50
180.0
 51
269.9998859870209
  0
LINE
  5
6A9
330
1F
100
AcDbEntity
  8
1
  6
CONTINUOUS
100
AcDbLine
 10
222.6540884606805
 20
3.999999036054532
 30
0.0
 11
222.304997094747
 21
3.999999036054532
 31
0.0
  0
LINE
  5
6AA
330
1F
100
AcDbEntity
  8
1
  6
CONTINUOUS
100
AcDbLine
 10
220.3049986295666
 20
5.999999363880077
 30
0.0
 11
221.1635830484597
 21
5.999999363880077
 31
0.0
  0
LINE
  5
6AB
330
1F
100
AcDbEntity
  8
1
  6
CONTINUOUS
100
AcDbLine
 10
220.3049967669217
 20
6.500000377158698
 30
0.0
 11
220.3049967669217
 21
5.999999363879737
 31
0.0
  0
LINE
  5
6AC
330
1F
100
AcDbEntity
  8
1
  6
CONTINUOUS
100
AcDbLine
 10
220.3049986295666
 20
5.999999363880077
 30
0.0
 11
220.3049967669217
 21
5.999999363879737
 31
0.0
  0
ELLIPSE
  5
6AD
330
1F
100
AcDbEntity
  8
1
  6
CONTINUOUS
100
AcDbEllipse
 10
226.3750243778245
 20
0.3000007645882761
 30
0.0
 11
0.0
 21
0.3000000119209574
 31
0.0
210
0.0
220
0.0
230
1.0
 40
0.4142136060844648
 41
1.570796326794896
 42
3.141592653589792
  0
ARC
  5
6AE
330
1F
100
AcDbEntity
  8
1
  6
CONTINUOUS
100
AcDbCircle
 10
224.0507604176928
 20
0.3000007645882761
 30
0.0
 40
0.3000000173527724
100
AcDbArc
 50
180.0
 51
270.0
  0
LINE
  5
6AF
330
1F
100
AcDbEntity
  8
1
  6
CONTINUOUS
100
AcDbLine
 10
226.3750238947837
 20
0.0000021056937385
 30
0.0
 11
224.0507612608638
 21
0.0000021056937385
 31
0.0
  0
LINE
  5
6B0
330
1F
100
AcDbEntity
  8
1
  6
CONTINUOUS
100
AcDbLine
 10
223.7507599078385
 20
2.49999972150789
 30
0.0
 11
223.5781672083108
 21
2.49999972150789
 31
0.0
  0
LINE
  5
6B1
330
1F
100
AcDbEntity
  8
1
  6
CONTINUOUS
100
AcDbLine
 10
221.8049979441133
 20
2.000002433519171
 30
0.0
 11
221.8049979441133
 21
0.0000021056936248
 31
0.0
  0
LINE
  5
6B2
330
1F
100
AcDbEntity
  8
1
  6
CONTINUOUS
100
AcDbLine
 10
221.8049979441133
 20
-0.00000161959656
 30
0.0
 11
223.055002339956
 21
-0.00000161959656
 31
0.0
  0
LINE
  5
6B3
330
1F
100
AcDbEntity
  8
1
  6
CONTINUOUS
100
AcDbLine
 10
223.5550033532348
 20
1.900000740747373
 30
0.0
 11
223.5550033532348
 21
2.400001754026332
 31
0.0
  0
LINE
  5
6B4
330
1F
100
AcDbEntity
  8
1
  6
CONTINUOUS
100
AcDbLine
 10
223.5550033532348
 20
1.900000740747373
 30
0.0
 11
223.5550033532348
 21
0.0000021056937385
 31
0.0
  0
LINE
  5
6B5
330
1F
100
AcDbEntity
  8
1
  6
CONTINUOUS
100
AcDbLine
 10
223.5550033532348
 20
0.0000021056937385
 30
0.0
 11
223.055002339956
 21
-0.00000161959656
 31
0.0
  0
LINE
  5
6B6
330
1F
100
AcDbEntity
  8
1
  6
CONTINUOUS
100
AcDbLine
 10
223.7507599078385
 20
1.900000740747373
 30
0.0
 11
223.5550033532348
 21
1.900000740747373
 31
0.0
  0
LINE
  5
6B7
330
1F
100
AcDbEntity
  8
1
  6
CONTINUOUS
100
AcDbLine
 10
224.0507612608638
 20
0.0000021056937385
 30
0.0
 11
223.5550033532348
 21
0.0000021056937385
 31
0.0
  0
LINE
  5
6B8
330
1F
100
AcDbEntity
  8
1
  6
CONTINUOUS
100
AcDbLine
 10
223.7507599078385
 20
2.400001754026332
 30
0.0
 11
223.5550033532348
 21
2.400001754026332
 31
0.0
  0
LINE
  5
6B9
330
1F
100
AcDbEntity
  8
1
  6
CONTINUOUS
100
AcDbLine
 10
226.2507593862979
 20
3.700001408319392
 30
0.0
 11
226.2507593862979
 21
0.2999997334288764
 31
0.0
  0
LINE
  5
6BA
330
1F
100
AcDbEntity
  8
1
  6
CONTINUOUS
100
AcDbLine
 10
223.7507599078385
 20
0.2999997334288764
 30
0.0
 11
223.7507599078385
 21
3.700001408319392
 31
0.0
  0
LINE
  5
6BB
330
1F
100
AcDbEntity
  8
1
  6
CONTINUOUS
100
AcDbLine
 10
221.8049979441133
 20
5.999999363879737
 30
0.0
 11
221.8049979441133
 21
0.4999993936820604
 31
0.0
  0
LINE
  5
6BC
330
1F
100
AcDbEntity
  8
1
  6
CONTINUOUS
100
AcDbLine
 10
221.8049979441133
 20
0.0000021056937385
 30
0.0
 11
221.8049979441133
 21
4.500000049333491
 31
0.0
  0
LINE
  5
6BD
330
1F
100
AcDbEntity
  8
1
  6
CONTINUOUS
100
AcDbLine
 10
221.8049979441133
 20
4.50000004933338
 30
0.0
 11
221.8049979441133
 21
2.000002433519171
 31
0.0
  0
LINE
  5
6BE
330
1F
100
AcDbEntity
  8
1
  6
CONTINUOUS
100
AcDbLine
 10
221.8049979441133
 20
4.500000049333266
 30
0.0
 11
221.8049979441133
 21
0.499999393682174
 31
0.0
  0
LINE
  5
6BF
330
1F
100
AcDbEntity
  8
1
  6
CONTINUOUS
100
AcDbLine
 10
223.055002339956
 20
-0.00000161959656
 30
0.0
 11
223.055002339956
 21
3.999999036054532
 31
0.0
  0
LINE
  5
6C0
330
1F
100
AcDbEntity
  8
1
  6
CONTINUOUS
100
AcDbLine
 10
223.5550033532348
 20
3.999999036054532
 30
0.0
 11
223.5550033532348
 21
2.400001754026332
 31
0.0
  0
LINE
  5
6C1
330
1F
100
AcDbEntity
  8
1
  6
CONTINUOUS
100
AcDbLine
 10
223.5550033532348
 20
0.0000021056937385
 30
0.0
 11
223.5550033532348
 21
3.999999036054532
 31
0.0
  0
LINE
  5
6C2
330
1F
100
AcDbEntity
  8
1
  6
CONTINUOUS
100
AcDbLine
 10
235.1264963530269
 20
0.0000021056937385
 30
0.0
 11
226.3750238947837
 21
0.0000021056937385
 31
0.0
  0
LINE
  5
6C3
330
1F
100
AcDbEntity
  8
1
  6
CONTINUOUS
100
AcDbLine
 10
235.1264963530269
 20
3.999999036054532
 30
0.0
 11
226.3750238947837
 21
3.999999036054532
 31
0.0
  0
LINE
  5
6C4
330
1F
100
AcDbEntity
  8
1
  6
CONTINUOUS
100
AcDbLine
 10
220.3049986295666
 20
6.500000377158698
 30
0.0
 11
220.3049981315571
 21
16.0000007526678
 31
0.0
  0
LINE
  5
6C5
330
1F
100
AcDbEntity
  8
1
  6
CONTINUOUS
100
AcDbLine
 10
250.3049981315565
 20
16.0000007526678
 30
0.0
 11
249.4464130655436
 21
16.00000075266791
 31
0.0
  0
LINE
  5
6C6
330
1F
100
AcDbEntity
  8
1
  6
CONTINUOUS
100
AcDbLine
 10
248.8049981788067
 20
5.999999363880077
 30
0.0
 11
248.8049981788067
 21
4.500000049333491
 31
0.0
  0
ARC
  5
6C7
330
1F
100
AcDbEntity
  8
1
  6
CONTINUOUS
100
AcDbCircle
 10
248.3049954287675
 20
4.500001786089566
 30
0.0
 40
0.500002750042146
100
AcDbArc
 50
270.0003057380806
 51
0.0
  0
LINE
  5
6C8
330
1F
100
AcDbEntity
  8
1
  6
CONTINUOUS
100
AcDbLine
 10
248.3049980968503
 20
3.999999036054532
 30
0.0
 11
247.955907196578
 21
3.999999036054532
 31
0.0
  0
LINE
  5
6C9
330
1F
100
AcDbEntity
  8
1
  6
CONTINUOUS
100
AcDbLine
 10
250.3049979590146
 20
6.500000377159039
 30
0.0
 11
250.3049979590146
 21
5.999999363880077
 31
0.0
  0
LINE
  5
6CA
330
1F
100
AcDbEntity
  8
1
  6
CONTINUOUS
100
AcDbLine
 10
249.446412608799
 20
5.999999363880077
 30
0.0
 11
250.3049979590146
 21
5.999999363880077
 31
0.0
  0
ARC
  5
6CB
330
1F
100
AcDbEntity
  8
1
  6
CONTINUOUS
100
AcDbCircle
 10
248.3049977888631
 20
0.5000007526671199
 30
0.0
 40
0.5000000000005122
100
AcDbArc
 50
269.9999919141893
 51
0.0
  0
LINE
  5
6CC
330
1F
100
AcDbEntity
  8
1
  6
CONTINUOUS
100
AcDbLine
 10
248.8049977888636
 20
0.5000007526671199
 30
0.0
 11
248.8049977131454
 21
4.500000049333266
 31
0.0
  0
LINE
  5
6CD
330
1F
100
AcDbEntity
  8
1
  6
CONTINUOUS
100
AcDbLine
 10
245.8049995497135
 20
0.0000021056935111
 30
0.0
 11
245.8049995497135
 21
2.000002433519056
 31
0.0
  0
LINE
  5
6CE
330
1F
100
AcDbEntity
  8
1
  6
CONTINUOUS
100
AcDbLine
 10
245.8049995497135
 20
3.00000073478668
 30
0.0
 11
245.8049995497135
 21
2.000002433519056
 31
0.0
  0
LINE
  5
6CF
330
1F
100
AcDbEntity
  8
1
  6
CONTINUOUS
100
AcDbLine
 10
245.8049995497135
 20
3.00000073478668
 30
0.0
 11
245.8049995497135
 21
0.0000021056935111
 31
0.0
  0
LINE
  5
6D0
330
1F
100
AcDbEntity
  8
1
  6
CONTINUOUS
100
AcDbLine
 10
248.3049977183009
 20
0.0000007526671197
 30
0.0
 11
245.8049995497135
 21
0.0000021056935111
 31
0.0
  0
LINE
  5
6D1
330
1F
100
AcDbEntity
  8
1
  6
CONTINUOUS
100
AcDbLine
 10
250.3049988903371
 20
6.500000377159039
 30
0.0
 11
250.3049981315565
 21
16.0000007526678
 31
0.0
  0
LINE
  5
6D2
330
1F
100
AcDbEntity
  8
1
  6
CONTINUOUS
100
AcDbLine
 10
238.3049978547064
 20
104.2050852076815
 30
0.0
 11
238.3049978547064
 21
102.1999998585986
 31
0.0
  0
LINE
  5
6D3
330
1F
100
AcDbEntity
  8
1
  6
CONTINUOUS
100
AcDbLine
 10
238.3049978547064
 20
102.1999998585986
 30
0.0
 11
238.3049978547064
 21
104.7199836568639
 31
0.0
  0
LINE
  5
6D4
330
1F
100
AcDbEntity
  8
1
  6
CONTINUOUS
100
AcDbLine
 10
232.3049978025524
 20
102.1999998585986
 30
0.0
 11
232.3049978025524
 21
104.2051373617457
 31
0.0
  0
LINE
  5
6D5
330
1F
100
AcDbEntity
  8
1
  6
CONTINUOUS
100
AcDbLine
 10
232.3049978025524
 20
102.1999998585986
 30
0.0
 11
232.3049978025524
 21
104.7199836568639
 31
0.0
  0
ARC
  5
6D6
330
1F
100
AcDbEntity
  8
1
  6
CONTINUOUS
100
AcDbCircle
 10
235.3049997087068
 20
92.20000179152988
 30
0.0
 40
13.4999980044383
100
AcDbArc
 50
0.0
 51
74.3815078578607
  0
ARC
  5
6D7
330
1F
100
AcDbEntity
  8
1
  6
CONTINUOUS
100
AcDbCircle
 10
235.1187055372645
 20
92.25565867839192
 30
0.0
 40
13.31382393436532
100
AcDbArc
 50
117.9218282226982
 51
180.2395263723576
  0
ARC
  5
6D8
330
1F
100
AcDbEntity
  8
1
  6
CONTINUOUS
100
AcDbCircle
 10
242.8049983355534
 20
86.70000083434013
 30
0.0
 40
6.000000261055035
100
AcDbArc
 50
90.00000366238356
 51
180.0
  0
LINE
  5
6D9
330
1F
100
AcDbEntity
  8
1
  6
CONTINUOUS
100
AcDbLine
 10
247.3049978976022
 20
72.20000075266806
 30
0.0
 11
238.3049979456881
 21
72.20000075266795
 31
0.0
  0
ARC
  5
6DA
330
1F
100
AcDbEntity
  8
1
  6
CONTINUOUS
100
AcDbCircle
 10
242.8049979456877
 20
86.70000075266864
 30
0.0
 40
4.5
100
AcDbArc
 50
0.0
 51
180.0
  0
LINE
  5
6DB
330
1F
100
AcDbEntity
  8
1
  6
CONTINUOUS
100
AcDbLine
 10
249.4464126886636
 20
62.20000075266806
 30
0.0
 11
221.1635840233189
 21
62.20000075266806
 31
0.0
  0
ARC
  5
6DC
330
1F
100
AcDbEntity
  8
1
  6
CONTINUOUS
100
AcDbCircle
 10
231.4365941570558
 20
94.57568659167495
 30
0.0
 40
10.26200699308108
100
AcDbArc
 50
43.96684297201871
 51
47.98461469964961
  0
LINE
  5
6DD
330
1F
100
AcDbEntity
  8
1
  6
CONTINUOUS
100
AcDbLine
 10
238.3052707322208
 20
102.1999998585986
 30
0.0
 11
238.3049978547064
 21
102.1999998585986
 31
0.0
  0
ARC
  5
6DE
330
1F
100
AcDbEntity
  8
1
  6
CONTINUOUS
100
AcDbCircle
 10
239.3318007466073
 20
94.41191857189094
 30
0.0
 40
10.48970946835303
100
AcDbArc
 50
132.0594903056779
 51
135.9899798232672
  0
LINE
  5
6DF
330
1F
100
AcDbEntity
  8
1
  6
CONTINUOUS
100
AcDbLine
 10
238.3049978547064
 20
102.1999998585986
 30
0.0
 11
232.3049978025524
 21
102.1999998585986
 31
0.0
  0
LINE
  5
6E0
330
1F
100
AcDbEntity
  8
1
  6
CONTINUOUS
100
AcDbLine
 10
236.8049980744986
 20
73.70000077502004
 30
0.0
 11
233.8049980484214
 21
73.70000077502004
 31
0.0
  0
LINE
  5
6E1
330
1F
100
AcDbEntity
  8
1
  6
CONTINUOUS
100
AcDbLine
 10
236.8049980744986
 20
73.70000077502004
 30
0.0
 11
236.8049980744986
 21
80.70000099108687
 31
0.0
  0
LINE
  5
6E2
330
1F
100
AcDbEntity
  8
1
  6
CONTINUOUS
100
AcDbLine
 10
233.8049980484214
 20
80.70000099108687
 30
0.0
 11
236.8049980744986
 21
80.70000099108687
 31
0.0
  0
LINE
  5
6E3
330
1F
100
AcDbEntity
  8
1
  6
CONTINUOUS
100
AcDbLine
 10
237.8049977727501
 20
65.70000086070172
 30
0.0
 11
238.3049978547064
 21
65.70000086070172
 31
0.0
  0
LINE
  5
6E4
330
1F
100
AcDbEntity
  8
1
  6
CONTINUOUS
100
AcDbLine
 10
232.3049978025524
 20
65.70000086070172
 30
0.0
 11
232.8049978845088
 21
65.70000086070172
 31
0.0
  0
LINE
  5
6E5
330
1F
100
AcDbEntity
  8
1
  6
CONTINUOUS
100
AcDbLine
 10
232.3049978025524
 20
65.70000086070172
 30
0.0
 11
232.3049978025524
 21
71.7000004471945
 31
0.0
  0
LINE
  5
6E6
330
1F
100
AcDbEntity
  8
1
  6
CONTINUOUS
100
AcDbLine
 10
237.8049977727501
 20
65.70000086070172
 30
0.0
 11
232.8049978845088
 21
65.70000086070172
 31
0.0
  0
ARC
  5
6E7
330
1F
100
AcDbEntity
  8
1
  6
CONTINUOUS
100
AcDbCircle
 10
209.3526288770403
 20
97.6523698644446
 30
0.0
 40
34.22914464443305
100
AcDbArc
 50
314.4081803427324
 51
315.5918196572628
  0
ARC
  5
6E8
330
1F
100
AcDbEntity
  8
1
  6
CONTINUOUS
100
AcDbCircle
 10
206.3548249928972
 20
42.74982761146259
 30
0.0
 40
43.41804071527946
100
AcDbArc
 50
44.53343485848556
 51
45.46656514152135
  0
LINE
  5
6E9
330
1F
100
AcDbEntity
  8
1
  6
CONTINUOUS
100
AcDbLine
 10
232.3049979421588
 20
72.20000075266795
 30
0.0
 11
232.3049978025524
 21
79.2000016765403
 31
0.0
  0
LINE
  5
6EA
330
1F
100
AcDbEntity
  8
1
  6
CONTINUOUS
100
AcDbLine
 10
236.8049980744986
 20
86.70000011191836
 30
0.0
 11
236.8049980744986
 21
73.70000077502004
 31
0.0
  0
LINE
  5
6EB
330
1F
100
AcDbEntity
  8
1
  6
CONTINUOUS
100
AcDbLine
 10
233.8049980484214
 20
73.70000077502004
 30
0.0
 11
233.8049980484214
 21
86.70000011191836
 31
0.0
  0
LINE
  5
6EC
330
1F
100
AcDbEntity
  8
1
  6
CONTINUOUS
100
AcDbLine
 10
232.3049979456877
 20
86.70000075266864
 30
0.0
 11
232.3049978025524
 21
65.70000086070172
 31
0.0
  0
LINE
  5
6ED
330
1F
100
AcDbEntity
  8
1
  6
CONTINUOUS
100
AcDbLine
 10
238.3049978547064
 20
65.70000086070172
 30
0.0
 11
238.3049979456877
 21
86.70000075266864
 31
0.0
  0
LINE
  5
6EE
330
1F
100
AcDbEntity
  8
1
  6
CONTINUOUS
100
AcDbLine
 10
236.8049980744986
 20
80.70000099108687
 30
0.0
 11
236.8049980744986
 21
86.70000011191836
 31
0.0
  0
LINE
  5
6EF
330
1F
100
AcDbEntity
  8
1
  6
CONTINUOUS
100
AcDbLine
 10
232.3049978025524
 20
79.2000016765403
 30
0.0
 11
232.3049979456877
 21
86.70000075266864
 31
0.0
  0
LINE
  5
6F0
330
1F
100
AcDbEntity
  8
1
  6
CONTINUOUS
100
AcDbLine
 10
221.8049979441133
 20
92.20000008211604
 30
0.0
 11
221.8049979441133
 21
86.70000011191836
 31
0.0
  0
ARC
  5
6F1
330
1F
100
AcDbEntity
  8
1
  6
CONTINUOUS
100
AcDbCircle
 10
227.8049955044175
 20
86.70000115984237
 30
0.0
 40
5.999997560304445
100
AcDbArc
 50
148.6909876000559
 51
180.0
  0
ARC
  5
6F2
330
1F
100
AcDbEntity
  8
1
  6
CONTINUOUS
100
AcDbCircle
 10
227.8049968022924
 20
86.70000379621638
 30
0.0
 40
5.999997299178835
100
AcDbArc
 50
89.9999885983777
 51
148.6910155499334
  0
LINE
  5
6F3
330
1F
100
AcDbEntity
  8
1
  6
CONTINUOUS
100
AcDbLine
 10
221.8049979441133
 20
92.20000008211604
 30
0.0
 11
221.9246393673388
 21
93.69818331764212
 31
0.0
  0
ARC
  5
6F4
330
1F
100
AcDbEntity
  8
1
  6
CONTINUOUS
100
AcDbCircle
 10
227.804997261343
 20
86.70000177816508
 30
0.0
 40
5.999999317230037
100
AcDbArc
 50
89.99999298199261
 51
180.0
  0
ARC
  5
6F5
330
1F
100
AcDbEntity
  8
1
  6
CONTINUOUS
100
AcDbCircle
 10
221.804997933677
 20
86.70000075266855
 30
0.0
 40
0.5
100
AcDbArc
 50
90.0
 51
180.0
  0
ARC
  5
6F6
330
1F
100
AcDbEntity
  8
1
  6
CONTINUOUS
100
AcDbCircle
 10
228.3259703880435
 20
94.94119312350234
 30
0.0
 40
6.021218709240644
100
AcDbArc
 50
151.8565289152963
 51
165.9735605384165
  0
LINE
  5
6F7
330
1F
100
AcDbEntity
  8
1
  6
CONTINUOUS
100
AcDbLine
 10
221.8049979441133
 20
73.70000077502004
 30
0.0
 11
221.8049979441133
 21
82.20000030563346
 31
0.0
  0
LINE
  5
6F8
330
1F
100
AcDbEntity
  8
1
  6
CONTINUOUS
100
AcDbLine
 10
218.3049983017413
 20
73.70000077502004
 30
0.0
 11
219.1433823339905
 21
73.70000077502004
 31
0.0
  0
LINE
  5
6F9
330
1F
100
AcDbEntity
  8
1
  6
CONTINUOUS
100
AcDbLine
 10
221.3049987934795
 20
82.20000030563346
 30
0.0
 11
221.3049987934795
 21
73.70000077502004
 31
0.0
  0
LINE
  5
6FA
330
1F
100
AcDbEntity
  8
1
  6
CONTINUOUS
100
AcDbLine
 10
221.3049987934795
 20
73.7000007750197
 30
0.0
 11
221.3049987934795
 21
82.20000030563312
 31
0.0
  0
LINE
  5
6FB
330
1F
100
AcDbEntity
  8
1
  6
CONTINUOUS
100
AcDbLine
 10
219.1433823339905
 20
73.70000077502004
 30
0.0
 11
221.8049979441133
 21
73.70000077502004
 31
0.0
  0
LINE
  5
6FC
330
1F
100
AcDbEntity
  8
1
  6
CONTINUOUS
100
AcDbLine
 10
222.8049981080262
 20
65.70000086070172
 30
0.0
 11
222.304997094747
 21
65.70000086070172
 31
0.0
  0
LINE
  5
6FD
330
1F
100
AcDbEntity
  8
1
  6
CONTINUOUS
100
AcDbLine
 10
222.304997094747
 20
65.70000086070172
 30
0.0
 11
221.8049979441133
 21
65.70000086070172
 31
0.0
  0
LINE
  5
6FE
330
1F
100
AcDbEntity
  8
1
  6
CONTINUOUS
100
AcDbLine
 10
222.8049981080262
 20
65.70000086070172
 30
0.0
 11
223.30499725866
 21
65.70000086070172
 31
0.0
  0
LINE
  5
6FF
330
1F
100
AcDbEntity
  8
1
  6
CONTINUOUS
100
AcDbLine
 10
221.8049979441133
 20
65.70000086070172
 30
0.0
 11
221.804997944047
 21
73.20000075266865
 31
0.0
  0
LINE
  5
700
330
1F
100
AcDbEntity
  8
1
  6
CONTINUOUS
100
AcDbLine
 10
219.1433823339905
 20
65.70000086070172
 30
0.0
 11
218.3049983017413
 21
65.70000086070172
 31
0.0
  0
LINE
  5
701
330
1F
100
AcDbEntity
  8
1
  6
CONTINUOUS
100
AcDbLine
 10
220.3049979535149
 20
62.20000075266806
 30
0.0
 11
221.1635840233189
 21
62.20000075266806
 31
0.0
  0
LINE
  5
702
330
1F
100
AcDbEntity
  8
1
  6
CONTINUOUS
100
AcDbLine
 10
220.3049979535149
 20
62.20000075266806
 30
0.0
 11
220.3049986295666
 21
65.70000086070137
 31
0.0
  0
LINE
  5
703
330
1F
100
AcDbEntity
  8
1
  6
CONTINUOUS
100
AcDbLine
 10
221.804997944047
 20
73.20000075266865
 30
0.0
 11
219.14338179029
 21
73.20000075266865
 31
0.0
  0
LINE
  5
704
330
1F
100
AcDbEntity
  8
1
  6
CONTINUOUS
100
AcDbLine
 10
219.1433823339905
 20
65.70000086070172
 30
0.0
 11
221.8049979441133
 21
65.70000086070172
 31
0.0
  0
LINE
  5
705
330
1F
100
AcDbEntity
  8
1
  6
CONTINUOUS
100
AcDbLine
 10
221.804997944047
 20
73.20000075266865
 30
0.0
 11
221.8049979441133
 21
73.70000077502004
 31
0.0
  0
LINE
  5
706
330
1F
100
AcDbEntity
  8
1
  6
CONTINUOUS
100
AcDbLine
 10
218.3049983017413
 20
65.70000086070172
 30
0.0
 11
218.3049983017413
 21
73.70000077502004
 31
0.0
  0
LINE
  5
707
330
1F
100
AcDbEntity
  8
1
  6
CONTINUOUS
100
AcDbLine
 10
218.3049983017413
 20
73.7000007750197
 30
0.0
 11
218.3049983017413
 21
65.70000086070137
 31
0.0
  0
LINE
  5
708
330
1F
100
AcDbEntity
  8
1
  6
CONTINUOUS
100
AcDbLine
 10
221.8049979441133
 20
86.70000011191836
 30
0.0
 11
221.8049979441133
 21
65.70000086070172
 31
0.0
  0
LINE
  5
709
330
1F
100
AcDbEntity
  8
1
  6
CONTINUOUS
100
AcDbLine
 10
223.3049979456875
 20
86.70000075266864
 30
0.0
 11
223.30499725866
 21
65.70000086070172
 31
0.0
  0
LINE
  5
70A
330
1F
100
AcDbEntity
  8
1
  6
CONTINUOUS
100
AcDbLine
 10
221.8049979441133
 20
82.20000030563346
 30
0.0
 11
221.804997933677
 21
87.20000075266851
 31
0.0
  0
LINE
  5
70B
330
1F
100
AcDbEntity
  8
1
  6
CONTINUOUS
100
AcDbLine
 10
221.8049979441133
 20
73.7000007750197
 30
0.0
 11
221.8049979441133
 21
92.2000000821157
 31
0.0
  0
LINE
  5
70C
330
1F
100
AcDbEntity
  8
1
  6
CONTINUOUS
100
AcDbLine
 10
221.3049979336769
 20
86.70000075266855
 30
0.0
 11
221.3049987934795
 21
82.20000030563346
 31
0.0
  0
LINE
  5
70D
330
1F
100
AcDbEntity
  8
1
  6
CONTINUOUS
100
AcDbLine
 10
221.3049987934795
 20
82.20000030563312
 30
0.0
 11
221.3049979336769
 21
86.70000075266855
 31
0.0
  0
LINE
  5
70E
330
1F
100
AcDbEntity
  8
1
  6
CONTINUOUS
100
AcDbLine
 10
223.3049978976023
 20
72.20000075266795
 30
0.0
 11
223.3049979456875
 21
86.70000075266864
 31
0.0
  0
ARC
  5
70F
330
1F
100
AcDbEntity
  8
1
  6
CONTINUOUS
100
AcDbCircle
 10
227.8049979456877
 20
86.70000075266864
 30
0.0
 40
4.500000000000056
100
AcDbArc
 50
0.0
 51
180.0
  0
ARC
  5
710
330
1F
100
AcDbEntity
  8
1
  6
CONTINUOUS
100
AcDbCircle
 10
227.8049987311915
 20
86.70000177816508
 30
0.0
 40
5.999999317230052
100
AcDbArc
 50
0.0
 51
90.00000701800741
  0
ARC
  5
711
330
1F
100
AcDbEntity
  8
1
  6
CONTINUOUS
100
AcDbCircle
 10
227.8642033175151
 20
86.74643880841381
 30
0.0
 40
4.441037289966058
100
AcDbArc
 50
359.4008629892298
 51
90.76645213071792
  0
LINE
  5
712
330
1F
100
AcDbEntity
  8
1
  6
CONTINUOUS
100
AcDbLine
 10
232.3049979421588
 20
72.20000075266795
 30
0.0
 11
223.3049978976023
 21
72.20000075266795
 31
0.0
  0
ARC
  5
713
330
1F
100
AcDbEntity
  8
1
  6
CONTINUOUS
100
AcDbCircle
 10
242.8050039191161
 20
86.70000211167463
 30
0.0
 40
4.499994013821822
100
AcDbArc
 50
0.0
 51
42.83345902884382
  0
LINE
  5
714
330
1F
100
AcDbEntity
  8
1
  6
CONTINUOUS
100
AcDbLine
 10
248.8049977131454
 20
86.70000011191836
 30
0.0
 11
248.8049977131454
 21
92.20000008211604
 31
0.0
  0
ARC
  5
715
330
1F
100
AcDbEntity
  8
1
  6
CONTINUOUS
100
AcDbCircle
 10
248.804997933677
 20
86.70000072438426
 30
0.0
 40
0.5000000144771714
100
AcDbArc
 50
0.0
 51
90.00000324113768
  0
ARC
  5
716
330
1F
100
AcDbEntity
  8
1
  6
CONTINUOUS
100
AcDbCircle
 10
242.8049985896773
 20
86.70000197192701
 30
0.0
 40
5.999999123468063
100
AcDbArc
 50
0.0
 51
90.00000608909081
  0
ARC
  5
717
330
1F
100
AcDbEntity
  8
1
  6
CONTINUOUS
100
AcDbCircle
 10
242.9666014335348
 20
86.93681527155048
 30
0.0
 40
4.220969306540125
100
AcDbArc
 50
41.96743159503211
 51
92.23690061371614
  0
LINE
  5
718
330
1F
100
AcDbEntity
  8
1
  6
CONTINUOUS
100
AcDbLine
 10
248.8049977131454
 20
73.70000077502004
 30
0.0
 11
251.4666142545907
 21
73.70000077502004
 31
0.0
  0
LINE
  5
719
330
1F
100
AcDbEntity
  8
1
  6
CONTINUOUS
100
AcDbLine
 10
251.4666142545907
 20
73.70000077502004
 30
0.0
 11
252.3049982868399
 21
73.70000077502004
 31
0.0
  0
LINE
  5
71A
330
1F
100
AcDbEntity
  8
1
  6
CONTINUOUS
100
AcDbLine
 10
249.3049977951018
 20
73.70000077502004
 30
0.0
 11
249.3049977951018
 21
82.20000030563346
 31
0.0
  0
LINE
  5
71B
330
1F
100
AcDbEntity
  8
1
  6
CONTINUOUS
100
AcDbLine
 10
248.3049980968503
 20
65.70000086070172
 30
0.0
 11
247.8049980148939
 21
65.70000086070172
 31
0.0
  0
LINE
  5
71C
330
1F
100
AcDbEntity
  8
1
  6
CONTINUOUS
100
AcDbLine
 10
247.3049979329374
 20
65.70000086070172
 30
0.0
 11
247.8049980148939
 21
65.70000086070172
 31
0.0
  0
LINE
  5
71D
330
1F
100
AcDbEntity
  8
1
  6
CONTINUOUS
100
AcDbLine
 10
248.3049980968503
 20
65.70000086070172
 30
0.0
 11
248.8049977131454
 21
65.70000086070172
 31
0.0
  0
LINE
  5
71E
330
1F
100
AcDbEntity
  8
1
  6
CONTINUOUS
100
AcDbLine
 10
247.3049979329374
 20
71.7000004471945
 30
0.0
 11
247.3049979329374
 21
65.70000086070172
 31
0.0
  0
LINE
  5
71F
330
1F
100
AcDbEntity
  8
1
  6
CONTINUOUS
100
AcDbLine
 10
248.8049977131454
 20
65.70000086070172
 30
0.0
 11
251.4666142545907
 21
65.70000086070172
 31
0.0
  0
LINE
  5
720
330
1F
100
AcDbEntity
  8
1
  6
CONTINUOUS
100
AcDbLine
 10
252.3049982868399
 20
65.70000086070172
 30
0.0
 11
251.4666142545907
 21
65.70000086070172
 31
0.0
  0
LINE
  5
721
330
1F
100
AcDbEntity
  8
1
  6
CONTINUOUS
100
AcDbLine
 10
250.3049979535148
 20
62.20000075266806
 30
0.0
 11
250.3049984246759
 21
65.70000086070172
 31
0.0
  0
LINE
  5
722
330
1F
100
AcDbEntity
  8
1
  6
CONTINUOUS
100
AcDbLine
 10
249.4464126886636
 20
62.20000075266806
 30
0.0
 11
250.3049979535148
 21
62.20000075266806
 31
0.0
  0
LINE
  5
723
330
1F
100
AcDbEntity
  8
1
  6
CONTINUOUS
100
AcDbLine
 10
252.3049982868399
 20
73.70000077502004
 30
0.0
 11
252.3049982868399
 21
65.70000086070172
 31
0.0
  0
LINE
  5
724
330
1F
100
AcDbEntity
  8
1
  6
CONTINUOUS
100
AcDbLine
 10
247.3049979329374
 20
65.70000086070172
 30
0.0
 11
247.3049979456876
 21
86.70000075266864
 31
0.0
  0
LINE
  5
725
330
1F
100
AcDbEntity
  8
1
  6
CONTINUOUS
100
AcDbLine
 10
248.8049977131454
 20
65.70000086070172
 30
0.0
 11
248.8049977131454
 21
86.70000011191836
 31
0.0
  0
LINE
  5
726
330
1F
100
AcDbEntity
  8
1
  6
CONTINUOUS
100
AcDbLine
 10
247.3049979456876
 20
86.70000075266864
 30
0.0
 11
247.3049978976022
 21
72.20000075266806
 31
0.0
  0
LINE
  5
727
330
1F
100
AcDbEntity
  8
1
  6
CONTINUOUS
100
AcDbLine
 10
249.3049977951018
 20
82.20000030563346
 30
0.0
 11
249.3049979481543
 21
86.70000072438426
 31
0.0
  0
LINE
  5
728
330
1F
100
AcDbEntity
  8
1
  6
CONTINUOUS
100
AcDbLine
 10
237.304998156455
 20
157.7391783887089
 30
0.0
 11
242.8049979520296
 21
157.7391783887089
 31
0.0
  0
LINE
  5
729
330
1F
100
AcDbEntity
  8
1
  6
CONTINUOUS
100
AcDbLine
 10
239.5415430095313
 20
105.018021781902
 30
0.0
 11
240.5803064488141
 21
104.6266316072745
 31
0.0
  0
ARC
  5
72A
330
1F
100
AcDbEntity
  8
1
  6
CONTINUOUS
100
AcDbCircle
 10
233.3049954921484
 20
158.2391809449779
 30
0.0
 40
0.5000025562751321
100
AcDbArc
 50
270.0002835343118
 51
0.0
  0
ARC
  5
72B
330
1F
100
AcDbEntity
  8
1
  6
CONTINUOUS
100
AcDbCircle
 10
237.3049998980054
 20
158.2391802122133
 30
0.0
 40
0.5000018235076908
100
AcDbArc
 50
180.0
 51
269.9998004337192
  0
LINE
  5
72C
330
1F
100
AcDbEntity
  8
1
  6
CONTINUOUS
100
AcDbLine
 10
233.3049979664651
 20
157.7391783887089
 30
0.0
 11
237.304998156455
 21
157.7391783887089
 31
0.0
  0
ARC
  5
72D
330
1F
100
AcDbEntity
  8
1
  6
CONTINUOUS
100
AcDbCircle
 10
222.3049999523668
 20
158.2391803969549
 30
0.0
 40
0.5000020082544788
100
AcDbArc
 50
180.0
 51
269.9996725422153
  0
LINE
  5
72E
330
1F
100
AcDbEntity
  8
1
  6
CONTINUOUS
100
AcDbLine
 10
222.304997094747
 20
157.7391783887089
 30
0.0
 11
227.8049979962675
 21
157.7391783887089
 31
0.0
  0
LINE
  5
72F
330
1F
100
AcDbEntity
  8
1
  6
CONTINUOUS
100
AcDbLine
 10
227.8049979962675
 20
157.7391783887089
 30
0.0
 11
233.3049979664651
 21
157.7391783887089
 31
0.0
  0
LINE
  5
730
330
1F
100
AcDbEntity
  8
1
  6
CONTINUOUS
100
AcDbLine
 10
226.2507593862979
 20
157.7391746634186
 30
0.0
 11
235.2507599301902
 21
157.7391746634186
 31
0.0
  0
ARC
  5
731
330
1F
100
AcDbEntity
  8
1
  6
CONTINUOUS
100
AcDbCircle
 10
-37.73477660058414
 20
105.9241596712372
 30
0.0
 40
276.0551989250748
100
AcDbArc
 50
359.6431989858694
 51
359.7737053029008
  0
ARC
  5
732
330
1F
100
AcDbEntity
  8
1
  6
CONTINUOUS
100
AcDbCircle
 10
244.1298613440908
 20
104.4246007108283
 30
0.0
 40
5.825984207263642
100
AcDbArc
 50
175.9718654136868
 51
181.1238493302345
  0
LWPOLYLINE
  5
733
330
1F
100
AcDbEntity
  8
1
  6
CONTINUOUS
100
AcDbPolyline
 90
        9
 70
   128
 43
0.0
 10
238.3049978547064
 20
104.2050852076815
 10
238.315068711367
 20
104.2050777571009
 10
238.3447555497555
 20
104.2050703065201
 10
238.3930022500722
 20
104.20506658123
 10
238.4577110082175
 20
104.2050591306494
 10
238.5363751694826
 20
104.205055405359
 10
238.625900880274
 20
104.205055405359
 10
238.7227980092434
 20
104.2050516800687
 10
238.8225766502586
 20
104.2050516800687
  0
ARC
  5
734
330
1F
100
AcDbEntity
  8
1
  6
CONTINUOUS
100
AcDbCircle
 10
225.238611128454
 20
106.3056902368284
 30
0.0
 40
13.74542839069472
100
AcDbArc
 50
351.2093524659121
 51
355.3924902081742
  0
LINE
  5
735
330
1F
100
AcDbEntity
  8
1
  6
CONTINUOUS
100
AcDbLine
 10
238.3049978547064
 20
104.7199911074444
 30
0.0
 11
238.3049978547064
 21
104.2050852076815
 31
0.0
  0
ARC
  5
736
330
1F
100
AcDbEntity
  8
1
  6
CONTINUOUS
100
AcDbCircle
 10
238.8049961813821
 20
104.7199864685577
 30
0.0
 40
0.4999983266837421
100
AcDbArc
 50
74.38125795245936
 51
180.0
  0
ARC
  5
737
330
1F
100
AcDbEntity
  8
1
  6
CONTINUOUS
100
AcDbCircle
 10
238.7990965658886
 20
104.7239285809125
 30
0.0
 40
0.4941144592275971
100
AcDbArc
 50
89.3035853926473
 51
180.4574444155348
  0
ARC
  5
738
330
1F
100
AcDbEntity
  8
1
  6
CONTINUOUS
100
AcDbCircle
 10
226.4801343131674
 20
104.4246007108287
 30
0.0
 40
5.825984207263642
100
AcDbArc
 50
358.8761506697668
 51
4.028134586313136
  0
ARC
  5
739
330
1F
100
AcDbEntity
  8
1
  6
CONTINUOUS
100
AcDbCircle
 10
245.1570016138389
 20
106.280431599529
 30
0.0
 40
13.52970494244902
100
AcDbArc
 50
184.5738368880081
 51
188.8232210889398
  0
LWPOLYLINE
  5
73A
330
1F
100
AcDbEntity
  8
1
  6
CONTINUOUS
100
AcDbPolyline
 90
        9
 70
   128
 43
0.0
 10
232.3049978025524
 20
104.2051373617457
 10
232.2949255489078
 20
104.2051448123263
 10
232.2652368478741
 20
104.2051485376164
 10
232.216987819251
 20
104.2051522629069
 10
232.1522767327991
 20
104.2051559881972
 10
232.0736116402116
 20
104.2051559881972
 10
231.9840845324363
 20
104.2051597134874
 10
231.8871878691284
 20
104.2051597134874
 10
231.7874096937744
 20
104.2051597134874
  0
ARC
  5
73B
330
1F
100
AcDbEntity
  8
1
  6
CONTINUOUS
100
AcDbCircle
 10
231.8050097257692
 20
104.7200524210396
 30
0.0
 40
0.4999373191253744
100
AcDbArc
 50
13.15906628456511
 51
105.6218055998435
  0
LINE
  5
73C
330
1F
100
AcDbEntity
  8
1
  6
CONTINUOUS
100
AcDbLine
 10
232.3049978025524
 20
104.2051373617457
 30
0.0
 11
232.3049978025524
 21
104.3547040419384
 31
0.0
  0
ARC
  5
73D
330
1F
100
AcDbEntity
  8
1
  6
CONTINUOUS
100
AcDbCircle
 10
235.3048300567784
 20
92.20120339151232
 30
0.0
 40
13.49879611050684
100
AcDbArc
 50
89.99928591413649
 51
105.6191871434549
  0
LINE
  5
73E
330
1F
100
AcDbEntity
  8
1
  6
CONTINUOUS
100
AcDbLine
 10
234.7359536819424
 20
105.6880040662093
 30
0.0
 11
234.7026086084811
 21
105.6865549282832
 31
0.0
  0
LINE
  5
73F
330
1F
100
AcDbEntity
  8
1
  6
CONTINUOUS
100
AcDbLine
 10
234.7648107119169
 20
105.6891887085242
 30
0.0
 11
234.7359555445878
 21
105.6880040662093
 31
0.0
  0
LINE
  5
740
330
1F
100
AcDbEntity
  8
1
  6
CONTINUOUS
100
AcDbLine
 10
234.7897068269817
 20
105.6901647345824
 30
0.0
 11
234.764812574562
 21
105.6891887085242
 31
0.0
  0
LINE
  5
741
330
1F
100
AcDbEntity
  8
1
  6
CONTINUOUS
100
AcDbLine
 10
234.8102667041389
 20
105.6909321443839
 30
0.0
 11
234.7897077583043
 21
105.6901647345824
 31
0.0
  0
LINE
  5
742
330
1F
100
AcDbEntity
  8
1
  6
CONTINUOUS
100
AcDbLine
 10
234.824147135791
 20
105.6914350585742
 30
0.0
 11
234.8102667041389
 21
105.6909321443839
 31
0.0
  0
LINE
  5
743
330
1F
100
AcDbEntity
  8
1
  6
CONTINUOUS
100
AcDbLine
 10
234.8276703290907
 20
105.6915579931539
 30
0.0
 11
234.824147135791
 21
105.6914350585742
 31
0.0
  0
LINE
  5
744
330
1F
100
AcDbEntity
  8
1
  6
CONTINUOUS
100
AcDbLine
 10
234.8191114746299
 20
105.6912525193494
 30
0.0
 11
234.8276703290907
 21
105.6915579931539
 31
0.0
  0
LINE
  5
745
330
1F
100
AcDbEntity
  8
1
  6
CONTINUOUS
100
AcDbLine
 10
234.8023029648034
 20
105.6906378464502
 30
0.0
 11
234.8191114746299
 21
105.6912525193494
 31
0.0
  0
LINE
  5
746
330
1F
100
AcDbEntity
  8
1
  6
CONTINUOUS
100
AcDbLine
 10
234.7808704383936
 20
105.689822007875
 30
0.0
 11
234.8023020334808
 21
105.6906378464502
 31
0.0
  0
LINE
  5
747
330
1F
100
AcDbEntity
  8
1
  6
CONTINUOUS
100
AcDbLine
 10
234.7575333573189
 20
105.6888944105907
 30
0.0
 11
234.7808704383936
 21
105.689822007875
 31
0.0
  0
LINE
  5
748
330
1F
100
AcDbEntity
  8
1
  6
CONTINUOUS
100
AcDbLine
 10
234.7322665758695
 20
105.6878476040167
 30
0.0
 11
234.7575333573189
 21
105.6888944105907
 31
0.0
  0
LINE
  5
749
330
1F
100
AcDbEntity
  8
1
  6
CONTINUOUS
100
AcDbLine
 10
234.7038565807311
 20
105.6866108076377
 30
0.0
 11
234.7322665758695
 21
105.6878476040167
 31
0.0
  0
LWPOLYLINE
  5
74A
330
1F
100
AcDbEntity
  8
1
  6
CONTINUOUS
100
AcDbPolyline
 90
        3
 70
   128
 43
0.0
 10
232.865761094567
 20
105.4766497211262
 10
233.6671194665399
 20
105.6002734796807
 10
233.9547211908069
 20
105.6242270962998
  0
LINE
  5
74B
330
1F
100
AcDbEntity
  8
1
  6
CONTINUOUS
100
AcDbLine
 10
234.2442153625456
 20
105.648333449821
 30
0.0
 11
234.7038575120536
 21
105.6866108076377
 31
0.0
  0
LINE
  5
74C
330
1F
100
AcDbEntity
  8
1
  6
CONTINUOUS
100
AcDbLine
 10
232.9478394843904
 20
105.492623765926
 30
0.0
 11
232.984948032376
 21
105.4991504745289
 31
0.0
  0
LINE
  5
74D
330
1F
100
AcDbEntity
  8
1
  6
CONTINUOUS
100
AcDbLine
 10
232.9167547308175
 20
105.4870730833811
 30
0.0
 11
232.9478385530677
 21
105.492623765926
 31
0.0
  0
LINE
  5
74E
330
1F
100
AcDbEntity
  8
1
  6
CONTINUOUS
100
AcDbLine
 10
232.8915857382384
 20
105.4825245039269
 30
0.0
 11
232.9167537994949
 21
105.4870730833811
 31
0.0
  0
LINE
  5
74F
330
1F
100
AcDbEntity
  8
1
  6
CONTINUOUS
100
AcDbLine
 10
232.87381796616
 20
105.4792835013672
 30
0.0
 11
232.8915857382384
 21
105.4825245039269
 31
0.0
  0
LINE
  5
750
330
1F
100
AcDbEntity
  8
1
  6
CONTINUOUS
100
AcDbLine
 10
232.865761094567
 20
105.477808286409
 30
0.0
 11
232.87381796616
 21
105.4792835013672
 31
0.0
  0
LINE
  5
751
330
1F
100
AcDbEntity
  8
1
  6
CONTINUOUS
100
AcDbLine
 10
232.8680782251324
 20
105.478232969503
 30
0.0
 11
232.865761094567
 21
105.477808286409
 31
0.0
  0
LINE
  5
752
330
1F
100
AcDbEntity
  8
1
  6
CONTINUOUS
100
AcDbLine
 10
232.878279932615
 20
105.4800993399424
 30
0.0
 11
232.8680782251324
 21
105.478232969503
 31
0.0
  0
LINE
  5
753
330
1F
100
AcDbEntity
  8
1
  6
CONTINUOUS
100
AcDbLine
 10
232.8934968121616
 20
105.4828709559245
 30
0.0
 11
232.878279932615
 21
105.4800993399424
 31
0.0
  0
LINE
  5
754
330
1F
100
AcDbEntity
  8
1
  6
CONTINUOUS
100
AcDbLine
 10
232.9116557397215
 20
105.4861566619679
 30
0.0
 11
232.8934968121616
 21
105.4828709559245
 31
0.0
  0
LINE
  5
755
330
1F
100
AcDbEntity
  8
1
  6
CONTINUOUS
100
AcDbLine
 10
232.9326058410373
 20
105.4899117545887
 30
0.0
 11
232.9116566710438
 21
105.4861566619679
 31
0.0
  0
LINE
  5
756
330
1F
100
AcDbEntity
  8
1
  6
CONTINUOUS
100
AcDbLine
 10
232.9568369917838
 20
105.4942144648834
 30
0.0
 11
232.93260677236
 21
105.4899117545887
 31
0.0
  0
LINE
  5
757
330
1F
100
AcDbEntity
  8
1
  6
CONTINUOUS
100
AcDbLine
 10
232.9849461697306
 20
105.4991504745289
 30
0.0
 11
232.9568379231063
 21
105.4942144648834
 31
0.0
  0
LINE
  5
758
330
1F
100
AcDbEntity
  8
1
  6
CONTINUOUS
100
AcDbLine
 10
233.4136265002455
 20
105.5668539004132
 30
0.0
 11
232.9849461697306
 21
105.4991504745289
 31
0.0
  0
ARC
  5
759
330
1F
100
AcDbEntity
  8
1
  6
CONTINUOUS
100
AcDbCircle
 10
233.4908679430677
 20
105.1317407948763
 30
0.0
 40
0.4419128746429604
100
AcDbArc
 50
95.90901645372429
 51
100.0668612272299
  0
LWPOLYLINE
  5
75A
330
1F
100
AcDbEntity
  8
1
  6
CONTINUOUS
100
AcDbPolyline
 90
        3
 70
   128
 43
0.0
 10
231.8053888760772
 20
105.2179692880915
 10
231.7839190967645
 20
105.2195413605975
 10
231.6703824930158
 20
105.2015221314237
  0
ARC
  5
75B
330
1F
100
AcDbEntity
  8
1
  6
CONTINUOUS
100
AcDbCircle
 10
235.3068454728139
 20
95.5738078504744
 30
0.0
 40
9.626194539736019
100
AcDbArc
 50
90.0109945351264
 51
108.1702474748259
  0
LINE
  5
75C
330
1F
100
AcDbEntity
  8
1
  6
CONTINUOUS
100
AcDbLine
 10
235.3944527589051
 20
105.6995524661347
 30
0.0
 11
235.4327301167218
 21
105.6995524661347
 31
0.0
  0
LINE
  5
75D
330
1F
100
AcDbEntity
  8
1
  6
CONTINUOUS
100
AcDbLine
 10
232.3049978025524
 20
104.7199836568637
 30
0.0
 11
232.2917823352184
 21
104.8341787056727
 31
0.0
  0
LINE
  5
75E
330
1F
100
AcDbEntity
  8
1
  6
CONTINUOUS
100
AcDbLine
 10
232.3049978025524
 20
104.2050852076811
 30
0.0
 11
232.3049978025524
 21
104.7199911074442
 31
0.0
  0
ARC
  5
75F
330
1F
100
AcDbEntity
  8
1
  6
CONTINUOUS
100
AcDbCircle
 10
235.304980940204
 20
92.19985695297248
 30
0.0
 40
13.50014254800942
100
AcDbArc
 50
74.38159664201426
 51
89.99992634774478
  0
LINE
  5
760
330
1F
100
AcDbEntity
  8
1
  6
CONTINUOUS
100
AcDbLine
 10
236.9031245492665
 20
105.6050753788752
 30
0.0
 11
237.969417185363
 21
105.4344570832058
 31
0.0
  0
ARC
  5
761
330
1F
100
AcDbEntity
  8
1
  6
CONTINUOUS
100
AcDbCircle
 10
235.3284306178605
 20
95.73180443183629
 30
0.0
 40
9.468226776787851
100
AcDbArc
 50
71.67695454626033
 51
90.14179789382756
  0
LINE
  5
762
330
1F
100
AcDbEntity
  8
1
  6
CONTINUOUS
100
AcDbLine
 10
228.7411913879481
 20
103.9968824581904
 30
0.0
 11
228.6805827774374
 21
103.9629562394424
 31
0.0
  0
LINE
  5
763
330
1F
100
AcDbEntity
  8
1
  6
CONTINUOUS
100
AcDbLine
 10
228.7936257802214
 20
104.0259061949057
 30
0.0
 11
228.7411932505932
 21
103.9968861834807
 31
0.0
  0
LINE
  5
764
330
1F
100
AcDbEntity
  8
1
  6
CONTINUOUS
100
AcDbLine
 10
228.8355017684664
 20
104.0488651590151
 30
0.0
 11
228.793626711544
 21
104.0259061949057
 31
0.0
  0
LINE
  5
765
330
1F
100
AcDbEntity
  8
1
  6
CONTINUOUS
100
AcDbLine
 10
228.8643038504092
 20
104.0645486311717
 30
0.0
 11
228.8355017684664
 21
104.0488651590151
 31
0.0
  0
LINE
  5
766
330
1F
100
AcDbEntity
  8
1
  6
CONTINUOUS
100
AcDbLine
 10
228.8796259694068
 20
104.0728523032468
 30
0.0
 11
228.8643047817318
 21
104.0645486311717
 31
0.0
  0
LINE
  5
767
330
1F
100
AcDbEntity
  8
1
  6
CONTINUOUS
100
AcDbLine
 10
228.8842881702153
 20
104.075374324779
 30
0.0
 11
228.8796259694068
 21
104.0728523032468
 31
0.0
  0
LINE
  5
768
330
1F
100
AcDbEntity
  8
1
  6
CONTINUOUS
100
AcDbLine
 10
228.8816655658452
 20
104.0739549891753
 30
0.0
 11
228.8842881702153
 21
104.075374324779
 31
0.0
  0
LINE
  5
769
330
1F
100
AcDbEntity
  8
1
  6
CONTINUOUS
100
AcDbLine
 10
228.8745726131169
 20
104.0701142148774
 30
0.0
 11
228.8816655658452
 21
104.0739549891753
 31
0.0
  0
LINE
  5
76A
330
1F
100
AcDbEntity
  8
1
  6
CONTINUOUS
100
AcDbLine
 10
228.8631173454489
 20
104.0639041559499
 30
0.0
 11
228.8745726131169
 21
104.0701142148774
 31
0.0
  0
LINE
  5
76B
330
1F
100
AcDbEntity
  8
1
  6
CONTINUOUS
100
AcDbLine
 10
228.8458375863996
 20
104.0545052485269
 30
0.0
 11
228.8631173454489
 21
104.0639041559499
 31
0.0
  0
ARC
  5
76C
330
1F
100
AcDbEntity
  8
1
  6
CONTINUOUS
100
AcDbCircle
 10
235.2087319228253
 20
92.44665086278393
 30
0.0
 40
13.23656493114142
100
AcDbArc
 50
105.5046284940698
 51
125.5697709493608
  0
ARC
  5
76D
330
1F
100
AcDbEntity
  8
1
  6
CONTINUOUS
100
AcDbCircle
 10
248.304995889634
 20
158.2391802122159
 30
0.0
 40
0.5000018235120766
100
AcDbArc
 50
270.0002529274333
 51
0.0
  0
LINE
  5
76E
330
1F
100
AcDbEntity
  8
1
  6
CONTINUOUS
100
AcDbLine
 10
248.3049980968503
 20
157.7391783887089
 30
0.0
 11
242.8049979520296
 21
157.7391783887089
 31
0.0
  0
LINE
  5
76F
330
1F
100
AcDbEntity
  8
1
  6
CONTINUOUS
100
AcDbLine
 10
240.616133962598
 20
104.6113616423411
 30
0.0
 11
240.6187561013071
 21
104.610236604671
 31
0.0
  0
LINE
  5
770
330
1F
100
AcDbEntity
  8
1
  6
CONTINUOUS
100
AcDbLine
 10
240.6090405442085
 20
104.614394028644
 30
0.0
 11
240.616133962598
 21
104.6113616423411
 31
0.0
  0
LINE
  5
771
330
1F
100
AcDbEntity
  8
1
  6
CONTINUOUS
100
AcDbLine
 10
240.5975857422022
 20
104.6192816095157
 30
0.0
 11
240.6090405442085
 21
104.614394028644
 31
0.0
  0
LINE
  5
772
330
1F
100
AcDbEntity
  8
1
  6
CONTINUOUS
100
AcDbLine
 10
240.5803066816445
 20
104.6266316072745
 30
0.0
 11
240.5975855093716
 21
104.6192816095157
 31
0.0
  0
SPLINE
  5
773
330
1F
100
AcDbEntity
  8
1
  6
CONTINUOUS
100
AcDbSpline
210
0.0
220
0.0
230
1.0
 70
    12
 71
     3
 72
    11
 73
     7
 74
     0
 42
0.0000000001
 43
0.0000000001
 40
0.0
 40
0.0
 40
0.0
 40
0.0
 40
0.2796556731787743
 40
0.5592016096977556
 40
0.7796731127430533
 40
1.0
 40
1.0
 40
1.0
 40
1.0
 10
299.0312466863173
 20
158.2391794019879
 30
0.0
 41
1.0
 10
299.0406754298041
 20
158.1658016344788
 30
0.0
 41
1.0
 10
299.0595292169463
 20
158.0190748928371
 30
0.0
 41
1.0
 10
299.193456089762
 20
157.8547391426789
 30
0.0
 41
1.0
 10
299.3582688888636
 20
157.7566653527149
 30
0.0
 41
1.0
 10
299.4736007085893
 20
157.7450061016669
 30
0.0
 41
1.0
 10
299.5312476995963
 20
157.7391783887089
 30
0.0
 41
1.0
  0
LINE
  5
774
330
1F
100
AcDbEntity
  8
1
  6
CONTINUOUS
100
AcDbLine
 10
305.0312476697941
 20
157.7391783887089
 30
0.0
 11
299.5312476995963
 21
157.7391783887089
 31
0.0
  0
LINE
  5
775
330
1F
100
AcDbEntity
  8
1
  6
CONTINUOUS
100
AcDbLine
 10
305.0312476697941
 20
157.7391783887089
 30
0.0
 11
300.0312468502301
 21
157.7391783887089
 31
0.0
  0
LINE
  5
776
330
1F
100
AcDbEntity
  8
1
  6
CONTINUOUS
100
AcDbLine
 10
300.0312468502301
 20
157.7391783887089
 30
0.0
 11
305.0312476697941
 21
157.7391783887089
 31
0.0
  0
LINE
  5
777
330
1F
100
AcDbEntity
  8
1
  6
CONTINUOUS
100
AcDbLine
 10
305.0312476697941
 20
157.7391783887089
 30
0.0
 11
299.5312476995963
 21
157.7391783887089
 31
0.0
  0
LINE
  5
778
330
1F
100
AcDbEntity
  8
1
  6
CONTINUOUS
100
AcDbLine
 10
299.5312476995963
 20
157.7391783887089
 30
0.0
 11
305.0312476697941
 21
157.7391783887089
 31
0.0
  0
LINE
  5
779
330
1F
100
AcDbEntity
  8
1
  6
CONTINUOUS
100
AcDbLine
 10
305.0312476697941
 20
157.7391783887089
 30
0.0
 11
299.5312476995963
 21
157.7391783887089
 31
0.0
  0
LINE
  5
77A
330
1F
100
AcDbEntity
  8
1
  6
CONTINUOUS
100
AcDbLine
 10
305.0312476697941
 20
157.7391783887089
 30
0.0
 11
300.0312468502301
 21
157.7391783887089
 31
0.0
  0
LINE
  5
77B
330
1F
100
AcDbEntity
  8
1
  6
CONTINUOUS
100
AcDbLine
 10
300.0312468502301
 20
157.7391783887089
 30
0.0
 11
305.0312476697941
 21
157.7391783887089
 31
0.0
  0
LINE
  5
77E
330
1F
100
AcDbEntity
  8
1
  6
CONTINUOUS
100
AcDbLine
 10
118.4382083937923
 20
262.7391788357438
 30
0.0
 11
114.9382082857604
 21
262.7391799445902
 31
0.0
  0
LINE
  5
77F
330
1F
100
AcDbEntity
  8
1
  6
CONTINUOUS
100
AcDbLine
 10
114.938208285759
 20
162.7391799445903
 30
0.0
 11
118.4382083937923
 21
162.739181070918
 31
0.0
  0
LINE
  5
784
330
1F
100
AcDbEntity
  8
1
  6
CONTINUOUS
100
AcDbLine
 10
68.73820828575843
 20
262.7391801072899
 30
0.0
 11
59.23820828575888
 21
262.73918010729
 31
0.0
  0
LINE
  5
785
330
1F
100
AcDbEntity
  8
1
  6
CONTINUOUS
100
AcDbLine
 10
59.23820828575888
 20
162.7391800153029
 30
0.0
 11
68.73820828575799
 21
162.7391800153029
 31
0.0
  0
LINE
  5
786
330
1F
100
AcDbEntity
  8
1
  6
CONTINUOUS
100
AcDbLine
 10
56.7382065691454
 20
195.0391746306359
 30
0.0
 11
56.73820828575846
 21
230.4391806163347
 31
0.0
  0
LINE
  5
787
330
1F
100
AcDbEntity
  8
1
  6
CONTINUOUS
100
AcDbLine
 10
58.73820689697095
 20
164.7340777510344
 30
0.0
 11
58.73820689697095
 21
260.7442821556271
 31
0.0
  0
LINE
  5
788
330
1F
100
AcDbEntity
  8
1
  6
CONTINUOUS
100
AcDbLine
 10
55.63820657510587
 20
195.0391746306359
 30
0.0
 11
55.63820826191658
 21
196.9391744585329
 31
0.0
  0
LINE
  5
789
330
1F
100
AcDbEntity
  8
1
  6
CONTINUOUS
100
AcDbLine
 10
53.78738922257253
 20
194.706388860339
 30
0.0
 11
55.1382092871172
 21
197.2391746187151
 31
0.0
  0
LWPOLYLINE
  5
78A
330
1F
100
AcDbEntity
  8
1
  6
CONTINUOUS
100
AcDbPolyline
 90
       10
 70
   128
 43
0.0
 10
55.31820786375829
 20
196.9391751283349
 10
55.28695267815419
 20
196.9912695878685
 10
55.2566437162859
 20
197.0417807990254
 10
55.22820857543774
 20
197.0891739422024
 10
55.20250779766866
 20
197.1320110553445
 10
55.18031996865103
 20
197.1689882868469
 10
55.16232309121915
 20
197.1989824616851
 10
55.14906478304692
 20
197.2210827463805
 10
55.14094365019627
 20
197.2346167260348
 10
55.1382092871172
 20
197.2391746187151
  0
LINE
  5
78B
330
1F
100
AcDbEntity
  8
1
  6
CONTINUOUS
100
AcDbLine
 10
55.1382092871172
 20
197.2391746187151
 30
0.0
 11
55.63820826191658
 21
197.2391744573405
 31
0.0
  0
LINE
  5
78C
330
1F
100
AcDbEntity
  8
1
  6
CONTINUOUS
100
AcDbLine
 10
55.63820826191658
 20
196.9391744585329
 30
0.0
 11
55.63820826191658
 21
197.2391744573405
 31
0.0
  0
LINE
  5
78D
330
1F
100
AcDbEntity
  8
1
  6
CONTINUOUS
100
AcDbLine
 10
54.73820996661014
 20
195.0391746306359
 30
0.0
 11
52.73820963878461
 21
194.3391758197486
 31
0.0
  0
LINE
  5
78E
330
1F
100
AcDbEntity
  8
1
  6
CONTINUOUS
100
AcDbLine
 10
57.23820758242436
 20
195.0391746306359
 30
0.0
 11
54.73820996661014
 21
195.0391746306359
 31
0.0
  0
LINE
  5
78F
330
1F
100
AcDbEntity
  8
1
  6
CONTINUOUS
100
AcDbLine
 10
57.23695588488408
 20
164.3018546694459
 30
0.0
 11
58.73820689697095
 21
164.3018546694459
 31
0.0
  0
LINE
  5
790
330
1F
100
AcDbEntity
  8
1
  6
CONTINUOUS
100
AcDbLine
 10
52.73820963878461
 20
171.2391759449183
 30
0.0
 11
57.23820758242436
 21
171.2391759449183
 31
0.0
  0
LINE
  5
791
330
1F
100
AcDbEntity
  8
1
  6
CONTINUOUS
100
AcDbLine
 10
56.7382065691454
 20
165.9442718321025
 30
0.0
 11
56.7382065691454
 21
171.2391759449183
 31
0.0
  0
LINE
  5
792
330
1F
100
AcDbEntity
  8
1
  6
CONTINUOUS
100
AcDbLine
 10
56.7382065691454
 20
165.5475246900262
 30
0.0
 11
56.7382065691454
 21
165.9442718321025
 31
0.0
  0
ARC
  5
793
330
1F
100
AcDbEntity
  8
1
  6
CONTINUOUS
100
AcDbCircle
 10
57.23806121627696
 20
164.8020148662749
 30
0.0
 40
0.4998547444539437
100
AcDbArc
 50
180.0357538412297
 51
270.0167771992589
  0
ARC
  5
794
330
1F
100
AcDbEntity
  8
1
  6
CONTINUOUS
100
AcDbCircle
 10
57.23806121627696
 20
164.8020148662749
 30
0.0
 40
0.4998547444539437
100
AcDbArc
 50
180.0357538412297
 51
270.0167771992589
  0
LINE
  5
795
330
1F
100
AcDbEntity
  8
1
  6
CONTINUOUS
100
AcDbLine
 10
58.73820689697095
 20
164.7340777510344
 30
0.0
 11
58.73820689697095
 21
163.7441265577019
 31
0.0
  0
LINE
  5
796
330
1F
100
AcDbEntity
  8
1
  6
CONTINUOUS
100
AcDbLine
 10
58.67566672344037
 20
162.739181070918
 30
0.0
 11
59.23820828575888
 21
162.7391800153029
 31
0.0
  0
ELLIPSE
  5
797
330
1F
100
AcDbEntity
  8
1
  6
CONTINUOUS
100
AcDbEllipse
 10
53.03820829767937
 20
160.3634386599385
 30
0.0
 11
0.3000000119209289
 21
0.0
 31
0.0
210
0.0
220
0.0
230
1.0
 40
0.4142135186617927
 41
3.141592653588876
 42
4.712388980384695
  0
LINE
  5
798
330
1F
100
AcDbEntity
  8
1
  6
CONTINUOUS
100
AcDbLine
 10
52.73820963878461
 20
160.3634405130089
 30
0.0
 11
52.73820963878461
 21
162.439175992602
 31
0.0
  0
LINE
  5
799
330
1F
100
AcDbEntity
  8
1
  6
CONTINUOUS
100
AcDbLine
 10
53.03820726651975
 20
160.239176004523
 30
0.0
 11
56.43820894141025
 21
160.239176004523
 31
0.0
  0
LINE
  5
79A
330
1F
100
AcDbEntity
  8
1
  6
CONTINUOUS
100
AcDbLine
 10
53.03820726651975
 20
162.7391736203374
 30
0.0
 11
55.23820725459882
 21
162.7391736203374
 31
0.0
  0
LWPOLYLINE
  5
79B
330
1F
100
AcDbEntity
  8
1
  6
CONTINUOUS
100
AcDbPolyline
 90
       10
 70
   128
 43
0.0
 10
55.23820725459882
 20
162.7391736203374
 10
55.24276700992413
 20
162.7346175903023
 10
55.25630098957845
 20
162.721083610648
 10
55.27839941162892
 20
162.6989814633073
 10
55.30839544911214
 20
162.6689891511143
 10
55.34537268061467
 20
162.6320119196118
 10
55.38820979375667
 20
162.5891748064698
 10
55.43560293693372
 20
162.5417816632928
 10
55.48611414809056
 20
162.4912704521358
 10
55.53820860762425
 20
162.439175992602
  0
LINE
  5
79C
330
1F
100
AcDbEntity
  8
1
  6
CONTINUOUS
100
AcDbLine
 10
53.03820726651975
 20
162.439175992602
 30
0.0
 11
53.03820726651975
 21
162.7391736203374
 31
0.0
  0
ARC
  5
79D
330
1F
100
AcDbEntity
  8
1
  6
CONTINUOUS
100
AcDbCircle
 10
53.03821025755133
 20
162.4391730015704
 30
0.0
 40
0.3000006187816272
100
AcDbArc
 50
90.00057124375866
 51
180.0
  0
ELLIPSE
  5
79E
330
1F
100
AcDbEntity
  8
1
  6
CONTINUOUS
100
AcDbEllipse
 10
56.43820827383752
 20
160.3634386599385
 30
0.0
 11
0.3000000119209574
 21
0.0
 31
0.0
210
0.0
220
0.0
230
1.0
 40
0.4142135186617532
 41
4.712388980384695
 42
6.283185307179584
  0
LINE
  5
79F
330
1F
100
AcDbEntity
  8
1
  6
CONTINUOUS
100
AcDbLine
 10
56.7382065691454
 20
160.3634405130089
 30
0.0
 11
56.7382065691454
 21
165.4699976736249
 31
0.0
  0
LINE
  5
7A0
330
1F
100
AcDbEntity
  8
1
  6
CONTINUOUS
100
AcDbLine
 10
55.23820725459882
 20
162.7391736203374
 30
0.0
 11
55.23820725459882
 21
171.2391759449183
 31
0.0
  0
LINE
  5
7A1
330
1F
100
AcDbEntity
  8
1
  6
CONTINUOUS
100
AcDbLine
 10
52.73820963878461
 20
162.439175992602
 30
0.0
 11
52.73820591349431
 21
171.2391759449183
 31
0.0
  0
LINE
  5
7A2
330
1F
100
AcDbEntity
  8
1
  6
CONTINUOUS
100
AcDbLine
 10
59.23820828575888
 20
163.7441275690159
 30
0.0
 11
59.23820828575888
 21
162.7391800153029
 31
0.0
  0
LINE
  5
7A3
330
1F
100
AcDbEntity
  8
1
  6
CONTINUOUS
100
AcDbLine
 10
58.73820689697095
 20
163.7441265577019
 30
0.0
 11
58.73820689697095
 21
162.7429845923126
 31
0.0
  0
LINE
  5
7A4
330
1F
100
AcDbEntity
  8
1
  6
CONTINUOUS
100
AcDbLine
 10
52.73820963878461
 20
194.3391758197486
 30
0.0
 11
52.73820963878461
 21
171.2391759449183
 31
0.0
  0
LINE
  5
7A5
330
1F
100
AcDbEntity
  8
1
  6
CONTINUOUS
100
AcDbLine
 10
58.73820689697095
 20
261.1765052372159
 30
0.0
 11
53.23695522923299
 21
261.1765052372159
 31
0.0
  0
LINE
  5
7A6
330
1F
100
AcDbEntity
  8
1
  6
CONTINUOUS
100
AcDbLine
 10
59.23820828575888
 20
262.73918010729
 30
0.0
 11
58.67566672344037
 21
262.7391788357438
 31
0.0
  0
LINE
  5
7A7
330
1F
100
AcDbEntity
  8
1
  6
CONTINUOUS
100
AcDbLine
 10
52.73820963878461
 20
259.5340880745591
 30
0.0
 11
52.73820963878461
 21
259.9308352166356
 31
0.0
  0
ARC
  5
7A8
330
1F
100
AcDbEntity
  8
1
  6
CONTINUOUS
100
AcDbCircle
 10
53.23805425865065
 20
260.6763551457262
 30
0.0
 40
0.4998446409998928
100
AcDbArc
 50
89.98250008398761
 51
179.9833386050246
  0
LINE
  5
7A9
330
1F
100
AcDbEntity
  8
1
  6
CONTINUOUS
100
AcDbLine
 10
52.73820963878461
 20
259.9308352166356
 30
0.0
 11
52.73820963878461
 21
260.6765004986466
 31
0.0
  0
LINE
  5
7AA
330
1F
100
AcDbEntity
  8
1
  6
CONTINUOUS
100
AcDbLine
 10
52.73820963878461
 20
258.239180892104
 30
0.0
 11
52.73820963878461
 21
260.6765042239369
 31
0.0
  0
ARC
  5
7AB
330
1F
100
AcDbEntity
  8
1
  6
CONTINUOUS
100
AcDbCircle
 10
53.23805425865065
 20
260.6763551457262
 30
0.0
 40
0.4998446409998854
100
AcDbArc
 50
89.98250008397455
 51
179.983338596713
  0
LINE
  5
7AC
330
1F
100
AcDbEntity
  8
1
  6
CONTINUOUS
100
AcDbLine
 10
58.73820689697095
 20
261.7342333489598
 30
0.0
 11
58.73820689697095
 21
260.7442821556271
 31
0.0
  0
LINE
  5
7AD
330
1F
100
AcDbEntity
  8
1
  6
CONTINUOUS
100
AcDbLine
 10
59.23820828575888
 20
262.73918010729
 30
0.0
 11
59.23820828575888
 21
261.7342324704869
 31
0.0
  0
LINE
  5
7AE
330
1F
100
AcDbEntity
  8
1
  6
CONTINUOUS
100
AcDbLine
 10
58.73820689697095
 20
261.7342333489598
 30
0.0
 11
58.73820689697095
 21
262.7391229563893
 31
0.0
  0
LINE
  5
7AF
330
1F
100
AcDbEntity
  8
1
  6
CONTINUOUS
100
AcDbLine
 10
57.23820828575846
 20
230.4391805606448
 30
0.0
 11
53.23820828575843
 21
230.4391805606448
 31
0.0
  0
LINE
  5
7B0
330
1F
100
AcDbEntity
  8
1
  6
CONTINUOUS
100
AcDbLine
 10
53.23820828575843
 20
230.4391805606448
 30
0.0
 11
52.73820828575844
 21
230.4391805616956
 31
0.0
  0
LINE
  5
7B1
330
1F
100
AcDbEntity
  8
1
  6
CONTINUOUS
100
AcDbLine
 10
52.73820828575844
 20
230.4391793814882
 30
0.0
 11
53.23820828575843
 21
230.439179371773
 31
0.0
  0
LINE
  5
7B2
330
1F
100
AcDbEntity
  8
1
  6
CONTINUOUS
100
AcDbLine
 10
55.73820826787778
 20
230.4391796880902
 30
0.0
 11
52.73820828575844
 21
230.4391793814882
 31
0.0
  0
LINE
  5
7B3
330
1F
100
AcDbEntity
  8
1
  6
CONTINUOUS
100
AcDbLine
 10
52.73820828575844
 20
230.4391805616956
 30
0.0
 11
55.73820826787778
 21
230.4391806194128
 31
0.0
  0
LINE
  5
7B4
330
1F
100
AcDbEntity
  8
1
  6
CONTINUOUS
100
AcDbLine
 10
57.23820828575846
 20
230.4391805606448
 30
0.0
 11
56.73820828575846
 21
230.4391806163347
 31
0.0
  0
LINE
  5
7B5
330
1F
100
AcDbEntity
  8
1
  6
CONTINUOUS
100
AcDbLine
 10
53.23820828575843
 20
230.439179371773
 30
0.0
 11
57.23820828575846
 21
230.4391805606448
 31
0.0
  0
LINE
  5
7B6
330
1F
100
AcDbEntity
  8
1
  6
CONTINUOUS
100
AcDbLine
 10
52.73820963878461
 20
227.9391802096308
 30
0.0
 11
54.73820996661014
 21
227.9391802096308
 31
0.0
  0
LINE
  5
7B7
330
1F
100
AcDbEntity
  8
1
  6
CONTINUOUS
100
AcDbLine
 10
52.73820963878461
 20
227.9391802096308
 30
0.0
 11
54.73820996661014
 21
227.9391802096308
 31
0.0
  0
LINE
  5
7B8
330
1F
100
AcDbEntity
  8
1
  6
CONTINUOUS
100
AcDbLine
 10
54.73820996661014
 20
227.9391802096308
 30
0.0
 11
55.73820826787778
 21
230.4391806194128
 31
0.0
  0
LINE
  5
7B9
330
1F
100
AcDbEntity
  8
1
  6
CONTINUOUS
100
AcDbLine
 10
52.73820963878461
 20
227.9391802096308
 30
0.0
 11
52.73820828575844
 21
230.4391805616956
 31
0.0
  0
LINE
  5
7BA
330
1F
100
AcDbEntity
  8
1
  6
CONTINUOUS
100
AcDbLine
 10
56.7382065691454
 20
226.9391809770404
 30
0.0
 11
56.73820828575846
 21
230.4391806163347
 31
0.0
  0
LINE
  5
7BB
330
1F
100
AcDbEntity
  8
1
  6
CONTINUOUS
100
AcDbLine
 10
52.73820828575844
 20
230.4391805616956
 30
0.0
 11
52.73820963878461
 21
259.5340880745591
 31
0.0
  0
LINE
  5
7BC
330
1F
100
AcDbEntity
  8
1
  6
CONTINUOUS
100
AcDbLine
 10
68.7382082857589
 20
260.7442819425455
 30
0.0
 11
68.7382082857589
 21
164.734077988539
 31
0.0
  0
LINE
  5
7BD
330
1F
100
AcDbEntity
  8
1
  6
CONTINUOUS
100
AcDbLine
 10
114.938208285759
 20
164.7340779128261
 30
0.0
 11
114.9382082857604
 21
260.7442818308393
 31
0.0
  0
LINE
  5
7BE
330
1F
100
AcDbEntity
  8
1
  6
CONTINUOUS
100
AcDbLine
 10
68.73820853609868
 20
163.7391793721855
 30
0.0
 11
114.938208285759
 21
163.7391793721855
 31
0.0
  0
LINE
  5
7BF
330
1F
100
AcDbEntity
  8
1
  6
CONTINUOUS
100
AcDbLine
 10
68.7382082857589
 20
163.744127541695
 30
0.0
 11
68.7382082857589
 21
164.734077988539
 31
0.0
  0
LINE
  5
7C0
330
1F
100
AcDbEntity
  8
1
  6
CONTINUOUS
100
AcDbLine
 10
68.7382082857589
 20
163.744127541695
 30
0.0
 11
68.73820828575799
 21
162.7391800153029
 31
0.0
  0
LINE
  5
7C1
330
1F
100
AcDbEntity
  8
1
  6
CONTINUOUS
100
AcDbLine
 10
114.938208285759
 20
164.7340779128261
 30
0.0
 11
114.938208285759
 21
163.7441274709821
 31
0.0
  0
LINE
  5
7C2
330
1F
100
AcDbEntity
  8
1
  6
CONTINUOUS
100
AcDbLine
 10
114.938208285759
 20
162.7391799445903
 30
0.0
 11
114.938208285759
 21
163.7441274709821
 31
0.0
  0
LINE
  5
7C3
330
1F
100
AcDbEntity
  8
1
  6
CONTINUOUS
100
AcDbLine
 10
114.9382082857604
 20
261.7391805344762
 30
0.0
 11
68.73820853609868
 21
261.7391805344762
 31
0.0
  0
LINE
  5
7C4
330
1F
100
AcDbEntity
  8
1
  6
CONTINUOUS
100
AcDbLine
 10
68.7382082857589
 20
260.7442819425455
 30
0.0
 11
68.7382082857589
 21
261.7342324707601
 31
0.0
  0
LINE
  5
7C5
330
1F
100
AcDbEntity
  8
1
  6
CONTINUOUS
100
AcDbLine
 10
68.73820828575843
 20
262.7391801072899
 30
0.0
 11
68.7382082857589
 21
261.7342324707601
 31
0.0
  0
LINE
  5
7C6
330
1F
100
AcDbEntity
  8
1
  6
CONTINUOUS
100
AcDbLine
 10
114.9382082857604
 20
261.7342322810125
 30
0.0
 11
114.9382082857604
 21
260.7442818308393
 31
0.0
  0
LINE
  5
7C7
330
1F
100
AcDbEntity
  8
1
  6
CONTINUOUS
100
AcDbLine
 10
114.9382082857604
 20
261.7342322810125
 30
0.0
 11
114.9382082857604
 21
262.7391799445902
 31
0.0
  0
LINE
  5
7C8
330
1F
100
AcDbEntity
  8
1
  6
CONTINUOUS
100
AcDbLine
 10
139.9382086582882
 20
183.239181637162
 30
0.0
 11
139.9382086582882
 21
242.2391801321448
 31
0.0
  0
LINE
  5
7C9
330
1F
100
AcDbEntity
  8
1
  6
CONTINUOUS
100
AcDbLine
 10
158.4382070340615
 20
170.7391786569298
 30
0.0
 11
158.4382070340615
 21
242.9581164562644
 31
0.0
  0
LINE
  5
7CA
330
1F
100
AcDbEntity
  8
1
  6
CONTINUOUS
100
AcDbLine
 10
126.4382083081112
 20
163.0406650894821
 30
0.0
 11
126.4382083081112
 21
262.4376948171796
 31
0.0
  0
LINE
  5
7CB
330
1F
100
AcDbEntity
  8
1
  6
CONTINUOUS
100
AcDbLine
 10
118.4382083937929
 20
262.4376948171796
 30
0.0
 11
118.4382083937929
 21
163.0406650894821
 31
0.0
  0
ARC
  5
7CC
330
1F
100
AcDbEntity
  8
1
  6
CONTINUOUS
100
AcDbCircle
 10
144.808991411671
 20
177.3163478625166
 30
0.0
 40
12.67861283461185
100
AcDbArc
 50
244.9373044264384
 51
259.7647613280908
  0
ARC
  5
7CD
330
1F
100
AcDbEntity
  8
1
  6
CONTINUOUS
100
AcDbCircle
 10
134.9382059814842
 20
183.2391816317567
 30
0.0
 40
5.000002676804005
100
AcDbArc
 50
270.0000212823951
 51
0.0
  0
LINE
  5
7CE
330
1F
100
AcDbEntity
  8
1
  6
CONTINUOUS
100
AcDbLine
 10
126.4382083081107
 20
178.239178954953
 30
0.0
 11
134.9382078387242
 21
178.239178954953
 31
0.0
  0
LINE
  5
7CF
330
1F
100
AcDbEntity
  8
1
  6
CONTINUOUS
100
AcDbLine
 10
125.9382082857596
 20
161.6546199828803
 30
0.0
 11
126.4382083081107
 21
161.654618679875
 31
0.0
  0
LINE
  5
7D0
330
1F
100
AcDbEntity
  8
1
  6
CONTINUOUS
100
AcDbLine
 10
125.9382082857596
 20
161.6546199828803
 30
0.0
 11
125.9382082857596
 21
162.0538102558636
 31
0.0
  0
LINE
  5
7D1
330
1F
100
AcDbEntity
  8
1
  6
CONTINUOUS
100
AcDbLine
 10
126.4382083081112
 20
162.0538096123875
 30
0.0
 11
126.4382083081107
 21
161.654618679875
 31
0.0
  0
LINE
  5
7D2
330
1F
100
AcDbEntity
  8
1
  6
CONTINUOUS
100
AcDbLine
 10
118.4382083937929
 20
162.0538096123875
 30
0.0
 11
118.4382083937923
 21
161.654618679875
 31
0.0
  0
LINE
  5
7D3
330
1F
100
AcDbEntity
  8
1
  6
CONTINUOUS
100
AcDbLine
 10
118.4382083937923
 20
161.654618679875
 30
0.0
 11
125.9382082857596
 21
161.6546199828803
 31
0.0
  0
LINE
  5
7D4
330
1F
100
AcDbEntity
  8
1
  6
CONTINUOUS
100
AcDbLine
 10
126.4382083081112
 20
163.0406650894821
 30
0.0
 11
126.4382083081112
 21
162.0538096123875
 31
0.0
  0
LINE
  5
7D5
330
1F
100
AcDbEntity
  8
1
  6
CONTINUOUS
100
AcDbLine
 10
118.4382083937929
 20
162.0538096123875
 30
0.0
 11
118.4382083937929
 21
163.0406650894821
 31
0.0
  0
LINE
  5
7D6
330
1F
100
AcDbEntity
  8
1
  6
CONTINUOUS
100
AcDbLine
 10
157.9581922032339
 20
165.0906997913064
 30
0.0
 11
157.9581922032339
 21
167.268005310887
 31
0.0
  0
ARC
  5
7D7
330
1F
100
AcDbEntity
  8
1
  6
CONTINUOUS
100
AcDbCircle
 10
157.995213905333
 20
170.7176478586674
 30
0.0
 40
0.4403076964139471
100
AcDbArc
 50
324.6156408642421
 51
359.65563903343
  0
ARC
  5
7D8
330
1F
100
AcDbEntity
  8
1
  6
CONTINUOUS
100
AcDbCircle
 10
175.1768320639039
 20
166.8520220452576
 30
0.0
 40
17.22311850414291
100
AcDbArc
 50
170.2225509444608
 51
178.7119447092025
  0
ARC
  5
7D9
330
1F
100
AcDbEntity
  8
1
  6
CONTINUOUS
100
AcDbCircle
 10
156.9637745067856
 20
165.10145141074
 30
0.0
 40
0.992795166636829
100
AcDbArc
 50
268.8221817799389
 51
359.7082291474666
  0
LINE
  5
7DA
330
1F
100
AcDbEntity
  8
1
  6
CONTINUOUS
100
AcDbLine
 10
154.4382101037008
 20
164.1007634991348
 30
0.0
 11
156.9433672465784
 21
164.1007634991348
 31
0.0
  0
LWPOLYLINE
  5
7DB
330
1F
100
AcDbEntity
  8
1
  6
CONTINUOUS
100
AcDbPolyline
 90
        3
 70
   128
 43
0.0
 10
154.4382101037008
 20
164.0391807252109
 10
154.6295484640104
 20
164.0772420161904
 10
154.6647561826212
 20
164.1007634991348
  0
ARC
  5
7DC
330
1F
100
AcDbEntity
  8
1
  6
CONTINUOUS
100
AcDbCircle
 10
158.0694456912838
 20
170.7057570624356
 30
0.0
 40
0.3664460031998394
100
AcDbArc
 50
326.7782423945786
 51
2.153627347777288
  0
LINE
  5
7DD
330
1F
100
AcDbEntity
  8
1
  6
CONTINUOUS
100
AcDbLine
 10
157.9581922032339
 20
165.0884348148048
 30
0.0
 11
157.9581922032339
 21
165.0906997913064
 31
0.0
  0
ARC
  5
7DE
330
1F
100
AcDbEntity
  8
1
  6
CONTINUOUS
100
AcDbCircle
 10
171.1322341902909
 20
167.1457714731659
 30
0.0
 40
13.19283520064602
100
AcDbArc
 50
164.1943185560606
 51
179.5943326411815
  0
ARC
  5
7DF
330
1F
100
AcDbEntity
  8
1
  6
CONTINUOUS
100
AcDbCircle
 10
156.9369015650104
 20
165.103900585338
 30
0.0
 40
1.002856180893461
100
AcDbArc
 50
270.3694037481174
 51
359.5712258345666
  0
LINE
  5
7E0
330
1F
100
AcDbEntity
  8
1
  6
CONTINUOUS
100
AcDbLine
 10
157.9397296645145
 20
165.0963957601725
 30
0.0
 11
157.9577488936884
 21
165.0963957601725
 31
0.0
  0
LINE
  5
7E1
330
1F
100
AcDbEntity
  8
1
  6
CONTINUOUS
100
AcDbLine
 10
157.9397296645145
 20
167.2391790145575
 30
0.0
 11
157.9577488936884
 21
167.2391790145575
 31
0.0
  0
ARC
  5
7E2
330
1F
100
AcDbEntity
  8
1
  6
CONTINUOUS
100
AcDbCircle
 10
142.7741604397597
 20
157.784283897666
 30
0.0
 40
7.058580308430782
100
AcDbArc
 50
67.8260476385315
 51
91.77008664313412
  0
LINE
  5
7E3
330
1F
100
AcDbEntity
  8
1
  6
CONTINUOUS
100
AcDbLine
 10
145.4382086284858
 20
164.0391807252109
 30
0.0
 11
154.4382101037008
 21
164.0391807252109
 31
0.0
  0
LINE
  5
7E4
330
1F
100
AcDbEntity
  8
1
  6
CONTINUOUS
100
AcDbLine
 10
154.4382101037008
 20
261.4391791814507
 30
0.0
 11
133.4382085241775
 21
261.4391791814507
 31
0.0
  0
ARC
  5
7E5
330
1F
100
AcDbEntity
  8
1
  6
CONTINUOUS
100
AcDbCircle
 10
134.9382067565341
 20
242.2391790499546
 30
0.0
 40
5.000001901754106
100
AcDbArc
 50
0.0
 51
89.99998759902117
  0
LINE
  5
7E6
330
1F
100
AcDbEntity
  8
1
  6
CONTINUOUS
100
AcDbLine
 10
126.4382083081107
 20
264.7391791635693
 30
0.0
 11
125.9382082857596
 21
264.7391799445911
 31
0.0
  0
LINE
  5
7E7
330
1F
100
AcDbEntity
  8
1
  6
CONTINUOUS
100
AcDbLine
 10
133.4432097264034
 20
262.9391784959973
 30
0.0
 11
126.4332071058852
 21
262.9391784959973
 31
0.0
  0
LINE
  5
7E8
330
1F
100
AcDbEntity
  8
1
  6
CONTINUOUS
100
AcDbLine
 10
126.4382083081112
 20
263.4245502942742
 30
0.0
 11
126.4382083081112
 21
262.4376948171796
 31
0.0
  0
LINE
  5
7E9
330
1F
100
AcDbEntity
  8
1
  6
CONTINUOUS
100
AcDbLine
 10
125.9382082857596
 20
263.4245494866204
 30
0.0
 11
125.9382082857596
 21
264.7391799445911
 31
0.0
  0
LINE
  5
7EA
330
1F
100
AcDbEntity
  8
1
  6
CONTINUOUS
100
AcDbLine
 10
126.4382083081112
 20
263.4245502942742
 30
0.0
 11
126.4382083081107
 21
264.6866078668774
 31
0.0
  0
LINE
  5
7EB
330
1F
100
AcDbEntity
  8
1
  6
CONTINUOUS
100
AcDbLine
 10
133.4382085241775
 20
261.377972661847
 30
0.0
 11
126.4382083081107
 21
261.377972661847
 31
0.0
  0
LINE
  5
7EC
330
1F
100
AcDbEntity
  8
1
  6
CONTINUOUS
100
AcDbLine
 10
133.4382085241775
 20
261.377972661847
 30
0.0
 11
133.4382085241775
 21
262.9391784959973
 31
0.0
  0
LINE
  5
7ED
330
1F
100
AcDbEntity
  8
1
  6
CONTINUOUS
100
AcDbLine
 10
118.4382083937929
 20
263.4245502942742
 30
0.0
 11
118.4382083937929
 21
262.4376948171796
 31
0.0
  0
LINE
  5
7EE
330
1F
100
AcDbEntity
  8
1
  6
CONTINUOUS
100
AcDbLine
 10
118.4382083937929
 20
263.4245502942742
 30
0.0
 11
118.4382083937923
 21
264.7337737673463
 31
0.0
  0
LINE
  5
7EF
330
1F
100
AcDbEntity
  8
1
  6
CONTINUOUS
100
AcDbLine
 10
125.9382082857596
 20
264.7391799445911
 30
0.0
 11
118.4382083937923
 21
264.7391791635693
 31
0.0
  0
LINE
  5
7F0
330
1F
100
AcDbEntity
  8
1
  6
CONTINUOUS
100
AcDbLine
 10
134.9382078387242
 20
247.2391809517085
 30
0.0
 11
126.4382083081107
 21
247.2391809517085
 31
0.0
  0
LINE
  5
7F1
330
1F
100
AcDbEntity
  8
1
  6
CONTINUOUS
100
AcDbLine
 10
157.9581922032339
 20
258.2208003097714
 30
0.0
 11
157.9581922032339
 21
260.3909867995919
 31
0.0
  0
ARC
  5
7F2
330
1F
100
AcDbEntity
  8
1
  6
CONTINUOUS
100
AcDbCircle
 10
156.963030620732
 20
260.3761437119314
 30
0.0
 40
0.9935469324261871
100
AcDbArc
 50
0.3354394086869182
 51
91.14025110624799
  0
LINE
  5
7F3
330
1F
100
AcDbEntity
  8
1
  6
CONTINUOUS
100
AcDbLine
 10
156.9432592131597
 20
261.3775964075268
 30
0.0
 11
154.4382101037008
 21
261.3775964075268
 31
0.0
  0
LWPOLYLINE
  5
7F4
330
1F
100
AcDbEntity
  8
1
  6
CONTINUOUS
100
AcDbPolyline
 90
        3
 70
   128
 43
0.0
 10
154.6749597527487
 20
261.3775964075268
 10
154.5804714896185
 20
261.418462842101
 10
154.4382101037008
 20
261.4391791814507
  0
ARC
  5
7F5
330
1F
100
AcDbEntity
  8
1
  6
CONTINUOUS
100
AcDbCircle
 10
156.936957989023
 20
260.3745113887732
 30
0.0
 40
1.002803067654719
100
AcDbArc
 50
0.4256090336174199
 51
89.6399732546568
  0
LINE
  5
7F6
330
1F
100
AcDbEntity
  8
1
  6
CONTINUOUS
100
AcDbLine
 10
157.9397296645145
 20
260.381964146489
 30
0.0
 11
157.9577488936884
 21
260.381964146489
 31
0.0
  0
LINE
  5
7F7
330
1F
100
AcDbEntity
  8
1
  6
CONTINUOUS
100
AcDbLine
 10
158.4382070340615
 20
247.1823702746571
 30
0.0
 11
158.4382070340615
 21
254.7391812497318
 31
0.0
  0
ARC
  5
7F8
330
1F
100
AcDbEntity
  8
1
  6
CONTINUOUS
100
AcDbCircle
 10
158.0690365656073
 20
254.7724975453704
 30
0.0
 40
0.3668509026872709
100
AcDbArc
 50
357.8652081392244
 51
33.31202263300554
  0
LINE
  5
7F9
330
1F
100
AcDbEntity
  8
1
  6
CONTINUOUS
100
AcDbLine
 10
158.4434112646085
 20
245.3930742287577
 30
0.0
 11
158.3513444401724
 21
245.3930742287577
 31
0.0
  0
ARC
  5
7FA
330
1F
100
AcDbEntity
  8
1
  6
CONTINUOUS
100
AcDbCircle
 10
158.123646651132
 20
254.778078895605
 30
0.0
 40
0.3122142180260375
100
AcDbArc
 50
357.2975734165361
 51
26.7132794546116
  0
LINE
  5
7FB
330
1F
100
AcDbEntity
  8
1
  6
CONTINUOUS
100
AcDbLine
 10
156.7350899912816
 20
247.1158403152168
 30
0.0
 11
156.7011637725336
 21
247.1823702746571
 31
0.0
  0
LINE
  5
7FC
330
1F
100
AcDbEntity
  8
1
  6
CONTINUOUS
100
AcDbLine
 10
156.764113727997
 20
247.0426942402065
 30
0.0
 11
156.735093716572
 21
247.1158403152168
 31
0.0
  0
LINE
  5
7FD
330
1F
100
AcDbEntity
  8
1
  6
CONTINUOUS
100
AcDbLine
 10
156.7870726921062
 20
246.9636137777508
 30
0.0
 11
156.764113727997
 21
247.0426942402065
 31
0.0
  0
LINE
  5
7FE
330
1F
100
AcDbEntity
  8
1
  6
CONTINUOUS
100
AcDbLine
 10
156.8027561642629
 20
246.8788895004929
 30
0.0
 11
156.7870726921062
 21
246.9636100524605
 31
0.0
  0
LINE
  5
7FF
330
1F
100
AcDbEntity
  8
1
  6
CONTINUOUS
100
AcDbLine
 10
156.811059836338
 20
246.7900525027455
 30
0.0
 11
156.8027561642629
 21
246.8788895004929
 31
0.0
  0
LINE
  5
800
330
1F
100
AcDbEntity
  8
1
  6
CONTINUOUS
100
AcDbLine
 10
156.8135818578703
 20
246.7000234121024
 30
0.0
 11
156.811059836338
 21
246.7900487774552
 31
0.0
  0
LINE
  5
801
330
1F
100
AcDbEntity
  8
1
  6
CONTINUOUS
100
AcDbLine
 10
156.8121625222666
 20
246.6101098054588
 30
0.0
 11
156.8135818578703
 21
246.7000234121024
 31
0.0
  0
LINE
  5
802
330
1F
100
AcDbEntity
  8
1
  6
CONTINUOUS
100
AcDbLine
 10
156.8083217479688
 20
246.5204383426846
 30
0.0
 11
156.8121625222666
 21
246.6101098054588
 31
0.0
  0
LINE
  5
803
330
1F
100
AcDbEntity
  8
1
  6
CONTINUOUS
100
AcDbLine
 10
156.8021116890413
 20
246.4315678173245
 30
0.0
 11
156.8083217479688
 21
246.5204383426846
 31
0.0
  0
LINE
  5
804
330
1F
100
AcDbEntity
  8
1
  6
CONTINUOUS
100
AcDbLine
 10
156.7927127816183
 20
246.3436472409905
 30
0.0
 11
156.8021116890413
 21
246.4315678173245
 31
0.0
  0
LINE
  5
805
330
1F
100
AcDbEntity
  8
1
  6
CONTINUOUS
100
AcDbLine
 10
156.7011637725336
 20
247.1823702746571
 30
0.0
 11
157.7562293149931
 21
247.1823702746571
 31
0.0
  0
LINE
  5
806
330
1F
100
AcDbEntity
  8
1
  6
CONTINUOUS
100
AcDbLine
 10
157.4337011315328
 20
247.1823702746571
 30
0.0
 11
156.8770011999113
 21
247.1823702746571
 31
0.0
  0
LINE
  5
807
330
1F
100
AcDbEntity
  8
1
  6
CONTINUOUS
100
AcDbLine
 10
158.4262115993005
 20
247.1406991773785
 30
0.0
 11
158.4247624613744
 21
247.1823702746571
 31
0.0
  0
LINE
  5
808
330
1F
100
AcDbEntity
  8
1
  6
CONTINUOUS
100
AcDbLine
 10
158.4273962416155
 20
247.0958057039918
 30
0.0
 11
158.4262115993005
 21
247.1406991773785
 31
0.0
  0
LINE
  5
809
330
1F
100
AcDbEntity
  8
1
  6
CONTINUOUS
100
AcDbLine
 10
158.4283722676737
 20
247.0479319983662
 30
0.0
 11
158.4273962416155
 21
247.0958019787015
 31
0.0
  0
LINE
  5
80A
330
1F
100
AcDbEntity
  8
1
  6
CONTINUOUS
100
AcDbLine
 10
158.429139677475
 20
246.9980391853989
 30
0.0
 11
158.4283722676737
 21
247.0479282730759
 31
0.0
  0
LINE
  5
80B
330
1F
100
AcDbEntity
  8
1
  6
CONTINUOUS
100
AcDbLine
 10
158.4296425916654
 20
246.9461570674121
 30
0.0
 11
158.429139677475
 21
246.9980391853989
 31
0.0
  0
LINE
  5
80C
330
1F
100
AcDbEntity
  8
1
  6
CONTINUOUS
100
AcDbLine
 10
158.4297655262453
 20
246.8925687664687
 30
0.0
 11
158.4296425916654
 21
246.9461570674121
 31
0.0
  0
LINE
  5
80D
330
1F
100
AcDbEntity
  8
1
  6
CONTINUOUS
100
AcDbLine
 10
158.4294600524408
 20
246.8397776776494
 30
0.0
 11
158.4297655262453
 21
246.8925687664687
 31
0.0
  0
LINE
  5
80E
330
1F
100
AcDbEntity
  8
1
  6
CONTINUOUS
100
AcDbLine
 10
158.4288453795416
 20
246.7890056961716
 30
0.0
 11
158.4294600524408
 21
246.8397739523589
 31
0.0
  0
LINE
  5
80F
330
1F
100
AcDbEntity
  8
1
  6
CONTINUOUS
100
AcDbLine
 10
158.428029540966
 20
246.7395189398469
 30
0.0
 11
158.4288453795416
 21
246.7890019708813
 31
0.0
  0
LINE
  5
810
330
1F
100
AcDbEntity
  8
1
  6
CONTINUOUS
100
AcDbLine
 10
158.4271019436819
 20
246.6909039014519
 30
0.0
 11
158.428029540966
 21
246.7395189398469
 31
0.0
  0
LINE
  5
811
330
1F
100
AcDbEntity
  8
1
  6
CONTINUOUS
100
AcDbLine
 10
158.4260551371079
 20
246.6437007480801
 30
0.0
 11
158.4271019436819
 21
246.6909039014519
 31
0.0
  0
LINE
  5
812
330
1F
100
AcDbEntity
  8
1
  6
CONTINUOUS
100
AcDbLine
 10
158.4248183407289
 20
246.5983267122449
 30
0.0
 11
158.4260551371079
 21
246.6437007480801
 31
0.0
  0
LINE
  5
813
330
1F
100
AcDbEntity
  8
1
  6
CONTINUOUS
100
AcDbLine
 10
158.4247624613744
 20
247.1823702746571
 30
0.0
 11
158.4382070340615
 21
247.1823702746571
 31
0.0
  0
LWPOLYLINE
  5
814
330
1F
100
AcDbEntity
  8
1
  6
CONTINUOUS
100
AcDbPolyline
 90
        9
 70
   128
 43
0.0
 10
158.4370149411661
 20
245.361887961024
 10
158.436877105425
 20
245.3725273901164
 10
158.4367392696839
 20
245.381631999606
 10
158.436601433943
 20
245.3884138905944
 10
158.4364635982018
 20
245.3922863298596
 10
158.4363257624609
 20
245.3929121786296
 10
158.4361879267198
 20
245.3902411454856
 10
158.4360500909788
 20
245.3845004731358
 10
158.4359122552377
 20
245.3761893504798
  0
LINE
  5
815
330
1F
100
AcDbEntity
  8
1
  6
CONTINUOUS
100
AcDbLine
 10
158.4382070340615
 20
244.4114136689842
 30
0.0
 11
158.4370149411661
 21
245.361886098379
 31
0.0
  0
ARC
  5
816
330
1F
100
AcDbEntity
  8
1
  6
CONTINUOUS
100
AcDbCircle
 10
174.2569144911215
 20
258.5383804957781
 30
0.0
 40
16.30159493499539
100
AcDbArc
 50
181.0516662463043
 51
189.99600069582
  0
ARC
  5
817
330
1F
100
AcDbEntity
  8
1
  6
CONTINUOUS
100
AcDbCircle
 10
171.0834600942288
 20
258.3256419233266
 30
0.0
 40
13.14401480214131
100
AcDbArc
 50
180.376893056066
 51
195.8344557467165
  0
LINE
  5
818
330
1F
100
AcDbEntity
  8
1
  6
CONTINUOUS
100
AcDbLine
 10
157.2862876691324
 20
241.5391794586123
 30
0.0
 11
156.1645692326528
 21
241.5391794586123
 31
0.0
  0
LINE
  5
819
330
1F
100
AcDbEntity
  8
1
  6
CONTINUOUS
100
AcDbLine
 10
158.2373580076199
 20
241.5391794586123
 30
0.0
 11
157.7337807156545
 21
241.5391794586123
 31
0.0
  0
LINE
  5
81A
330
1F
100
AcDbEntity
  8
1
  6
CONTINUOUS
100
AcDbLine
 10
158.2308312990169
 20
241.5956287825049
 30
0.0
 11
158.2373580076199
 21
241.5391794586123
 31
0.0
  0
LINE
  5
81B
330
1F
100
AcDbEntity
  8
1
  6
CONTINUOUS
100
AcDbLine
 10
158.2252806164723
 20
241.65560595631
 30
0.0
 11
158.2308312990169
 21
241.5956306451501
 31
0.0
  0
LINE
  5
81C
330
1F
100
AcDbEntity
  8
1
  6
CONTINUOUS
100
AcDbLine
 10
158.220732037018
 20
241.7186546319665
 30
0.0
 11
158.2252806164723
 21
241.6556078189552
 31
0.0
  0
LINE
  5
81D
330
1F
100
AcDbEntity
  8
1
  6
CONTINUOUS
100
AcDbLine
 10
158.2174910344583
 20
241.7841731750905
 30
0.0
 11
158.220732037018
 21
241.7186564946116
 31
0.0
  0
LINE
  5
81E
330
1F
100
AcDbEntity
  8
1
  6
CONTINUOUS
100
AcDbLine
 10
158.2160158195001
 20
241.8509341025294
 30
0.0
 11
158.2174910344583
 21
241.7841750377358
 31
0.0
  0
LINE
  5
81F
330
1F
100
AcDbEntity
  8
1
  6
CONTINUOUS
100
AcDbLine
 10
158.2164405025942
 20
241.9181402021588
 30
0.0
 11
158.2160158195001
 21
241.8509359651744
 31
0.0
  0
LINE
  5
820
330
1F
100
AcDbEntity
  8
1
  6
CONTINUOUS
100
AcDbLine
 10
158.2183068730337
 20
241.984919756049
 30
0.0
 11
158.2164405025942
 21
241.9181402021588
 31
0.0
  0
LINE
  5
821
330
1F
100
AcDbEntity
  8
1
  6
CONTINUOUS
100
AcDbLine
 10
158.2210784890157
 20
242.0507400476874
 30
0.0
 11
158.2183068730337
 21
241.984921618694
 31
0.0
  0
LINE
  5
822
330
1F
100
AcDbEntity
  8
1
  6
CONTINUOUS
100
AcDbLine
 10
158.224364195059
 20
242.1162325137795
 30
0.0
 11
158.2210784890157
 21
242.0507437729777
 31
0.0
  0
LINE
  5
823
330
1F
100
AcDbEntity
  8
1
  6
CONTINUOUS
100
AcDbLine
 10
158.2281192876798
 20
242.1808867895543
 30
0.0
 11
158.224364195059
 21
242.1162362390698
 31
0.0
  0
LINE
  5
824
330
1F
100
AcDbEntity
  8
1
  6
CONTINUOUS
100
AcDbLine
 10
158.2324219979746
 20
242.2441049659194
 30
0.0
 11
158.2281192876798
 21
242.1808905148448
 31
0.0
  0
LINE
  5
825
330
1F
100
AcDbEntity
  8
1
  6
CONTINUOUS
100
AcDbLine
 10
158.2373580076199
 20
242.3056896024883
 30
0.0
 11
158.2324219979746
 21
242.2441068285645
 31
0.0
  0
LINE
  5
826
330
1F
100
AcDbEntity
  8
1
  6
CONTINUOUS
100
AcDbLine
 10
158.3050614335043
 20
242.9412315779865
 30
0.0
 11
158.2373580076199
 21
242.3056896024883
 31
0.0
  0
ARC
  5
827
330
1F
100
AcDbEntity
  8
1
  6
CONTINUOUS
100
AcDbCircle
 10
158.3376915331568
 20
242.9416507893574
 30
0.0
 40
0.0326364697701747
100
AcDbArc
 50
149.7006783923499
 51
180.7294367960633
  0
LINE
  5
828
330
1F
100
AcDbEntity
  8
1
  6
CONTINUOUS
100
AcDbLine
 10
158.4382070340615
 20
242.9581164562644
 30
0.0
 11
158.3095131554109
 21
242.9581164562644
 31
0.0
  0
LINE
  5
829
330
1F
100
AcDbEntity
  8
1
  6
CONTINUOUS
100
AcDbLine
 10
158.4360240139465
 20
242.9581164562644
 30
0.0
 11
158.4382070340615
 21
242.9581164562644
 31
0.0
  0
LINE
  5
82A
330
1F
100
AcDbEntity
  8
1
  6
CONTINUOUS
100
AcDbLine
 10
158.2377975918751
 20
243.6934347444714
 30
0.0
 11
158.2155650593739
 21
242.9581183189095
 31
0.0
  0
LINE
  5
82B
330
1F
100
AcDbEntity
  8
1
  6
CONTINUOUS
100
AcDbLine
 10
156.1645692326528
 20
241.5391794586123
 30
0.0
 11
156.7375747599106
 21
241.5391794586123
 31
0.0
  0
LINE
  5
82C
330
1F
100
AcDbEntity
  8
1
  6
CONTINUOUS
100
AcDbLine
 10
157.2862876691324
 20
241.5391794586123
 30
0.0
 11
156.7375747599106
 21
241.5391794586123
 31
0.0
  0
LINE
  5
82D
330
1F
100
AcDbEntity
  8
1
  6
CONTINUOUS
100
AcDbLine
 10
157.729507807682
 20
241.5391794586123
 30
0.0
 11
158.2373580076199
 21
241.5391794586123
 31
0.0
  0
LINE
  5
82E
330
1F
100
AcDbEntity
  8
1
  6
CONTINUOUS
100
AcDbLine
 10
157.8168546893101
 20
241.9181402021588
 30
0.0
 11
158.2164405025942
 21
241.9181402021588
 31
0.0
  0
LINE
  5
82F
330
1F
100
AcDbEntity
  8
1
  6
CONTINUOUS
100
AcDbLine
 10
157.8021211661796
 20
241.8509341025294
 30
0.0
 11
158.2160158195001
 21
241.8509341025294
 31
0.0
  0
LINE
  5
830
330
1F
100
AcDbEntity
  8
1
  6
CONTINUOUS
100
AcDbLine
 10
157.7874845005972
 20
241.7841731750905
 30
0.0
 11
158.2174910344583
 21
241.7841731750905
 31
0.0
  0
LINE
  5
831
330
1F
100
AcDbEntity
  8
1
  6
CONTINUOUS
100
AcDbLine
 10
157.831495080183
 20
241.984919756049
 30
0.0
 11
158.2183068730337
 21
241.984919756049
 31
0.0
  0
LINE
  5
832
330
1F
100
AcDbEntity
  8
1
  6
CONTINUOUS
100
AcDbLine
 10
157.7122224606973
 20
241.7186546319665
 30
0.0
 11
158.220732037018
 21
241.7186546319665
 31
0.0
  0
LINE
  5
833
330
1F
100
AcDbEntity
  8
1
  6
CONTINUOUS
100
AcDbLine
 10
157.845923129509
 20
242.0507400476874
 30
0.0
 11
158.2210784890157
 21
242.0507400476874
 31
0.0
  0
LINE
  5
834
330
1F
100
AcDbEntity
  8
1
  6
CONTINUOUS
100
AcDbLine
 10
157.7169535793764
 20
241.65560595631
 30
0.0
 11
158.2252806164723
 21
241.65560595631
 31
0.0
  0
LINE
  5
835
330
1F
100
AcDbEntity
  8
1
  6
CONTINUOUS
100
AcDbLine
 10
157.8602803983193
 20
242.1162325137795
 30
0.0
 11
158.224364195059
 21
242.1162325137795
 31
0.0
  0
LINE
  5
836
330
1F
100
AcDbEntity
  8
1
  6
CONTINUOUS
100
AcDbLine
 10
157.8744514026148
 20
242.1808867895543
 30
0.0
 11
158.2281192876798
 21
242.1808867895543
 31
0.0
  0
LINE
  5
837
330
1F
100
AcDbEntity
  8
1
  6
CONTINUOUS
100
AcDbLine
 10
157.7227240540485
 20
241.5956287825049
 30
0.0
 11
158.2308312990169
 21
241.5956287825049
 31
0.0
  0
LINE
  5
838
330
1F
100
AcDbEntity
  8
1
  6
CONTINUOUS
100
AcDbLine
 10
157.888309482525
 20
242.2441049659194
 30
0.0
 11
158.2324219979746
 21
242.2441049659194
 31
0.0
  0
LINE
  5
839
330
1F
100
AcDbEntity
  8
1
  6
CONTINUOUS
100
AcDbLine
 10
157.901813659857
 20
242.3056951904238
 30
0.0
 11
158.2373580076199
 21
242.3056951904238
 31
0.0
  0
LINE
  5
83A
330
1F
100
AcDbEntity
  8
1
  6
CONTINUOUS
100
AcDbLine
 10
158.0318151154024
 20
242.9581164562644
 30
0.0
 11
158.3095131554109
 21
242.9581164562644
 31
0.0
  0
LINE
  5
83B
330
1F
100
AcDbEntity
  8
1
  6
CONTINUOUS
100
AcDbLine
 10
158.4360240139465
 20
242.9581183189095
 30
0.0
 11
158.0318151154024
 21
242.9581183189095
 31
0.0
  0
ARC
  5
83C
330
1F
100
AcDbEntity
  8
1
  6
CONTINUOUS
100
AcDbCircle
 10
158.5494644636554
 20
243.732586211188
 30
0.0
 40
0.1794796061654228
100
AcDbArc
 50
173.421145327993
 51
192.5997395098676
  0
LINE
  5
83D
330
1F
100
AcDbEntity
  8
1
  6
CONTINUOUS
100
AcDbLine
 10
158.1527752913934
 20
243.6934347444714
 30
0.0
 11
158.3743071295721
 21
243.6934347444714
 31
0.0
  0
LINE
  5
83E
330
1F
100
AcDbEntity
  8
1
  6
CONTINUOUS
100
AcDbLine
 10
158.3743071295721
 20
243.6934347444714
 30
0.0
 11
158.4382070340615
 21
243.6934347444714
 31
0.0
  0
LINE
  5
83F
330
1F
100
AcDbEntity
  8
1
  6
CONTINUOUS
100
AcDbLine
 10
158.4382070340615
 20
243.6884335422456
 30
0.0
 11
158.4382070340615
 21
244.2420824611128
 31
0.0
  0
LINE
  5
840
330
1F
100
AcDbEntity
  8
1
  6
CONTINUOUS
100
AcDbLine
 10
156.1645692326528
 20
241.5391794586123
 30
0.0
 11
156.792709056328
 21
246.3436472409905
 31
0.0
  0
LINE
  5
841
330
1F
100
AcDbEntity
  8
1
  6
CONTINUOUS
100
AcDbLine
 10
157.7562293149931
 20
247.1823702746571
 30
0.0
 11
157.2862876691324
 21
241.5391794586123
 31
0.0
  0
ARC
  5
842
330
1F
100
AcDbEntity
  8
1
  6
CONTINUOUS
100
AcDbCircle
 10
133.8890795989799
 20
247.3729368325819
 30
0.0
 40
24.54796318316242
100
AcDbArc
 50
346.2522759159183
 51
358.1917335085543
  0
LINE
  5
843
330
1F
100
AcDbEntity
  8
1
  6
CONTINUOUS
100
AcDbLine
 10
156.7375747599106
 20
241.5391794586123
 30
0.0
 11
157.2285158671838
 21
247.1823702746571
 31
0.0
  0
LINE
  5
844
330
1F
100
AcDbEntity
  8
1
  6
CONTINUOUS
100
AcDbLine
 10
158.4359122552377
 20
245.3761893504798
 30
0.0
 11
158.3711667098505
 21
243.7531492853106
 31
0.0
  0
LINE
  5
845
330
1F
100
AcDbEntity
  8
1
  6
CONTINUOUS
100
AcDbLine
 10
221.3049987934795
 20
242.2391801321448
 30
0.0
 11
221.3049987934795
 21
183.239181637162
 31
0.0
  0
LINE
  5
846
330
1F
100
AcDbEntity
  8
1
  6
CONTINUOUS
100
AcDbLine
 10
249.3049977951018
 20
183.239181637162
 30
0.0
 11
249.3049977951018
 21
242.2391801321448
 31
0.0
  0
LINE
  5
847
330
1F
100
AcDbEntity
  8
1
  6
CONTINUOUS
100
AcDbLine
 10
248.8049977131454
 20
165.8314923936069
 30
0.0
 11
248.8049977131454
 21
259.6468675130547
 31
0.0
  0
LINE
  5
848
330
1F
100
AcDbEntity
  8
1
  6
CONTINUOUS
100
AcDbLine
 10
221.8049979441133
 20
259.6468675130547
 30
0.0
 11
221.8049979441133
 21
165.8314923936069
 31
0.0
  0
LINE
  5
849
330
1F
100
AcDbEntity
  8
1
  6
CONTINUOUS
100
AcDbLine
 10
218.3049983017413
 20
163.0406650894821
 30
0.0
 11
218.3049983017413
 21
262.4376948171796
 31
0.0
  0
LINE
  5
84A
330
1F
100
AcDbEntity
  8
1
  6
CONTINUOUS
100
AcDbLine
 10
252.3049982868399
 20
262.4376948171796
 30
0.0
 11
252.3049982868399
 21
163.0406650894821
 31
0.0
  0
LINE
  5
84B
330
1F
100
AcDbEntity
  8
1
  6
CONTINUOUS
100
AcDbLine
 10
240.0547036107896
 20
164.152042120093
 30
0.0
 11
241.9512075742971
 21
164.2602841550053
 31
0.0
  0
INSERT
  5
84C
330
1F
100
AcDbEntity
  8
1
100
AcDbBlockReference
  2
A$C2DD26419
 10
234.2984300597951
 20
163.4826118244738
 30
0.0
 50
29.99999999999305
  0
LINE
  5
84D
330
1F
100
AcDbEntity
  8
1
  6
CONTINUOUS
100
AcDbLine
 10
221.3049987934795
 20
183.239181637162
 30
0.0
 11
221.3049979213619
 21
178.7391799661493
 31
0.0
  0
ARC
  5
84E
330
1F
100
AcDbEntity
  8
1
  6
CONTINUOUS
100
AcDbCircle
 10
221.8049979358388
 20
178.7391799663893
 30
0.0
 40
0.500000014477223
100
AcDbArc
 50
180.0
 51
270.0000032686649
  0
ARC
  5
84F
330
1F
100
AcDbEntity
  8
1
  6
CONTINUOUS
100
AcDbCircle
 10
214.733073257584
 20
164.9246620166074
 30
0.0
 40
23.5858211955006
100
AcDbArc
 50
358.9753207830426
 51
0.4171963748559265
  0
LINE
  5
850
330
1F
100
AcDbEntity
  8
1
  6
CONTINUOUS
100
AcDbLine
 10
239.5531936221091
 20
164.1294556850136
 30
0.0
 11
240.0547029122976
 21
164.152042120093
 31
0.0
  0
LINE
  5
851
330
1F
100
AcDbEntity
  8
1
  6
CONTINUOUS
100
AcDbLine
 10
239.2985020436613
 20
164.1189503663719
 30
0.0
 11
239.5531931564478
 21
164.1294556850136
 31
0.0
  0
LINE
  5
852
330
1F
100
AcDbEntity
  8
1
  6
CONTINUOUS
100
AcDbLine
 10
239.0426472433178
 20
164.1090559953393
 30
0.0
 11
239.2985015779999
 21
164.1189503663719
 31
0.0
  0
LINE
  5
853
330
1F
100
AcDbEntity
  8
1
  6
CONTINUOUS
100
AcDbLine
 10
238.8225858825703
 20
164.1010662204031
 30
0.0
 11
239.0426467776565
 21
164.1090559953393
 31
0.0
  0
ARC
  5
854
330
1F
100
AcDbEntity
  8
1
  6
CONTINUOUS
100
AcDbCircle
 10
236.9878460720233
 20
164.8213621632516
 30
0.0
 40
1.971056554576087
100
AcDbArc
 50
338.5655235524958
 51
8.021114148801721
  0
ARC
  5
855
330
1F
100
AcDbEntity
  8
1
  6
CONTINUOUS
100
AcDbCircle
 10
238.8049919769823
 20
164.600750049925
 30
0.0
 40
0.4999941223253652
100
AcDbArc
 50
180.0
 51
272.0154944575631
  0
LINE
  5
856
330
1F
100
AcDbEntity
  8
1
  6
CONTINUOUS
100
AcDbLine
 10
238.9396131642429
 20
165.0963957601725
 30
0.0
 11
238.3049978547064
 21
165.0963957601725
 31
0.0
  0
LINE
  5
857
330
1F
100
AcDbEntity
  8
1
  6
CONTINUOUS
100
AcDbLine
 10
238.3049978547064
 20
165.0963957601725
 30
0.0
 11
238.3049978547064
 21
167.2391790145575
 31
0.0
  0
ARC
  5
858
330
1F
100
AcDbEntity
  8
1
  6
CONTINUOUS
100
AcDbCircle
 10
188.9247635302749
 20
163.6683398646273
 30
0.0
 40
43.39046919578318
100
AcDbArc
 50
1.244489666381322
 51
1.886044463933703
  0
ARC
  5
859
330
1F
100
AcDbEntity
  8
1
  6
CONTINUOUS
100
AcDbCircle
 10
235.2399026770938
 20
167.1695733776512
 30
0.0
 40
3.570198774470648
100
AcDbArc
 50
88.95526522478657
 51
178.8828739881076
  0
LINE
  5
85A
330
1F
100
AcDbEntity
  8
1
  6
CONTINUOUS
100
AcDbLine
 10
232.3049978025524
 20
167.2391790145575
 30
0.0
 11
231.6703824930158
 21
167.2391790145575
 31
0.0
  0
ARC
  5
85B
330
1F
100
AcDbEntity
  8
1
  6
CONTINUOUS
100
AcDbCircle
 10
235.3049997873081
 20
167.2391793841853
 30
0.0
 40
3.000001984756098
100
AcDbArc
 50
90.00002851452334
 51
180.0
  0
ARC
  5
85C
330
1F
100
AcDbEntity
  8
1
  6
CONTINUOUS
100
AcDbCircle
 10
233.6235071489813
 20
164.8214778592553
 30
0.0
 40
1.972377280341793
100
AcDbArc
 50
171.9877955013783
 51
201.4230254173849
  0
LINE
  5
85D
330
1F
100
AcDbEntity
  8
1
  6
CONTINUOUS
100
AcDbLine
 10
231.7874100031731
 20
164.1010662170233
 30
0.0
 11
231.5635430299012
 21
164.1091975563704
 31
0.0
  0
LINE
  5
85E
330
1F
100
AcDbEntity
  8
1
  6
CONTINUOUS
100
AcDbLine
 10
231.5635430299012
 20
164.1091975563704
 30
0.0
 11
230.5598389961092
 21
164.1518260532557
 31
0.0
  0
LINE
  5
85F
330
1F
100
AcDbEntity
  8
1
  6
CONTINUOUS
100
AcDbLine
 10
232.3049978025524
 20
165.0963957601725
 30
0.0
 11
231.6703834243384
 21
165.0963957601725
 31
0.0
  0
LINE
  5
860
330
1F
100
AcDbEntity
  8
1
  6
CONTINUOUS
100
AcDbLine
 10
232.3049978025524
 20
167.2391790145575
 30
0.0
 11
232.3049978025524
 21
165.0963957601725
 31
0.0
  0
LINE
  5
861
330
1F
100
AcDbEntity
  8
1
  6
CONTINUOUS
100
AcDbLine
 10
232.3049978025524
 20
164.6007570618333
 30
0.0
 11
232.3049978025524
 21
164.6295349293889
 31
0.0
  0
ARC
  5
862
330
1F
100
AcDbEntity
  8
1
  6
CONTINUOUS
100
AcDbCircle
 10
231.8049955771683
 20
164.6007581154137
 30
0.0
 40
0.5000022253847538
100
AcDbArc
 50
267.9843994645571
 51
0.0
  0
ARC
  5
863
330
1F
100
AcDbEntity
  8
1
  6
CONTINUOUS
100
AcDbCircle
 10
231.804836742637
 20
164.600921853287
 30
0.0
 40
0.5001603025352935
100
AcDbArc
 50
268.0032431829615
 51
358.1099075302075
  0
ARC
  5
864
330
1F
100
AcDbEntity
  8
1
  6
CONTINUOUS
100
AcDbCircle
 10
235.3780618812297
 20
167.1778487572636
 30
0.0
 40
3.562079300351412
100
AcDbArc
 50
0.986541354578836
 51
91.17530476168528
  0
ARC
  5
865
330
1F
100
AcDbEntity
  8
1
  6
CONTINUOUS
100
AcDbCircle
 10
235.3049954810912
 20
167.2391789953274
 30
0.0
 40
3.000002373614961
100
AcDbArc
 50
0.0
 51
89.99994627190041
  0
ARC
  5
866
330
1F
100
AcDbEntity
  8
1
  6
CONTINUOUS
100
AcDbCircle
 10
235.3049978948575
 20
264.0391799445911
 30
0.0
 40
100.0
100
AcDbArc
 50
267.984154736415
 51
272.0158453186474
  0
LWPOLYLINE
  5
867
330
1F
100
AcDbEntity
  8
1
  6
CONTINUOUS
100
AcDbPolyline
 90
        3
 70
   128
 43
0.0
 10
233.8049980484214
 20
162.7849686139763
 10
235.3049982942907
 20
162.5391814106644
 10
236.8049980744986
 20
162.7849686139763
  0
LINE
  5
868
330
1F
100
AcDbEntity
  8
1
  6
CONTINUOUS
100
AcDbLine
 10
228.6571078606216
 20
164.2603959137143
 30
0.0
 11
228.4295326702563
 21
164.2758186155498
 31
0.0
  0
LINE
  5
869
330
1F
100
AcDbEntity
  8
1
  6
CONTINUOUS
100
AcDbLine
 10
228.4295326702563
 20
164.2758186155498
 30
0.0
 11
228.2057107098665
 21
164.291498362416
 31
0.0
  0
LINE
  5
86A
330
1F
100
AcDbEntity
  8
1
  6
CONTINUOUS
100
AcDbLine
 10
228.2057107098665
 20
164.291498362416
 30
0.0
 11
227.7695602409808
 21
164.3234986060799
 31
0.0
  0
LINE
  5
86B
330
1F
100
AcDbEntity
  8
1
  6
CONTINUOUS
100
AcDbLine
 10
227.7695602409808
 20
164.3234986060799
 30
0.0
 11
226.9427823506562
 21
164.3894250684918
 31
0.0
  0
LINE
  5
86C
330
1F
100
AcDbEntity
  8
1
  6
CONTINUOUS
100
AcDbLine
 10
226.9427823506562
 20
164.3894250684918
 30
0.0
 11
225.4696163021293
 21
164.5240272575558
 31
0.0
  0
LINE
  5
86D
330
1F
100
AcDbEntity
  8
1
  6
CONTINUOUS
100
AcDbLine
 10
225.4696163021293
 20
164.5240272575558
 30
0.0
 11
225.3029430888858
 21
164.540642052287
 31
0.0
  0
LINE
  5
86E
330
1F
100
AcDbEntity
  8
1
  6
CONTINUOUS
100
AcDbLine
 10
225.3029430888858
 20
164.540642052287
 30
0.0
 11
225.1412561767069
 21
164.5570296043097
 31
0.0
  0
LINE
  5
86F
330
1F
100
AcDbEntity
  8
1
  6
CONTINUOUS
100
AcDbLine
 10
225.1412561767069
 20
164.5570296043097
 30
0.0
 11
224.8329157613484
 21
164.5890149468123
 31
0.0
  0
LINE
  5
870
330
1F
100
AcDbEntity
  8
1
  6
CONTINUOUS
100
AcDbLine
 10
224.8329157613484
 20
164.5890149468123
 30
0.0
 11
224.2757296793429
 21
164.6492640668095
 31
0.0
  0
LINE
  5
871
330
1F
100
AcDbEntity
  8
1
  6
CONTINUOUS
100
AcDbLine
 10
224.2757296793429
 20
164.6492640668095
 30
0.0
 11
223.3976396404473
 21
164.7506366664113
 31
0.0
  0
LINE
  5
872
330
1F
100
AcDbEntity
  8
1
  6
CONTINUOUS
100
AcDbLine
 10
223.3976396404473
 20
164.7506366664113
 30
0.0
 11
223.229383178827
 21
164.7709581249894
 31
0.0
  0
LINE
  5
873
330
1F
100
AcDbEntity
  8
1
  6
CONTINUOUS
100
AcDbLine
 10
223.229383178827
 20
164.7709581249894
 30
0.0
 11
223.083810009834
 21
164.7887761884869
 31
0.0
  0
LINE
  5
874
330
1F
100
AcDbEntity
  8
1
  6
CONTINUOUS
100
AcDbLine
 10
223.083810009834
 20
164.7887761884869
 30
0.0
 11
222.8597878150908
 21
164.8166190081775
 31
0.0
  0
LINE
  5
875
330
1F
100
AcDbEntity
  8
1
  6
CONTINUOUS
100
AcDbLine
 10
222.8597878150908
 20
164.8166190081775
 30
0.0
 11
222.6787349812953
 21
164.8394960159004
 31
0.0
  0
ARC
  5
876
330
1F
100
AcDbEntity
  8
1
  6
CONTINUOUS
100
AcDbCircle
 10
222.8049961642518
 20
165.8314912547803
 30
0.0
 40
0.9999982201393176
100
AcDbArc
 50
180.0
 51
262.7463936877073
  0
LINE
  5
877
330
1F
100
AcDbEntity
  8
1
  6
CONTINUOUS
100
AcDbLine
 10
219.1433823339905
 20
162.0538096123875
 30
0.0
 11
221.8049979441133
 21
161.654618679875
 31
0.0
  0
ARC
  5
878
330
1F
100
AcDbEntity
  8
1
  6
CONTINUOUS
100
AcDbCircle
 10
219.3049984134313
 20
163.0406634345158
 30
0.0
 40
1.00000011169149
100
AcDbArc
 50
180.0
 51
260.6992893414605
  0
LINE
  5
879
330
1F
100
AcDbEntity
  8
1
  6
CONTINUOUS
100
AcDbLine
 10
230.5598389961092
 20
164.1518260532557
 30
0.0
 11
228.6571078606216
 21
164.2603959137143
 31
0.0
  0
LINE
  5
87A
330
1F
100
AcDbEntity
  8
1
  6
CONTINUOUS
100
AcDbLine
 10
249.3049979358388
 20
178.7391799513174
 30
0.0
 11
249.3049977951018
 21
183.239181637162
 31
0.0
  0
ARC
  5
87B
330
1F
100
AcDbEntity
  8
1
  6
CONTINUOUS
100
AcDbCircle
 10
248.8049979358388
 20
178.7391799510769
 30
0.0
 40
0.5
100
AcDbArc
 50
270.0000000275272
 51
0.0
  0
LINE
  5
87C
330
1F
100
AcDbEntity
  8
1
  6
CONTINUOUS
100
AcDbLine
 10
247.6465702660648
 20
164.8036736243905
 30
0.0
 11
247.7489011965956
 21
164.8164550954044
 31
0.0
  0
LINE
  5
87D
330
1F
100
AcDbEntity
  8
1
  6
CONTINUOUS
100
AcDbLine
 10
247.5868324421611
 20
164.7962640219868
 30
0.0
 11
247.646569334742
 21
164.8036736243905
 31
0.0
  0
LINE
  5
87E
330
1F
100
AcDbEntity
  8
1
  6
CONTINUOUS
100
AcDbLine
 10
247.5216393962769
 20
164.7882173949422
 30
0.0
 11
247.5868315108387
 21
164.7962640219868
 31
0.0
  0
LINE
  5
87F
330
1F
100
AcDbEntity
  8
1
  6
CONTINUOUS
100
AcDbLine
 10
247.2081201289114
 20
164.7501300269306
 30
0.0
 11
247.5216356709866
 21
164.7882173949422
 31
0.0
  0
LINE
  5
880
330
1F
100
AcDbEntity
  8
1
  6
CONTINUOUS
100
AcDbLine
 10
246.3324461736049
 20
164.6490629011332
 30
0.0
 11
247.2081124455001
 21
164.7501263016404
 31
0.0
  0
LINE
  5
881
330
1F
100
AcDbEntity
  8
1
  6
CONTINUOUS
100
AcDbLine
 10
246.0615100011496
 20
164.619376062745
 30
0.0
 11
246.3324445437904
 21
164.6490629011332
 31
0.0
  0
LINE
  5
882
330
1F
100
AcDbEntity
  8
1
  6
CONTINUOUS
100
AcDbLine
 10
245.9181165926425
 20
164.6039645367801
 30
0.0
 11
246.061509069827
 21
164.619376062745
 31
0.0
  0
ARC
  5
883
330
1F
100
AcDbEntity
  8
1
  6
CONTINUOUS
100
AcDbCircle
 10
247.8050010215973
 20
165.8314899084175
 30
0.0
 40
0.9999966915506824
100
AcDbArc
 50
277.2535291710456
 51
0.0
  0
LINE
  5
884
330
1F
100
AcDbEntity
  8
1
  6
CONTINUOUS
100
AcDbLine
 10
247.7489035249023
 20
164.8164550954044
 30
0.0
 11
247.9312522940604
 21
164.83949229061
 31
0.0
  0
LINE
  5
885
330
1F
100
AcDbEntity
  8
1
  6
CONTINUOUS
100
AcDbLine
 10
248.8049977131454
 20
161.654618679875
 30
0.0
 11
251.4666142545907
 21
162.0538096123875
 31
0.0
  0
ARC
  5
886
330
1F
100
AcDbEntity
  8
1
  6
CONTINUOUS
100
AcDbCircle
 10
251.3049967577831
 20
163.0406646386409
 30
0.0
 40
1.000001529056945
100
AcDbArc
 50
279.3007796498705
 51
0.0
  0
LINE
  5
887
330
1F
100
AcDbEntity
  8
1
  6
CONTINUOUS
100
AcDbLine
 10
245.1360562721534
 20
164.5236025744616
 30
0.0
 11
245.7701680854229
 21
164.5882847899138
 31
0.0
  0
LINE
  5
888
330
1F
100
AcDbEntity
  8
1
  6
CONTINUOUS
100
AcDbLine
 10
243.6679300757389
 20
164.3894883984269
 30
0.0
 11
245.1360497528952
 21
164.5236025744616
 31
0.0
  0
LINE
  5
889
330
1F
100
AcDbEntity
  8
1
  6
CONTINUOUS
100
AcDbLine
 10
243.2589957337627
 20
164.3560129398048
 30
0.0
 11
243.6679286787553
 21
164.3894883984269
 31
0.0
  0
LINE
  5
88A
330
1F
100
AcDbEntity
  8
1
  6
CONTINUOUS
100
AcDbLine
 10
243.048199367317
 20
164.3394167715253
 30
0.0
 11
243.2589950498225
 21
164.3560129398048
 31
0.0
  0
LINE
  5
88B
330
1F
100
AcDbEntity
  8
1
  6
CONTINUOUS
100
AcDbLine
 10
242.8343081868519
 20
164.3230366700828
 30
0.0
 11
243.0481986979289
 21
164.3394167715253
 31
0.0
  0
LINE
  5
88C
330
1F
100
AcDbEntity
  8
1
  6
CONTINUOUS
100
AcDbLine
 10
241.9512121144947
 20
164.2602841550053
 30
0.0
 11
242.8343056839225
 21
164.3230366700828
 31
0.0
  0
LINE
  5
88D
330
1F
100
AcDbEntity
  8
1
  6
CONTINUOUS
100
AcDbLine
 10
245.7701713450519
 20
164.5882885152043
 30
0.0
 11
245.9181156613199
 21
164.6039645367801
 31
0.0
  0
LINE
  5
88E
330
1F
100
AcDbEntity
  8
1
  6
CONTINUOUS
100
AcDbLine
 10
240.0501571268109
 20
261.3265338534058
 30
0.0
 11
241.9528876802218
 21
261.2179639929473
 31
0.0
  0
LINE
  5
88F
330
1F
100
AcDbEntity
  8
1
  6
CONTINUOUS
100
AcDbLine
 10
241.5828189717871
 20
241.5391794586123
 30
0.0
 11
239.5415430095313
 21
241.5391794586123
 31
0.0
  0
LINE
  5
890
330
1F
100
AcDbEntity
  8
1
  6
CONTINUOUS
100
AcDbLine
 10
239.5415430095313
 20
241.5391794586123
 30
0.0
 11
240.5803064488141
 21
246.3436472409905
 31
0.0
  0
ARC
  5
891
330
1F
100
AcDbEntity
  8
1
  6
CONTINUOUS
100
AcDbCircle
 10
235.3049982942907
 20
164.7839376958638
 30
0.0
 40
99.95583166698118
100
AcDbArc
 50
80.69513734531334
 51
99.30486265468669
  0
INSERT
  5
892
330
1F
100
AcDbEntity
  8
1
100
AcDbBlockReference
  2
A$C2DD26419
 10
234.2984302728591
 20
254.4826121814718
 30
0.0
 50
29.99999999999729
  0
LINE
  5
893
330
1F
100
AcDbEntity
  8
1
  6
CONTINUOUS
100
AcDbLine
 10
238.9396131642429
 20
258.239180892104
 30
0.0
 11
238.3049978547064
 21
258.239180892104
 31
0.0
  0
LINE
  5
894
330
1F
100
AcDbEntity
  8
1
  6
CONTINUOUS
100
AcDbLine
 10
238.3049978547064
 20
260.381964146489
 30
0.0
 11
238.3049978547064
 21
258.239180892104
 31
0.0
  0
LINE
  5
895
330
1F
100
AcDbEntity
  8
1
  6
CONTINUOUS
100
AcDbLine
 10
238.9396126985814
 20
260.381964146489
 30
0.0
 11
238.3049978547064
 21
260.381964146489
 31
0.0
  0
ARC
  5
896
330
1F
100
AcDbEntity
  8
1
  6
CONTINUOUS
100
AcDbCircle
 10
236.9865102120588
 20
260.656882826338
 30
0.0
 40
1.972356358113455
100
AcDbArc
 50
351.9876871011068
 51
21.42323957815733
  0
LINE
  5
897
330
1F
100
AcDbEntity
  8
1
  6
CONTINUOUS
100
AcDbLine
 10
238.8225858358349
 20
261.3772936721588
 30
0.0
 11
239.0464526273575
 21
261.3691623502911
 31
0.0
  0
LINE
  5
898
330
1F
100
AcDbEntity
  8
1
  6
CONTINUOUS
100
AcDbLine
 10
239.0464526273575
 20
261.3691623502911
 30
0.0
 11
240.0501571268109
 21
261.3265338534058
 31
0.0
  0
ARC
  5
899
330
1F
100
AcDbEntity
  8
1
  6
CONTINUOUS
100
AcDbCircle
 10
238.8049993875547
 20
260.8776027216777
 30
0.0
 40
0.5000015328487847
100
AcDbArc
 50
87.98362314550958
 51
180.0
  0
LINE
  5
89A
330
1F
100
AcDbEntity
  8
1
  6
CONTINUOUS
100
AcDbLine
 10
238.3049978547064
 20
260.381964146489
 30
0.0
 11
238.3049978547064
 21
260.8776028448285
 31
0.0
  0
ARC
  5
89B
330
1F
100
AcDbEntity
  8
1
  6
CONTINUOUS
100
AcDbCircle
 10
238.8052049630172
 20
260.8773824419868
 30
0.0
 40
0.5002142132757335
100
AcDbArc
 50
88.00894964533522
 51
178.1037379645386
  0
LWPOLYLINE
  5
89C
330
1F
100
AcDbEntity
  8
1
  6
CONTINUOUS
100
AcDbPolyline
 90
        3
 70
   128
 43
0.0
 10
232.3049978025524
 20
260.7842321687878
 10
232.3022066287963
 20
260.903758108014
 10
232.2949264802304
 20
260.9770904475392
  0
LINE
  5
89D
330
1F
100
AcDbEntity
  8
1
  6
CONTINUOUS
100
AcDbLine
 10
230.5552680649129
 20
261.3263177865685
 30
0.0
 11
231.0567955158916
 21
261.3489042216481
 31
0.0
  0
LINE
  5
89E
330
1F
100
AcDbEntity
  8
1
  6
CONTINUOUS
100
AcDbLine
 10
231.0567955158916
 20
261.3489042216481
 30
0.0
 11
231.3114954762426
 21
261.3594095402896
 31
0.0
  0
LINE
  5
89F
330
1F
100
AcDbEntity
  8
1
  6
CONTINUOUS
100
AcDbLine
 10
231.3114954762426
 20
261.3594095402896
 30
0.0
 11
231.5673540018764
 21
261.3693039113225
 31
0.0
  0
LINE
  5
8A0
330
1F
100
AcDbEntity
  8
1
  6
CONTINUOUS
100
AcDbLine
 10
231.5673540018764
 20
261.3693039113225
 30
0.0
 11
231.7874099564376
 21
261.3772936687789
 31
0.0
  0
ARC
  5
8A1
330
1F
100
AcDbEntity
  8
1
  6
CONTINUOUS
100
AcDbCircle
 10
233.6221552947199
 20
260.6569979851528
 30
0.0
 40
1.97106178083034
100
AcDbArc
 50
158.5655907437056
 51
188.0210998373708
  0
LINE
  5
8A2
330
1F
100
AcDbEntity
  8
1
  6
CONTINUOUS
100
AcDbLine
 10
232.3049978025524
 20
260.381964146489
 30
0.0
 11
231.6703824930158
 21
260.381964146489
 31
0.0
  0
ARC
  5
8A3
330
1F
100
AcDbEntity
  8
1
  6
CONTINUOUS
100
AcDbCircle
 10
231.8049999791114
 20
260.8776063508448
 30
0.0
 40
0.499997823453171
100
AcDbArc
 50
0.0
 51
92.01612302796505
  0
LINE
  5
8A4
330
1F
100
AcDbEntity
  8
1
  6
CONTINUOUS
100
AcDbLine
 10
232.3049978025524
 20
260.8776028448285
 30
0.0
 11
232.3049978025524
 21
260.3819604211987
 31
0.0
  0
LINE
  5
8A5
330
1F
100
AcDbEntity
  8
1
  6
CONTINUOUS
100
AcDbLine
 10
232.3049978025524
 20
258.239180892104
 30
0.0
 11
232.3049978025524
 21
260.381964146489
 31
0.0
  0
ARC
  5
8A6
330
1F
100
AcDbEntity
  8
1
  6
CONTINUOUS
100
AcDbCircle
 10
235.3049979441506
 20
161.4391799445911
 30
0.0
 40
100.0
100
AcDbArc
 50
87.98415473641503
 51
92.01584531864744
  0
ARC
  5
8A7
330
1F
100
AcDbEntity
  8
1
  6
CONTINUOUS
100
AcDbCircle
 10
235.3049978286294
 20
258.2391710013256
 30
0.0
 40
4.700006869520766
100
AcDbArc
 50
41.8997389647805
 51
138.1002610352192
  0
LINE
  5
8A8
330
1F
100
AcDbEntity
  8
1
  6
CONTINUOUS
100
AcDbLine
 10
234.7359536819424
 20
247.1406991773785
 30
0.0
 11
234.7026086084811
 21
247.1823702746571
 31
0.0
  0
LINE
  5
8A9
330
1F
100
AcDbEntity
  8
1
  6
CONTINUOUS
100
AcDbLine
 10
234.7648107119169
 20
247.0958057039918
 30
0.0
 11
234.7359555445878
 21
247.1406991773785
 31
0.0
  0
LINE
  5
8AA
330
1F
100
AcDbEntity
  8
1
  6
CONTINUOUS
100
AcDbLine
 10
234.7897068269817
 20
247.0479319983662
 30
0.0
 11
234.764812574562
 21
247.0958019787015
 31
0.0
  0
LINE
  5
8AB
330
1F
100
AcDbEntity
  8
1
  6
CONTINUOUS
100
AcDbLine
 10
234.8102667041389
 20
246.9980391853989
 30
0.0
 11
234.7897077583043
 21
247.0479282730759
 31
0.0
  0
LINE
  5
8AC
330
1F
100
AcDbEntity
  8
1
  6
CONTINUOUS
100
AcDbLine
 10
234.824147135791
 20
246.9461570674121
 30
0.0
 11
234.8102667041389
 21
246.9980391853989
 31
0.0
  0
LINE
  5
8AD
330
1F
100
AcDbEntity
  8
1
  6
CONTINUOUS
100
AcDbLine
 10
234.8276703290907
 20
246.8925687664687
 30
0.0
 11
234.824147135791
 21
246.9461570674121
 31
0.0
  0
LINE
  5
8AE
330
1F
100
AcDbEntity
  8
1
  6
CONTINUOUS
100
AcDbLine
 10
234.8191114746299
 20
246.8397776776494
 30
0.0
 11
234.8276703290907
 21
246.8925687664687
 31
0.0
  0
LINE
  5
8AF
330
1F
100
AcDbEntity
  8
1
  6
CONTINUOUS
100
AcDbLine
 10
234.8023029648034
 20
246.7890056961716
 30
0.0
 11
234.8191114746299
 21
246.8397739523589
 31
0.0
  0
LINE
  5
8B0
330
1F
100
AcDbEntity
  8
1
  6
CONTINUOUS
100
AcDbLine
 10
234.7808704383936
 20
246.7395189398469
 30
0.0
 11
234.8023020334808
 21
246.7890019708813
 31
0.0
  0
LINE
  5
8B1
330
1F
100
AcDbEntity
  8
1
  6
CONTINUOUS
100
AcDbLine
 10
234.7575333573189
 20
246.6909039014519
 30
0.0
 11
234.7808704383936
 21
246.7395189398469
 31
0.0
  0
LINE
  5
8B2
330
1F
100
AcDbEntity
  8
1
  6
CONTINUOUS
100
AcDbLine
 10
234.7322665758695
 20
246.6437007480801
 30
0.0
 11
234.7575333573189
 21
246.6909039014519
 31
0.0
  0
LINE
  5
8B3
330
1F
100
AcDbEntity
  8
1
  6
CONTINUOUS
100
AcDbLine
 10
234.7038565807311
 20
246.5983267122449
 30
0.0
 11
234.7322665758695
 21
246.6437007480801
 31
0.0
  0
LINE
  5
8B4
330
1F
100
AcDbEntity
  8
1
  6
CONTINUOUS
100
AcDbLine
 10
235.3049982942907
 20
247.1823702746571
 30
0.0
 11
236.9031245492665
 21
247.1823702746571
 31
0.0
  0
LINE
  5
8B5
330
1F
100
AcDbEntity
  8
1
  6
CONTINUOUS
100
AcDbLine
 10
234.7026086084811
 20
247.1823702746571
 30
0.0
 11
235.3049982942907
 21
247.1823702746571
 31
0.0
  0
ARC
  5
8B6
330
1F
100
AcDbEntity
  8
1
  6
CONTINUOUS
100
AcDbCircle
 10
235.0877757228972
 20
245.3547765247283
 30
0.0
 40
0.03829795660986
100
AcDbArc
 50
10.70119414346968
 51
146.0056297024584
  0
LINE
  5
8B7
330
1F
100
AcDbEntity
  8
1
  6
CONTINUOUS
100
AcDbLine
 10
235.3049982942907
 20
244.4114136689842
 30
0.0
 11
235.1254048429696
 21
245.361886098379
 31
0.0
  0
ARC
  5
8B8
330
1F
100
AcDbEntity
  8
1
  6
CONTINUOUS
100
AcDbCircle
 10
235.2319338009038
 20
258.3005111557878
 30
0.0
 40
3.562079325332776
100
AcDbArc
 50
180.9865414504674
 51
271.1753193366547
  0
ARC
  5
8B9
330
1F
100
AcDbEntity
  8
1
  6
CONTINUOUS
100
AcDbCircle
 10
235.3700929387
 20
258.3087865893908
 30
0.0
 40
3.570198817104181
100
AcDbArc
 50
268.9552808514706
 51
358.8828730322018
  0
ARC
  5
8BA
330
1F
100
AcDbEntity
  8
1
  6
CONTINUOUS
100
AcDbCircle
 10
235.3049948391511
 20
258.2391815532735
 30
0.0
 40
3.000003015555136
100
AcDbArc
 50
270.0000659882375
 51
0.0
  0
ARC
  5
8BB
330
1F
100
AcDbEntity
  8
1
  6
CONTINUOUS
100
AcDbCircle
 10
235.3050036896238
 20
258.2391844247895
 30
0.0
 40
3.000005887073788
100
AcDbArc
 50
180.0
 51
269.9998969569231
  0
LINE
  5
8BC
330
1F
100
AcDbEntity
  8
1
  6
CONTINUOUS
100
AcDbLine
 10
232.984948032376
 20
241.5391794586123
 30
0.0
 11
231.001119189736
 21
241.5391794586123
 31
0.0
  0
LINE
  5
8BD
330
1F
100
AcDbEntity
  8
1
  6
CONTINUOUS
100
AcDbLine
 10
232.9478394843904
 20
241.5956287825049
 30
0.0
 11
232.984948032376
 21
241.5391794586123
 31
0.0
  0
LINE
  5
8BE
330
1F
100
AcDbEntity
  8
1
  6
CONTINUOUS
100
AcDbLine
 10
232.9167547308175
 20
241.65560595631
 30
0.0
 11
232.9478385530677
 21
241.5956306451501
 31
0.0
  0
LINE
  5
8BF
330
1F
100
AcDbEntity
  8
1
  6
CONTINUOUS
100
AcDbLine
 10
232.8915857382384
 20
241.7186546319665
 30
0.0
 11
232.9167537994949
 21
241.6556078189552
 31
0.0
  0
LINE
  5
8C0
330
1F
100
AcDbEntity
  8
1
  6
CONTINUOUS
100
AcDbLine
 10
232.87381796616
 20
241.7841731750905
 30
0.0
 11
232.8915857382384
 21
241.7186564946116
 31
0.0
  0
LINE
  5
8C1
330
1F
100
AcDbEntity
  8
1
  6
CONTINUOUS
100
AcDbLine
 10
232.865761094567
 20
241.8509341025294
 30
0.0
 11
232.87381796616
 21
241.7841750377358
 31
0.0
  0
LINE
  5
8C2
330
1F
100
AcDbEntity
  8
1
  6
CONTINUOUS
100
AcDbLine
 10
232.8680782251324
 20
241.9181402021588
 30
0.0
 11
232.865761094567
 21
241.8509359651744
 31
0.0
  0
LINE
  5
8C3
330
1F
100
AcDbEntity
  8
1
  6
CONTINUOUS
100
AcDbLine
 10
232.878279932615
 20
241.984919756049
 30
0.0
 11
232.8680782251324
 21
241.9181402021588
 31
0.0
  0
LINE
  5
8C4
330
1F
100
AcDbEntity
  8
1
  6
CONTINUOUS
100
AcDbLine
 10
232.8934968121616
 20
242.0507400476874
 30
0.0
 11
232.878279932615
 21
241.984921618694
 31
0.0
  0
LINE
  5
8C5
330
1F
100
AcDbEntity
  8
1
  6
CONTINUOUS
100
AcDbLine
 10
232.9116557397215
 20
242.1162325137795
 30
0.0
 11
232.8934968121616
 21
242.0507437729777
 31
0.0
  0
LINE
  5
8C6
330
1F
100
AcDbEntity
  8
1
  6
CONTINUOUS
100
AcDbLine
 10
232.9326058410373
 20
242.1808867895543
 30
0.0
 11
232.9116566710438
 21
242.1162362390698
 31
0.0
  0
LINE
  5
8C7
330
1F
100
AcDbEntity
  8
1
  6
CONTINUOUS
100
AcDbLine
 10
232.9568369917838
 20
242.2441049659194
 30
0.0
 11
232.93260677236
 21
242.1808905148448
 31
0.0
  0
LINE
  5
8C8
330
1F
100
AcDbEntity
  8
1
  6
CONTINUOUS
100
AcDbLine
 10
232.9849461697306
 20
242.3056896024883
 30
0.0
 11
232.9568379231063
 21
242.2441068285645
 31
0.0
  0
LINE
  5
8C9
330
1F
100
AcDbEntity
  8
1
  6
CONTINUOUS
100
AcDbLine
 10
233.4136265002455
 20
242.9412315779865
 30
0.0
 11
232.9849461697306
 21
242.3056896024883
 31
0.0
  0
ARC
  5
8CA
330
1F
100
AcDbEntity
  8
1
  6
CONTINUOUS
100
AcDbCircle
 10
233.4453683584178
 20
242.9198265547729
 30
0.0
 40
0.0382899018263532
100
AcDbArc
 50
89.99241977243139
 51
146.0048603492309
  0
LINE
  5
8CB
330
1F
100
AcDbEntity
  8
1
  6
CONTINUOUS
100
AcDbLine
 10
235.3049982942907
 20
242.9581164562644
 30
0.0
 11
233.445373424169
 21
242.9581164562644
 31
0.0
  0
LINE
  5
8CC
330
1F
100
AcDbEntity
  8
1
  6
CONTINUOUS
100
AcDbLine
 10
235.5478620760409
 20
242.9581164562644
 30
0.0
 11
235.3049982942907
 21
242.9581164562644
 31
0.0
  0
ARC
  5
8CD
330
1F
100
AcDbEntity
  8
1
  6
CONTINUOUS
100
AcDbCircle
 10
235.5478594047098
 20
242.9198178859091
 30
0.0
 40
0.0383004330934183
100
AcDbArc
 50
10.698977229224
 51
89.99600380560655
  0
LINE
  5
8CE
330
1F
100
AcDbEntity
  8
1
  6
CONTINUOUS
100
AcDbLine
 10
235.8477172114219
 20
241.5391794586123
 30
0.0
 11
235.5854958899584
 21
242.9269301885307
 31
0.0
  0
LINE
  5
8CF
330
1F
100
AcDbEntity
  8
1
  6
CONTINUOUS
100
AcDbLine
 10
235.3049982942907
 20
243.6934347444714
 30
0.0
 11
235.3944527589051
 21
243.6934347444714
 31
0.0
  0
LINE
  5
8D0
330
1F
100
AcDbEntity
  8
1
  6
CONTINUOUS
100
AcDbLine
 10
233.9930190377204
 20
243.6934347444714
 30
0.0
 11
235.3049982942907
 21
243.6934347444714
 31
0.0
  0
ARC
  5
8D1
330
1F
100
AcDbEntity
  8
1
  6
CONTINUOUS
100
AcDbCircle
 10
233.9928221191665
 20
243.7316278436115
 30
0.0
 40
0.038193606779913
100
AcDbArc
 50
145.7029973728085
 51
270.2954068219562
  0
ARC
  5
8D2
330
1F
100
AcDbEntity
  8
1
  6
CONTINUOUS
100
AcDbCircle
 10
235.394453682883
 20
243.7317316797014
 30
0.0
 40
0.0382969352411969
100
AcDbArc
 50
269.9986176423952
 51
10.7002525515673
  0
LINE
  5
8D3
330
1F
100
AcDbEntity
  8
1
  6
CONTINUOUS
100
AcDbLine
 10
237.969417185363
 20
241.5391794586123
 30
0.0
 11
235.8477172114219
 21
241.5391794586123
 31
0.0
  0
LINE
  5
8D4
330
1F
100
AcDbEntity
  8
1
  6
CONTINUOUS
100
AcDbLine
 10
231.0684547432033
 20
247.1823702746571
 30
0.0
 11
229.8483532525865
 21
241.5391794586123
 31
0.0
  0
LWPOLYLINE
  5
8D5
330
1F
100
AcDbEntity
  8
1
  6
CONTINUOUS
100
AcDbPolyline
 90
        5
 70
   128
 43
0.0
 10
231.001119189736
 20
241.5391794586123
 10
231.8654014401404
 20
242.7201896154822
 10
232.8282688416805
 20
244.0356604003848
 10
233.6671194665399
 20
245.1820700609624
 10
234.7038575120536
 20
246.5983267122449
  0
LINE
  5
8D6
330
1F
100
AcDbEntity
  8
1
  6
CONTINUOUS
100
AcDbLine
 10
236.9031245492665
 20
247.1823702746571
 30
0.0
 11
237.969417185363
 21
241.5391794586123
 31
0.0
  0
LINE
  5
8D7
330
1F
100
AcDbEntity
  8
1
  6
CONTINUOUS
100
AcDbLine
 10
235.4320819162099
 20
243.7388423079192
 30
0.0
 11
235.3049982942907
 21
244.4114136689842
 31
0.0
  0
LINE
  5
8D8
330
1F
100
AcDbEntity
  8
1
  6
CONTINUOUS
100
AcDbLine
 10
235.0560241051284
 20
245.3761893504798
 30
0.0
 11
233.9612674571839
 21
243.7531492853106
 31
0.0
  0
LINE
  5
8D9
330
1F
100
AcDbEntity
  8
1
  6
CONTINUOUS
100
AcDbLine
 10
222.8610823534693
 20
260.6619048112571
 30
0.0
 11
222.9633695118395
 21
260.6746788316907
 31
0.0
  0
LINE
  5
8DA
330
1F
100
AcDbEntity
  8
1
  6
CONTINUOUS
100
AcDbLine
 10
222.9633695118395
 20
260.6746788316907
 30
0.0
 11
223.0230915032592
 21
260.6820884340943
 31
0.0
  0
LINE
  5
8DB
330
1F
100
AcDbEntity
  8
1
  6
CONTINUOUS
100
AcDbLine
 10
223.0230915032592
 20
260.6820884340943
 30
0.0
 11
223.0882840834823
 21
260.690135061139
 31
0.0
  0
LINE
  5
8DC
330
1F
100
AcDbEntity
  8
1
  6
CONTINUOUS
100
AcDbLine
 10
223.0882840834823
 20
260.690135061139
 30
0.0
 11
223.4018510811296
 21
260.7282298797309
 31
0.0
  0
LINE
  5
8DD
330
1F
100
AcDbEntity
  8
1
  6
CONTINUOUS
100
AcDbLine
 10
223.4018510811296
 20
260.7282298797309
 30
0.0
 11
224.2775178186862
 21
260.829293280238
 31
0.0
  0
LINE
  5
8DE
330
1F
100
AcDbEntity
  8
1
  6
CONTINUOUS
100
AcDbLine
 10
224.2775178186862
 20
260.829293280238
 30
0.0
 11
224.5484190665452
 21
260.8589763933362
 31
0.0
  0
LINE
  5
8DF
330
1F
100
AcDbEntity
  8
1
  6
CONTINUOUS
100
AcDbLine
 10
224.5484190665452
 20
260.8589763933362
 30
0.0
 11
224.691807352778
 21
260.8743841940106
 31
0.0
  0
LINE
  5
8E0
330
1F
100
AcDbEntity
  8
1
  6
CONTINUOUS
100
AcDbLine
 10
224.691807352778
 20
260.8743841940106
 30
0.0
 11
224.8397591196267
 21
260.8900676661671
 31
0.0
  0
LINE
  5
8E1
330
1F
100
AcDbEntity
  8
1
  6
CONTINUOUS
100
AcDbLine
 10
224.8397591196267
 20
260.8900676661671
 30
0.0
 11
225.4738873474565
 21
260.9547536069096
 31
0.0
  0
LINE
  5
8E2
330
1F
100
AcDbEntity
  8
1
  6
CONTINUOUS
100
AcDbLine
 10
225.4738873474565
 20
260.9547536069096
 30
0.0
 11
226.9420186661449
 21
261.0888677829446
 31
0.0
  0
LINE
  5
8E3
330
1F
100
AcDbEntity
  8
1
  6
CONTINUOUS
100
AcDbLine
 10
226.9420186661449
 20
261.0888677829446
 30
0.0
 11
227.3509381942715
 21
261.1223432415665
 31
0.0
  0
LINE
  5
8E4
330
1F
100
AcDbEntity
  8
1
  6
CONTINUOUS
100
AcDbLine
 10
227.3509381942715
 20
261.1223432415665
 30
0.0
 11
227.5617374711005
 21
261.1389394098462
 31
0.0
  0
LINE
  5
8E5
330
1F
100
AcDbEntity
  8
1
  6
CONTINUOUS
100
AcDbLine
 10
227.5617374711005
 20
261.1389394098462
 30
0.0
 11
227.7756408460704
 21
261.1553195112885
 31
0.0
  0
LINE
  5
8E6
330
1F
100
AcDbEntity
  8
1
  6
CONTINUOUS
100
AcDbLine
 10
227.7756408460704
 20
261.1553195112885
 30
0.0
 11
228.6587199799983
 21
261.2180720263661
 31
0.0
  0
ARC
  5
8E7
330
1F
100
AcDbEntity
  8
1
  6
CONTINUOUS
100
AcDbCircle
 10
222.8049961642518
 20
259.6468686518814
 30
0.0
 40
0.9999982201392986
100
AcDbArc
 50
97.25360631229257
 51
180.0
  0
LINE
  5
8E8
330
1F
100
AcDbEntity
  8
1
  6
CONTINUOUS
100
AcDbLine
 10
222.6787349812953
 20
260.6388638907611
 30
0.0
 11
222.8610823534693
 21
260.6619048112571
 31
0.0
  0
ARC
  5
8E9
330
1F
100
AcDbEntity
  8
1
  6
CONTINUOUS
100
AcDbCircle
 10
219.3049984134313
 20
262.4376964721459
 30
0.0
 40
1.000000111691468
100
AcDbArc
 50
99.30071065853944
 51
180.0
  0
LINE
  5
8EA
330
1F
100
AcDbEntity
  8
1
  6
CONTINUOUS
100
AcDbLine
 10
228.7411913879481
 20
247.1158403152168
 30
0.0
 11
228.6805827774374
 21
247.1823702746571
 31
0.0
  0
LINE
  5
8EB
330
1F
100
AcDbEntity
  8
1
  6
CONTINUOUS
100
AcDbLine
 10
228.7936257802214
 20
247.0426942402065
 30
0.0
 11
228.7411932505932
 21
247.1158403152168
 31
0.0
  0
LINE
  5
8EC
330
1F
100
AcDbEntity
  8
1
  6
CONTINUOUS
100
AcDbLine
 10
228.8355017684664
 20
246.9636137777508
 30
0.0
 11
228.793626711544
 21
247.0426942402065
 31
0.0
  0
LINE
  5
8ED
330
1F
100
AcDbEntity
  8
1
  6
CONTINUOUS
100
AcDbLine
 10
228.8643038504092
 20
246.8788895004929
 30
0.0
 11
228.8355017684664
 21
246.9636100524605
 31
0.0
  0
LINE
  5
8EE
330
1F
100
AcDbEntity
  8
1
  6
CONTINUOUS
100
AcDbLine
 10
228.8796259694068
 20
246.7900525027455
 30
0.0
 11
228.8643047817318
 21
246.8788895004929
 31
0.0
  0
LINE
  5
8EF
330
1F
100
AcDbEntity
  8
1
  6
CONTINUOUS
100
AcDbLine
 10
228.8842881702153
 20
246.7000234121024
 30
0.0
 11
228.8796259694068
 21
246.7900487774552
 31
0.0
  0
LINE
  5
8F0
330
1F
100
AcDbEntity
  8
1
  6
CONTINUOUS
100
AcDbLine
 10
228.8816655658452
 20
246.6101098054588
 30
0.0
 11
228.8842881702153
 21
246.7000234121024
 31
0.0
  0
LINE
  5
8F1
330
1F
100
AcDbEntity
  8
1
  6
CONTINUOUS
100
AcDbLine
 10
228.8745726131169
 20
246.5204383426846
 30
0.0
 11
228.8816655658452
 21
246.6101098054588
 31
0.0
  0
LINE
  5
8F2
330
1F
100
AcDbEntity
  8
1
  6
CONTINUOUS
100
AcDbLine
 10
228.8631173454489
 20
246.4315678173245
 30
0.0
 11
228.8745726131169
 21
246.5204383426846
 31
0.0
  0
LINE
  5
8F3
330
1F
100
AcDbEntity
  8
1
  6
CONTINUOUS
100
AcDbLine
 10
228.8458375863996
 20
246.3436472409905
 30
0.0
 11
228.8631173454489
 21
246.4315678173245
 31
0.0
  0
ARC
  5
8F4
330
1F
100
AcDbEntity
  8
1
  6
CONTINUOUS
100
AcDbCircle
 10
221.8049979031693
 20
246.7391799381053
 30
0.0
 40
0.5
100
AcDbArc
 50
90.00000002752718
 51
180.0
  0
LINE
  5
8F5
330
1F
100
AcDbEntity
  8
1
  6
CONTINUOUS
100
AcDbLine
 10
227.8070757769314
 20
241.5391794586123
 30
0.0
 11
228.845836655077
 21
246.3436472409905
 31
0.0
  0
LINE
  5
8F6
330
1F
100
AcDbEntity
  8
1
  6
CONTINUOUS
100
AcDbLine
 10
221.3049979031693
 20
246.7391799378651
 30
0.0
 11
221.3049987934795
 21
242.2391801321448
 31
0.0
  0
LINE
  5
8F7
330
1F
100
AcDbEntity
  8
1
  6
CONTINUOUS
100
AcDbLine
 10
229.8483532525865
 20
241.5391794586123
 30
0.0
 11
227.8070757769314
 21
241.5391794586123
 31
0.0
  0
LINE
  5
8F8
330
1F
100
AcDbEntity
  8
1
  6
CONTINUOUS
100
AcDbLine
 10
228.6805827774374
 20
247.1823702746571
 30
0.0
 11
231.0684547432033
 21
247.1823702746571
 31
0.0
  0
LINE
  5
8F9
330
1F
100
AcDbEntity
  8
1
  6
CONTINUOUS
100
AcDbLine
 10
228.6587199799983
 20
261.2180720263661
 30
0.0
 11
230.5552680649129
 21
261.3263177865685
 31
0.0
  0
LINE
  5
8FA
330
1F
100
AcDbEntity
  8
1
  6
CONTINUOUS
100
AcDbLine
 10
246.3342666764078
 20
260.8290958398522
 30
0.0
 11
247.2123562496421
 21
260.7277232402505
 31
0.0
  0
LINE
  5
8FB
330
1F
100
AcDbEntity
  8
1
  6
CONTINUOUS
100
AcDbLine
 10
247.2123562496421
 20
260.7277232402505
 30
0.0
 11
247.3806120127705
 21
260.7074017816723
 31
0.0
  0
LINE
  5
8FC
330
1F
100
AcDbEntity
  8
1
  6
CONTINUOUS
100
AcDbLine
 10
247.3806120127705
 20
260.7074017816723
 30
0.0
 11
247.5261856474249
 21
260.6895837181748
 31
0.0
  0
LINE
  5
8FD
330
1F
100
AcDbEntity
  8
1
  6
CONTINUOUS
100
AcDbLine
 10
247.5261856474249
 20
260.6895837181748
 30
0.0
 11
247.750207842168
 21
260.6617408984841
 31
0.0
  0
LINE
  5
8FE
330
1F
100
AcDbEntity
  8
1
  6
CONTINUOUS
100
AcDbLine
 10
247.750207842168
 20
260.6617408984841
 30
0.0
 11
247.9312606759636
 21
260.6388638907611
 31
0.0
  0
ARC
  5
8FF
330
1F
100
AcDbEntity
  8
1
  6
CONTINUOUS
100
AcDbCircle
 10
247.8050010215973
 20
259.6468699982438
 30
0.0
 40
0.9999966915507387
100
AcDbArc
 50
0.0
 51
82.7464708289543
  0
ARC
  5
900
330
1F
100
AcDbEntity
  8
1
  6
CONTINUOUS
100
AcDbCircle
 10
251.3049960983438
 20
262.4376947077935
 30
0.0
 40
1.000002188495904
100
AcDbArc
 50
0.0
 51
80.69918825153434
  0
ARC
  5
901
330
1F
100
AcDbEntity
  8
1
  6
CONTINUOUS
100
AcDbCircle
 10
248.8049979031689
 20
246.7391799227927
 30
0.0
 40
0.5000000144771714
100
AcDbArc
 50
0.0
 51
90.00000326866487
  0
LINE
  5
902
330
1F
100
AcDbEntity
  8
1
  6
CONTINUOUS
100
AcDbLine
 10
241.9528876802218
 20
261.2179639929473
 30
0.0
 11
242.1804634526638
 21
261.2025412911118
 31
0.0
  0
LINE
  5
903
330
1F
100
AcDbEntity
  8
1
  6
CONTINUOUS
100
AcDbLine
 10
242.1804634526638
 20
261.2025412911118
 30
0.0
 11
242.4042851802228
 21
261.1868615442456
 31
0.0
  0
LINE
  5
904
330
1F
100
AcDbEntity
  8
1
  6
CONTINUOUS
100
AcDbLine
 10
242.4042851802228
 20
261.1868615442456
 30
0.0
 11
242.8404348924089
 21
261.1548613005818
 31
0.0
  0
LINE
  5
905
330
1F
100
AcDbEntity
  8
1
  6
CONTINUOUS
100
AcDbLine
 10
242.8404348924089
 20
261.1548613005818
 30
0.0
 11
243.6672138304716
 21
261.0889348381699
 31
0.0
  0
LINE
  5
906
330
1F
100
AcDbEntity
  8
1
  6
CONTINUOUS
100
AcDbLine
 10
243.6672138304716
 20
261.0889348381699
 30
0.0
 11
245.1403790058833
 21
260.9543326491059
 31
0.0
  0
LINE
  5
907
330
1F
100
AcDbEntity
  8
1
  6
CONTINUOUS
100
AcDbLine
 10
245.1403790058833
 20
260.9543326491059
 30
0.0
 11
245.3070523355421
 21
260.9377178543748
 31
0.0
  0
LINE
  5
908
330
1F
100
AcDbEntity
  8
1
  6
CONTINUOUS
100
AcDbLine
 10
245.3070523355421
 20
260.9377178543748
 30
0.0
 11
245.4687401790438
 21
260.9213303023518
 31
0.0
  0
LINE
  5
909
330
1F
100
AcDbEntity
  8
1
  6
CONTINUOUS
100
AcDbLine
 10
245.4687401790438
 20
260.9213303023518
 30
0.0
 11
245.7770796630798
 21
260.8893449598492
 31
0.0
  0
LINE
  5
90A
330
1F
100
AcDbEntity
  8
1
  6
CONTINUOUS
100
AcDbLine
 10
240.5699696995584
 20
246.9636137777508
 30
0.0
 11
240.528094642636
 21
247.0426942402065
 31
0.0
  0
LINE
  5
90B
330
1F
100
AcDbEntity
  8
1
  6
CONTINUOUS
100
AcDbLine
 10
240.5987722471623
 20
246.8788895004929
 30
0.0
 11
240.5699701652197
 21
246.9636100524605
 31
0.0
  0
LINE
  5
90C
330
1F
100
AcDbEntity
  8
1
  6
CONTINUOUS
100
AcDbLine
 10
240.614094133329
 20
246.7900525027455
 30
0.0
 11
240.5987724799929
 21
246.8788895004929
 31
0.0
  0
LINE
  5
90D
330
1F
100
AcDbEntity
  8
1
  6
CONTINUOUS
100
AcDbLine
 10
240.6187561013071
 20
246.7000234121024
 30
0.0
 11
240.614094133329
 21
246.7900487774552
 31
0.0
  0
LINE
  5
90E
330
1F
100
AcDbEntity
  8
1
  6
CONTINUOUS
100
AcDbLine
 10
240.616133962598
 20
246.6101098054588
 30
0.0
 11
240.6187561013071
 21
246.7000234121024
 31
0.0
  0
LINE
  5
90F
330
1F
100
AcDbEntity
  8
1
  6
CONTINUOUS
100
AcDbLine
 10
240.6090405442085
 20
246.5204383426846
 30
0.0
 11
240.616133962598
 21
246.6101098054588
 31
0.0
  0
LINE
  5
910
330
1F
100
AcDbEntity
  8
1
  6
CONTINUOUS
100
AcDbLine
 10
240.5975857422022
 20
246.4315678173245
 30
0.0
 11
240.6090405442085
 21
246.5204383426846
 31
0.0
  0
LINE
  5
911
330
1F
100
AcDbEntity
  8
1
  6
CONTINUOUS
100
AcDbLine
 10
240.5803066816445
 20
246.3436472409905
 30
0.0
 11
240.5975855093716
 21
246.4315678173245
 31
0.0
  0
LINE
  5
912
330
1F
100
AcDbEntity
  8
1
  6
CONTINUOUS
100
AcDbLine
 10
240.4150497772066
 20
247.1823702746571
 30
0.0
 11
242.8029195310812
 21
247.1823702746571
 31
0.0
  0
LINE
  5
913
330
1F
100
AcDbEntity
  8
1
  6
CONTINUOUS
100
AcDbLine
 10
240.47565931904
 20
247.1158403152168
 30
0.0
 11
240.4150497772066
 21
247.1823702746571
 31
0.0
  0
LINE
  5
914
330
1F
100
AcDbEntity
  8
1
  6
CONTINUOUS
100
AcDbLine
 10
240.5280937113134
 20
247.0426942402065
 30
0.0
 11
240.4756609488543
 21
247.1158403152168
 31
0.0
  0
LINE
  5
915
330
1F
100
AcDbEntity
  8
1
  6
CONTINUOUS
100
AcDbLine
 10
245.7770796630798
 20
260.8893449598492
 30
0.0
 11
246.3342666764078
 21
260.8290958398522
 31
0.0
  0
LINE
  5
916
330
1F
100
AcDbEntity
  8
1
  6
CONTINUOUS
100
AcDbLine
 10
242.8029195310812
 20
247.1823702746571
 30
0.0
 11
241.5828189717871
 21
241.5391794586123
 31
0.0
  0
LINE
  5
917
330
1F
100
AcDbEntity
  8
1
  6
CONTINUOUS
100
AcDbLine
 10
249.3049977951018
 20
242.2391801321448
 30
0.0
 11
249.304997917646
 21
246.739179923033
 31
0.0
  0
LINE
  5
918
330
1F
100
AcDbEntity
  8
1
  6
CONTINUOUS
100
AcDbLine
 10
304.5312466565151
 20
242.2391801321448
 30
0.0
 11
304.5312466565151
 21
183.239181637162
 31
0.0
  0
LINE
  5
919
330
1F
100
AcDbEntity
  8
1
  6
CONTINUOUS
100
AcDbLine
 10
286.0312482807417
 20
242.9581164562644
 30
0.0
 11
286.0312482807417
 21
170.7391786569298
 31
0.0
  0
LINE
  5
91A
330
1F
100
AcDbEntity
  8
1
  6
CONTINUOUS
100
AcDbLine
 10
287.5261961016434
 20
164.1007634991348
 30
0.0
 11
290.0312452111025
 21
164.1007634991348
 31
0.0
  0
LWPOLYLINE
  5
91B
330
1F
100
AcDbEntity
  8
1
  6
CONTINUOUS
100
AcDbPolyline
 90
        3
 70
   128
 43
0.0
 10
289.8046991321821
 20
164.1007634991348
 10
289.8399068507929
 20
164.0772420161904
 10
290.0312452111025
 20
164.0391807252109
  0
LINE
  5
91C
330
1F
100
AcDbEntity
  8
1
  6
CONTINUOUS
100
AcDbLine
 10
286.5112631115693
 20
167.2575595968901
 30
0.0
 11
286.5112631115693
 21
165.0884348148048
 31
0.0
  0
ARC
  5
91D
330
1F
100
AcDbEntity
  8
1
  6
CONTINUOUS
100
AcDbCircle
 10
270.212540823682
 20
166.9399794108834
 30
0.0
 40
16.30159493499539
100
AcDbArc
 50
1.051666246302664
 51
9.996000695820116
  0
ARC
  5
91E
330
1F
100
AcDbEntity
  8
1
  6
CONTINUOUS
100
AcDbCircle
 10
286.4004187491963
 20
170.7058623612909
 30
0.0
 40
0.3668509026873195
100
AcDbArc
 50
177.8652081392585
 51
213.3120226330035
  0
ARC
  5
91F
330
1F
100
AcDbEntity
  8
1
  6
CONTINUOUS
100
AcDbCircle
 10
286.3458086636715
 20
170.7002810110566
 30
0.0
 40
0.3122142180260375
100
AcDbArc
 50
177.2975734165345
 51
206.713279454613
  0
ARC
  5
920
330
1F
100
AcDbEntity
  8
1
  6
CONTINUOUS
100
AcDbCircle
 10
273.385995220583
 20
167.1527179833358
 30
0.0
 40
13.14401480213303
100
AcDbArc
 50
0.3768930560402029
 51
15.83445574672142
  0
LINE
  5
921
330
1F
100
AcDbEntity
  8
1
  6
CONTINUOUS
100
AcDbLine
 10
286.5297256502886
 20
165.0963957601725
 30
0.0
 11
286.5117064211148
 21
165.0963957601725
 31
0.0
  0
ARC
  5
922
330
1F
100
AcDbEntity
  8
1
  6
CONTINUOUS
100
AcDbCircle
 10
287.5064246940715
 20
165.1022161947303
 30
0.0
 40
0.9935469324262395
100
AcDbArc
 50
180.3354394092013
 51
271.1402511062609
  0
ARC
  5
923
330
1F
100
AcDbEntity
  8
1
  6
CONTINUOUS
100
AcDbCircle
 10
287.5324973257807
 20
165.1038485178885
 30
0.0
 40
1.002803067654775
100
AcDbArc
 50
180.4256090340441
 51
269.6399732546567
  0
ARC
  5
924
330
1F
100
AcDbEntity
  8
1
  6
CONTINUOUS
100
AcDbCircle
 10
309.531249333319
 20
183.2391816317565
 30
0.0
 40
5.000002676803948
100
AcDbArc
 50
180.0
 51
269.9999787176048
  0
ARC
  5
925
330
1F
100
AcDbEntity
  8
1
  6
CONTINUOUS
100
AcDbCircle
 10
301.6942801419354
 20
157.7899224557688
 30
0.0
 40
7.052975885055861
100
AcDbArc
 50
88.2202590872837
 51
112.1836066310583
  0
ARC
  5
926
330
1F
100
AcDbEntity
  8
1
  6
CONTINUOUS
100
AcDbCircle
 10
299.6868071697349
 20
177.2335489516151
 30
0.0
 40
12.59245559891711
100
AcDbArc
 50
280.1842261845735
 51
295.1137080609113
  0
LINE
  5
927
330
1F
100
AcDbEntity
  8
1
  6
CONTINUOUS
100
AcDbLine
 10
290.0312452111025
 20
164.0391807252109
 30
0.0
 11
299.0312466863173
 21
164.0391807252109
 31
0.0
  0
LINE
  5
928
330
1F
100
AcDbEntity
  8
1
  6
CONTINUOUS
100
AcDbLine
 10
290.0312452111025
 20
261.3775964075268
 30
0.0
 11
287.5260880682248
 21
261.3775964075268
 31
0.0
  0
ARC
  5
929
330
1F
100
AcDbEntity
  8
1
  6
CONTINUOUS
100
AcDbCircle
 10
290.0118271073893
 20
261.0331979737853
 30
0.0
 40
0.4064453268634928
100
AcDbArc
 50
87.26162661617513
 51
122.0762000572185
  0
LINE
  5
92A
330
1F
100
AcDbEntity
  8
1
  6
CONTINUOUS
100
AcDbLine
 10
286.5112631115693
 20
260.3888745599927
 30
0.0
 11
286.5112631115693
 21
258.205943852061
 31
0.0
  0
LINE
  5
92B
330
1F
100
AcDbEntity
  8
1
  6
CONTINUOUS
100
AcDbLine
 10
286.5112631115693
 20
260.3909867995919
 30
0.0
 11
286.5112631115693
 21
260.3888745599927
 31
0.0
  0
LINE
  5
92C
330
1F
100
AcDbEntity
  8
1
  6
CONTINUOUS
100
AcDbLine
 10
286.5297256502886
 20
258.239180892104
 30
0.0
 11
286.5117064211148
 21
258.239180892104
 31
0.0
  0
LINE
  5
92D
330
1F
100
AcDbEntity
  8
1
  6
CONTINUOUS
100
AcDbLine
 10
286.5297256502886
 20
260.381964146489
 30
0.0
 11
286.5117064211148
 21
260.381964146489
 31
0.0
  0
ARC
  5
92E
330
1F
100
AcDbEntity
  8
1
  6
CONTINUOUS
100
AcDbCircle
 10
287.5056808080178
 20
260.3769084959214
 30
0.0
 40
0.9927951666367755
100
AcDbArc
 50
88.82218177992589
 51
179.7082291474259
  0
ARC
  5
92F
330
1F
100
AcDbEntity
  8
1
  6
CONTINUOUS
100
AcDbCircle
 10
287.5325537497928
 20
260.3744593213233
 30
0.0
 40
1.002856180893461
100
AcDbArc
 50
90.36940374811752
 51
179.5712258349964
  0
LINE
  5
930
330
1F
100
AcDbEntity
  8
1
  6
CONTINUOUS
100
AcDbLine
 10
287.1002352330463
 20
246.9636137777508
 30
0.0
 11
287.0825810823221
 21
247.0426942402065
 31
0.0
  0
LINE
  5
931
330
1F
100
AcDbEntity
  8
1
  6
CONTINUOUS
100
AcDbLine
 10
287.112472811677
 20
246.8788895004929
 30
0.0
 11
287.1002352330463
 21
246.9636100524605
 31
0.0
  0
LINE
  5
932
330
1F
100
AcDbEntity
  8
1
  6
CONTINUOUS
100
AcDbLine
 10
287.1190144214411
 20
246.7900525027455
 30
0.0
 11
287.112472811677
 21
246.8788895004929
 31
0.0
  0
LINE
  5
933
330
1F
100
AcDbEntity
  8
1
  6
CONTINUOUS
100
AcDbLine
 10
287.1210111770409
 20
246.7000234121024
 30
0.0
 11
287.1190144214411
 21
246.7900487774552
 31
0.0
  0
LINE
  5
934
330
1F
100
AcDbEntity
  8
1
  6
CONTINUOUS
100
AcDbLine
 10
287.1198861393708
 20
246.6101098054588
 30
0.0
 11
287.1210111770409
 21
246.7000234121024
 31
0.0
  0
LINE
  5
935
330
1F
100
AcDbEntity
  8
1
  6
CONTINUOUS
100
AcDbLine
 10
287.1168537530678
 20
246.5204383426846
 30
0.0
 11
287.1198861393708
 21
246.6101098054588
 31
0.0
  0
LINE
  5
936
330
1F
100
AcDbEntity
  8
1
  6
CONTINUOUS
100
AcDbLine
 10
287.1119661721964
 20
246.4315678173245
 30
0.0
 11
287.1168537530678
 21
246.5204383426846
 31
0.0
  0
LINE
  5
937
330
1F
100
AcDbEntity
  8
1
  6
CONTINUOUS
100
AcDbLine
 10
287.1046161744373
 20
246.3436472409905
 30
0.0
 11
287.1119661721964
 21
246.4315678173245
 31
0.0
  0
LINE
  5
938
330
1F
100
AcDbEntity
  8
1
  6
CONTINUOUS
100
AcDbLine
 10
287.0357541832703
 20
247.1823702746571
 30
0.0
 11
288.3048860821503
 21
247.1823702746571
 31
0.0
  0
LINE
  5
939
330
1F
100
AcDbEntity
  8
1
  6
CONTINUOUS
100
AcDbLine
 10
287.0607099029797
 20
247.1158403152168
 30
0.0
 11
287.0357541832703
 21
247.1823702746571
 31
0.0
  0
LINE
  5
93A
330
1F
100
AcDbEntity
  8
1
  6
CONTINUOUS
100
AcDbLine
 10
287.0825810823221
 20
247.0426942402065
 30
0.0
 11
287.06071362827
 21
247.1158403152168
 31
0.0
  0
LINE
  5
93B
330
1F
100
AcDbEntity
  8
1
  6
CONTINUOUS
100
AcDbLine
 10
287.6656746957083
 20
246.6101098054588
 30
0.0
 11
287.662500748374
 21
246.5204383426846
 31
0.0
  0
LINE
  5
93C
330
1F
100
AcDbEntity
  8
1
  6
CONTINUOUS
100
AcDbLine
 10
287.6668481621523
 20
246.7000234121024
 30
0.0
 11
287.6656746957083
 21
246.6101098054588
 31
0.0
  0
LINE
  5
93D
330
1F
100
AcDbEntity
  8
1
  6
CONTINUOUS
100
AcDbLine
 10
287.664761999585
 20
246.7900525027455
 30
0.0
 11
287.6668481621523
 21
246.7000234121024
 31
0.0
  0
LINE
  5
93E
330
1F
100
AcDbEntity
  8
1
  6
CONTINUOUS
100
AcDbLine
 10
287.6579186413069
 20
246.8788895004929
 30
0.0
 11
287.664761999585
 21
246.7900525027455
 31
0.0
  0
LINE
  5
93F
330
1F
100
AcDbEntity
  8
1
  6
CONTINUOUS
100
AcDbLine
 10
287.6451185438412
 20
246.9636137777508
 30
0.0
 11
287.6579186413069
 21
246.8788895004929
 31
0.0
  0
LINE
  5
940
330
1F
100
AcDbEntity
  8
1
  6
CONTINUOUS
100
AcDbLine
 10
287.6266560051222
 20
247.0426942402065
 30
0.0
 11
287.6451185438412
 21
246.9636137777508
 31
0.0
  0
LINE
  5
941
330
1F
100
AcDbEntity
  8
1
  6
CONTINUOUS
100
AcDbLine
 10
287.6037901732701
 20
247.1158403152168
 30
0.0
 11
287.6266560051222
 21
247.0426942402065
 31
0.0
  0
LINE
  5
942
330
1F
100
AcDbEntity
  8
1
  6
CONTINUOUS
100
AcDbLine
 10
287.6573896500845
 20
246.4315678173245
 30
0.0
 11
287.6497006509083
 21
246.3436472409905
 31
0.0
  0
LINE
  5
943
330
1F
100
AcDbEntity
  8
1
  6
CONTINUOUS
100
AcDbLine
 10
287.662500748374
 20
246.5204383426846
 30
0.0
 11
287.6573896500845
 21
246.4315715426148
 31
0.0
  0
LINE
  5
944
330
1F
100
AcDbEntity
  8
1
  6
CONTINUOUS
100
AcDbLine
 10
287.6656746957083
 20
246.6101098054588
 30
0.0
 11
287.1198861393708
 21
246.6101098054588
 31
0.0
  0
LINE
  5
945
330
1F
100
AcDbEntity
  8
1
  6
CONTINUOUS
100
AcDbLine
 10
287.6668481621523
 20
246.7000234121024
 30
0.0
 11
287.1210111770409
 21
246.7000234121024
 31
0.0
  0
LINE
  5
946
330
1F
100
AcDbEntity
  8
1
  6
CONTINUOUS
100
AcDbLine
 10
287.664761999585
 20
246.7900525027455
 30
0.0
 11
287.1190144214411
 21
246.7900525027455
 31
0.0
  0
LINE
  5
947
330
1F
100
AcDbEntity
  8
1
  6
CONTINUOUS
100
AcDbLine
 10
287.662500748374
 20
246.5204383426846
 30
0.0
 11
287.1168537530678
 21
246.5204383426846
 31
0.0
  0
LINE
  5
948
330
1F
100
AcDbEntity
  8
1
  6
CONTINUOUS
100
AcDbLine
 10
287.6579186413069
 20
246.8788895004929
 30
0.0
 11
287.112472811677
 21
246.8788895004929
 31
0.0
  0
LINE
  5
949
330
1F
100
AcDbEntity
  8
1
  6
CONTINUOUS
100
AcDbLine
 10
287.6573896500845
 20
246.4315678173245
 30
0.0
 11
287.1119661721964
 21
246.4315678173245
 31
0.0
  0
LINE
  5
94A
330
1F
100
AcDbEntity
  8
1
  6
CONTINUOUS
100
AcDbLine
 10
287.6451185438412
 20
246.9636137777508
 30
0.0
 11
287.1002352330463
 21
246.9636137777508
 31
0.0
  0
LINE
  5
94B
330
1F
100
AcDbEntity
  8
1
  6
CONTINUOUS
100
AcDbLine
 10
287.6497006509083
 20
246.3436472409905
 30
0.0
 11
287.1046161744373
 21
246.3436472409905
 31
0.0
  0
LINE
  5
94C
330
1F
100
AcDbEntity
  8
1
  6
CONTINUOUS
100
AcDbLine
 10
287.6266560051222
 20
247.0426942402065
 30
0.0
 11
287.0825810823221
 21
247.0426942402065
 31
0.0
  0
LINE
  5
94D
330
1F
100
AcDbEntity
  8
1
  6
CONTINUOUS
100
AcDbLine
 10
287.6037901732701
 20
247.1158403152168
 30
0.0
 11
287.0607099029797
 21
247.1158403152168
 31
0.0
  0
LINE
  5
94E
330
1F
100
AcDbEntity
  8
1
  6
CONTINUOUS
100
AcDbLine
 10
286.0312482807417
 20
254.7391812497318
 30
0.0
 11
286.0312482807417
 21
247.1823702746571
 31
0.0
  0
ARC
  5
94F
330
1F
100
AcDbEntity
  8
1
  6
CONTINUOUS
100
AcDbCircle
 10
286.4742414094708
 20
254.7607120479938
 30
0.0
 40
0.4403076964139471
100
AcDbArc
 50
144.6156408642421
 51
179.6556390334286
  0
ARC
  5
950
330
1F
100
AcDbEntity
  8
1
  6
CONTINUOUS
100
AcDbCircle
 10
286.4000096235198
 20
254.7726028442259
 30
0.0
 40
0.3664460031998983
100
AcDbArc
 50
146.7782423945794
 51
182.153627347787
  0
LINE
  5
951
330
1F
100
AcDbEntity
  8
1
  6
CONTINUOUS
100
AcDbLine
 10
286.1802710685509
 20
245.3930742287577
 30
0.0
 11
286.0260440501946
 21
245.3930742287577
 31
0.0
  0
LINE
  5
952
330
1F
100
AcDbEntity
  8
1
  6
CONTINUOUS
100
AcDbLine
 10
286.0432437155026
 20
247.1406991773785
 30
0.0
 11
286.0446928534286
 21
247.1823702746571
 31
0.0
  0
LINE
  5
953
330
1F
100
AcDbEntity
  8
1
  6
CONTINUOUS
100
AcDbLine
 10
286.0420590731878
 20
247.0958057039918
 30
0.0
 11
286.0432437155026
 21
247.1406991773785
 31
0.0
  0
LINE
  5
954
330
1F
100
AcDbEntity
  8
1
  6
CONTINUOUS
100
AcDbLine
 10
286.0410830471296
 20
247.0479319983662
 30
0.0
 11
286.0420590731878
 21
247.0958019787015
 31
0.0
  0
LINE
  5
955
330
1F
100
AcDbEntity
  8
1
  6
CONTINUOUS
100
AcDbLine
 10
286.0403156373279
 20
246.9980391853989
 30
0.0
 11
286.0410830471296
 21
247.0479282730759
 31
0.0
  0
LINE
  5
956
330
1F
100
AcDbEntity
  8
1
  6
CONTINUOUS
100
AcDbLine
 10
286.0398127231377
 20
246.9461570674121
 30
0.0
 11
286.0403156373279
 21
246.9980391853989
 31
0.0
  0
LINE
  5
957
330
1F
100
AcDbEntity
  8
1
  6
CONTINUOUS
100
AcDbLine
 10
286.039689788558
 20
246.8925687664687
 30
0.0
 11
286.0398127231377
 21
246.9461570674121
 31
0.0
  0
LINE
  5
958
330
1F
100
AcDbEntity
  8
1
  6
CONTINUOUS
100
AcDbLine
 10
286.0399952623625
 20
246.8397776776494
 30
0.0
 11
286.039689788558
 21
246.8925687664687
 31
0.0
  0
LINE
  5
959
330
1F
100
AcDbEntity
  8
1
  6
CONTINUOUS
100
AcDbLine
 10
286.0406099352616
 20
246.7890056961716
 30
0.0
 11
286.0399952623625
 21
246.8397739523589
 31
0.0
  0
LINE
  5
95A
330
1F
100
AcDbEntity
  8
1
  6
CONTINUOUS
100
AcDbLine
 10
286.0414257738371
 20
246.7395189398469
 30
0.0
 11
286.0406099352616
 21
246.7890019708813
 31
0.0
  0
LINE
  5
95B
330
1F
100
AcDbEntity
  8
1
  6
CONTINUOUS
100
AcDbLine
 10
286.0423533711213
 20
246.6909039014519
 30
0.0
 11
286.0414257738371
 21
246.7395189398469
 31
0.0
  0
LINE
  5
95C
330
1F
100
AcDbEntity
  8
1
  6
CONTINUOUS
100
AcDbLine
 10
286.0434001776953
 20
246.6437007480801
 30
0.0
 11
286.0423533711213
 21
246.6909039014519
 31
0.0
  0
LINE
  5
95D
330
1F
100
AcDbEntity
  8
1
  6
CONTINUOUS
100
AcDbLine
 10
286.0446369740742
 20
246.5983267122449
 30
0.0
 11
286.0434001776953
 21
246.6437007480801
 31
0.0
  0
LINE
  5
95E
330
1F
100
AcDbEntity
  8
1
  6
CONTINUOUS
100
AcDbLine
 10
286.1181108746308
 20
245.3930742287577
 30
0.0
 11
286.0446369740742
 21
246.5983267122449
 31
0.0
  0
LINE
  5
95F
330
1F
100
AcDbEntity
  8
1
  6
CONTINUOUS
100
AcDbLine
 10
286.0312482807417
 20
247.1823702746571
 30
0.0
 11
286.1261724028368
 21
247.1823702746571
 31
0.0
  0
LINE
  5
960
330
1F
100
AcDbEntity
  8
1
  6
CONTINUOUS
100
AcDbLine
 10
286.0446928534286
 20
247.1823702746571
 30
0.0
 11
286.0312482807417
 21
247.1823702746571
 31
0.0
  0
LINE
  5
961
330
1F
100
AcDbEntity
  8
1
  6
CONTINUOUS
100
AcDbLine
 10
286.0312482807417
 20
244.4114136689842
 30
0.0
 11
286.0324403736372
 21
245.361886098379
 31
0.0
  0
LWPOLYLINE
  5
962
330
1F
100
AcDbEntity
  8
1
  6
CONTINUOUS
100
AcDbPolyline
 90
        9
 70
   128
 43
0.0
 10
286.0324403736372
 20
245.361887961024
 10
286.0325782093781
 20
245.3725273901164
 10
286.0327160451193
 20
245.381631999606
 10
286.0328538808603
 20
245.3884138905944
 10
286.0329917166014
 20
245.3922863298596
 10
286.0331295523423
 20
245.3929121786296
 10
286.0332673880833
 20
245.3902411454856
 10
286.0334052238245
 20
245.3845004731358
 10
286.0335430595653
 20
245.3761893504798
  0
LINE
  5
963
330
1F
100
AcDbEntity
  8
1
  6
CONTINUOUS
100
AcDbLine
 10
286.1365324351568
 20
246.8397776776494
 30
0.0
 11
286.0399952623625
 21
246.8397776776494
 31
0.0
  0
LINE
  5
964
330
1F
100
AcDbEntity
  8
1
  6
CONTINUOUS
100
AcDbLine
 10
286.1349342856188
 20
246.8925687664687
 30
0.0
 11
286.039689788558
 21
246.8925687664687
 31
0.0
  0
LINE
  5
965
330
1F
100
AcDbEntity
  8
1
  6
CONTINUOUS
100
AcDbLine
 10
286.1333137843388
 20
246.9461570674121
 30
0.0
 11
286.0398127231377
 21
246.9461570674121
 31
0.0
  0
LINE
  5
966
330
1F
100
AcDbEntity
  8
1
  6
CONTINUOUS
100
AcDbLine
 10
286.1317454371233
 20
246.9980391853989
 30
0.0
 11
286.0403156373279
 21
246.9980391853989
 31
0.0
  0
LINE
  5
967
330
1F
100
AcDbEntity
  8
1
  6
CONTINUOUS
100
AcDbLine
 10
286.1380672547598
 20
246.7890056961716
 30
0.0
 11
286.0406099352616
 21
246.7890056961716
 31
0.0
  0
LINE
  5
968
330
1F
100
AcDbEntity
  8
1
  6
CONTINUOUS
100
AcDbLine
 10
286.1302366945523
 20
247.0479319983662
 30
0.0
 11
286.0410830471296
 21
247.0479319983662
 31
0.0
  0
LINE
  5
969
330
1F
100
AcDbEntity
  8
1
  6
CONTINUOUS
100
AcDbLine
 10
286.1395610961695
 20
246.7395189398469
 30
0.0
 11
286.0414257738371
 21
246.7395189398469
 31
0.0
  0
LINE
  5
96A
330
1F
100
AcDbEntity
  8
1
  6
CONTINUOUS
100
AcDbLine
 10
286.1287912819166
 20
247.0958057039918
 30
0.0
 11
286.0420590731878
 21
247.0958057039918
 31
0.0
  0
LINE
  5
96B
330
1F
100
AcDbEntity
  8
1
  6
CONTINUOUS
100
AcDbLine
 10
286.1410325858372
 20
246.6909039014519
 30
0.0
 11
286.0423533711213
 21
246.6909039014519
 31
0.0
  0
LINE
  5
96C
330
1F
100
AcDbEntity
  8
1
  6
CONTINUOUS
100
AcDbLine
 10
286.127435276248
 20
247.1406991773785
 30
0.0
 11
286.0432437155026
 21
247.1406991773785
 31
0.0
  0
LINE
  5
96D
330
1F
100
AcDbEntity
  8
1
  6
CONTINUOUS
100
AcDbLine
 10
286.1424593720217
 20
246.6437044733704
 30
0.0
 11
286.0434001776953
 21
246.6437044733704
 31
0.0
  0
LINE
  5
96E
330
1F
100
AcDbEntity
  8
1
  6
CONTINUOUS
100
AcDbLine
 10
287.7682915422696
 20
247.1823702746571
 30
0.0
 11
286.7132259998101
 21
247.1823702746571
 31
0.0
  0
ARC
  5
96F
330
1F
100
AcDbEntity
  8
1
  6
CONTINUOUS
100
AcDbCircle
 10
269.2926232508994
 20
258.6263378614038
 30
0.0
 40
17.22311850414291
100
AcDbArc
 50
350.2225509444623
 51
358.7119447092042
  0
ARC
  5
970
330
1F
100
AcDbEntity
  8
1
  6
CONTINUOUS
100
AcDbCircle
 10
273.3372211245218
 20
258.3325884334946
 30
0.0
 40
13.192835200637
100
AcDbArc
 50
344.194318556056
 51
359.5943326411766
  0
LINE
  5
971
330
1F
100
AcDbEntity
  8
1
  6
CONTINUOUS
100
AcDbLine
 10
286.0334313008566
 20
242.9581164562644
 30
0.0
 11
286.0312482807417
 21
242.9581164562644
 31
0.0
  0
ARC
  5
972
330
1F
100
AcDbEntity
  8
1
  6
CONTINUOUS
100
AcDbCircle
 10
285.3773663118145
 20
242.9271563121583
 30
0.0
 40
0.6567951855099087
100
AcDbArc
 50
359.9801115296568
 51
2.701983905654444
  0
LINE
  5
973
330
1F
100
AcDbEntity
  8
1
  6
CONTINUOUS
100
AcDbLine
 10
286.0421596560259
 20
241.5391794586123
 30
0.0
 11
286.0341614577551
 21
242.9269301885307
 31
0.0
  0
LINE
  5
974
330
1F
100
AcDbEntity
  8
1
  6
CONTINUOUS
100
AcDbLine
 10
286.2967906985062
 20
241.5391794586123
 30
0.0
 11
286.0421596560259
 21
241.5391794586123
 31
0.0
  0
LINE
  5
975
330
1F
100
AcDbEntity
  8
1
  6
CONTINUOUS
100
AcDbLine
 10
286.0334313008566
 20
242.9581183189095
 30
0.0
 11
286.2538902554291
 21
242.9581183189095
 31
0.0
  0
LINE
  5
976
330
1F
100
AcDbEntity
  8
1
  6
CONTINUOUS
100
AcDbLine
 10
286.0315425786751
 20
243.6934347444714
 30
0.0
 11
286.2316577229278
 21
243.6934347444714
 31
0.0
  0
LINE
  5
977
330
1F
100
AcDbEntity
  8
1
  6
CONTINUOUS
100
AcDbLine
 10
286.0316953155775
 20
243.6934347444714
 30
0.0
 11
286.0316953155775
 21
243.7388423079192
 31
0.0
  0
LINE
  5
978
330
1F
100
AcDbEntity
  8
1
  6
CONTINUOUS
100
AcDbLine
 10
286.0312482807417
 20
243.6934347444714
 30
0.0
 11
286.0315425786751
 21
243.6934347444714
 31
0.0
  0
LINE
  5
979
330
1F
100
AcDbEntity
  8
1
  6
CONTINUOUS
100
AcDbLine
 10
286.0951481852311
 20
243.6934347444714
 30
0.0
 11
286.0312482807417
 21
243.6934347444714
 31
0.0
  0
LINE
  5
97A
330
1F
100
AcDbEntity
  8
1
  6
CONTINUOUS
100
AcDbLine
 10
286.2316577229278
 20
243.6934347444714
 30
0.0
 11
286.0951481852311
 21
243.6934347444714
 31
0.0
  0
LINE
  5
97B
330
1F
100
AcDbEntity
  8
1
  6
CONTINUOUS
100
AcDbLine
 10
287.5797210726517
 20
241.5391794586123
 30
0.0
 11
286.7132259998101
 21
241.5391794586123
 31
0.0
  0
LINE
  5
97C
330
1F
100
AcDbEntity
  8
1
  6
CONTINUOUS
100
AcDbLine
 10
286.0312482807417
 20
244.2420824611128
 30
0.0
 11
286.0312482807417
 21
243.6884335422456
 31
0.0
  0
LINE
  5
97D
330
1F
100
AcDbEntity
  8
1
  6
CONTINUOUS
100
AcDbLine
 10
286.7132259998101
 20
241.5391794586123
 30
0.0
 11
287.1046161744373
 21
246.3436472409905
 31
0.0
  0
LINE
  5
97E
330
1F
100
AcDbEntity
  8
1
  6
CONTINUOUS
100
AcDbLine
 10
288.3048860821503
 20
247.1823702746571
 30
0.0
 11
287.5797210726517
 21
241.5391794586123
 31
0.0
  0
LINE
  5
97F
330
1F
100
AcDbEntity
  8
1
  6
CONTINUOUS
100
AcDbLine
 10
286.1261724028368
 20
247.1823702746571
 30
0.0
 11
286.2967906985062
 21
241.5391794586123
 31
0.0
  0
LINE
  5
980
330
1F
100
AcDbEntity
  8
1
  6
CONTINUOUS
100
AcDbLine
 10
287.6497006509083
 20
246.3436472409905
 30
0.0
 11
287.2409394476193
 21
241.5391794586123
 31
0.0
  0
LINE
  5
981
330
1F
100
AcDbEntity
  8
1
  6
CONTINUOUS
100
AcDbLine
 10
286.0318443271893
 20
243.7388423079192
 30
0.0
 11
286.0312482807417
 21
244.4114136689842
 31
0.0
  0
LINE
  5
982
330
1F
100
AcDbEntity
  8
1
  6
CONTINUOUS
100
AcDbLine
 10
311.0312467906255
 20
262.9391784959973
 30
0.0
 11
311.0312467906255
 21
261.377972661847
 31
0.0
  0
ARC
  5
983
330
1F
100
AcDbEntity
  8
1
  6
CONTINUOUS
100
AcDbCircle
 10
309.5312485582693
 20
242.2391790499546
 30
0.0
 40
5.000001901754106
100
AcDbArc
 50
90.00001240097885
 51
180.0
  0
LINE
  5
984
330
1F
100
AcDbEntity
  8
1
  6
CONTINUOUS
100
AcDbLine
 10
311.0312467906255
 20
261.4391791814507
 30
0.0
 11
290.0312452111025
 21
261.4391791814507
 31
0.0
  0
LINE
  5
985
330
1F
100
AcDbEntity
  8
1
  6
CONTINUOUS
100
AcDbLine
 10
387.7312487456578
 20
159.7243323916138
 30
0.0
 11
387.7312487456578
 21
155.3634367877186
 31
0.0
  0
LINE
  5
986
330
1F
100
AcDbEntity
  8
1
  6
CONTINUOUS
100
AcDbLine
 10
452.7131060193392
 20
161.654618679875
 30
0.0
 11
452.7131060193392
 21
158.2391794019879
 31
0.0
  0
LINE
  5
987
330
1F
100
AcDbEntity
  8
1
  6
CONTINUOUS
100
AcDbLine
 10
448.2673445771543
 20
157.7391746634186
 30
0.0
 11
450.7673440556136
 21
160.239176004523
 31
0.0
  0
LINE
  5
988
330
1F
100
AcDbEntity
  8
1
  6
CONTINUOUS
100
AcDbLine
 10
451.2131067047926
 20
158.2391794019879
 30
0.0
 11
451.2131060413808
 21
163.3617907735558
 31
0.0
  0
LINE
  5
989
330
1F
100
AcDbEntity
  8
1
  6
CONTINUOUS
100
AcDbLine
 10
436.2131061087461
 20
162.6841883355321
 30
0.0
 11
436.2131061087461
 21
158.2391794019879
 31
0.0
  0
LINE
  5
98A
330
1F
100
AcDbEntity
  8
1
  6
CONTINUOUS
100
AcDbLine
 10
436.76734362348
 20
160.2391722792328
 30
0.0
 11
439.2673440332617
 21
157.7391746634186
 31
0.0
  0
LINE
  5
98B
330
1F
100
AcDbEntity
  8
1
  6
CONTINUOUS
100
AcDbLine
 10
427.2131060202252
 20
163.3617907823297
 30
0.0
 11
427.213106030515
 21
158.2391794019879
 31
0.0
  0
LINE
  5
98C
330
1F
100
AcDbEntity
  8
1
  6
CONTINUOUS
100
AcDbLine
 10
425.7131062503071
 20
158.2391794019879
 30
0.0
 11
425.7131062503071
 21
161.654618679875
 31
0.0
  0
LINE
  5
98D
330
1F
100
AcDbEntity
  8
1
  6
CONTINUOUS
100
AcDbLine
 10
387.7312487456578
 20
160.3634367877186
 30
0.0
 11
387.7312487456578
 21
158.0391722911538
 31
0.0
  0
LINE
  5
98E
330
1F
100
AcDbEntity
  8
1
  6
CONTINUOUS
100
AcDbLine
 10
391.7312456760186
 20
160.3634367877186
 30
0.0
 11
391.7312456760186
 21
158.0391722911538
 31
0.0
  0
LINE
  5
98F
330
1F
100
AcDbEntity
  8
1
  6
CONTINUOUS
100
AcDbLine
 10
326.0312469210106
 20
158.2391794019879
 30
0.0
 11
326.0312469210106
 21
161.654618679875
 31
0.0
  0
LINE
  5
990
330
1F
100
AcDbEntity
  8
1
  6
CONTINUOUS
100
AcDbLine
 10
326.0312469210106
 20
157.7391783887089
 30
0.0
 11
326.0312469210106
 21
158.2391794019879
 31
0.0
  0
LINE
  5
991
330
1F
100
AcDbEntity
  8
1
  6
CONTINUOUS
100
AcDbLine
 10
391.4312480482836
 20
152.7391746634186
 30
0.0
 11
388.0312463733929
 21
152.7391746634186
 31
0.0
  0
LINE
  5
992
330
1F
100
AcDbEntity
  8
1
  6
CONTINUOUS
100
AcDbLine
 10
388.0312463733929
 20
155.2391722792328
 30
0.0
 11
391.4312480482836
 21
155.2391722792328
 31
0.0
  0
LINE
  5
993
330
1F
100
AcDbEntity
  8
1
  6
CONTINUOUS
100
AcDbLine
 10
391.4312480482836
 20
157.7391746634186
 30
0.0
 11
388.0312463733929
 21
157.7391746634186
 31
0.0
  0
LINE
  5
994
330
1F
100
AcDbEntity
  8
1
  6
CONTINUOUS
100
AcDbLine
 10
387.7312487456578
 20
155.3634367877186
 30
0.0
 11
387.7312487456578
 21
153.0391722911538
 31
0.0
  0
ARC
  5
995
330
1F
100
AcDbEntity
  8
1
  6
CONTINUOUS
100
AcDbCircle
 10
388.0312470409662
 20
153.0391741140743
 30
0.0
 40
0.3000000173526587
100
AcDbArc
 50
179.989097112723
 51
270.0
  0
ELLIPSE
  5
996
330
1F
100
AcDbEntity
  8
1
  6
CONTINUOUS
100
AcDbEllipse
 10
388.0312470409667
 20
155.3634380742064
 30
0.0
 11
0.3000000119209289
 21
0.0
 31
0.0
210
0.0
220
0.0
230
1.0
 40
0.4142136060845039
 41
3.141592653589792
 42
4.712388980384695
  0
ARC
  5
997
330
1F
100
AcDbEntity
  8
1
  6
CONTINUOUS
100
AcDbCircle
 10
388.0312470409662
 20
158.0391741140743
 30
0.0
 40
0.3000000173526587
100
AcDbArc
 50
179.989097112723
 51
270.0
  0
LINE
  5
998
330
1F
100
AcDbEntity
  8
1
  6
CONTINUOUS
100
AcDbLine
 10
391.7312456760186
 20
155.3634367877186
 30
0.0
 11
391.7312456760186
 21
153.0391722911538
 31
0.0
  0
ARC
  5
999
330
1F
100
AcDbEntity
  8
1
  6
CONTINUOUS
100
AcDbCircle
 10
391.4312470171243
 20
153.0391741140743
 30
0.0
 40
0.3000000173527155
100
AcDbArc
 50
270.0
 51
0.0109030584279976
  0
ELLIPSE
  5
99A
330
1F
100
AcDbEntity
  8
1
  6
CONTINUOUS
100
AcDbEllipse
 10
391.4312470171243
 20
155.3634380742064
 30
0.0
 11
0.3000000119209289
 21
0.0
 31
0.0
210
0.0
220
0.0
230
1.0
 40
0.4142136060843144
 41
4.712388980384695
 42
6.283185307179584
  0
LINE
  5
99B
330
1F
100
AcDbEntity
  8
1
  6
CONTINUOUS
100
AcDbLine
 10
391.7312456760186
 20
157.4391722673118
 30
0.0
 11
391.7312456760186
 21
155.3634367877186
 31
0.0
  0
ARC
  5
99C
330
1F
100
AcDbEntity
  8
1
  6
CONTINUOUS
100
AcDbCircle
 10
391.4312470171243
 20
158.0391741140743
 30
0.0
 40
0.3000000173527155
100
AcDbArc
 50
270.0
 51
0.0109030584279976
  0
LINE
  5
99D
330
1F
100
AcDbEntity
  8
1
  6
CONTINUOUS
100
AcDbLine
 10
438.2673434036878
 20
156.2391743057908
 30
0.0
 11
449.2673428784217
 21
156.2391743057908
 31
0.0
  0
LINE
  5
99E
330
1F
100
AcDbEntity
  8
1
  6
CONTINUOUS
100
AcDbLine
 10
439.8886637817231
 20
154.239173977965
 30
0.0
 11
438.2673434036878
 21
155.8604948216616
 31
0.0
  0
LINE
  5
99F
330
1F
100
AcDbEntity
  8
1
  6
CONTINUOUS
100
AcDbLine
 10
436.76734362348
 20
155.2391722792328
 30
0.0
 11
439.2673440332617
 21
152.7391746634186
 31
0.0
  0
LINE
  5
9A0
330
1F
100
AcDbEntity
  8
1
  6
CONTINUOUS
100
AcDbLine
 10
436.7131061907024
 20
157.7391783887089
 30
0.0
 11
441.7131060789436
 21
157.7391783887089
 31
0.0
  0
LINE
  5
9A1
330
1F
100
AcDbEntity
  8
1
  6
CONTINUOUS
100
AcDbLine
 10
438.2673434036878
 20
156.2391743057908
 30
0.0
 11
438.2673434036878
 21
155.8604948216616
 31
0.0
  0
LWPOLYLINE
  5
9A2
330
1F
100
AcDbEntity
  8
1
  6
CONTINUOUS
100
AcDbPolyline
 90
       10
 70
   128
 43
0.0
 10
437.0673435795215
 20
155.3634367877186
 10
437.0152491199879
 20
155.34185990631
 10
436.9647374431697
 20
155.3209386759938
 10
436.9173433686701
 20
155.3013063961209
 10
436.8745071868507
 20
155.2835628384293
 10
436.8375304210093
 20
155.268244444722
 10
436.8075357805101
 20
155.2558206015766
 10
436.7854359614756
 20
155.2466675633134
 10
436.7719010504989
 20
155.2410610014141
 10
436.76734362348
 20
155.2391722792328
  0
LINE
  5
9A3
330
1F
100
AcDbEntity
  8
1
  6
CONTINUOUS
100
AcDbLine
 10
436.76734362348
 20
155.2391722792328
 30
0.0
 11
436.76734362348
 21
157.4391722673118
 31
0.0
  0
ARC
  5
9A4
330
1F
100
AcDbEntity
  8
1
  6
CONTINUOUS
100
AcDbCircle
 10
436.7131086650191
 20
158.2391809449779
 30
0.0
 40
0.500002556275256
100
AcDbArc
 50
180.0
 51
269.999716465662
  0
ARC
  5
9A5
330
1F
100
AcDbEntity
  8
1
  6
CONTINUOUS
100
AcDbCircle
 10
426.7131032804758
 20
158.239181138744
 30
0.0
 40
0.5000027500422597
100
AcDbArc
 50
270.0003057380936
 51
0.0
  0
LINE
  5
9A6
330
1F
100
AcDbEntity
  8
1
  6
CONTINUOUS
100
AcDbLine
 10
426.7131059485587
 20
157.7391783887089
 30
0.0
 11
431.7131060114228
 21
157.7391783887089
 31
0.0
  0
LINE
  5
9A7
330
1F
100
AcDbEntity
  8
1
  6
CONTINUOUS
100
AcDbLine
 10
431.7131060114228
 20
157.7391783887089
 30
0.0
 11
436.7131061907024
 21
157.7391783887089
 31
0.0
  0
ARC
  5
9A8
330
1F
100
AcDbEntity
  8
1
  6
CONTINUOUS
100
AcDbCircle
 10
426.2131080738186
 20
158.2391802122159
 30
0.0
 40
0.5000018235120677
100
AcDbArc
 50
180.0
 51
269.9997470725666
  0
LINE
  5
9A9
330
1F
100
AcDbEntity
  8
1
  6
CONTINUOUS
100
AcDbLine
 10
426.2131058666023
 20
157.7391783887089
 30
0.0
 11
426.7131059485587
 21
157.7391783887089
 31
0.0
  0
LINE
  5
9AA
330
1F
100
AcDbEntity
  8
1
100
AcDbLine
 10
439.2673440332617
 20
152.7391746634186
 30
0.0
 11
448.2673445771543
 21
152.7391746634186
 31
0.0
  0
LINE
  5
9AB
330
1F
100
AcDbEntity
  8
1
  6
CONTINUOUS
100
AcDbLine
 10
450.7673440556136
 20
157.439175992602
 30
0.0
 11
450.7673440556136
 21
155.2391760045229
 31
0.0
  0
LWPOLYLINE
  5
9AC
330
1F
100
AcDbEntity
  8
1
  6
CONTINUOUS
100
AcDbPolyline
 90
       10
 70
   128
 43
0.0
 10
450.7673440556136
 20
155.2391760045229
 10
450.7627861629335
 20
155.2410610014141
 10
450.7492521832792
 20
155.2466675633134
 10
450.7271518985835
 20
155.255824326867
 10
450.6971577237455
 20
155.2682481700123
 10
450.6601804922429
 20
155.2835628384293
 10
450.6173433791007
 20
155.3013063961209
 10
450.5699502359238
 20
155.3209386759938
 10
450.5194371621219
 20
155.34185990631
 10
450.4673427025882
 20
155.3634405130089
  0
LWPOLYLINE
  5
9AD
330
1F
100
AcDbEntity
  8
1
  6
CONTINUOUS
100
AcDbPolyline
 90
       10
 70
   128
 43
0.0
 10
448.1430800686685
 20
153.0391760164441
 10
448.1646569500772
 20
152.9870815569104
 10
448.1855800430385
 20
152.936566620463
 10
448.2052123229114
 20
152.889173477286
 10
448.222955880603
 20
152.846336364144
 10
448.2382705490198
 20
152.809362857932
 10
448.2506962548105
 20
152.7793668204485
 10
448.2598492930738
 20
152.7572683983983
 10
448.265455854973
 20
152.7437306934537
 10
448.2673445771543
 20
152.7391746634186
  0
LINE
  5
9AE
330
1F
100
AcDbEntity
  8
1
  6
CONTINUOUS
100
AcDbLine
 10
448.2673445771543
 20
152.7391746634186
 30
0.0
 11
450.7673440556136
 21
155.2391760045229
 31
0.0
  0
LINE
  5
9AF
330
1F
100
AcDbEntity
  8
1
  6
CONTINUOUS
100
AcDbLine
 10
449.2673428784217
 20
155.8604948216616
 30
0.0
 11
449.2673428784217
 21
156.2391743057908
 31
0.0
  0
LINE
  5
9B0
330
1F
100
AcDbEntity
  8
1
  6
CONTINUOUS
100
AcDbLine
 10
449.2673428784217
 20
155.8604948216616
 30
0.0
 11
447.6460238973705
 21
154.239173977965
 31
0.0
  0
LINE
  5
9B1
330
1F
100
AcDbEntity
  8
1
  6
CONTINUOUS
100
AcDbLine
 10
447.6460238973705
 20
154.239173977965
 30
0.0
 11
439.8886637817231
 21
154.239173977965
 31
0.0
  0
LWPOLYLINE
  5
9B2
330
1F
100
AcDbEntity
  8
1
  6
CONTINUOUS
100
AcDbPolyline
 90
       10
 70
   128
 43
0.0
 10
439.2673440332617
 20
152.7391746634186
 10
439.2692318241206
 20
152.7437306934537
 10
439.2748374546973
 20
152.757264673108
 10
439.2839923556056
 20
152.7793668204485
 10
439.2964161987511
 20
152.8093591326417
 10
439.3117327298131
 20
152.846336364144
 10
439.329475356182
 20
152.889173477286
 10
439.3491067047325
 20
152.936566620463
 10
439.3700297976939
 20
152.9870778316201
 10
439.3916076104251
 20
153.0391722911538
  0
ARC
  5
9B3
330
1F
100
AcDbEntity
  8
1
  6
CONTINUOUS
100
AcDbCircle
 10
452.2131040110856
 20
158.2391803969549
 30
0.0
 40
0.5000020082544358
100
AcDbArc
 50
270.0003274577714
 51
0.0
  0
LINE
  5
9B4
330
1F
100
AcDbEntity
  8
1
  6
CONTINUOUS
100
AcDbLine
 10
451.7131058554264
 20
157.7391783887089
 30
0.0
 11
452.2131068687054
 21
157.7391783887089
 31
0.0
  0
ARC
  5
9B5
330
1F
100
AcDbEntity
  8
1
  6
CONTINUOUS
100
AcDbCircle
 10
451.7131079379772
 20
158.2391796218893
 30
0.0
 40
0.5000012331849632
100
AcDbArc
 50
180.0
 51
269.9997613578115
  0
LWPOLYLINE
  5
9B6
330
1F
100
AcDbEntity
  8
1
  6
CONTINUOUS
100
AcDbPolyline
 90
       10
 70
   128
 43
0.0
 10
448.1430800686685
 20
158.039176016444
 10
448.1646569500772
 20
157.9870815569103
 10
448.1855800430385
 20
157.936566620463
 10
448.2052123229114
 20
157.889173477286
 10
448.222955880603
 20
157.846336364144
 10
448.2382705490198
 20
157.809362857932
 10
448.2506962548105
 20
157.7793668204486
 10
448.2598492930738
 20
157.7572683983983
 10
448.265455854973
 20
157.7437306934537
 10
448.2673445771543
 20
157.7391746634186
  0
LINE
  5
9B7
330
1F
100
AcDbEntity
  8
1
  6
CONTINUOUS
100
AcDbLine
 10
446.7131059671851
 20
157.7391783887089
 30
0.0
 11
451.7131058554264
 21
157.7391783887089
 31
0.0
  0
LWPOLYLINE
  5
9B8
330
1F
100
AcDbEntity
  8
1
  6
CONTINUOUS
100
AcDbPolyline
 90
       10
 70
   128
 43
0.0
 10
439.2673440332617
 20
157.7391746634186
 10
439.2692318241206
 20
157.7437306934537
 10
439.2748374546973
 20
157.757264673108
 10
439.2839923556056
 20
157.7793668204486
 10
439.2964161987511
 20
157.8093591326417
 10
439.3117327298131
 20
157.846336364144
 10
439.329475356182
 20
157.889173477286
 10
439.3491067047325
 20
157.936566620463
 10
439.3700297976939
 20
157.9870778316199
 10
439.3916076104251
 20
158.0391722911538
  0
LINE
  5
9B9
330
1F
100
AcDbEntity
  8
1
  6
CONTINUOUS
100
AcDbLine
 10
441.7131060789436
 20
157.7391783887089
 30
0.0
 11
446.7131059671851
 21
157.7391783887089
 31
0.0
  0
LINE
  5
9BA
330
1F
100
AcDbEntity
  8
1
  6
CONTINUOUS
100
AcDbLine
 10
448.2673445771543
 20
157.7391746634186
 30
0.0
 11
439.2673440332617
 21
157.7391746634186
 31
0.0
  0
LINE
  5
9BB
330
1F
100
AcDbEntity
  8
1
  6
CONTINUOUS
100
AcDbLine
 10
375.7312467787045
 20
261.7391805344762
 30
0.0
 11
329.5312470290431
 21
261.7391805344762
 31
0.0
  0
LINE
  5
9BC
330
1F
100
AcDbEntity
  8
1
  6
CONTINUOUS
 62
     1
100
AcDbLine
 10
375.7312467787045
 20
242.4891806387841
 30
0.0
 11
329.5312470290436
 21
242.4891806387841
 31
0.0
  0
LINE
  5
9BD
330
1F
100
AcDbEntity
  8
1
  6
CONTINUOUS
 62
     1
100
AcDbLine
 10
375.7312467787045
 20
242.7391792827786
 30
0.0
 11
329.5312470290436
 21
242.7391792827786
 31
0.0
  0
LINE
  5
9BE
330
1F
100
AcDbEntity
  8
1
  6
CONTINUOUS
 62
     1
100
AcDbLine
 10
375.7312467787045
 20
237.9891808324992
 30
0.0
 11
329.5312470290436
 21
237.9891808324992
 31
0.0
  0
LINE
  5
9BF
330
1F
100
AcDbEntity
  8
1
  6
CONTINUOUS
 62
     1
100
AcDbLine
 10
375.7312467787045
 20
238.4891799831331
 30
0.0
 11
329.5312470290436
 21
238.4891799831331
 31
0.0
  0
LINE
  5
9C0
330
1F
100
AcDbEntity
  8
1
  6
CONTINUOUS
 62
     1
100
AcDbLine
 10
375.7312467787045
 20
233.9891801768481
 30
0.0
 11
329.5312470290436
 21
233.9891801768481
 31
0.0
  0
LINE
  5
9C1
330
1F
100
AcDbEntity
  8
1
  6
CONTINUOUS
 62
     1
100
AcDbLine
 10
375.7312467787045
 20
234.4891793274821
 30
0.0
 11
329.5312470290436
 21
234.4891793274821
 31
0.0
  0
LINE
  5
9C2
330
1F
100
AcDbEntity
  8
1
  6
CONTINUOUS
 62
     1
100
AcDbLine
 10
375.7312467787045
 20
225.4891797149122
 30
0.0
 11
329.5312470290436
 21
225.4891797149122
 31
0.0
  0
LINE
  5
9C3
330
1F
100
AcDbEntity
  8
1
  6
CONTINUOUS
 62
     1
100
AcDbLine
 10
375.7312467787045
 20
225.7391802215518
 30
0.0
 11
329.5312470290436
 21
225.7391802215518
 31
0.0
  0
LINE
  5
9C4
330
1F
100
AcDbEntity
  8
1
  6
CONTINUOUS
 62
     1
100
AcDbLine
 10
375.7312467787045
 20
236.9891806685866
 30
0.0
 11
329.5312470290436
 21
236.9891806685866
 31
0.0
  0
LINE
  5
9C5
330
1F
100
AcDbEntity
  8
1
  6
CONTINUOUS
 62
     1
100
AcDbLine
 10
375.7312467787045
 20
237.4891798192204
 30
0.0
 11
329.5312470290436
 21
237.4891798192204
 31
0.0
  0
LINE
  5
9C6
330
1F
100
AcDbEntity
  8
1
  6
CONTINUOUS
 62
     1
100
AcDbLine
 10
375.7312467787045
 20
234.7391798341214
 30
0.0
 11
329.5312470290436
 21
234.7391798341214
 31
0.0
  0
LINE
  5
9C7
330
1F
100
AcDbEntity
  8
1
  6
CONTINUOUS
 62
     1
100
AcDbLine
 10
375.7312467787045
 20
241.9891796255053
 30
0.0
 11
329.5312470290436
 21
241.9891796255053
 31
0.0
  0
LINE
  5
9C8
330
1F
100
AcDbEntity
  8
1
  6
CONTINUOUS
 62
     1
100
AcDbLine
 10
375.7312467787045
 20
224.9891796329559
 30
0.0
 11
329.5312470290436
 21
224.9891796329559
 31
0.0
  0
LINE
  5
9C9
330
1F
100
AcDbEntity
  8
1
  6
CONTINUOUS
 62
     1
100
AcDbLine
 10
375.7312467787045
 20
227.989180124694
 30
0.0
 11
329.5312470290436
 21
227.989180124694
 31
0.0
  0
LINE
  5
9CA
330
1F
100
AcDbEntity
  8
1
  6
CONTINUOUS
 62
     1
100
AcDbLine
 10
375.7312467787045
 20
228.4891802066506
 30
0.0
 11
329.5312470290436
 21
228.4891802066506
 31
0.0
  0
LINE
  5
9CB
330
1F
100
AcDbEntity
  8
1
  6
CONTINUOUS
 62
     1
100
AcDbLine
 10
375.7312467787045
 20
238.7391804897725
 30
0.0
 11
329.5312470290436
 21
238.7391804897725
 31
0.0
  0
LINE
  5
9CC
330
1F
100
AcDbEntity
  8
1
  6
CONTINUOUS
 62
     1
100
AcDbLine
 10
375.7312467787045
 20
237.7391803258599
 30
0.0
 11
329.5312470290436
 21
237.7391803258599
 31
0.0
  0
LINE
  5
9CD
330
1F
100
AcDbEntity
  8
1
  6
CONTINUOUS
 62
     1
100
AcDbLine
 10
375.7312467787045
 20
228.7391797819675
 30
0.0
 11
329.5312470290436
 21
228.7391797819675
 31
0.0
  0
LINE
  5
9CE
330
1F
100
AcDbEntity
  8
1
  6
CONTINUOUS
 62
     1
100
AcDbLine
 10
375.7312467787045
 20
223.4891803184093
 30
0.0
 11
329.5312470290436
 21
223.4891803184093
 31
0.0
  0
LINE
  5
9CF
330
1F
100
AcDbEntity
  8
1
  6
CONTINUOUS
 62
     1
100
AcDbLine
 10
375.7312467787045
 20
223.7391798937262
 30
0.0
 11
329.5312470290436
 21
223.7391798937262
 31
0.0
  0
LINE
  5
9D0
330
1F
100
AcDbEntity
  8
1
  6
CONTINUOUS
 62
     1
100
AcDbLine
 10
375.7312467787045
 20
222.9891802364529
 30
0.0
 11
329.5312470290436
 21
222.9891802364529
 31
0.0
  0
LINE
  5
9D1
330
1F
100
AcDbEntity
  8
1
  6
CONTINUOUS
 62
     1
100
AcDbLine
 10
375.7312467787045
 20
222.4891801544965
 30
0.0
 11
329.5312470290436
 21
222.4891801544965
 31
0.0
  0
LINE
  5
9D2
330
1F
100
AcDbEntity
  8
1
  6
CONTINUOUS
 62
     1
100
AcDbLine
 10
375.7312467787045
 20
222.7391801954745
 30
0.0
 11
329.5312470290436
 21
222.7391801954745
 31
0.0
  0
LINE
  5
9D3
330
1F
100
AcDbEntity
  8
1
  6
CONTINUOUS
 62
     1
100
AcDbLine
 10
375.7312467787045
 20
230.4891805344762
 30
0.0
 11
329.5312470290436
 21
230.4891805344762
 31
0.0
  0
LINE
  5
9D4
330
1F
100
AcDbEntity
  8
1
  6
CONTINUOUS
 62
     1
100
AcDbLine
 10
375.7312467787045
 20
230.7391801097931
 30
0.0
 11
329.5312470290436
 21
230.7391801097931
 31
0.0
  0
LINE
  5
9D5
330
1F
100
AcDbEntity
  8
1
  6
CONTINUOUS
 62
     1
100
AcDbLine
 10
375.7312467787045
 20
244.9891801172435
 30
0.0
 11
329.5312470290431
 21
244.9891801172435
 31
0.0
  0
LINE
  5
9D6
330
1F
100
AcDbEntity
  8
1
  6
CONTINUOUS
 62
     1
100
AcDbLine
 10
375.7312467787045
 20
245.4891792678773
 30
0.0
 11
329.5312470290431
 21
245.4891792678773
 31
0.0
  0
LINE
  5
9D7
330
1F
100
AcDbEntity
  8
1
  6
CONTINUOUS
 62
     1
100
AcDbLine
 10
375.7312467787045
 20
236.4891796553075
 30
0.0
 11
329.5312470290436
 21
236.4891796553075
 31
0.0
  0
LINE
  5
9D8
330
1F
100
AcDbEntity
  8
1
  6
CONTINUOUS
 62
     1
100
AcDbLine
 10
375.7312467787045
 20
236.7391801619471
 30
0.0
 11
329.5312470290436
 21
236.7391801619471
 31
0.0
  0
LINE
  5
9D9
330
1F
100
AcDbEntity
  8
1
  6
CONTINUOUS
 62
     1
100
AcDbLine
 10
375.7312467787045
 20
220.9891799086272
 30
0.0
 11
329.5312470290436
 21
220.9891799086272
 31
0.0
  0
LINE
  5
9DA
330
1F
100
AcDbEntity
  8
1
  6
CONTINUOUS
 62
     1
100
AcDbLine
 10
375.7312467787045
 20
221.4891799905838
 30
0.0
 11
329.5312470290436
 21
221.4891799905838
 31
0.0
  0
LINE
  5
9DB
330
1F
100
AcDbEntity
  8
1
  6
CONTINUOUS
 62
     1
100
AcDbLine
 10
375.7312467787045
 20
246.7391799384297
 30
0.0
 11
329.5312470290431
 21
246.7391799384297
 31
0.0
  0
LINE
  5
9DC
330
1F
100
AcDbEntity
  8
1
  6
CONTINUOUS
 62
     1
100
AcDbLine
 10
375.7312467787045
 20
247.2391809517085
 30
0.0
 11
329.5312470290431
 21
247.2391809517085
 31
0.0
  0
LINE
  5
9DD
330
1F
100
AcDbEntity
  8
1
  6
CONTINUOUS
 62
     1
100
AcDbLine
 10
375.7312467787045
 20
245.9891802811564
 30
0.0
 11
329.5312470290431
 21
245.9891802811564
 31
0.0
  0
LINE
  5
9DE
330
1F
100
AcDbEntity
  8
1
  6
CONTINUOUS
 62
     1
100
AcDbLine
 10
375.7312467787045
 20
221.739180031562
 30
0.0
 11
329.5312470290436
 21
221.739180031562
 31
0.0
  0
LINE
  5
9DF
330
1F
100
AcDbEntity
  8
1
  6
CONTINUOUS
 62
     1
100
AcDbLine
 10
375.7312467787045
 20
245.7391797745169
 30
0.0
 11
329.5312470290431
 21
245.7391797745169
 31
0.0
  0
LINE
  5
9E0
330
1F
100
AcDbEntity
  8
1
  6
CONTINUOUS
 62
     1
100
AcDbLine
 10
375.7312467787045
 20
235.9891805046738
 30
0.0
 11
329.5312470290436
 21
235.9891805046738
 31
0.0
  0
LINE
  5
9E1
330
1F
100
AcDbEntity
  8
1
  6
CONTINUOUS
 62
     1
100
AcDbLine
 10
375.7312467787045
 20
235.4891794913949
 30
0.0
 11
329.5312470290436
 21
235.4891794913949
 31
0.0
  0
LINE
  5
9E2
330
1F
100
AcDbEntity
  8
1
  6
CONTINUOUS
 62
     1
100
AcDbLine
 10
375.7312467787045
 20
235.7391799980343
 30
0.0
 11
329.5312470290436
 21
235.7391799980343
 31
0.0
  0
LINE
  5
9E3
330
1F
100
AcDbEntity
  8
1
  6
CONTINUOUS
 62
     1
100
AcDbLine
 10
375.7312467787045
 20
221.98918007254
 30
0.0
 11
329.5312470290436
 21
221.98918007254
 31
0.0
  0
LINE
  5
9E4
330
1F
100
AcDbEntity
  8
1
  6
CONTINUOUS
 62
     1
100
AcDbLine
 10
375.7312467787045
 20
239.9891792976798
 30
0.0
 11
329.5312470290436
 21
239.9891792976798
 31
0.0
  0
LINE
  5
9E5
330
1F
100
AcDbEntity
  8
1
  6
CONTINUOUS
 62
     1
100
AcDbLine
 10
375.7312467787045
 20
240.4891803109586
 30
0.0
 11
329.5312470290436
 21
240.4891803109586
 31
0.0
  0
LINE
  5
9E6
330
1F
100
AcDbEntity
  8
1
  6
CONTINUOUS
 62
     1
100
AcDbLine
 10
375.7312467787045
 20
229.9891804525198
 30
0.0
 11
329.5312470290436
 21
229.9891804525198
 31
0.0
  0
LINE
  5
9E7
330
1F
100
AcDbEntity
  8
1
  6
CONTINUOUS
 62
     1
100
AcDbLine
 10
375.7312467787045
 20
240.7391808175982
 30
0.0
 11
329.5312470290436
 21
240.7391808175982
 31
0.0
  0
LINE
  5
9E8
330
1F
100
AcDbEntity
  8
1
  6
CONTINUOUS
 62
     1
100
AcDbLine
 10
375.7312467787045
 20
234.9891803407611
 30
0.0
 11
329.5312470290436
 21
234.9891803407611
 31
0.0
  0
LINE
  5
9E9
330
1F
100
AcDbEntity
  8
1
  6
CONTINUOUS
 62
     1
100
AcDbLine
 10
375.7312467787045
 20
226.4891798788251
 30
0.0
 11
329.5312470290436
 21
226.4891798788251
 31
0.0
  0
LINE
  5
9EA
330
1F
100
AcDbEntity
  8
1
  6
CONTINUOUS
 62
     1
100
AcDbLine
 10
375.7312467787045
 20
226.7391803854645
 30
0.0
 11
329.5312470290436
 21
226.7391803854645
 31
0.0
  0
LINE
  5
9EB
330
1F
100
AcDbEntity
  8
1
  6
CONTINUOUS
 62
     1
100
AcDbLine
 10
375.7312467787045
 20
228.9891802886069
 30
0.0
 11
329.5312470290436
 21
228.9891802886069
 31
0.0
  0
LINE
  5
9EC
330
1F
100
AcDbEntity
  8
1
  6
CONTINUOUS
 62
     1
100
AcDbLine
 10
375.7312467787045
 20
229.4891803705632
 30
0.0
 11
329.5312470290436
 21
229.4891803705632
 31
0.0
  0
LINE
  5
9ED
330
1F
100
AcDbEntity
  8
1
  6
CONTINUOUS
 62
     1
100
AcDbLine
 10
375.7312467787045
 20
223.9891804003657
 30
0.0
 11
329.5312470290436
 21
223.9891804003657
 31
0.0
  0
LINE
  5
9EE
330
1F
100
AcDbEntity
  8
1
  6
CONTINUOUS
 62
     1
100
AcDbLine
 10
375.7312467787045
 20
224.489180482322
 30
0.0
 11
329.5312470290436
 21
224.489180482322
 31
0.0
  0
LINE
  5
9EF
330
1F
100
AcDbEntity
  8
1
  6
CONTINUOUS
 62
     1
100
AcDbLine
 10
375.7312467787045
 20
241.4891804748715
 30
0.0
 11
329.5312470290436
 21
241.4891804748715
 31
0.0
  0
LINE
  5
9F0
330
1F
100
AcDbEntity
  8
1
  6
CONTINUOUS
 62
     1
100
AcDbLine
 10
375.7312467787045
 20
241.7391809815109
 30
0.0
 11
329.5312470290436
 21
241.7391809815109
 31
0.0
  0
LINE
  5
9F1
330
1F
100
AcDbEntity
  8
1
  6
CONTINUOUS
 62
     1
100
AcDbLine
 10
375.7312467787045
 20
244.4891809666098
 30
0.0
 11
329.5312470290431
 21
244.4891809666098
 31
0.0
  0
LINE
  5
9F2
330
1F
100
AcDbEntity
  8
1
  6
CONTINUOUS
 62
     1
100
AcDbLine
 10
375.7312467787045
 20
244.739179610604
 30
0.0
 11
329.5312470290431
 21
244.739179610604
 31
0.0
  0
LINE
  5
9F3
330
1F
100
AcDbEntity
  8
1
  6
CONTINUOUS
 62
     1
100
AcDbLine
 10
375.7312467787045
 20
225.9891797968687
 30
0.0
 11
329.5312470290436
 21
225.9891797968687
 31
0.0
  0
LINE
  5
9F4
330
1F
100
AcDbEntity
  8
1
  6
CONTINUOUS
 62
     1
100
AcDbLine
 10
375.7312467787045
 20
240.9891794615924
 30
0.0
 11
329.5312470290436
 21
240.9891794615924
 31
0.0
  0
LINE
  5
9F5
330
1F
100
AcDbEntity
  8
1
  6
CONTINUOUS
 62
     1
100
AcDbLine
 10
375.7312467787045
 20
224.7391800576389
 30
0.0
 11
329.5312470290436
 21
224.7391800576389
 31
0.0
  0
LINE
  5
9F6
330
1F
100
AcDbEntity
  8
1
  6
CONTINUOUS
 62
     1
100
AcDbLine
 10
375.7312467787045
 20
243.9891799533309
 30
0.0
 11
329.5312470290431
 21
243.9891799533309
 31
0.0
  0
LINE
  5
9F7
330
1F
100
AcDbEntity
  8
1
  6
CONTINUOUS
 62
     1
100
AcDbLine
 10
375.7312467787045
 20
229.7391799458803
 30
0.0
 11
329.5312470290436
 21
229.7391799458803
 31
0.0
  0
LINE
  5
9F8
330
1F
100
AcDbEntity
  8
1
  6
CONTINUOUS
 62
     1
100
AcDbLine
 10
375.7312467787045
 20
231.4891806983889
 30
0.0
 11
329.5312470290436
 21
231.4891806983889
 31
0.0
  0
LINE
  5
9F9
330
1F
100
AcDbEntity
  8
1
  6
CONTINUOUS
 62
     1
100
AcDbLine
 10
375.7312467787045
 20
231.7391793423833
 30
0.0
 11
329.5312470290436
 21
231.7391793423833
 31
0.0
  0
LINE
  5
9FA
330
1F
100
AcDbEntity
  8
1
  6
CONTINUOUS
 62
     1
100
AcDbLine
 10
375.7312467787045
 20
231.9891798490226
 30
0.0
 11
329.5312470290436
 21
231.9891798490226
 31
0.0
  0
LINE
  5
9FB
330
1F
100
AcDbEntity
  8
1
  6
CONTINUOUS
 62
     1
100
AcDbLine
 10
375.7312467787045
 20
232.4891808623017
 30
0.0
 11
329.5312470290436
 21
232.4891808623017
 31
0.0
  0
LINE
  5
9FC
330
1F
100
AcDbEntity
  8
1
  6
CONTINUOUS
 62
     1
100
AcDbLine
 10
375.7312467787045
 20
232.739179506296
 30
0.0
 11
329.5312470290436
 21
232.739179506296
 31
0.0
  0
LINE
  5
9FD
330
1F
100
AcDbEntity
  8
1
  6
CONTINUOUS
 62
     1
100
AcDbLine
 10
375.7312467787045
 20
230.98917968511
 30
0.0
 11
329.5312470290436
 21
230.98917968511
 31
0.0
  0
LINE
  5
9FE
330
1F
100
AcDbEntity
  8
1
  6
CONTINUOUS
 62
     1
100
AcDbLine
 10
375.7312467787045
 20
226.9891799607814
 30
0.0
 11
329.5312470290436
 21
226.9891799607814
 31
0.0
  0
LINE
  5
9FF
330
1F
100
AcDbEntity
  8
1
  6
CONTINUOUS
 62
     1
100
AcDbLine
 10
375.7312467787045
 20
227.4891800427378
 30
0.0
 11
329.5312470290436
 21
227.4891800427378
 31
0.0
  0
LINE
  5
A00
330
1F
100
AcDbEntity
  8
1
  6
CONTINUOUS
 62
     1
100
AcDbLine
 10
375.7312467787045
 20
242.989179789418
 30
0.0
 11
329.5312470290436
 21
242.989179789418
 31
0.0
  0
LINE
  5
A01
330
1F
100
AcDbEntity
  8
1
  6
CONTINUOUS
 62
     1
100
AcDbLine
 10
375.7312467787045
 20
243.4891808026971
 30
0.0
 11
329.5312470290436
 21
243.4891808026971
 31
0.0
  0
LINE
  5
A02
330
1F
100
AcDbEntity
  8
1
  6
CONTINUOUS
 62
     1
100
AcDbLine
 10
375.7312467787045
 20
239.489180147046
 30
0.0
 11
329.5312470290436
 21
239.489180147046
 31
0.0
  0
LINE
  5
A03
330
1F
100
AcDbEntity
  8
1
  6
CONTINUOUS
 62
     1
100
AcDbLine
 10
375.7312467787045
 20
239.7391806536854
 30
0.0
 11
329.5312470290436
 21
239.7391806536854
 31
0.0
  0
LINE
  5
A04
330
1F
100
AcDbEntity
  8
1
  6
CONTINUOUS
 62
     1
100
AcDbLine
 10
375.7312467787045
 20
243.7391794466913
 30
0.0
 11
329.5312470290436
 21
243.7391794466913
 31
0.0
  0
LINE
  5
A05
330
1F
100
AcDbEntity
  8
1
  6
CONTINUOUS
 62
     1
100
AcDbLine
 10
375.7312467787045
 20
227.7391805493773
 30
0.0
 11
329.5312470290436
 21
227.7391805493773
 31
0.0
  0
LINE
  5
A06
330
1F
100
AcDbEntity
  8
1
  6
CONTINUOUS
 62
     1
100
AcDbLine
 10
375.7312467787045
 20
238.989180996412
 30
0.0
 11
329.5312470290436
 21
238.989180996412
 31
0.0
  0
LINE
  5
A07
330
1F
100
AcDbEntity
  8
1
  6
CONTINUOUS
 62
     1
100
AcDbLine
 10
375.7312467787045
 20
233.4891810262143
 30
0.0
 11
329.5312470290436
 21
233.4891810262143
 31
0.0
  0
LINE
  5
A08
330
1F
100
AcDbEntity
  8
1
  6
CONTINUOUS
 62
     1
100
AcDbLine
 10
375.7312467787045
 20
233.7391796702088
 30
0.0
 11
329.5312470290436
 21
233.7391796702088
 31
0.0
  0
LINE
  5
A09
330
1F
100
AcDbEntity
  8
1
  6
CONTINUOUS
 62
     1
100
AcDbLine
 10
375.7312467787045
 20
232.9891800129355
 30
0.0
 11
329.5312470290436
 21
232.9891800129355
 31
0.0
  0
LINE
  5
A0A
330
1F
100
AcDbEntity
  8
1
  6
CONTINUOUS
 62
     1
100
AcDbLine
 10
375.7312467787045
 20
213.9891800418065
 30
0.0
 11
329.5312470290436
 21
213.9891800418065
 31
0.0
  0
LINE
  5
A0B
330
1F
100
AcDbEntity
  8
1
  6
CONTINUOUS
 62
     1
100
AcDbLine
 10
375.7312467787045
 20
214.4891801237629
 30
0.0
 11
329.5312470290436
 21
214.4891801237629
 31
0.0
  0
LINE
  5
A0C
330
1F
100
AcDbEntity
  8
1
  6
CONTINUOUS
 62
     1
100
AcDbLine
 10
375.7312467787045
 20
215.4891800839489
 30
0.0
 11
329.5312470290436
 21
215.4891800839489
 31
0.0
  0
LINE
  5
A0D
330
1F
100
AcDbEntity
  8
1
  6
CONTINUOUS
 62
     1
100
AcDbLine
 10
375.7312467787045
 20
215.739180095823
 30
0.0
 11
329.5312470290436
 21
215.739180095823
 31
0.0
  0
LINE
  5
A0E
330
1F
100
AcDbEntity
  8
1
  6
CONTINUOUS
 62
     1
100
AcDbLine
 10
375.7312467787045
 20
214.989180089304
 30
0.0
 11
329.5312470290436
 21
214.989180089304
 31
0.0
  0
LINE
  5
A0F
330
1F
100
AcDbEntity
  8
1
  6
CONTINUOUS
 62
     1
100
AcDbLine
 10
375.7312467787045
 20
216.9891800678835
 30
0.0
 11
329.5312470290436
 21
216.9891800678835
 31
0.0
  0
LINE
  5
A10
330
1F
100
AcDbEntity
  8
1
  6
CONTINUOUS
 62
     1
100
AcDbLine
 10
375.7312467787045
 20
217.4891800334246
 30
0.0
 11
329.5312470290436
 21
217.4891800334246
 31
0.0
  0
LINE
  5
A11
330
1F
100
AcDbEntity
  8
1
  6
CONTINUOUS
 62
     1
100
AcDbLine
 10
375.7312467787045
 20
220.4891802923321
 30
0.0
 11
329.5312470290436
 21
220.4891802923321
 31
0.0
  0
LINE
  5
A12
330
1F
100
AcDbEntity
  8
1
  6
CONTINUOUS
 62
     1
100
AcDbLine
 10
375.7312467787045
 20
220.7391798676491
 30
0.0
 11
329.5312470290436
 21
220.7391798676491
 31
0.0
  0
LINE
  5
A13
330
1F
100
AcDbEntity
  8
1
  6
CONTINUOUS
 62
     1
100
AcDbLine
 10
375.7312467787045
 20
214.7391801065333
 30
0.0
 11
329.5312470290436
 21
214.7391801065333
 31
0.0
  0
LINE
  5
A14
330
1F
100
AcDbEntity
  8
1
  6
CONTINUOUS
 62
     1
100
AcDbLine
 10
375.7312467787045
 20
217.7391800744028
 30
0.0
 11
329.5312470290436
 21
217.7391800744028
 31
0.0
  0
LINE
  5
A15
330
1F
100
AcDbEntity
  8
1
  6
CONTINUOUS
 62
     1
100
AcDbLine
 10
375.7312467787045
 20
219.9891802103759
 30
0.0
 11
329.5312470290436
 21
219.9891802103759
 31
0.0
  0
LINE
  5
A16
330
1F
100
AcDbEntity
  8
1
  6
CONTINUOUS
 62
     1
100
AcDbLine
 10
329.5312470290439
 20
181.739178597325
 30
0.0
 11
375.7312467787045
 21
181.739178597325
 31
0.0
  0
LINE
  5
A17
330
1F
100
AcDbEntity
  8
1
  6
CONTINUOUS
 62
     1
100
AcDbLine
 10
329.5312470290439
 20
181.9891791039645
 30
0.0
 11
375.7312467787045
 21
181.9891791039645
 31
0.0
  0
LINE
  5
A18
330
1F
100
AcDbEntity
  8
1
  6
CONTINUOUS
 62
     1
100
AcDbLine
 10
329.5312470290439
 20
203.989179916078
 30
0.0
 11
375.7312467787045
 21
203.989179916078
 31
0.0
  0
LINE
  5
A19
330
1F
100
AcDbEntity
  8
1
  6
CONTINUOUS
 62
     1
100
AcDbLine
 10
329.5312470290439
 20
204.4891799980343
 30
0.0
 11
375.7312467787045
 21
204.4891799980343
 31
0.0
  0
LINE
  5
A1A
330
1F
100
AcDbEntity
  8
1
  6
CONTINUOUS
 62
     1
100
AcDbLine
 10
375.7312467787045
 20
215.9891800785938
 30
0.0
 11
329.5312470290436
 21
215.9891800785938
 31
0.0
  0
LINE
  5
A1B
330
1F
100
AcDbEntity
  8
1
  6
CONTINUOUS
 62
     1
100
AcDbLine
 10
375.7312467787045
 20
216.4891801023423
 30
0.0
 11
329.5312470290436
 21
216.4891801023423
 31
0.0
  0
LINE
  5
A1C
330
1F
100
AcDbEntity
  8
1
  6
CONTINUOUS
 62
     1
100
AcDbLine
 10
329.5312470290439
 20
200.9891803556622
 30
0.0
 11
375.7312467787045
 21
200.9891803556622
 31
0.0
  0
LINE
  5
A1D
330
1F
100
AcDbEntity
  8
1
  6
CONTINUOUS
 62
     1
100
AcDbLine
 10
329.5312470290439
 20
201.4891804376186
 30
0.0
 11
375.7312467787045
 21
201.4891804376186
 31
0.0
  0
LINE
  5
A1E
330
1F
100
AcDbEntity
  8
1
  6
CONTINUOUS
 62
     1
100
AcDbLine
 10
375.7312467787045
 20
216.7391801433205
 30
0.0
 11
329.5312470290436
 21
216.7391801433205
 31
0.0
  0
LINE
  5
A1F
330
1F
100
AcDbEntity
  8
1
  6
CONTINUOUS
 62
     1
100
AcDbLine
 10
329.5312470290439
 20
200.7391798490226
 30
0.0
 11
375.7312467787045
 21
200.7391798490226
 31
0.0
  0
LINE
  5
A20
330
1F
100
AcDbEntity
  8
1
  6
CONTINUOUS
 62
     1
100
AcDbLine
 10
329.5312470290439
 20
182.4891801172435
 30
0.0
 11
375.7312467787045
 21
182.4891801172435
 31
0.0
  0
LINE
  5
A21
330
1F
100
AcDbEntity
  8
1
  6
CONTINUOUS
 62
     1
100
AcDbLine
 10
329.5312470290439
 20
203.7391803407611
 30
0.0
 11
375.7312467787045
 21
203.7391803407611
 31
0.0
  0
LINE
  5
A22
330
1F
100
AcDbEntity
  8
1
  6
CONTINUOUS
 62
     1
100
AcDbLine
 10
329.5312470290439
 20
179.9891787761391
 30
0.0
 11
375.7312467787045
 21
179.9891787761391
 31
0.0
  0
LINE
  5
A23
330
1F
100
AcDbEntity
  8
1
  6
CONTINUOUS
 62
     1
100
AcDbLine
 10
329.5312470290439
 20
180.4891797894179
 30
0.0
 11
375.7312467787045
 21
180.4891797894179
 31
0.0
  0
LINE
  5
A24
330
1F
100
AcDbEntity
  8
1
  6
CONTINUOUS
 62
     1
100
AcDbLine
 10
329.5312470290439
 20
189.7391799086273
 30
0.0
 11
375.7312467787045
 21
189.7391799086273
 31
0.0
  0
LINE
  5
A25
330
1F
100
AcDbEntity
  8
1
  6
CONTINUOUS
 62
     1
100
AcDbLine
 10
329.5312470290439
 20
189.9891804152669
 30
0.0
 11
375.7312467787045
 21
189.9891804152669
 31
0.0
  0
LINE
  5
A26
330
1F
100
AcDbEntity
  8
1
  6
CONTINUOUS
 62
     1
100
AcDbLine
 10
329.5312470290439
 20
190.9891805791796
 30
0.0
 11
375.7312467787045
 21
190.9891805791796
 31
0.0
  0
LINE
  5
A27
330
1F
100
AcDbEntity
  8
1
  6
CONTINUOUS
 62
     1
100
AcDbLine
 10
329.5312470290439
 20
191.4891797298134
 30
0.0
 11
375.7312467787045
 21
191.4891797298134
 31
0.0
  0
LINE
  5
A28
330
1F
100
AcDbEntity
  8
1
  6
CONTINUOUS
 62
     1
100
AcDbLine
 10
329.5312470290439
 20
190.73918007254
 30
0.0
 11
375.7312467787045
 21
190.73918007254
 31
0.0
  0
LINE
  5
A29
330
1F
100
AcDbEntity
  8
1
  6
CONTINUOUS
 62
     1
100
AcDbLine
 10
329.5312470290439
 20
194.9891793721855
 30
0.0
 11
375.7312467787045
 21
194.9891793721855
 31
0.0
  0
LINE
  5
A2A
330
1F
100
AcDbEntity
  8
1
  6
CONTINUOUS
 62
     1
100
AcDbLine
 10
329.5312470290439
 20
195.4891803854645
 30
0.0
 11
375.7312467787045
 21
195.4891803854645
 31
0.0
  0
LINE
  5
A2B
330
1F
100
AcDbEntity
  8
1
  6
CONTINUOUS
 62
     1
100
AcDbLine
 10
329.5312470290439
 20
182.9891811305224
 30
0.0
 11
375.7312467787045
 21
182.9891811305224
 31
0.0
  0
LINE
  5
A2C
330
1F
100
AcDbEntity
  8
1
  6
CONTINUOUS
 62
     1
100
AcDbLine
 10
329.5312470290439
 20
183.4891784185113
 30
0.0
 11
375.7312467787045
 21
183.4891784185113
 31
0.0
  0
LINE
  5
A2D
330
1F
100
AcDbEntity
  8
1
  6
CONTINUOUS
 62
     1
100
AcDbLine
 10
329.5312470290439
 20
187.9891800874413
 30
0.0
 11
375.7312467787045
 21
187.9891800874413
 31
0.0
  0
LINE
  5
A2E
330
1F
100
AcDbEntity
  8
1
  6
CONTINUOUS
 62
     1
100
AcDbLine
 10
329.5312470290439
 20
188.4891792380751
 30
0.0
 11
375.7312467787045
 21
188.4891792380751
 31
0.0
  0
LINE
  5
A2F
330
1F
100
AcDbEntity
  8
1
  6
CONTINUOUS
 62
     1
100
AcDbLine
 10
329.5312470290439
 20
185.7391792529761
 30
0.0
 11
375.7312467787045
 21
185.7391792529761
 31
0.0
  0
LINE
  5
A30
330
1F
100
AcDbEntity
  8
1
  6
CONTINUOUS
 62
     1
100
AcDbLine
 10
329.5312470290439
 20
185.9891797596158
 30
0.0
 11
375.7312467787045
 21
185.9891797596158
 31
0.0
  0
LINE
  5
A31
330
1F
100
AcDbEntity
  8
1
  6
CONTINUOUS
 62
     1
100
AcDbLine
 10
329.5312470290439
 20
188.9891802513539
 30
0.0
 11
375.7312467787045
 21
188.9891802513539
 31
0.0
  0
LINE
  5
A32
330
1F
100
AcDbEntity
  8
1
  6
CONTINUOUS
 62
     1
100
AcDbLine
 10
329.5312470290439
 20
189.4891794019877
 30
0.0
 11
375.7312467787045
 21
189.4891794019877
 31
0.0
  0
LINE
  5
A33
330
1F
100
AcDbEntity
  8
1
  6
CONTINUOUS
 62
     1
100
AcDbLine
 10
329.5312470290439
 20
187.7391795808018
 30
0.0
 11
375.7312467787045
 21
187.7391795808018
 31
0.0
  0
LINE
  5
A34
330
1F
100
AcDbEntity
  8
1
  6
CONTINUOUS
 62
     1
100
AcDbLine
 10
329.5312470290439
 20
186.9891799235285
 30
0.0
 11
375.7312467787045
 21
186.9891799235285
 31
0.0
  0
LINE
  5
A35
330
1F
100
AcDbEntity
  8
1
  6
CONTINUOUS
 62
     1
100
AcDbLine
 10
329.5312470290439
 20
187.4891809368075
 30
0.0
 11
375.7312467787045
 21
187.4891809368075
 31
0.0
  0
LINE
  5
A36
330
1F
100
AcDbEntity
  8
1
  6
CONTINUOUS
 62
     1
100
AcDbLine
 10
329.5312470290439
 20
204.9891800799905
 30
0.0
 11
375.7312467787045
 21
204.9891800799905
 31
0.0
  0
LINE
  5
A37
330
1F
100
AcDbEntity
  8
1
  6
CONTINUOUS
 62
     1
100
AcDbLine
 10
329.5312470290439
 20
205.4891801619471
 30
0.0
 11
375.7312467787045
 21
205.4891801619471
 31
0.0
  0
LINE
  5
A38
330
1F
100
AcDbEntity
  8
1
  6
CONTINUOUS
 62
     1
100
AcDbLine
 10
329.5312470290439
 20
183.9891794317902
 30
0.0
 11
375.7312467787045
 21
183.9891794317902
 31
0.0
  0
LINE
  5
A39
330
1F
100
AcDbEntity
  8
1
  6
CONTINUOUS
 62
     1
100
AcDbLine
 10
329.5312470290439
 20
184.489180445069
 30
0.0
 11
375.7312467787045
 21
184.489180445069
 31
0.0
  0
LINE
  5
A3A
330
1F
100
AcDbEntity
  8
1
  6
CONTINUOUS
 62
     1
100
AcDbLine
 10
329.5312470290439
 20
204.7391805046738
 30
0.0
 11
375.7312467787045
 21
204.7391805046738
 31
0.0
  0
LINE
  5
A3B
330
1F
100
AcDbEntity
  8
1
  6
CONTINUOUS
 62
     1
100
AcDbLine
 10
329.5312470290439
 20
196.9891797000111
 30
0.0
 11
375.7312467787045
 21
196.9891797000111
 31
0.0
  0
LINE
  5
A3C
330
1F
100
AcDbEntity
  8
1
  6
CONTINUOUS
 62
     1
100
AcDbLine
 10
329.5312470290439
 20
197.4891807132899
 30
0.0
 11
375.7312467787045
 21
197.4891807132899
 31
0.0
  0
LINE
  5
A3D
330
1F
100
AcDbEntity
  8
1
  6
CONTINUOUS
 62
     1
100
AcDbLine
 10
329.5312470290439
 20
186.4891807728946
 30
0.0
 11
375.7312467787045
 21
186.4891807728946
 31
0.0
  0
LINE
  5
A3E
330
1F
100
AcDbEntity
  8
1
  6
CONTINUOUS
 62
     1
100
AcDbLine
 10
329.5312470290439
 20
206.9891804078163
 30
0.0
 11
375.7312467787045
 21
206.9891804078163
 31
0.0
  0
LINE
  5
A3F
330
1F
100
AcDbEntity
  8
1
  6
CONTINUOUS
 62
     1
100
AcDbLine
 10
329.5312470290439
 20
207.4891800241113
 30
0.0
 11
375.7312467787045
 21
207.4891800241113
 31
0.0
  0
LINE
  5
A40
330
1F
100
AcDbEntity
  8
1
  6
CONTINUOUS
 62
     1
100
AcDbLine
 10
329.5312470290439
 20
188.7391797447144
 30
0.0
 11
375.7312467787045
 21
188.7391797447144
 31
0.0
  0
LINE
  5
A41
330
1F
100
AcDbEntity
  8
1
  6
CONTINUOUS
 62
     1
100
AcDbLine
 10
329.5312470290439
 20
206.7391799011768
 30
0.0
 11
375.7312467787045
 21
206.7391799011768
 31
0.0
  0
LINE
  5
A42
330
1F
100
AcDbEntity
  8
1
  6
CONTINUOUS
 62
     1
100
AcDbLine
 10
329.5312470290439
 20
196.7391791933715
 30
0.0
 11
375.7312467787045
 21
196.7391791933715
 31
0.0
  0
LINE
  5
A43
330
1F
100
AcDbEntity
  8
1
  6
CONTINUOUS
 62
     1
100
AcDbLine
 10
329.5312470290439
 20
182.739180623883
 30
0.0
 11
375.7312467787045
 21
182.739180623883
 31
0.0
  0
LINE
  5
A44
330
1F
100
AcDbEntity
  8
1
  6
CONTINUOUS
 62
     1
100
AcDbLine
 10
329.5312470290439
 20
205.7391797372638
 30
0.0
 11
375.7312467787045
 21
205.7391797372638
 31
0.0
  0
LINE
  5
A45
330
1F
100
AcDbEntity
  8
1
  6
CONTINUOUS
 62
     1
100
AcDbLine
 10
329.5312470290439
 20
205.9891802439035
 30
0.0
 11
375.7312467787045
 21
205.9891802439035
 31
0.0
  0
LINE
  5
A46
330
1F
100
AcDbEntity
  8
1
  6
CONTINUOUS
 62
     1
100
AcDbLine
 10
375.7312467787045
 20
219.4891801284195
 30
0.0
 11
329.5312470290436
 21
219.4891801284195
 31
0.0
  0
LINE
  5
A47
330
1F
100
AcDbEntity
  8
1
  6
CONTINUOUS
 62
     1
100
AcDbLine
 10
375.7312467787045
 20
219.7391801693977
 30
0.0
 11
329.5312470290436
 21
219.7391801693977
 31
0.0
  0
LINE
  5
A48
330
1F
100
AcDbEntity
  8
1
  6
CONTINUOUS
 62
     1
100
AcDbLine
 10
329.5312470290439
 20
206.4891803258599
 30
0.0
 11
375.7312467787045
 21
206.4891803258599
 31
0.0
  0
LINE
  5
A49
330
1F
100
AcDbEntity
  8
1
  6
CONTINUOUS
 62
     1
100
AcDbLine
 10
329.5312470290439
 20
179.7391782694995
 30
0.0
 11
375.7312467787045
 21
179.7391782694995
 31
0.0
  0
LINE
  5
A4A
330
1F
100
AcDbEntity
  8
1
  6
CONTINUOUS
 62
     1
100
AcDbLine
 10
329.5312470290439
 20
194.7391807281911
 30
0.0
 11
375.7312467787045
 21
194.7391807281911
 31
0.0
  0
LINE
  5
A4B
330
1F
100
AcDbEntity
  8
1
  6
CONTINUOUS
 62
     1
100
AcDbLine
 10
329.5312470290439
 20
186.739179416889
 30
0.0
 11
375.7312467787045
 21
186.739179416889
 31
0.0
  0
LINE
  5
A4C
330
1F
100
AcDbEntity
  8
1
  6
CONTINUOUS
 62
     1
100
AcDbLine
 10
329.5312470290439
 20
183.7391789251506
 30
0.0
 11
375.7312467787045
 21
183.7391789251506
 31
0.0
  0
LINE
  5
A4D
330
1F
100
AcDbEntity
  8
1
  6
CONTINUOUS
 62
     1
100
AcDbLine
 10
329.5312470290439
 20
207.9891801060678
 30
0.0
 11
375.7312467787045
 21
207.9891801060678
 31
0.0
  0
LINE
  5
A4E
330
1F
100
AcDbEntity
  8
1
  6
CONTINUOUS
 62
     1
100
AcDbLine
 10
329.5312470290439
 20
208.4891801880241
 30
0.0
 11
375.7312467787045
 21
208.4891801880241
 31
0.0
  0
LINE
  5
A4F
330
1F
100
AcDbEntity
  8
1
  6
CONTINUOUS
 62
     1
100
AcDbLine
 10
329.5312470290439
 20
180.9891808026971
 30
0.0
 11
375.7312467787045
 21
180.9891808026971
 31
0.0
  0
LINE
  5
A50
330
1F
100
AcDbEntity
  8
1
  6
CONTINUOUS
 62
     1
100
AcDbLine
 10
329.5312470290439
 20
181.4891818159759
 30
0.0
 11
375.7312467787045
 21
181.4891818159759
 31
0.0
  0
LINE
  5
A51
330
1F
100
AcDbEntity
  8
1
  6
CONTINUOUS
 62
     1
100
AcDbLine
 10
329.5312470290439
 20
180.7391802960575
 30
0.0
 11
375.7312467787045
 21
180.7391802960575
 31
0.0
  0
LINE
  5
A52
330
1F
100
AcDbEntity
  8
1
  6
CONTINUOUS
 62
     1
100
AcDbLine
 10
375.7312467787045
 20
218.989180046463
 30
0.0
 11
329.5312470290436
 21
218.989180046463
 31
0.0
  0
LINE
  5
A53
330
1F
100
AcDbEntity
  8
1
  6
CONTINUOUS
 62
     1
100
AcDbLine
 10
329.5312470290439
 20
191.7391802364529
 30
0.0
 11
375.7312467787045
 21
191.7391802364529
 31
0.0
  0
LINE
  5
A54
330
1F
100
AcDbEntity
  8
1
  6
CONTINUOUS
 62
     1
100
AcDbLine
 10
329.5312470290439
 20
191.9891807430924
 30
0.0
 11
375.7312467787045
 21
191.9891807430924
 31
0.0
  0
LINE
  5
A55
330
1F
100
AcDbEntity
  8
1
  6
CONTINUOUS
 62
     1
100
AcDbLine
 10
329.5312470290439
 20
195.9891795360984
 30
0.0
 11
375.7312467787045
 21
195.9891795360984
 31
0.0
  0
LINE
  5
A56
330
1F
100
AcDbEntity
  8
1
  6
CONTINUOUS
 62
     1
100
AcDbLine
 10
329.5312470290439
 20
196.4891805493773
 30
0.0
 11
375.7312467787045
 21
196.4891805493773
 31
0.0
  0
LINE
  5
A57
330
1F
100
AcDbEntity
  8
1
  6
CONTINUOUS
 62
     1
100
AcDbLine
 10
329.5312470290439
 20
184.9891795957028
 30
0.0
 11
375.7312467787045
 21
184.9891795957028
 31
0.0
  0
LINE
  5
A58
330
1F
100
AcDbEntity
  8
1
  6
CONTINUOUS
 62
     1
100
AcDbLine
 10
329.5312470290439
 20
185.489180608982
 30
0.0
 11
375.7312467787045
 21
185.489180608982
 31
0.0
  0
LINE
  5
A59
330
1F
100
AcDbEntity
  8
1
  6
CONTINUOUS
 62
     1
100
AcDbLine
 10
329.5312470290439
 20
184.7391809517086
 30
0.0
 11
375.7312467787045
 21
184.7391809517086
 31
0.0
  0
LINE
  5
A5A
330
1F
100
AcDbEntity
  8
1
  6
CONTINUOUS
 62
     1
100
AcDbLine
 10
329.5312470290439
 20
192.489179893726
 30
0.0
 11
375.7312467787045
 21
192.489179893726
 31
0.0
  0
LINE
  5
A5B
330
1F
100
AcDbEntity
  8
1
  6
CONTINUOUS
 62
     1
100
AcDbLine
 10
329.5312470290439
 20
207.7391800650896
 30
0.0
 11
375.7312467787045
 21
207.7391800650896
 31
0.0
  0
LINE
  5
A5C
330
1F
100
AcDbEntity
  8
1
  6
CONTINUOUS
 62
     1
100
AcDbLine
 10
329.5312470290439
 20
190.4891795659006
 30
0.0
 11
375.7312467787045
 21
190.4891795659006
 31
0.0
  0
LINE
  5
A5D
330
1F
100
AcDbEntity
  8
1
  6
CONTINUOUS
 62
     1
100
AcDbLine
 10
329.5312470290439
 20
195.7391808921039
 30
0.0
 11
375.7312467787045
 21
195.7391808921039
 31
0.0
  0
LINE
  5
A5E
330
1F
100
AcDbEntity
  8
1
  6
CONTINUOUS
 62
     1
100
AcDbLine
 10
329.5312470290439
 20
192.989180907005
 30
0.0
 11
375.7312467787045
 21
192.989180907005
 31
0.0
  0
LINE
  5
A5F
330
1F
100
AcDbEntity
  8
1
  6
CONTINUOUS
 62
     1
100
AcDbLine
 10
329.5312470290439
 20
193.4891800576388
 30
0.0
 11
375.7312467787045
 21
193.4891800576388
 31
0.0
  0
LINE
  5
A60
330
1F
100
AcDbEntity
  8
1
  6
CONTINUOUS
 62
     1
100
AcDbLine
 10
329.5312470290439
 20
199.9891801917494
 30
0.0
 11
375.7312467787045
 21
199.9891801917494
 31
0.0
  0
LINE
  5
A61
330
1F
100
AcDbEntity
  8
1
  6
CONTINUOUS
 62
     1
100
AcDbLine
 10
329.5312470290439
 20
200.4891802737058
 30
0.0
 11
375.7312467787045
 21
200.4891802737058
 31
0.0
  0
LINE
  5
A62
330
1F
100
AcDbEntity
  8
1
  6
CONTINUOUS
 62
     1
100
AcDbLine
 10
329.5312470290439
 20
192.7391804003655
 30
0.0
 11
375.7312467787045
 21
192.7391804003655
 31
0.0
  0
LINE
  5
A63
330
1F
100
AcDbEntity
  8
1
  6
CONTINUOUS
 62
     1
100
AcDbLine
 10
329.5312470290439
 20
178.239178954953
 30
0.0
 11
375.7312467787045
 21
178.239178954953
 31
0.0
  0
LINE
  5
A64
330
1F
100
AcDbEntity
  8
1
  6
CONTINUOUS
 62
     1
100
AcDbLine
 10
329.5312470290439
 20
178.739179968232
 30
0.0
 11
375.7312467787045
 21
178.739179968232
 31
0.0
  0
LINE
  5
A65
330
1F
100
AcDbEntity
  8
1
  6
CONTINUOUS
 62
     1
100
AcDbLine
 10
329.5312470290439
 20
198.739179521197
 30
0.0
 11
375.7312467787045
 21
198.739179521197
 31
0.0
  0
LINE
  5
A66
330
1F
100
AcDbEntity
  8
1
  6
CONTINUOUS
 62
     1
100
AcDbLine
 10
329.5312470290439
 20
198.9891800278366
 30
0.0
 11
375.7312467787045
 21
198.9891800278366
 31
0.0
  0
LINE
  5
A67
330
1F
100
AcDbEntity
  8
1
  6
CONTINUOUS
 62
     1
100
AcDbLine
 10
375.7312467787045
 20
218.4891801973374
 30
0.0
 11
329.5312470290436
 21
218.4891801973374
 31
0.0
  0
LINE
  5
A68
330
1F
100
AcDbEntity
  8
1
  6
CONTINUOUS
 62
     1
100
AcDbLine
 10
375.7312467787045
 20
218.7391800054849
 30
0.0
 11
329.5312470290436
 21
218.7391800054849
 31
0.0
  0
LINE
  5
A69
330
1F
100
AcDbEntity
  8
1
  6
CONTINUOUS
 62
     1
100
AcDbLine
 10
329.5312470290439
 20
199.4891810411156
 30
0.0
 11
375.7312467787045
 21
199.4891810411156
 31
0.0
  0
LINE
  5
A6A
330
1F
100
AcDbEntity
  8
1
  6
CONTINUOUS
 62
     1
100
AcDbLine
 10
329.5312470290439
 20
199.73917968511
 30
0.0
 11
375.7312467787045
 21
199.73917968511
 31
0.0
  0
LINE
  5
A6B
330
1F
100
AcDbEntity
  8
1
  6
CONTINUOUS
 62
     1
100
AcDbLine
 10
329.5312470290439
 20
210.9891801321448
 30
0.0
 11
375.7312467787045
 21
210.9891801321448
 31
0.0
  0
LINE
  5
A6C
330
1F
100
AcDbEntity
  8
1
  6
CONTINUOUS
 62
     1
100
AcDbLine
 10
329.5312470290439
 20
211.4891802141011
 30
0.0
 11
375.7312467787045
 21
211.4891802141011
 31
0.0
  0
LINE
  5
A6D
330
1F
100
AcDbEntity
  8
1
  6
CONTINUOUS
 62
     1
100
AcDbLine
 10
329.5312470290439
 20
202.9891797521651
 30
0.0
 11
375.7312467787045
 21
202.9891797521651
 31
0.0
  0
LINE
  5
A6E
330
1F
100
AcDbEntity
  8
1
  6
CONTINUOUS
 62
     1
100
AcDbLine
 10
329.5312470290439
 20
203.4891798341214
 30
0.0
 11
375.7312467787045
 21
203.4891798341214
 31
0.0
  0
LINE
  5
A6F
330
1F
100
AcDbEntity
  8
1
  6
CONTINUOUS
 62
     1
100
AcDbLine
 10
329.5312470290439
 20
197.9891798639237
 30
0.0
 11
375.7312467787045
 21
197.9891798639237
 31
0.0
  0
LINE
  5
A70
330
1F
100
AcDbEntity
  8
1
  6
CONTINUOUS
 62
     1
100
AcDbLine
 10
329.5312470290439
 20
198.4891808772029
 30
0.0
 11
375.7312467787045
 21
198.4891808772029
 31
0.0
  0
LINE
  5
A71
330
1F
100
AcDbEntity
  8
1
  6
CONTINUOUS
 62
     1
100
AcDbLine
 10
329.5312470290439
 20
179.4891814881504
 30
0.0
 11
375.7312467787045
 21
179.4891814881504
 31
0.0
  0
LINE
  5
A72
330
1F
100
AcDbEntity
  8
1
  6
CONTINUOUS
 62
     1
100
AcDbLine
 10
329.5312470290439
 20
210.7391800911666
 30
0.0
 11
375.7312467787045
 21
210.7391800911666
 31
0.0
  0
LINE
  5
A73
330
1F
100
AcDbEntity
  8
1
  6
CONTINUOUS
 62
     1
100
AcDbLine
 10
375.7312467787045
 20
217.9891801153809
 30
0.0
 11
329.5312470290436
 21
217.9891801153809
 31
0.0
  0
LINE
  5
A74
330
1F
100
AcDbEntity
  8
1
  6
CONTINUOUS
 62
     1
100
AcDbLine
 10
329.5312470290439
 20
197.7391793572843
 30
0.0
 11
375.7312467787045
 21
197.7391793572843
 31
0.0
  0
LINE
  5
A75
330
1F
100
AcDbEntity
  8
1
  6
CONTINUOUS
 62
     1
100
AcDbLine
 10
329.5312470290439
 20
208.7391802290023
 30
0.0
 11
375.7312467787045
 21
208.7391802290023
 31
0.0
  0
LINE
  5
A76
330
1F
100
AcDbEntity
  8
1
  6
CONTINUOUS
 62
     1
100
AcDbLine
 10
329.5312470290439
 20
208.9891802699805
 30
0.0
 11
375.7312467787045
 21
208.9891802699805
 31
0.0
  0
LINE
  5
A77
330
1F
100
AcDbEntity
  8
1
  6
CONTINUOUS
 62
     1
100
AcDbLine
 10
329.5312470290439
 20
209.4891798862756
 30
0.0
 11
375.7312467787045
 21
209.4891798862756
 31
0.0
  0
LINE
  5
A78
330
1F
100
AcDbEntity
  8
1
  6
CONTINUOUS
 62
     1
100
AcDbLine
 10
329.5312470290439
 20
202.7391801768481
 30
0.0
 11
375.7312467787045
 21
202.7391801768481
 31
0.0
  0
LINE
  5
A79
330
1F
100
AcDbEntity
  8
1
  6
CONTINUOUS
 62
     1
100
AcDbLine
 10
329.5312470290436
 20
211.9891800632268
 30
0.0
 11
375.7312467787045
 21
211.9891800632268
 31
0.0
  0
LINE
  5
A7A
330
1F
100
AcDbEntity
  8
1
  6
CONTINUOUS
 62
     1
100
AcDbLine
 10
329.5312470290436
 20
212.4891801451833
 30
0.0
 11
375.7312467787045
 21
212.4891801451833
 31
0.0
  0
LINE
  5
A7B
330
1F
100
AcDbEntity
  8
1
  6
CONTINUOUS
 62
     1
100
AcDbLine
 10
375.7312467787045
 20
213.4891800762654
 30
0.0
 11
329.5312470290436
 21
213.4891800762654
 31
0.0
  0
LINE
  5
A7C
330
1F
100
AcDbEntity
  8
1
  6
CONTINUOUS
 62
     1
100
AcDbLine
 10
375.7312467787045
 20
213.7391801172435
 30
0.0
 11
329.5312470290436
 21
213.7391801172435
 31
0.0
  0
LINE
  5
A7D
330
1F
100
AcDbEntity
  8
1
  6
CONTINUOUS
 62
     1
100
AcDbLine
 10
329.5312470290439
 20
201.7391800129355
 30
0.0
 11
375.7312467787045
 21
201.7391800129355
 31
0.0
  0
LINE
  5
A7E
330
1F
100
AcDbEntity
  8
1
  6
CONTINUOUS
 62
     1
100
AcDbLine
 10
329.5312470290439
 20
201.9891805195749
 30
0.0
 11
375.7312467787045
 21
201.9891805195749
 31
0.0
  0
LINE
  5
A7F
330
1F
100
AcDbEntity
  8
1
  6
CONTINUOUS
 62
     1
100
AcDbLine
 10
329.5312470290439
 20
193.9891792082728
 30
0.0
 11
375.7312467787045
 21
193.9891792082728
 31
0.0
  0
LINE
  5
A80
330
1F
100
AcDbEntity
  8
1
  6
CONTINUOUS
 62
     1
100
AcDbLine
 10
329.5312470290439
 20
194.4891802215518
 30
0.0
 11
375.7312467787045
 21
194.4891802215518
 31
0.0
  0
LINE
  5
A81
330
1F
100
AcDbEntity
  8
1
  6
CONTINUOUS
 62
     1
100
AcDbLine
 10
329.5312470290439
 20
209.989179968232
 30
0.0
 11
375.7312467787045
 21
209.989179968232
 31
0.0
  0
LINE
  5
A82
330
1F
100
AcDbEntity
  8
1
  6
CONTINUOUS
 62
     1
100
AcDbLine
 10
329.5312470290439
 20
210.4891800501884
 30
0.0
 11
375.7312467787045
 21
210.4891800501884
 31
0.0
  0
LINE
  5
A83
330
1F
100
AcDbEntity
  8
1
  6
CONTINUOUS
 62
     1
100
AcDbLine
 10
329.5312470290439
 20
193.7391805642784
 30
0.0
 11
375.7312467787045
 21
193.7391805642784
 31
0.0
  0
LINE
  5
A84
330
1F
100
AcDbEntity
  8
1
  6
CONTINUOUS
 62
     1
100
AcDbLine
 10
329.5312470290439
 20
209.7391799272536
 30
0.0
 11
375.7312467787045
 21
209.7391799272536
 31
0.0
  0
LINE
  5
A85
330
1F
100
AcDbEntity
  8
1
  6
CONTINUOUS
 62
     1
100
AcDbLine
 10
329.5312470290439
 20
211.7391800222486
 30
0.0
 11
375.7312467787045
 21
211.7391800222486
 31
0.0
  0
LINE
  5
A86
330
1F
100
AcDbEntity
  8
1
  6
CONTINUOUS
 62
     1
100
AcDbLine
 10
329.5312470290439
 20
202.4891796702088
 30
0.0
 11
375.7312467787045
 21
202.4891796702088
 31
0.0
  0
LINE
  5
A87
330
1F
100
AcDbEntity
  8
1
  6
CONTINUOUS
 62
     1
100
AcDbLine
 10
375.7312467787045
 20
212.989179994309
 30
0.0
 11
329.5312470290436
 21
212.989179994309
 31
0.0
  0
LINE
  5
A88
330
1F
100
AcDbEntity
  8
1
  6
CONTINUOUS
 62
     1
100
AcDbLine
 10
329.5312470290436
 20
212.7391801861615
 30
0.0
 11
375.7312467787045
 21
212.7391801861615
 31
0.0
  0
LINE
  5
A89
330
1F
100
AcDbEntity
  8
1
  6
CONTINUOUS
100
AcDbLine
 10
329.5312470290446
 20
163.7391793721855
 30
0.0
 11
375.7312467787045
 21
163.7391793721855
 31
0.0
  0
LINE
  5
A8A
330
1F
100
AcDbEntity
  8
1
  6
CONTINUOUS
100
AcDbLine
 10
318.0312470066924
 20
262.4376948171796
 30
0.0
 11
318.0312470066924
 21
163.0406650894821
 31
0.0
  0
LINE
  5
A8B
330
1F
100
AcDbEntity
  8
1
  6
CONTINUOUS
100
AcDbLine
 10
326.0312469210106
 20
163.0406650894821
 30
0.0
 11
326.0312469210106
 21
262.4376948171796
 31
0.0
  0
LINE
  5
A8C
330
1F
100
AcDbEntity
  8
1
  6
CONTINUOUS
100
AcDbLine
 10
329.5312470290431
 20
260.7442819763539
 30
0.0
 11
329.5312470290446
 21
164.7340780583413
 31
0.0
  0
LINE
  5
A8D
330
1F
100
AcDbEntity
  8
1
  6
CONTINUOUS
100
AcDbLine
 10
329.5312470290446
 20
163.7441276081679
 30
0.0
 11
329.5312470290446
 21
164.7340780583413
 31
0.0
  0
LINE
  5
A8E
330
1F
100
AcDbEntity
  8
1
  6
CONTINUOUS
100
AcDbLine
 10
329.5312470290446
 20
163.7441276081679
 30
0.0
 11
329.5312470290446
 21
162.7391799445903
 31
0.0
  0
LINE
  5
A8F
330
1F
100
AcDbEntity
  8
1
  6
CONTINUOUS
100
AcDbLine
 10
326.0312469210106
 20
161.654618679875
 30
0.0
 11
326.0312469210106
 21
162.0538096123875
 31
0.0
  0
LINE
  5
A90
330
1F
100
AcDbEntity
  8
1
  6
CONTINUOUS
100
AcDbLine
 10
318.0312470066924
 20
161.654618679875
 30
0.0
 11
318.5312470886488
 21
161.654618679875
 31
0.0
  0
LINE
  5
A91
330
1F
100
AcDbEntity
  8
1
  6
CONTINUOUS
100
AcDbLine
 10
318.0312470066924
 20
161.654618679875
 30
0.0
 11
318.0312470066924
 21
162.0538096123875
 31
0.0
  0
LINE
  5
A92
330
1F
100
AcDbEntity
  8
1
  6
CONTINUOUS
100
AcDbLine
 10
318.5312470886488
 20
161.654618679875
 30
0.0
 11
326.0312469210106
 21
161.654618679875
 31
0.0
  0
LINE
  5
A93
330
1F
100
AcDbEntity
  8
1
  6
CONTINUOUS
100
AcDbLine
 10
318.0312470066924
 20
162.0538096123875
 30
0.0
 11
318.0312470066924
 21
163.0406650894821
 31
0.0
  0
LINE
  5
A94
330
1F
100
AcDbEntity
  8
1
  6
CONTINUOUS
100
AcDbLine
 10
326.0312469210106
 20
163.0406650894821
 30
0.0
 11
326.0312469210106
 21
162.0538096123875
 31
0.0
  0
LINE
  5
A95
330
1F
100
AcDbEntity
  8
1
  6
CONTINUOUS
100
AcDbLine
 10
326.0312469210106
 20
162.739181070918
 30
0.0
 11
329.5312470290446
 21
162.7391799445903
 31
0.0
  0
LINE
  5
A96
330
1F
100
AcDbEntity
  8
1
  6
CONTINUOUS
100
AcDbLine
 10
329.5312470290431
 20
260.7442819763539
 30
0.0
 11
329.5312470290431
 21
261.734232418198
 31
0.0
  0
LINE
  5
A97
330
1F
100
AcDbEntity
  8
1
  6
CONTINUOUS
100
AcDbLine
 10
329.5312470290431
 20
262.7391799445902
 30
0.0
 11
329.5312470290431
 21
261.734232418198
 31
0.0
  0
LINE
  5
A98
330
1F
100
AcDbEntity
  8
1
  6
CONTINUOUS
100
AcDbLine
 10
326.0312469210106
 20
263.4245502942742
 30
0.0
 11
326.0312469210106
 21
262.4376948171796
 31
0.0
  0
LINE
  5
A99
330
1F
100
AcDbEntity
  8
1
  6
CONTINUOUS
100
AcDbLine
 10
326.0312469210106
 20
263.4245502942742
 30
0.0
 11
326.0312469210106
 21
264.7221173340024
 31
0.0
  0
LINE
  5
A9A
330
1F
100
AcDbEntity
  8
1
  6
CONTINUOUS
100
AcDbLine
 10
318.531247029044
 20
264.7391799445911
 30
0.0
 11
318.0312470066924
 21
264.7391791635693
 31
0.0
  0
LINE
  5
A9B
330
1F
100
AcDbEntity
  8
1
  6
CONTINUOUS
100
AcDbLine
 10
318.0312470066924
 20
262.4376948171796
 30
0.0
 11
318.0312470066924
 21
263.4245502942742
 31
0.0
  0
LINE
  5
A9C
330
1F
100
AcDbEntity
  8
1
  6
CONTINUOUS
100
AcDbLine
 10
318.531247029044
 20
264.7391799445911
 30
0.0
 11
318.531247029044
 21
263.4245495007836
 31
0.0
  0
LINE
  5
A9D
330
1F
100
AcDbEntity
  8
1
  6
CONTINUOUS
100
AcDbLine
 10
318.0312470066924
 20
263.4245502942742
 30
0.0
 11
318.0312470066924
 21
264.6865929657161
 31
0.0
  0
LINE
  5
A9E
330
1F
100
AcDbEntity
  8
1
  6
CONTINUOUS
100
AcDbLine
 10
326.0312469210106
 20
264.7391791635693
 30
0.0
 11
318.531247029044
 21
264.7391799445911
 31
0.0
  0
LINE
  5
A9F
330
1F
100
AcDbEntity
  8
1
  6
CONTINUOUS
100
AcDbLine
 10
329.5312470290431
 20
262.7391799445902
 30
0.0
 11
326.0312469210106
 21
262.7391788357438
 31
0.0
  0
LINE
  5
AA0
330
1F
100
AcDbEntity
  8
1
  6
CONTINUOUS
100
AcDbLine
 10
387.7312487456578
 20
230.4391796880902
 30
0.0
 11
387.7312487456578
 21
165.9442718321025
 31
0.0
  0
LINE
  5
AA1
330
1F
100
AcDbEntity
  8
1
  6
CONTINUOUS
100
AcDbLine
 10
375.7312470290449
 20
164.7340781340538
 30
0.0
 11
375.7312470290449
 21
260.7442820880604
 31
0.0
  0
LINE
  5
AA2
330
1F
100
AcDbEntity
  8
1
  6
CONTINUOUS
100
AcDbLine
 10
385.7312484178324
 20
260.7442821556271
 30
0.0
 11
385.7312484178324
 21
164.7340777510344
 31
0.0
  0
LINE
  5
AA3
330
1F
100
AcDbEntity
  8
1
  6
CONTINUOUS
100
AcDbLine
 10
388.8312470528871
 20
197.2391741295053
 30
0.0
 11
389.3312460276861
 21
197.2391746187151
 31
0.0
  0
LINE
  5
AA4
330
1F
100
AcDbEntity
  8
1
  6
CONTINUOUS
100
AcDbLine
 10
389.3312460276861
 20
197.2391746187151
 30
0.0
 11
388.8312470528871
 21
197.2391741295053
 31
0.0
  0
LINE
  5
AA5
330
1F
100
AcDbEntity
  8
1
  6
CONTINUOUS
100
AcDbLine
 10
389.731245348193
 20
195.0391746306359
 30
0.0
 11
387.7312487456578
 21
195.0391746306359
 31
0.0
  0
LINE
  5
AA6
330
1F
100
AcDbEntity
  8
1
  6
CONTINUOUS
100
AcDbLine
 10
387.7312487456578
 20
171.2391759449183
 30
0.0
 11
391.7312494013089
 21
171.2391759449183
 31
0.0
  0
LINE
  5
AA7
330
1F
100
AcDbEntity
  8
1
  6
CONTINUOUS
100
AcDbLine
 10
388.0312463733929
 20
160.2391722792328
 30
0.0
 11
391.4312480482836
 21
160.2391722792328
 31
0.0
  0
LINE
  5
AA8
330
1F
100
AcDbEntity
  8
1
  6
CONTINUOUS
100
AcDbLine
 10
388.8312470528871
 20
196.939174104471
 30
0.0
 11
388.8312487396973
 21
195.0391746306359
 31
0.0
  0
LINE
  5
AA9
330
1F
100
AcDbEntity
  8
1
  6
CONTINUOUS
100
AcDbLine
 10
388.8312470528871
 20
197.2391741295053
 30
0.0
 11
388.8312470528871
 21
196.939174104471
 31
0.0
  0
LINE
  5
AAA
330
1F
100
AcDbEntity
  8
1
  6
CONTINUOUS
100
AcDbLine
 10
385.7312484178324
 20
164.3018546694459
 30
0.0
 11
387.2324994299191
 21
164.3018546694459
 31
0.0
  0
LINE
  5
AAB
330
1F
100
AcDbEntity
  8
1
  6
CONTINUOUS
100
AcDbLine
 10
387.7312487456578
 20
165.9442718321025
 30
0.0
 11
387.7312487456578
 21
165.5475246900262
 31
0.0
  0
ARC
  5
AAC
330
1F
100
AcDbEntity
  8
1
  6
CONTINUOUS
100
AcDbCircle
 10
387.2313940985268
 20
164.8020148662749
 30
0.0
 40
0.4998547444539664
100
AcDbArc
 50
269.9832228007538
 51
359.9642461598532
  0
LINE
  5
AAD
330
1F
100
AcDbEntity
  8
1
  6
CONTINUOUS
100
AcDbLine
 10
387.7312487456578
 20
165.5475246900262
 30
0.0
 11
387.7312487456578
 21
164.8018594080151
 31
0.0
  0
ARC
  5
AAE
330
1F
100
AcDbEntity
  8
1
  6
CONTINUOUS
100
AcDbCircle
 10
387.2313940985268
 20
164.8020148662749
 30
0.0
 40
0.4998547444539664
100
AcDbArc
 50
269.9832228007538
 51
359.9642461598532
  0
LINE
  5
AAF
330
1F
100
AcDbEntity
  8
1
  6
CONTINUOUS
100
AcDbLine
 10
385.7312484178324
 20
163.7441265577019
 30
0.0
 11
385.7312484178324
 21
164.7340777510344
 31
0.0
  0
ELLIPSE
  5
AB0
330
1F
100
AcDbEntity
  8
1
  6
CONTINUOUS
100
AcDbEllipse
 10
388.0312470409667
 20
160.3634380742064
 30
0.0
 11
0.3000000119209289
 21
0.0
 31
0.0
210
0.0
220
0.0
230
1.0
 40
0.4142136060845039
 41
3.141592653589792
 42
4.712388980384695
  0
LINE
  5
AB1
330
1F
100
AcDbEntity
  8
1
  6
CONTINUOUS
100
AcDbLine
 10
385.2312470290448
 20
162.7391800153029
 30
0.0
 11
385.7937885913628
 21
162.739181070918
 31
0.0
  0
LINE
  5
AB2
330
1F
100
AcDbEntity
  8
1
  6
CONTINUOUS
100
AcDbLine
 10
387.7312487456578
 20
164.7243323916138
 30
0.0
 11
387.7312487456578
 21
160.3634367877186
 31
0.0
  0
LINE
  5
AB3
330
1F
100
AcDbEntity
  8
1
  6
CONTINUOUS
100
AcDbLine
 10
385.2312470290448
 20
162.7391800153029
 30
0.0
 11
385.2312470290448
 21
163.7441277062018
 31
0.0
  0
LINE
  5
AB4
330
1F
100
AcDbEntity
  8
1
  6
CONTINUOUS
100
AcDbLine
 10
385.7312484178324
 20
163.7441265577019
 30
0.0
 11
385.7312484178324
 21
162.7392369502724
 31
0.0
  0
LINE
  5
AB5
330
1F
100
AcDbEntity
  8
1
  6
CONTINUOUS
100
AcDbLine
 10
375.7312470290449
 20
164.7340781340538
 30
0.0
 11
375.7312470290449
 21
163.7441276788806
 31
0.0
  0
LINE
  5
AB6
330
1F
100
AcDbEntity
  8
1
  6
CONTINUOUS
100
AcDbLine
 10
375.7312470290457
 20
162.7391800153029
 30
0.0
 11
375.7312470290449
 21
163.7441276788806
 31
0.0
  0
LINE
  5
AB7
330
1F
100
AcDbEntity
  8
1
  6
CONTINUOUS
100
AcDbLine
 10
375.7312470290457
 20
162.7391800153029
 30
0.0
 11
385.2312470290448
 21
162.7391800153029
 31
0.0
  0
LWPOLYLINE
  5
AB8
330
1F
100
AcDbEntity
  8
1
  6
CONTINUOUS
100
AcDbPolyline
 90
        9
 70
   128
 43
0.0
 10
389.3312460276861
 20
197.2391746187151
 10
389.327788958289
 20
197.2334097319781
 10
389.3175444099682
 20
197.2163385891854
 10
389.3009109887856
 20
197.1886149787844
 10
389.2785257193823
 20
197.1513061964453
 10
389.2512491438168
 20
197.1058446162881
 10
389.2201280686636
 20
197.0539792621075
 10
389.1863620373982
 20
196.9977013015689
 10
389.1512474510448
 20
196.9391732656895
  0
LINE
  5
AB9
330
1F
100
AcDbEntity
  8
1
  6
CONTINUOUS
100
AcDbLine
 10
389.3312460276861
 20
197.2391746187151
 30
0.0
 11
390.6820660922308
 21
194.706388860339
 31
0.0
  0
LINE
  5
ABA
330
1F
100
AcDbEntity
  8
1
  6
CONTINUOUS
100
AcDbLine
 10
390.6820660922308
 20
194.706388860339
 30
0.0
 11
389.3312460276861
 21
197.2391746187151
 31
0.0
  0
LINE
  5
ABB
330
1F
100
AcDbEntity
  8
1
  6
CONTINUOUS
100
AcDbLine
 10
391.7312494013089
 20
194.3391739571034
 30
0.0
 11
389.731245348193
 21
195.0391746306359
 31
0.0
  0
LWPOLYLINE
  5
ABC
330
1F
100
AcDbEntity
  8
1
  6
CONTINUOUS
100
AcDbPolyline
 90
        9
 70
   128
 43
0.0
 10
389.2312480602043
 20
162.7391736203374
 10
389.2254813108225
 20
162.7334105962455
 10
389.2084120306748
 20
162.7163375908078
 10
389.1806884202738
 20
162.6886139804065
 10
389.1433796379347
 20
162.6513051980674
 10
389.0979199204224
 20
162.6058454805552
 10
389.0460527035969
 20
162.5539782637298
 10
388.989774743058
 20
162.4977003031911
 10
388.9312467071789
 20
162.4391722673118
  0
LINE
  5
ABD
330
1F
100
AcDbEntity
  8
1
  6
CONTINUOUS
100
AcDbLine
 10
389.2312480602043
 20
162.7391736203374
 30
0.0
 11
391.4312480482836
 21
162.7391736203374
 31
0.0
  0
LINE
  5
ABE
330
1F
100
AcDbEntity
  8
1
  6
CONTINUOUS
100
AcDbLine
 10
391.4312480482836
 20
162.4391722673118
 30
0.0
 11
391.4312480482836
 21
162.7391736203374
 31
0.0
  0
ELLIPSE
  5
ABF
330
1F
100
AcDbEntity
  8
1
  6
CONTINUOUS
100
AcDbEllipse
 10
391.4312470171243
 20
160.3634380742064
 30
0.0
 11
0.3000000119209289
 21
0.0
 31
0.0
210
0.0
220
0.0
230
1.0
 40
0.4142136060843144
 41
4.712388980384695
 42
6.283185307179584
  0
LINE
  5
AC0
330
1F
100
AcDbEntity
  8
1
  6
CONTINUOUS
100
AcDbLine
 10
391.7312456760186
 20
162.4391722673118
 30
0.0
 11
391.7312456760186
 21
160.3634367877186
 31
0.0
  0
ARC
  5
AC1
330
1F
100
AcDbEntity
  8
1
  6
CONTINUOUS
100
AcDbCircle
 10
391.4312450572641
 20
162.4391730015966
 30
0.0
 40
0.3000006187555646
100
AcDbArc
 50
0.0
 51
89.99942875852116
  0
ARC
  5
AC2
330
1F
100
AcDbEntity
  8
1
  6
CONTINUOUS
100
AcDbCircle
 10
391.4312470171243
 20
162.4391741175843
 30
0.0
 40
0.3000000119209289
100
AcDbArc
 50
0.0
 51
90.0
  0
LINE
  5
AC3
330
1F
100
AcDbEntity
  8
1
  6
CONTINUOUS
100
AcDbLine
 10
389.2312480602043
 20
162.7391736203374
 30
0.0
 11
391.4312480482836
 21
162.7391736203374
 31
0.0
  0
LINE
  5
AC4
330
1F
100
AcDbEntity
  8
1
  6
CONTINUOUS
100
AcDbLine
 10
389.2312480602043
 20
171.2391759449183
 30
0.0
 11
389.2312480602043
 21
162.7391736203374
 31
0.0
  0
LINE
  5
AC5
330
1F
100
AcDbEntity
  8
1
  6
CONTINUOUS
100
AcDbLine
 10
391.7312456760186
 20
171.2391759449183
 30
0.0
 11
391.7312456760186
 21
162.4391722673118
 31
0.0
  0
LINE
  5
AC6
330
1F
100
AcDbEntity
  8
1
  6
CONTINUOUS
100
AcDbLine
 10
391.7312494013089
 20
171.2391759449183
 30
0.0
 11
391.7312494013089
 21
194.3391739571034
 31
0.0
  0
LINE
  5
AC7
330
1F
100
AcDbEntity
  8
1
  6
CONTINUOUS
100
AcDbLine
 10
391.2325000855702
 20
261.1765052372159
 30
0.0
 11
385.7312484178324
 21
261.1765052372159
 31
0.0
  0
LINE
  5
AC8
330
1F
100
AcDbEntity
  8
1
  6
CONTINUOUS
100
AcDbLine
 10
391.2312470290453
 20
230.439179371773
 30
0.0
 11
387.2312477323788
 21
230.4391796880902
 31
0.0
  0
LINE
  5
AC9
330
1F
100
AcDbEntity
  8
1
  6
CONTINUOUS
100
AcDbLine
 10
388.7312470469253
 20
230.4391796880902
 30
0.0
 11
389.731245348193
 21
227.9391783469856
 31
0.0
  0
LINE
  5
ACA
330
1F
100
AcDbEntity
  8
1
  6
CONTINUOUS
100
AcDbLine
 10
385.7312484178324
 20
260.7442821556271
 30
0.0
 11
385.7312484178324
 21
261.7342333489598
 31
0.0
  0
LINE
  5
ACB
330
1F
100
AcDbEntity
  8
1
  6
CONTINUOUS
100
AcDbLine
 10
385.7312484178324
 20
261.7342333489598
 30
0.0
 11
385.7312484178324
 21
262.7353753143489
 31
0.0
  0
LINE
  5
ACC
330
1F
100
AcDbEntity
  8
1
  6
CONTINUOUS
100
AcDbLine
 10
385.2312470290448
 20
261.7342326076729
 30
0.0
 11
385.2312470290448
 21
262.73918010729
 31
0.0
  0
LINE
  5
ACD
330
1F
100
AcDbEntity
  8
1
  6
CONTINUOUS
100
AcDbLine
 10
385.7937885913628
 20
262.7391788357438
 30
0.0
 11
385.2312470290448
 21
262.73918010729
 31
0.0
  0
LINE
  5
ACE
330
1F
100
AcDbEntity
  8
1
  6
CONTINUOUS
100
AcDbLine
 10
375.7312470290449
 20
261.734232607946
 30
0.0
 11
375.7312470290449
 21
260.7442820880604
 31
0.0
  0
LINE
  5
ACF
330
1F
100
AcDbEntity
  8
1
  6
CONTINUOUS
100
AcDbLine
 10
375.7312470290449
 20
261.734232607946
 30
0.0
 11
375.7312470290453
 21
262.7391801072899
 31
0.0
  0
LINE
  5
AD0
330
1F
100
AcDbEntity
  8
1
  6
CONTINUOUS
100
AcDbLine
 10
385.2312470290448
 20
262.73918010729
 30
0.0
 11
375.7312470290453
 21
262.7391801072899
 31
0.0
  0
LINE
  5
AD1
330
1F
100
AcDbEntity
  8
1
  6
CONTINUOUS
100
AcDbLine
 10
387.7312487456578
 20
230.4391796880902
 30
0.0
 11
387.7312487456578
 21
226.9391791143954
 31
0.0
  0
LINE
  5
AD2
330
1F
100
AcDbEntity
  8
1
  6
CONTINUOUS
100
AcDbLine
 10
391.7312456760186
 20
259.9308352166356
 30
0.0
 11
391.7312456760186
 21
259.5340880745591
 31
0.0
  0
ARC
  5
AD3
330
1F
100
AcDbEntity
  8
1
  6
CONTINUOUS
100
AcDbCircle
 10
391.231401056153
 20
260.6763551457262
 30
0.0
 40
0.4998446409999782
100
AcDbArc
 50
0.0166613949753487
 51
90.0174999160124
  0
LINE
  5
AD4
330
1F
100
AcDbEntity
  8
1
  6
CONTINUOUS
100
AcDbLine
 10
391.7312456760186
 20
260.6765004986466
 30
0.0
 11
391.7312456760186
 21
259.9308352166356
 31
0.0
  0
LINE
  5
AD5
330
1F
100
AcDbEntity
  8
1
  6
CONTINUOUS
100
AcDbLine
 10
391.7312456760186
 20
260.6765042239369
 30
0.0
 11
391.7312456760186
 21
258.239180892104
 31
0.0
  0
ARC
  5
AD6
330
1F
100
AcDbEntity
  8
1
  6
CONTINUOUS
100
AcDbCircle
 10
391.231401056153
 20
260.6763551457262
 30
0.0
 40
0.4998446409999782
100
AcDbArc
 50
0.0166613949753487
 51
90.0174999160124
  0
LINE
  5
AD7
330
1F
100
AcDbEntity
  8
1
  6
CONTINUOUS
100
AcDbLine
 10
391.7312470290453
 20
230.4391793814882
 30
0.0
 11
391.2312470290453
 21
230.439179371773
 31
0.0
  0
LINE
  5
AD8
330
1F
100
AcDbEntity
  8
1
  6
CONTINUOUS
100
AcDbLine
 10
391.7312456760186
 20
227.9391792783083
 30
0.0
 11
389.731245348193
 21
227.9391792783083
 31
0.0
  0
LINE
  5
AD9
330
1F
100
AcDbEntity
  8
1
  6
CONTINUOUS
100
AcDbLine
 10
391.7312470290453
 20
230.4391793814882
 30
0.0
 11
391.7312456760186
 21
227.9391792783083
 31
0.0
  0
LINE
  5
ADA
330
1F
100
AcDbEntity
  8
1
  6
CONTINUOUS
100
AcDbLine
 10
391.7312456760186
 20
259.5340880745591
 30
0.0
 11
391.7312470290453
 21
230.4391793814882
 31
0.0
  0
LINE
  5
ADB
330
1F
100
AcDbEntity
  8
1
  6
CONTINUOUS
100
AcDbLine
 10
455.013105837545
 20
204.2391794913949
 30
0.0
 11
455.013105837545
 21
216.2391798285336
 31
0.0
  0
LINE
  5
ADC
330
1F
100
AcDbEntity
  8
1
  6
CONTINUOUS
100
AcDbLine
 10
454.3131051640125
 20
216.2391797121183
 30
0.0
 11
454.3131051640125
 21
204.2391794913949
 31
0.0
  0
LINE
  5
ADD
330
1F
100
AcDbEntity
  8
1
  6
CONTINUOUS
100
AcDbLine
 10
423.4131059664401
 20
204.2391794913949
 30
0.0
 11
423.4131059664401
 21
216.239179944949
 31
0.0
  0
LINE
  5
ADE
330
1F
100
AcDbEntity
  8
1
  6
CONTINUOUS
100
AcDbLine
 10
424.1131061743113
 20
216.239179944949
 30
0.0
 11
424.11310570865
 21
204.2391794913949
 31
0.0
  0
LINE
  5
ADF
330
1F
100
AcDbEntity
  8
1
  6
CONTINUOUS
100
AcDbLine
 10
452.7131061745881
 20
230.4391805606448
 30
0.0
 11
452.7131060193386
 21
195.0391746306359
 31
0.0
  0
LINE
  5
AE0
330
1F
100
AcDbEntity
  8
1
  6
CONTINUOUS
100
AcDbLine
 10
422.2131056766125
 20
163.0406650894821
 30
0.0
 11
422.2131056766125
 21
262.4376948171796
 31
0.0
  0
LINE
  5
AE1
330
1F
100
AcDbEntity
  8
1
  6
CONTINUOUS
100
AcDbLine
 10
456.2131056617113
 20
262.4376948171796
 30
0.0
 11
456.2131056617113
 21
163.0406650894821
 31
0.0
  0
LINE
  5
AE2
330
1F
100
AcDbEntity
  8
1
  6
CONTINUOUS
100
AcDbLine
 10
425.7131057846454
 20
165.9442718321025
 30
0.0
 11
425.7131061745885
 21
230.439179371773
 31
0.0
  0
LINE
  5
AE3
330
1F
100
AcDbEntity
  8
1
  6
CONTINUOUS
100
AcDbLine
 10
452.8131060366026
 20
165.944271733401
 30
0.0
 11
452.8131062635806
 21
259.5340881699974
 31
0.0
  0
LINE
  5
AE4
330
1F
100
AcDbEntity
  8
1
  6
CONTINUOUS
100
AcDbLine
 10
425.6131064905591
 20
259.534088297205
 30
0.0
 11
425.6131062635807
 21
165.9442718606086
 31
0.0
  0
LINE
  5
AE5
330
1F
100
AcDbEntity
  8
1
  6
CONTINUOUS
100
AcDbLine
 10
424.2131064700989
 20
260.7442821556271
 30
0.0
 11
424.2131060044376
 21
164.7340777510344
 31
0.0
  0
LINE
  5
AE6
330
1F
100
AcDbEntity
  8
1
  6
CONTINUOUS
100
AcDbLine
 10
454.2131053338853
 20
164.7340777510344
 30
0.0
 11
454.2131071965305
 21
260.7442821556271
 31
0.0
  0
LINE
  5
AE7
330
1F
100
AcDbEntity
  8
1
  6
CONTINUOUS
100
AcDbLine
 10
439.5131032968966
 20
194.3391758197486
 30
0.0
 11
434.8131045288501
 21
194.3391739571034
 31
0.0
  0
LINE
  5
AE8
330
1F
100
AcDbEntity
  8
1
  6
CONTINUOUS
100
AcDbLine
 10
434.8131045288501
 20
195.0391746306359
 30
0.0
 11
439.5131032968966
 21
195.0391746306359
 31
0.0
  0
LINE
  5
AE9
330
1F
100
AcDbEntity
  8
1
  6
CONTINUOUS
100
AcDbLine
 10
439.5131032968966
 20
172.2391742461861
 30
0.0
 11
436.5631008575765
 21
172.2391742461861
 31
0.0
  0
LINE
  5
AEA
330
1F
100
AcDbEntity
  8
1
  6
CONTINUOUS
100
AcDbLine
 10
439.8886637817231
 20
159.239173977965
 30
0.0
 11
438.2673434036878
 21
160.8604948216616
 31
0.0
  0
LINE
  5
AEB
330
1F
100
AcDbEntity
  8
1
  6
CONTINUOUS
100
AcDbLine
 10
437.0673435795215
 20
162.7391736203374
 30
0.0
 11
439.7173432688323
 21
162.7391736203374
 31
0.0
  0
LINE
  5
AEC
330
1F
100
AcDbEntity
  8
1
  6
CONTINUOUS
100
AcDbLine
 10
438.2673434036878
 20
161.2391743057908
 30
0.0
 11
449.2673428784217
 21
161.2391743057908
 31
0.0
  0
LINE
  5
AED
330
1F
100
AcDbEntity
  8
1
  6
CONTINUOUS
100
AcDbLine
 10
434.8131045288501
 20
194.3391739571034
 30
0.0
 11
434.8131045288501
 21
195.0391746306359
 31
0.0
  0
LINE
  5
AEE
330
1F
100
AcDbEntity
  8
1
  6
CONTINUOUS
100
AcDbLine
 10
423.4131059664401
 20
204.2391794913949
 30
0.0
 11
424.1131061743113
 21
204.2391794913949
 31
0.0
  0
LINE
  5
AEF
330
1F
100
AcDbEntity
  8
1
  6
CONTINUOUS
100
AcDbLine
 10
436.0631012412812
 20
171.2391759449183
 30
0.0
 11
436.5631008575765
 21
171.7391732329071
 31
0.0
  0
LINE
  5
AF0
330
1F
100
AcDbEntity
  8
1
  6
CONTINUOUS
100
AcDbLine
 10
434.8131045288501
 20
171.2391759449183
 30
0.0
 11
436.0631012412812
 21
171.2391759449183
 31
0.0
  0
LINE
  5
AF1
330
1F
100
AcDbEntity
  8
1
  6
CONTINUOUS
100
AcDbLine
 10
436.5631008575765
 20
171.7391732329071
 30
0.0
 11
436.5631008575765
 21
172.2391742461861
 31
0.0
  0
LINE
  5
AF2
330
1F
100
AcDbEntity
  8
1
  6
CONTINUOUS
100
AcDbLine
 10
436.7673431578187
 20
171.2391759449183
 30
0.0
 11
436.5631008575765
 21
171.2391759449183
 31
0.0
  0
LINE
  5
AF3
330
1F
100
AcDbEntity
  8
1
  6
CONTINUOUS
100
AcDbLine
 10
436.5631008575765
 20
171.2391759449183
 30
0.0
 11
436.5631008575765
 21
171.7391732329071
 31
0.0
  0
LINE
  5
AF4
330
1F
100
AcDbEntity
  8
1
  6
CONTINUOUS
100
AcDbLine
 10
436.2131056430844
 20
164.8018556827248
 30
0.0
 11
436.2131056430844
 21
167.2391790145575
 31
0.0
  0
LINE
  5
AF5
330
1F
100
AcDbEntity
  8
1
  6
CONTINUOUS
100
AcDbLine
 10
435.713105561128
 20
164.8018556827248
 30
0.0
 11
436.2131056430844
 21
164.8018556827248
 31
0.0
  0
ARC
  5
AF6
330
1F
100
AcDbEntity
  8
1
  6
CONTINUOUS
100
AcDbCircle
 10
135.8585964660186
 20
175.0519555243875
 30
0.0
 40
300.0296505859371
100
AcDbArc
 50
357.9467037369011
 51
358.0421584396661
  0
ARC
  5
AF7
330
1F
100
AcDbEntity
  8
1
  6
CONTINUOUS
100
AcDbCircle
 10
435.7131045022902
 20
164.8018550426139
 30
0.0
 40
0.5000011407946741
100
AcDbArc
 50
267.9945756943016
 51
0.0
  0
LWPOLYLINE
  5
AF8
330
1F
100
AcDbEntity
  8
1
  6
CONTINUOUS
100
AcDbPolyline
 90
        3
 70
   128
 43
0.0
 10
436.2131056430844
 20
167.2391790145575
 10
436.4414668697027
 20
168.3872315281569
 10
436.7673431578187
 20
168.8749390834511
  0
LINE
  5
AF9
330
1F
100
AcDbEntity
  8
1
  6
CONTINUOUS
100
AcDbLine
 10
427.213106030515
 20
163.4617905312718
 30
0.0
 11
427.2131060202252
 21
163.3617907823297
 31
0.0
  0
LWPOLYLINE
  5
AFA
330
1F
100
AcDbEntity
  8
1
  6
CONTINUOUS
100
AcDbPolyline
 90
        3
 70
   128
 43
0.0
 10
435.6956074069349
 20
164.3021601432503
 10
431.0828890255398
 20
164.5707610243499
 10
426.4985604266731
 20
165.0515916937529
  0
LWPOLYLINE
  5
AFB
330
1F
100
AcDbEntity
  8
1
  6
CONTINUOUS
100
AcDbPolyline
 90
        3
 70
   128
 43
0.0
 10
426.4858334380297
 20
164.9524058395566
 10
432.8756910570992
 20
164.3401953571975
 10
436.7673431578187
 20
164.2182889574708
  0
LINE
  5
AFC
330
1F
100
AcDbEntity
  8
1
  6
CONTINUOUS
100
AcDbLine
 10
437.713105888954
 20
159.2934104794205
 30
0.0
 11
437.713105888954
 21
159.2391814285458
 31
0.0
  0
LINE
  5
AFD
330
1F
100
AcDbEntity
  8
1
  6
CONTINUOUS
100
AcDbLine
 10
437.713105888954
 20
159.2391814285458
 30
0.0
 11
437.7673377337965
 21
159.2391814285458
 31
0.0
  0
LINE
  5
AFE
330
1F
100
AcDbEntity
  8
1
  6
CONTINUOUS
100
AcDbLine
 10
436.2131061087461
 20
162.6841883355321
 30
0.0
 11
436.7673436234802
 21
162.6717160636126
 31
0.0
  0
LINE
  5
AFF
330
1F
100
AcDbEntity
  8
1
  6
CONTINUOUS
100
AcDbLine
 10
436.2131061087461
 20
162.784190028304
 30
0.0
 11
436.2131061087461
 21
162.6841883355321
 31
0.0
  0
LINE
  5
B00
330
1F
100
AcDbEntity
  8
1
  6
CONTINUOUS
100
AcDbLine
 10
438.2673434036878
 20
161.2391743057908
 30
0.0
 11
438.2673434036878
 21
160.8604948216616
 31
0.0
  0
LINE
  5
B01
330
1F
100
AcDbEntity
  8
1
  6
CONTINUOUS
100
AcDbLine
 10
437.0673435795215
 20
162.4391722673118
 30
0.0
 11
437.0673435795215
 21
162.7391736203374
 31
0.0
  0
LWPOLYLINE
  5
B02
330
1F
100
AcDbEntity
  8
1
  6
CONTINUOUS
100
AcDbPolyline
 90
       10
 70
   128
 43
0.0
 10
437.0673435795215
 20
160.3634367877186
 10
437.0152491199879
 20
160.34185990631
 10
436.9647374431697
 20
160.3209386759936
 10
436.9173433686701
 20
160.3013063961209
 10
436.8745071868507
 20
160.2835628384293
 10
436.8375304210093
 20
160.268244444722
 10
436.8075357805101
 20
160.2558206015766
 10
436.7854359614756
 20
160.2466675633134
 10
436.7719010504989
 20
160.2410610014141
 10
436.76734362348
 20
160.2391722792328
  0
LINE
  5
B03
330
1F
100
AcDbEntity
  8
1
  6
CONTINUOUS
100
AcDbLine
 10
436.76734362348
 20
160.2391722792328
 30
0.0
 11
436.76734362348
 21
162.4391722673118
 31
0.0
  0
ARC
  5
B04
330
1F
100
AcDbEntity
  8
1
  6
CONTINUOUS
100
AcDbCircle
 10
437.0673437834661
 20
162.4391734603489
 30
0.0
 40
0.300000159988441
100
AcDbArc
 50
90.00003895049141
 51
180.0
  0
LINE
  5
B05
330
1F
100
AcDbEntity
  8
1
  6
CONTINUOUS
100
AcDbLine
 10
436.76734362348
 20
162.4391722673118
 30
0.0
 11
436.7673431578187
 21
172.2391742461861
 31
0.0
  0
ARC
  5
B06
330
1F
100
AcDbEntity
  8
1
  6
CONTINUOUS
100
AcDbCircle
 10
425.1131052264168
 20
164.648415194576
 30
0.0
 40
1.000000000000031
100
AcDbArc
 50
179.9376885840374
 51
255.9842560447453
  0
ARC
  5
B07
330
1F
100
AcDbEntity
  8
1
  6
CONTINUOUS
100
AcDbCircle
 10
425.2131074366801
 20
164.7340782515894
 30
0.0
 40
1.000001432242594
100
AcDbArc
 50
180.0
 51
261.8702146263232
  0
LWPOLYLINE
  5
B08
330
1F
100
AcDbEntity
  8
1
  6
CONTINUOUS
100
AcDbPolyline
 90
        3
 70
   128
 43
0.0
 10
425.7131062503071
 20
161.654618679875
 10
424.3810756187054
 20
161.8452417844475
 10
423.0514897088617
 20
162.0538096123875
  0
ARC
  5
B09
330
1F
100
AcDbEntity
  8
1
  6
CONTINUOUS
100
AcDbCircle
 10
423.2131072056693
 20
163.0406646386409
 30
0.0
 40
1.000001529056945
100
AcDbArc
 50
180.0
 51
260.6992203501293
  0
ARC
  5
B0A
330
1F
100
AcDbEntity
  8
1
  6
CONTINUOUS
100
AcDbCircle
 10
439.2131060670963
 20
262.6391799445912
 30
0.0
 40
100.0000000000001
100
AcDbArc
 50
261.7533737413296
 51
263.1078973936014
  0
ARC
  5
B0B
330
1F
100
AcDbEntity
  8
1
  6
CONTINUOUS
100
AcDbCircle
 10
426.6131032741407
 20
165.944270011518
 30
0.0
 40
0.8999970238360443
100
AcDbArc
 50
180.0
 51
262.6881210948021
  0
ARC
  5
B0C
330
1F
100
AcDbEntity
  8
1
  6
CONTINUOUS
100
AcDbCircle
 10
426.6131060366028
 20
165.9442718581835
 30
0.0
 40
1.000000000000123
100
AcDbArc
 50
179.9613962235565
 51
262.6879777955276
  0
LWPOLYLINE
  5
B0D
330
1F
100
AcDbEntity
  8
1
  6
CONTINUOUS
100
AcDbPolyline
 90
        3
 70
   128
 43
0.0
 10
436.76734362348
 20
162.8238867217244
 10
432.0880462354144
 20
162.99333527624
 10
425.071691354653
 20
163.7441265577019
  0
LINE
  5
B0E
330
1F
100
AcDbEntity
  8
1
  6
CONTINUOUS
100
AcDbLine
 10
424.1131058177875
 20
164.6484152011542
 30
0.0
 11
424.1131061743113
 21
204.2391794913949
 31
0.0
  0
LINE
  5
B0F
330
1F
100
AcDbEntity
  8
1
  6
CONTINUOUS
100
AcDbLine
 10
434.8131045288501
 20
171.2391759449183
 30
0.0
 11
434.8131045288501
 21
194.3391739571034
 31
0.0
  0
LINE
  5
B10
330
1F
100
AcDbEntity
  8
1
  6
CONTINUOUS
100
AcDbLine
 10
454.3131051640125
 20
204.2391794913949
 30
0.0
 11
455.013105837545
 21
204.2391794913949
 31
0.0
  0
LINE
  5
B11
330
1F
100
AcDbEntity
  8
1
  6
CONTINUOUS
100
AcDbLine
 10
452.7131060193386
 20
195.0391746306359
 30
0.0
 11
452.7131060193386
 21
194.3391758197486
 31
0.0
  0
LINE
  5
B12
330
1F
100
AcDbEntity
  8
1
  6
CONTINUOUS
100
AcDbLine
 10
447.8173425476161
 20
196.9391751283349
 30
0.0
 11
447.8173425476161
 21
192.6641735428511
 31
0.0
  0
ELLIPSE
  5
B13
330
1F
100
AcDbEntity
  8
1
  6
CONTINUOUS
100
AcDbEllipse
 10
447.5173421338499
 20
192.6641744509088
 30
0.0
 11
0.3000000119208152
 21
0.0000000131133788
 31
0.0
210
0.0
220
0.0
230
1.0
 40
0.2500000115046338
 41
0.0
 42
1.570796326795036
  0
ARC
  5
B14
330
1F
100
AcDbEntity
  8
1
  6
CONTINUOUS
100
AcDbCircle
 10
447.517341946984
 20
196.9391744454195
 30
0.0
 40
0.3000000119210429
100
AcDbArc
 50
0.0
 51
90.0000025044557
  0
ARC
  5
B15
330
1F
100
AcDbEntity
  8
1
  6
CONTINUOUS
100
AcDbCircle
 10
448.5673424156884
 20
186.489174503237
 30
0.0
 40
0.7499999999999382
100
AcDbArc
 50
137.6449318437606
 51
180.0
  0
LINE
  5
B16
330
1F
100
AcDbEntity
  8
1
  6
CONTINUOUS
100
AcDbLine
 10
447.8173425476161
 20
192.7391748124303
 30
0.0
 11
448.0131046901552
 21
192.7391748124303
 31
0.0
  0
LINE
  5
B17
330
1F
100
AcDbEntity
  8
1
  6
CONTINUOUS
100
AcDbLine
 10
448.0131046901552
 20
194.3391758197486
 30
0.0
 11
448.0131046901552
 21
195.0391746306359
 31
0.0
  0
LINE
  5
B18
330
1F
100
AcDbEntity
  8
1
  6
CONTINUOUS
100
AcDbLine
 10
447.8173425476161
 20
192.7391748124303
 30
0.0
 11
448.0131046901552
 21
192.7391748124303
 31
0.0
  0
LINE
  5
B19
330
1F
100
AcDbEntity
  8
1
  6
CONTINUOUS
100
AcDbLine
 10
452.7131060193386
 20
194.3391758197486
 30
0.0
 11
448.0131046901552
 21
194.3391758197486
 31
0.0
  0
LINE
  5
B1A
330
1F
100
AcDbEntity
  8
1
  6
CONTINUOUS
100
AcDbLine
 10
448.0131046901552
 20
195.0391746306359
 30
0.0
 11
452.7131060193386
 21
195.0391746306359
 31
0.0
  0
ARC
  5
B1B
330
1F
100
AcDbEntity
  8
1
  6
CONTINUOUS
100
AcDbCircle
 10
445.2173428518094
 20
176.2391743448834
 30
0.0
 40
0.3000000119209861
100
AcDbArc
 50
0.0
 51
90.0000025044817
  0
LINE
  5
B1C
330
1F
100
AcDbEntity
  8
1
  6
CONTINUOUS
100
AcDbLine
 10
443.1173430810776
 20
175.039176940316
 30
0.0
 11
444.4173427353708
 21
175.039176940316
 31
0.0
  0
LINE
  5
B1D
330
1F
100
AcDbEntity
  8
1
  6
CONTINUOUS
100
AcDbLine
 10
439.7173423375098
 20
192.6641735428511
 30
0.0
 11
439.7173423375098
 21
196.9391732656895
 31
0.0
  0
ARC
  5
B1E
330
1F
100
AcDbEntity
  8
1
  6
CONTINUOUS
100
AcDbCircle
 10
440.0173419708274
 20
196.9391741175843
 30
0.0
 40
0.3000000119209861
100
AcDbArc
 50
90.0000025044557
 51
180.0
  0
ELLIPSE
  5
B1F
330
1F
100
AcDbEntity
  8
1
  6
CONTINUOUS
100
AcDbEllipse
 10
440.0173421576933
 20
192.6641741230735
 30
0.0
 11
0.3000000119209289
 21
0.0000000131134357
 31
0.0
210
0.0
220
0.0
230
1.0
 40
0.2500000115043496
 41
1.570796326794989
 42
3.141592653587518
  0
ARC
  5
B20
330
1F
100
AcDbEntity
  8
1
  6
CONTINUOUS
100
AcDbCircle
 10
438.9673424156903
 20
186.4891740836083
 30
0.0
 40
0.750000000000068
100
AcDbArc
 50
0.0
 51
43.30762633752036
  0
LINE
  5
B21
330
1F
100
AcDbEntity
  8
1
  6
CONTINUOUS
100
AcDbLine
 10
439.5131060908643
 20
192.7391748124303
 30
0.0
 11
439.7173423375098
 21
192.7391748124303
 31
0.0
  0
LINE
  5
B22
330
1F
100
AcDbEntity
  8
1
  6
CONTINUOUS
100
AcDbLine
 10
439.5131032968966
 20
195.0391746306359
 30
0.0
 11
439.5131032968966
 21
194.3391758197486
 31
0.0
  0
LINE
  5
B23
330
1F
100
AcDbEntity
  8
1
  6
CONTINUOUS
100
AcDbLine
 10
439.5131032968966
 20
192.7391748124303
 30
0.0
 11
439.7173423375098
 21
192.7391748124303
 31
0.0
  0
ARC
  5
B24
330
1F
100
AcDbEntity
  8
1
  6
CONTINUOUS
100
AcDbCircle
 10
442.3173428756513
 20
176.2391742181204
 30
0.0
 40
0.3000000119209292
100
AcDbArc
 50
90.0000025044557
 51
180.0
  0
LINE
  5
B25
330
1F
100
AcDbEntity
  8
1
  6
CONTINUOUS
100
AcDbLine
 10
447.5173430572358
 20
192.7391748124303
 30
0.0
 11
440.01734182789
 21
192.7391748124303
 31
0.0
  0
LINE
  5
B26
330
1F
100
AcDbEntity
  8
1
  6
CONTINUOUS
100
AcDbLine
 10
446.5173419620005
 20
191.2391736352384
 30
0.0
 11
441.0173419918028
 21
191.2391736352384
 31
0.0
  0
LINE
  5
B27
330
1F
100
AcDbEntity
  8
1
  6
CONTINUOUS
100
AcDbLine
 10
447.5173411945907
 20
197.2391746187151
 30
0.0
 11
440.01734182789
 21
197.2391746187151
 31
0.0
  0
LINE
  5
B28
330
1F
100
AcDbEntity
  8
1
  6
CONTINUOUS
100
AcDbLine
 10
441.0173429231254
 20
181.7391748720347
 30
0.0
 11
446.5173428933231
 21
181.7391748720347
 31
0.0
  0
LINE
  5
B29
330
1F
100
AcDbEntity
  8
1
  6
CONTINUOUS
100
AcDbLine
 10
445.2173428386958
 20
176.5391743568043
 30
0.0
 11
442.3173428625378
 21
176.5391742300414
 31
0.0
  0
ARC
  5
B2A
330
1F
100
AcDbEntity
  8
1
  6
CONTINUOUS
100
AcDbCircle
 10
439.2131060670963
 20
262.6391799445912
 30
0.0
 40
100.0
100
AcDbArc
 50
276.8921025645116
 51
278.246625705862
  0
ARC
  5
B2B
330
1F
100
AcDbEntity
  8
1
  6
CONTINUOUS
100
AcDbCircle
 10
453.3131014459626
 20
164.6484173363139
 30
0.0
 40
1.00000371805317
100
AcDbArc
 50
284.0159044918111
 51
0.0
  0
LINE
  5
B2C
330
1F
100
AcDbEntity
  8
1
  6
CONTINUOUS
100
AcDbLine
 10
451.2131060413808
 20
163.3617907735558
 30
0.0
 11
451.2131067047926
 21
163.4617905312718
 31
0.0
  0
LINE
  5
B2D
330
1F
100
AcDbEntity
  8
1
  6
CONTINUOUS
100
AcDbLine
 10
452.7131060193386
 20
171.2391759449183
 30
0.0
 11
451.4631016234962
 21
171.2391759449183
 31
0.0
  0
LINE
  5
B2E
330
1F
100
AcDbEntity
  8
1
  6
CONTINUOUS
100
AcDbLine
 10
452.7131060193386
 20
171.2391759449183
 30
0.0
 11
452.7131060193386
 21
165.9442718321025
 31
0.0
  0
ARC
  5
B2F
330
1F
100
AcDbEntity
  8
1
  6
CONTINUOUS
100
AcDbCircle
 10
451.8131083891431
 20
165.9442706645466
 30
0.0
 40
0.8999976301964418
100
AcDbArc
 50
277.3118530946715
 51
0.0
  0
ARC
  5
B30
330
1F
100
AcDbEntity
  8
1
  6
CONTINUOUS
100
AcDbCircle
 10
451.8131060366027
 20
165.9442717358263
 30
0.0
 40
1.000000000000001
100
AcDbArc
 50
277.3120216480744
 51
0.0
  0
ARC
  5
B31
330
1F
100
AcDbEntity
  8
1
  6
CONTINUOUS
100
AcDbCircle
 10
453.2131023714232
 20
164.7340794457079
 30
0.0
 40
1.000002962464018
100
AcDbArc
 50
278.1299153165406
 51
0.0
  0
ARC
  5
B32
330
1F
100
AcDbEntity
  8
1
  6
CONTINUOUS
100
AcDbCircle
 10
446.0173432658743
 20
167.0391768288873
 30
0.0
 40
0.5000000000000006
100
AcDbArc
 50
180.0
 51
0.0
  0
LINE
  5
B33
330
1F
100
AcDbEntity
  8
1
  6
CONTINUOUS
100
AcDbLine
 10
444.4173436666933
 20
166.539178341025
 30
0.0
 11
443.1173430810776
 21
166.539178341025
 31
0.0
  0
LINE
  5
B34
330
1F
100
AcDbEntity
  8
1
  6
CONTINUOUS
100
AcDbLine
 10
450.9631006102172
 20
172.2391742461861
 30
0.0
 11
450.9631006102172
 21
171.7391769581975
 31
0.0
  0
LINE
  5
B35
330
1F
100
AcDbEntity
  8
1
  6
CONTINUOUS
100
AcDbLine
 10
448.0131046901552
 20
172.2391742461861
 30
0.0
 11
450.9631006102172
 21
172.2391742461861
 31
0.0
  0
LINE
  5
B36
330
1F
100
AcDbEntity
  8
1
  6
CONTINUOUS
100
AcDbLine
 10
443.2131044621672
 20
170.0391779833974
 30
0.0
 11
444.3131044562067
 21
170.0391779833974
 31
0.0
  0
LINE
  5
B37
330
1F
100
AcDbEntity
  8
1
  6
CONTINUOUS
100
AcDbLine
 10
443.2131044621672
 20
170.0391779833974
 30
0.0
 11
444.3131044562067
 21
170.0391779833974
 31
0.0
  0
LINE
  5
B38
330
1F
100
AcDbEntity
  8
1
  6
CONTINUOUS
100
AcDbLine
 10
444.3131044562067
 20
168.8391762965857
 30
0.0
 11
444.3131044562067
 21
170.0391779833974
 31
0.0
  0
LINE
  5
B39
330
1F
100
AcDbEntity
  8
1
  6
CONTINUOUS
100
AcDbLine
 10
444.3131044562067
 20
168.8391762965857
 30
0.0
 11
443.2131044621672
 21
168.8391762965857
 31
0.0
  0
LINE
  5
B3A
330
1F
100
AcDbEntity
  8
1
  6
CONTINUOUS
100
AcDbLine
 10
443.2131044621672
 20
168.8391762965857
 30
0.0
 11
443.2131044621672
 21
170.0391779833974
 31
0.0
  0
LINE
  5
B3B
330
1F
100
AcDbEntity
  8
1
  6
CONTINUOUS
100
AcDbLine
 10
443.2131044621672
 20
166.8391759687604
 30
0.0
 11
444.3131044562067
 21
166.8391759687604
 31
0.0
  0
LINE
  5
B3C
330
1F
100
AcDbEntity
  8
1
  6
CONTINUOUS
100
AcDbLine
 10
443.2131044621672
 20
166.8391759687604
 30
0.0
 11
443.2131044621672
 21
168.8391762965857
 31
0.0
  0
LINE
  5
B3D
330
1F
100
AcDbEntity
  8
1
  6
CONTINUOUS
100
AcDbLine
 10
444.3131044562067
 20
166.8391759687604
 30
0.0
 11
444.3131044562067
 21
168.8391762965857
 31
0.0
  0
LINE
  5
B3E
330
1F
100
AcDbEntity
  8
1
  6
CONTINUOUS
100
AcDbLine
 10
450.9631006102172
 20
171.2391759449183
 30
0.0
 11
450.7673421929685
 21
171.2391759449183
 31
0.0
  0
LINE
  5
B3F
330
1F
100
AcDbEntity
  8
1
  6
CONTINUOUS
100
AcDbLine
 10
450.9631006102172
 20
171.7391769581975
 30
0.0
 11
450.9631006102172
 21
171.2391759449183
 31
0.0
  0
LINE
  5
B40
330
1F
100
AcDbEntity
  8
1
  6
CONTINUOUS
100
AcDbLine
 10
450.9631006102172
 20
171.7391769581975
 30
0.0
 11
451.4631016234962
 21
171.2391759449183
 31
0.0
  0
LINE
  5
B41
330
1F
100
AcDbEntity
  8
1
  6
CONTINUOUS
100
AcDbLine
 10
451.9276509116497
 20
165.0515916937529
 30
0.0
 11
450.7673440556136
 21
164.9298901849927
 31
0.0
  0
LINE
  5
B42
330
1F
100
AcDbEntity
  8
1
  6
CONTINUOUS
100
AcDbLine
 10
450.7673440556136
 20
164.8396264010609
 30
0.0
 11
451.9403787590595
 21
164.9524039754274
 31
0.0
  0
LINE
  5
B43
330
1F
100
AcDbEntity
  8
1
  6
CONTINUOUS
100
AcDbLine
 10
453.3545209149925
 20
163.7441265577019
 30
0.0
 11
450.7673440556136
 21
163.4684699767769
 31
0.0
  0
LWPOLYLINE
  5
B44
330
1F
100
AcDbEntity
  8
1
  6
CONTINUOUS
100
AcDbPolyline
 90
        3
 70
   128
 43
0.0
 10
455.3747216294619
 20
162.0538096123875
 10
454.0453778634876
 20
161.8452790373505
 10
452.7131060193392
 20
161.654618679875
  0
LINE
  5
B45
330
1F
100
AcDbEntity
  8
1
  6
CONTINUOUS
100
AcDbLine
 10
450.7673440556136
 20
162.439175992602
 30
0.0
 11
450.7673440556136
 21
160.239176004523
 31
0.0
  0
LWPOLYLINE
  5
B46
330
1F
100
AcDbEntity
  8
1
  6
CONTINUOUS
100
AcDbPolyline
 90
       10
 70
   128
 43
0.0
 10
450.7673440556136
 20
160.239176004523
 10
450.7627861629335
 20
160.2410610014141
 10
450.7492521832792
 20
160.2466675633134
 10
450.7271518985835
 20
160.255824326867
 10
450.6971577237455
 20
160.2682481700123
 10
450.6601804922429
 20
160.2835628384293
 10
450.6173433791007
 20
160.3013063961209
 10
450.5699502359238
 20
160.3209386759936
 10
450.5194371621219
 20
160.34185990631
 10
450.4673427025882
 20
160.3634405130089
  0
LINE
  5
B47
330
1F
100
AcDbEntity
  8
1
  6
CONTINUOUS
100
AcDbLine
 10
450.4673427025882
 20
162.7391736203374
 30
0.0
 11
450.4673427025882
 21
162.439175992602
 31
0.0
  0
LWPOLYLINE
  5
B48
330
1F
100
AcDbEntity
  8
1
  6
CONTINUOUS
100
AcDbPolyline
 90
       10
 70
   128
 43
0.0
 10
447.5173430572358
 20
162.439175992602
 10
447.5694375167694
 20
162.4912704521358
 10
447.6199487279264
 20
162.5417816632928
 10
447.6673437337486
 20
162.5891748064698
 10
447.7101789842452
 20
162.6320119196118
 10
447.747156215748
 20
162.6689891511143
 10
447.777150390586
 20
162.6989814633073
 10
447.7992506752817
 20
162.721083610648
 10
447.8127865175811
 20
162.7346175903023
 10
447.8173425476161
 20
162.7391736203374
  0
LINE
  5
B49
330
1F
100
AcDbEntity
  8
1
  6
CONTINUOUS
100
AcDbLine
 10
447.8173425476161
 20
162.7391736203374
 30
0.0
 11
450.4673427025882
 21
162.7391736203374
 31
0.0
  0
LINE
  5
B4A
330
1F
100
AcDbEntity
  8
1
  6
CONTINUOUS
100
AcDbLine
 10
449.2673428784217
 20
160.8604948216616
 30
0.0
 11
447.6460238973705
 21
159.239173977965
 31
0.0
  0
LINE
  5
B4B
330
1F
100
AcDbEntity
  8
1
  6
CONTINUOUS
100
AcDbLine
 10
449.2673428784217
 20
160.8604948216616
 30
0.0
 11
449.2673428784217
 21
161.2391743057908
 31
0.0
  0
ARC
  5
B4C
330
1F
100
AcDbEntity
  8
1
  6
CONTINUOUS
100
AcDbCircle
 10
450.4673434368733
 20
162.4391730015829
 30
0.0
 40
0.3000006187553654
100
AcDbArc
 50
0.0
 51
90.00014023780599
  0
ARC
  5
B4D
330
1F
100
AcDbEntity
  8
1
  6
CONTINUOUS
100
AcDbCircle
 10
455.2131055500212
 20
163.0406634345154
 30
0.0
 40
1.000000111691524
100
AcDbArc
 50
279.3007106585525
 51
0.0
  0
LINE
  5
B4E
330
1F
100
AcDbEntity
  8
1
  6
CONTINUOUS
100
AcDbLine
 10
450.7673421929685
 20
172.2391742461861
 30
0.0
 11
450.7673440556136
 21
162.439175992602
 31
0.0
  0
ARC
  5
B4F
330
1F
100
AcDbEntity
  8
1
  6
CONTINUOUS
100
AcDbCircle
 10
441.5173432658743
 20
167.0391766321863
 30
0.0
 40
0.5000000000001144
100
AcDbArc
 50
180.0
 51
0.0
  0
LWPOLYLINE
  5
B50
330
1F
100
AcDbEntity
  8
1
  6
CONTINUOUS
100
AcDbPolyline
 90
        4
 70
   128
 43
0.0
 10
441.0173429231254
 20
169.5723693066775
 10
441.3344256634919
 20
169.3605008715333
 10
441.9847440029589
 20
168.3872315281569
 10
442.0173430870382
 20
168.2233448320569
  0
LINE
  5
B51
330
1F
100
AcDbEntity
  8
1
  6
CONTINUOUS
100
AcDbLine
 10
440.7131059150311
 20
159.2391814285458
 30
0.0
 11
440.7131059150311
 21
161.2391743057908
 31
0.0
  0
LINE
  5
B52
330
1F
100
AcDbEntity
  8
1
  6
CONTINUOUS
100
AcDbLine
 10
442.2131061609
 20
159.239173977965
 30
0.0
 11
442.2131061609
 21
161.2391743057908
 31
0.0
  0
LWPOLYLINE
  5
B53
330
1F
100
AcDbEntity
  8
1
  6
CONTINUOUS
100
AcDbPolyline
 90
        9
 70
   128
 43
0.0
 10
439.7173432688323
 20
162.7391736203374
 10
439.7231081555691
 20
162.7334105962455
 10
439.7401792983619
 20
162.7163375908078
 10
439.7679029087631
 20
162.6886139804065
 10
439.8052116911022
 20
162.6513051980674
 10
439.8506723399369
 20
162.6058454805552
 10
439.9025386254398
 20
162.5539782637298
 10
439.9588165859786
 20
162.4977003031911
 10
440.0173436905352
 20
162.4391722673118
  0
LINE
  5
B54
330
1F
100
AcDbEntity
  8
1
  6
CONTINUOUS
100
AcDbLine
 10
446.5173438246456
 20
162.7391736203374
 30
0.0
 11
441.017343854448
 21
162.7391736203374
 31
0.0
  0
LINE
  5
B55
330
1F
100
AcDbEntity
  8
1
  6
CONTINUOUS
100
AcDbLine
 10
447.6460238973705
 20
159.239173977965
 30
0.0
 11
439.8886637817231
 21
159.239173977965
 31
0.0
  0
LINE
  5
B56
330
1F
100
AcDbEntity
  8
1
  6
CONTINUOUS
100
AcDbLine
 10
454.3131051640125
 20
164.6484147006214
 30
0.0
 11
454.3131051640125
 21
204.2391794913949
 31
0.0
  0
LINE
  5
B57
330
1F
100
AcDbEntity
  8
1
  6
CONTINUOUS
100
AcDbLine
 10
441.017343854448
 20
162.7391736203374
 30
0.0
 11
441.0173419918028
 21
191.2391736352384
 31
0.0
  0
LINE
  5
B58
330
1F
100
AcDbEntity
  8
1
  6
CONTINUOUS
100
AcDbLine
 10
446.5173419620005
 20
191.2391736352384
 30
0.0
 11
446.5173438246456
 21
162.7391736203374
 31
0.0
  0
LINE
  5
B59
330
1F
100
AcDbEntity
  8
1
  6
CONTINUOUS
100
AcDbLine
 10
447.8173425476161
 20
162.7391736203374
 30
0.0
 11
447.8173425476161
 21
192.6641735428511
 31
0.0
  0
LINE
  5
B5A
330
1F
100
AcDbEntity
  8
1
  6
CONTINUOUS
100
AcDbLine
 10
439.7173432688323
 20
162.7391736203374
 30
0.0
 11
439.7173423375098
 21
192.6641735428511
 31
0.0
  0
LINE
  5
B5B
330
1F
100
AcDbEntity
  8
1
  6
CONTINUOUS
100
AcDbLine
 10
442.0173428637304
 20
176.2391742050071
 30
0.0
 11
442.0173432658748
 21
167.0391766540419
 31
0.0
  0
LINE
  5
B5C
330
1F
100
AcDbEntity
  8
1
  6
CONTINUOUS
100
AcDbLine
 10
445.5173432658743
 20
167.0391768070316
 30
0.0
 11
445.5173428637303
 21
176.2391743579968
 31
0.0
  0
LINE
  5
B5D
330
1F
100
AcDbEntity
  8
1
  6
CONTINUOUS
100
AcDbLine
 10
444.4173427353708
 20
175.039176940316
 30
0.0
 11
444.4173436666933
 21
166.539178341025
 31
0.0
  0
LINE
  5
B5E
330
1F
100
AcDbEntity
  8
1
  6
CONTINUOUS
100
AcDbLine
 10
443.1173430810776
 20
166.539178341025
 30
0.0
 11
443.1173430810776
 21
175.039176940316
 31
0.0
  0
ARC
  5
B5F
330
1F
100
AcDbEntity
  8
1
  6
CONTINUOUS
100
AcDbCircle
 10
448.5673429183694
 20
174.9891745032375
 30
0.0
 40
0.7499999999999361
100
AcDbArc
 50
180.0
 51
222.355011156557
  0
ARC
  5
B60
330
1F
100
AcDbEntity
  8
1
  6
CONTINUOUS
100
AcDbCircle
 10
438.9673429183702
 20
174.9891740836083
 30
0.0
 40
0.7500000000002282
100
AcDbArc
 50
316.6923176760498
 51
0.0
  0
LINE
  5
B61
330
1F
100
AcDbEntity
  8
1
  6
CONTINUOUS
100
AcDbLine
 10
448.0131046901552
 20
194.3391758197486
 30
0.0
 11
448.0131046901552
 21
172.2391742461861
 31
0.0
  0
LINE
  5
B62
330
1F
100
AcDbEntity
  8
1
  6
CONTINUOUS
100
AcDbLine
 10
452.7131060193386
 20
194.3391758197486
 30
0.0
 11
452.7131060193386
 21
171.2391759449183
 31
0.0
  0
LINE
  5
B63
330
1F
100
AcDbEntity
  8
1
  6
CONTINUOUS
100
AcDbLine
 10
439.5131032968966
 20
194.3391758197486
 30
0.0
 11
439.5131032968966
 21
172.2391742461861
 31
0.0
  0
INSERT
  5
B64
330
1F
100
AcDbEntity
  8
1
100
AcDbBlockReference
  2
A$C09634F3C
 10
441.9631051780718
 20
255.4891804579558
 30
0.0
 50
90.0
  0
LINE
  5
B65
330
1F
100
AcDbEntity
  8
1
  6
CONTINUOUS
100
AcDbLine
 10
442.730603931388
 20
261.1761997634114
 30
0.0
 11
435.6956074069349
 21
261.1761997634114
 31
0.0
  0
ARC
  5
B66
330
1F
100
AcDbEntity
  8
1
  6
CONTINUOUS
100
AcDbCircle
 10
439.2131054363308
 20
258.2391789121184
 30
0.0
 40
2.999999793247041
100
AcDbArc
 50
180.0
 51
0.0
  0
ARC
  5
B67
330
1F
100
AcDbEntity
  8
1
  6
CONTINUOUS
100
AcDbCircle
 10
439.2131061348226
 20
161.3389437885379
 30
0.0
 40
100.000236026955
100
AcDbArc
 50
82.68799571294044
 51
97.31200428705955
  0
LINE
  5
B68
330
1F
100
AcDbEntity
  8
1
  6
CONTINUOUS
100
AcDbLine
 10
436.2131042461006
 20
230.4391796880902
 30
0.0
 11
442.2131042982546
 21
230.4391796880902
 31
0.0
  0
ARC
  5
B69
330
1F
100
AcDbEntity
  8
1
  6
CONTINUOUS
100
AcDbCircle
 10
439.2131055864195
 20
162.8391799445911
 30
0.0
 40
100.0000000000001
100
AcDbArc
 50
81.81184863136506
 51
98.1881508065765
  0
ARC
  5
B6A
330
1F
100
AcDbEntity
  8
1
  6
CONTINUOUS
100
AcDbCircle
 10
439.2131056691619
 20
164.7390449311785
 30
0.0
 40
100.0001339959988
100
AcDbArc
 50
80.69929621247323
 51
99.30070378752676
  0
ARC
  5
B6B
330
1F
100
AcDbEntity
  8
1
  6
CONTINUOUS
100
AcDbCircle
 10
439.2131063676532
 20
162.7391630943505
 30
0.0
 40
100.0000177005718
100
AcDbArc
 50
81.87031643518924
 51
98.12968356481071
  0
LINE
  5
B6C
330
1F
100
AcDbEntity
  8
1
  6
CONTINUOUS
100
AcDbLine
 10
435.713105561128
 20
260.6765042239369
 30
0.0
 11
436.2131056430844
 21
260.6765042239369
 31
0.0
  0
LINE
  5
B6D
330
1F
100
AcDbEntity
  8
1
  6
CONTINUOUS
100
AcDbLine
 10
436.2131056430844
 20
260.6765042239369
 30
0.0
 11
436.2131056430844
 21
258.239180892104
 31
0.0
  0
ARC
  5
B6E
330
1F
100
AcDbEntity
  8
1
  6
CONTINUOUS
100
AcDbCircle
 10
27.0173643167368
 20
246.4899045299441
 30
0.0
 40
408.9420419117795
100
AcDbArc
 50
1.988045041358435
 51
2.058100243781292
  0
ARC
  5
B6F
330
1F
100
AcDbEntity
  8
1
  6
CONTINUOUS
100
AcDbCircle
 10
435.7131045022902
 20
260.6765048640475
 30
0.0
 40
0.5000011407946215
100
AcDbArc
 50
0.0
 51
92.00542430571131
  0
LWPOLYLINE
  5
B70
330
1F
100
AcDbEntity
  8
1
  6
CONTINUOUS
100
AcDbPolyline
 90
        3
 70
   128
 43
0.0
 10
435.6956074069349
 20
261.1761997634114
 10
431.0828889273143
 20
260.9075988823117
 10
426.4985604266731
 20
260.4267682129086
  0
LINE
  5
B71
330
1F
100
AcDbEntity
  8
1
  6
CONTINUOUS
100
AcDbLine
 10
436.2131042461006
 20
230.4391796880902
 30
0.0
 11
436.2131042461006
 21
227.9391802096308
 31
0.0
  0
LINE
  5
B72
330
1F
100
AcDbEntity
  8
1
  6
CONTINUOUS
100
AcDbLine
 10
437.2131053413359
 20
230.4391796880902
 30
0.0
 11
437.2131053413359
 21
226.9391791143954
 31
0.0
  0
LINE
  5
B73
330
1F
100
AcDbEntity
  8
1
  6
CONTINUOUS
100
AcDbLine
 10
428.7131044137386
 20
230.4391796880902
 30
0.0
 11
428.7131044137386
 21
227.9391792783083
 31
0.0
  0
LINE
  5
B74
330
1F
100
AcDbEntity
  8
1
  6
CONTINUOUS
100
AcDbLine
 10
427.7131054139791
 20
226.9391791143954
 30
0.0
 11
427.7131054139791
 21
230.4391796880902
 31
0.0
  0
LINE
  5
B75
330
1F
100
AcDbEntity
  8
1
  6
CONTINUOUS
100
AcDbLine
 10
428.7131044137386
 20
227.9391792783083
 30
0.0
 11
436.2131042461006
 21
227.9391792783083
 31
0.0
  0
LINE
  5
B76
330
1F
100
AcDbEntity
  8
1
  6
CONTINUOUS
100
AcDbLine
 10
437.2131053413359
 20
226.9391791143954
 30
0.0
 11
427.7131054139791
 21
226.9391791143954
 31
0.0
  0
ARC
  5
B77
330
1F
100
AcDbEntity
  8
1
  6
CONTINUOUS
100
AcDbCircle
 10
425.1131060670531
 20
260.8299448847316
 30
0.0
 40
0.9999999999999619
100
AcDbArc
 50
98.18815080656335
 51
179.966054504462
  0
ARC
  5
B78
330
1F
100
AcDbEntity
  8
1
  6
CONTINUOUS
100
AcDbCircle
 10
423.2131078651081
 20
262.4376947077935
 30
0.0
 40
1.000002188495888
100
AcDbArc
 50
99.30081174846559
 51
180.0
  0
ARC
  5
B79
330
1F
100
AcDbEntity
  8
1
  6
CONTINUOUS
100
AcDbCircle
 10
425.2131090873104
 20
260.7442806273474
 30
0.0
 40
1.000002617212802
100
AcDbArc
 50
98.12984425777841
 51
180.0
  0
LINE
  5
B7A
330
1F
100
AcDbEntity
  8
1
  6
CONTINUOUS
100
AcDbLine
 10
426.2131062451512
 20
230.4391793814882
 30
0.0
 11
425.7131061745885
 21
230.439179371773
 31
0.0
  0
LINE
  5
B7B
330
1F
100
AcDbEntity
  8
1
  6
CONTINUOUS
100
AcDbLine
 10
425.7131061745885
 20
230.439179371773
 30
0.0
 11
425.7131062503066
 21
259.5340880745591
 31
0.0
  0
LINE
  5
B7C
330
1F
100
AcDbEntity
  8
1
  6
CONTINUOUS
100
AcDbLine
 10
426.2131062451512
 20
230.4391793814882
 30
0.0
 11
428.7131044137386
 21
230.4391796880902
 31
0.0
  0
ARC
  5
B7D
330
1F
100
AcDbEntity
  8
1
  6
CONTINUOUS
100
AcDbCircle
 10
426.6131029228758
 20
259.5340901359496
 30
0.0
 40
0.899996206910119
100
AcDbArc
 50
97.31159404004808
 51
180.0
  0
ARC
  5
B7E
330
1F
100
AcDbEntity
  8
1
  6
CONTINUOUS
100
AcDbCircle
 10
426.6131064905588
 20
259.5340882947798
 30
0.0
 40
0.9999999999999158
100
AcDbArc
 50
97.31202164806127
 51
180.0
  0
LINE
  5
B7F
330
1F
100
AcDbEntity
  8
1
  6
CONTINUOUS
100
AcDbLine
 10
424.1131061743113
 20
216.239179944949
 30
0.0
 11
423.4131059664401
 21
216.239179944949
 31
0.0
  0
LINE
  5
B80
330
1F
100
AcDbEntity
  8
1
  6
CONTINUOUS
100
AcDbLine
 10
424.1131061743113
 20
216.239179944949
 30
0.0
 11
424.1131062425579
 21
260.8299448871799
 31
0.0
  0
ARC
  5
B81
330
1F
100
AcDbEntity
  8
1
  6
CONTINUOUS
100
AcDbCircle
 10
453.3131061485951
 20
260.8299463887354
 30
0.0
 40
0.9999990154180014
100
AcDbArc
 50
0.0
 51
81.81184613390113
  0
ARC
  5
B82
330
1F
100
AcDbEntity
  8
1
  6
CONTINUOUS
100
AcDbCircle
 10
455.2131055500212
 20
262.4376964721459
 30
0.0
 40
1.000000111691524
100
AcDbArc
 50
0.0
 51
80.69928934144734
  0
ARC
  5
B83
330
1F
100
AcDbEntity
  8
1
  6
CONTINUOUS
100
AcDbCircle
 10
451.8131090138336
 20
259.5340900307728
 30
0.0
 40
0.8999970055071045
100
AcDbArc
 50
0.0
 51
82.68806234539903
  0
ARC
  5
B84
330
1F
100
AcDbEntity
  8
1
  6
CONTINUOUS
100
AcDbCircle
 10
451.8131064905591
 20
259.5340881724226
 30
0.0
 40
0.9999999999999824
100
AcDbArc
 50
359.9613962162694
 51
82.68797779552764
  0
ARC
  5
B85
330
1F
100
AcDbEntity
  8
1
  6
CONTINUOUS
100
AcDbCircle
 10
453.2131031650087
 20
260.744279267672
 30
0.0
 40
1.000004031525954
100
AcDbArc
 50
0.0
 51
81.87013936414478
  0
LINE
  5
B86
330
1F
100
AcDbEntity
  8
1
  6
CONTINUOUS
100
AcDbLine
 10
442.2131052295772
 20
260.6765042239369
 30
0.0
 11
442.2131052295772
 21
258.239180892104
 31
0.0
  0
LINE
  5
B87
330
1F
100
AcDbEntity
  8
1
  6
CONTINUOUS
100
AcDbLine
 10
442.7131053115336
 20
260.6765042239369
 30
0.0
 11
442.2131052295772
 21
260.6765042239369
 31
0.0
  0
ARC
  5
B88
330
1F
100
AcDbEntity
  8
1
  6
CONTINUOUS
100
AcDbCircle
 10
853.5019855163318
 20
246.4159665898328
 30
0.0
 40
411.0364855004259
100
AcDbArc
 50
177.9420782399938
 51
178.0117764748647
  0
ARC
  5
B89
330
1F
100
AcDbEntity
  8
1
  6
CONTINUOUS
100
AcDbCircle
 10
442.7131071828728
 20
260.6765040389035
 30
0.0
 40
0.5000019532960695
100
AcDbArc
 50
87.9946187236278
 51
180.0
  0
LWPOLYLINE
  5
B8A
330
1F
100
AcDbEntity
  8
1
  6
CONTINUOUS
100
AcDbPolyline
 90
        3
 70
   128
 43
0.0
 10
451.927652774295
 20
260.4267682129086
 10
447.3433235715238
 20
260.9075988823117
 10
442.730603931388
 20
261.1761997634114
  0
LINE
  5
B8B
330
1F
100
AcDbEntity
  8
1
  6
CONTINUOUS
100
AcDbLine
 10
452.7131061745881
 20
230.4391805606448
 30
0.0
 11
452.213106174588
 21
230.4391805616956
 31
0.0
  0
LINE
  5
B8C
330
1F
100
AcDbEntity
  8
1
  6
CONTINUOUS
100
AcDbLine
 10
449.7131036649553
 20
227.9391802096308
 30
0.0
 11
449.7131036649553
 21
230.4391806194128
 31
0.0
  0
LINE
  5
B8D
330
1F
100
AcDbEntity
  8
1
  6
CONTINUOUS
100
AcDbLine
 10
450.7131056915132
 20
230.4391806194128
 30
0.0
 11
450.7131056915132
 21
226.9391809770404
 31
0.0
  0
LINE
  5
B8E
330
1F
100
AcDbEntity
  8
1
  6
CONTINUOUS
100
AcDbLine
 10
449.7131036649553
 20
230.4391806194128
 30
0.0
 11
452.213106174588
 21
230.4391805616956
 31
0.0
  0
LINE
  5
B8F
330
1F
100
AcDbEntity
  8
1
  6
CONTINUOUS
100
AcDbLine
 10
442.2131042982546
 20
230.4391796880902
 30
0.0
 11
442.2131042982546
 21
227.9391802096308
 31
0.0
  0
LINE
  5
B90
330
1F
100
AcDbEntity
  8
1
  6
CONTINUOUS
100
AcDbLine
 10
441.2131050656642
 20
226.9391809770404
 30
0.0
 11
441.2131050656642
 21
230.4391796880902
 31
0.0
  0
LINE
  5
B91
330
1F
100
AcDbEntity
  8
1
  6
CONTINUOUS
100
AcDbLine
 10
442.2131042982546
 20
227.9391802096308
 30
0.0
 11
449.7131036649553
 21
227.9391802096308
 31
0.0
  0
LINE
  5
B92
330
1F
100
AcDbEntity
  8
1
  6
CONTINUOUS
100
AcDbLine
 10
450.7131056915132
 20
226.9391809770404
 30
0.0
 11
441.2131050656642
 21
226.9391809770404
 31
0.0
  0
LINE
  5
B93
330
1F
100
AcDbEntity
  8
1
  6
CONTINUOUS
100
AcDbLine
 10
452.7131060193386
 20
259.5340880745591
 30
0.0
 11
452.7131061745881
 21
230.4391805606448
 31
0.0
  0
LINE
  5
B94
330
1F
100
AcDbEntity
  8
1
  6
CONTINUOUS
100
AcDbLine
 10
455.013105837545
 20
216.239179944949
 30
0.0
 11
454.3131051640125
 21
216.239179944949
 31
0.0
  0
LINE
  5
B95
330
1F
100
AcDbEntity
  8
1
  6
CONTINUOUS
100
AcDbLine
 10
454.3131051640125
 20
216.2391797121183
 30
0.0
 11
454.3131051640125
 21
260.8299452060403
 31
0.0
  0
LINE
  5
E56
330
1F
100
AcDbEntity
  8
1
  6
CONTINUOUS
100
AcDbLine
 10
221.3049987934795
 20
344.1701800644203
 30
0.0
 11
221.3049987934795
 21
335.670180533807
 31
0.0
  0
LINE
  5
E57
330
1F
100
AcDbEntity
  8
1
  6
CONTINUOUS
100
AcDbLine
 10
221.8049979441133
 20
344.1701800644203
 30
0.0
 11
221.8049979441133
 21
325.6701807573243
 31
0.0
  0
LINE
  5
E58
330
1F
100
AcDbEntity
  8
1
  6
CONTINUOUS
100
AcDbLine
 10
231.806714148101
 20
337.1701798483535
 30
0.0
 11
231.806714148101
 21
344.1701800644203
 31
0.0
  0
LINE
  5
E59
330
1F
100
AcDbEntity
  8
1
  6
CONTINUOUS
100
AcDbLine
 10
238.8032815091578
 20
344.1701800644203
 30
0.0
 11
238.8032815091578
 21
337.1701798483535
 31
0.0
  0
LINE
  5
E5A
330
1F
100
AcDbEntity
  8
1
  6
CONTINUOUS
100
AcDbLine
 10
248.8049977131454
 20
344.1701800644203
 30
0.0
 11
248.8049977131454
 21
335.670180533807
 31
0.0
  0
LINE
  5
E5B
330
1F
100
AcDbEntity
  8
1
  6
CONTINUOUS
100
AcDbLine
 10
249.3049977951018
 20
335.670180533807
 30
0.0
 11
249.3049977951018
 21
344.1701800644203
 31
0.0
  0
LINE
  5
E5C
330
1F
100
AcDbEntity
  8
1
  6
CONTINUOUS
100
AcDbLine
 10
249.3049977951018
 20
344.1701800644207
 30
0.0
 11
249.3049977951018
 21
335.6701805338071
 31
0.0
  0
LINE
  5
E5D
330
1F
100
AcDbEntity
  8
1
  6
CONTINUOUS
100
AcDbLine
 10
248.8049977131454
 20
344.1701800644207
 30
0.0
 11
248.8049977131454
 21
331.1701807275223
 31
0.0
  0
ARC
  5
E5E
330
1F
100
AcDbEntity
  8
1
  6
CONTINUOUS
100
AcDbCircle
 10
235.3050147170495
 20
325.6703238864655
 30
0.0
 40
13.50014254800592
100
AcDbArc
 50
254.3815966420277
 51
269.999930300382
  0
ARC
  5
E5F
330
1F
100
AcDbEntity
  8
1
  6
CONTINUOUS
100
AcDbCircle
 10
235.2815617150336
 20
322.1383555856646
 30
0.0
 40
9.468205965445202
100
AcDbArc
 50
251.676934031655
 51
270.1418239583909
  0
LINE
  5
E60
330
1F
100
AcDbEntity
  8
1
  6
CONTINUOUS
100
AcDbLine
 10
232.3049978025524
 20
315.6701809808418
 30
0.0
 11
238.3049978547064
 21
315.6701809808418
 31
0.0
  0
LINE
  5
E61
330
1F
100
AcDbEntity
  8
1
  6
CONTINUOUS
100
AcDbLine
 10
235.0560241051284
 20
312.1724761172936
 30
0.0
 11
234.8276703290907
 21
312.1859802946254
 31
0.0
  0
LINE
  5
E62
330
1F
100
AcDbEntity
  8
1
  6
CONTINUOUS
100
AcDbLine
 10
231.806714148101
 20
337.1701798483535
 30
0.0
 11
238.8032815091578
 21
337.1701798483535
 31
0.0
  0
ARC
  5
E63
330
1F
100
AcDbEntity
  8
1
  6
CONTINUOUS
100
AcDbCircle
 10
235.3049947994413
 20
325.6701781759808
 30
0.0
 40
13.49999685532828
100
AcDbArc
 50
180.0
 51
254.3815115584497
  0
LWPOLYLINE
  5
E64
330
1F
100
AcDbEntity
  8
1
  6
CONTINUOUS
100
AcDbPolyline
 90
        3
 70
   128
 43
0.0
 10
232.3049978025524
 20
313.3367038413688
 10
232.3021805517642
 20
313.4742527350589
 10
232.2949264802304
 20
313.6651030823394
  0
LINE
  5
E65
330
1F
100
AcDbEntity
  8
1
  6
CONTINUOUS
100
AcDbLine
 10
232.4113511152832
 20
312.4812393531012
 30
0.0
 11
232.605975181636
 21
312.4453834339785
 31
0.0
  0
ARC
  5
E66
330
1F
100
AcDbEntity
  8
1
  6
CONTINUOUS
100
AcDbCircle
 10
239.5179388126384
 20
323.6509702741845
 30
0.0
 40
10.75747917885263
100
AcDbArc
 50
224.0594043744174
 51
227.8920532972615
  0
LINE
  5
E67
330
1F
100
AcDbEntity
  8
1
  6
CONTINUOUS
100
AcDbLine
 10
232.3049978025524
 20
315.6701809808418
 30
0.0
 11
232.3047249250379
 21
315.6701809808418
 31
0.0
  0
LINE
  5
E68
330
1F
100
AcDbEntity
  8
1
  6
CONTINUOUS
100
AcDbLine
 10
232.3049978025524
 20
313.6650956317588
 30
0.0
 11
232.3049978025524
 21
315.6701809808418
 31
0.0
  0
LWPOLYLINE
  5
E69
330
1F
100
AcDbEntity
  8
1
  6
CONTINUOUS
100
AcDbPolyline
 90
        9
 70
   128
 43
0.0
 10
231.7874096937744
 20
313.6651291593715
 10
231.887188800451
 20
313.6651291593715
 10
231.9840863950815
 20
313.6651254340812
 10
232.0736144341795
 20
313.6651254340812
 10
232.1522804580894
 20
313.6651217087909
 10
232.2169906132188
 20
313.6651142582103
 10
232.2652387105195
 20
313.66511053292
 10
232.2949264802304
 20
313.6651030823394
 10
232.3049978025524
 20
313.6650956317588
  0
ARC
  5
E6A
330
1F
100
AcDbEntity
  8
1
  6
CONTINUOUS
100
AcDbCircle
 10
245.3714954865539
 20
311.5644839725362
 30
0.0
 40
13.7455390583038
100
AcDbArc
 50
171.2093958367178
 51
175.3924996583063
  0
ARC
  5
E6B
330
1F
100
AcDbEntity
  8
1
  6
CONTINUOUS
100
AcDbCircle
 10
231.8049999078489
 20
313.1501938015897
 30
0.0
 40
0.4999978947146326
100
AcDbArc
 50
254.381192715749
 51
0.0
  0
LINE
  5
E6C
330
1F
100
AcDbEntity
  8
1
  6
CONTINUOUS
100
AcDbLine
 10
232.3049978025524
 20
313.1501971825763
 30
0.0
 11
232.3049978025524
 21
315.6701809808418
 31
0.0
  0
LINE
  5
E6D
330
1F
100
AcDbEntity
  8
1
  6
CONTINUOUS
100
AcDbLine
 10
231.0684547432033
 20
312.8521590575382
 30
0.0
 11
229.8483532525865
 21
313.3221007033988
 31
0.0
  0
LINE
  5
E6E
330
1F
100
AcDbEntity
  8
1
  6
CONTINUOUS
100
AcDbLine
 10
234.7359536819424
 20
312.1821767732308
 30
0.0
 11
234.7026086084811
 21
312.1836259111568
 31
0.0
  0
LINE
  5
E6F
330
1F
100
AcDbEntity
  8
1
  6
CONTINUOUS
100
AcDbLine
 10
234.7648107119169
 20
312.1809921309158
 30
0.0
 11
234.7359555445878
 21
312.1821767732308
 31
0.0
  0
LINE
  5
E70
330
1F
100
AcDbEntity
  8
1
  6
CONTINUOUS
100
AcDbLine
 10
234.7897068269817
 20
312.1800161048576
 30
0.0
 11
234.764812574562
 21
312.1809921309158
 31
0.0
  0
LINE
  5
E71
330
1F
100
AcDbEntity
  8
1
  6
CONTINUOUS
100
AcDbLine
 10
234.8102667041389
 20
312.1792486950561
 30
0.0
 11
234.7897077583043
 21
312.1800161048576
 31
0.0
  0
LINE
  5
E72
330
1F
100
AcDbEntity
  8
1
  6
CONTINUOUS
100
AcDbLine
 10
234.824147135791
 20
312.1787457808658
 30
0.0
 11
234.8102667041389
 21
312.1792486950561
 31
0.0
  0
LINE
  5
E73
330
1F
100
AcDbEntity
  8
1
  6
CONTINUOUS
100
AcDbLine
 10
234.8276703290907
 20
312.178622846286
 30
0.0
 11
234.824147135791
 21
312.1787457808658
 31
0.0
  0
LINE
  5
E74
330
1F
100
AcDbEntity
  8
1
  6
CONTINUOUS
100
AcDbLine
 10
232.8680782251324
 20
312.3919478699371
 30
0.0
 11
232.865761094567
 21
312.3923725530311
 31
0.0
  0
LINE
  5
E75
330
1F
100
AcDbEntity
  8
1
  6
CONTINUOUS
100
AcDbLine
 10
232.878279932615
 20
312.3900814994976
 30
0.0
 11
232.8680782251324
 21
312.3919478699371
 31
0.0
  0
LINE
  5
E76
330
1F
100
AcDbEntity
  8
1
  6
CONTINUOUS
100
AcDbLine
 10
232.8934968121616
 20
312.3873098835156
 30
0.0
 11
232.878279932615
 21
312.3900814994976
 31
0.0
  0
LINE
  5
E77
330
1F
100
AcDbEntity
  8
1
  6
CONTINUOUS
100
AcDbLine
 10
232.9116557397215
 20
312.3840241774723
 30
0.0
 11
232.8934968121616
 21
312.3873098835156
 31
0.0
  0
LINE
  5
E78
330
1F
100
AcDbEntity
  8
1
  6
CONTINUOUS
100
AcDbLine
 10
232.9326058410373
 20
312.3802690848513
 30
0.0
 11
232.9116566710438
 21
312.3840241774723
 31
0.0
  0
LINE
  5
E79
330
1F
100
AcDbEntity
  8
1
  6
CONTINUOUS
100
AcDbLine
 10
232.9568369917838
 20
312.3759663745568
 30
0.0
 11
232.93260677236
 21
312.3802690848513
 31
0.0
  0
LINE
  5
E7A
330
1F
100
AcDbEntity
  8
1
  6
CONTINUOUS
100
AcDbLine
 10
232.9849461697306
 20
312.3710303649112
 30
0.0
 11
232.9568379231063
 21
312.3759663745568
 31
0.0
  0
LINE
  5
E7B
330
1F
100
AcDbEntity
  8
1
  6
CONTINUOUS
100
AcDbLine
 10
233.4136265002455
 20
312.303326939027
 30
0.0
 11
232.9849461697306
 21
312.3710303649112
 31
0.0
  0
ARC
  5
E7C
330
1F
100
AcDbEntity
  8
1
  6
CONTINUOUS
100
AcDbCircle
 10
233.4908679430677
 20
312.7384400445636
 30
0.0
 40
0.4419128746429323
100
AcDbArc
 50
259.9331387727699
 51
264.0909835462758
  0
LINE
  5
E7D
330
1F
100
AcDbEntity
  8
1
  6
CONTINUOUS
100
AcDbLine
 10
234.719766364273
 20
312.1923617169068
 30
0.0
 11
233.9612674571839
 21
312.2372216626808
 31
0.0
  0
LINE
  5
E7E
330
1F
100
AcDbEntity
  8
1
  6
CONTINUOUS
100
AcDbLine
 10
228.7411913879481
 20
313.8732983812496
 30
0.0
 11
228.6805827774374
 21
313.9072245999976
 31
0.0
  0
LINE
  5
E7F
330
1F
100
AcDbEntity
  8
1
  6
CONTINUOUS
100
AcDbLine
 10
228.7936257802214
 20
313.8442746445343
 30
0.0
 11
228.7411932505932
 21
313.8732946559593
 31
0.0
  0
LINE
  5
E80
330
1F
100
AcDbEntity
  8
1
  6
CONTINUOUS
100
AcDbLine
 10
228.8355017684664
 20
313.8213156804249
 30
0.0
 11
228.793626711544
 21
313.8442746445343
 31
0.0
  0
LINE
  5
E81
330
1F
100
AcDbEntity
  8
1
  6
CONTINUOUS
100
AcDbLine
 10
228.8643038504092
 20
313.8056322082683
 30
0.0
 11
228.8355017684664
 21
313.8213156804249
 31
0.0
  0
LINE
  5
E82
330
1F
100
AcDbEntity
  8
1
  6
CONTINUOUS
100
AcDbLine
 10
228.8796259694068
 20
313.7973285361931
 30
0.0
 11
228.8643047817318
 21
313.8056322082683
 31
0.0
  0
LINE
  5
E83
330
1F
100
AcDbEntity
  8
1
  6
CONTINUOUS
100
AcDbLine
 10
228.8842881702153
 20
313.794806514661
 30
0.0
 11
228.8796259694068
 21
313.7973285361931
 31
0.0
  0
LINE
  5
E84
330
1F
100
AcDbEntity
  8
1
  6
CONTINUOUS
100
AcDbLine
 10
228.8842881702153
 20
313.8518742367431
 30
0.0
 11
227.8070757769314
 21
314.4438191398783
 31
0.0
  0
LINE
  5
E85
330
1F
100
AcDbEntity
  8
1
  6
CONTINUOUS
100
AcDbLine
 10
228.8643038504092
 20
313.8510882004902
 30
0.0
 11
228.8643038504092
 21
313.8056322082683
 31
0.0
  0
ARC
  5
E86
330
1F
100
AcDbEntity
  8
1
  6
CONTINUOUS
100
AcDbCircle
 10
221.8049979053311
 20
331.1701801150561
 30
0.0
 40
0.5000000144771714
100
AcDbArc
 50
180.0
 51
270.0000032411505
  0
LINE
  5
E87
330
1F
100
AcDbEntity
  8
1
  6
CONTINUOUS
100
AcDbLine
 10
221.3049987934795
 20
335.670180533807
 30
0.0
 11
221.3049978908538
 21
331.1701801150561
 31
0.0
  0
ARC
  5
E88
330
1F
100
AcDbEntity
  8
1
  6
CONTINUOUS
100
AcDbCircle
 10
235.363002738349
 20
325.6507060956496
 30
0.0
 40
13.44200908216075
100
AcDbArc
 50
293.0164023279706
 51
0.0830096382882873
  0
ARC
  5
E89
330
1F
100
AcDbEntity
  8
1
  6
CONTINUOUS
100
AcDbCircle
 10
238.0077716849096
 20
495.7222709583333
 30
0.0
 40
183.57352751816
100
AcDbArc
 50
269.0786796839129
 51
269.1003382475544
  0
LINE
  5
E8A
330
1F
100
AcDbEntity
  8
1
  6
CONTINUOUS
100
AcDbLine
 10
238.0040204756228
 20
312.4453834339782
 30
0.0
 11
238.1986445419757
 21
312.4812393531009
 31
0.0
  0
ARC
  5
E8B
330
1F
100
AcDbEntity
  8
1
  6
CONTINUOUS
100
AcDbCircle
 10
231.1986389940924
 20
323.5406313289836
 30
0.0
 40
10.60415566193783
100
AcDbArc
 50
312.0804684565612
 51
315.9685377701482
  0
LINE
  5
E8C
330
1F
100
AcDbEntity
  8
1
  6
CONTINUOUS
100
AcDbLine
 10
238.3049978547064
 20
313.6650434776946
 30
0.0
 11
238.3049978547064
 21
315.6701809808418
 31
0.0
  0
LWPOLYLINE
  5
E8D
330
1F
100
AcDbEntity
  8
1
  6
CONTINUOUS
100
AcDbPolyline
 90
        9
 70
   128
 43
0.0
 10
238.8225920170811
 20
313.6650211259528
 10
238.7228133760659
 20
313.6650211259528
 10
238.6259157814352
 20
313.6650211259528
 10
238.5363882079987
 20
313.6650248512431
 10
238.4577217184272
 20
313.6650248512431
 10
238.393010166314
 20
313.6650285765334
 10
238.3447602063684
 20
313.6650323018237
 10
238.3150710396735
 20
313.665036027114
 10
238.3049978547064
 20
313.6650434776946
  0
ARC
  5
E8E
330
1F
100
AcDbEntity
  8
1
  6
CONTINUOUS
100
AcDbCircle
 10
225.4537953888775
 20
311.589830804701
 30
0.0
 40
13.52890010886639
100
AcDbArc
 50
4.573763028989255
 51
8.823400601912306
  0
ARC
  5
E8F
330
1F
100
AcDbEntity
  8
1
  6
CONTINUOUS
100
AcDbCircle
 10
235.4012409538599
 20
325.4235864079471
 30
0.0
 40
13.23662552293062
100
AcDbArc
 50
285.5046601588308
 51
305.56969005641
  0
ARC
  5
E90
330
1F
100
AcDbEntity
  8
1
  6
CONTINUOUS
100
AcDbCircle
 10
238.8049957963316
 20
313.1501939936065
 30
0.0
 40
0.4999979416353943
100
AcDbArc
 50
180.0
 51
285.6187447910821
  0
LINE
  5
E91
330
1F
100
AcDbEntity
  8
1
  6
CONTINUOUS
100
AcDbLine
 10
238.3049978547064
 20
313.1501971825763
 30
0.0
 11
238.3049978547064
 21
313.6650434776946
 31
0.0
  0
LINE
  5
E92
330
1F
100
AcDbEntity
  8
1
  6
CONTINUOUS
100
AcDbLine
 10
237.9869111486045
 20
312.442231838386
 30
0.0
 11
238.0361343406406
 21
312.453303401153
 31
0.0
  0
LWPOLYLINE
  5
E93
330
1F
100
AcDbEntity
  8
1
  6
CONTINUOUS
100
AcDbPolyline
 90
        3
 70
   128
 43
0.0
 10
238.7615475476053
 20
312.6206471666503
 10
238.8693029664723
 20
312.6492089673686
 10
238.9396131642429
 20
312.6686587080168
  0
LINE
  5
E94
330
1F
100
AcDbEntity
  8
1
  6
CONTINUOUS
100
AcDbLine
 10
240.5699696995584
 20
313.2391682907746
 30
0.0
 11
240.528094642636
 21
313.2215141400501
 31
0.0
  0
LINE
  5
E95
330
1F
100
AcDbEntity
  8
1
  6
CONTINUOUS
100
AcDbLine
 10
240.5987722471623
 20
313.251405869405
 30
0.0
 11
240.5699701652197
 21
313.2391682907746
 31
0.0
  0
LINE
  5
E96
330
1F
100
AcDbEntity
  8
1
  6
CONTINUOUS
100
AcDbLine
 10
240.614094133329
 20
313.2579474791691
 30
0.0
 11
240.5987724799929
 21
313.251405869405
 31
0.0
  0
LINE
  5
E97
330
1F
100
AcDbEntity
  8
1
  6
CONTINUOUS
100
AcDbLine
 10
240.6187561013071
 20
313.2599442347691
 30
0.0
 11
240.614094133329
 21
313.2579474791691
 31
0.0
  0
LINE
  5
E98
330
1F
100
AcDbEntity
  8
1
  6
CONTINUOUS
100
AcDbLine
 10
240.616133962598
 20
313.2588191970989
 30
0.0
 11
240.6187561013071
 21
313.2599442347691
 31
0.0
  0
LINE
  5
E99
330
1F
100
AcDbEntity
  8
1
  6
CONTINUOUS
100
AcDbLine
 10
240.6090405442085
 20
313.2557868107959
 30
0.0
 11
240.616133962598
 21
313.2588191970989
 31
0.0
  0
LINE
  5
E9A
330
1F
100
AcDbEntity
  8
1
  6
CONTINUOUS
100
AcDbLine
 10
240.5975857422022
 20
313.2508992299244
 30
0.0
 11
240.6090405442085
 21
313.2557868107959
 31
0.0
  0
LINE
  5
E9B
330
1F
100
AcDbEntity
  8
1
  6
CONTINUOUS
100
AcDbLine
 10
240.5803066816445
 20
313.2435492321655
 30
0.0
 11
240.5975855093716
 21
313.2508992299244
 31
0.0
  0
LINE
  5
E9C
330
1F
100
AcDbEntity
  8
1
  6
CONTINUOUS
100
AcDbLine
 10
240.47565931904
 20
313.1996429607078
 30
0.0
 11
240.4150497772066
 21
313.1746872409983
 31
0.0
  0
LINE
  5
E9D
330
1F
100
AcDbEntity
  8
1
  6
CONTINUOUS
100
AcDbLine
 10
240.5280937113134
 20
313.2215141400501
 30
0.0
 11
240.4756609488543
 21
313.1996466859981
 31
0.0
  0
ARC
  5
E9E
330
1F
100
AcDbEntity
  8
1
  6
CONTINUOUS
100
AcDbCircle
 10
238.8049961813821
 20
313.1501943708826
 30
0.0
 40
0.4999983266837421
100
AcDbArc
 50
180.0
 51
285.6187420475406
  0
LINE
  5
E9F
330
1F
100
AcDbEntity
  8
1
  6
CONTINUOUS
100
AcDbLine
 10
238.3049978547064
 20
315.6701809808418
 30
0.0
 11
238.3049978547064
 21
313.1501971825763
 31
0.0
  0
LWPOLYLINE
  5
EA0
330
1F
100
AcDbEntity
  8
1
  6
CONTINUOUS
100
AcDbPolyline
 90
        3
 70
   128
 43
0.0
 10
235.5071502410142
 20
312.1806382283376
 10
236.6981693215933
 20
312.2422582551646
 10
236.6981888793674
 20
312.2422619804548
  0
LINE
  5
EA1
330
1F
100
AcDbEntity
  8
1
  6
CONTINUOUS
100
AcDbLine
 10
235.5478620760409
 20
312.1723643585846
 30
0.0
 11
235.4327506058183
 21
312.1713287278816
 31
0.0
  0
ARC
  5
EA2
330
1F
100
AcDbEntity
  8
1
  6
CONTINUOUS
100
AcDbCircle
 10
235.5368555653904
 20
313.709766686245
 30
0.0
 40
1.537441725845995
100
AcDbArc
 50
270.4101826974301
 51
271.8129101113684
  0
LINE
  5
EA3
330
1F
100
AcDbEntity
  8
1
  6
CONTINUOUS
100
AcDbLine
 10
235.8477172114219
 20
312.1810927137539
 30
0.0
 11
235.5854958899584
 21
312.1730945154831
 31
0.0
  0
LINE
  5
EA4
330
1F
100
AcDbEntity
  8
1
  6
CONTINUOUS
100
AcDbLine
 10
235.4320819162099
 20
312.1707773849173
 30
0.0
 11
235.3826314814654
 21
312.1705464169188
 31
0.0
  0
ARC
  5
EA5
330
1F
100
AcDbEntity
  8
1
  6
CONTINUOUS
100
AcDbCircle
 10
235.5632468540759
 20
324.7486124518993
 30
0.0
 40
12.54299884951996
100
AcDbArc
 50
268.8202503789014
 51
281.2209201148144
  0
ARC
  5
EA6
330
1F
100
AcDbEntity
  8
1
  6
CONTINUOUS
100
AcDbCircle
 10
235.3051653316668
 20
325.6689794082758
 30
0.0
 40
13.49879807083989
100
AcDbArc
 50
269.9992910082348
 51
285.6191860020135
  0
LINE
  5
EA7
330
1F
100
AcDbEntity
  8
1
  6
CONTINUOUS
100
AcDbLine
 10
248.8049977131454
 20
325.6701807573243
 30
0.0
 11
248.6853567555813
 21
324.1719975217983
 31
0.0
  0
LINE
  5
EA8
330
1F
100
AcDbEntity
  8
1
  6
CONTINUOUS
100
AcDbLine
 10
248.8049977131454
 20
331.1701807275223
 30
0.0
 11
248.8049977131454
 21
325.6701807573246
 31
0.0
  0
ARC
  5
EA9
330
1F
100
AcDbEntity
  8
1
  6
CONTINUOUS
100
AcDbCircle
 10
248.8049979053311
 20
331.1701800867719
 30
0.0
 40
0.5
100
AcDbArc
 50
270.0
 51
0.0
  0
ARC
  5
EAA
330
1F
100
AcDbEntity
  8
1
  6
CONTINUOUS
100
AcDbCircle
 10
242.2841985383413
 20
322.9289209092125
 30
0.0
 40
6.021034414431326
100
AcDbArc
 50
331.8563117650251
 51
345.9737776886876
  0
LINE
  5
EAB
330
1F
100
AcDbEntity
  8
1
  6
CONTINUOUS
100
AcDbLine
 10
248.8049977131454
 20
335.670180533807
 30
0.0
 11
248.8049979053311
 21
330.6701800867719
 31
0.0
  0
LINE
  5
EAC
330
1F
100
AcDbEntity
  8
1
  6
CONTINUOUS
100
AcDbLine
 10
249.304997905331
 20
331.1701800867719
 30
0.0
 11
249.3049977951018
 21
335.670180533807
 31
0.0
  0
LINE
  5
EAD
330
1F
100
AcDbEntity
  8
1
  6
CONTINUOUS
100
AcDbLine
 10
249.3049977951018
 20
335.6701805338071
 30
0.0
 11
249.304997905331
 21
331.1701800867719
 31
0.0
  0
LINE
  5
EAE
330
1F
100
AcDbEntity
  8
1
  6
CONTINUOUS
100
AcDbLine
 10
221.8049979441133
 20
401.8701798364327
 30
0.0
 11
221.8049979441133
 21
355.6701800867711
 31
0.0
  0
LINE
  5
EAF
330
1F
100
AcDbEntity
  8
1
  6
CONTINUOUS
100
AcDbLine
 10
248.8049981788067
 20
355.6701800867711
 30
0.0
 11
248.8049981788067
 21
401.8701798364327
 31
0.0
  0
LINE
  5
EB0
330
1F
100
AcDbEntity
  8
1
  6
CONTINUOUS
100
AcDbLine
 10
249.304998260763
 20
401.8701798364327
 30
0.0
 11
249.304998260763
 21
355.6701800867711
 31
0.0
  0
LINE
  5
EB1
330
1F
100
AcDbEntity
  8
1
  6
CONTINUOUS
100
AcDbLine
 10
219.1433817335783
 20
344.6701800867717
 30
0.0
 11
251.4666140568106
 21
344.6701800867717
 31
0.0
  0
LINE
  5
EB2
330
1F
100
AcDbEntity
  8
1
  6
CONTINUOUS
100
AcDbLine
 10
251.4666142545907
 20
352.1701799787387
 30
0.0
 11
219.1433823339905
 21
352.1701799787387
 31
0.0
  0
LINE
  5
EB3
330
1F
100
AcDbEntity
  8
1
  6
CONTINUOUS
100
AcDbLine
 10
251.4666142545907
 20
344.1701800644203
 30
0.0
 11
219.1433823339905
 21
344.1701800644203
 31
0.0
  0
LINE
  5
EB4
330
1F
100
AcDbEntity
  8
1
  6
CONTINUOUS
100
AcDbLine
 10
221.1635835480183
 20
355.6701800867711
 30
0.0
 11
249.4464122133634
 21
355.6701800867711
 31
0.0
  0
LINE
  5
EB5
330
1F
100
AcDbEntity
  8
1
  6
CONTINUOUS
100
AcDbLine
 10
219.1433823339905
 20
352.1701799787387
 30
0.0
 11
218.3049983017413
 21
352.1701799787387
 31
0.0
  0
LINE
  5
EB6
330
1F
100
AcDbEntity
  8
1
  6
CONTINUOUS
100
AcDbLine
 10
219.1433823339905
 20
344.1701800644203
 30
0.0
 11
218.3049983017413
 21
344.1701800644203
 31
0.0
  0
LINE
  5
EB7
330
1F
100
AcDbEntity
  8
1
  6
CONTINUOUS
100
AcDbLine
 10
218.3049983017413
 20
344.1701800644203
 30
0.0
 11
218.3049983017413
 21
352.1701799787387
 31
0.0
  0
LINE
  5
EB8
330
1F
100
AcDbEntity
  8
1
  6
CONTINUOUS
100
AcDbLine
 10
220.3049974878175
 20
355.6701800867711
 30
0.0
 11
220.3049986295666
 21
352.1701799787387
 31
0.0
  0
LINE
  5
EB9
330
1F
100
AcDbEntity
  8
1
  6
CONTINUOUS
100
AcDbLine
 10
221.1635835480183
 20
355.6701800867711
 30
0.0
 11
220.3049974878175
 21
355.6701800867711
 31
0.0
  0
LINE
  5
EBA
330
1F
100
AcDbEntity
  8
1
  6
CONTINUOUS
100
AcDbLine
 10
251.4666142545907
 20
352.1701799787387
 30
0.0
 11
252.3049982868399
 21
352.1701799787387
 31
0.0
  0
LINE
  5
EBB
330
1F
100
AcDbEntity
  8
1
  6
CONTINUOUS
100
AcDbLine
 10
252.3049982868399
 20
344.1701800644203
 30
0.0
 11
251.4666142545907
 21
344.1701800644203
 31
0.0
  0
LINE
  5
EBC
330
1F
100
AcDbEntity
  8
1
  6
CONTINUOUS
100
AcDbLine
 10
250.3049974878176
 20
355.6701800867711
 30
0.0
 11
249.4464122133634
 21
355.6701800867711
 31
0.0
  0
LINE
  5
EBD
330
1F
100
AcDbEntity
  8
1
  6
CONTINUOUS
100
AcDbLine
 10
250.3049974878176
 20
355.6701800867711
 30
0.0
 11
250.3049984246759
 21
352.1701799787388
 31
0.0
  0
LINE
  5
EBE
330
1F
100
AcDbEntity
  8
1
  6
CONTINUOUS
100
AcDbLine
 10
252.3049982868399
 20
352.1701799787387
 30
0.0
 11
252.3049982868399
 21
344.1701800644203
 31
0.0
  0
LINE
  5
EBF
330
1F
100
AcDbEntity
  8
1
  6
CONTINUOUS
100
AcDbLine
 10
252.3049982868399
 20
344.1701800644207
 30
0.0
 11
252.3049982868399
 21
352.1701799787388
 31
0.0
  0
LINE
  5
EC0
330
1F
100
AcDbEntity
  8
1
  6
CONTINUOUS
100
AcDbLine
 10
231.8049986519186
 20
417.8701787337468
 30
0.0
 11
238.8049984023241
 21
417.8701787337468
 31
0.0
  0
LINE
  5
EC1
330
1F
100
AcDbEntity
  8
1
  6
CONTINUOUS
100
AcDbLine
 10
249.4464121431378
 20
411.8701814755604
 30
0.0
 11
221.1635830484597
 21
411.8701814755604
 31
0.0
  0
LINE
  5
EC2
330
1F
100
AcDbEntity
  8
1
  6
CONTINUOUS
100
AcDbLine
 10
249.44641240281
 20
411.3701800867726
 30
0.0
 11
221.163584112331
 21
411.3701800867726
 31
0.0
  0
LINE
  5
EC3
330
1F
100
AcDbEntity
  8
1
  6
CONTINUOUS
100
AcDbLine
 10
249.4464124008968
 20
401.8701800867725
 30
0.0
 11
221.1635841142433
 21
401.8701800867725
 31
0.0
  0
LINE
  5
EC4
330
1F
100
AcDbEntity
  8
1
  6
CONTINUOUS
100
AcDbLine
 10
222.6540884606805
 20
417.8701787337468
 30
0.0
 11
231.8051513888208
 21
417.8701787337468
 31
0.0
  0
ARC
  5
EC5
330
1F
100
AcDbEntity
  8
1
  6
CONTINUOUS
100
AcDbCircle
 10
222.3049925401785
 20
417.3701841376947
 30
0.0
 40
0.4999945960728918
100
AcDbArc
 50
89.99947807928267
 51
180.0
  0
LINE
  5
EC6
330
1F
100
AcDbEntity
  8
1
  6
CONTINUOUS
100
AcDbLine
 10
222.304997094747
 20
417.8701787337468
 30
0.0
 11
222.6540884606805
 21
417.8701787337468
 31
0.0
  0
LINE
  5
EC7
330
1F
100
AcDbEntity
  8
1
  6
CONTINUOUS
100
AcDbLine
 10
221.8049979441133
 20
417.870178733747
 30
0.0
 11
222.2274700783458
 21
417.870178733747
 31
0.0
  0
LINE
  5
EC8
330
1F
100
AcDbEntity
  8
1
  6
CONTINUOUS
100
AcDbLine
 10
221.8049979441133
 20
415.8701784059214
 30
0.0
 11
221.8049979441133
 21
417.870178733747
 31
0.0
  0
LINE
  5
EC9
330
1F
100
AcDbEntity
  8
1
  6
CONTINUOUS
100
AcDbLine
 10
220.3049967669217
 20
411.3701804622815
 30
0.0
 11
220.3049967669217
 21
411.8701814755604
 31
0.0
  0
LINE
  5
ECA
330
1F
100
AcDbEntity
  8
1
  6
CONTINUOUS
100
AcDbLine
 10
221.1635830484597
 20
411.8701814755604
 30
0.0
 11
220.3049967669217
 21
411.8701814755604
 31
0.0
  0
LINE
  5
ECB
330
1F
100
AcDbEntity
  8
1
  6
CONTINUOUS
100
AcDbLine
 10
221.8049979441133
 20
411.8701814755604
 30
0.0
 11
221.8049979441133
 21
417.3701814457581
 31
0.0
  0
LINE
  5
ECC
330
1F
100
AcDbEntity
  8
1
  6
CONTINUOUS
100
AcDbLine
 10
221.8049979441133
 20
413.3701807901072
 30
0.0
 11
221.8049979441133
 21
415.8701784059214
 31
0.0
  0
LINE
  5
ECD
330
1F
100
AcDbEntity
  8
1
  6
CONTINUOUS
100
AcDbLine
 10
220.3049976658598
 20
401.8701800867725
 30
0.0
 11
221.1635841142433
 21
401.8701800867725
 31
0.0
  0
LINE
  5
ECE
330
1F
100
AcDbEntity
  8
1
  6
CONTINUOUS
100
AcDbLine
 10
220.3049986295666
 20
411.3701804622815
 30
0.0
 11
220.3049976658598
 21
401.8701800867725
 31
0.0
  0
ARC
  5
ECF
330
1F
100
AcDbEntity
  8
1
  6
CONTINUOUS
100
AcDbCircle
 10
235.3723291083274
 20
417.4939367815275
 30
0.0
 40
3.586964578742911
100
AcDbArc
 50
173.9790868460211
 51
181.9771775702164
  0
ARC
  5
ED0
330
1F
100
AcDbEntity
  8
1
  6
CONTINUOUS
100
AcDbCircle
 10
231.8050032022433
 20
417.3701832021327
 30
0.0
 40
0.4999955316346961
100
AcDbArc
 50
0.0
 51
90.00052143347387
  0
LINE
  5
ED1
330
1F
100
AcDbEntity
  8
1
  6
CONTINUOUS
100
AcDbLine
 10
232.304998733875
 20
411.8701814755604
 30
0.0
 11
232.304998733875
 21
417.3701814457581
 31
0.0
  0
LINE
  5
ED2
330
1F
100
AcDbEntity
  8
1
  6
CONTINUOUS
100
AcDbLine
 10
235.0050006665556
 20
417.870178733747
 30
0.0
 11
239.7049994346021
 21
417.8701824590373
 31
0.0
  0
LINE
  5
ED3
330
1F
100
AcDbEntity
  8
1
  6
CONTINUOUS
100
AcDbLine
 10
238.8048451997605
 20
417.8701787337468
 30
0.0
 11
247.955907196578
 21
417.8701787337468
 31
0.0
  0
ARC
  5
ED4
330
1F
100
AcDbEntity
  8
1
  6
CONTINUOUS
100
AcDbCircle
 10
238.8049936582479
 20
417.3701833958855
 30
0.0
 40
0.4999953378839395
100
AcDbArc
 50
89.99945636383865
 51
180.0
  0
ARC
  5
ED5
330
1F
100
AcDbEntity
  8
1
  6
CONTINUOUS
100
AcDbCircle
 10
235.2376199324524
 20
417.493935102952
 30
0.0
 40
3.587012040324473
100
AcDbArc
 50
358.0228754292843
 51
6.020860154482116
  0
LINE
  5
ED6
330
1F
100
AcDbEntity
  8
1
  6
CONTINUOUS
100
AcDbLine
 10
238.3049983203676
 20
417.3701814457581
 30
0.0
 11
238.3049983203676
 21
411.8701814755604
 31
0.0
  0
ARC
  5
ED7
330
1F
100
AcDbEntity
  8
1
  6
CONTINUOUS
100
AcDbCircle
 10
248.3050023752653
 20
417.3701833958855
 30
0.0
 40
0.4999953378839395
100
AcDbArc
 50
0.0
 51
90.00054363616134
  0
LINE
  5
ED8
330
1F
100
AcDbEntity
  8
1
  6
CONTINUOUS
100
AcDbLine
 10
247.9559048682717
 20
417.8701787337468
 30
0.0
 11
248.3049976311888
 21
417.8701787337468
 31
0.0
  0
LINE
  5
ED9
330
1F
100
AcDbEntity
  8
1
  6
CONTINUOUS
100
AcDbLine
 10
248.8049981788067
 20
413.3701807901073
 30
0.0
 11
248.8049977131454
 21
413.3701807901069
 31
0.0
  0
LINE
  5
EDA
330
1F
100
AcDbEntity
  8
1
  6
CONTINUOUS
100
AcDbLine
 10
248.8049981788067
 20
411.8701814755608
 30
0.0
 11
248.8049981788067
 21
413.3701807901073
 31
0.0
  0
LINE
  5
EDB
330
1F
100
AcDbEntity
  8
1
  6
CONTINUOUS
100
AcDbLine
 10
250.3049974933533
 20
411.8701814755604
 30
0.0
 11
249.4464121431378
 21
411.8701814755604
 31
0.0
  0
LINE
  5
EDC
330
1F
100
AcDbEntity
  8
1
  6
CONTINUOUS
100
AcDbLine
 10
250.3049979590146
 20
411.3701804622817
 30
0.0
 11
250.3049979590146
 21
411.8701814755608
 31
0.0
  0
LINE
  5
EDD
330
1F
100
AcDbEntity
  8
1
  6
CONTINUOUS
100
AcDbLine
 10
250.3049974933533
 20
411.8701814755604
 30
0.0
 11
250.3049979590146
 21
411.8701814755608
 31
0.0
  0
LINE
  5
EDE
330
1F
100
AcDbEntity
  8
1
  6
CONTINUOUS
100
AcDbLine
 10
248.8049977131454
 20
417.3701814457581
 30
0.0
 11
248.8049977131454
 21
411.8701814755604
 31
0.0
  0
LINE
  5
EDF
330
1F
100
AcDbEntity
  8
1
  6
CONTINUOUS
100
AcDbLine
 10
248.8049977131454
 20
417.3701814457581
 30
0.0
 11
248.8049977131454
 21
413.3701807901069
 31
0.0
  0
LINE
  5
EE0
330
1F
100
AcDbEntity
  8
1
  6
CONTINUOUS
100
AcDbLine
 10
249.4464124008968
 20
401.8701800867725
 30
0.0
 11
250.3049976658599
 21
401.8701800867725
 31
0.0
  0
LINE
  5
EE1
330
1F
100
AcDbEntity
  8
1
  6
CONTINUOUS
100
AcDbLine
 10
250.3049976658599
 20
401.8701800867725
 30
0.0
 11
250.3049984246759
 21
411.3701804622815
 31
0.0
  0
LINE
  5
EE2
330
1F
100
AcDbEntity
  8
1
  6
CONTINUOUS
100
AcDbLine
 10
250.3049988903371
 20
411.3701804622817
 30
0.0
 11
250.3049976658599
 21
401.8701800867725
 31
0.0
  0
TEXT
  5
F30
330
1F
100
AcDbEntity
  8
0
100
AcDbText
 10
61.79800145882552
 20
438.6273337367049
 30
0.0
 40
10.0
  1
PSEP-CW-**-I-NP/PN-*-0
100
AcDbText
  0
ENDSEC
  0
SECTION
  2
OBJECTS
  0
DICTIONARY
  5
C
330
0
100
AcDbDictionary
  3
ACAD_GROUP
350
D
  3
ACAD_LAYOUT
350
1A
  3
ACAD_MLINESTYLE
350
17
  3
ACAD_PLOTSETTINGS
350
19
  3
ACAD_PLOTSTYLENAME
350
E
  3
ACDBHEADERROUNDTRIPXREC
350
F5F
  3
ACDBVARIABLEDICTIONARY
350
EFB
  0
DICTIONARY
  5
D4
330
2
100
AcDbDictionary
280
     1
  3
ACAD_LAYERSTATES
360
D5
  0
DICTIONARY
  5
F21
330
1F
100
AcDbDictionary
280
     1
  3
ACAD_LAYOUTSELFREF
360
F80
  0
DICTIONARY
  5
F1F
330
1B
100
AcDbDictionary
280
     1
  3
ACAD_LAYOUTSELFREF
360
F7F
  0
DICTIONARY
  5
D
102
{ACAD_REACTORS
330
C
102
}
330
C
100
AcDbDictionary
  0
DICTIONARY
  5
1A
102
{ACAD_REACTORS
330
C
102
}
330
C
100
AcDbDictionary
  0
DICTIONARY
  5
17
102
{ACAD_REACTORS
330
C
102
}
330
C
100
AcDbDictionary
  3
STANDARD
350
18
  0
DICTIONARY
  5
19
102
{ACAD_REACTORS
330
C
102
}
330
C
100
AcDbDictionary
  0
ACDBDICTIONARYWDFLT
  5
E
102
{ACAD_REACTORS
330
C
102
}
330
C
100
AcDbDictionary
281
     1
  3
Normal
350
F
100
AcDbDictionaryWithDefault
340
F
  0
DICTIONARY
  5
F5F
102
{ACAD_REACTORS
330
C
102
}
330
C
100
AcDbDictionary
  3
CEPSNTYPE
350
F69
  3
FINGERPRINTGUID
350
F6A
  3
HYPERLINKBASE
350
F62
  3
INSUNITS
350
F68
  3
LAYOUTDICT
350
F64
  3
LWETCUNION
350
F67
  3
PLOTSETDICT
350
F65
  3
PLOTSTYLNAMDICT
350
F66
  3
PSVPSCALE
350
F6C
  3
PUCSBASE
350
F6F
  3
PUCSORGBACK
350
F75
  3
PUCSORGBOTTOM
350
F71
  3
PUCSORGFRONT
350
F74
  3
PUCSORGLEFT
350
F72
  3
PUCSORGRIGHT
350
F73
  3
PUCSORGTOP
350
F70
  3
PUCSORTHOREF
350
F6D
  3
PUCSORTHOVIEW
350
F6E
  3
STYLESHEET
350
F63
  3
TSTACKALIGN
350
F60
  3
TSTACKSIZE
350
F61
  3
UCSBASE
350
F78
  3
UCSORGBACK
350
F7E
  3
UCSORGBOTTOM
350
F7A
  3
UCSORGFRONT
350
F7D
  3
UCSORGLEFT
350
F7B
  3
UCSORGRIGHT
350
F7C
  3
UCSORGTOP
350
F79
  3
UCSORTHOREF
350
F76
  3
UCSORTHOVIEW
350
F77
  3
VERSIONGUID
350
F6B
  0
DICTIONARY
  5
EFB
102
{ACAD_REACTORS
330
C
102
}
330
C
100
AcDbDictionary
  3
DIMASSOC
350
EFD
  3
HIDETEXT
350
EFC
  0
DICTIONARY
  5
D5
102
{ACAD_REACTORS
330
D4
102
}
330
D4
100
AcDbDictionary
  0
XRECORD
  5
F80
102
{ACAD_REACTORS
330
F21
102
}
330
F21
100
AcDbXrecord
340
1F
  0
XRECORD
  5
F7F
102
{ACAD_REACTORS
330
F1F
102
}
330
F1F
100
AcDbXrecord
340
1B
  0
MLINESTYLE
  5
18
102
{ACAD_REACTORS
330
17
102
}
330
17
100
AcDbMlineStyle
  2
STANDARD
 70
     0
  3

 62
   256
 51
90.0
 52
90.0
 71
     2
 49
0.5
 62
   256
  6
BYLAYER
 49
-0.5
 62
   256
  6
BYLAYER
  0
ACDBPLACEHOLDER
  5
F
102
{ACAD_REACTORS
330
E
102
}
330
E
100
AcDbPlaceHolder
280
     0
  0
XRECORD
  5
F69
102
{ACAD_REACTORS
330
F5F
102
}
330
F5F
100
AcDbXrecord
 90
        0
  0
XRECORD
  5
F6A
102
{ACAD_REACTORS
330
F5F
102
}
330
F5F
100
AcDbXrecord
  1
{1570E47C-2CF2-4767-8815-2143A2C3AD0E}
  0
XRECORD
  5
F62
102
{ACAD_REACTORS
330
F5F
102
}
330
F5F
100
AcDbXrecord
  1

  0
XRECORD
  5
F68
102
{ACAD_REACTORS
330
F5F
102
}
330
F5F
100
AcDbXrecord
 90
        4
  0
XRECORD
  5
F64
102
{ACAD_REACTORS
330
F5F
102
}
330
F5F
100
AcDbXrecord
340
1A
  0
XRECORD
  5
F67
102
{ACAD_REACTORS
330
F5F
102
}
330
F5F
100
AcDbXrecord
 90
    10781
  0
XRECORD
  5
F65
102
{ACAD_REACTORS
330
F5F
102
}
330
F5F
100
AcDbXrecord
340
19
  0
XRECORD
  5
F66
102
{ACAD_REACTORS
330
F5F
102
}
330
F5F
100
AcDbXrecord
340
E
  0
XRECORD
  5
F6C
102
{ACAD_REACTORS
330
F5F
102
}
330
F5F
100
AcDbXrecord
 40
0.0
  0
XRECORD
  5
F6F
102
{ACAD_REACTORS
330
F5F
102
}
330
F5F
100
AcDbXrecord
340
0
  0
XRECORD
  5
F75
102
{ACAD_REACTORS
330
F5F
102
}
330
F5F
100
AcDbXrecord
 10
0.0
 20
0.0
 30
0.0
  0
XRECORD
  5
F71
102
{ACAD_REACTORS
330
F5F
102
}
330
F5F
100
AcDbXrecord
 10
0.0
 20
0.0
 30
0.0
  0
XRECORD
  5
F74
102
{ACAD_REACTORS
330
F5F
102
}
330
F5F
100
AcDbXrecord
 10
0.0
 20
0.0
 30
0.0
  0
XRECORD
  5
F72
102
{ACAD_REACTORS
330
F5F
102
}
330
F5F
100
AcDbXrecord
 10
0.0
 20
0.0
 30
0.0
  0
XRECORD
  5
F73
102
{ACAD_REACTORS
330
F5F
102
}
330
F5F
100
AcDbXrecord
 10
0.0
 20
0.0
 30
0.0
  0
XRECORD
  5
F70
102
{ACAD_REACTORS
330
F5F
102
}
330
F5F
100
AcDbXrecord
 10
0.0
 20
0.0
 30
0.0
  0
XRECORD
  5
F6D
102
{ACAD_REACTORS
330
F5F
102
}
330
F5F
100
AcDbXrecord
340
0
  0
XRECORD
  5
F6E
102
{ACAD_REACTORS
330
F5F
102
}
330
F5F
100
AcDbXrecord
 70
     0
  0
XRECORD
  5
F63
102
{ACAD_REACTORS
330
F5F
102
}
330
F5F
100
AcDbXrecord
  1

  0
XRECORD
  5
F60
102
{ACAD_REACTORS
330
F5F
102
}
330
F5F
100
AcDbXrecord
 90
        1
  0
XRECORD
  5
F61
102
{ACAD_REACTORS
330
F5F
102
}
330
F5F
100
AcDbXrecord
 90
       70
  0
XRECORD
  5
F78
102
{ACAD_REACTORS
330
F5F
102
}
330
F5F
100
AcDbXrecord
340
0
  0
XRECORD
  5
F7E
102
{ACAD_REACTORS
330
F5F
102
}
330
F5F
100
AcDbXrecord
 10
0.0
 20
0.0
 30
0.0
  0
XRECORD
  5
F7A
102
{ACAD_REACTORS
330
F5F
102
}
330
F5F
100
AcDbXrecord
 10
0.0
 20
0.0
 30
0.0
  0
XRECORD
  5
F7D
102
{ACAD_REACTORS
330
F5F
102
}
330
F5F
100
AcDbXrecord
 10
0.0
 20
0.0
 30
0.0
  0
XRECORD
  5
F7B
102
{ACAD_REACTORS
330
F5F
102
}
330
F5F
100
AcDbXrecord
 10
0.0
 20
0.0
 30
0.0
  0
XRECORD
  5
F7C
102
{ACAD_REACTORS
330
F5F
102
}
330
F5F
100
AcDbXrecord
 10
0.0
 20
0.0
 30
0.0
  0
XRECORD
  5
F79
102
{ACAD_REACTORS
330
F5F
102
}
330
F5F
100
AcDbXrecord
 10
0.0
 20
0.0
 30
0.0
  0
XRECORD
  5
F76
102
{ACAD_REACTORS
330
F5F
102
}
330
F5F
100
AcDbXrecord
340
0
  0
XRECORD
  5
F77
102
{ACAD_REACTORS
330
F5F
102
}
330
F5F
100
AcDbXrecord
 70
     0
  0
XRECORD
  5
F6B
102
{ACAD_REACTORS
330
F5F
102
}
330
F5F
100
AcDbXrecord
  1
{394FF786-9094-44BF-A95F-CD2724F723E6}
  0
DICTIONARYVAR
  5
EFD
102
{ACAD_REACTORS
330
EFB
102
}
330
EFB
100
DictionaryVariables
280
     0
  1
2
  0
DICTIONARYVAR
  5
EFC
102
{ACAD_REACTORS
330
EFB
102
}
330
EFB
100
DictionaryVariables
280
     0
  1
1
  0
ENDSEC
  0
EOF
