  0
SECTION
  2
HEADER
  9
$ACADVER
  1
AC1014
  9
$ACADMAINTVER
 70
     9
  9
$DWGCODEPAGE
  3
ANSI_932
  9
$INSBASE
 10
0.0
 20
0.0
 30
0.0
  9
$EXTMIN
 10
-4.093806445861459
 20
0.0000028620359558
 30
0.0
  9
$EXTMAX
 10
278.999997808098
 20
412.6734255560812
 30
0.0
  9
$LIMMIN
 10
0.0
 20
0.0
  9
$LIMMAX
 10
420.0
 20
297.0
  9
$ORTHOMODE
 70
     0
  9
$REGENMODE
 70
     1
  9
$FILLMODE
 70
     1
  9
$QTEXTMODE
 70
     0
  9
$MIRRTEXT
 70
     1
  9
$DRAGMODE
 70
     2
  9
$LTSCALE
 40
1.0
  9
$OSMODE
 70
    55
  9
$ATTMODE
 70
     1
  9
$TEXTSIZE
 40
2.5
  9
$TRACEWID
 40
1.0
  9
$TEXTSTYLE
  7
STANDARD
  9
$CLAYER
  8
0
  9
$CELTYPE
  6
BYLAYER
  9
$CECOLOR
 62
   256
  9
$CELTSCALE
 40
1.0
  9
$DELOBJ
 70
     1
  9
$DISPSILH
 70
     0
  9
$DIMSCALE
 40
1.0
  9
$DIMASZ
 40
2.5
  9
$DIMEXO
 40
0.625
  9
$DIMDLI
 40
3.75
  9
$DIMRND
 40
0.0
  9
$DIMDLE
 40
0.0
  9
$DIMEXE
 40
1.25
  9
$DIMTP
 40
0.0
  9
$DIMTM
 40
0.0
  9
$DIMTXT
 40
2.5
  9
$DIMCEN
 40
2.5
  9
$DIMTSZ
 40
0.0
  9
$DIMTOL
 70
     0
  9
$DIMLIM
 70
     0
  9
$DIMTIH
 70
     0
  9
$DIMTOH
 70
     0
  9
$DIMSE1
 70
     0
  9
$DIMSE2
 70
     0
  9
$DIMTAD
 70
     1
  9
$DIMZIN
 70
     8
  9
$DIMBLK
  1

  9
$DIMASO
 70
     1
  9
$DIMSHO
 70
     1
  9
$DIMPOST
  1

  9
$DIMAPOST
  1

  9
$DIMALT
 70
     0
  9
$DIMALTD
 70
     3
  9
$DIMALTF
 40
0.03937007874016
  9
$DIMLFAC
 40
1.0
  9
$DIMTOFL
 70
     1
  9
$DIMTVP
 40
0.0
  9
$DIMTIX
 70
     0
  9
$DIMSOXD
 70
     0
  9
$DIMSAH
 70
     0
  9
$DIMBLK1
  1

  9
$DIMBLK2
  1

  9
$DIMSTYLE
  2
ISO-25
  9
$DIMCLRD
 70
     0
  9
$DIMCLRE
 70
     0
  9
$DIMCLRT
 70
     0
  9
$DIMTFAC
 40
1.0
  9
$DIMGAP
 40
0.625
  9
$DIMJUST
 70
     0
  9
$DIMSD1
 70
     0
  9
$DIMSD2
 70
     0
  9
$DIMTOLJ
 70
     0
  9
$DIMTZIN
 70
     8
  9
$DIMALTZ
 70
     0
  9
$DIMALTTZ
 70
     0
  9
$DIMFIT
 70
     3
  9
$DIMUPT
 70
     0
  9
$DIMUNIT
 70
     2
  9
$DIMDEC
 70
     2
  9
$DIMTDEC
 70
     2
  9
$DIMALTU
 70
     2
  9
$DIMALTTD
 70
     3
  9
$DIMTXSTY
  7
STANDARD
  9
$DIMAUNIT
 70
     0
  9
$LUNITS
 70
     2
  9
$LUPREC
 70
     4
  9
$SKETCHINC
 40
1.0
  9
$FILLETRAD
 40
10.0
  9
$AUNITS
 70
     0
  9
$AUPREC
 70
     0
  9
$MENU
  1
.
  9
$ELEVATION
 40
0.0
  9
$PELEVATION
 40
0.0
  9
$THICKNESS
 40
0.0
  9
$LIMCHECK
 70
     0
  9
$BLIPMODE
 70
     0
  9
$CHAMFERA
 40
10.0
  9
$CHAMFERB
 40
10.0
  9
$CHAMFERC
 40
20.0
  9
$CHAMFERD
 40
0.0
  9
$SKPOLY
 70
     0
  9
$TDCREATE
 40
2455874.705712152
  9
$TDUPDATE
 40
2455874.827103993
  9
$TDINDWG
 40
0.0033209954
  9
$TDUSRTIMER
 40
0.0033200926
  9
$USRTIMER
 70
     1
  9
$ANGBASE
 50
0.0
  9
$ANGDIR
 70
     0
  9
$PDMODE
 70
     0
  9
$PDSIZE
 40
0.0
  9
$PLINEWID
 40
0.0
  9
$COORDS
 70
     1
  9
$SPLFRAME
 70
     0
  9
$SPLINETYPE
 70
     6
  9
$SPLINESEGS
 70
     8
  9
$ATTDIA
 70
     0
  9
$ATTREQ
 70
     1
  9
$HANDLING
 70
 22529
  9
$HANDSEED
  5
9B6
  9
$SURFTAB1
 70
     6
  9
$SURFTAB2
 70
     6
  9
$SURFTYPE
 70
     6
  9
$SURFU
 70
     6
  9
$SURFV
 70
     6
  9
$UCSNAME
  2

  9
$UCSORG
 10
0.0
 20
0.0
 30
0.0
  9
$UCSXDIR
 10
1.0
 20
0.0
 30
0.0
  9
$UCSYDIR
 10
0.0
 20
1.0
 30
0.0
  9
$PUCSNAME
  2

  9
$PUCSORG
 10
0.0
 20
0.0
 30
0.0
  9
$PUCSXDIR
 10
1.0
 20
0.0
 30
0.0
  9
$PUCSYDIR
 10
0.0
 20
1.0
 30
0.0
  9
$USERI1
 70
     0
  9
$USERI2
 70
     0
  9
$USERI3
 70
     0
  9
$USERI4
 70
     0
  9
$USERI5
 70
     0
  9
$USERR1
 40
0.0
  9
$USERR2
 40
0.0
  9
$USERR3
 40
0.0
  9
$USERR4
 40
0.0
  9
$USERR5
 40
0.0
  9
$WORLDVIEW
 70
     1
  9
$SHADEDGE
 70
     3
  9
$SHADEDIF
 70
    70
  9
$TILEMODE
 70
     1
  9
$MAXACTVP
 70
    64
  9
$PINSBASE
 10
0.0
 20
0.0
 30
0.0
  9
$PLIMCHECK
 70
     0
  9
$PEXTMIN
 10
1.000000000000000E+20
 20
1.000000000000000E+20
 30
1.000000000000000E+20
  9
$PEXTMAX
 10
-1.000000000000000E+20
 20
-1.000000000000000E+20
 30
-1.000000000000000E+20
  9
$PLIMMIN
 10
0.0
 20
0.0
  9
$PLIMMAX
 10
420.0
 20
297.0
  9
$UNITMODE
 70
     0
  9
$VISRETAIN
 70
     1
  9
$PLINEGEN
 70
     0
  9
$PSLTSCALE
 70
     1
  9
$TREEDEPTH
 70
  3020
  9
$PICKSTYLE
 70
     1
  9
$CMLSTYLE
  2
STANDARD
  9
$CMLJUST
 70
     0
  9
$CMLSCALE
 40
20.0
  9
$PROXYGRAPHICS
 70
     1
  9
$MEASUREMENT
 70
     1
  0
ENDSEC
  0
SECTION
  2
CLASSES
  0
CLASS
  1
ACDBDICTIONARYWDFLT
  2
AcDbDictionaryWithDefault
  3
AutoCAD 2000
 90
        0
280
     0
281
     0
  0
CLASS
  1
ACDBPLACEHOLDER
  2
AcDbPlaceHolder
  3
AutoCAD 2000
 90
        0
280
     0
281
     0
  0
CLASS
  1
LAYOUT
  2
AcDbLayout
  3
AutoCAD 2000
 90
        0
280
     0
281
     0
  0
CLASS
  1
DICTIONARYVAR
  2
AcDbDictionaryVar
  3
AutoCAD 2000
 90
        0
280
     0
281
     0
  0
CLASS
  1
LONG_TRANSACTION
  2
AcDbLongTransaction
  3
AutoCAD 2000
 90
        0
280
     0
281
     0
  0
CLASS
  1
LWPOLYLINE
  2
AcDbPolyline
  3
AutoCAD 2000
 90
        0
280
     0
281
     1
  0
CLASS
  1
HATCH
  2
AcDbHatch
  3
AutoCAD 2000
 90
        0
280
     0
281
     1
  0
CLASS
  1
XRECORD
  2
AcDbXrecord
  3
AutoCAD 2000
 90
        0
280
     0
281
     0
  0
CLASS
  1
LONG_TRANSACTION
  2
AcDbLongTransaction
  3
AutoCAD 2000
 90
        0
280
     0
281
     0
  0
CLASS
  1
LWPOLYLINE
  2
AcDbPolyline
  3
AutoCAD 2000
 90
        0
280
     0
281
     1
  0
CLASS
  1
HATCH
  2
AcDbHatch
  3
AutoCAD 2000
 90
        0
280
     0
281
     1
  0
CLASS
  1
XRECORD
  2
AcDbXrecord
  3
AutoCAD 2000
 90
        0
280
     0
281
     0
  0
ENDSEC
  0
SECTION
  2
TABLES
  0
TABLE
  2
VPORT
  5
8
330
0
100
AcDbSymbolTable
 70
     2
  0
VPORT
  5
993
330
8
100
AcDbSymbolTableRecord
100
AcDbViewportTableRecord
  2
*ACTIVE
 70
     0
 10
0.0
 20
0.0
 11
1.0
 21
1.0
 12
137.4536141746837
 22
206.3378684956555
 13
0.0
 23
0.0
 14
10.0
 24
10.0
 15
10.0
 25
10.0
 16
0.0
 26
0.0
 36
1.0
 17
0.0
 27
0.0
 37
0.0
 40
415.6989154505719
 41
1.46415552855407
 42
50.0
 43
0.0
 44
0.0
 50
0.0
 51
0.0
 71
     0
 72
   100
 73
     1
 74
     3
 75
     0
 76
     0
 77
     0
 78
     0
  0
ENDTAB
  0
TABLE
  2
LTYPE
  5
5
330
0
100
AcDbSymbolTable
 70
     2
  0
LTYPE
  5
14
330
5
100
AcDbSymbolTableRecord
100
AcDbLinetypeTableRecord
  2
BYBLOCK
 70
     0
  3

 72
    65
 73
     0
 40
0.0
  0
LTYPE
  5
15
330
5
100
AcDbSymbolTableRecord
100
AcDbLinetypeTableRecord
  2
BYLAYER
 70
     0
  3

 72
    65
 73
     0
 40
0.0
  0
LTYPE
  5
16
330
5
100
AcDbSymbolTableRecord
100
AcDbLinetypeTableRecord
  2
CONTINUOUS
 70
     0
  3
Solid line
 72
    65
 73
     0
 40
0.0
  0
LTYPE
  5
A1
330
5
100
AcDbSymbolTableRecord
100
AcDbLinetypeTableRecord
  2
CENTER
 70
     0
  3
__ . __ . __ . __ . __ . __ . __ . __ . __ . __
 72
    65
 73
     4
 40
1.0
 49
0.5
 74
     0
 49
-0.25
 74
     0
 49
0.0
 74
     0
 49
-0.25
 74
     0
  0
ENDTAB
  0
TABLE
  2
LAYER
  5
2
102
{ACAD_XDICTIONARY
360
A7
102
}
330
0
100
AcDbSymbolTable
 70
     3
  0
LAYER
  5
10
330
2
100
AcDbSymbolTableRecord
100
AcDbLayerTableRecord
  2
0
 70
     0
 62
     7
  6
CONTINUOUS
  0
LAYER
  5
A3
330
2
100
AcDbSymbolTableRecord
100
AcDbLayerTableRecord
  2
DEFPOINTS
 70
     0
 62
    -7
  6
CONTINUOUS
  0
LAYER
  5
A4
330
2
100
AcDbSymbolTableRecord
100
AcDbLayerTableRecord
  2
1
 70
     0
 62
     3
  6
CONTINUOUS
  0
ENDTAB
  0
TABLE
  2
STYLE
  5
3
330
0
100
AcDbSymbolTable
 70
     1
  0
STYLE
  5
11
330
3
100
AcDbSymbolTableRecord
100
AcDbTextStyleTableRecord
  2
STANDARD
 70
     0
 40
0.0
 41
1.0
 50
0.0
 71
     0
 42
2.5
  3
txt
  4

  0
ENDTAB
  0
TABLE
  2
VIEW
  5
6
330
0
100
AcDbSymbolTable
 70
     0
  0
ENDTAB
  0
TABLE
  2
UCS
  5
7
330
0
100
AcDbSymbolTable
 70
     0
  0
ENDTAB
  0
TABLE
  2
APPID
  5
9
330
0
100
AcDbSymbolTable
 70
     1
  0
APPID
  5
12
330
9
100
AcDbSymbolTableRecord
100
AcDbRegAppTableRecord
  2
ACAD
 70
     0
  0
ENDTAB
  0
TABLE
  2
DIMSTYLE
  5
A
330
0
100
AcDbSymbolTable
 70
     2
  0
DIMSTYLE
105
27
330
A
100
AcDbSymbolTableRecord
100
AcDbDimStyleTableRecord
  2
ISO-25
 70
     0
  3

  4

  5

  6

  7

 40
1.0
 41
2.5
 42
0.625
 43
3.75
 44
1.25
 45
0.0
 46
0.0
 47
0.0
 48
0.0
140
2.5
141
2.5
142
0.0
143
0.03937007874016
144
1.0
145
0.0
146
1.0
147
0.625
 71
     0
 72
     0
 73
     0
 74
     0
 75
     0
 76
     0
 77
     1
 78
     8
170
     0
171
     3
172
     1
173
     0
174
     0
175
     0
176
     0
177
     0
178
     0
270
     2
271
     2
272
     2
273
     2
274
     3
340
11
275
     0
280
     0
281
     0
282
     0
283
     0
284
     8
285
     0
286
     0
287
     3
288
     0
  0
DIMSTYLE
105
A6
330
A
100
AcDbSymbolTableRecord
100
AcDbDimStyleTableRecord
  2
STANDARD
 70
     0
  3

  4

  5

  6

  7

 40
1.0
 41
2.5
 42
0.625
 43
3.75
 44
1.25
 45
0.0
 46
0.0
 47
0.0
 48
0.0
140
2.5
141
2.5
142
0.0
143
0.0394
144
1.0
145
0.0
146
1.0
147
0.625
 71
     0
 72
     0
 73
     0
 74
     0
 75
     0
 76
     0
 77
     1
 78
     8
170
     0
171
     4
172
     1
173
     0
174
     0
175
     0
176
     0
177
     0
178
     0
270
     2
271
     4
272
     4
273
     8
274
     4
340
11
275
     0
280
     0
281
     0
282
     0
283
     1
284
     0
285
     0
286
     0
287
     3
288
     0
  0
ENDTAB
  0
TABLE
  2
BLOCK_RECORD
  5
1
330
0
100
AcDbSymbolTable
 70
     1
  0
BLOCK_RECORD
  5
1F
102
{ACAD_XDICTIONARY
360
989
102
}
330
1
100
AcDbSymbolTableRecord
100
AcDbBlockTableRecord
  2
*MODEL_SPACE
  0
BLOCK_RECORD
  5
1B
102
{ACAD_XDICTIONARY
360
987
102
}
330
1
100
AcDbSymbolTableRecord
100
AcDbBlockTableRecord
  2
*PAPER_SPACE
  0
BLOCK_RECORD
  5
2B
330
1
100
AcDbSymbolTableRecord
100
AcDbBlockTableRecord
  2
A$C5CFD6E8C
  0
ENDTAB
  0
ENDSEC
  0
SECTION
  2
BLOCKS
  0
BLOCK
  5
20
330
1F
100
AcDbEntity
  8
0
100
AcDbBlockBegin
  2
*MODEL_SPACE
 70
     0
 10
0.0
 20
0.0
 30
0.0
  3
*MODEL_SPACE
  1

  0
ENDBLK
  5
21
330
1F
100
AcDbEntity
  8
0
100
AcDbBlockEnd
  0
BLOCK
  5
1C
330
1B
100
AcDbEntity
 67
     1
  8
0
100
AcDbBlockBegin
  2
*PAPER_SPACE
 70
     0
 10
0.0
 20
0.0
 30
0.0
  3
*PAPER_SPACE
  1

  0
ENDBLK
  5
1D
330
1B
100
AcDbEntity
 67
     1
  8
0
100
AcDbBlockEnd
  0
BLOCK
  5
30
330
2B
100
AcDbEntity
  8
0
 48
5.0
100
AcDbBlockBegin
  2
A$C5CFD6E8C
 70
     0
 10
0.0
 20
0.0
 30
0.0
  3
A$C5CFD6E8C
  1

  0
LINE
  5
2C
330
2B
100
AcDbEntity
  8
0
 62
     0
100
AcDbLine
 10
1.599997211020308
 20
2.70000247964549
 30
0.0
 11
1.599997211020308
 21
0.0000024796447633
 31
0.0
  0
LINE
  5
2D
330
2B
100
AcDbEntity
  8
0
 62
     0
100
AcDbLine
 10
-0.0000027889800549
 20
0.0000024796447633
 30
0.0
 11
-0.0000027889800549
 21
2.70000247964549
 31
0.0
  0
LINE
  5
2E
330
2B
100
AcDbEntity
  8
0
  6
CENTER
 62
     0
100
AcDbLine
 10
1.599997211020308
 20
2.70000247964549
 30
0.0
 11
-0.0000027889800549
 21
2.70000247964549
 31
0.0
  0
LINE
  5
2F
330
2B
100
AcDbEntity
  8
0
  6
CENTER
 62
     0
100
AcDbLine
 10
1.599997211020308
 20
0.0000024796447633
 30
0.0
 11
-0.0000027889800549
 21
0.0000024796447633
 31
0.0
  0
ENDBLK
  5
31
330
2B
100
AcDbEntity
  8
0
 48
5.0
100
AcDbBlockEnd
  0
ENDSEC
  0
SECTION
  2
ENTITIES
  0
LINE
  5
4A4
330
1F
100
AcDbEntity
  8
1
100
AcDbLine
 10
21.49999780809888
 20
359.9738169404668
 30
0.0
 11
36.49999780809888
 21
359.9738169404668
 31
0.0
  0
LINE
  5
4A5
330
1F
100
AcDbEntity
  8
1
100
AcDbLine
 10
21.49999780809888
 20
175.9738169404666
 30
0.0
 11
36.49999780809888
 21
175.9738169404666
 31
0.0
  0
LINE
  5
4A6
330
1F
100
AcDbEntity
  8
1
100
AcDbLine
 10
28.99999780809888
 20
352.4738169404668
 30
0.0
 11
28.99999780809888
 21
367.4738169404668
 31
0.0
  0
LINE
  5
4A7
330
1F
100
AcDbEntity
  8
1
100
AcDbLine
 10
28.99999780809888
 20
168.4738169404669
 30
0.0
 11
28.99999780809888
 21
183.4738169404669
 31
0.0
  0
LINE
  5
4B3
330
1F
100
AcDbEntity
  8
0
100
AcDbLine
 10
-0.0000021919011033
 20
363.8949163832686
 30
0.0
 11
-0.0000021919011033
 21
172.0527174976658
 31
0.0
  0
LINE
  5
4B4
330
1F
100
AcDbEntity
  8
0
100
AcDbLine
 10
57.9999978080989
 20
363.9738169404668
 30
0.0
 11
57.9999978080989
 21
171.9738169404666
 31
0.0
  0
LINE
  5
4B5
330
1F
100
AcDbEntity
  8
0
100
AcDbLine
 10
0.9738208597909759
 20
364.8945737082438
 30
0.0
 11
3.999997808098896
 21
364.9738169404668
 31
0.0
  0
LINE
  5
4B6
330
1F
100
AcDbEntity
  8
0
100
AcDbLine
 10
26.89999780809876
 20
175.9738169404666
 30
0.0
 11
26.89999780809876
 21
170.9738169404668
 31
0.0
  0
LINE
  5
4B7
330
1F
100
AcDbEntity
  8
0
100
AcDbLine
 10
0.4869093339448228
 20
354.8818234812166
 30
0.0
 11
3.999997808098896
 21
354.9738169404668
 31
0.0
  0
LINE
  5
4B8
330
1F
100
AcDbEntity
  8
0
100
AcDbLine
 10
0.4869093339448228
 20
181.0658103997169
 30
0.0
 11
3.999997808098896
 21
180.9738169404669
 31
0.0
  0
LINE
  5
4B9
330
1F
100
AcDbEntity
  8
0
100
AcDbLine
 10
4.999997808098896
 20
201.6069973653798
 30
0.0
 11
4.999997808098896
 21
354.947631018898
 31
0.0
  0
ARC
  5
4BA
330
1F
100
AcDbEntity
  8
0
100
AcDbCircle
 10
4.299997808098851
 20
197.9738169404669
 30
0.0
 40
3.699999999995998
100
AcDbArc
 50
0.0
 51
79.0945300032576
  0
LINE
  5
4BB
330
1F
100
AcDbEntity
  8
0
100
AcDbLine
 10
7.999997808094803
 20
197.9738169404669
 30
0.0
 11
7.999997808093893
 21
181.0785606267439
 31
0.0
  0
LINE
  5
4BC
330
1F
100
AcDbEntity
  8
0
100
AcDbLine
 10
0.9738208597909759
 20
171.0530601726899
 30
0.0
 11
3.999997808098896
 21
170.9738169404668
 31
0.0
  0
LINE
  5
4BD
330
1F
100
AcDbEntity
  8
0
100
AcDbLine
 10
4.999997808098896
 20
350.9738169404668
 30
0.0
 11
5.013086282251832
 21
350.974159674225
 31
0.0
  0
LINE
  5
4BE
330
1F
100
AcDbEntity
  8
0
100
AcDbLine
 10
3.999997808098896
 20
364.9738169404668
 30
0.0
 11
56.99999780809889
 21
364.9738169404668
 31
0.0
  0
LINE
  5
4BF
330
1F
100
AcDbEntity
  8
0
100
AcDbLine
 10
3.999997808098896
 20
354.9738169404668
 30
0.0
 11
4.999997808098896
 21
354.947631018898
 31
0.0
  0
LINE
  5
4C0
330
1F
100
AcDbEntity
  8
0
100
AcDbLine
 10
3.999997808098896
 20
180.9738169404669
 30
0.0
 11
7.999997808093893
 21
181.0785606267439
 31
0.0
  0
LINE
  5
4C1
330
1F
100
AcDbEntity
  8
0
100
AcDbLine
 10
3.999997808098896
 20
170.9738169404668
 30
0.0
 11
26.89999780809876
 21
170.9738169404668
 31
0.0
  0
CIRCLE
  5
4C2
330
1F
100
AcDbEntity
  8
0
100
AcDbCircle
 10
28.99999780809888
 20
359.9738169404668
 30
0.0
 40
2.1
  0
ARC
  5
4C3
330
1F
100
AcDbEntity
  8
0
100
AcDbCircle
 10
28.99999780809888
 20
359.9738169404668
 30
0.0
 40
5.5
100
AcDbArc
 50
180.0
 51
245.3800226713518
  0
ARC
  5
4C4
330
1F
100
AcDbEntity
  8
0
100
AcDbCircle
 10
28.99999780809888
 20
175.9738169404666
 30
0.0
 40
5.5
100
AcDbArc
 50
0.0
 51
65.3800226713519
  0
ARC
  5
4C5
330
1F
100
AcDbEntity
  8
0
100
AcDbCircle
 10
28.99999780809888
 20
175.9738169404666
 30
0.0
 40
2.1
100
AcDbArc
 50
0.0
 51
180.0
  0
LINE
  5
4C6
330
1F
100
AcDbEntity
  8
0
100
AcDbLine
 10
31.0999978080988
 20
170.9738169404668
 30
0.0
 11
34.49999780809799
 21
170.9738169404668
 31
0.0
  0
LINE
  5
4C7
330
1F
100
AcDbEntity
  8
0
100
AcDbLine
 10
34.49999780809889
 20
359.9738169404668
 30
0.0
 11
34.49999780809889
 21
364.9738169404668
 31
0.0
  0
LINE
  5
4C8
330
1F
100
AcDbEntity
  8
0
100
AcDbLine
 10
23.49999780809889
 20
359.9738169404668
 30
0.0
 11
23.49999780809889
 21
364.9738169404668
 31
0.0
  0
LINE
  5
4C9
330
1F
100
AcDbEntity
  8
0
100
AcDbLine
 10
23.49999780809889
 20
175.9738169404666
 30
0.0
 11
23.49999780809889
 21
170.9738169404668
 31
0.0
  0
LINE
  5
4CA
330
1F
100
AcDbEntity
  8
0
100
AcDbLine
 10
31.0999978080988
 20
175.9738169404666
 30
0.0
 11
31.0999978080988
 21
170.9738169404668
 31
0.0
  0
LINE
  5
4CB
330
1F
100
AcDbEntity
  8
0
100
AcDbLine
 10
34.49999780809889
 20
175.9738169404666
 30
0.0
 11
34.49999780809889
 21
170.9738169404668
 31
0.0
  0
CIRCLE
  5
4CC
330
1F
100
AcDbEntity
  8
0
100
AcDbCircle
 10
3.999997808098896
 20
195.9738169404669
 30
0.0
 40
2.0
  0
CIRCLE
  5
4CD
330
1F
100
AcDbEntity
  8
0
100
AcDbCircle
 10
3.999997808098896
 20
195.9738169404669
 30
0.0
 40
1.6
  0
CIRCLE
  5
4CE
330
1F
100
AcDbEntity
  8
0
100
AcDbCircle
 10
3.999997808098896
 20
185.9738169404669
 30
0.0
 40
2.0
  0
CIRCLE
  5
4CF
330
1F
100
AcDbEntity
  8
0
100
AcDbCircle
 10
3.999997808098896
 20
185.9738169404669
 30
0.0
 40
1.6
  0
ARC
  5
4D0
330
1F
100
AcDbEntity
  8
0
100
AcDbCircle
 10
0.9999978080988968
 20
363.8949163832686
 30
0.0
 40
1.0
100
AcDbArc
 50
91.50000000000273
 51
180.0
  0
ARC
  5
4D1
330
1F
100
AcDbEntity
  8
0
100
AcDbCircle
 10
56.99999780809889
 20
363.9738169404668
 30
0.0
 40
1.0
100
AcDbArc
 50
0.0
 51
90.0
  0
ARC
  5
4D2
330
1F
100
AcDbEntity
  8
0
100
AcDbCircle
 10
0.9999978080988968
 20
172.0527174976658
 30
0.0
 40
1.0
100
AcDbArc
 50
180.0
 51
268.4999999999971
  0
ARC
  5
4D3
330
1F
100
AcDbEntity
  8
0
100
AcDbCircle
 10
56.99999780809889
 20
171.9738169404666
 30
0.0
 40
1.0
100
AcDbArc
 50
270.0
 51
0.0
  0
ARC
  5
4D4
330
1F
100
AcDbEntity
  8
0
100
AcDbCircle
 10
0.4999978080988968
 20
354.3819948187298
 30
0.0
 40
0.5
100
AcDbArc
 50
91.50000000000273
 51
180.0
  0
ARC
  5
4D5
330
1F
100
AcDbEntity
  8
0
100
AcDbCircle
 10
0.4999978080988968
 20
181.5656390622049
 30
0.0
 40
0.5
100
AcDbArc
 50
180.0
 51
268.4999999999971
  0
LINE
  5
4D6
330
1F
100
AcDbEntity
  8
0
100
AcDbLine
 10
5.999997808097758
 20
180.9738169404669
 30
0.0
 11
57.9999978080989
 21
180.9738169404669
 31
0.0
  0
LINE
  5
4D7
330
1F
100
AcDbEntity
  8
0
100
AcDbLine
 10
5.999997808098896
 20
354.4738169404668
 30
0.0
 11
4.999997808098896
 21
354.4738169404668
 31
0.0
  0
LINE
  5
4D8
330
1F
100
AcDbEntity
  8
0
100
AcDbLine
 10
5.999997808098896
 20
354.9738169404668
 30
0.0
 11
5.999997808097758
 21
202.3555974005049
 31
0.0
  0
LINE
  5
4D9
330
1F
100
AcDbEntity
  8
0
100
AcDbLine
 10
5.999997808098896
 20
354.9738169404668
 30
0.0
 11
57.9999978080989
 21
354.9738169404668
 31
0.0
  0
ARC
  5
4DA
330
1F
100
AcDbEntity
  8
0
100
AcDbCircle
 10
4.299997808098851
 20
197.9738169404669
 30
0.0
 40
4.699999999995998
100
AcDbArc
 50
0.0
 51
68.79523363710736
  0
LINE
  5
4DB
330
1F
100
AcDbEntity
  8
0
100
AcDbLine
 10
8.999997808094802
 20
197.9738169404669
 30
0.0
 11
8.999997808093894
 21
180.9738169404669
 31
0.0
  0
LINE
  5
4DC
330
1F
100
AcDbEntity
  8
0
100
AcDbLine
 10
8.999997808093894
 20
181.4738169404669
 30
0.0
 11
7.999997808093893
 21
181.4738169404665
 31
0.0
  0
LINE
  5
4DD
330
1F
100
AcDbEntity
  8
0
100
AcDbLine
 10
55.9999978080989
 20
182.9738169404669
 30
0.0
 11
55.9999978080989
 21
352.9738169404668
 31
0.0
  0
LINE
  5
4DE
330
1F
100
AcDbEntity
  8
0
100
AcDbLine
 10
55.9999978080989
 20
352.9738169404668
 30
0.0
 11
7.999997808098896
 21
352.9738169404668
 31
0.0
  0
ARC
  5
4DF
330
1F
100
AcDbEntity
  8
0
100
AcDbCircle
 10
4.299997808098851
 20
197.9738169404669
 30
0.0
 40
6.699999999996
100
AcDbArc
 50
0.0
 51
56.4792596039911
  0
LINE
  5
4E0
330
1F
100
AcDbEntity
  8
0
100
AcDbLine
 10
10.9999978080948
 20
197.9738169404669
 30
0.0
 11
10.99999780809389
 21
182.9738169404669
 31
0.0
  0
LINE
  5
4E1
330
1F
100
AcDbEntity
  8
0
100
AcDbLine
 10
55.9999978080989
 20
182.9738169404669
 30
0.0
 11
10.99999780809389
 21
182.9738169404669
 31
0.0
  0
LINE
  5
4E2
330
1F
100
AcDbEntity
  8
0
100
AcDbLine
 10
7.999997808098896
 20
352.9738169404668
 30
0.0
 11
7.999997808097758
 21
203.5595129579708
 31
0.0
  0
LINE
  5
4E3
330
1F
100
AcDbEntity
  8
0
100
AcDbLine
 10
57.9999978080989
 20
180.9738169404669
 30
0.0
 11
57.9999978080989
 21
354.9738169404668
 31
0.0
  0
LINE
  5
4E4
330
1F
100
AcDbEntity
  8
0
100
AcDbLine
 10
4.999997808098896
 20
201.6069973653808
 30
0.0
 11
4.999997808098896
 21
354.4738169404668
 31
0.0
  0
LINE
  5
4E5
330
1F
100
AcDbEntity
  8
0
100
AcDbLine
 10
7.999997808094803
 20
197.9738169404669
 30
0.0
 11
7.999997808093893
 21
181.4738169404669
 31
0.0
  0
ARC
  5
4E6
330
1F
100
AcDbEntity
  8
0
100
AcDbCircle
 10
4.299997808098851
 20
197.9738169404669
 30
0.0
 40
3.699999999995998
100
AcDbArc
 50
0.0
 51
79.0945300032576
  0
LINE
  5
4E7
330
1F
100
AcDbEntity
  8
0
100
AcDbLine
 10
5.999997808095712
 20
181.0261887836051
 30
0.0
 11
5.999997808097758
 21
180.9738169404669
 31
0.0
  0
LINE
  5
4E8
330
1F
100
AcDbEntity
  8
0
100
AcDbLine
 10
35.19999793001602
 20
263.0738167811228
 30
0.0
 11
35.19999793001602
 21
247.0738167811227
 31
0.0
  0
LINE
  5
4E9
330
1F
100
AcDbEntity
  8
0
100
AcDbLine
 10
38.59999793001589
 20
247.0738167811227
 30
0.0
 11
35.19999793001602
 21
247.0738167811227
 31
0.0
  0
LINE
  5
4EA
330
1F
100
AcDbEntity
  8
0
100
AcDbLine
 10
38.59999793001589
 20
263.0738167811228
 30
0.0
 11
35.19999793001602
 21
263.0738167811228
 31
0.0
  0
LINE
  5
4EB
330
1F
100
AcDbEntity
  8
0
100
AcDbLine
 10
38.59999793001589
 20
263.0738167811228
 30
0.0
 11
38.59999793001589
 21
267.5738167811227
 31
0.0
  0
LINE
  5
4EC
330
1F
100
AcDbEntity
  8
0
100
AcDbLine
 10
49.99999793001689
 20
185.1738167811229
 30
0.0
 11
38.59999793001589
 21
185.1738167811229
 31
0.0
  0
LINE
  5
4ED
330
1F
100
AcDbEntity
  8
0
100
AcDbLine
 10
38.59999793001589
 20
247.0738167811227
 30
0.0
 11
38.59999793001589
 21
232.6738167811229
 31
0.0
  0
LINE
  5
4EE
330
1F
100
AcDbEntity
  8
0
100
AcDbLine
 10
11.09999780809379
 20
183.1738169404669
 30
0.0
 11
55.6999978080978
 21
183.1738169404669
 31
0.0
  0
LINE
  5
4EF
330
1F
100
AcDbEntity
  8
0
100
AcDbLine
 10
55.6999978080978
 20
352.7738169404667
 30
0.0
 11
55.6999978080978
 21
183.1738169404669
 31
0.0
  0
LINE
  5
4F0
330
1F
100
AcDbEntity
  8
0
100
AcDbLine
 10
11.09999780809494
 20
197.9738169404669
 30
0.0
 11
11.09999780809379
 21
183.1738169404669
 31
0.0
  0
ARC
  5
4F1
330
1F
100
AcDbEntity
  8
0
100
AcDbCircle
 10
4.199997808097805
 20
197.9738169404669
 30
0.0
 40
6.899999999996
100
AcDbArc
 50
0.0
 51
55.58261128953514
  0
LINE
  5
4F2
330
1F
100
AcDbEntity
  8
0
100
AcDbLine
 10
8.099997808097667
 20
352.7738169404667
 30
0.0
 11
8.099997808097667
 21
203.6659167287658
 31
0.0
  0
LINE
  5
4F3
330
1F
100
AcDbEntity
  8
0
100
AcDbLine
 10
55.6999978080978
 20
352.7738169404667
 30
0.0
 11
8.099997808097667
 21
352.7738169404667
 31
0.0
  0
LINE
  5
4F4
330
1F
100
AcDbEntity
  8
0
100
AcDbLine
 10
25.19999793001578
 20
260.1738167811228
 30
0.0
 11
25.19999793001578
 21
256.5738167811228
 31
0.0
  0
LINE
  5
4F5
330
1F
100
AcDbEntity
  8
0
100
AcDbLine
 10
23.59999793001589
 20
271.4738167811229
 30
0.0
 11
23.59999793001589
 21
260.1738167811228
 31
0.0
  0
LINE
  5
4F6
330
1F
100
AcDbEntity
  8
0
100
AcDbLine
 10
12.99999793001575
 20
271.4738167811229
 30
0.0
 11
23.59999793001589
 21
271.4738167811229
 31
0.0
  0
LINE
  5
4F7
330
1F
100
AcDbEntity
  8
0
100
AcDbLine
 10
23.59999793001589
 20
239.5738167811229
 30
0.0
 11
25.19999793001578
 21
239.5738167811229
 31
0.0
  0
LINE
  5
4F8
330
1F
100
AcDbEntity
  8
0
100
AcDbLine
 10
23.59999793001589
 20
256.5738167811228
 30
0.0
 11
25.19999793001578
 21
256.5738167811228
 31
0.0
  0
LINE
  5
4F9
330
1F
100
AcDbEntity
  8
0
100
AcDbLine
 10
23.59999793001589
 20
260.1738167811228
 30
0.0
 11
25.19999793001578
 21
260.1738167811228
 31
0.0
  0
LINE
  5
4FA
330
1F
100
AcDbEntity
  8
0
100
AcDbLine
 10
23.59999793001589
 20
243.1738167811229
 30
0.0
 11
25.19999793001578
 21
243.1738167811229
 31
0.0
  0
LINE
  5
4FB
330
1F
100
AcDbEntity
  8
0
100
AcDbLine
 10
25.19999793001578
 20
243.1738167811229
 30
0.0
 11
25.19999793001578
 21
239.5738167811229
 31
0.0
  0
LINE
  5
4FC
330
1F
100
AcDbEntity
  8
0
100
AcDbLine
 10
23.59999793001589
 20
256.5738167811228
 30
0.0
 11
23.59999793001589
 21
243.1738167811229
 31
0.0
  0
LINE
  5
4FD
330
1F
100
AcDbEntity
  8
0
100
AcDbLine
 10
23.59999793001589
 20
185.1738167811229
 30
0.0
 11
12.99999793001575
 21
185.1738167811229
 31
0.0
  0
LINE
  5
4FE
330
1F
100
AcDbEntity
  8
0
100
AcDbLine
 10
23.59999793001589
 20
239.5738167811229
 30
0.0
 11
23.59999793001589
 21
185.1738167811229
 31
0.0
  0
LINE
  5
4FF
330
1F
100
AcDbEntity
  8
0
100
AcDbLine
 10
12.99999793001575
 20
271.4738167811229
 30
0.0
 11
12.99999793001575
 21
185.1738167811229
 31
0.0
  0
LINE
  5
500
330
1F
100
AcDbEntity
  8
0
100
AcDbLine
 10
12.99999793001575
 20
275.9738167811228
 30
0.0
 11
25.39999793001584
 21
275.9738167811228
 31
0.0
  0
LINE
  5
501
330
1F
100
AcDbEntity
  8
0
100
AcDbLine
 10
22.89999793001583
 20
339.0738167811227
 30
0.0
 11
22.89999793001583
 21
331.0738167811227
 31
0.0
  0
LINE
  5
502
330
1F
100
AcDbEntity
  8
0
100
AcDbLine
 10
12.99999793001575
 20
306.0738167811227
 30
0.0
 11
22.29999793001569
 21
306.0738167811227
 31
0.0
  0
LINE
  5
503
330
1F
100
AcDbEntity
  8
0
100
AcDbLine
 10
22.29999793001569
 20
322.8738167811227
 30
0.0
 11
25.89999793001584
 21
322.8738167811227
 31
0.0
  0
CIRCLE
  5
504
330
1F
100
AcDbEntity
  8
0
100
AcDbCircle
 10
16.59999793001588
 20
342.9738167811228
 30
0.0
 40
1.399999999999999
  0
LINE
  5
505
330
1F
100
AcDbEntity
  8
0
100
AcDbLine
 10
12.99999793001575
 20
302.1738167811228
 30
0.0
 11
12.99999793001575
 21
275.9738167811228
 31
0.0
  0
LINE
  5
506
330
1F
100
AcDbEntity
  8
0
100
AcDbLine
 10
22.89999793001583
 20
331.0738167811227
 30
0.0
 11
25.89999793001584
 21
331.0738167811227
 31
0.0
  0
LINE
  5
507
330
1F
100
AcDbEntity
  8
0
100
AcDbLine
 10
12.99999793001575
 20
302.1738167811228
 30
0.0
 11
25.39999793001584
 21
302.1738167811228
 31
0.0
  0
CIRCLE
  5
508
330
1F
100
AcDbEntity
  8
0
100
AcDbCircle
 10
16.59999793001588
 20
347.7738167811228
 30
0.0
 40
1.399999999999999
  0
CIRCLE
  5
509
330
1F
100
AcDbEntity
  8
0
100
AcDbCircle
 10
21.69999793001578
 20
347.7738167811228
 30
0.0
 40
1.399999999999999
  0
LINE
  5
50A
330
1F
100
AcDbEntity
  8
0
100
AcDbLine
 10
25.89999793001584
 20
331.0738167811227
 30
0.0
 11
25.89999793001584
 21
322.8738167811227
 31
0.0
  0
LINE
  5
50B
330
1F
100
AcDbEntity
  8
0
100
AcDbLine
 10
22.89999793001583
 20
339.0738167811227
 30
0.0
 11
12.99999793001575
 21
339.0738167811227
 31
0.0
  0
LINE
  5
50C
330
1F
100
AcDbEntity
  8
0
100
AcDbLine
 10
12.99999793001575
 20
339.0738167811227
 30
0.0
 11
12.99999793001575
 21
306.0738167811227
 31
0.0
  0
CIRCLE
  5
50D
330
1F
100
AcDbEntity
  8
0
100
AcDbCircle
 10
21.69999793001578
 20
342.9738167811228
 30
0.0
 40
1.399999999999999
  0
LINE
  5
50E
330
1F
100
AcDbEntity
  8
0
100
AcDbLine
 10
22.29999793001569
 20
322.8738167811227
 30
0.0
 11
22.29999793001569
 21
306.0738167811227
 31
0.0
  0
LINE
  5
50F
330
1F
100
AcDbEntity
  8
0
100
AcDbLine
 10
49.99999793001689
 20
230.6738167811229
 30
0.0
 11
38.59999793001589
 21
230.6738167811229
 31
0.0
  0
LINE
  5
510
330
1F
100
AcDbEntity
  8
0
100
AcDbLine
 10
49.99999793001689
 20
232.6738167811229
 30
0.0
 11
38.59999793001589
 21
232.6738167811229
 31
0.0
  0
LINE
  5
511
330
1F
100
AcDbEntity
  8
0
100
AcDbLine
 10
49.99999793001689
 20
267.5738167811227
 30
0.0
 11
38.59999793001589
 21
267.5738167811227
 31
0.0
  0
LINE
  5
512
330
1F
100
AcDbEntity
  8
0
100
AcDbLine
 10
49.99999793001689
 20
267.5738167811227
 30
0.0
 11
49.99999793001689
 21
232.6738167811229
 31
0.0
  0
LINE
  5
513
330
1F
100
AcDbEntity
  8
0
100
AcDbLine
 10
49.99999793001689
 20
230.6738167811229
 30
0.0
 11
49.99999793001689
 21
185.1738167811229
 31
0.0
  0
LINE
  5
514
330
1F
100
AcDbEntity
  8
0
100
AcDbLine
 10
38.59999793001589
 20
230.6738167811229
 30
0.0
 11
38.59999793001589
 21
185.1738167811229
 31
0.0
  0
LINE
  5
515
330
1F
100
AcDbEntity
  8
0
100
AcDbLine
 10
25.39999793001584
 20
302.1738167811228
 30
0.0
 11
25.39999793001584
 21
275.9738167811228
 31
0.0
  0
CIRCLE
  5
516
330
1F
100
AcDbEntity
  8
0
100
AcDbCircle
 10
18.24999780809775
 20
334.8038169404667
 30
0.0
 40
1.290290050200999
  0
LINE
  5
517
330
1F
100
AcDbEntity
  8
0
100
AcDbLine
 10
21.99999780809775
 20
338.5538169404668
 30
0.0
 11
14.09999780809767
 21
338.5538169404668
 31
0.0
  0
LINE
  5
518
330
1F
100
AcDbEntity
  8
0
100
AcDbLine
 10
21.99999780809775
 20
331.0538169404678
 30
0.0
 11
14.09999780809767
 21
331.0538169404678
 31
0.0
  0
LINE
  5
519
330
1F
100
AcDbEntity
  8
0
100
AcDbLine
 10
21.99999780809775
 20
331.0538169404678
 30
0.0
 11
21.99999780809775
 21
338.5538169404668
 31
0.0
  0
LINE
  5
51A
330
1F
100
AcDbEntity
  8
0
100
AcDbLine
 10
14.49999780809775
 20
331.0538169404678
 30
0.0
 11
14.49999780809775
 21
338.5538169404668
 31
0.0
  0
LINE
  5
51B
330
1F
100
AcDbEntity
  8
0
100
AcDbLine
 10
14.09999780809767
 20
337.6438169404668
 30
0.0
 11
14.09999780809767
 21
338.5538169404668
 31
0.0
  0
LINE
  5
51C
330
1F
100
AcDbEntity
  8
0
100
AcDbLine
 10
14.0999978080988
 20
337.6438169404678
 30
0.0
 11
14.49999780809775
 21
337.6438169404678
 31
0.0
  0
LINE
  5
51D
330
1F
100
AcDbEntity
  8
0
100
AcDbLine
 10
14.0999978080988
 20
337.0438169404678
 30
0.0
 11
14.49999780809775
 21
337.0438169404678
 31
0.0
  0
LINE
  5
51E
330
1F
100
AcDbEntity
  8
0
100
AcDbLine
 10
14.0999978080988
 20
331.9638169404676
 30
0.0
 11
14.49999780809775
 21
331.9638169404676
 31
0.0
  0
LINE
  5
51F
330
1F
100
AcDbEntity
  8
0
100
AcDbLine
 10
14.0999978080988
 20
332.5638169404677
 30
0.0
 11
14.49999780809775
 21
332.5638169404677
 31
0.0
  0
LINE
  5
520
330
1F
100
AcDbEntity
  8
0
100
AcDbLine
 10
14.0999978080988
 20
335.1038169404678
 30
0.0
 11
14.49999780809775
 21
335.1038169404678
 31
0.0
  0
LINE
  5
521
330
1F
100
AcDbEntity
  8
0
100
AcDbLine
 10
14.0999978080988
 20
334.5038169404678
 30
0.0
 11
14.49999780809775
 21
334.5038169404678
 31
0.0
  0
LINE
  5
522
330
1F
100
AcDbEntity
  8
0
100
AcDbLine
 10
14.09999780809767
 20
331.0538169404678
 30
0.0
 11
14.09999780809767
 21
331.9638169404676
 31
0.0
  0
LINE
  5
523
330
1F
100
AcDbEntity
  8
0
100
AcDbLine
 10
14.09999780809767
 20
307.0138169404667
 30
0.0
 11
21.34999780809879
 21
307.0138169404667
 31
0.0
  0
CIRCLE
  5
524
330
1F
100
AcDbEntity
  8
0
100
AcDbCircle
 10
17.59999780809766
 20
319.9638169404668
 30
0.0
 40
1.0
  0
CIRCLE
  5
525
330
1F
100
AcDbEntity
  8
0
100
AcDbCircle
 10
17.59999780809766
 20
316.4638169404668
 30
0.0
 40
1.0
  0
CIRCLE
  5
526
330
1F
100
AcDbEntity
  8
0
100
AcDbCircle
 10
17.59999780809766
 20
312.9638169404668
 30
0.0
 40
1.0
  0
CIRCLE
  5
527
330
1F
100
AcDbEntity
  8
0
100
AcDbCircle
 10
17.59999780809766
 20
309.4638169404668
 30
0.0
 40
1.0
  0
LINE
  5
528
330
1F
100
AcDbEntity
  8
0
100
AcDbLine
 10
21.34999780809879
 20
307.0138169404667
 30
0.0
 11
21.34999780809879
 21
322.4138169404668
 31
0.0
  0
LINE
  5
529
330
1F
100
AcDbEntity
  8
0
100
AcDbLine
 10
21.34999780809879
 20
322.4138169404668
 30
0.0
 11
14.09999780809767
 21
322.4138169404668
 31
0.0
  0
LINE
  5
52A
330
1F
100
AcDbEntity
  8
0
100
AcDbLine
 10
14.09999780809767
 20
322.4138169404668
 30
0.0
 11
14.09999780809767
 21
307.0138169404667
 31
0.0
  0
LINE
  5
52B
330
1F
100
AcDbEntity
  8
0
100
AcDbLine
 10
24.29999780809885
 20
324.863816940467
 30
0.0
 11
19.52450287910687
 21
324.863816940467
 31
0.0
  0
LINE
  5
52C
330
1F
100
AcDbEntity
  8
0
100
AcDbLine
 10
24.29999780809885
 20
328.6038169404669
 30
0.0
 11
19.52450287910687
 21
328.6038169404669
 31
0.0
  0
LINE
  5
52D
330
1F
100
AcDbEntity
  8
0
100
AcDbLine
 10
24.29999780809885
 20
323.4138169404668
 30
0.0
 11
14.0999978080988
 21
323.4138169404668
 31
0.0
  0
LINE
  5
52E
330
1F
100
AcDbEntity
  8
0
100
AcDbLine
 10
24.29999780809885
 20
330.0538169404668
 30
0.0
 11
14.0999978080988
 21
330.0538169404668
 31
0.0
  0
LINE
  5
52F
330
1F
100
AcDbEntity
  8
0
100
AcDbLine
 10
24.29999780809885
 20
327.4038169404668
 30
0.0
 11
21.29999780809885
 21
327.4038169404668
 31
0.0
  0
LINE
  5
530
330
1F
100
AcDbEntity
  8
0
100
AcDbLine
 10
24.29999780809885
 20
326.0638169404667
 30
0.0
 11
21.29999780809885
 21
326.0638169404667
 31
0.0
  0
LINE
  5
531
330
1F
100
AcDbEntity
  8
0
100
AcDbLine
 10
24.29999780809885
 20
324.863816940467
 30
0.0
 11
21.29999780809885
 21
324.863816940467
 31
0.0
  0
LINE
  5
532
330
1F
100
AcDbEntity
  8
0
100
AcDbLine
 10
21.29999780809885
 20
327.4038169404668
 30
0.0
 11
21.29999780809885
 21
328.6038169404669
 31
0.0
  0
LINE
  5
533
330
1F
100
AcDbEntity
  8
0
100
AcDbLine
 10
21.29999780809885
 20
324.863816940467
 30
0.0
 11
21.29999780809885
 21
326.0638169404667
 31
0.0
  0
LINE
  5
534
330
1F
100
AcDbEntity
  8
0
100
AcDbLine
 10
22.79999780809885
 20
326.0638169404667
 30
0.0
 11
22.79999780809885
 21
327.4038169404668
 31
0.0
  0
LINE
  5
535
330
1F
100
AcDbEntity
  8
0
100
AcDbLine
 10
23.29999780809885
 20
327.4038169404668
 30
0.0
 11
23.29999780809885
 21
328.6038169404669
 31
0.0
  0
LINE
  5
536
330
1F
100
AcDbEntity
  8
0
100
AcDbLine
 10
23.29999780809885
 20
324.863816940467
 30
0.0
 11
23.29999780809885
 21
326.0638169404667
 31
0.0
  0
LINE
  5
537
330
1F
100
AcDbEntity
  8
0
100
AcDbLine
 10
24.29999780809885
 20
323.4138169404668
 30
0.0
 11
24.29999780809885
 21
330.0538169404668
 31
0.0
  0
LINE
  5
538
330
1F
100
AcDbEntity
  8
0
100
AcDbLine
 10
19.52450287910687
 20
328.6038169404669
 30
0.0
 11
19.52450287910687
 21
324.863816940467
 31
0.0
  0
LINE
  5
539
330
1F
100
AcDbEntity
  8
0
100
AcDbLine
 10
14.0999978080988
 20
323.4138169404668
 30
0.0
 11
14.0999978080988
 21
330.0538169404668
 31
0.0
  0
LINE
  5
53A
330
1F
100
AcDbEntity
  8
0
100
AcDbLine
 10
14.0999978080988
 20
293.6338169404669
 30
0.0
 11
15.59999780809766
 21
293.6338169404669
 31
0.0
  0
LINE
  5
53B
330
1F
100
AcDbEntity
  8
0
100
AcDbLine
 10
14.0999978080988
 20
288.5538169404668
 30
0.0
 11
15.59999780809766
 21
288.5538169404668
 31
0.0
  0
LINE
  5
53C
330
1F
100
AcDbEntity
  8
0
100
AcDbLine
 10
14.0999978080988
 20
283.4738169404668
 30
0.0
 11
15.59999780809766
 21
283.4738169404668
 31
0.0
  0
LINE
  5
53D
330
1F
100
AcDbEntity
  8
0
100
AcDbLine
 10
14.09999780809767
 20
298.1338169404669
 30
0.0
 11
15.59999780809766
 21
298.1338169404669
 31
0.0
  0
LINE
  5
53E
330
1F
100
AcDbEntity
  8
0
100
AcDbLine
 10
14.09999780809767
 20
276.9738169404669
 30
0.0
 11
15.59999780809766
 21
276.9738169404669
 31
0.0
  0
LINE
  5
53F
330
1F
100
AcDbEntity
  8
0
100
AcDbLine
 10
19.59999780809766
 20
293.1338169404668
 30
0.0
 11
20.59999780809766
 21
293.1338169404668
 31
0.0
  0
LINE
  5
540
330
1F
100
AcDbEntity
  8
0
100
AcDbLine
 10
19.59999780809766
 20
288.0538169404668
 30
0.0
 11
20.59999780809766
 21
288.0538169404668
 31
0.0
  0
LINE
  5
541
330
1F
100
AcDbEntity
  8
0
100
AcDbLine
 10
19.59999780809766
 20
282.9738169404668
 30
0.0
 11
20.59999780809766
 21
282.9738169404668
 31
0.0
  0
LINE
  5
542
330
1F
100
AcDbEntity
  8
0
100
AcDbLine
 10
15.59999780809766
 20
301.1338169404668
 30
0.0
 11
16.59999780809767
 21
301.1338169404668
 31
0.0
  0
LINE
  5
543
330
1F
100
AcDbEntity
  8
0
100
AcDbLine
 10
16.59999780809767
 20
301.1338169404668
 30
0.0
 11
16.59999780809767
 21
276.9738169404669
 31
0.0
  0
LINE
  5
544
330
1F
100
AcDbEntity
  8
0
100
AcDbLine
 10
24.08499780809778
 20
301.1338169404668
 30
0.0
 11
23.58499780809778
 21
301.1338169404668
 31
0.0
  0
LINE
  5
545
330
1F
100
AcDbEntity
  8
0
100
AcDbLine
 10
23.58499780809778
 20
301.1338169404668
 30
0.0
 11
23.58499780809778
 21
276.9738169404669
 31
0.0
  0
LINE
  5
546
330
1F
100
AcDbEntity
  8
0
100
AcDbLine
 10
24.94499780809769
 20
301.1338169404668
 30
0.0
 11
24.94499780809769
 21
276.9738169404669
 31
0.0
  0
LINE
  5
547
330
1F
100
AcDbEntity
  8
0
100
AcDbLine
 10
15.59999780809766
 20
301.1338169404668
 30
0.0
 11
15.59999780809766
 21
300.1338169404669
 31
0.0
  0
LINE
  5
548
330
1F
100
AcDbEntity
  8
0
100
AcDbLine
 10
16.59999780809767
 20
300.1338169404669
 30
0.0
 11
23.58499780809778
 21
300.1338169404669
 31
0.0
  0
LINE
  5
549
330
1F
100
AcDbEntity
  8
0
100
AcDbLine
 10
15.59999780809766
 20
276.9738169404669
 30
0.0
 11
15.59999780809766
 21
277.9738169404668
 31
0.0
  0
LINE
  5
54A
330
1F
100
AcDbEntity
  8
0
100
AcDbLine
 10
16.59999780809767
 20
277.9738169404668
 30
0.0
 11
23.58499780809778
 21
277.9738169404668
 31
0.0
  0
LINE
  5
54B
330
1F
100
AcDbEntity
  8
0
100
AcDbLine
 10
15.59999780809766
 20
276.9738169404669
 30
0.0
 11
24.94499780809769
 21
276.9738169404669
 31
0.0
  0
LINE
  5
54C
330
1F
100
AcDbEntity
  8
0
100
AcDbLine
 10
24.94499780809769
 20
301.1338169404668
 30
0.0
 11
15.59999780809766
 21
301.1338169404668
 31
0.0
  0
LINE
  5
54D
330
1F
100
AcDbEntity
  8
0
100
AcDbLine
 10
15.59999780809766
 20
301.1338169404668
 30
0.0
 11
15.59999780809766
 21
276.9738169404669
 31
0.0
  0
LINE
  5
54E
330
1F
100
AcDbEntity
  8
0
100
AcDbLine
 10
20.59999780809766
 20
293.1338169404668
 30
0.0
 11
20.59999780809766
 21
295.1338169404668
 31
0.0
  0
LINE
  5
54F
330
1F
100
AcDbEntity
  8
0
100
AcDbLine
 10
20.59999780809766
 20
295.1338169404668
 30
0.0
 11
19.59999780809766
 21
295.1338169404668
 31
0.0
  0
LINE
  5
550
330
1F
100
AcDbEntity
  8
0
100
AcDbLine
 10
19.59999780809766
 20
295.1338169404668
 30
0.0
 11
19.59999780809766
 21
293.1338169404668
 31
0.0
  0
LINE
  5
551
330
1F
100
AcDbEntity
  8
0
100
AcDbLine
 10
20.59999780809766
 20
288.0538169404668
 30
0.0
 11
20.59999780809766
 21
290.0538169404668
 31
0.0
  0
LINE
  5
552
330
1F
100
AcDbEntity
  8
0
100
AcDbLine
 10
20.59999780809766
 20
290.0538169404668
 30
0.0
 11
19.59999780809766
 21
290.0538169404668
 31
0.0
  0
LINE
  5
553
330
1F
100
AcDbEntity
  8
0
100
AcDbLine
 10
19.59999780809766
 20
290.0538169404668
 30
0.0
 11
19.59999780809766
 21
288.0538169404668
 31
0.0
  0
LINE
  5
554
330
1F
100
AcDbEntity
  8
0
100
AcDbLine
 10
20.59999780809766
 20
282.9738169404668
 30
0.0
 11
20.59999780809766
 21
284.9738169404668
 31
0.0
  0
LINE
  5
555
330
1F
100
AcDbEntity
  8
0
100
AcDbLine
 10
20.59999780809766
 20
284.9738169404668
 30
0.0
 11
19.59999780809766
 21
284.9738169404668
 31
0.0
  0
LINE
  5
556
330
1F
100
AcDbEntity
  8
0
100
AcDbLine
 10
19.59999780809766
 20
284.9738169404668
 30
0.0
 11
19.59999780809766
 21
282.9738169404668
 31
0.0
  0
LINE
  5
557
330
1F
100
AcDbEntity
  8
0
100
AcDbLine
 10
15.59999780809766
 20
276.9738169404669
 30
0.0
 11
15.59999780809766
 21
279.9738169404668
 31
0.0
  0
LINE
  5
558
330
1F
100
AcDbEntity
  8
0
100
AcDbLine
 10
15.59999780809766
 20
279.9738169404668
 30
0.0
 11
14.09999780809767
 21
279.9738169404668
 31
0.0
  0
LINE
  5
559
330
1F
100
AcDbEntity
  8
0
100
AcDbLine
 10
14.09999780809767
 20
279.9738169404668
 30
0.0
 11
14.09999780809767
 21
276.9738169404669
 31
0.0
  0
LINE
  5
55A
330
1F
100
AcDbEntity
  8
0
100
AcDbLine
 10
15.59999780809766
 20
283.4738169404668
 30
0.0
 11
15.59999780809766
 21
284.4738169404667
 31
0.0
  0
LINE
  5
55B
330
1F
100
AcDbEntity
  8
0
100
AcDbLine
 10
15.59999780809766
 20
284.4738169404667
 30
0.0
 11
14.0999978080988
 21
284.4738169404667
 31
0.0
  0
LINE
  5
55C
330
1F
100
AcDbEntity
  8
0
100
AcDbLine
 10
15.59999780809766
 20
288.5538169404668
 30
0.0
 11
15.59999780809766
 21
289.5538169404666
 31
0.0
  0
LINE
  5
55D
330
1F
100
AcDbEntity
  8
0
100
AcDbLine
 10
15.59999780809766
 20
289.5538169404666
 30
0.0
 11
14.0999978080988
 21
289.5538169404666
 31
0.0
  0
LINE
  5
55E
330
1F
100
AcDbEntity
  8
0
100
AcDbLine
 10
15.59999780809766
 20
293.6338169404669
 30
0.0
 11
15.59999780809766
 21
294.6338169404668
 31
0.0
  0
LINE
  5
55F
330
1F
100
AcDbEntity
  8
0
100
AcDbLine
 10
15.59999780809766
 20
294.6338169404668
 30
0.0
 11
14.0999978080988
 21
294.6338169404668
 31
0.0
  0
LINE
  5
560
330
1F
100
AcDbEntity
  8
0
100
AcDbLine
 10
15.59999780809766
 20
298.1338169404669
 30
0.0
 11
15.59999780809766
 21
301.1338169404668
 31
0.0
  0
LINE
  5
561
330
1F
100
AcDbEntity
  8
0
100
AcDbLine
 10
15.59999780809766
 20
301.1338169404668
 30
0.0
 11
14.09999780809767
 21
301.1338169404668
 31
0.0
  0
LINE
  5
562
330
1F
100
AcDbEntity
  8
0
100
AcDbLine
 10
14.09999780809767
 20
301.1338169404668
 30
0.0
 11
14.09999780809767
 21
298.1338169404669
 31
0.0
  0
LINE
  5
563
330
1F
100
AcDbEntity
  8
0
100
AcDbLine
 10
14.09999780809767
 20
185.9738169404669
 30
0.0
 11
22.6999978080978
 21
185.9738169404669
 31
0.0
  0
CIRCLE
  5
564
330
1F
100
AcDbEntity
  8
0
100
AcDbCircle
 10
18.09999780809766
 20
193.5938169404665
 30
0.0
 40
2.0
  0
CIRCLE
  5
565
330
1F
100
AcDbEntity
  8
0
100
AcDbCircle
 10
18.09999780809766
 20
198.6738169404669
 30
0.0
 40
2.0
  0
CIRCLE
  5
566
330
1F
100
AcDbEntity
  8
0
100
AcDbCircle
 10
18.09999780809766
 20
198.6738169404669
 30
0.0
 40
2.0
  0
CIRCLE
  5
567
330
1F
100
AcDbEntity
  8
0
100
AcDbCircle
 10
18.09999780809766
 20
203.7538169404676
 30
0.0
 40
2.0
  0
CIRCLE
  5
568
330
1F
100
AcDbEntity
  8
0
100
AcDbCircle
 10
18.09999780809766
 20
203.7538169404676
 30
0.0
 40
2.0
  0
CIRCLE
  5
569
330
1F
100
AcDbEntity
  8
0
100
AcDbCircle
 10
18.09999780809766
 20
213.9138169404669
 30
0.0
 40
2.0
  0
CIRCLE
  5
56A
330
1F
100
AcDbEntity
  8
0
100
AcDbCircle
 10
18.09999780809766
 20
213.9138169404669
 30
0.0
 40
2.0
  0
CIRCLE
  5
56B
330
1F
100
AcDbEntity
  8
0
100
AcDbCircle
 10
18.09999780809766
 20
218.9938169404677
 30
0.0
 40
2.0
  0
CIRCLE
  5
56C
330
1F
100
AcDbEntity
  8
0
100
AcDbCircle
 10
18.09999780809766
 20
188.8438169404665
 30
0.0
 40
1.0
  0
CIRCLE
  5
56D
330
1F
100
AcDbEntity
  8
0
100
AcDbCircle
 10
18.09999780809766
 20
188.8438169404665
 30
0.0
 40
1.5
  0
CIRCLE
  5
56E
330
1F
100
AcDbEntity
  8
0
100
AcDbCircle
 10
18.09999780809766
 20
223.7438169404676
 30
0.0
 40
1.0
  0
CIRCLE
  5
56F
330
1F
100
AcDbEntity
  8
0
100
AcDbCircle
 10
18.09999780809766
 20
223.7438169404676
 30
0.0
 40
1.5
  0
CIRCLE
  5
570
330
1F
100
AcDbEntity
  8
0
100
AcDbCircle
 10
18.09999780809766
 20
208.8338169404665
 30
0.0
 40
2.0
  0
LINE
  5
571
330
1F
100
AcDbEntity
  8
0
100
AcDbLine
 10
22.6999978080978
 20
185.9738169404669
 30
0.0
 11
22.6999978080978
 21
226.6138169404669
 31
0.0
  0
LINE
  5
572
330
1F
100
AcDbEntity
  8
0
100
AcDbLine
 10
22.6999978080978
 20
226.6138169404669
 30
0.0
 11
14.09999780809767
 21
226.6138169404669
 31
0.0
  0
LINE
  5
573
330
1F
100
AcDbEntity
  8
0
100
AcDbLine
 10
14.09999780809767
 20
226.6138169404669
 30
0.0
 11
14.09999780809767
 21
185.9738169404669
 31
0.0
  0
LINE
  5
574
330
1F
100
AcDbEntity
  8
0
100
AcDbLine
 10
47.4499978080987
 20
204.0901000830589
 30
0.0
 11
47.4499978080987
 21
219.0575337978758
 31
0.0
  0
LINE
  5
575
330
1F
100
AcDbEntity
  8
0
100
AcDbLine
 10
41.14999780809876
 20
219.6738169404669
 30
0.0
 11
41.14999780809876
 21
203.4738169404667
 31
0.0
  0
LINE
  5
576
330
1F
100
AcDbEntity
  8
0
100
AcDbLine
 10
42.69999780809871
 20
220.1738169404669
 30
0.0
 11
42.69999780809871
 21
202.9738169404666
 31
0.0
  0
LINE
  5
577
330
1F
100
AcDbEntity
  8
0
100
AcDbLine
 10
45.89999780809875
 20
202.9738169404666
 30
0.0
 11
45.89999780809875
 21
220.1738169404669
 31
0.0
  0
LINE
  5
578
330
1F
100
AcDbEntity
  8
0
100
AcDbLine
 10
39.69999780809871
 20
229.1738169404669
 30
0.0
 11
39.69999780809871
 21
193.9738169404669
 31
0.0
  0
LINE
  5
579
330
1F
100
AcDbEntity
  8
0
100
AcDbLine
 10
48.79999780809885
 20
192.9738169404666
 30
0.0
 11
48.79999780809885
 21
230.1738169404669
 31
0.0
  0
LINE
  5
57A
330
1F
100
AcDbEntity
  8
0
100
AcDbLine
 10
49.09999780809879
 20
200.3738169404665
 30
0.0
 11
49.09999780809879
 21
193.2738169404666
 31
0.0
  0
CIRCLE
  5
57B
330
1F
100
AcDbEntity
  8
0
100
AcDbCircle
 10
44.29999780809885
 20
195.9438169404669
 30
0.0
 40
1.399999999999999
  0
ARC
  5
57C
330
1F
100
AcDbEntity
  8
0
100
AcDbCircle
 10
48.79999780809885
 20
193.2738169404666
 30
0.0
 40
0.3
100
AcDbArc
 50
270.0
 51
0.0
  0
LINE
  5
57D
330
1F
100
AcDbEntity
  8
0
100
AcDbLine
 10
40.4999978080989
 20
192.9738169404666
 30
0.0
 11
48.79999780809885
 21
192.9738169404666
 31
0.0
  0
ARC
  5
57E
330
1F
100
AcDbEntity
  8
0
100
AcDbCircle
 10
40.4999978080989
 20
193.4738169404669
 30
0.0
 40
0.5
100
AcDbArc
 50
180.0
 51
270.0
  0
LINE
  5
57F
330
1F
100
AcDbEntity
  8
0
100
AcDbLine
 10
39.9999978080989
 20
193.9738169404669
 30
0.0
 11
39.9999978080989
 21
193.4738169404669
 31
0.0
  0
LINE
  5
580
330
1F
100
AcDbEntity
  8
0
100
AcDbLine
 10
39.69999780809871
 20
193.9738169404669
 30
0.0
 11
48.79999780809885
 21
193.9738169404669
 31
0.0
  0
ARC
  5
581
330
1F
100
AcDbEntity
  8
0
100
AcDbCircle
 10
45.4499978080987
 20
204.0901000830589
 30
0.0
 40
2.0
100
AcDbArc
 50
284.9999999999943
 51
0.0
  0
LINE
  5
582
330
1F
100
AcDbEntity
  8
0
100
AcDbLine
 10
43.66763589830384
 20
201.5419652878889
 30
0.0
 11
45.9676358983038
 21
202.1582484304796
 31
0.0
  0
ARC
  5
583
330
1F
100
AcDbEntity
  8
0
100
AcDbCircle
 10
43.14999780809875
 20
203.4738169404667
 30
0.0
 40
2.0
100
AcDbArc
 50
180.0
 51
284.9999999999943
  0
LINE
  5
584
330
1F
100
AcDbEntity
  8
0
100
AcDbLine
 10
42.69999780809871
 20
202.9738169404666
 30
0.0
 11
45.89999780809875
 21
202.9738169404666
 31
0.0
  0
LINE
  5
585
330
1F
100
AcDbEntity
  8
0
100
AcDbLine
 10
48.79999780809885
 20
200.3738169404665
 30
0.0
 11
49.09999780809879
 21
200.3738169404665
 31
0.0
  0
LINE
  5
586
330
1F
100
AcDbEntity
  8
0
100
AcDbLine
 10
47.4499978080987
 20
197.9738169404669
 30
0.0
 11
47.4499978080987
 21
200.3738169404665
 31
0.0
  0
LINE
  5
587
330
1F
100
AcDbEntity
  8
0
100
AcDbLine
 10
41.14999780809876
 20
200.3738169404665
 30
0.0
 11
41.14999780809876
 21
197.9738169404669
 31
0.0
  0
LINE
  5
588
330
1F
100
AcDbEntity
  8
0
100
AcDbLine
 10
41.14999780809876
 20
200.3738169404665
 30
0.0
 11
47.4499978080987
 21
200.3738169404665
 31
0.0
  0
LINE
  5
589
330
1F
100
AcDbEntity
  8
0
100
AcDbLine
 10
41.14999780809876
 20
198.4738169404669
 30
0.0
 11
47.4499978080987
 21
198.4738169404669
 31
0.0
  0
LINE
  5
58A
330
1F
100
AcDbEntity
  8
0
100
AcDbLine
 10
41.14999780809876
 20
197.9738169404669
 30
0.0
 11
47.4499978080987
 21
197.9738169404669
 31
0.0
  0
ARC
  5
58B
330
1F
100
AcDbEntity
  8
0
100
AcDbCircle
 10
48.79999780809885
 20
229.8738169404678
 30
0.0
 40
0.3
100
AcDbArc
 50
0.0
 51
90.0
  0
LINE
  5
58C
330
1F
100
AcDbEntity
  8
0
100
AcDbLine
 10
49.09999780809879
 20
229.8738169404678
 30
0.0
 11
49.09999780809879
 21
222.7738169404667
 31
0.0
  0
LINE
  5
58D
330
1F
100
AcDbEntity
  8
0
100
AcDbLine
 10
40.4999978080989
 20
230.1738169404669
 30
0.0
 11
48.79999780809885
 21
230.1738169404678
 31
0.0
  0
ARC
  5
58E
330
1F
100
AcDbEntity
  8
0
100
AcDbCircle
 10
45.4499978080987
 20
219.0575337978758
 30
0.0
 40
2.0
100
AcDbArc
 50
0.0
 51
75.00000000000555
  0
LINE
  5
58F
330
1F
100
AcDbEntity
  8
0
100
AcDbLine
 10
43.66763589830384
 20
221.6056685930448
 30
0.0
 11
45.9676358983038
 21
220.9893854504537
 31
0.0
  0
ARC
  5
590
330
1F
100
AcDbEntity
  8
0
100
AcDbCircle
 10
43.14999780809875
 20
219.6738169404669
 30
0.0
 40
2.0
100
AcDbArc
 50
75.00000000000555
 51
180.0
  0
LINE
  5
591
330
1F
100
AcDbEntity
  8
0
100
AcDbLine
 10
45.89999780809875
 20
220.1738169404669
 30
0.0
 11
42.69999780809871
 21
220.1738169404678
 31
0.0
  0
ARC
  5
592
330
1F
100
AcDbEntity
  8
0
100
AcDbCircle
 10
40.4999978080989
 20
229.6738169404668
 30
0.0
 40
0.5
100
AcDbArc
 50
90.0
 51
180.0
  0
LINE
  5
593
330
1F
100
AcDbEntity
  8
0
100
AcDbLine
 10
39.9999978080989
 20
229.6738169404668
 30
0.0
 11
39.9999978080989
 21
229.1738169404669
 31
0.0
  0
LINE
  5
594
330
1F
100
AcDbEntity
  8
0
100
AcDbLine
 10
39.69999780809871
 20
229.1738169404669
 30
0.0
 11
48.79999780809885
 21
229.1738169404669
 31
0.0
  0
LINE
  5
595
330
1F
100
AcDbEntity
  8
0
100
AcDbLine
 10
48.79999780809885
 20
222.7738169404667
 30
0.0
 11
49.09999780809879
 21
222.7738169404667
 31
0.0
  0
LINE
  5
596
330
1F
100
AcDbEntity
  8
0
100
AcDbLine
 10
47.4499978080987
 20
222.7738169404667
 30
0.0
 11
47.4499978080987
 21
225.1738169404677
 31
0.0
  0
LINE
  5
597
330
1F
100
AcDbEntity
  8
0
100
AcDbLine
 10
41.14999780809876
 20
225.1738169404677
 30
0.0
 11
41.14999780809876
 21
222.7738169404667
 31
0.0
  0
LINE
  5
598
330
1F
100
AcDbEntity
  8
0
100
AcDbLine
 10
41.14999780809876
 20
222.7738169404667
 30
0.0
 11
47.4499978080987
 21
222.7738169404667
 31
0.0
  0
LINE
  5
599
330
1F
100
AcDbEntity
  8
0
100
AcDbLine
 10
41.14999780809876
 20
224.6738169404669
 30
0.0
 11
47.4499978080987
 21
224.6738169404669
 31
0.0
  0
LINE
  5
59A
330
1F
100
AcDbEntity
  8
0
100
AcDbLine
 10
41.14999780809876
 20
225.1738169404668
 30
0.0
 11
47.4499978080987
 21
225.1738169404668
 31
0.0
  0
CIRCLE
  5
59B
330
1F
100
AcDbEntity
  8
0
100
AcDbCircle
 10
44.29999780809885
 20
227.2038169404667
 30
0.0
 40
1.399999999999999
  0
LINE
  5
59C
330
1F
100
AcDbEntity
  8
0
100
AcDbLine
 10
48.79999780809885
 20
215.3838169404679
 30
0.0
 11
49.09999780809879
 21
215.3838169404679
 31
0.0
  0
LINE
  5
59D
330
1F
100
AcDbEntity
  8
0
100
AcDbLine
 10
48.79999780809885
 20
214.1138169404678
 30
0.0
 11
49.09999780809879
 21
214.1138169404678
 31
0.0
  0
LINE
  5
59E
330
1F
100
AcDbEntity
  8
0
100
AcDbLine
 10
48.79999780809885
 20
212.8438169404677
 30
0.0
 11
49.09999780809879
 21
212.8438169404677
 31
0.0
  0
LINE
  5
59F
330
1F
100
AcDbEntity
  8
0
100
AcDbLine
 10
48.79999780809885
 20
211.5738169404679
 30
0.0
 11
49.09999780809879
 21
211.5738169404679
 31
0.0
  0
LINE
  5
5A0
330
1F
100
AcDbEntity
  8
0
100
AcDbLine
 10
48.79999780809885
 20
210.3038169404678
 30
0.0
 11
49.09999780809879
 21
210.3038169404678
 31
0.0
  0
LINE
  5
5A1
330
1F
100
AcDbEntity
  8
0
100
AcDbLine
 10
48.79999780809885
 20
209.033816940468
 30
0.0
 11
49.09999780809879
 21
209.033816940468
 31
0.0
  0
LINE
  5
5A2
330
1F
100
AcDbEntity
  8
0
100
AcDbLine
 10
48.79999780809885
 20
207.7638169404679
 30
0.0
 11
49.09999780809879
 21
207.7638169404679
 31
0.0
  0
LINE
  5
5A3
330
1F
100
AcDbEntity
  8
0
100
AcDbLine
 10
48.79999780809885
 20
217.9238169404678
 30
0.0
 11
49.09999780809879
 21
217.9238169404678
 31
0.0
  0
LINE
  5
5A4
330
1F
100
AcDbEntity
  8
0
100
AcDbLine
 10
48.79999780809885
 20
216.6538169404677
 30
0.0
 11
49.09999780809879
 21
216.6538169404677
 31
0.0
  0
LINE
  5
5A5
330
1F
100
AcDbEntity
  8
0
100
AcDbLine
 10
48.79999780809885
 20
215.3838169404679
 30
0.0
 11
49.09999780809879
 21
215.3838169404679
 31
0.0
  0
LINE
  5
5A6
330
1F
100
AcDbEntity
  8
0
100
AcDbLine
 10
48.79999780809885
 20
219.1938169404668
 30
0.0
 11
49.09999780809879
 21
219.1938169404668
 31
0.0
  0
LINE
  5
5A7
330
1F
100
AcDbEntity
  8
0
100
AcDbLine
 10
48.79999780809885
 20
217.9238169404678
 30
0.0
 11
49.09999780809879
 21
217.9238169404678
 31
0.0
  0
LINE
  5
5A8
330
1F
100
AcDbEntity
  8
0
100
AcDbLine
 10
48.79999780809885
 20
207.7638169404679
 30
0.0
 11
49.09999780809879
 21
207.7638169404679
 31
0.0
  0
LINE
  5
5A9
330
1F
100
AcDbEntity
  8
0
100
AcDbLine
 10
48.79999780809885
 20
206.4938169404679
 30
0.0
 11
49.09999780809879
 21
206.4938169404679
 31
0.0
  0
LINE
  5
5AA
330
1F
100
AcDbEntity
  8
0
100
AcDbLine
 10
48.79999780809885
 20
205.2238169404677
 30
0.0
 11
49.09999780809879
 21
205.2238169404677
 31
0.0
  0
LINE
  5
5AB
330
1F
100
AcDbEntity
  8
0
100
AcDbLine
 10
48.79999780809885
 20
203.9538169404678
 30
0.0
 11
49.09999780809879
 21
203.9538169404678
 31
0.0
  0
LINE
  5
5AC
330
1F
100
AcDbEntity
  8
0
100
AcDbLine
 10
14.0999978080988
 20
185.1738167811229
 30
0.0
 11
14.0999978080988
 21
271.4738167811229
 31
0.0
  0
LINE
  5
5AD
330
1F
100
AcDbEntity
  8
0
100
AcDbLine
 10
53.44721962194376
 20
172.9738169404669
 30
0.0
 11
51.43303218175788
 21
172.9738169404669
 31
0.0
  0
LINE
  5
5AE
330
1F
100
AcDbEntity
  8
0
100
AcDbLine
 10
36.56696343443877
 20
172.9738169404669
 30
0.0
 11
34.55277599425267
 21
172.9738169404669
 31
0.0
  0
LINE
  5
5AF
330
1F
100
AcDbEntity
  8
0
100
AcDbLine
 10
36.49999780809798
 20
180.9738169404669
 30
0.0
 11
36.49999780809798
 21
173.9738169404667
 31
0.0
  0
LINE
  5
5B0
330
1F
100
AcDbEntity
  8
0
100
AcDbLine
 10
53.49999780809799
 20
164.4738169404669
 30
0.0
 11
34.49999780809799
 21
164.4738169404669
 31
0.0
  0
ARC
  5
5B1
330
1F
100
AcDbEntity
  8
0
100
AcDbCircle
 10
43.99999780809799
 20
173.9738169404667
 30
0.0
 40
7.5
100
AcDbArc
 50
180.0
 51
0.0
  0
ARC
  5
5B2
330
1F
100
AcDbEntity
  8
0
100
AcDbCircle
 10
43.99999780809799
 20
173.9738169404667
 30
0.0
 40
9.5
100
AcDbArc
 50
186.042328419057
 51
353.9576715809428
  0
LINE
  5
5B3
330
1F
100
AcDbEntity
  8
0
100
AcDbLine
 10
34.49999780809799
 20
164.4738169404669
 30
0.0
 11
34.49999780809799
 21
180.9738169404669
 31
0.0
  0
LINE
  5
5B4
330
1F
100
AcDbEntity
  8
0
100
AcDbLine
 10
53.49999780809799
 20
164.4738169404669
 30
0.0
 11
53.49999780809799
 21
180.9738169404669
 31
0.0
  0
LINE
  5
5B5
330
1F
100
AcDbEntity
  8
0
100
AcDbLine
 10
51.499997808098
 20
180.9738169404669
 30
0.0
 11
51.499997808098
 21
173.9738169404667
 31
0.0
  0
LINE
  5
5B6
330
1F
100
AcDbEntity
  8
0
100
AcDbLine
 10
49.0999978080979
 20
185.9738169404669
 30
0.0
 11
49.0999978080979
 21
191.4738169404669
 31
0.0
  0
CIRCLE
  5
5B7
330
1F
100
AcDbEntity
  8
0
100
AcDbCircle
 10
45.66999780809783
 20
187.4738169404669
 30
0.0
 40
0.32
  0
CIRCLE
  5
5B8
330
1F
100
AcDbEntity
  8
0
100
AcDbCircle
 10
45.66999780809783
 20
189.9738169404669
 30
0.0
 40
0.32
  0
LINE
  5
5B9
330
1F
100
AcDbEntity
  8
0
100
AcDbLine
 10
42.59999780809788
 20
185.9738169404669
 30
0.0
 11
43.59999780809789
 21
185.9738169404669
 31
0.0
  0
LINE
  5
5BA
330
1F
100
AcDbEntity
  8
0
100
AcDbLine
 10
43.59999780809789
 20
185.9738169404669
 30
0.0
 11
43.59999780809789
 21
191.4738169404669
 31
0.0
  0
LINE
  5
5BB
330
1F
100
AcDbEntity
  8
0
100
AcDbLine
 10
43.59999780809789
 20
187.9738169404669
 30
0.0
 11
43.59999780809789
 21
189.4738169404669
 31
0.0
  0
LINE
  5
5BC
330
1F
100
AcDbEntity
  8
0
100
AcDbLine
 10
43.59999780809789
 20
189.4738169404669
 30
0.0
 11
42.59999780809788
 21
189.4738169404669
 31
0.0
  0
LINE
  5
5BD
330
1F
100
AcDbEntity
  8
0
100
AcDbLine
 10
42.59999780809788
 20
189.4738169404669
 30
0.0
 11
42.59999780809788
 21
187.9738169404669
 31
0.0
  0
LINE
  5
5BE
330
1F
100
AcDbEntity
  8
0
100
AcDbLine
 10
42.59999780809788
 20
187.9738169404669
 30
0.0
 11
43.59999780809789
 21
187.9738169404669
 31
0.0
  0
LINE
  5
5BF
330
1F
100
AcDbEntity
  8
0
100
AcDbLine
 10
49.0999978080979
 20
191.4738169404669
 30
0.0
 11
42.59999780809788
 21
191.4738169404669
 31
0.0
  0
LINE
  5
5C0
330
1F
100
AcDbEntity
  8
0
100
AcDbLine
 10
42.59999780809788
 20
191.4738169404669
 30
0.0
 11
42.59999780809788
 21
185.9738169404669
 31
0.0
  0
LINE
  5
5C1
330
1F
100
AcDbEntity
  8
0
100
AcDbLine
 10
42.59999780809788
 20
185.9738169404669
 30
0.0
 11
49.0999978080979
 21
185.9738169404669
 31
0.0
  0
CIRCLE
  5
5C2
330
1F
100
AcDbEntity
  8
0
100
AcDbCircle
 10
18.09999780809766
 20
238.6138169404669
 30
0.0
 40
0.75
  0
LINE
  5
5C3
330
1F
100
AcDbEntity
  8
0
100
AcDbLine
 10
22.59999780809767
 20
234.6138169404669
 30
0.0
 11
22.59999780809767
 21
265.1138169404668
 31
0.0
  0
LINE
  5
5C4
330
1F
100
AcDbEntity
  8
0
100
AcDbLine
 10
14.09999780809767
 20
270.4738169404669
 30
0.0
 11
14.09999780809767
 21
229.6138169404669
 31
0.0
  0
LINE
  5
5C5
330
1F
100
AcDbEntity
  8
0
100
AcDbLine
 10
20.29999780809771
 20
239.9238169404668
 30
0.0
 11
20.29999780809771
 21
237.3038169404666
 31
0.0
  0
ARC
  5
5C6
330
1F
100
AcDbEntity
  8
0
100
AcDbCircle
 10
18.09999780809766
 20
238.6138169404669
 30
0.0
 40
2.9
100
AcDbArc
 50
133.6028189726964
 51
226.3971810273035
  0
CIRCLE
  5
5C7
330
1F
100
AcDbEntity
  8
0
100
AcDbCircle
 10
18.09999780809766
 20
238.6138169404669
 30
0.0
 40
1.5
  0
CIRCLE
  5
5C8
330
1F
100
AcDbEntity
  8
0
100
AcDbCircle
 10
18.06361174769471
 20
232.5138169404666
 30
0.0
 40
2.0
  0
LINE
  5
5C9
330
1F
100
AcDbEntity
  8
0
100
AcDbLine
 10
14.09999780809767
 20
229.6138169404669
 30
0.0
 11
21.09999780809766
 21
229.6138169404669
 31
0.0
  0
LINE
  5
5CA
330
1F
100
AcDbEntity
  8
0
100
AcDbLine
 10
16.09999780809767
 20
235.6138169404669
 30
0.0
 11
21.09999780809766
 21
235.6138169404669
 31
0.0
  0
LINE
  5
5CB
330
1F
100
AcDbEntity
  8
0
100
AcDbLine
 10
16.09999780809767
 20
236.5138169404666
 30
0.0
 11
16.09999780809767
 21
235.6138169404669
 31
0.0
  0
LINE
  5
5CC
330
1F
100
AcDbEntity
  8
0
100
AcDbLine
 10
21.09999780809766
 20
229.6138169404669
 30
0.0
 11
21.09999780809766
 21
234.6138169404669
 31
0.0
  0
CIRCLE
  5
5CD
330
1F
100
AcDbEntity
  8
0
100
AcDbCircle
 10
18.06361174769471
 20
232.5138169404666
 30
0.0
 40
0.9
  0
LINE
  5
5CE
330
1F
100
AcDbEntity
  8
0
100
AcDbLine
 10
21.09999780809766
 20
234.6138169404669
 30
0.0
 11
22.59999780809767
 21
234.6138169404669
 31
0.0
  0
LINE
  5
5CF
330
1F
100
AcDbEntity
  8
0
100
AcDbLine
 10
20.29999780809771
 20
237.3038169404666
 30
0.0
 11
21.09999780809766
 21
237.3038169404666
 31
0.0
  0
LINE
  5
5D0
330
1F
100
AcDbEntity
  8
0
100
AcDbLine
 10
21.09999780809766
 20
237.3038169404666
 30
0.0
 11
21.09999780809766
 21
235.6138169404669
 31
0.0
  0
ARC
  5
5D1
330
1F
100
AcDbEntity
  8
0
100
AcDbCircle
 10
18.09999780809766
 20
261.4738169404668
 30
0.0
 40
2.9
100
AcDbArc
 50
133.6028189726964
 51
226.3971810273035
  0
LINE
  5
5D2
330
1F
100
AcDbEntity
  8
0
100
AcDbLine
 10
21.09999780809766
 20
260.1638169404667
 30
0.0
 11
21.09999780809766
 21
255.1638169404669
 31
0.0
  0
LINE
  5
5D3
330
1F
100
AcDbEntity
  8
0
100
AcDbLine
 10
21.09999780809766
 20
252.5438169404667
 30
0.0
 11
21.09999780809766
 21
247.5438169404666
 31
0.0
  0
LINE
  5
5D4
330
1F
100
AcDbEntity
  8
0
100
AcDbLine
 10
16.09999780809767
 20
251.7538169404666
 30
0.0
 11
16.09999780809767
 21
248.3338169404667
 31
0.0
  0
ARC
  5
5D5
330
1F
100
AcDbEntity
  8
0
100
AcDbCircle
 10
18.09999780809766
 20
246.2338169404666
 30
0.0
 40
2.9
100
AcDbArc
 50
133.6028189726964
 51
226.3971810273035
  0
LINE
  5
5D6
330
1F
100
AcDbEntity
  8
0
100
AcDbLine
 10
16.09999780809767
 20
244.1338169404668
 30
0.0
 11
16.09999780809767
 21
240.7138169404669
 31
0.0
  0
CIRCLE
  5
5D7
330
1F
100
AcDbEntity
  8
0
100
AcDbCircle
 10
18.09999780809766
 20
246.2338169404666
 30
0.0
 40
1.5
  0
LINE
  5
5D8
330
1F
100
AcDbEntity
  8
0
100
AcDbLine
 10
21.09999780809766
 20
244.9238169404667
 30
0.0
 11
21.09999780809766
 21
239.9238169404668
 31
0.0
  0
LINE
  5
5D9
330
1F
100
AcDbEntity
  8
0
100
AcDbLine
 10
20.29999780809771
 20
239.9238169404668
 30
0.0
 11
21.09999780809766
 21
239.9238169404668
 31
0.0
  0
LINE
  5
5DA
330
1F
100
AcDbEntity
  8
0
100
AcDbLine
 10
22.59999780809767
 20
242.1638169404669
 30
0.0
 11
24.29999780809771
 21
242.1638169404669
 31
0.0
  0
LINE
  5
5DB
330
1F
100
AcDbEntity
  8
0
100
AcDbLine
 10
24.29999780809771
 20
240.5638169404666
 30
0.0
 11
22.59999780809767
 21
240.5638169404666
 31
0.0
  0
LINE
  5
5DC
330
1F
100
AcDbEntity
  8
0
100
AcDbLine
 10
24.29999780809771
 20
242.1638169404669
 30
0.0
 11
24.29999780809771
 21
240.5638169404666
 31
0.0
  0
CIRCLE
  5
5DD
330
1F
100
AcDbEntity
  8
0
100
AcDbCircle
 10
18.09999780809766
 20
246.2338169404666
 30
0.0
 40
0.75
  0
LINE
  5
5DE
330
1F
100
AcDbEntity
  8
0
100
AcDbLine
 10
20.29999780809771
 20
244.9238169404667
 30
0.0
 11
21.09999780809766
 21
244.9238169404667
 31
0.0
  0
LINE
  5
5DF
330
1F
100
AcDbEntity
  8
0
100
AcDbLine
 10
20.29999780809771
 20
247.5438169404666
 30
0.0
 11
21.09999780809766
 21
247.5438169404666
 31
0.0
  0
LINE
  5
5E0
330
1F
100
AcDbEntity
  8
0
100
AcDbLine
 10
20.29999780809771
 20
247.5438169404666
 30
0.0
 11
20.29999780809771
 21
244.9238169404667
 31
0.0
  0
ARC
  5
5E1
330
1F
100
AcDbEntity
  8
0
100
AcDbCircle
 10
18.09999780809766
 20
253.8538169404666
 30
0.0
 40
2.9
100
AcDbArc
 50
133.6028189726964
 51
226.3971810273035
  0
LINE
  5
5E2
330
1F
100
AcDbEntity
  8
0
100
AcDbLine
 10
16.09999780809767
 20
259.3738169404665
 30
0.0
 11
16.09999780809767
 21
255.9538169404667
 31
0.0
  0
LINE
  5
5E3
330
1F
100
AcDbEntity
  8
0
100
AcDbLine
 10
24.29999780809771
 20
257.5638169404666
 30
0.0
 11
22.59999780809767
 21
257.5638169404666
 31
0.0
  0
LINE
  5
5E4
330
1F
100
AcDbEntity
  8
0
100
AcDbLine
 10
24.29999780809771
 20
259.1638169404668
 30
0.0
 11
22.59999780809767
 21
259.1638169404668
 31
0.0
  0
LINE
  5
5E5
330
1F
100
AcDbEntity
  8
0
100
AcDbLine
 10
24.29999780809771
 20
259.1638169404668
 30
0.0
 11
24.29999780809771
 21
257.5638169404666
 31
0.0
  0
LINE
  5
5E6
330
1F
100
AcDbEntity
  8
0
100
AcDbLine
 10
20.29999780809771
 20
255.1638169404669
 30
0.0
 11
21.09999780809766
 21
255.1638169404669
 31
0.0
  0
CIRCLE
  5
5E7
330
1F
100
AcDbEntity
  8
0
100
AcDbCircle
 10
18.09999780809766
 20
253.8538169404666
 30
0.0
 40
0.75
  0
LINE
  5
5E8
330
1F
100
AcDbEntity
  8
0
100
AcDbLine
 10
20.29999780809771
 20
252.5438169404667
 30
0.0
 11
21.09999780809766
 21
252.5438169404667
 31
0.0
  0
CIRCLE
  5
5E9
330
1F
100
AcDbEntity
  8
0
100
AcDbCircle
 10
18.09999780809766
 20
253.8538169404666
 30
0.0
 40
1.5
  0
LINE
  5
5EA
330
1F
100
AcDbEntity
  8
0
100
AcDbLine
 10
20.29999780809771
 20
255.1638169404669
 30
0.0
 11
20.29999780809771
 21
252.5438169404667
 31
0.0
  0
LINE
  5
5EB
330
1F
100
AcDbEntity
  8
0
100
AcDbLine
 10
21.09999780809766
 20
265.4738169404668
 30
0.0
 11
21.09999780809766
 21
270.4738169404669
 31
0.0
  0
CIRCLE
  5
5EC
330
1F
100
AcDbEntity
  8
0
100
AcDbCircle
 10
18.09999780809766
 20
267.5738169404667
 30
0.0
 40
2.0
  0
LINE
  5
5ED
330
1F
100
AcDbEntity
  8
0
100
AcDbLine
 10
21.09999780809766
 20
264.1138169404669
 30
0.0
 11
16.09999780809767
 21
264.1138169404669
 31
0.0
  0
LINE
  5
5EE
330
1F
100
AcDbEntity
  8
0
100
AcDbLine
 10
16.09999780809767
 20
264.1138169404669
 30
0.0
 11
16.09999780809767
 21
263.5738169404667
 31
0.0
  0
LINE
  5
5EF
330
1F
100
AcDbEntity
  8
0
100
AcDbLine
 10
21.09999780809766
 20
265.4738169404668
 30
0.0
 11
22.59999780809767
 21
265.4738169404668
 31
0.0
  0
CIRCLE
  5
5F0
330
1F
100
AcDbEntity
  8
0
100
AcDbCircle
 10
18.09999780809766
 20
267.5738169404667
 30
0.0
 40
0.9
  0
LINE
  5
5F1
330
1F
100
AcDbEntity
  8
0
100
AcDbLine
 10
20.29999780809771
 20
262.7838169404666
 30
0.0
 11
21.09999780809766
 21
262.7838169404666
 31
0.0
  0
LINE
  5
5F2
330
1F
100
AcDbEntity
  8
0
100
AcDbLine
 10
21.09999780809766
 20
264.1138169404669
 30
0.0
 11
21.09999780809766
 21
262.7838169404666
 31
0.0
  0
LINE
  5
5F3
330
1F
100
AcDbEntity
  8
0
100
AcDbLine
 10
20.29999780809771
 20
260.1638169404667
 30
0.0
 11
21.09999780809766
 21
260.1638169404667
 31
0.0
  0
CIRCLE
  5
5F4
330
1F
100
AcDbEntity
  8
0
100
AcDbCircle
 10
18.09999780809766
 20
261.4738169404668
 30
0.0
 40
0.75
  0
LINE
  5
5F5
330
1F
100
AcDbEntity
  8
0
100
AcDbLine
 10
20.29999780809771
 20
262.7838169404666
 30
0.0
 11
20.29999780809771
 21
260.1638169404667
 31
0.0
  0
CIRCLE
  5
5F6
330
1F
100
AcDbEntity
  8
0
100
AcDbCircle
 10
18.09999780809766
 20
261.4738169404668
 30
0.0
 40
1.5
  0
LINE
  5
5F7
330
1F
100
AcDbEntity
  8
0
100
AcDbLine
 10
22.59999780809767
 20
265.4738169404668
 30
0.0
 11
22.59999780809767
 21
265.1138169404668
 31
0.0
  0
LINE
  5
5F8
330
1F
100
AcDbEntity
  8
0
100
AcDbLine
 10
14.09999780809767
 20
270.4738169404669
 30
0.0
 11
21.09999780809766
 21
270.4738169404669
 31
0.0
  0
LINE
  5
5F9
330
1F
100
AcDbEntity
  8
0
100
AcDbLine
 10
14.09999780809767
 20
265.2338169404667
 30
0.0
 11
14.09999780809767
 21
270.4738169404669
 31
0.0
  0
LINE
  5
5FA
330
1F
100
AcDbEntity
  8
0
100
AcDbLine
 10
14.09999780809767
 20
270.4738169404669
 30
0.0
 11
21.09999780809766
 21
270.4738169404669
 31
0.0
  0
LINE
  5
5FB
330
1F
100
AcDbEntity
  8
0
100
AcDbLine
 10
21.09999780809766
 20
270.4738169404669
 30
0.0
 11
21.09999780809766
 21
265.2338169404667
 31
0.0
  0
LINE
  5
5FC
330
1F
100
AcDbEntity
  8
0
100
AcDbLine
 10
14.09999780809767
 20
234.8538169404668
 30
0.0
 11
14.09999780809767
 21
229.6138169404669
 31
0.0
  0
LINE
  5
5FD
330
1F
100
AcDbEntity
  8
0
100
AcDbLine
 10
14.09999780809767
 20
229.6138169404669
 30
0.0
 11
21.09999780809766
 21
229.6138169404669
 31
0.0
  0
LINE
  5
5FE
330
1F
100
AcDbEntity
  8
0
100
AcDbLine
 10
21.09999780809766
 20
229.6138169404669
 30
0.0
 11
21.09999780809766
 21
234.8538169404668
 31
0.0
  0
LINE
  5
5FF
330
1F
100
AcDbEntity
  8
0
100
AcDbLine
 10
41.1999978080978
 20
242.0738169404666
 30
0.0
 11
49.0999978080979
 21
242.0738169404666
 31
0.0
  0
LINE
  5
600
330
1F
100
AcDbEntity
  8
0
100
AcDbLine
 10
42.14999780809785
 20
243.0738169404667
 30
0.0
 11
48.14999780809785
 21
243.0738169404667
 31
0.0
  0
LINE
  5
601
330
1F
100
AcDbEntity
  8
0
100
AcDbLine
 10
43.14999780809785
 20
243.0738169404667
 30
0.0
 11
44.14999780809785
 21
243.0738169404667
 31
0.0
  0
LINE
  5
602
330
1F
100
AcDbEntity
  8
0
100
AcDbLine
 10
44.9499978080978
 20
243.0738169404667
 30
0.0
 11
44.9499978080978
 21
246.0738169404666
 31
0.0
  0
LINE
  5
603
330
1F
100
AcDbEntity
  8
0
100
AcDbLine
 10
48.14999780809785
 20
243.0738169404667
 30
0.0
 11
48.14999780809785
 21
246.0738169404666
 31
0.0
  0
LINE
  5
604
330
1F
100
AcDbEntity
  8
0
100
AcDbLine
 10
48.14999780809785
 20
246.0738169404666
 30
0.0
 11
42.14999780809785
 21
246.0738169404666
 31
0.0
  0
LINE
  5
605
330
1F
100
AcDbEntity
  8
0
100
AcDbLine
 10
42.14999780809785
 20
246.0738169404666
 30
0.0
 11
42.14999780809785
 21
243.0738169404667
 31
0.0
  0
LINE
  5
606
330
1F
100
AcDbEntity
  8
0
100
AcDbLine
 10
44.14999780809785
 20
243.0738169404667
 30
0.0
 11
44.14999780809785
 21
246.0738169404666
 31
0.0
  0
LINE
  5
607
330
1F
100
AcDbEntity
  8
0
100
AcDbLine
 10
44.14999780809785
 20
246.0738169404666
 30
0.0
 11
43.14999780809785
 21
246.0738169404666
 31
0.0
  0
LINE
  5
608
330
1F
100
AcDbEntity
  8
0
100
AcDbLine
 10
43.14999780809785
 20
246.0738169404666
 30
0.0
 11
43.14999780809785
 21
243.0738169404667
 31
0.0
  0
LINE
  5
609
330
1F
100
AcDbEntity
  8
0
100
AcDbLine
 10
49.0999978080979
 20
242.0738169404666
 30
0.0
 11
49.0999978080979
 21
247.0738169404667
 31
0.0
  0
LINE
  5
60A
330
1F
100
AcDbEntity
  8
0
100
AcDbLine
 10
49.0999978080979
 20
247.0738169404667
 30
0.0
 11
41.1999978080978
 21
247.0738169404667
 31
0.0
  0
LINE
  5
60B
330
1F
100
AcDbEntity
  8
0
100
AcDbLine
 10
41.1999978080978
 20
247.0738169404667
 30
0.0
 11
41.1999978080978
 21
242.0738169404666
 31
0.0
  0
CIRCLE
  5
60C
330
1F
100
AcDbEntity
  8
0
100
AcDbCircle
 10
2.499997808098895
 20
203.9738169404669
 30
0.0
 40
2.149999999999999
  0
CIRCLE
  5
60D
330
1F
100
AcDbEntity
  8
0
100
AcDbCircle
 10
2.499997808098895
 20
203.9738169404669
 30
0.0
 40
1.85
  0
LINE
  5
60E
330
1F
100
AcDbEntity
  8
0
100
AcDbLine
 10
1.149997808098759
 20
203.6738169404669
 30
0.0
 11
3.849997808098804
 21
203.6738169404669
 31
0.0
  0
LINE
  5
60F
330
1F
100
AcDbEntity
  8
0
100
AcDbLine
 10
2.349997808098805
 20
203.9738169404669
 30
0.0
 11
2.349997808098805
 21
205.3238169404665
 31
0.0
  0
LINE
  5
610
330
1F
100
AcDbEntity
  8
0
100
AcDbLine
 10
2.649997808097849
 20
203.9738169404669
 30
0.0
 11
2.649997808097849
 21
205.3238169404665
 31
0.0
  0
ARC
  5
611
330
1F
100
AcDbEntity
  8
0
100
AcDbCircle
 10
2.499997808098895
 20
205.3238169404665
 30
0.0
 40
0.15
100
AcDbArc
 50
0.0
 51
180.0
  0
ARC
  5
612
330
1F
100
AcDbEntity
  8
0
100
AcDbCircle
 10
1.149997808098759
 20
203.8238169404666
 30
0.0
 40
0.15
100
AcDbArc
 50
90.0
 51
270.0
  0
ARC
  5
613
330
1F
100
AcDbEntity
  8
0
100
AcDbCircle
 10
3.849997808098804
 20
203.8238169404666
 30
0.0
 40
0.15
100
AcDbArc
 50
270.0
 51
90.0
  0
LINE
  5
614
330
1F
100
AcDbEntity
  8
0
100
AcDbLine
 10
1.149997808098759
 20
203.9738169404669
 30
0.0
 11
2.349997808098805
 21
203.9738169404669
 31
0.0
  0
LINE
  5
615
330
1F
100
AcDbEntity
  8
0
100
AcDbLine
 10
2.649997808097849
 20
203.9738169404669
 30
0.0
 11
3.849997808098804
 21
203.9738169404669
 31
0.0
  0
LINE
  5
616
330
1F
100
AcDbEntity
  8
0
100
AcDbLine
 10
1.54999780809885
 20
203.3238169404667
 30
0.0
 11
3.449997808097805
 21
203.3238169404667
 31
0.0
  0
LINE
  5
617
330
1F
100
AcDbEntity
  8
0
100
AcDbLine
 10
1.54999780809885
 20
203.0238169404666
 30
0.0
 11
3.449997808097805
 21
203.0238169404666
 31
0.0
  0
LINE
  5
618
330
1F
100
AcDbEntity
  8
0
100
AcDbLine
 10
1.949997808098714
 20
202.6738169404667
 30
0.0
 11
3.049997808097713
 21
202.6738169404667
 31
0.0
  0
LINE
  5
619
330
1F
100
AcDbEntity
  8
0
100
AcDbLine
 10
1.949997808098714
 20
202.3738169404665
 30
0.0
 11
3.049997808097713
 21
202.3738169404665
 31
0.0
  0
ARC
  5
61A
330
1F
100
AcDbEntity
  8
0
100
AcDbCircle
 10
1.949997808098714
 20
202.5238169404667
 30
0.0
 40
0.15
100
AcDbArc
 50
90.0
 51
270.0
  0
ARC
  5
61B
330
1F
100
AcDbEntity
  8
0
100
AcDbCircle
 10
3.049997808097713
 20
202.5238169404667
 30
0.0
 40
0.15
100
AcDbArc
 50
270.0
 51
90.0
  0
ARC
  5
61C
330
1F
100
AcDbEntity
  8
0
100
AcDbCircle
 10
1.54999780809885
 20
203.1738169404669
 30
0.0
 40
0.15
100
AcDbArc
 50
90.0
 51
270.0
  0
ARC
  5
61D
330
1F
100
AcDbEntity
  8
0
100
AcDbCircle
 10
3.449997808097805
 20
203.1738169404669
 30
0.0
 40
0.15
100
AcDbArc
 50
270.0
 51
90.0
  0
LINE
  5
61E
330
1F
100
AcDbEntity
  8
0
100
AcDbLine
 10
49.0999978080979
 20
241.5738169404666
 30
0.0
 11
41.84999780809788
 21
241.5738169404666
 31
0.0
  0
CIRCLE
  5
61F
330
1F
100
AcDbEntity
  8
0
100
AcDbCircle
 10
45.59999780809788
 20
235.6238169404667
 30
0.0
 40
1.0
  0
CIRCLE
  5
620
330
1F
100
AcDbEntity
  8
0
100
AcDbCircle
 10
45.59999780809788
 20
239.1238169404667
 30
0.0
 40
1.0
  0
LINE
  5
621
330
1F
100
AcDbEntity
  8
0
100
AcDbLine
 10
41.84999780809788
 20
241.5738169404666
 30
0.0
 11
41.84999780809788
 21
233.1738169404669
 31
0.0
  0
LINE
  5
622
330
1F
100
AcDbEntity
  8
0
100
AcDbLine
 10
41.84999780809788
 20
233.1738169404669
 30
0.0
 11
49.0999978080979
 21
233.1738169404669
 31
0.0
  0
LINE
  5
623
330
1F
100
AcDbEntity
  8
0
100
AcDbLine
 10
49.0999978080979
 20
233.1738169404669
 30
0.0
 11
49.0999978080979
 21
241.5738169404666
 31
0.0
  0
LINE
  5
624
330
1F
100
AcDbEntity
  8
0
100
AcDbLine
 10
41.1999978080978
 20
262.0738169404666
 30
0.0
 11
49.0999978080979
 21
262.0738169404666
 31
0.0
  0
LINE
  5
625
330
1F
100
AcDbEntity
  8
0
100
AcDbLine
 10
42.14999780809785
 20
263.0738169404667
 30
0.0
 11
48.14999780809785
 21
263.0738169404667
 31
0.0
  0
LINE
  5
626
330
1F
100
AcDbEntity
  8
0
100
AcDbLine
 10
43.14999780809785
 20
263.0738169404667
 30
0.0
 11
44.14999780809785
 21
263.0738169404667
 31
0.0
  0
LINE
  5
627
330
1F
100
AcDbEntity
  8
0
100
AcDbLine
 10
44.9499978080978
 20
263.0738169404667
 30
0.0
 11
44.9499978080978
 21
266.0738169404667
 31
0.0
  0
LINE
  5
628
330
1F
100
AcDbEntity
  8
0
100
AcDbLine
 10
49.0999978080979
 20
262.0738169404666
 30
0.0
 11
49.0999978080979
 21
267.0738169404667
 31
0.0
  0
LINE
  5
629
330
1F
100
AcDbEntity
  8
0
100
AcDbLine
 10
49.0999978080979
 20
267.0738169404667
 30
0.0
 11
41.1999978080978
 21
267.0738169404667
 31
0.0
  0
LINE
  5
62A
330
1F
100
AcDbEntity
  8
0
100
AcDbLine
 10
41.1999978080978
 20
267.0738169404667
 30
0.0
 11
41.1999978080978
 21
262.0738169404666
 31
0.0
  0
LINE
  5
62B
330
1F
100
AcDbEntity
  8
0
100
AcDbLine
 10
44.14999780809785
 20
263.0738169404667
 30
0.0
 11
44.14999780809785
 21
266.0738169404667
 31
0.0
  0
LINE
  5
62C
330
1F
100
AcDbEntity
  8
0
100
AcDbLine
 10
44.14999780809785
 20
266.0738169404667
 30
0.0
 11
43.14999780809785
 21
266.0738169404667
 31
0.0
  0
LINE
  5
62D
330
1F
100
AcDbEntity
  8
0
100
AcDbLine
 10
43.14999780809785
 20
266.0738169404667
 30
0.0
 11
43.14999780809785
 21
263.0738169404667
 31
0.0
  0
LINE
  5
62E
330
1F
100
AcDbEntity
  8
0
100
AcDbLine
 10
48.14999780809785
 20
263.0738169404667
 30
0.0
 11
48.14999780809785
 21
266.0738169404667
 31
0.0
  0
LINE
  5
62F
330
1F
100
AcDbEntity
  8
0
100
AcDbLine
 10
48.14999780809785
 20
266.0738169404667
 30
0.0
 11
42.14999780809785
 21
266.0738169404667
 31
0.0
  0
LINE
  5
630
330
1F
100
AcDbEntity
  8
0
100
AcDbLine
 10
42.14999780809785
 20
266.0738169404667
 30
0.0
 11
42.14999780809785
 21
263.0738169404667
 31
0.0
  0
CIRCLE
  5
631
330
1F
100
AcDbEntity
  8
0
100
AcDbCircle
 10
42.5999978080988
 20
254.5738169404666
 30
0.0
 40
5.5
  0
LINE
  5
632
330
1F
100
AcDbEntity
  8
0
100
AcDbLine
 10
36.29999780809794
 20
247.5738169404666
 30
0.0
 11
36.29999780809794
 21
261.5738169404667
 31
0.0
  0
LINE
  5
633
330
1F
100
AcDbEntity
  8
0
100
AcDbLine
 10
49.09999780809879
 20
247.5738169404666
 30
0.0
 11
49.09999780809879
 21
253.4738169404668
 31
0.0
  0
LINE
  5
634
330
1F
100
AcDbEntity
  8
0
100
AcDbLine
 10
49.09999780809879
 20
247.5738169404666
 30
0.0
 11
36.29999780809794
 21
247.5738169404666
 31
0.0
  0
LINE
  5
635
330
1F
100
AcDbEntity
  8
0
100
AcDbLine
 10
49.09999780809879
 20
261.5738169404667
 30
0.0
 11
36.29999780809794
 21
261.5738169404667
 31
0.0
  0
LINE
  5
636
330
1F
100
AcDbEntity
  8
0
100
AcDbLine
 10
49.09999780809879
 20
255.6738169404667
 30
0.0
 11
49.09999780809879
 21
261.5738169404667
 31
0.0
  0
LINE
  5
637
330
1F
100
AcDbEntity
  8
0
100
AcDbLine
 10
14.0999978080988
 20
306.0738167811227
 30
0.0
 11
14.0999978080988
 21
339.0738167811227
 31
0.0
  0
LINE
  5
638
330
1F
100
AcDbEntity
  8
0
100
AcDbLine
 10
14.0999978080988
 20
275.9738167811228
 30
0.0
 11
14.0999978080988
 21
302.1738167811228
 31
0.0
  0
LINE
  5
639
330
1F
100
AcDbEntity
  8
0
100
AcDbLine
 10
49.09999780809879
 20
267.5738167811227
 30
0.0
 11
49.09999780809879
 21
232.6738167811229
 31
0.0
  0
LINE
  5
63A
330
1F
100
AcDbEntity
  8
0
100
AcDbLine
 10
49.09999780809879
 20
230.6738167811228
 30
0.0
 11
49.09999780809879
 21
185.1738167811229
 31
0.0
  0
ARC
  5
63B
330
1F
100
AcDbEntity
  8
0
100
AcDbCircle
 10
28.99999780809888
 20
359.9738169404668
 30
0.0
 40
5.5
100
AcDbArc
 50
294.6199773286481
 51
0.0
  0
ARC
  5
63C
330
1F
100
AcDbEntity
  8
0
100
AcDbCircle
 10
28.99999780809888
 20
175.9738169404666
 30
0.0
 40
5.5
100
AcDbArc
 50
114.6199773286481
 51
180.0
  0
LINE
  5
63D
330
1F
100
AcDbEntity
  8
0
100
AcDbLine
 10
53.49999780809799
 20
170.9738169404668
 30
0.0
 11
56.99999780809889
 21
170.9738169404668
 31
0.0
  0
LINE
  5
63E
330
1F
100
AcDbEntity
  8
0
  6
BYBLOCK
100
AcDbLine
 10
31.10014643319482
 20
308.2989522451672
 30
0.0
 11
46.00007212064793
 21
308.2989522451689
 31
0.0
  0
LINE
  5
63F
330
1F
100
AcDbEntity
  8
0
  6
BYBLOCK
100
AcDbLine
 10
46.00007212064975
 20
275.4989486451695
 30
0.0
 11
46.00007212064793
 21
308.2989522451689
 31
0.0
  0
LINE
  5
640
330
1F
100
AcDbEntity
  8
0
  6
BYBLOCK
100
AcDbLine
 10
31.10014643319482
 20
275.4989486451695
 30
0.0
 11
46.00007212064975
 21
275.4989486451695
 31
0.0
  0
INSERT
  5
641
330
1F
100
AcDbEntity
  8
0
 62
     0
 48
5.0
100
AcDbBlockReference
  2
A$C5CFD6E8C
 10
47.50000059707895
 20
315.7488151945122
 30
0.0
  0
INSERT
  5
642
330
1F
100
AcDbEntity
  8
0
 62
     0
 48
5.0
100
AcDbBlockReference
  2
A$C5CFD6E8C
 10
47.50000059707895
 20
310.2488151945123
 30
0.0
  0
LINE
  5
643
330
1F
100
AcDbEntity
  8
0
 48
5.0
100
AcDbLine
 10
31.10014643319482
 20
308.2989522451672
 30
0.0
 11
31.10014643319482
 21
275.4989486451695
 31
0.0
  0
LINE
  5
644
330
1F
100
AcDbEntity
  8
0
100
AcDbLine
 10
44.99999780809889
 20
308.2989522451687
 30
0.0
 11
44.99999780809889
 21
275.4989486451695
 31
0.0
  0
LINE
  5
645
330
1F
100
AcDbEntity
  8
0
100
AcDbLine
 10
44.99999780809889
 20
275.4989486451695
 30
0.0
 11
46.00007212064975
 21
275.4989486451695
 31
0.0
  0
LINE
  5
646
330
1F
100
AcDbEntity
  8
0
100
AcDbLine
 10
46.00007212064975
 20
275.4989486451695
 30
0.0
 11
46.00007212064975
 21
275.5988169404671
 31
0.0
  0
LINE
  5
647
330
1F
100
AcDbEntity
  8
0
100
AcDbLine
 10
46.00007212064975
 20
275.5988169404671
 30
0.0
 11
44.99999780809889
 21
275.5988169404671
 31
0.0
  0
LINE
  5
648
330
1F
100
AcDbEntity
  8
0
100
AcDbLine
 10
44.99999780809889
 20
308.1988169404668
 30
0.0
 11
46.00007212064679
 21
308.1988169404668
 31
0.0
  0
LWPOLYLINE
  5
649
330
1F
100
AcDbEntity
  8
0
 62
     0
100
AcDbPolyline
 90
        4
 70
     1
 43
0.0
 10
47.49999780809797
 20
318.4488176741576
 10
49.09984944692792
 20
318.4488176741576
 10
49.09984944692792
 20
315.7488176741569
 10
47.49999780809797
 20
315.7488176741569
  0
LWPOLYLINE
  5
64A
330
1F
100
AcDbEntity
  8
0
 62
     0
100
AcDbPolyline
 90
        4
 70
     1
 43
0.0
 10
47.49999780809797
 20
312.9488176741576
 10
49.09999780809879
 20
312.9488176741576
 10
49.09999780809879
 20
310.2488176741569
 10
47.49999780809797
 20
310.2488176741569
  0
ARC
  5
64B
330
1F
100
AcDbEntity
  8
0
100
AcDbCircle
 10
37.29014900811284
 20
286.2687868029405
 30
0.0
 40
1.639993
100
AcDbArc
 50
180.0
 51
279.9990282000055
  0
ARC
  5
64C
330
1F
100
AcDbEntity
  8
0
100
AcDbCircle
 10
40.21010140811291
 20
286.7837958029407
 30
0.0
 40
1.639991999999999
100
AcDbArc
 50
279.9988909000173
 51
359.9996795999958
  0
ARC
  5
64D
330
1F
100
AcDbEntity
  8
0
100
AcDbCircle
 10
40.45009920811367
 20
286.5222963029408
 30
0.0
 40
1.449996899999999
100
AcDbArc
 50
279.9990282000055
 51
359.9999770999867
  0
CIRCLE
  5
64E
330
1F
100
AcDbEntity
  8
0
100
AcDbCircle
 10
37.33014990811284
 20
286.4188055029405
 30
0.0
 40
1.0
  0
ARC
  5
64F
330
1F
100
AcDbEntity
  8
0
100
AcDbCircle
 10
37.34009860811282
 20
286.2687868029405
 30
0.0
 40
1.7399909
100
AcDbArc
 50
180.0
 51
279.9989461999804
  0
ARC
  5
650
330
1F
100
AcDbEntity
  8
0
100
AcDbCircle
 10
37.34009860811282
 20
286.2888064029406
 30
0.0
 40
2.5399921
100
AcDbArc
 50
180.0010070999862
 51
279.9989327999803
  0
ARC
  5
651
330
1F
100
AcDbEntity
  8
0
100
AcDbCircle
 10
40.45009920811367
 20
286.5422968029403
 30
0.0
 40
2.249988999999998
100
AcDbArc
 50
279.9990282000055
 51
359.9997481999839
  0
LINE
  5
652
330
1F
100
AcDbEntity
  8
0
100
AcDbLine
 10
44.99999780808774
 20
278.2488172872482
 30
0.0
 11
44.99999780811072
 21
305.548816593685
 31
0.0
  0
LINE
  5
653
330
1F
100
AcDbEntity
  8
0
100
AcDbLine
 10
32.49999380809891
 20
278.2488169404671
 30
0.0
 11
32.50000180809887
 21
305.5488249406018
 31
0.0
  0
LINE
  5
654
330
1F
100
AcDbEntity
  8
0
100
AcDbLine
 10
40.49475030811367
 20
285.1687960029406
 30
0.0
 11
37.57474830811293
 21
284.6537966029403
 31
0.0
  0
LINE
  5
655
330
1F
100
AcDbEntity
  8
0
100
AcDbLine
 10
40.70183870811296
 20
285.0948366029408
 30
0.0
 11
37.64219980811367
 21
284.5553354029401
 31
0.0
  0
ARC
  5
656
330
1F
100
AcDbEntity
  8
0
100
AcDbCircle
 10
43.25000880812786
 20
278.2488165404781
 30
0.0
 40
1.749989
100
AcDbArc
 50
270.0
 51
0.0003890999917428
  0
ARC
  5
657
330
1F
100
AcDbEntity
  8
0
100
AcDbCircle
 10
34.24999380809889
 20
278.2488169404671
 30
0.0
 40
1.75
100
AcDbArc
 50
180.0
 51
270.0
  0
LINE
  5
658
330
1F
100
AcDbEntity
  8
0
100
AcDbLine
 10
34.24999380809889
 20
276.4988169404671
 30
0.0
 11
43.25000880812786
 21
276.4988169404671
 31
0.0
  0
CIRCLE
  5
659
330
1F
100
AcDbEntity
  8
0
100
AcDbCircle
 10
38.74999930811373
 20
279.4038061029406
 30
0.0
 40
1.299998999999999
  0
CIRCLE
  5
65A
330
1F
100
AcDbEntity
  8
0
100
AcDbCircle
 10
38.74999930811373
 20
279.4038061029406
 30
0.0
 40
1.520001099999999
  0
CIRCLE
  5
65B
330
1F
100
AcDbEntity
  8
0
100
AcDbCircle
 10
38.74999930811373
 20
279.4038061029406
 30
0.0
 40
1.0
  0
CIRCLE
  5
65C
330
1F
100
AcDbEntity
  8
0
100
AcDbCircle
 10
38.74999930811373
 20
279.4038061029406
 30
0.0
 40
2.5114751
  0
LINE
  5
65D
330
1F
100
AcDbEntity
  8
0
100
AcDbLine
 10
37.29999850811373
 20
276.8923067029401
 30
0.0
 11
35.85000160811296
 21
279.4037966029403
 31
0.0
  0
LINE
  5
65E
330
1F
100
AcDbEntity
  8
0
100
AcDbLine
 10
41.64998170811371
 20
279.4037851029401
 30
0.0
 11
40.2000306081129
 21
276.8922762029408
 31
0.0
  0
LINE
  5
65F
330
1F
100
AcDbEntity
  8
0
100
AcDbLine
 10
40.2000306081129
 20
281.9153265029401
 30
0.0
 11
41.64998170811371
 21
279.4038252029405
 31
0.0
  0
LINE
  5
660
330
1F
100
AcDbEntity
  8
0
100
AcDbLine
 10
35.84999010811384
 20
279.4038157029401
 30
0.0
 11
37.29999090811384
 21
281.9153151029406
 31
0.0
  0
LINE
  5
661
330
1F
100
AcDbEntity
  8
0
100
AcDbLine
 10
37.29999850811373
 20
281.9153151029406
 30
0.0
 11
40.20000010811371
 21
281.9153151029406
 31
0.0
  0
LINE
  5
662
330
1F
100
AcDbEntity
  8
0
100
AcDbLine
 10
40.20000010811371
 20
276.8923067029401
 30
0.0
 11
37.29999850811373
 21
276.8923067029401
 31
0.0
  0
LINE
  5
663
330
1F
100
AcDbEntity
  8
0
100
AcDbLine
 10
40.84075090811278
 20
284.3267950029404
 30
0.0
 11
37.78110050811369
 21
283.7872957029404
 31
0.0
  0
ARC
  5
664
330
1F
100
AcDbEntity
  8
0
100
AcDbCircle
 10
43.25000880812786
 20
305.5488279403318
 30
0.0
 40
1.749989
100
AcDbArc
 50
0.0002517999899077
 51
90.00100709998623
  0
ARC
  5
665
330
1F
100
AcDbEntity
  8
0
100
AcDbCircle
 10
34.24999380809889
 20
305.5488249406024
 30
0.0
 40
1.749991999999999
100
AcDbArc
 50
89.9989928999877
 51
180.0
  0
LINE
  5
666
330
1F
100
AcDbEntity
  8
0
100
AcDbLine
 10
34.25002456807692
 20
307.2988169403318
 30
0.0
 11
43.25000880812786
 21
307.2988169403318
 31
0.0
  0
ARC
  5
667
330
1F
100
AcDbEntity
  8
0
100
AcDbCircle
 10
37.34009860811282
 20
297.5088138029408
 30
0.0
 40
2.5399921
100
AcDbArc
 50
80.00100710001571
 51
179.9989014000123
  0
CIRCLE
  5
668
330
1F
100
AcDbEntity
  8
0
100
AcDbCircle
 10
38.74999930811373
 20
304.3933099029402
 30
0.0
 40
1.3000031
  0
CIRCLE
  5
669
330
1F
100
AcDbEntity
  8
0
100
AcDbCircle
 10
38.75009850811284
 20
304.3933099029402
 30
0.0
 40
1.5500031
  0
CIRCLE
  5
66A
330
1F
100
AcDbEntity
  8
0
100
AcDbCircle
 10
38.74999930811373
 20
304.3933099029402
 30
0.0
 40
1.0
  0
CIRCLE
  5
66B
330
1F
100
AcDbEntity
  8
0
100
AcDbCircle
 10
38.74999930811373
 20
304.3933099029402
 30
0.0
 40
2.5114751
  0
LINE
  5
66C
330
1F
100
AcDbEntity
  8
0
100
AcDbLine
 10
35.85000920811375
 20
304.3933149029401
 30
0.0
 11
37.29999850811373
 21
306.9048089029403
 31
0.0
  0
LINE
  5
66D
330
1F
100
AcDbEntity
  8
0
100
AcDbLine
 10
37.29999850811373
 20
301.8818120029403
 30
0.0
 11
35.85000160811296
 21
304.3933089029408
 31
0.0
  0
LINE
  5
66E
330
1F
100
AcDbEntity
  8
0
100
AcDbLine
 10
40.20000010811371
 20
301.8818130029406
 30
0.0
 11
37.29999850811373
 21
301.8818130029406
 31
0.0
  0
LINE
  5
66F
330
1F
100
AcDbEntity
  8
0
100
AcDbLine
 10
37.29999850811373
 20
306.9048080029408
 30
0.0
 11
40.20000010811371
 21
306.9048080029408
 31
0.0
  0
LINE
  5
670
330
1F
100
AcDbEntity
  8
0
100
AcDbLine
 10
41.64995890811383
 20
304.3933079029403
 30
0.0
 11
40.20000010811371
 21
301.8818120029403
 31
0.0
  0
LINE
  5
671
330
1F
100
AcDbEntity
  8
0
100
AcDbLine
 10
40.20000010811371
 20
306.90480490294
 30
0.0
 11
41.64995120811295
 21
304.3933099029402
 31
0.0
  0
ARC
  5
672
330
1F
100
AcDbEntity
  8
0
100
AcDbCircle
 10
37.34009860811282
 20
297.5288257029408
 30
0.0
 40
1.7399909
100
AcDbArc
 50
80.00100710001571
 51
180.0
  0
ARC
  5
673
330
1F
100
AcDbEntity
  8
0
100
AcDbCircle
 10
37.29014900811284
 20
297.5288257029408
 30
0.0
 40
1.639993
100
AcDbArc
 50
80.00090030000761
 51
180.0
  0
LINE
  5
674
330
1F
100
AcDbEntity
  8
0
100
AcDbLine
 10
40.49475030811367
 20
298.6288199029406
 30
0.0
 11
37.57474830811293
 21
299.1438188029409
 31
0.0
  0
LINE
  5
675
330
1F
100
AcDbEntity
  8
0
100
AcDbLine
 10
40.84075090811278
 20
299.4708218029403
 30
0.0
 11
37.78110050811369
 21
300.0103211029403
 31
0.0
  0
LINE
  5
676
330
1F
100
AcDbEntity
  8
0
100
AcDbLine
 10
40.70183870811296
 20
298.7027849029401
 30
0.0
 11
37.64219980811367
 21
299.2422828029406
 31
0.0
  0
LINE
  5
677
330
1F
100
AcDbEntity
  8
0
100
AcDbLine
 10
35.60010770811277
 20
286.26878680294
 30
0.0
 11
35.60010080811366
 21
291.8988060029406
 31
0.0
  0
CIRCLE
  5
678
330
1F
100
AcDbEntity
  8
0
100
AcDbCircle
 10
37.33014990811284
 20
289.1586819029404
 30
0.0
 40
1.0
  0
CIRCLE
  5
679
330
1F
100
AcDbEntity
  8
0
100
AcDbCircle
 10
40.17015000811285
 20
290.5285627029403
 30
0.0
 40
1.0
  0
LINE
  5
67A
330
1F
100
AcDbEntity
  8
0
100
AcDbLine
 10
41.84984900811286
 20
286.7843050029406
 30
0.0
 11
41.84984900811286
 21
297.0138191029402
 31
0.0
  0
LINE
  5
67B
330
1F
100
AcDbEntity
  8
0
100
AcDbLine
 10
42.70009920811367
 20
286.5433058029406
 30
0.0
 11
42.70009920811367
 21
297.2753171029401
 31
0.0
  0
LINE
  5
67C
330
1F
100
AcDbEntity
  8
0
100
AcDbLine
 10
41.90005040811388
 20
286.5233168029401
 30
0.0
 11
41.90005040811388
 21
297.2748207029401
 31
0.0
  0
CIRCLE
  5
67D
330
1F
100
AcDbEntity
  8
0
100
AcDbCircle
 10
40.17015000811285
 20
290.5285627029403
 30
0.0
 40
0.5500030000000003
  0
CIRCLE
  5
67E
330
1F
100
AcDbEntity
  8
0
100
AcDbCircle
 10
40.17015000811285
 20
293.2684391029404
 30
0.0
 40
0.5500030000000003
  0
CIRCLE
  5
67F
330
1F
100
AcDbEntity
  8
0
100
AcDbCircle
 10
40.17015000811285
 20
296.0083155029408
 30
0.0
 40
1.0
  0
CIRCLE
  5
680
330
1F
100
AcDbEntity
  8
0
100
AcDbCircle
 10
40.17015000811285
 20
296.0083155029408
 30
0.0
 40
0.5500030000000003
  0
CIRCLE
  5
681
330
1F
100
AcDbEntity
  8
0
100
AcDbCircle
 10
40.17015000811285
 20
293.2684391029404
 30
0.0
 40
1.0
  0
CIRCLE
  5
682
330
1F
100
AcDbEntity
  8
0
100
AcDbCircle
 10
37.33014990811284
 20
294.6384347029403
 30
0.0
 40
1.0
  0
CIRCLE
  5
683
330
1F
100
AcDbEntity
  8
0
100
AcDbCircle
 10
37.33014990811284
 20
294.6384347029403
 30
0.0
 40
0.5500030000000003
  0
CIRCLE
  5
684
330
1F
100
AcDbEntity
  8
0
100
AcDbCircle
 10
37.33014990811284
 20
291.8985583029406
 30
0.0
 40
1.0
  0
CIRCLE
  5
685
330
1F
100
AcDbEntity
  8
0
100
AcDbCircle
 10
37.33014990811284
 20
291.8985583029406
 30
0.0
 40
0.5500030000000003
  0
CIRCLE
  5
686
330
1F
100
AcDbEntity
  8
0
100
AcDbCircle
 10
37.33014990811284
 20
289.1586819029404
 30
0.0
 40
0.5500030000000003
  0
CIRCLE
  5
687
330
1F
100
AcDbEntity
  8
0
100
AcDbCircle
 10
37.33014990811284
 20
286.4188055029405
 30
0.0
 40
0.5499990000000003
  0
CIRCLE
  5
688
330
1F
100
AcDbEntity
  8
0
100
AcDbCircle
 10
40.17015000811285
 20
287.7888064029406
 30
0.0
 40
0.5500030000000003
  0
CIRCLE
  5
689
330
1F
100
AcDbEntity
  8
0
100
AcDbCircle
 10
40.17015000811285
 20
287.7888064029406
 30
0.0
 40
1.0
  0
LINE
  5
68A
330
1F
100
AcDbEntity
  8
0
100
AcDbLine
 10
34.80010650850589
 20
286.2887617569633
 30
0.0
 11
34.80010150811289
 21
297.5088138029408
 31
0.0
  0
LINE
  5
68B
330
1F
100
AcDbEntity
  8
0
100
AcDbLine
 10
35.64990160811293
 20
286.2693056029405
 30
0.0
 11
35.64990160811293
 21
297.5288257029408
 31
0.0
  0
ARC
  5
68C
330
1F
100
AcDbEntity
  8
0
100
AcDbCircle
 10
40.45009920811367
 20
297.2553200029408
 30
0.0
 40
2.249988999999998
100
AcDbArc
 50
0.0002136000027382
 51
80.00090030000761
  0
ARC
  5
68D
330
1F
100
AcDbEntity
  8
0
100
AcDbCircle
 10
40.45009920811367
 20
297.2753171029406
 30
0.0
 40
1.449996899999999
100
AcDbArc
 50
359.9999770999867
 51
80.00090030000761
  0
ARC
  5
68E
330
1F
100
AcDbEntity
  8
0
100
AcDbCircle
 10
40.21010140811291
 20
297.0138191029402
 30
0.0
 40
1.639991999999999
100
AcDbArc
 50
0.0002822999903721
 51
80.00109860001039
  0
CIRCLE
  5
68F
330
1F
100
AcDbEntity
  8
0
100
AcDbCircle
 10
37.33014990811284
 20
297.3783111029404
 30
0.0
 40
1.0
  0
CIRCLE
  5
690
330
1F
100
AcDbEntity
  8
0
100
AcDbCircle
 10
37.33014990811284
 20
297.3783111029404
 30
0.0
 40
0.5500030000000003
  0
LINE
  5
691
330
1F
100
AcDbEntity
  8
0
100
AcDbLine
 10
35.60010080811366
 20
291.8988060029406
 30
0.0
 11
35.60010080811366
 21
297.5288257029408
 31
0.0
  0
LWPOLYLINE
  5
692
330
1F
100
AcDbEntity
  8
0
100
AcDbPolyline
 90
        4
 70
     1
 43
0.0
 10
155.9999978080989
 20
306.9047603448906
 10
157.9999978080989
 20
306.9047603448906
 10
157.9999978080989
 20
301.8818130029406
 10
155.9999978080989
 20
301.8818130029406
  0
LWPOLYLINE
  5
693
330
1F
100
AcDbEntity
  8
0
100
AcDbPolyline
 90
        4
 70
     1
 43
0.0
 10
155.9999978080989
 20
281.9153265029401
 10
157.9999978080989
 20
281.9153265029401
 10
157.9999978080989
 20
276.8923791609902
 10
155.9999978080989
 20
276.8923791609902
  0
LWPOLYLINE
  5
694
330
1F
100
AcDbEntity
  8
0
100
AcDbPolyline
 90
        4
 70
     1
 43
0.0
 10
155.9999978080989
 20
299.2422828029406
 10
157.9999978080989
 20
299.2422828029406
 10
157.9999978080989
 20
284.5552247175811
 10
155.9999978080989
 20
284.5552247175811
  0
LINE
  5
695
330
1F
100
AcDbEntity
  8
0
100
AcDbLine
 10
278.999997808098
 20
364.8428873326208
 30
0.0
 11
278.999997808098
 21
171.1047465483128
 31
0.0
  0
LINE
  5
696
330
1F
100
AcDbEntity
  8
0
100
AcDbLine
 10
273.9999978080979
 20
170.9738169404668
 30
0.0
 11
273.9999978080979
 21
180.9738169404669
 31
0.0
  0
LINE
  5
697
330
1F
100
AcDbEntity
  8
0
100
AcDbLine
 10
157.9999978080989
 20
180.9738169404669
 30
0.0
 11
157.9999978080989
 21
354.9738169404668
 31
0.0
  0
LINE
  5
698
330
1F
100
AcDbEntity
  8
0
100
AcDbLine
 10
157.9999978080989
 20
354.9738169404668
 30
0.0
 11
273.9999978080979
 21
354.9738169404668
 31
0.0
  0
LINE
  5
699
330
1F
100
AcDbEntity
  8
0
100
AcDbLine
 10
157.9999978080989
 20
180.9738169404669
 30
0.0
 11
273.9999978080979
 21
180.9738169404669
 31
0.0
  0
LINE
  5
69A
330
1F
100
AcDbEntity
  8
0
100
AcDbLine
 10
273.9999978080979
 20
364.9738169404668
 30
0.0
 11
278.999997808098
 21
364.8428873326208
 31
0.0
  0
LINE
  5
69B
330
1F
100
AcDbEntity
  8
0
100
AcDbLine
 10
275.4140375728348
 20
364.9367890060918
 30
0.0
 11
275.4140375728338
 21
171.0108448748417
 31
0.0
  0
LINE
  5
69C
330
1F
100
AcDbEntity
  8
0
100
AcDbLine
 10
273.9999978080979
 20
170.9738169404668
 30
0.0
 11
278.999997808098
 21
171.1047465483128
 31
0.0
  0
LINE
  5
69D
330
1F
100
AcDbEntity
  8
0
100
AcDbLine
 10
157.9999978080989
 20
180.9738169404669
 30
0.0
 11
157.9999978080989
 21
354.9738169404668
 31
0.0
  0
LINE
  5
69E
330
1F
100
AcDbEntity
  8
0
100
AcDbLine
 10
157.9999978080989
 20
354.9738169404668
 30
0.0
 11
275.3878516512668
 21
354.9738169404668
 31
0.0
  0
LINE
  5
69F
330
1F
100
AcDbEntity
  8
0
100
AcDbLine
 10
174.9999978080988
 20
180.9738169404669
 30
0.0
 11
174.9999978080988
 21
354.9738169404668
 31
0.0
  0
LINE
  5
6A0
330
1F
100
AcDbEntity
  8
0
100
AcDbLine
 10
256.9999978080989
 20
180.9738169404669
 30
0.0
 11
256.9999978080989
 21
354.9738169404668
 31
0.0
  0
LINE
  5
6A1
330
1F
100
AcDbEntity
  8
0
100
AcDbLine
 10
174.9999978080988
 20
353.9738169404667
 30
0.0
 11
256.9999978080989
 21
353.9738169404667
 31
0.0
  0
LINE
  5
6A2
330
1F
100
AcDbEntity
  8
0
100
AcDbLine
 10
179.9999978080989
 20
351.9738169404668
 30
0.0
 11
181.9999978080988
 21
351.9738169404668
 31
0.0
  0
LINE
  5
6A3
330
1F
100
AcDbEntity
  8
0
100
AcDbLine
 10
179.9999978080989
 20
181.9738169404669
 30
0.0
 11
179.9999978080989
 21
235.2238169404667
 31
0.0
  0
LINE
  5
6A4
330
1F
100
AcDbEntity
  8
0
100
AcDbLine
 10
181.9999978080988
 20
181.9738169404669
 30
0.0
 11
181.9999978080988
 21
235.2238169404667
 31
0.0
  0
LINE
  5
6A5
330
1F
100
AcDbEntity
  8
0
100
AcDbLine
 10
179.9999978080989
 20
300.7238169404668
 30
0.0
 11
181.9999978080988
 21
300.7238169404668
 31
0.0
  0
LINE
  5
6A6
330
1F
100
AcDbEntity
  8
0
100
AcDbLine
 10
179.9999978080989
 20
235.2238169404667
 30
0.0
 11
181.9999978080988
 21
235.2238169404667
 31
0.0
  0
LINE
  5
6A7
330
1F
100
AcDbEntity
  8
0
100
AcDbLine
 10
174.9999978080988
 20
181.9738169404669
 30
0.0
 11
256.9999978080989
 21
181.9738169404669
 31
0.0
  0
LINE
  5
6A8
330
1F
100
AcDbEntity
  8
0
100
AcDbLine
 10
179.9999978080989
 20
183.9738169404669
 30
0.0
 11
181.9999978080988
 21
183.9738169404669
 31
0.0
  0
LINE
  5
6A9
330
1F
100
AcDbEntity
  8
0
100
AcDbLine
 10
179.9999978080989
 20
300.7238169404668
 30
0.0
 11
179.9999978080989
 21
353.9738169404667
 31
0.0
  0
LINE
  5
6AA
330
1F
100
AcDbEntity
  8
0
100
AcDbLine
 10
181.9999978080988
 20
300.7238169404668
 30
0.0
 11
181.9999978080988
 21
353.9738169404667
 31
0.0
  0
LINE
  5
6AB
330
1F
100
AcDbEntity
  8
0
100
AcDbLine
 10
186.9999978080988
 20
351.9738169404668
 30
0.0
 11
188.9999978080989
 21
351.9738169404668
 31
0.0
  0
LINE
  5
6AC
330
1F
100
AcDbEntity
  8
0
100
AcDbLine
 10
186.9999978080988
 20
181.9738169404669
 30
0.0
 11
186.9999978080988
 21
235.2238169404667
 31
0.0
  0
LINE
  5
6AD
330
1F
100
AcDbEntity
  8
0
100
AcDbLine
 10
188.9999978080989
 20
181.9738169404669
 30
0.0
 11
188.9999978080989
 21
235.2238169404667
 31
0.0
  0
LINE
  5
6AE
330
1F
100
AcDbEntity
  8
0
100
AcDbLine
 10
186.9999978080988
 20
300.7238169404668
 30
0.0
 11
188.9999978080989
 21
300.7238169404668
 31
0.0
  0
LINE
  5
6AF
330
1F
100
AcDbEntity
  8
0
100
AcDbLine
 10
186.9999978080988
 20
235.2238169404667
 30
0.0
 11
188.9999978080989
 21
235.2238169404667
 31
0.0
  0
LINE
  5
6B0
330
1F
100
AcDbEntity
  8
0
100
AcDbLine
 10
186.9999978080988
 20
183.9738169404669
 30
0.0
 11
188.9999978080989
 21
183.9738169404669
 31
0.0
  0
LINE
  5
6B1
330
1F
100
AcDbEntity
  8
0
100
AcDbLine
 10
186.9999978080988
 20
300.7238169404668
 30
0.0
 11
186.9999978080988
 21
353.9738169404667
 31
0.0
  0
LINE
  5
6B2
330
1F
100
AcDbEntity
  8
0
100
AcDbLine
 10
188.9999978080989
 20
300.7238169404668
 30
0.0
 11
188.9999978080989
 21
353.9738169404667
 31
0.0
  0
LINE
  5
6B3
330
1F
100
AcDbEntity
  8
0
100
AcDbLine
 10
193.9999978080989
 20
351.9738169404668
 30
0.0
 11
195.9999978080988
 21
351.9738169404668
 31
0.0
  0
LINE
  5
6B4
330
1F
100
AcDbEntity
  8
0
100
AcDbLine
 10
193.9999978080989
 20
181.9738169404669
 30
0.0
 11
193.9999978080989
 21
235.2238169404667
 31
0.0
  0
LINE
  5
6B5
330
1F
100
AcDbEntity
  8
0
100
AcDbLine
 10
195.9999978080988
 20
181.9738169404669
 30
0.0
 11
195.9999978080988
 21
235.2238169404667
 31
0.0
  0
LINE
  5
6B6
330
1F
100
AcDbEntity
  8
0
100
AcDbLine
 10
193.9999978080989
 20
300.7238169404668
 30
0.0
 11
195.9999978080988
 21
300.7238169404668
 31
0.0
  0
LINE
  5
6B7
330
1F
100
AcDbEntity
  8
0
100
AcDbLine
 10
193.9999978080989
 20
235.2238169404667
 30
0.0
 11
195.9999978080988
 21
235.2238169404667
 31
0.0
  0
LINE
  5
6B8
330
1F
100
AcDbEntity
  8
0
100
AcDbLine
 10
193.9999978080989
 20
183.9738169404669
 30
0.0
 11
195.9999978080988
 21
183.9738169404669
 31
0.0
  0
LINE
  5
6B9
330
1F
100
AcDbEntity
  8
0
100
AcDbLine
 10
193.9999978080989
 20
300.7238169404668
 30
0.0
 11
193.9999978080989
 21
353.9738169404667
 31
0.0
  0
LINE
  5
6BA
330
1F
100
AcDbEntity
  8
0
100
AcDbLine
 10
195.9999978080988
 20
300.7238169404668
 30
0.0
 11
195.9999978080988
 21
353.9738169404667
 31
0.0
  0
LINE
  5
6BB
330
1F
100
AcDbEntity
  8
0
100
AcDbLine
 10
200.9999978080989
 20
181.9738169404669
 30
0.0
 11
200.9999978080989
 21
235.2238169404667
 31
0.0
  0
LINE
  5
6BC
330
1F
100
AcDbEntity
  8
0
100
AcDbLine
 10
202.9999978080989
 20
181.9738169404669
 30
0.0
 11
202.9999978080989
 21
235.2238169404667
 31
0.0
  0
LINE
  5
6BD
330
1F
100
AcDbEntity
  8
0
100
AcDbLine
 10
200.9999978080989
 20
300.7238169404668
 30
0.0
 11
202.9999978080989
 21
300.7238169404668
 31
0.0
  0
LINE
  5
6BE
330
1F
100
AcDbEntity
  8
0
100
AcDbLine
 10
200.9999978080989
 20
235.2238169404667
 30
0.0
 11
202.9999978080989
 21
235.2238169404667
 31
0.0
  0
LINE
  5
6BF
330
1F
100
AcDbEntity
  8
0
100
AcDbLine
 10
200.9999978080989
 20
183.9738169404669
 30
0.0
 11
202.9999978080989
 21
183.9738169404669
 31
0.0
  0
LINE
  5
6C0
330
1F
100
AcDbEntity
  8
0
100
AcDbLine
 10
200.9999978080989
 20
300.7238169404668
 30
0.0
 11
200.9999978080989
 21
353.9738169404667
 31
0.0
  0
LINE
  5
6C1
330
1F
100
AcDbEntity
  8
0
100
AcDbLine
 10
202.9999978080989
 20
300.7238169404668
 30
0.0
 11
202.9999978080989
 21
353.9738169404667
 31
0.0
  0
LINE
  5
6C2
330
1F
100
AcDbEntity
  8
0
100
AcDbLine
 10
207.9999978080989
 20
351.9738169404668
 30
0.0
 11
209.9999978080989
 21
351.9738169404668
 31
0.0
  0
LINE
  5
6C3
330
1F
100
AcDbEntity
  8
0
100
AcDbLine
 10
207.9999978080989
 20
181.9738169404669
 30
0.0
 11
207.9999978080989
 21
235.2238169404667
 31
0.0
  0
LINE
  5
6C4
330
1F
100
AcDbEntity
  8
0
100
AcDbLine
 10
209.9999978080989
 20
181.9738169404669
 30
0.0
 11
209.9999978080989
 21
235.2238169404667
 31
0.0
  0
LINE
  5
6C5
330
1F
100
AcDbEntity
  8
0
100
AcDbLine
 10
207.9999978080989
 20
300.7238169404668
 30
0.0
 11
209.9999978080989
 21
300.7238169404668
 31
0.0
  0
LINE
  5
6C6
330
1F
100
AcDbEntity
  8
0
100
AcDbLine
 10
207.9999978080989
 20
235.2238169404667
 30
0.0
 11
209.9999978080989
 21
235.2238169404667
 31
0.0
  0
LINE
  5
6C7
330
1F
100
AcDbEntity
  8
0
100
AcDbLine
 10
207.9999978080989
 20
183.9738169404669
 30
0.0
 11
209.9999978080989
 21
183.9738169404669
 31
0.0
  0
LINE
  5
6C8
330
1F
100
AcDbEntity
  8
0
100
AcDbLine
 10
207.9999978080989
 20
300.7238169404668
 30
0.0
 11
207.9999978080989
 21
353.9738169404667
 31
0.0
  0
LINE
  5
6C9
330
1F
100
AcDbEntity
  8
0
100
AcDbLine
 10
209.9999978080989
 20
300.7238169404668
 30
0.0
 11
209.9999978080989
 21
353.9738169404667
 31
0.0
  0
LINE
  5
6CA
330
1F
100
AcDbEntity
  8
0
100
AcDbLine
 10
214.9999978080988
 20
351.9738169404668
 30
0.0
 11
216.9999978080988
 21
351.9738169404668
 31
0.0
  0
LINE
  5
6CB
330
1F
100
AcDbEntity
  8
0
100
AcDbLine
 10
214.9999978080988
 20
181.9738169404669
 30
0.0
 11
214.9999978080988
 21
235.2238169404667
 31
0.0
  0
LINE
  5
6CC
330
1F
100
AcDbEntity
  8
0
100
AcDbLine
 10
216.9999978080988
 20
181.9738169404669
 30
0.0
 11
216.9999978080988
 21
235.2238169404667
 31
0.0
  0
LINE
  5
6CD
330
1F
100
AcDbEntity
  8
0
100
AcDbLine
 10
214.9999978080988
 20
300.7238169404668
 30
0.0
 11
216.9999978080988
 21
300.7238169404668
 31
0.0
  0
LINE
  5
6CE
330
1F
100
AcDbEntity
  8
0
100
AcDbLine
 10
214.9999978080988
 20
235.2238169404667
 30
0.0
 11
216.9999978080988
 21
235.2238169404667
 31
0.0
  0
LINE
  5
6CF
330
1F
100
AcDbEntity
  8
0
100
AcDbLine
 10
214.9999978080988
 20
183.9738169404669
 30
0.0
 11
216.9999978080988
 21
183.9738169404669
 31
0.0
  0
LINE
  5
6D0
330
1F
100
AcDbEntity
  8
0
100
AcDbLine
 10
214.9999978080988
 20
300.7238169404668
 30
0.0
 11
214.9999978080988
 21
353.9738169404667
 31
0.0
  0
LINE
  5
6D1
330
1F
100
AcDbEntity
  8
0
100
AcDbLine
 10
216.9999978080988
 20
300.7238169404668
 30
0.0
 11
216.9999978080988
 21
353.9738169404667
 31
0.0
  0
LINE
  5
6D2
330
1F
100
AcDbEntity
  8
0
100
AcDbLine
 10
221.9999978080989
 20
351.9738169404668
 30
0.0
 11
223.9999978080989
 21
351.9738169404668
 31
0.0
  0
LINE
  5
6D3
330
1F
100
AcDbEntity
  8
0
100
AcDbLine
 10
221.9999978080989
 20
181.9738169404669
 30
0.0
 11
221.9999978080989
 21
235.2238169404667
 31
0.0
  0
LINE
  5
6D4
330
1F
100
AcDbEntity
  8
0
100
AcDbLine
 10
223.9999978080989
 20
181.9738169404669
 30
0.0
 11
223.9999978080989
 21
235.2238169404667
 31
0.0
  0
LINE
  5
6D5
330
1F
100
AcDbEntity
  8
0
100
AcDbLine
 10
221.9999978080989
 20
300.7238169404668
 30
0.0
 11
223.9999978080989
 21
300.7238169404668
 31
0.0
  0
LINE
  5
6D6
330
1F
100
AcDbEntity
  8
0
100
AcDbLine
 10
221.9999978080989
 20
235.2238169404667
 30
0.0
 11
223.9999978080989
 21
235.2238169404667
 31
0.0
  0
LINE
  5
6D7
330
1F
100
AcDbEntity
  8
0
100
AcDbLine
 10
221.9999978080989
 20
183.9738169404669
 30
0.0
 11
223.9999978080989
 21
183.9738169404669
 31
0.0
  0
LINE
  5
6D8
330
1F
100
AcDbEntity
  8
0
100
AcDbLine
 10
221.9999978080989
 20
300.7238169404668
 30
0.0
 11
221.9999978080989
 21
353.9738169404667
 31
0.0
  0
LINE
  5
6D9
330
1F
100
AcDbEntity
  8
0
100
AcDbLine
 10
223.9999978080989
 20
300.7238169404668
 30
0.0
 11
223.9999978080989
 21
353.9738169404667
 31
0.0
  0
LINE
  5
6DA
330
1F
100
AcDbEntity
  8
0
100
AcDbLine
 10
228.9999978080988
 20
351.9738169404668
 30
0.0
 11
230.9999978080989
 21
351.9738169404668
 31
0.0
  0
LINE
  5
6DB
330
1F
100
AcDbEntity
  8
0
100
AcDbLine
 10
228.9999978080988
 20
181.9738169404669
 30
0.0
 11
228.9999978080988
 21
235.2238169404667
 31
0.0
  0
LINE
  5
6DC
330
1F
100
AcDbEntity
  8
0
100
AcDbLine
 10
230.9999978080989
 20
181.9738169404669
 30
0.0
 11
230.9999978080989
 21
235.2238169404667
 31
0.0
  0
LINE
  5
6DD
330
1F
100
AcDbEntity
  8
0
100
AcDbLine
 10
228.9999978080988
 20
300.7238169404668
 30
0.0
 11
230.9999978080989
 21
300.7238169404668
 31
0.0
  0
LINE
  5
6DE
330
1F
100
AcDbEntity
  8
0
100
AcDbLine
 10
228.9999978080988
 20
235.2238169404667
 30
0.0
 11
230.9999978080989
 21
235.2238169404667
 31
0.0
  0
LINE
  5
6DF
330
1F
100
AcDbEntity
  8
0
100
AcDbLine
 10
228.9999978080988
 20
183.9738169404669
 30
0.0
 11
230.9999978080989
 21
183.9738169404669
 31
0.0
  0
LINE
  5
6E0
330
1F
100
AcDbEntity
  8
0
100
AcDbLine
 10
228.9999978080988
 20
300.7238169404668
 30
0.0
 11
228.9999978080988
 21
353.9738169404667
 31
0.0
  0
LINE
  5
6E1
330
1F
100
AcDbEntity
  8
0
100
AcDbLine
 10
230.9999978080989
 20
300.7238169404668
 30
0.0
 11
230.9999978080989
 21
353.9738169404667
 31
0.0
  0
LINE
  5
6E2
330
1F
100
AcDbEntity
  8
0
100
AcDbLine
 10
235.9999978080988
 20
351.9738169404668
 30
0.0
 11
237.9999978080988
 21
351.9738169404668
 31
0.0
  0
LINE
  5
6E3
330
1F
100
AcDbEntity
  8
0
100
AcDbLine
 10
235.9999978080988
 20
181.9738169404669
 30
0.0
 11
235.9999978080988
 21
235.2238169404667
 31
0.0
  0
LINE
  5
6E4
330
1F
100
AcDbEntity
  8
0
100
AcDbLine
 10
237.9999978080988
 20
181.9738169404669
 30
0.0
 11
237.9999978080988
 21
235.2238169404667
 31
0.0
  0
LINE
  5
6E5
330
1F
100
AcDbEntity
  8
0
100
AcDbLine
 10
235.9999978080988
 20
300.7238169404668
 30
0.0
 11
237.9999978080988
 21
300.7238169404668
 31
0.0
  0
LINE
  5
6E6
330
1F
100
AcDbEntity
  8
0
100
AcDbLine
 10
235.9999978080988
 20
235.2238169404667
 30
0.0
 11
237.9999978080988
 21
235.2238169404667
 31
0.0
  0
LINE
  5
6E7
330
1F
100
AcDbEntity
  8
0
100
AcDbLine
 10
235.9999978080988
 20
183.9738169404669
 30
0.0
 11
237.9999978080988
 21
183.9738169404669
 31
0.0
  0
LINE
  5
6E8
330
1F
100
AcDbEntity
  8
0
100
AcDbLine
 10
235.9999978080988
 20
300.7238169404668
 30
0.0
 11
235.9999978080988
 21
353.9738169404667
 31
0.0
  0
LINE
  5
6E9
330
1F
100
AcDbEntity
  8
0
100
AcDbLine
 10
237.9999978080988
 20
300.7238169404668
 30
0.0
 11
237.9999978080988
 21
353.9738169404667
 31
0.0
  0
LINE
  5
6EA
330
1F
100
AcDbEntity
  8
0
100
AcDbLine
 10
242.9999978080989
 20
351.9738169404668
 30
0.0
 11
244.9999978080989
 21
351.9738169404668
 31
0.0
  0
LINE
  5
6EB
330
1F
100
AcDbEntity
  8
0
100
AcDbLine
 10
242.9999978080989
 20
181.9738169404669
 30
0.0
 11
242.9999978080989
 21
235.2238169404667
 31
0.0
  0
LINE
  5
6EC
330
1F
100
AcDbEntity
  8
0
100
AcDbLine
 10
244.9999978080989
 20
181.9738169404669
 30
0.0
 11
244.9999978080989
 21
235.2238169404667
 31
0.0
  0
LINE
  5
6ED
330
1F
100
AcDbEntity
  8
0
100
AcDbLine
 10
242.9999978080989
 20
300.7238169404668
 30
0.0
 11
244.9999978080989
 21
300.7238169404668
 31
0.0
  0
LINE
  5
6EE
330
1F
100
AcDbEntity
  8
0
100
AcDbLine
 10
242.9999978080989
 20
235.2238169404667
 30
0.0
 11
244.9999978080989
 21
235.2238169404667
 31
0.0
  0
LINE
  5
6EF
330
1F
100
AcDbEntity
  8
0
100
AcDbLine
 10
242.9999978080989
 20
183.9738169404669
 30
0.0
 11
244.9999978080989
 21
183.9738169404669
 31
0.0
  0
LINE
  5
6F0
330
1F
100
AcDbEntity
  8
0
100
AcDbLine
 10
242.9999978080989
 20
300.7238169404668
 30
0.0
 11
242.9999978080989
 21
353.9738169404667
 31
0.0
  0
LINE
  5
6F1
330
1F
100
AcDbEntity
  8
0
100
AcDbLine
 10
244.9999978080989
 20
300.7238169404668
 30
0.0
 11
244.9999978080989
 21
353.9738169404667
 31
0.0
  0
LINE
  5
6F2
330
1F
100
AcDbEntity
  8
0
100
AcDbLine
 10
249.9999978080988
 20
351.9738169404668
 30
0.0
 11
251.9999978080988
 21
351.9738169404668
 31
0.0
  0
LINE
  5
6F3
330
1F
100
AcDbEntity
  8
0
100
AcDbLine
 10
249.9999978080988
 20
181.9738169404669
 30
0.0
 11
249.9999978080988
 21
235.2238169404667
 31
0.0
  0
LINE
  5
6F4
330
1F
100
AcDbEntity
  8
0
100
AcDbLine
 10
251.9999978080988
 20
181.9738169404669
 30
0.0
 11
251.9999978080988
 21
235.2238169404667
 31
0.0
  0
LINE
  5
6F5
330
1F
100
AcDbEntity
  8
0
100
AcDbLine
 10
249.9999978080988
 20
300.7238169404668
 30
0.0
 11
251.9999978080988
 21
300.7238169404668
 31
0.0
  0
LINE
  5
6F6
330
1F
100
AcDbEntity
  8
0
100
AcDbLine
 10
249.9999978080988
 20
235.2238169404667
 30
0.0
 11
251.9999978080988
 21
235.2238169404667
 31
0.0
  0
LINE
  5
6F7
330
1F
100
AcDbEntity
  8
0
100
AcDbLine
 10
249.9999978080988
 20
183.9738169404669
 30
0.0
 11
251.9999978080988
 21
183.9738169404669
 31
0.0
  0
LINE
  5
6F8
330
1F
100
AcDbEntity
  8
0
100
AcDbLine
 10
249.9999978080988
 20
300.7238169404668
 30
0.0
 11
249.9999978080988
 21
353.9738169404667
 31
0.0
  0
LINE
  5
6F9
330
1F
100
AcDbEntity
  8
0
100
AcDbLine
 10
251.9999978080988
 20
300.7238169404668
 30
0.0
 11
251.9999978080988
 21
353.9738169404667
 31
0.0
  0
LINE
  5
6FA
330
1F
100
AcDbEntity
  8
0
100
AcDbLine
 10
179.9999978080989
 20
329.4738169404668
 30
0.0
 11
181.9999978080988
 21
329.4738169404668
 31
0.0
  0
LINE
  5
6FB
330
1F
100
AcDbEntity
  8
0
100
AcDbLine
 10
179.9999978080989
 20
326.4738169404668
 30
0.0
 11
181.9999978080988
 21
326.4738169404668
 31
0.0
  0
LINE
  5
6FC
330
1F
100
AcDbEntity
  8
0
100
AcDbLine
 10
179.9999978080989
 20
209.4738169404666
 30
0.0
 11
181.9999978080988
 21
209.4738169404666
 31
0.0
  0
LINE
  5
6FD
330
1F
100
AcDbEntity
  8
0
100
AcDbLine
 10
179.9999978080989
 20
206.4738169404669
 30
0.0
 11
181.9999978080988
 21
206.4738169404669
 31
0.0
  0
LINE
  5
6FE
330
1F
100
AcDbEntity
  8
0
100
AcDbLine
 10
186.9999978080988
 20
329.4738169404668
 30
0.0
 11
188.9999978080989
 21
329.4738169404668
 31
0.0
  0
LINE
  5
6FF
330
1F
100
AcDbEntity
  8
0
100
AcDbLine
 10
186.9999978080988
 20
326.4738169404668
 30
0.0
 11
188.9999978080989
 21
326.4738169404668
 31
0.0
  0
LINE
  5
700
330
1F
100
AcDbEntity
  8
0
100
AcDbLine
 10
186.9999978080988
 20
209.4738169404666
 30
0.0
 11
188.9999978080989
 21
209.4738169404666
 31
0.0
  0
LINE
  5
701
330
1F
100
AcDbEntity
  8
0
100
AcDbLine
 10
186.9999978080988
 20
206.4738169404669
 30
0.0
 11
188.9999978080989
 21
206.4738169404669
 31
0.0
  0
LINE
  5
702
330
1F
100
AcDbEntity
  8
0
100
AcDbLine
 10
193.9999978080989
 20
329.4738169404668
 30
0.0
 11
195.9999978080988
 21
329.4738169404668
 31
0.0
  0
LINE
  5
703
330
1F
100
AcDbEntity
  8
0
100
AcDbLine
 10
193.9999978080989
 20
326.4738169404668
 30
0.0
 11
195.9999978080988
 21
326.4738169404668
 31
0.0
  0
LINE
  5
704
330
1F
100
AcDbEntity
  8
0
100
AcDbLine
 10
193.9999978080989
 20
209.4738169404666
 30
0.0
 11
195.9999978080988
 21
209.4738169404666
 31
0.0
  0
LINE
  5
705
330
1F
100
AcDbEntity
  8
0
100
AcDbLine
 10
193.9999978080989
 20
206.4738169404669
 30
0.0
 11
195.9999978080988
 21
206.4738169404669
 31
0.0
  0
LINE
  5
706
330
1F
100
AcDbEntity
  8
0
100
AcDbLine
 10
200.9999978080989
 20
329.4738169404668
 30
0.0
 11
202.9999978080989
 21
329.4738169404668
 31
0.0
  0
LINE
  5
707
330
1F
100
AcDbEntity
  8
0
100
AcDbLine
 10
200.9999978080989
 20
326.4738169404668
 30
0.0
 11
202.9999978080989
 21
326.4738169404668
 31
0.0
  0
LINE
  5
708
330
1F
100
AcDbEntity
  8
0
100
AcDbLine
 10
200.9999978080989
 20
209.4738169404666
 30
0.0
 11
202.9999978080989
 21
209.4738169404666
 31
0.0
  0
LINE
  5
709
330
1F
100
AcDbEntity
  8
0
100
AcDbLine
 10
200.9999978080989
 20
206.4738169404669
 30
0.0
 11
202.9999978080989
 21
206.4738169404669
 31
0.0
  0
LINE
  5
70A
330
1F
100
AcDbEntity
  8
0
100
AcDbLine
 10
207.9999978080989
 20
329.4738169404668
 30
0.0
 11
209.9999978080989
 21
329.4738169404668
 31
0.0
  0
LINE
  5
70B
330
1F
100
AcDbEntity
  8
0
100
AcDbLine
 10
207.9999978080989
 20
326.4738169404668
 30
0.0
 11
209.9999978080989
 21
326.4738169404668
 31
0.0
  0
LINE
  5
70C
330
1F
100
AcDbEntity
  8
0
100
AcDbLine
 10
207.9999978080989
 20
209.4738169404666
 30
0.0
 11
209.9999978080989
 21
209.4738169404666
 31
0.0
  0
LINE
  5
70D
330
1F
100
AcDbEntity
  8
0
100
AcDbLine
 10
207.9999978080989
 20
206.4738169404669
 30
0.0
 11
209.9999978080989
 21
206.4738169404669
 31
0.0
  0
LINE
  5
70E
330
1F
100
AcDbEntity
  8
0
100
AcDbLine
 10
214.9999978080988
 20
329.4738169404668
 30
0.0
 11
216.9999978080988
 21
329.4738169404668
 31
0.0
  0
LINE
  5
70F
330
1F
100
AcDbEntity
  8
0
100
AcDbLine
 10
214.9999978080988
 20
326.4738169404668
 30
0.0
 11
216.9999978080988
 21
326.4738169404668
 31
0.0
  0
LINE
  5
710
330
1F
100
AcDbEntity
  8
0
100
AcDbLine
 10
214.9999978080988
 20
209.4738169404666
 30
0.0
 11
216.9999978080988
 21
209.4738169404666
 31
0.0
  0
LINE
  5
711
330
1F
100
AcDbEntity
  8
0
100
AcDbLine
 10
214.9999978080988
 20
206.4738169404669
 30
0.0
 11
216.9999978080988
 21
206.4738169404669
 31
0.0
  0
LINE
  5
712
330
1F
100
AcDbEntity
  8
0
100
AcDbLine
 10
221.9999978080989
 20
329.4738169404668
 30
0.0
 11
223.9999978080989
 21
329.4738169404668
 31
0.0
  0
LINE
  5
713
330
1F
100
AcDbEntity
  8
0
100
AcDbLine
 10
221.9999978080989
 20
326.4738169404668
 30
0.0
 11
223.9999978080989
 21
326.4738169404668
 31
0.0
  0
LINE
  5
714
330
1F
100
AcDbEntity
  8
0
100
AcDbLine
 10
221.9999978080989
 20
209.4738169404666
 30
0.0
 11
223.9999978080989
 21
209.4738169404666
 31
0.0
  0
LINE
  5
715
330
1F
100
AcDbEntity
  8
0
100
AcDbLine
 10
221.9999978080989
 20
206.4738169404669
 30
0.0
 11
223.9999978080989
 21
206.4738169404669
 31
0.0
  0
LINE
  5
716
330
1F
100
AcDbEntity
  8
0
100
AcDbLine
 10
228.9999978080988
 20
329.4738169404668
 30
0.0
 11
230.9999978080989
 21
329.4738169404668
 31
0.0
  0
LINE
  5
717
330
1F
100
AcDbEntity
  8
0
100
AcDbLine
 10
228.9999978080988
 20
326.4738169404668
 30
0.0
 11
230.9999978080989
 21
326.4738169404668
 31
0.0
  0
LINE
  5
718
330
1F
100
AcDbEntity
  8
0
100
AcDbLine
 10
228.9999978080988
 20
209.4738169404666
 30
0.0
 11
230.9999978080989
 21
209.4738169404666
 31
0.0
  0
LINE
  5
719
330
1F
100
AcDbEntity
  8
0
100
AcDbLine
 10
228.9999978080988
 20
206.4738169404669
 30
0.0
 11
230.9999978080989
 21
206.4738169404669
 31
0.0
  0
LINE
  5
71A
330
1F
100
AcDbEntity
  8
0
100
AcDbLine
 10
235.9999978080988
 20
329.4738169404668
 30
0.0
 11
237.9999978080988
 21
329.4738169404668
 31
0.0
  0
LINE
  5
71B
330
1F
100
AcDbEntity
  8
0
100
AcDbLine
 10
235.9999978080988
 20
326.4738169404668
 30
0.0
 11
237.9999978080988
 21
326.4738169404668
 31
0.0
  0
LINE
  5
71C
330
1F
100
AcDbEntity
  8
0
100
AcDbLine
 10
235.9999978080988
 20
209.4738169404666
 30
0.0
 11
237.9999978080988
 21
209.4738169404666
 31
0.0
  0
LINE
  5
71D
330
1F
100
AcDbEntity
  8
0
100
AcDbLine
 10
235.9999978080988
 20
206.4738169404669
 30
0.0
 11
237.9999978080988
 21
206.4738169404669
 31
0.0
  0
LINE
  5
71E
330
1F
100
AcDbEntity
  8
0
100
AcDbLine
 10
242.9999978080989
 20
329.4738169404668
 30
0.0
 11
244.9999978080989
 21
329.4738169404668
 31
0.0
  0
LINE
  5
71F
330
1F
100
AcDbEntity
  8
0
100
AcDbLine
 10
242.9999978080989
 20
326.4738169404668
 30
0.0
 11
244.9999978080989
 21
326.4738169404668
 31
0.0
  0
LINE
  5
720
330
1F
100
AcDbEntity
  8
0
100
AcDbLine
 10
242.9999978080989
 20
209.4738169404666
 30
0.0
 11
244.9999978080989
 21
209.4738169404666
 31
0.0
  0
LINE
  5
721
330
1F
100
AcDbEntity
  8
0
100
AcDbLine
 10
242.9999978080989
 20
206.4738169404669
 30
0.0
 11
244.9999978080989
 21
206.4738169404669
 31
0.0
  0
LINE
  5
722
330
1F
100
AcDbEntity
  8
0
100
AcDbLine
 10
249.9999978080988
 20
329.4738169404668
 30
0.0
 11
251.9999978080988
 21
329.4738169404668
 31
0.0
  0
LINE
  5
723
330
1F
100
AcDbEntity
  8
0
100
AcDbLine
 10
249.9999978080988
 20
326.4738169404668
 30
0.0
 11
251.9999978080988
 21
326.4738169404668
 31
0.0
  0
LINE
  5
724
330
1F
100
AcDbEntity
  8
0
100
AcDbLine
 10
249.9999978080988
 20
209.4738169404666
 30
0.0
 11
251.9999978080988
 21
209.4738169404666
 31
0.0
  0
LINE
  5
725
330
1F
100
AcDbEntity
  8
0
100
AcDbLine
 10
249.9999978080988
 20
206.4738169404669
 30
0.0
 11
251.9999978080988
 21
206.4738169404669
 31
0.0
  0
LINE
  5
726
330
1F
100
AcDbEntity
  8
0
100
AcDbLine
 10
229.9999978080989
 20
181.9738169404669
 30
0.0
 11
229.9999978080979
 21
181.4738169404669
 31
0.0
  0
LINE
  5
727
330
1F
100
AcDbEntity
  8
0
100
AcDbLine
 10
174.9999978080988
 20
181.4738169404669
 30
0.0
 11
229.9999978080989
 21
181.4738169404669
 31
0.0
  0
LINE
  5
728
330
1F
100
AcDbEntity
  8
0
100
AcDbLine
 10
275.3878516512659
 20
180.9738169404669
 30
0.0
 11
275.3878516512668
 21
354.9738169404668
 31
0.0
  0
LINE
  5
729
330
1F
100
AcDbEntity
  8
0
100
AcDbLine
 10
154.5999978080988
 20
221.6738176741571
 30
0.0
 11
154.5999978080988
 21
201.4738176741571
 31
0.0
  0
LINE
  5
72A
330
1F
100
AcDbEntity
  8
0
100
AcDbLine
 10
155.4999978080989
 20
197.9738176741569
 30
0.0
 11
154.9999978080989
 21
198.4738176741571
 31
0.0
  0
LINE
  5
72B
330
1F
100
AcDbEntity
  8
0
100
AcDbLine
 10
154.9999978080989
 20
199.373817674157
 30
0.0
 11
154.9999978080989
 21
198.4738176741571
 31
0.0
  0
LINE
  5
72C
330
1F
100
AcDbEntity
  8
0
100
AcDbLine
 10
156.2999978080988
 20
197.9738176741569
 30
0.0
 11
155.4999978080989
 21
197.9738176741569
 31
0.0
  0
ARC
  5
72D
330
1F
100
AcDbEntity
  8
0
100
AcDbCircle
 10
155.9999978080989
 20
199.3738176741569
 30
0.0
 40
1.0
100
AcDbArc
 50
90.0
 51
180.0
  0
LINE
  5
72E
330
1F
100
AcDbEntity
  8
0
100
AcDbLine
 10
157.9999978080989
 20
200.373817674157
 30
0.0
 11
155.9999978080989
 21
200.3738176741569
 31
0.0
  0
LINE
  5
72F
330
1F
100
AcDbEntity
  8
0
100
AcDbLine
 10
157.9999978080989
 20
199.1738176741571
 30
0.0
 11
156.2999978080988
 21
199.1738176741571
 31
0.0
  0
LINE
  5
730
330
1F
100
AcDbEntity
  8
0
100
AcDbLine
 10
157.9999978080989
 20
201.4738176741571
 30
0.0
 11
154.5999978080988
 21
201.4738176741571
 31
0.0
  0
LINE
  5
731
330
1F
100
AcDbEntity
  8
0
100
AcDbLine
 10
156.2999978080988
 20
197.9738176741569
 30
0.0
 11
156.2999978080988
 21
199.1738176741571
 31
0.0
  0
LINE
  5
732
330
1F
100
AcDbEntity
  8
0
100
AcDbLine
 10
155.4999978080989
 20
225.1738176741572
 30
0.0
 11
154.9999978080989
 21
224.6738176741572
 31
0.0
  0
LINE
  5
733
330
1F
100
AcDbEntity
  8
0
100
AcDbLine
 10
154.9999978080989
 20
224.6738176741572
 30
0.0
 11
154.9999978080989
 21
223.773817674157
 31
0.0
  0
LINE
  5
734
330
1F
100
AcDbEntity
  8
0
100
AcDbLine
 10
156.2999978080988
 20
225.1738176741572
 30
0.0
 11
155.4999978080989
 21
225.1738176741572
 31
0.0
  0
ARC
  5
735
330
1F
100
AcDbEntity
  8
0
100
AcDbCircle
 10
155.9999978080989
 20
223.773817674157
 30
0.0
 40
1.0
100
AcDbArc
 50
180.0
 51
270.0
  0
LINE
  5
736
330
1F
100
AcDbEntity
  8
0
100
AcDbLine
 10
157.9999978080989
 20
222.7738176741571
 30
0.0
 11
155.9999978080989
 21
222.7738176741571
 31
0.0
  0
LINE
  5
737
330
1F
100
AcDbEntity
  8
0
100
AcDbLine
 10
154.5999978080988
 20
221.6738176741571
 30
0.0
 11
157.9999978080989
 21
221.6738176741571
 31
0.0
  0
LINE
  5
738
330
1F
100
AcDbEntity
  8
0
100
AcDbLine
 10
157.9999978080989
 20
223.9738176741572
 30
0.0
 11
156.2999978080988
 21
223.9738176741572
 31
0.0
  0
LINE
  5
739
330
1F
100
AcDbEntity
  8
0
100
AcDbLine
 10
156.2999978080988
 20
223.9738176741571
 30
0.0
 11
156.2999978080988
 21
225.1738176741572
 31
0.0
  0
LINE
  5
73A
330
1F
100
AcDbEntity
  8
0
100
AcDbLine
 10
157.9999978080989
 20
185.9738176741569
 30
0.0
 11
155.4999978080989
 21
185.9738176741569
 31
0.0
  0
LINE
  5
73B
330
1F
100
AcDbEntity
  8
0
100
AcDbLine
 10
155.4999978080989
 20
185.9738176741569
 30
0.0
 11
155.4999978080989
 21
191.4738176741569
 31
0.0
  0
LINE
  5
73C
330
1F
100
AcDbEntity
  8
0
100
AcDbLine
 10
155.4999978080989
 20
191.4738176741569
 30
0.0
 11
157.9999978080989
 21
191.4738176741569
 31
0.0
  0
LINE
  5
73D
330
1F
100
AcDbEntity
  8
0
100
AcDbLine
 10
157.9999978080989
 20
226.6138169404669
 30
0.0
 11
156.9999978080988
 21
226.6138169404669
 31
0.0
  0
LINE
  5
73E
330
1F
100
AcDbEntity
  8
0
100
AcDbLine
 10
156.9999978080988
 20
226.6138169404669
 30
0.0
 11
156.9999978080988
 21
223.9738176741572
 31
0.0
  0
LINE
  5
73F
330
1F
100
AcDbEntity
  8
0
100
AcDbLine
 10
151.3999978080986
 20
276.9738169404669
 30
0.0
 11
155.9999978080989
 21
276.9738169404669
 31
0.0
  0
LINE
  5
740
330
1F
100
AcDbEntity
  8
0
100
AcDbLine
 10
157.9999978080989
 20
301.1338169404668
 30
0.0
 11
151.3999978080986
 21
301.1338169404668
 31
0.0
  0
LINE
  5
741
330
1F
100
AcDbEntity
  8
0
100
AcDbLine
 10
151.3999978080986
 20
301.1338169404668
 30
0.0
 11
151.3999978080986
 21
276.9738169404669
 31
0.0
  0
LINE
  5
742
330
1F
100
AcDbEntity
  8
0
100
AcDbLine
 10
152.6999978080986
 20
235.8138169404667
 30
0.0
 11
152.6999978080986
 21
264.2738169404667
 31
0.0
  0
LINE
  5
743
330
1F
100
AcDbEntity
  8
0
100
AcDbLine
 10
152.6999978080986
 20
239.9238169404668
 30
0.0
 11
156.9999978080988
 21
239.9238169404668
 31
0.0
  0
LINE
  5
744
330
1F
100
AcDbEntity
  8
0
100
AcDbLine
 10
156.9999978080988
 20
235.8138169404667
 30
0.0
 11
152.6999978080986
 21
235.8138169404667
 31
0.0
  0
LINE
  5
745
330
1F
100
AcDbEntity
  8
0
100
AcDbLine
 10
152.6999978080986
 20
260.1638169404667
 30
0.0
 11
157.9999978080989
 21
260.1638169404667
 31
0.0
  0
LINE
  5
746
330
1F
100
AcDbEntity
  8
0
100
AcDbLine
 10
152.6999978080986
 20
255.1638169404669
 30
0.0
 11
157.9999978080989
 21
255.1638169404669
 31
0.0
  0
LINE
  5
747
330
1F
100
AcDbEntity
  8
0
100
AcDbLine
 10
152.6999978080986
 20
247.5438169404666
 30
0.0
 11
157.9999978080989
 21
247.5438169404666
 31
0.0
  0
LINE
  5
748
330
1F
100
AcDbEntity
  8
0
100
AcDbLine
 10
152.6999978080986
 20
252.5438169404667
 30
0.0
 11
157.9999978080989
 21
252.5438169404667
 31
0.0
  0
LINE
  5
749
330
1F
100
AcDbEntity
  8
0
100
AcDbLine
 10
152.6999978080986
 20
244.9238169404667
 30
0.0
 11
157.1999978080986
 21
244.9238169404667
 31
0.0
  0
LINE
  5
74A
330
1F
100
AcDbEntity
  8
0
100
AcDbLine
 10
157.1999978080986
 20
264.2738169404667
 30
0.0
 11
152.6999978080986
 21
264.2738169404667
 31
0.0
  0
LINE
  5
74B
330
1F
100
AcDbEntity
  8
0
100
AcDbLine
 10
200.9999978080989
 20
351.9738169404668
 30
0.0
 11
202.9999978080989
 21
351.9738169404668
 31
0.0
  0
LINE
  5
74C
330
1F
100
AcDbEntity
  8
0
100
AcDbLine
 10
273.9999978080979
 20
354.9738169404668
 30
0.0
 11
273.9999978080979
 21
364.9738169404668
 31
0.0
  0
LINE
  5
74D
330
1F
100
AcDbEntity
  8
0
100
AcDbLine
 10
157.9999978080989
 20
180.9738169404669
 30
0.0
 11
275.3878516512659
 21
180.9738169404669
 31
0.0
  0
LINE
  5
74E
330
1F
100
AcDbEntity
  8
0
100
AcDbLine
 10
176.9999978080988
 20
164.4738169404669
 30
0.0
 11
176.9999978080988
 21
172.9738169404669
 31
0.0
  0
LINE
  5
74F
330
1F
100
AcDbEntity
  8
0
100
AcDbLine
 10
228.999997808098
 20
164.4738169404669
 30
0.0
 11
228.999997808098
 21
180.9738169404669
 31
0.0
  0
LINE
  5
750
330
1F
100
AcDbEntity
  8
0
100
AcDbLine
 10
176.9999978080988
 20
164.4738169404669
 30
0.0
 11
228.999997808098
 21
164.4738169404669
 31
0.0
  0
LINE
  5
751
330
1F
100
AcDbEntity
  8
0
100
AcDbLine
 10
186.9999978080988
 20
164.4738169404669
 30
0.0
 11
186.9999978080988
 21
180.9738169404669
 31
0.0
  0
LINE
  5
752
330
1F
100
AcDbEntity
  8
0
100
AcDbLine
 10
176.9999978080988
 20
172.9738169404669
 30
0.0
 11
186.9999978080988
 21
172.9738169404669
 31
0.0
  0
LINE
  5
753
330
1F
100
AcDbEntity
  8
0
100
AcDbLine
 10
188.9999978080989
 20
173.9738169404667
 30
0.0
 11
188.9999978080989
 21
164.4738169404669
 31
0.0
  0
LINE
  5
754
330
1F
100
AcDbEntity
  8
0
100
AcDbLine
 10
226.999997808098
 20
173.9738169404667
 30
0.0
 11
226.999997808098
 21
164.4738169404669
 31
0.0
  0
LINE
  5
755
330
1F
100
AcDbEntity
  8
0
100
AcDbLine
 10
156.9999978080988
 20
222.7738176741571
 30
0.0
 11
156.9999978080988
 21
221.6738176741571
 31
0.0
  0
LINE
  5
756
330
1F
100
AcDbEntity
  8
0
100
AcDbLine
 10
156.9999978080988
 20
201.4738176741571
 30
0.0
 11
156.9999978080988
 21
200.3738176741569
 31
0.0
  0
LINE
  5
757
330
1F
100
AcDbEntity
  8
0
100
AcDbLine
 10
156.9999978080988
 20
199.1738176741571
 30
0.0
 11
156.9999978080988
 21
191.4738176741569
 31
0.0
  0
LINE
  5
758
330
1F
100
AcDbEntity
  8
0
100
AcDbLine
 10
157.9999978080989
 20
322.4138169404668
 30
0.0
 11
156.9956358672476
 21
322.4138169404668
 31
0.0
  0
LINE
  5
759
330
1F
100
AcDbEntity
  8
0
100
AcDbLine
 10
157.9999978080989
 20
233.1738176741572
 30
0.0
 11
156.9999978080988
 21
233.1738176741572
 31
0.0
  0
LINE
  5
75A
330
1F
100
AcDbEntity
  8
0
100
AcDbLine
 10
156.9999978080988
 20
233.1738176741572
 30
0.0
 11
156.9999978080988
 21
241.5738176741573
 31
0.0
  0
LINE
  5
75B
330
1F
100
AcDbEntity
  8
0
100
AcDbLine
 10
156.9999978080988
 20
241.5738176741573
 30
0.0
 11
157.9999978080989
 21
241.5738176741573
 31
0.0
  0
LINE
  5
75C
330
1F
100
AcDbEntity
  8
0
100
AcDbLine
 10
157.9999978080989
 20
243.0738176741572
 30
0.0
 11
157.1999978080986
 21
243.0738176741572
 31
0.0
  0
LINE
  5
75D
330
1F
100
AcDbEntity
  8
0
100
AcDbLine
 10
157.1999978080986
 20
243.0738176741572
 30
0.0
 11
157.1999978080986
 21
246.0738176741573
 31
0.0
  0
LINE
  5
75E
330
1F
100
AcDbEntity
  8
0
100
AcDbLine
 10
157.1999978080986
 20
246.0738176741573
 30
0.0
 11
157.9999978080989
 21
246.0738176741573
 31
0.0
  0
LINE
  5
75F
330
1F
100
AcDbEntity
  8
0
100
AcDbLine
 10
157.9999978080989
 20
263.0738176741572
 30
0.0
 11
157.1999978080986
 21
263.0738176741572
 31
0.0
  0
LINE
  5
760
330
1F
100
AcDbEntity
  8
0
100
AcDbLine
 10
157.1999978080986
 20
263.0738176741572
 30
0.0
 11
157.1999978080986
 21
266.0738176741572
 31
0.0
  0
LINE
  5
761
330
1F
100
AcDbEntity
  8
0
100
AcDbLine
 10
157.1999978080986
 20
266.0738176741572
 30
0.0
 11
157.9999978080989
 21
266.0738176741572
 31
0.0
  0
LINE
  5
762
330
1F
100
AcDbEntity
  8
0
  6
CONTINUOUS
100
AcDbLine
 10
156.9956358672476
 20
322.4138169404668
 30
0.0
 11
156.9956358672476
 21
307.0138169404667
 31
0.0
  0
LINE
  5
763
330
1F
100
AcDbEntity
  8
0
  6
CONTINUOUS
100
AcDbLine
 10
156.9956358672476
 20
307.0138169404667
 30
0.0
 11
157.9999978080989
 21
307.0138169404667
 31
0.0
  0
LINE
  5
764
330
1F
100
AcDbEntity
  8
0
100
AcDbLine
 10
26.70870996062081
 20
4.379168385103866
 30
0.0
 11
26.70870996062081
 21
21.97381694046794
 31
0.0
  0
LINE
  5
765
330
1F
100
AcDbEntity
  8
0
100
AcDbLine
 10
31.29128565557584
 20
4.259169417370968
 30
0.0
 11
31.29128565557584
 21
21.97381694046686
 31
0.0
  0
LINE
  5
766
330
1F
100
AcDbEntity
  8
0
100
AcDbLine
 10
5.999997808098896
 20
4.921445097328898
 30
0.0
 11
5.999997808098896
 21
20.9738169404668
 31
0.0
  0
LINE
  5
767
330
1F
100
AcDbEntity
  8
0
100
AcDbLine
 10
4.999997808098896
 20
21.00000286203595
 30
0.0
 11
4.999997808098896
 21
4.973816940465667
 31
0.0
  0
LINE
  5
768
330
1F
100
AcDbEntity
  8
0
100
AcDbLine
 10
-0.0000021919011033
 20
21.4196696212428
 30
0.0
 11
-0.0000021919011033
 21
0.0000028620359558
 31
0.0
  0
LINE
  5
769
330
1F
100
AcDbEntity
  8
0
100
AcDbLine
 10
57.9999978080989
 20
3.585963097298928
 30
0.0
 11
57.9999978080989
 21
120.9738169404668
 31
0.0
  0
LINE
  5
76A
330
1F
100
AcDbEntity
  8
0
100
AcDbLine
 10
53.4999978080989
 20
86.97381694046681
 30
0.0
 11
53.4999978080989
 21
91.97381694046686
 31
0.0
  0
LINE
  5
76B
330
1F
100
AcDbEntity
  8
0
100
AcDbLine
 10
54.49999780809889
 20
96.97381694046681
 30
0.0
 11
54.49999780809889
 21
70.97381694046679
 31
0.0
  0
LINE
  5
76C
330
1F
100
AcDbEntity
  8
0
100
AcDbLine
 10
33.4999978080989
 20
70.97381694046679
 30
0.0
 11
33.4999978080989
 21
96.97381694046681
 31
0.0
  0
ARC
  5
76D
330
1F
100
AcDbEntity
  8
0
100
AcDbCircle
 10
2.399997808098759
 20
89.31966962124297
 30
0.0
 40
0.6
100
AcDbArc
 50
0.0
 51
88.0908475669994
  0
LINE
  5
76E
330
1F
100
AcDbEntity
  8
0
100
AcDbLine
 10
5.999997808098896
 20
82.97381694046782
 30
0.0
 11
5.999997808098896
 21
109.6057363671648
 31
0.0
  0
LINE
  5
76F
330
1F
100
AcDbEntity
  8
0
100
AcDbLine
 10
4.999997808098896
 20
110.4710219199098
 30
0.0
 11
4.999997808098896
 21
83.00000286203596
 31
0.0
  0
LINE
  5
770
330
1F
100
AcDbEntity
  8
0
100
AcDbLine
 10
56.99999780809889
 20
21.97381694046686
 30
0.0
 11
56.99999780809889
 21
103.9738169404668
 31
0.0
  0
LINE
  5
771
330
1F
100
AcDbEntity
  8
0
100
AcDbLine
 10
15.99999780809889
 20
103.9738169404668
 30
0.0
 11
15.99999780809889
 21
21.97381694046686
 31
0.0
  0
LINE
  5
772
330
1F
100
AcDbEntity
  8
0
100
AcDbLine
 10
28.19999780809871
 20
105.4738169404668
 30
0.0
 11
19.99999780809888
 21
105.4738169404668
 31
0.0
  0
LINE
  5
773
330
1F
100
AcDbEntity
  8
0
100
AcDbLine
 10
19.99999780809888
 20
117.4738169404668
 30
0.0
 11
28.19999780809871
 21
117.4738169404668
 31
0.0
  0
LINE
  5
774
330
1F
100
AcDbEntity
  8
0
100
AcDbLine
 10
19.99999780809888
 20
109.4738169404668
 30
0.0
 11
23.19999780809871
 21
109.4738169404668
 31
0.0
  0
LINE
  5
775
330
1F
100
AcDbEntity
  8
0
100
AcDbLine
 10
19.99999780809888
 20
113.4738169404668
 30
0.0
 11
23.19999780809871
 21
113.4738169404668
 31
0.0
  0
LINE
  5
776
330
1F
100
AcDbEntity
  8
0
100
AcDbLine
 10
32.99999780809889
 20
89.97381694046685
 30
0.0
 11
15.99999780809889
 21
89.97381694046685
 31
0.0
  0
LINE
  5
777
330
1F
100
AcDbEntity
  8
0
100
AcDbLine
 10
32.99999780809889
 20
91.97381694046686
 30
0.0
 11
15.99999780809889
 21
91.97381694046686
 31
0.0
  0
LINE
  5
778
330
1F
100
AcDbEntity
  8
0
100
AcDbLine
 10
56.99999780809889
 20
96.97381694046681
 30
0.0
 11
53.44721962194376
 21
96.97381694046681
 31
0.0
  0
LINE
  5
779
330
1F
100
AcDbEntity
  8
0
100
AcDbLine
 10
56.99999780809889
 20
98.9738169404668
 30
0.0
 11
53.44721962194376
 21
98.9738169404668
 31
0.0
  0
LINE
  5
77A
330
1F
100
AcDbEntity
  8
0
100
AcDbLine
 10
15.99999780809889
 20
103.9738169404668
 30
0.0
 11
57.9999978080989
 21
103.9738169404668
 31
0.0
  0
LINE
  5
77B
330
1F
100
AcDbEntity
  8
0
100
AcDbLine
 10
5.999997808098896
 20
120.9738169404668
 30
0.0
 11
57.9999978080989
 21
120.9738169404668
 31
0.0
  0
LINE
  5
77C
330
1F
100
AcDbEntity
  8
0
100
AcDbLine
 10
19.99999780809888
 20
109.4738169404668
 30
0.0
 11
19.99999780809888
 21
105.4738169404668
 31
0.0
  0
LINE
  5
77D
330
1F
100
AcDbEntity
  8
0
100
AcDbLine
 10
-0.0000021919011033
 20
90.5803361028278
 30
0.0
 11
-0.0000021919011033
 21
120.8952591757589
 31
0.0
  0
LINE
  5
77E
330
1F
100
AcDbEntity
  8
0
100
AcDbLine
 10
7.999997808098896
 20
120.4738169404668
 30
0.0
 11
7.999997808098896
 21
110.9738169404675
 31
0.0
  0
LINE
  5
77F
330
1F
100
AcDbEntity
  8
0
100
AcDbLine
 10
8.999997808098896
 20
120.9738169404668
 30
0.0
 11
8.999997808098896
 21
110.1347173092898
 31
0.0
  0
LINE
  5
780
330
1F
100
AcDbEntity
  8
0
100
AcDbLine
 10
7.999997808098896
 20
111.0000028620359
 30
0.0
 11
7.999997808098896
 21
120.8952591757589
 31
0.0
  0
LINE
  5
781
330
1F
100
AcDbEntity
  8
0
100
AcDbLine
 10
5.999997808098896
 20
120.9738169404668
 30
0.0
 11
5.999997808098896
 21
120.9476310188973
 31
0.0
  0
LINE
  5
782
330
1F
100
AcDbEntity
  8
0
100
AcDbLine
 10
5.999997808098896
 20
120.9738169404668
 30
0.0
 11
5.999997808098896
 21
120.9476310188978
 31
0.0
  0
LINE
  5
783
330
1F
100
AcDbEntity
  8
0
100
AcDbLine
 10
7.999997808098896
 20
120.4738169404668
 30
0.0
 11
8.999997808098896
 21
120.4738169404668
 31
0.0
  0
LINE
  5
784
330
1F
100
AcDbEntity
  8
0
100
AcDbLine
 10
3.999997808098896
 20
121.0000028620358
 30
0.0
 11
7.999997808098896
 21
120.8952591757589
 31
0.0
  0
LINE
  5
785
330
1F
100
AcDbEntity
  8
0
100
AcDbLine
 10
-0.0000021919011033
 20
120.8952591757589
 30
0.0
 11
3.999997808098896
 21
121.0000028620358
 31
0.0
  0
LINE
  5
786
330
1F
100
AcDbEntity
  8
0
100
AcDbLine
 10
4.999997808098896
 20
110.4448359983418
 30
0.0
 11
7.999997808098896
 21
110.9738169404675
 31
0.0
  0
LINE
  5
787
330
1F
100
AcDbEntity
  8
0
100
AcDbLine
 10
8.999997808098896
 20
110.1347173092898
 30
0.0
 11
5.999997808098896
 21
109.6057363671648
 31
0.0
  0
LINE
  5
788
330
1F
100
AcDbEntity
  8
0
100
AcDbLine
 10
7.999997808098896
 20
111.0000028620359
 30
0.0
 11
4.999997808098896
 21
110.4710219199098
 31
0.0
  0
LINE
  5
789
330
1F
100
AcDbEntity
  8
0
100
AcDbLine
 10
19.99999780809888
 20
113.4738169404668
 30
0.0
 11
19.99999780809888
 21
117.4738169404668
 31
0.0
  0
LINE
  5
78A
330
1F
100
AcDbEntity
  8
0
100
AcDbLine
 10
-0.0000021919011033
 20
98.4196696212428
 30
0.0
 11
-0.0000021919011033
 21
97.58033610282765
 31
0.0
  0
POINT
  5
78B
330
1F
100
AcDbEntity
  8
0
100
AcDbPoint
 10
-0.0000021919011033
 20
99.00000286203482
 30
0.0
  0
POINT
  5
78C
330
1F
100
AcDbEntity
  8
0
100
AcDbPoint
 10
2.999997808098896
 20
99.10000286203496
 30
0.0
  0
ARC
  5
78D
330
1F
100
AcDbEntity
  8
0
100
AcDbCircle
 10
2.399997808098759
 20
99.68033610282668
 30
0.0
 40
0.6
100
AcDbArc
 50
271.9091524330006
 51
0.0
  0
ARC
  5
78E
330
1F
100
AcDbEntity
  8
0
100
AcDbCircle
 10
0.5999978080988058
 20
98.4196696212428
 30
0.0
 40
0.6
100
AcDbArc
 50
91.90915243300059
 51
180.0
  0
LINE
  5
78F
330
1F
100
AcDbEntity
  8
0
100
AcDbLine
 10
2.41998670623775
 20
99.08066915863964
 30
0.0
 11
0.5800089099589059
 21
99.01933656543064
 31
0.0
  0
LINE
  5
790
330
1F
100
AcDbEntity
  8
0
100
AcDbLine
 10
2.999997808098896
 20
103.3196696212429
 30
0.0
 11
2.999997808098896
 21
99.68033610282668
 31
0.0
  0
POINT
  5
791
330
1F
100
AcDbEntity
  8
0
100
AcDbPoint
 10
2.999997808098896
 20
103.9000028620345
 30
0.0
  0
ARC
  5
792
330
1F
100
AcDbEntity
  8
0
100
AcDbCircle
 10
0.5999978080988058
 20
104.5803361028275
 30
0.0
 40
0.6
100
AcDbArc
 50
180.0
 51
268.0908475669994
  0
LINE
  5
793
330
1F
100
AcDbEntity
  8
0
100
AcDbLine
 10
0.5800089099589059
 20
103.9806691586397
 30
0.0
 11
2.41998670623775
 21
103.9193365654307
 31
0.0
  0
ARC
  5
794
330
1F
100
AcDbEntity
  8
0
100
AcDbCircle
 10
2.399997808098759
 20
103.3196696212429
 30
0.0
 40
0.6
100
AcDbArc
 50
0.0
 51
88.0908475669994
  0
POINT
  5
795
330
1F
100
AcDbEntity
  8
0
100
AcDbPoint
 10
-0.0000021919011033
 20
90.00000286203595
 30
0.0
  0
ARC
  5
796
330
1F
100
AcDbEntity
  8
0
100
AcDbCircle
 10
2.399997808098759
 20
92.68033610282669
 30
0.0
 40
0.6
100
AcDbArc
 50
271.9091524330006
 51
0.0
  0
ARC
  5
797
330
1F
100
AcDbEntity
  8
0
100
AcDbCircle
 10
0.5999978080988058
 20
91.41966962124278
 30
0.0
 40
0.6
100
AcDbArc
 50
91.90915243300059
 51
180.0
  0
ARC
  5
798
330
1F
100
AcDbEntity
  8
0
100
AcDbCircle
 10
0.5999978080976689
 20
90.5803361028278
 30
0.0
 40
0.6
100
AcDbArc
 50
180.0
 51
268.0908475669994
  0
LINE
  5
799
330
1F
100
AcDbEntity
  8
0
100
AcDbLine
 10
-0.0000021919011033
 20
91.41966962124278
 30
0.0
 11
-0.0000021919011033
 21
90.5803361028278
 31
0.0
  0
LINE
  5
79A
330
1F
100
AcDbEntity
  8
0
100
AcDbLine
 10
0.5800089099589059
 20
89.98066915863978
 30
0.0
 11
2.41998670623775
 21
89.9193365654308
 31
0.0
  0
LINE
  5
79B
330
1F
100
AcDbEntity
  8
0
100
AcDbLine
 10
2.41998670623775
 20
92.08066915863978
 30
0.0
 11
0.5800089099589059
 21
92.01933656543063
 31
0.0
  0
POINT
  5
79C
330
1F
100
AcDbEntity
  8
0
100
AcDbPoint
 10
2.999997808098896
 20
96.90000286203463
 30
0.0
  0
POINT
  5
79D
330
1F
100
AcDbEntity
  8
0
100
AcDbPoint
 10
-0.0000021919011033
 20
97.00000286203483
 30
0.0
  0
ARC
  5
79E
330
1F
100
AcDbEntity
  8
0
100
AcDbCircle
 10
2.399997808098759
 20
96.31966962124296
 30
0.0
 40
0.6
100
AcDbArc
 50
0.0
 51
88.0908475669994
  0
ARC
  5
79F
330
1F
100
AcDbEntity
  8
0
100
AcDbCircle
 10
0.5999978080988058
 20
97.58033610282765
 30
0.0
 40
0.6
100
AcDbArc
 50
180.0
 51
268.0908475669994
  0
LINE
  5
7A0
330
1F
100
AcDbEntity
  8
0
100
AcDbLine
 10
0.5800089099589059
 20
96.9806691586398
 30
0.0
 11
2.41998670623775
 21
96.9193365654308
 31
0.0
  0
LINE
  5
7A1
330
1F
100
AcDbEntity
  8
0
100
AcDbLine
 10
2.999997808098896
 20
96.31966962124296
 30
0.0
 11
2.999997808098896
 21
92.68033610282669
 31
0.0
  0
LINE
  5
7A2
330
1F
100
AcDbEntity
  8
0
100
AcDbLine
 10
28.19999780809871
 20
105.4738169404668
 30
0.0
 11
28.19999780809871
 21
117.4738169404668
 31
0.0
  0
LINE
  5
7A3
330
1F
100
AcDbEntity
  8
0
100
AcDbLine
 10
23.19999780809871
 20
107.4738169404668
 30
0.0
 11
25.19999780809871
 21
107.4738169404668
 31
0.0
  0
LINE
  5
7A4
330
1F
100
AcDbEntity
  8
0
100
AcDbLine
 10
23.19999780809871
 20
109.4738169404668
 30
0.0
 11
23.19999780809871
 21
107.4738169404668
 31
0.0
  0
LINE
  5
7A5
330
1F
100
AcDbEntity
  8
0
100
AcDbLine
 10
23.19999780809871
 20
115.4738169404668
 30
0.0
 11
25.19999780809871
 21
115.4738169404668
 31
0.0
  0
LINE
  5
7A6
330
1F
100
AcDbEntity
  8
0
100
AcDbLine
 10
23.19999780809871
 20
113.4738169404668
 30
0.0
 11
23.19999780809871
 21
115.4738169404668
 31
0.0
  0
LINE
  5
7A7
330
1F
100
AcDbEntity
  8
0
100
AcDbLine
 10
25.19999780809871
 20
107.4738169404668
 30
0.0
 11
25.19999780809871
 21
115.4738169404668
 31
0.0
  0
LINE
  5
7A8
330
1F
100
AcDbEntity
  8
0
100
AcDbLine
 10
33.4999978080989
 20
98.9738169404668
 30
0.0
 11
33.4999978080989
 21
103.9738169404668
 31
0.0
  0
LINE
  5
7A9
330
1F
100
AcDbEntity
  8
0
100
AcDbLine
 10
32.99999780809889
 20
89.97381694046685
 30
0.0
 11
32.99999780809889
 21
91.97381694046686
 31
0.0
  0
LINE
  5
7AA
330
1F
100
AcDbEntity
  8
0
100
AcDbLine
 10
55.9999978080989
 20
96.97381694046681
 30
0.0
 11
55.9999978080989
 21
98.9738169404668
 31
0.0
  0
LINE
  5
7AB
330
1F
100
AcDbEntity
  8
0
100
AcDbLine
 10
54.9999978080989
 20
96.97381694046681
 30
0.0
 11
54.9999978080989
 21
98.9738169404668
 31
0.0
  0
LINE
  5
7AC
330
1F
100
AcDbEntity
  8
0
100
AcDbLine
 10
54.49999780809889
 20
103.9738169404668
 30
0.0
 11
54.49999780809889
 21
98.9738169404668
 31
0.0
  0
ARC
  5
7AD
330
1F
100
AcDbEntity
  8
0
100
AcDbCircle
 10
52.9999978080989
 20
91.97381694046686
 30
0.0
 40
0.5
100
AcDbArc
 50
0.0
 51
26.56294527601312
  0
LINE
  5
7AE
330
1F
100
AcDbEntity
  8
0
100
AcDbLine
 10
55.9999978080989
 20
89.97381694046685
 30
0.0
 11
55.9999978080989
 21
91.97381694046686
 31
0.0
  0
LINE
  5
7AF
330
1F
100
AcDbEntity
  8
0
100
AcDbLine
 10
54.9999978080989
 20
89.97381694046685
 30
0.0
 11
54.9999978080989
 21
91.97381694046686
 31
0.0
  0
LINE
  5
7B0
330
1F
100
AcDbEntity
  8
0
100
AcDbLine
 10
56.99999780809889
 20
89.97381694046685
 30
0.0
 11
54.9999978080989
 21
89.97381694046685
 31
0.0
  0
LINE
  5
7B1
330
1F
100
AcDbEntity
  8
0
100
AcDbLine
 10
56.99999780809889
 20
91.97381694046686
 30
0.0
 11
54.9999978080989
 21
91.97381694046686
 31
0.0
  0
LINE
  5
7B2
330
1F
100
AcDbEntity
  8
0
100
AcDbLine
 10
32.99999780809889
 20
47.97381694046686
 30
0.0
 11
15.99999780809889
 21
47.97381694046686
 31
0.0
  0
LINE
  5
7B3
330
1F
100
AcDbEntity
  8
0
100
AcDbLine
 10
32.99999780809889
 20
49.9738169404668
 30
0.0
 11
15.99999780809889
 21
49.9738169404668
 31
0.0
  0
LINE
  5
7B4
330
1F
100
AcDbEntity
  8
0
100
AcDbLine
 10
56.99999780809889
 20
26.97381694046686
 30
0.0
 11
15.99999780809889
 21
26.97381694046686
 31
0.0
  0
LINE
  5
7B5
330
1F
100
AcDbEntity
  8
0
100
AcDbLine
 10
56.99999780809889
 20
28.9738169404668
 30
0.0
 11
15.99999780809889
 21
28.9738169404668
 31
0.0
  0
LINE
  5
7B6
330
1F
100
AcDbEntity
  8
0
100
AcDbLine
 10
56.99999780809889
 20
33.97381694046679
 30
0.0
 11
15.99999780809889
 21
33.97381694046679
 31
0.0
  0
LINE
  5
7B7
330
1F
100
AcDbEntity
  8
0
100
AcDbLine
 10
56.99999780809889
 20
35.97381694046686
 30
0.0
 11
15.99999780809889
 21
35.97381694046686
 31
0.0
  0
LINE
  5
7B8
330
1F
100
AcDbEntity
  8
0
100
AcDbLine
 10
56.99999780809889
 20
40.9738169404668
 30
0.0
 11
15.99999780809889
 21
40.9738169404668
 31
0.0
  0
LINE
  5
7B9
330
1F
100
AcDbEntity
  8
0
100
AcDbLine
 10
56.99999780809889
 20
42.97381694046686
 30
0.0
 11
15.99999780809889
 21
42.97381694046686
 31
0.0
  0
LINE
  5
7BA
330
1F
100
AcDbEntity
  8
0
100
AcDbLine
 10
56.99999780809889
 20
54.97381694046686
 30
0.0
 11
53.4999978080989
 21
54.97381694046686
 31
0.0
  0
LINE
  5
7BB
330
1F
100
AcDbEntity
  8
0
100
AcDbLine
 10
56.99999780809889
 20
56.97381694046686
 30
0.0
 11
53.4999978080989
 21
56.97381694046686
 31
0.0
  0
LINE
  5
7BC
330
1F
100
AcDbEntity
  8
0
100
AcDbLine
 10
56.99999780809889
 20
61.97381694046679
 30
0.0
 11
53.4999978080989
 21
61.97381694046679
 31
0.0
  0
LINE
  5
7BD
330
1F
100
AcDbEntity
  8
0
100
AcDbLine
 10
15.99999780809889
 20
21.97381694046686
 30
0.0
 11
57.9999978080989
 21
21.97381694046686
 31
0.0
  0
LINE
  5
7BE
330
1F
100
AcDbEntity
  8
0
100
AcDbLine
 10
32.99999780809889
 20
75.97381694046686
 30
0.0
 11
15.99999780809889
 21
75.97381694046686
 31
0.0
  0
LINE
  5
7BF
330
1F
100
AcDbEntity
  8
0
100
AcDbLine
 10
32.99999780809889
 20
77.97381694046682
 30
0.0
 11
15.99999780809889
 21
77.97381694046682
 31
0.0
  0
LINE
  5
7C0
330
1F
100
AcDbEntity
  8
0
100
AcDbLine
 10
32.99999780809889
 20
82.97381694046682
 30
0.0
 11
15.99999780809889
 21
82.97381694046682
 31
0.0
  0
LINE
  5
7C1
330
1F
100
AcDbEntity
  8
0
100
AcDbLine
 10
32.99999780809889
 20
84.97381694046685
 30
0.0
 11
15.99999780809889
 21
84.97381694046685
 31
0.0
  0
LINE
  5
7C2
330
1F
100
AcDbEntity
  8
0
100
AcDbLine
 10
56.99999780809889
 20
63.97381694046686
 30
0.0
 11
53.4999978080989
 21
63.97381694046686
 31
0.0
  0
LINE
  5
7C3
330
1F
100
AcDbEntity
  8
0
100
AcDbLine
 10
56.99999780809889
 20
68.97381694046686
 30
0.0
 11
53.4999978080989
 21
68.97381694046686
 31
0.0
  0
LINE
  5
7C4
330
1F
100
AcDbEntity
  8
0
100
AcDbLine
 10
56.99999780809889
 20
70.97381694046679
 30
0.0
 11
53.4999978080989
 21
70.97381694046679
 31
0.0
  0
LINE
  5
7C5
330
1F
100
AcDbEntity
  8
0
100
AcDbLine
 10
2.999997808098896
 20
54.31966962124295
 30
0.0
 11
2.999997808098896
 21
50.68033610282679
 31
0.0
  0
LINE
  5
7C6
330
1F
100
AcDbEntity
  8
0
100
AcDbLine
 10
5.999997808098896
 20
32.97381694046765
 30
0.0
 11
5.999997808098896
 21
70.97381694046679
 31
0.0
  0
LINE
  5
7C7
330
1F
100
AcDbEntity
  8
0
100
AcDbLine
 10
4.999997808098896
 20
71.00000286203595
 30
0.0
 11
4.999997808098896
 21
33.00000286203594
 31
0.0
  0
LINE
  5
7C8
330
1F
100
AcDbEntity
  8
0
100
AcDbLine
 10
2.999997808098896
 20
75.31966962124278
 30
0.0
 11
2.999997808098896
 21
71.6803361028268
 31
0.0
  0
LINE
  5
7C9
330
1F
100
AcDbEntity
  8
0
100
AcDbLine
 10
4.999997808098896
 20
71.00000286203481
 30
0.0
 11
4.999997808098896
 21
83.00000286203596
 31
0.0
  0
LINE
  5
7CA
330
1F
100
AcDbEntity
  8
0
100
AcDbLine
 10
4.499997808098896
 20
83.00000286203596
 30
0.0
 11
4.499997808098896
 21
71.00000286203595
 31
0.0
  0
LINE
  5
7CB
330
1F
100
AcDbEntity
  8
0
100
AcDbLine
 10
3.699997808098713
 20
83.00000286203596
 30
0.0
 11
3.699997808098713
 21
71.1000028620349
 31
0.0
  0
LINE
  5
7CC
330
1F
100
AcDbEntity
  8
0
100
AcDbLine
 10
9.699997808097805
 20
81.47381694046686
 30
0.0
 11
9.699997808097805
 21
72.47381694046686
 31
0.0
  0
LINE
  5
7CD
330
1F
100
AcDbEntity
  8
0
100
AcDbLine
 10
7.999997808097758
 20
81.47381694046686
 30
0.0
 11
7.999997808097758
 21
72.47381694046686
 31
0.0
  0
LINE
  5
7CE
330
1F
100
AcDbEntity
  8
0
100
AcDbLine
 10
9.499997808098896
 20
81.00000286203595
 30
0.0
 11
9.499997808098896
 21
73.00000286203595
 31
0.0
  0
LINE
  5
7CF
330
1F
100
AcDbEntity
  8
0
100
AcDbLine
 10
8.699997808098714
 20
81.00000286203595
 30
0.0
 11
8.699997808098714
 21
73.00000286203595
 31
0.0
  0
LINE
  5
7D0
330
1F
100
AcDbEntity
  8
0
100
AcDbLine
 10
8.099997808098805
 20
81.00000286203595
 30
0.0
 11
8.099997808098805
 21
73.00000286203595
 31
0.0
  0
LINE
  5
7D1
330
1F
100
AcDbEntity
  8
0
100
AcDbLine
 10
2.999997808098896
 20
82.31966962124294
 30
0.0
 11
2.999997808098896
 21
78.68033610282669
 31
0.0
  0
LINE
  5
7D2
330
1F
100
AcDbEntity
  8
0
100
AcDbLine
 10
5.999997808098896
 20
82.97381694046782
 30
0.0
 11
4.999997808098896
 21
82.97381694046782
 31
0.0
  0
LINE
  5
7D3
330
1F
100
AcDbEntity
  8
0
100
AcDbLine
 10
9.699997808097805
 20
81.47381694046686
 30
0.0
 11
7.999997808097758
 21
81.47381694046686
 31
0.0
  0
LINE
  5
7D4
330
1F
100
AcDbEntity
  8
0
100
AcDbLine
 10
4.999997808098896
 20
83.00000286203596
 30
0.0
 11
3.699997808098713
 21
83.00000286203596
 31
0.0
  0
POINT
  5
7D5
330
1F
100
AcDbEntity
  8
0
100
AcDbPoint
 10
-0.0000021919011033
 20
83.00000286203596
 30
0.0
  0
ARC
  5
7D6
330
1F
100
AcDbEntity
  8
0
100
AcDbCircle
 10
2.399997808098759
 20
82.31966962124294
 30
0.0
 40
0.6
100
AcDbArc
 50
0.0
 51
88.0908475669994
  0
ARC
  5
7D7
330
1F
100
AcDbEntity
  8
0
100
AcDbCircle
 10
2.399997808098759
 20
85.68033610282668
 30
0.0
 40
0.6
100
AcDbArc
 50
271.9091524330006
 51
0.0
  0
LINE
  5
7D8
330
1F
100
AcDbEntity
  8
0
100
AcDbLine
 10
9.499997808098896
 20
81.00000286203595
 30
0.0
 11
7.999997808097758
 21
81.00000286203595
 31
0.0
  0
ARC
  5
7D9
330
1F
100
AcDbEntity
  8
0
100
AcDbCircle
 10
0.5999978080988058
 20
84.41966962124281
 30
0.0
 40
0.6
100
AcDbArc
 50
91.90915243300059
 51
180.0
  0
ARC
  5
7DA
330
1F
100
AcDbEntity
  8
0
100
AcDbCircle
 10
0.5999978080988058
 20
83.58033610282763
 30
0.0
 40
0.6
100
AcDbArc
 50
180.0
 51
268.0908475669994
  0
LINE
  5
7DB
330
1F
100
AcDbEntity
  8
0
100
AcDbLine
 10
-0.0000021919011033
 20
84.41966962124281
 30
0.0
 11
-0.0000021919011033
 21
83.58033610282763
 31
0.0
  0
LINE
  5
7DC
330
1F
100
AcDbEntity
  8
0
100
AcDbLine
 10
0.5800089099589059
 20
82.98066915863996
 30
0.0
 11
2.41998670623775
 21
82.91933656543079
 31
0.0
  0
LINE
  5
7DD
330
1F
100
AcDbEntity
  8
0
100
AcDbLine
 10
2.41998670623775
 20
85.08066915863981
 30
0.0
 11
0.5800089099589059
 21
85.01933656543064
 31
0.0
  0
LINE
  5
7DE
330
1F
100
AcDbEntity
  8
0
100
AcDbLine
 10
2.999997808098896
 20
89.31966962124297
 30
0.0
 11
2.999997808098896
 21
85.68033610282668
 31
0.0
  0
LINE
  5
7DF
330
1F
100
AcDbEntity
  8
0
100
AcDbLine
 10
9.699997808097805
 20
72.47381694046686
 30
0.0
 11
7.999997808097758
 21
72.47381694046686
 31
0.0
  0
POINT
  5
7E0
330
1F
100
AcDbEntity
  8
0
100
AcDbPoint
 10
-0.0000021919011033
 20
76.00000286203595
 30
0.0
  0
ARC
  5
7E1
330
1F
100
AcDbEntity
  8
0
100
AcDbCircle
 10
2.399997808098759
 20
75.31966962124278
 30
0.0
 40
0.6
100
AcDbArc
 50
0.0
 51
88.0908475669994
  0
ARC
  5
7E2
330
1F
100
AcDbEntity
  8
0
100
AcDbCircle
 10
2.399997808098759
 20
78.68033610282669
 30
0.0
 40
0.6
100
AcDbArc
 50
271.9091524330006
 51
0.0
  0
LINE
  5
7E3
330
1F
100
AcDbEntity
  8
0
100
AcDbLine
 10
9.499997808098896
 20
73.00000286203595
 30
0.0
 11
7.999997808097758
 21
73.00000286203595
 31
0.0
  0
ARC
  5
7E4
330
1F
100
AcDbEntity
  8
0
100
AcDbCircle
 10
0.5999978080988058
 20
77.4196696212428
 30
0.0
 40
0.6
100
AcDbArc
 50
91.90915243300059
 51
180.0
  0
ARC
  5
7E5
330
1F
100
AcDbEntity
  8
0
100
AcDbCircle
 10
0.5999978080988058
 20
76.58033610282763
 30
0.0
 40
0.6
100
AcDbArc
 50
180.0
 51
268.0908475669994
  0
LINE
  5
7E6
330
1F
100
AcDbEntity
  8
0
100
AcDbLine
 10
-0.0000021919011033
 20
77.4196696212428
 30
0.0
 11
-0.0000021919011033
 21
76.58033610282763
 31
0.0
  0
LINE
  5
7E7
330
1F
100
AcDbEntity
  8
0
100
AcDbLine
 10
0.5800089099589059
 20
75.98066915863978
 30
0.0
 11
2.41998670623775
 21
75.9193365654308
 31
0.0
  0
LINE
  5
7E8
330
1F
100
AcDbEntity
  8
0
100
AcDbLine
 10
2.41998670623775
 20
78.08066915863981
 30
0.0
 11
0.5800089099589059
 21
78.01933656543067
 31
0.0
  0
LINE
  5
7E9
330
1F
100
AcDbEntity
  8
0
100
AcDbLine
 10
-0.0000021919011033
 20
64.61966962124392
 30
0.0
 11
-0.0000021919011033
 21
59.58033610282683
 31
0.0
  0
ARC
  5
7EA
330
1F
100
AcDbEntity
  8
0
100
AcDbCircle
 10
0.5999978080976689
 20
64.4196696212428
 30
0.0
 40
0.6
100
AcDbArc
 50
91.90915243300059
 51
180.0
  0
LINE
  5
7EB
330
1F
100
AcDbEntity
  8
0
100
AcDbLine
 10
0.5800089099589059
 20
65.01933656543065
 30
0.0
 11
2.999997808097758
 21
65.10000286203496
 31
0.0
  0
ARC
  5
7EC
330
1F
100
AcDbEntity
  8
0
100
AcDbCircle
 10
0.5999978080976689
 20
64.61966962124392
 30
0.0
 40
0.6
100
AcDbArc
 50
91.90915243300059
 51
180.0
  0
LINE
  5
7ED
330
1F
100
AcDbEntity
  8
0
100
AcDbLine
 10
0.5800089099589059
 20
65.21933656543096
 30
0.0
 11
2.999997808097758
 21
65.30000286203597
 31
0.0
  0
POINT
  5
7EE
330
1F
100
AcDbEntity
  8
0
100
AcDbPoint
 10
-0.0000021919011033
 20
69.00000286203596
 30
0.0
  0
ARC
  5
7EF
330
1F
100
AcDbEntity
  8
0
100
AcDbCircle
 10
2.399997808098759
 20
64.68033610282668
 30
0.0
 40
0.6
100
AcDbArc
 50
271.9091524329875
 51
0.0
  0
ARC
  5
7F0
330
1F
100
AcDbEntity
  8
0
100
AcDbCircle
 10
2.399997808098759
 20
68.31966962124295
 30
0.0
 40
0.6
100
AcDbArc
 50
0.0
 51
88.0908475669994
  0
ARC
  5
7F1
330
1F
100
AcDbEntity
  8
0
100
AcDbCircle
 10
0.5999978080988058
 20
69.5803361028278
 30
0.0
 40
0.6
100
AcDbArc
 50
180.0
 51
268.0908475669994
  0
ARC
  5
7F2
330
1F
100
AcDbEntity
  8
0
100
AcDbCircle
 10
0.5999978080988058
 20
63.4196696212428
 30
0.0
 40
0.6
100
AcDbArc
 50
91.90915243300059
 51
180.0
  0
LINE
  5
7F3
330
1F
100
AcDbEntity
  8
0
100
AcDbLine
 10
-0.0000021919011033
 20
70.41966962124281
 30
0.0
 11
-0.0000021919011033
 21
69.5803361028278
 31
0.0
  0
LINE
  5
7F4
330
1F
100
AcDbEntity
  8
0
100
AcDbLine
 10
2.41998670623775
 20
64.0806691586398
 30
0.0
 11
0.5800089099589059
 21
64.01933656543064
 31
0.0
  0
LINE
  5
7F5
330
1F
100
AcDbEntity
  8
0
100
AcDbLine
 10
2.999997808098896
 20
68.31966962124295
 30
0.0
 11
2.999997808098896
 21
64.68033610282668
 31
0.0
  0
LINE
  5
7F6
330
1F
100
AcDbEntity
  8
0
100
AcDbLine
 10
0.5800089099589059
 20
68.98066915863978
 30
0.0
 11
2.41998670623775
 21
68.9193365654308
 31
0.0
  0
LINE
  5
7F7
330
1F
100
AcDbEntity
  8
0
100
AcDbLine
 10
5.999997808098896
 20
70.97381694046679
 30
0.0
 11
4.999997808098896
 21
70.97381694046679
 31
0.0
  0
LINE
  5
7F8
330
1F
100
AcDbEntity
  8
0
100
AcDbLine
 10
4.999997808098896
 20
71.00000286203595
 30
0.0
 11
3.699997808098713
 21
71.00000286203595
 31
0.0
  0
ARC
  5
7F9
330
1F
100
AcDbEntity
  8
0
100
AcDbCircle
 10
2.399997808098759
 20
71.6803361028268
 30
0.0
 40
0.6
100
AcDbArc
 50
271.9091524330006
 51
0.0
  0
LINE
  5
7FA
330
1F
100
AcDbEntity
  8
0
100
AcDbLine
 10
2.41998670623775
 20
71.08066915863964
 30
0.0
 11
0.5800089099589059
 21
71.01933656543066
 31
0.0
  0
ARC
  5
7FB
330
1F
100
AcDbEntity
  8
0
100
AcDbCircle
 10
0.5999978080976689
 20
70.41966962124281
 30
0.0
 40
0.6
100
AcDbArc
 50
91.90915243300059
 51
180.0
  0
ARC
  5
7FC
330
1F
100
AcDbEntity
  8
0
100
AcDbCircle
 10
0.5999978080976689
 20
59.58033610282683
 30
0.0
 40
0.6
100
AcDbArc
 50
180.0
 51
268.0908475669994
  0
LINE
  5
7FD
330
1F
100
AcDbEntity
  8
0
100
AcDbLine
 10
0.5800089099589059
 20
58.98066915863996
 30
0.0
 11
2.999997808097758
 21
58.9000028620349
 31
0.0
  0
POINT
  5
7FE
330
1F
100
AcDbEntity
  8
0
100
AcDbPoint
 10
-0.0000021919011033
 20
55.00000286203482
 30
0.0
  0
POINT
  5
7FF
330
1F
100
AcDbEntity
  8
0
100
AcDbPoint
 10
-0.0000021919011033
 20
62.00000286203482
 30
0.0
  0
ARC
  5
800
330
1F
100
AcDbEntity
  8
0
100
AcDbCircle
 10
2.399997808098759
 20
57.68033610282667
 30
0.0
 40
0.6
100
AcDbArc
 50
271.9091524330006
 51
0.0
  0
ARC
  5
801
330
1F
100
AcDbEntity
  8
0
100
AcDbCircle
 10
2.399997808098759
 20
61.31966962124295
 30
0.0
 40
0.6
100
AcDbArc
 50
0.0
 51
88.0908475669994
  0
ARC
  5
802
330
1F
100
AcDbEntity
  8
0
100
AcDbCircle
 10
0.5999978080988058
 20
62.58033610282764
 30
0.0
 40
0.6
100
AcDbArc
 50
180.0
 51
268.0908475669994
  0
ARC
  5
803
330
1F
100
AcDbEntity
  8
0
100
AcDbCircle
 10
0.5999978080988058
 20
56.41966962124279
 30
0.0
 40
0.6
100
AcDbArc
 50
91.90915243300059
 51
180.0
  0
ARC
  5
804
330
1F
100
AcDbEntity
  8
0
100
AcDbCircle
 10
0.5999978080988058
 20
55.58033610282762
 30
0.0
 40
0.6
100
AcDbArc
 50
180.0
 51
268.0908475669994
  0
LINE
  5
805
330
1F
100
AcDbEntity
  8
0
100
AcDbLine
 10
-0.0000021919011033
 20
56.41966962124279
 30
0.0
 11
-0.0000021919011033
 21
55.58033610282762
 31
0.0
  0
LINE
  5
806
330
1F
100
AcDbEntity
  8
0
100
AcDbLine
 10
0.5800089099589059
 20
54.98066915863995
 30
0.0
 11
2.41998670623775
 21
54.91933656543079
 31
0.0
  0
LINE
  5
807
330
1F
100
AcDbEntity
  8
0
100
AcDbLine
 10
2.41998670623775
 20
57.08066915863979
 30
0.0
 11
0.5800089099589059
 21
57.01933656543065
 31
0.0
  0
LINE
  5
808
330
1F
100
AcDbEntity
  8
0
100
AcDbLine
 10
2.999997808098896
 20
61.31966962124295
 30
0.0
 11
2.999997808098896
 21
57.68033610282667
 31
0.0
  0
LINE
  5
809
330
1F
100
AcDbEntity
  8
0
100
AcDbLine
 10
0.5800089099589059
 20
61.98066915863979
 30
0.0
 11
2.41998670623775
 21
61.9193365654308
 31
0.0
  0
ARC
  5
80A
330
1F
100
AcDbEntity
  8
0
100
AcDbCircle
 10
2.399997808098759
 20
54.31966962124295
 30
0.0
 40
0.6
100
AcDbArc
 50
0.0
 51
88.0908475669994
  0
ARC
  5
80B
330
1F
100
AcDbEntity
  8
0
100
AcDbCircle
 10
2.399997808098759
 20
36.68033610282668
 30
0.0
 40
0.6
100
AcDbArc
 50
271.9091524330006
 51
0.0
  0
LINE
  5
80C
330
1F
100
AcDbEntity
  8
0
100
AcDbLine
 10
2.999997808098896
 20
47.31966962124295
 30
0.0
 11
2.999997808098896
 21
43.68033610282668
 31
0.0
  0
POINT
  5
80D
330
1F
100
AcDbEntity
  8
0
100
AcDbPoint
 10
-0.0000021919011033
 20
48.00000286203594
 30
0.0
  0
ARC
  5
80E
330
1F
100
AcDbEntity
  8
0
100
AcDbCircle
 10
2.399997808098759
 20
47.31966962124295
 30
0.0
 40
0.6
100
AcDbArc
 50
0.0
 51
88.0908475669994
  0
ARC
  5
80F
330
1F
100
AcDbEntity
  8
0
100
AcDbCircle
 10
2.399997808098759
 20
50.68033610282679
 30
0.0
 40
0.6
100
AcDbArc
 50
271.9091524330006
 51
0.0
  0
ARC
  5
810
330
1F
100
AcDbEntity
  8
0
100
AcDbCircle
 10
0.5999978080976689
 20
49.41966962124279
 30
0.0
 40
0.6
100
AcDbArc
 50
91.90915243300059
 51
180.0
  0
ARC
  5
811
330
1F
100
AcDbEntity
  8
0
100
AcDbCircle
 10
0.5999978080988058
 20
48.5803361028278
 30
0.0
 40
0.6
100
AcDbArc
 50
180.0
 51
268.0908475669994
  0
LINE
  5
812
330
1F
100
AcDbEntity
  8
0
100
AcDbLine
 10
-0.0000021919011033
 20
49.41966962124279
 30
0.0
 11
-0.0000021919011033
 21
48.5803361028278
 31
0.0
  0
LINE
  5
813
330
1F
100
AcDbEntity
  8
0
100
AcDbLine
 10
0.5800089099589059
 20
47.98066915863978
 30
0.0
 11
2.41998670623775
 21
47.91933656543079
 31
0.0
  0
LINE
  5
814
330
1F
100
AcDbEntity
  8
0
100
AcDbLine
 10
2.41998670623775
 20
50.08066915863963
 30
0.0
 11
0.5800089099589059
 21
50.01933656543065
 31
0.0
  0
POINT
  5
815
330
1F
100
AcDbEntity
  8
0
100
AcDbPoint
 10
-0.0000021919011033
 20
41.00000286203481
 30
0.0
  0
ARC
  5
816
330
1F
100
AcDbEntity
  8
0
100
AcDbCircle
 10
2.399997808098759
 20
40.31966962124295
 30
0.0
 40
0.6
100
AcDbArc
 50
0.0
 51
88.0908475669994
  0
ARC
  5
817
330
1F
100
AcDbEntity
  8
0
100
AcDbCircle
 10
2.399997808098759
 20
43.68033610282668
 30
0.0
 40
0.6
100
AcDbArc
 50
271.9091524330006
 51
0.0
  0
ARC
  5
818
330
1F
100
AcDbEntity
  8
0
100
AcDbCircle
 10
0.5999978080976689
 20
42.41966962124279
 30
0.0
 40
0.6
100
AcDbArc
 50
91.90915243300059
 51
180.0
  0
ARC
  5
819
330
1F
100
AcDbEntity
  8
0
100
AcDbCircle
 10
0.5999978080976689
 20
41.58033610282763
 30
0.0
 40
0.6
100
AcDbArc
 50
180.0
 51
268.0908475669994
  0
LINE
  5
81A
330
1F
100
AcDbEntity
  8
0
100
AcDbLine
 10
-0.0000021919011033
 20
42.41966962124279
 30
0.0
 11
-0.0000021919011033
 21
41.58033610282763
 31
0.0
  0
LINE
  5
81B
330
1F
100
AcDbEntity
  8
0
100
AcDbLine
 10
0.5800089099589059
 20
40.98066915863977
 30
0.0
 11
2.41998670623775
 21
40.91933656543079
 31
0.0
  0
LINE
  5
81C
330
1F
100
AcDbEntity
  8
0
100
AcDbLine
 10
2.41998670623775
 20
43.08066915863963
 30
0.0
 11
0.5800089099589059
 21
43.01933656543065
 31
0.0
  0
LINE
  5
81D
330
1F
100
AcDbEntity
  8
0
100
AcDbLine
 10
2.999997808098896
 20
40.31966962124295
 30
0.0
 11
2.999997808098896
 21
36.68033610282668
 31
0.0
  0
ARC
  5
81E
330
1F
100
AcDbEntity
  8
0
100
AcDbCircle
 10
0.5999978080976689
 20
27.5803361028278
 30
0.0
 40
0.6
100
AcDbArc
 50
180.0
 51
268.0908475669994
  0
LINE
  5
81F
330
1F
100
AcDbEntity
  8
0
100
AcDbLine
 10
9.699997808097805
 20
31.47381694046686
 30
0.0
 11
9.699997808097805
 21
22.47381694046686
 31
0.0
  0
LINE
  5
820
330
1F
100
AcDbEntity
  8
0
100
AcDbLine
 10
7.999997808097758
 20
31.47381694046686
 30
0.0
 11
7.999997808097758
 21
22.47381694046686
 31
0.0
  0
LINE
  5
821
330
1F
100
AcDbEntity
  8
0
100
AcDbLine
 10
4.999997808098896
 20
33.00000286203594
 30
0.0
 11
4.999997808098896
 21
21.00000286203481
 31
0.0
  0
LINE
  5
822
330
1F
100
AcDbEntity
  8
0
100
AcDbLine
 10
4.499997808098896
 20
33.00000286203594
 30
0.0
 11
4.499997808098896
 21
21.00000286203595
 31
0.0
  0
LINE
  5
823
330
1F
100
AcDbEntity
  8
0
100
AcDbLine
 10
3.699997808098713
 20
33.00000286203594
 30
0.0
 11
3.699997808098713
 21
21.1000028620349
 31
0.0
  0
LINE
  5
824
330
1F
100
AcDbEntity
  8
0
100
AcDbLine
 10
9.499997808098896
 20
31.00000286203594
 30
0.0
 11
9.499997808098896
 21
23.00000286203594
 31
0.0
  0
LINE
  5
825
330
1F
100
AcDbEntity
  8
0
100
AcDbLine
 10
8.699997808098714
 20
31.00000286203594
 30
0.0
 11
8.699997808098714
 21
23.00000286203594
 31
0.0
  0
LINE
  5
826
330
1F
100
AcDbEntity
  8
0
100
AcDbLine
 10
8.099997808098805
 20
31.00000286203594
 30
0.0
 11
8.099997808098805
 21
23.00000286203594
 31
0.0
  0
ARC
  5
827
330
1F
100
AcDbEntity
  8
0
100
AcDbCircle
 10
2.399997808098759
 20
29.68033610282668
 30
0.0
 40
0.6
100
AcDbArc
 50
271.9091524330006
 51
0.0
  0
ARC
  5
828
330
1F
100
AcDbEntity
  8
0
100
AcDbCircle
 10
0.5999978080988058
 20
28.4196696212428
 30
0.0
 40
0.6
100
AcDbArc
 50
91.90915243300059
 51
180.0
  0
LINE
  5
829
330
1F
100
AcDbEntity
  8
0
100
AcDbLine
 10
-0.0000021919011033
 20
28.4196696212428
 30
0.0
 11
-0.0000021919011033
 21
27.5803361028278
 31
0.0
  0
LINE
  5
82A
330
1F
100
AcDbEntity
  8
0
100
AcDbLine
 10
2.41998670623775
 20
29.08066915863964
 30
0.0
 11
0.5800089099589059
 21
29.01933656543064
 31
0.0
  0
LINE
  5
82B
330
1F
100
AcDbEntity
  8
0
100
AcDbLine
 10
5.999997808098896
 20
32.97381694046765
 30
0.0
 11
4.999997808098896
 21
32.97381694046765
 31
0.0
  0
LINE
  5
82C
330
1F
100
AcDbEntity
  8
0
100
AcDbLine
 10
9.699997808097805
 20
31.47381694046686
 30
0.0
 11
7.999997808097758
 21
31.47381694046686
 31
0.0
  0
LINE
  5
82D
330
1F
100
AcDbEntity
  8
0
100
AcDbLine
 10
4.999997808098896
 20
33.00000286203594
 30
0.0
 11
3.699997808098713
 21
33.00000286203594
 31
0.0
  0
POINT
  5
82E
330
1F
100
AcDbEntity
  8
0
100
AcDbPoint
 10
-0.0000021919011033
 20
34.00000286203594
 30
0.0
  0
ARC
  5
82F
330
1F
100
AcDbEntity
  8
0
100
AcDbCircle
 10
2.399997808098759
 20
33.31966962124294
 30
0.0
 40
0.6
100
AcDbArc
 50
0.0
 51
88.0908475669994
  0
LINE
  5
830
330
1F
100
AcDbEntity
  8
0
100
AcDbLine
 10
9.499997808098896
 20
31.00000286203594
 30
0.0
 11
7.999997808097758
 21
31.00000286203594
 31
0.0
  0
ARC
  5
831
330
1F
100
AcDbEntity
  8
0
100
AcDbCircle
 10
0.5999978080976689
 20
35.41966962124279
 30
0.0
 40
0.6
100
AcDbArc
 50
91.90915243300059
 51
180.0
  0
ARC
  5
832
330
1F
100
AcDbEntity
  8
0
100
AcDbCircle
 10
0.5999978080988058
 20
34.58033610282763
 30
0.0
 40
0.6
100
AcDbArc
 50
180.0
 51
268.0908475669994
  0
LINE
  5
833
330
1F
100
AcDbEntity
  8
0
100
AcDbLine
 10
-0.0000021919011033
 20
35.41966962124279
 30
0.0
 11
-0.0000021919011033
 21
34.58033610282763
 31
0.0
  0
LINE
  5
834
330
1F
100
AcDbEntity
  8
0
100
AcDbLine
 10
0.5800089099589059
 20
33.98066915863994
 30
0.0
 11
2.41998670623775
 21
33.91933656543079
 31
0.0
  0
LINE
  5
835
330
1F
100
AcDbEntity
  8
0
100
AcDbLine
 10
2.41998670623775
 20
36.08066915863981
 30
0.0
 11
0.5800089099589059
 21
36.01933656543065
 31
0.0
  0
LINE
  5
836
330
1F
100
AcDbEntity
  8
0
100
AcDbLine
 10
2.999997808098896
 20
33.31966962124294
 30
0.0
 11
2.999997808098896
 21
29.68033610282668
 31
0.0
  0
LINE
  5
837
330
1F
100
AcDbEntity
  8
0
100
AcDbLine
 10
5.999997808098896
 20
20.9738169404668
 30
0.0
 11
4.999997808098896
 21
20.9738169404668
 31
0.0
  0
LINE
  5
838
330
1F
100
AcDbEntity
  8
0
100
AcDbLine
 10
4.999997808098896
 20
21.00000286203595
 30
0.0
 11
3.699997808098713
 21
21.00000286203595
 31
0.0
  0
LINE
  5
839
330
1F
100
AcDbEntity
  8
0
100
AcDbLine
 10
9.699997808097805
 20
22.47381694046686
 30
0.0
 11
7.999997808097758
 21
22.47381694046686
 31
0.0
  0
POINT
  5
83A
330
1F
100
AcDbEntity
  8
0
100
AcDbPoint
 10
-0.0000021919011033
 20
22.00000286203481
 30
0.0
  0
POINT
  5
83B
330
1F
100
AcDbEntity
  8
0
100
AcDbPoint
 10
-0.0000021919011033
 20
27.00000286203481
 30
0.0
  0
ARC
  5
83C
330
1F
100
AcDbEntity
  8
0
100
AcDbCircle
 10
2.499997808098895
 20
22.58361389602879
 30
0.0
 40
0.5
100
AcDbArc
 50
271.9091524330006
 51
0.0
  0
ARC
  5
83D
330
1F
100
AcDbEntity
  8
0
100
AcDbCircle
 10
2.399997808098759
 20
26.31966962124295
 30
0.0
 40
0.6
100
AcDbArc
 50
0.0
 51
88.0908475669994
  0
LINE
  5
83E
330
1F
100
AcDbEntity
  8
0
100
AcDbLine
 10
9.499997808098896
 20
23.00000286203594
 30
0.0
 11
7.999997808097758
 21
23.00000286203594
 31
0.0
  0
LINE
  5
83F
330
1F
100
AcDbEntity
  8
0
100
AcDbLine
 10
2.516655223214684
 20
22.08389144253878
 30
0.0
 11
0.5800089099589059
 21
22.01933656543065
 31
0.0
  0
LINE
  5
840
330
1F
100
AcDbEntity
  8
0
100
AcDbLine
 10
2.999997808098896
 20
26.31966962124295
 30
0.0
 11
2.999997808098896
 21
22.58361389602879
 31
0.0
  0
LINE
  5
841
330
1F
100
AcDbEntity
  8
0
100
AcDbLine
 10
0.5800089099589059
 20
26.98066915863977
 30
0.0
 11
2.41998670623775
 21
26.9193365654308
 31
0.0
  0
ARC
  5
842
330
1F
100
AcDbEntity
  8
0
100
AcDbCircle
 10
0.5999978080988058
 20
21.4196696212428
 30
0.0
 40
0.6
100
AcDbArc
 50
91.90915243300059
 51
180.0
  0
LINE
  5
843
330
1F
100
AcDbEntity
  8
0
100
AcDbLine
 10
54.49999780809889
 20
54.97381694046686
 30
0.0
 11
54.49999780809889
 21
48.97381694046679
 31
0.0
  0
LINE
  5
844
330
1F
100
AcDbEntity
  8
0
100
AcDbLine
 10
33.4999978080989
 20
48.97381694046679
 30
0.0
 11
33.4999978080989
 21
54.97381694046686
 31
0.0
  0
LINE
  5
845
330
1F
100
AcDbEntity
  8
0
100
AcDbLine
 10
32.99999780809889
 20
82.97381694046682
 30
0.0
 11
32.99999780809889
 21
84.97381694046685
 31
0.0
  0
LINE
  5
846
330
1F
100
AcDbEntity
  8
0
100
AcDbLine
 10
32.99999780809889
 20
75.97381694046686
 30
0.0
 11
32.99999780809889
 21
77.97381694046682
 31
0.0
  0
LINE
  5
847
330
1F
100
AcDbEntity
  8
0
100
AcDbLine
 10
33.4999978080989
 20
63.97381694046686
 30
0.0
 11
33.4999978080989
 21
68.97381694046686
 31
0.0
  0
LINE
  5
848
330
1F
100
AcDbEntity
  8
0
100
AcDbLine
 10
33.4999978080989
 20
56.97381694046686
 30
0.0
 11
33.4999978080989
 21
61.97381694046679
 31
0.0
  0
LINE
  5
849
330
1F
100
AcDbEntity
  8
0
100
AcDbLine
 10
55.9999978080989
 20
82.97381694046682
 30
0.0
 11
55.9999978080989
 21
84.97381694046685
 31
0.0
  0
LINE
  5
84A
330
1F
100
AcDbEntity
  8
0
100
AcDbLine
 10
54.9999978080989
 20
82.97381694046682
 30
0.0
 11
54.9999978080989
 21
84.97381694046685
 31
0.0
  0
LINE
  5
84B
330
1F
100
AcDbEntity
  8
0
100
AcDbLine
 10
56.99999780809889
 20
82.97381694046682
 30
0.0
 11
54.9999978080989
 21
82.97381694046682
 31
0.0
  0
LINE
  5
84C
330
1F
100
AcDbEntity
  8
0
100
AcDbLine
 10
56.99999780809889
 20
84.97381694046685
 30
0.0
 11
54.9999978080989
 21
84.97381694046685
 31
0.0
  0
LINE
  5
84D
330
1F
100
AcDbEntity
  8
0
100
AcDbLine
 10
55.9999978080989
 20
75.97381694046686
 30
0.0
 11
55.9999978080989
 21
77.97381694046682
 31
0.0
  0
LINE
  5
84E
330
1F
100
AcDbEntity
  8
0
100
AcDbLine
 10
54.9999978080989
 20
75.97381694046686
 30
0.0
 11
54.9999978080989
 21
77.97381694046682
 31
0.0
  0
LINE
  5
84F
330
1F
100
AcDbEntity
  8
0
100
AcDbLine
 10
56.99999780809889
 20
75.97381694046686
 30
0.0
 11
54.9999978080989
 21
75.97381694046686
 31
0.0
  0
LINE
  5
850
330
1F
100
AcDbEntity
  8
0
100
AcDbLine
 10
56.99999780809889
 20
77.97381694046682
 30
0.0
 11
54.9999978080989
 21
77.97381694046682
 31
0.0
  0
LINE
  5
851
330
1F
100
AcDbEntity
  8
0
100
AcDbLine
 10
55.9999978080989
 20
61.97381694046679
 30
0.0
 11
55.9999978080989
 21
63.97381694046686
 31
0.0
  0
LINE
  5
852
330
1F
100
AcDbEntity
  8
0
100
AcDbLine
 10
54.9999978080989
 20
61.97381694046679
 30
0.0
 11
54.9999978080989
 21
63.97381694046686
 31
0.0
  0
LINE
  5
853
330
1F
100
AcDbEntity
  8
0
100
AcDbLine
 10
54.49999780809889
 20
68.97381694046686
 30
0.0
 11
54.49999780809889
 21
63.97381694046686
 31
0.0
  0
LINE
  5
854
330
1F
100
AcDbEntity
  8
0
100
AcDbLine
 10
55.9999978080989
 20
68.97381694046686
 30
0.0
 11
55.9999978080989
 21
70.97381694046679
 31
0.0
  0
LINE
  5
855
330
1F
100
AcDbEntity
  8
0
100
AcDbLine
 10
54.9999978080989
 20
68.97381694046686
 30
0.0
 11
54.9999978080989
 21
70.97381694046679
 31
0.0
  0
LINE
  5
856
330
1F
100
AcDbEntity
  8
0
100
AcDbLine
 10
54.49999780809889
 20
61.97381694046679
 30
0.0
 11
54.49999780809889
 21
56.97381694046686
 31
0.0
  0
LINE
  5
857
330
1F
100
AcDbEntity
  8
0
100
AcDbLine
 10
55.9999978080989
 20
54.97381694046686
 30
0.0
 11
55.9999978080989
 21
56.97381694046686
 31
0.0
  0
LINE
  5
858
330
1F
100
AcDbEntity
  8
0
100
AcDbLine
 10
54.9999978080989
 20
54.97381694046686
 30
0.0
 11
54.9999978080989
 21
56.97381694046686
 31
0.0
  0
LINE
  5
859
330
1F
100
AcDbEntity
  8
0
100
AcDbLine
 10
38.99999780809888
 20
49.9738169404668
 30
0.0
 11
48.99999780809888
 21
49.9738169404668
 31
0.0
  0
LINE
  5
85A
330
1F
100
AcDbEntity
  8
0
100
AcDbLine
 10
54.49999780809889
 20
48.97381694046679
 30
0.0
 11
33.4999978080989
 21
48.97381694046679
 31
0.0
  0
LINE
  5
85B
330
1F
100
AcDbEntity
  8
0
100
AcDbLine
 10
32.99999780809889
 20
47.97381694046686
 30
0.0
 11
32.99999780809889
 21
49.9738169404668
 31
0.0
  0
ARC
  5
85C
330
1F
100
AcDbEntity
  8
0
100
AcDbCircle
 10
38.99999780809888
 20
50.47381694046681
 30
0.0
 40
0.5
100
AcDbArc
 50
251.3748222726488
 51
270.0
  0
ARC
  5
85D
330
1F
100
AcDbEntity
  8
0
100
AcDbCircle
 10
48.99999780809888
 20
50.47381694046681
 30
0.0
 40
0.5
100
AcDbArc
 50
270.0
 51
288.625177727351
  0
LINE
  5
85E
330
1F
100
AcDbEntity
  8
0
100
AcDbLine
 10
55.9999978080989
 20
47.97381694046686
 30
0.0
 11
55.9999978080989
 21
49.9738169404668
 31
0.0
  0
LINE
  5
85F
330
1F
100
AcDbEntity
  8
0
100
AcDbLine
 10
54.9999978080989
 20
47.97381694046686
 30
0.0
 11
54.9999978080989
 21
49.9738169404668
 31
0.0
  0
LINE
  5
860
330
1F
100
AcDbEntity
  8
0
100
AcDbLine
 10
56.99999780809889
 20
47.97381694046686
 30
0.0
 11
54.9999978080989
 21
47.97381694046686
 31
0.0
  0
LINE
  5
861
330
1F
100
AcDbEntity
  8
0
100
AcDbLine
 10
56.99999780809889
 20
49.9738169404668
 30
0.0
 11
54.9999978080989
 21
49.9738169404668
 31
0.0
  0
LINE
  5
862
330
1F
100
AcDbEntity
  8
0
100
AcDbLine
 10
55.9999978080989
 20
40.9738169404668
 30
0.0
 11
55.9999978080989
 21
42.97381694046686
 31
0.0
  0
LINE
  5
863
330
1F
100
AcDbEntity
  8
0
100
AcDbLine
 10
54.9999978080989
 20
40.9738169404668
 30
0.0
 11
54.9999978080989
 21
42.97381694046686
 31
0.0
  0
LINE
  5
864
330
1F
100
AcDbEntity
  8
0
100
AcDbLine
 10
55.9999978080989
 20
26.97381694046686
 30
0.0
 11
55.9999978080989
 21
28.9738169404668
 31
0.0
  0
LINE
  5
865
330
1F
100
AcDbEntity
  8
0
100
AcDbLine
 10
54.9999978080989
 20
26.97381694046686
 30
0.0
 11
54.9999978080989
 21
28.9738169404668
 31
0.0
  0
LINE
  5
866
330
1F
100
AcDbEntity
  8
0
100
AcDbLine
 10
55.9999978080989
 20
33.97381694046679
 30
0.0
 11
55.9999978080989
 21
35.97381694046686
 31
0.0
  0
LINE
  5
867
330
1F
100
AcDbEntity
  8
0
100
AcDbLine
 10
54.9999978080989
 20
33.97381694046679
 30
0.0
 11
54.9999978080989
 21
35.97381694046686
 31
0.0
  0
LINE
  5
868
330
1F
100
AcDbEntity
  8
0
100
AcDbLine
 10
57.9999978080989
 20
3.585963097298928
 30
0.0
 11
4.999997808098896
 21
4.973816940466861
 31
0.0
  0
LINE
  5
869
330
1F
100
AcDbEntity
  8
0
100
AcDbLine
 10
3.999997808098896
 20
5.000002862035954
 30
0.0
 11
57.9999978080989
 21
3.585963097298928
 31
0.0
  0
LINE
  5
86A
330
1F
100
AcDbEntity
  8
0
100
AcDbLine
 10
-0.0000021919011033
 20
0.0000028620359558
 30
0.0
 11
57.9999978080989
 21
0.0000028620359558
 31
0.0
  0
LINE
  5
86B
330
1F
100
AcDbEntity
  8
0
100
AcDbLine
 10
3.999997808098896
 20
5.000002862035954
 30
0.0
 11
-0.0000021919011033
 21
4.895259175758951
 31
0.0
  0
LINE
  5
86C
330
1F
100
AcDbEntity
  8
0
100
AcDbLine
 10
31.0999978080988
 20
3.800002862034829
 30
0.0
 11
31.0999978080988
 21
0.0000028620359558
 31
0.0
  0
LINE
  5
86D
330
1F
100
AcDbEntity
  8
0
100
AcDbLine
 10
26.89999780809785
 20
3.800002862034829
 30
0.0
 11
26.89999780809785
 21
0.0000028620359558
 31
0.0
  0
LINE
  5
86E
330
1F
100
AcDbEntity
  8
0
100
AcDbLine
 10
23.49999780809889
 20
3.800002862034829
 30
0.0
 11
34.49999780809889
 21
3.800002862034829
 31
0.0
  0
LINE
  5
86F
330
1F
100
AcDbEntity
  8
0
100
AcDbLine
 10
23.49999780809889
 20
4.489377391435823
 30
0.0
 11
23.49999780809889
 21
3.800002862034829
 31
0.0
  0
LINE
  5
870
330
1F
100
AcDbEntity
  8
0
100
AcDbLine
 10
34.49999780809889
 20
4.201332254176008
 30
0.0
 11
34.49999780809889
 21
3.800002862034829
 31
0.0
  0
LINE
  5
871
330
1F
100
AcDbEntity
  8
0
100
AcDbLine
 10
57.9999978080989
 20
0.0000028620359558
 30
0.0
 11
57.9999978080989
 21
3.585963097298928
 31
0.0
  0
LINE
  5
872
330
1F
100
AcDbEntity
  8
0
100
AcDbLine
 10
41.14999780809876
 20
120.9738169404668
 30
0.0
 11
41.14999780809876
 21
124.3738169404666
 31
0.0
  0
LINE
  5
873
330
1F
100
AcDbEntity
  8
0
100
AcDbLine
 10
41.14999780809876
 20
124.3738169404666
 30
0.0
 11
47.4499978080987
 21
124.3738169404666
 31
0.0
  0
LINE
  5
874
330
1F
100
AcDbEntity
  8
0
100
AcDbLine
 10
47.4499978080987
 20
124.3738169404666
 30
0.0
 11
47.4499978080987
 21
120.9738169404668
 31
0.0
  0
LINE
  5
875
330
1F
100
AcDbEntity
  8
0
100
AcDbLine
 10
15.59999780809766
 20
126.2738169404667
 30
0.0
 11
15.59999780809766
 21
127.5738169404668
 31
0.0
  0
LINE
  5
876
330
1F
100
AcDbEntity
  8
0
100
AcDbLine
 10
15.59999780809766
 20
127.5738169404668
 30
0.0
 11
24.94499780809769
 21
127.5738169404668
 31
0.0
  0
LINE
  5
877
330
1F
100
AcDbEntity
  8
0
100
AcDbLine
 10
24.94499780809769
 20
127.5738169404668
 30
0.0
 11
24.94499780809769
 21
120.9738169404668
 31
0.0
  0
LINE
  5
878
330
1F
100
AcDbEntity
  8
0
100
AcDbLine
 10
15.1999978080978
 20
121.9738169404668
 30
0.0
 11
15.1999978080978
 21
126.2738169404667
 31
0.0
  0
LINE
  5
879
330
1F
100
AcDbEntity
  8
0
100
AcDbLine
 10
15.1999978080978
 20
126.2738169404667
 30
0.0
 11
21.09999780809766
 21
126.2738169404667
 31
0.0
  0
LINE
  5
87A
330
1F
100
AcDbEntity
  8
0
100
AcDbLine
 10
21.09999780809766
 20
126.2738169404667
 30
0.0
 11
21.09999780809766
 21
121.9738169404668
 31
0.0
  0
LINE
  5
87B
330
1F
100
AcDbEntity
  8
0
100
AcDbLine
 10
14.0999978080988
 20
120.9738169404668
 30
0.0
 11
14.0999978080988
 21
121.9738169404668
 31
0.0
  0
LINE
  5
87C
330
1F
100
AcDbEntity
  8
0
100
AcDbLine
 10
14.0999978080988
 20
121.9738169404668
 30
0.0
 11
22.6999978080978
 21
121.9738169404668
 31
0.0
  0
LINE
  5
87D
330
1F
100
AcDbEntity
  8
0
100
AcDbLine
 10
22.6999978080978
 20
121.9738169404668
 30
0.0
 11
22.6999978080978
 21
120.9738169404668
 31
0.0
  0
LINE
  5
87E
330
1F
100
AcDbEntity
  8
0
100
AcDbLine
 10
48.99999780809888
 20
50.00000286203482
 30
0.0
 11
38.99999780809888
 21
50.00000286203482
 31
0.0
  0
LINE
  5
87F
330
1F
100
AcDbEntity
  8
0
100
AcDbLine
 10
51.49999780809888
 20
102.0000028620348
 30
0.0
 11
49.9999978080989
 21
102.0000028620348
 31
0.0
  0
LINE
  5
880
330
1F
100
AcDbEntity
  8
0
100
AcDbLine
 10
53.4999978080989
 20
52.00000286203482
 30
0.0
 11
34.49999780809889
 21
52.00000286203482
 31
0.0
  0
LINE
  5
881
330
1F
100
AcDbEntity
  8
0
100
AcDbLine
 10
34.49999780809889
 20
90.00000286203482
 30
0.0
 11
53.4999978080989
 21
90.00000286203482
 31
0.0
  0
LINE
  5
882
330
1F
100
AcDbEntity
  8
0
100
AcDbLine
 10
34.49999780809889
 20
92.00000286203481
 30
0.0
 11
53.4999978080989
 21
92.00000286203481
 31
0.0
  0
LINE
  5
883
330
1F
100
AcDbEntity
  8
0
100
AcDbLine
 10
34.55277599425267
 20
102.0000028620348
 30
0.0
 11
53.44721962194376
 21
102.0000028620348
 31
0.0
  0
LINE
  5
884
330
1F
100
AcDbEntity
  8
0
100
AcDbLine
 10
34.55277599425267
 20
102.0000028620348
 30
0.0
 11
34.55277599425267
 21
92.00000286203481
 31
0.0
  0
LINE
  5
885
330
1F
100
AcDbEntity
  8
0
100
AcDbLine
 10
53.44721962194376
 20
102.0000028620348
 30
0.0
 11
53.44721962194376
 21
92.00000286203481
 31
0.0
  0
LINE
  5
886
330
1F
100
AcDbEntity
  8
0
100
AcDbLine
 10
53.4999978080989
 20
92.00000286203481
 30
0.0
 11
53.4999978080989
 21
50.00000286203482
 31
0.0
  0
LINE
  5
887
330
1F
100
AcDbEntity
  8
0
100
AcDbLine
 10
53.4999978080989
 20
50.00000286203482
 30
0.0
 11
34.49999780809889
 21
50.00000286203482
 31
0.0
  0
LINE
  5
888
330
1F
100
AcDbEntity
  8
0
100
AcDbLine
 10
34.49999780809889
 20
50.00000286203482
 30
0.0
 11
34.49999780809889
 21
92.00000286203481
 31
0.0
  0
LINE
  5
889
330
1F
100
AcDbEntity
  8
0
100
AcDbLine
 10
38.99999780809888
 20
52.00000286203482
 30
0.0
 11
38.99999780809888
 21
49.9738169404668
 31
0.0
  0
ARC
  5
88A
330
1F
100
AcDbEntity
  8
0
100
AcDbCircle
 10
35.29999780809885
 20
82.00000286203488
 30
0.0
 40
1.05
100
AcDbArc
 50
139.6324064558172
 51
220.3675935441825
  0
LINE
  5
88B
330
1F
100
AcDbEntity
  8
0
100
AcDbLine
 10
48.99999780809888
 20
49.9738169404668
 30
0.0
 11
48.99999780809888
 21
52.00000286203482
 31
0.0
  0
LINE
  5
88C
330
1F
100
AcDbEntity
  8
0
100
AcDbLine
 10
34.55277599425267
 20
98.9738169404668
 30
0.0
 11
15.99999780809889
 21
98.9738169404668
 31
0.0
  0
LINE
  5
88D
330
1F
100
AcDbEntity
  8
0
100
AcDbLine
 10
34.55277599425267
 20
96.97381694046681
 30
0.0
 11
15.99999780809889
 21
96.97381694046681
 31
0.0
  0
LINE
  5
88E
330
1F
100
AcDbEntity
  8
0
100
AcDbLine
 10
34.49999780809889
 20
70.97381694046679
 30
0.0
 11
15.99999780809889
 21
70.97381694046679
 31
0.0
  0
LINE
  5
88F
330
1F
100
AcDbEntity
  8
0
100
AcDbLine
 10
34.49999780809889
 20
68.97381694046686
 30
0.0
 11
15.99999780809889
 21
68.97381694046686
 31
0.0
  0
LINE
  5
890
330
1F
100
AcDbEntity
  8
0
100
AcDbLine
 10
34.49999780809889
 20
63.97381694046686
 30
0.0
 11
15.99999780809889
 21
63.97381694046686
 31
0.0
  0
LINE
  5
891
330
1F
100
AcDbEntity
  8
0
100
AcDbLine
 10
34.49999780809889
 20
61.97381694046679
 30
0.0
 11
15.99999780809889
 21
61.97381694046679
 31
0.0
  0
LINE
  5
892
330
1F
100
AcDbEntity
  8
0
100
AcDbLine
 10
34.49999780809889
 20
56.97381694046686
 30
0.0
 11
15.99999780809889
 21
56.97381694046686
 31
0.0
  0
LINE
  5
893
330
1F
100
AcDbEntity
  8
0
100
AcDbLine
 10
34.49999780809889
 20
54.97381694046686
 30
0.0
 11
15.99999780809889
 21
54.97381694046686
 31
0.0
  0
LINE
  5
894
330
1F
100
AcDbEntity
  8
0
100
AcDbLine
 10
48.99999780809888
 20
50.00000286203482
 30
0.0
 11
53.4999978080989
 21
50.00000286203482
 31
0.0
  0
LINE
  5
895
330
1F
100
AcDbEntity
  8
0
100
AcDbLine
 10
53.4999978080989
 20
50.00000286203482
 30
0.0
 11
53.4999978080989
 21
50.00000286203482
 31
0.0
  0
LINE
  5
896
330
1F
100
AcDbEntity
  8
0
  6
CONTINUOUS
100
AcDbLine
 10
36.2385242081309
 20
120.9738169404668
 30
0.0
 11
36.2385242081309
 21
122.8664098855584
 31
0.0
  0
LINE
  5
897
330
1F
100
AcDbEntity
  8
0
  6
CONTINUOUS
100
AcDbLine
 10
36.2385242081309
 20
122.8664098855584
 30
0.0
 11
41.14999780809876
 21
122.8664098855584
 31
0.0
  0
LINE
  5
898
330
1F
100
AcDbEntity
  8
0
  6
CONTINUOUS
100
AcDbLine
 10
35.60010770811277
 20
120.9738169404668
 30
0.0
 11
35.60010770811277
 21
122.9738169404668
 31
0.0
  0
LINE
  5
899
330
1F
100
AcDbEntity
  8
0
  6
CONTINUOUS
100
AcDbLine
 10
35.60010770811277
 20
122.9738169404668
 30
0.0
 11
41.14999780809876
 21
122.9738169404668
 31
0.0
  0
TEXT
  5
962
330
1F
100
AcDbEntity
  8
0
100
AcDbText
 10
-4.093806445861459
 20
402.673425556081
 30
0.0
 40
10.0
  1
SCON-C/CA-20~300SA-PR-*-1/2
100
AcDbText
  0
ENDSEC
  0
SECTION
  2
OBJECTS
  0
DICTIONARY
  5
C
330
0
100
AcDbDictionary
  3
ACAD_GROUP
350
D
  3
ACAD_LAYOUT
350
1A
  3
ACAD_MLINESTYLE
350
17
  3
ACAD_PLOTSETTINGS
350
19
  3
ACAD_PLOTSTYLENAME
350
E
  3
ACDBHEADERROUNDTRIPXREC
350
994
  3
ACDBVARIABLEDICTIONARY
350
963
  0
DICTIONARY
  5
A7
330
2
100
AcDbDictionary
280
     1
  3
ACAD_LAYERSTATES
360
A8
  0
DICTIONARY
  5
989
330
1F
100
AcDbDictionary
280
     1
  3
ACAD_LAYOUTSELFREF
360
9B5
  0
DICTIONARY
  5
987
330
1B
100
AcDbDictionary
280
     1
  3
ACAD_LAYOUTSELFREF
360
9B4
  0
DICTIONARY
  5
D
102
{ACAD_REACTORS
330
C
102
}
330
C
100
AcDbDictionary
  0
DICTIONARY
  5
1A
102
{ACAD_REACTORS
330
C
102
}
330
C
100
AcDbDictionary
  0
DICTIONARY
  5
17
102
{ACAD_REACTORS
330
C
102
}
330
C
100
AcDbDictionary
  3
STANDARD
350
18
  0
DICTIONARY
  5
19
102
{ACAD_REACTORS
330
C
102
}
330
C
100
AcDbDictionary
  0
ACDBDICTIONARYWDFLT
  5
E
102
{ACAD_REACTORS
330
C
102
}
330
C
100
AcDbDictionary
281
     1
  3
Normal
350
F
100
AcDbDictionaryWithDefault
340
F
  0
DICTIONARY
  5
994
102
{ACAD_REACTORS
330
C
102
}
330
C
100
AcDbDictionary
  3
CEPSNTYPE
350
99E
  3
FINGERPRINTGUID
350
99F
  3
HYPERLINKBASE
350
997
  3
INSUNITS
350
99D
  3
LAYOUTDICT
350
999
  3
LWETCUNION
350
99C
  3
PLOTSETDICT
350
99A
  3
PLOTSTYLNAMDICT
350
99B
  3
PSVPSCALE
350
9A1
  3
PUCSBASE
350
9A4
  3
PUCSORGBACK
350
9AA
  3
PUCSORGBOTTOM
350
9A6
  3
PUCSORGFRONT
350
9A9
  3
PUCSORGLEFT
350
9A7
  3
PUCSORGRIGHT
350
9A8
  3
PUCSORGTOP
350
9A5
  3
PUCSORTHOREF
350
9A2
  3
PUCSORTHOVIEW
350
9A3
  3
STYLESHEET
350
998
  3
TSTACKALIGN
350
995
  3
TSTACKSIZE
350
996
  3
UCSBASE
350
9AD
  3
UCSORGBACK
350
9B3
  3
UCSORGBOTTOM
350
9AF
  3
UCSORGFRONT
350
9B2
  3
UCSORGLEFT
350
9B0
  3
UCSORGRIGHT
350
9B1
  3
UCSORGTOP
350
9AE
  3
UCSORTHOREF
350
9AB
  3
UCSORTHOVIEW
350
9AC
  3
VERSIONGUID
350
9A0
  0
DICTIONARY
  5
963
102
{ACAD_REACTORS
330
C
102
}
330
C
100
AcDbDictionary
  3
DIMASSOC
350
965
  3
HIDETEXT
350
964
  0
DICTIONARY
  5
A8
102
{ACAD_REACTORS
330
A7
102
}
330
A7
100
AcDbDictionary
  0
XRECORD
  5
9B5
102
{ACAD_REACTORS
330
989
102
}
330
989
100
AcDbXrecord
340
1F
  0
XRECORD
  5
9B4
102
{ACAD_REACTORS
330
987
102
}
330
987
100
AcDbXrecord
340
1B
  0
MLINESTYLE
  5
18
102
{ACAD_REACTORS
330
17
102
}
330
17
100
AcDbMlineStyle
  2
STANDARD
 70
     0
  3

 62
   256
 51
90.0
 52
90.0
 71
     2
 49
0.5
 62
   256
  6
BYLAYER
 49
-0.5
 62
   256
  6
BYLAYER
  0
ACDBPLACEHOLDER
  5
F
102
{ACAD_REACTORS
330
E
102
}
330
E
100
AcDbPlaceHolder
280
     0
  0
XRECORD
  5
99E
102
{ACAD_REACTORS
330
994
102
}
330
994
100
AcDbXrecord
 90
        0
  0
XRECORD
  5
99F
102
{ACAD_REACTORS
330
994
102
}
330
994
100
AcDbXrecord
  1
{89A421C6-4F14-4185-BDD3-3DD13D78CF8E}
  0
XRECORD
  5
997
102
{ACAD_REACTORS
330
994
102
}
330
994
100
AcDbXrecord
  1

  0
XRECORD
  5
99D
102
{ACAD_REACTORS
330
994
102
}
330
994
100
AcDbXrecord
 90
        4
  0
XRECORD
  5
999
102
{ACAD_REACTORS
330
994
102
}
330
994
100
AcDbXrecord
340
1A
  0
XRECORD
  5
99C
102
{ACAD_REACTORS
330
994
102
}
330
994
100
AcDbXrecord
 90
    10781
  0
XRECORD
  5
99A
102
{ACAD_REACTORS
330
994
102
}
330
994
100
AcDbXrecord
340
19
  0
XRECORD
  5
99B
102
{ACAD_REACTORS
330
994
102
}
330
994
100
AcDbXrecord
340
E
  0
XRECORD
  5
9A1
102
{ACAD_REACTORS
330
994
102
}
330
994
100
AcDbXrecord
 40
0.0
  0
XRECORD
  5
9A4
102
{ACAD_REACTORS
330
994
102
}
330
994
100
AcDbXrecord
340
0
  0
XRECORD
  5
9AA
102
{ACAD_REACTORS
330
994
102
}
330
994
100
AcDbXrecord
 10
0.0
 20
0.0
 30
0.0
  0
XRECORD
  5
9A6
102
{ACAD_REACTORS
330
994
102
}
330
994
100
AcDbXrecord
 10
0.0
 20
0.0
 30
0.0
  0
XRECORD
  5
9A9
102
{ACAD_REACTORS
330
994
102
}
330
994
100
AcDbXrecord
 10
0.0
 20
0.0
 30
0.0
  0
XRECORD
  5
9A7
102
{ACAD_REACTORS
330
994
102
}
330
994
100
AcDbXrecord
 10
0.0
 20
0.0
 30
0.0
  0
XRECORD
  5
9A8
102
{ACAD_REACTORS
330
994
102
}
330
994
100
AcDbXrecord
 10
0.0
 20
0.0
 30
0.0
  0
XRECORD
  5
9A5
102
{ACAD_REACTORS
330
994
102
}
330
994
100
AcDbXrecord
 10
0.0
 20
0.0
 30
0.0
  0
XRECORD
  5
9A2
102
{ACAD_REACTORS
330
994
102
}
330
994
100
AcDbXrecord
340
0
  0
XRECORD
  5
9A3
102
{ACAD_REACTORS
330
994
102
}
330
994
100
AcDbXrecord
 70
     0
  0
XRECORD
  5
998
102
{ACAD_REACTORS
330
994
102
}
330
994
100
AcDbXrecord
  1

  0
XRECORD
  5
995
102
{ACAD_REACTORS
330
994
102
}
330
994
100
AcDbXrecord
 90
        1
  0
XRECORD
  5
996
102
{ACAD_REACTORS
330
994
102
}
330
994
100
AcDbXrecord
 90
       70
  0
XRECORD
  5
9AD
102
{ACAD_REACTORS
330
994
102
}
330
994
100
AcDbXrecord
340
0
  0
XRECORD
  5
9B3
102
{ACAD_REACTORS
330
994
102
}
330
994
100
AcDbXrecord
 10
0.0
 20
0.0
 30
0.0
  0
XRECORD
  5
9AF
102
{ACAD_REACTORS
330
994
102
}
330
994
100
AcDbXrecord
 10
0.0
 20
0.0
 30
0.0
  0
XRECORD
  5
9B2
102
{ACAD_REACTORS
330
994
102
}
330
994
100
AcDbXrecord
 10
0.0
 20
0.0
 30
0.0
  0
XRECORD
  5
9B0
102
{ACAD_REACTORS
330
994
102
}
330
994
100
AcDbXrecord
 10
0.0
 20
0.0
 30
0.0
  0
XRECORD
  5
9B1
102
{ACAD_REACTORS
330
994
102
}
330
994
100
AcDbXrecord
 10
0.0
 20
0.0
 30
0.0
  0
XRECORD
  5
9AE
102
{ACAD_REACTORS
330
994
102
}
330
994
100
AcDbXrecord
 10
0.0
 20
0.0
 30
0.0
  0
XRECORD
  5
9AB
102
{ACAD_REACTORS
330
994
102
}
330
994
100
AcDbXrecord
340
0
  0
XRECORD
  5
9AC
102
{ACAD_REACTORS
330
994
102
}
330
994
100
AcDbXrecord
 70
     0
  0
XRECORD
  5
9A0
102
{ACAD_REACTORS
330
994
102
}
330
994
100
AcDbXrecord
  1
{67EE49AA-C823-4F56-8A54-D2F0B116E21E}
  0
DICTIONARYVAR
  5
965
102
{ACAD_REACTORS
330
963
102
}
330
963
100
DictionaryVariables
280
     0
  1
2
  0
DICTIONARYVAR
  5
964
102
{ACAD_REACTORS
330
963
102
}
330
963
100
DictionaryVariables
280
     0
  1
1
  0
ENDSEC
  0
EOF
