  0
SECTION
  2
HEADER
  9
$ACADVER
  1
AC1014
  9
$ACADMAINTVER
 70
     9
  9
$DWGCODEPAGE
  3
ANSI_932
  9
$INSBASE
 10
0.0
 20
0.0
 30
0.0
  9
$EXTMIN
 10
36.08651961002738
 20
0.0000036460284533
 30
0.0
  9
$EXTMAX
 10
330.1845496230139
 20
421.4310699630148
 30
6.483974233579615E+99
  9
$LIMMIN
 10
0.0
 20
0.0
  9
$LIMMAX
 10
420.0
 20
297.0
  9
$ORTHOMODE
 70
     0
  9
$REGENMODE
 70
     1
  9
$FILLMODE
 70
     1
  9
$QTEXTMODE
 70
     0
  9
$MIRRTEXT
 70
     1
  9
$DRAGMODE
 70
     2
  9
$LTSCALE
 40
1.0
  9
$OSMODE
 70
    55
  9
$ATTMODE
 70
     1
  9
$TEXTSIZE
 40
2.5
  9
$TRACEWID
 40
1.0
  9
$TEXTSTYLE
  7
STANDARD
  9
$CLAYER
  8
0
  9
$CELTYPE
  6
BYLAYER
  9
$CECOLOR
 62
   256
  9
$CELTSCALE
 40
1.0
  9
$DELOBJ
 70
     1
  9
$DISPSILH
 70
     0
  9
$DIMSCALE
 40
1.0
  9
$DIMASZ
 40
2.5
  9
$DIMEXO
 40
0.625
  9
$DIMDLI
 40
3.75
  9
$DIMRND
 40
0.0
  9
$DIMDLE
 40
0.0
  9
$DIMEXE
 40
1.25
  9
$DIMTP
 40
0.0
  9
$DIMTM
 40
0.0
  9
$DIMTXT
 40
2.5
  9
$DIMCEN
 40
2.5
  9
$DIMTSZ
 40
0.0
  9
$DIMTOL
 70
     0
  9
$DIMLIM
 70
     0
  9
$DIMTIH
 70
     0
  9
$DIMTOH
 70
     0
  9
$DIMSE1
 70
     0
  9
$DIMSE2
 70
     0
  9
$DIMTAD
 70
     1
  9
$DIMZIN
 70
     8
  9
$DIMBLK
  1

  9
$DIMASO
 70
     1
  9
$DIMSHO
 70
     1
  9
$DIMPOST
  1

  9
$DIMAPOST
  1

  9
$DIMALT
 70
     0
  9
$DIMALTD
 70
     3
  9
$DIMALTF
 40
0.03937007874016
  9
$DIMLFAC
 40
1.0
  9
$DIMTOFL
 70
     1
  9
$DIMTVP
 40
0.0
  9
$DIMTIX
 70
     0
  9
$DIMSOXD
 70
     0
  9
$DIMSAH
 70
     0
  9
$DIMBLK1
  1

  9
$DIMBLK2
  1

  9
$DIMSTYLE
  2
ISO-25
  9
$DIMCLRD
 70
     0
  9
$DIMCLRE
 70
     0
  9
$DIMCLRT
 70
     0
  9
$DIMTFAC
 40
1.0
  9
$DIMGAP
 40
0.625
  9
$DIMJUST
 70
     0
  9
$DIMSD1
 70
     0
  9
$DIMSD2
 70
     0
  9
$DIMTOLJ
 70
     0
  9
$DIMTZIN
 70
     8
  9
$DIMALTZ
 70
     0
  9
$DIMALTTZ
 70
     0
  9
$DIMFIT
 70
     3
  9
$DIMUPT
 70
     0
  9
$DIMUNIT
 70
     2
  9
$DIMDEC
 70
     2
  9
$DIMTDEC
 70
     2
  9
$DIMALTU
 70
     2
  9
$DIMALTTD
 70
     3
  9
$DIMTXSTY
  7
STANDARD
  9
$DIMAUNIT
 70
     0
  9
$LUNITS
 70
     2
  9
$LUPREC
 70
     4
  9
$SKETCHINC
 40
1.0
  9
$FILLETRAD
 40
10.0
  9
$AUNITS
 70
     0
  9
$AUPREC
 70
     0
  9
$MENU
  1
.
  9
$ELEVATION
 40
0.0
  9
$PELEVATION
 40
0.0
  9
$THICKNESS
 40
0.0
  9
$LIMCHECK
 70
     0
  9
$BLIPMODE
 70
     0
  9
$CHAMFERA
 40
10.0
  9
$CHAMFERB
 40
10.0
  9
$CHAMFERC
 40
20.0
  9
$CHAMFERD
 40
0.0
  9
$SKPOLY
 70
     0
  9
$TDCREATE
 40
2455874.703989039
  9
$TDUPDATE
 40
2456013.750179687
  9
$TDINDWG
 40
0.0040879977
  9
$TDUSRTIMER
 40
0.0040876389
  9
$USRTIMER
 70
     1
  9
$ANGBASE
 50
0.0
  9
$ANGDIR
 70
     0
  9
$PDMODE
 70
     0
  9
$PDSIZE
 40
0.0
  9
$PLINEWID
 40
0.0
  9
$COORDS
 70
     1
  9
$SPLFRAME
 70
     0
  9
$SPLINETYPE
 70
     6
  9
$SPLINESEGS
 70
     8
  9
$ATTDIA
 70
     0
  9
$ATTREQ
 70
     1
  9
$HANDLING
 70
 22529
  9
$HANDSEED
  5
9EB
  9
$SURFTAB1
 70
     6
  9
$SURFTAB2
 70
     6
  9
$SURFTYPE
 70
     6
  9
$SURFU
 70
     6
  9
$SURFV
 70
     6
  9
$UCSNAME
  2

  9
$UCSORG
 10
0.0
 20
0.0
 30
0.0
  9
$UCSXDIR
 10
1.0
 20
0.0
 30
0.0
  9
$UCSYDIR
 10
0.0
 20
1.0
 30
0.0
  9
$PUCSNAME
  2

  9
$PUCSORG
 10
0.0
 20
0.0
 30
0.0
  9
$PUCSXDIR
 10
1.0
 20
0.0
 30
0.0
  9
$PUCSYDIR
 10
0.0
 20
1.0
 30
0.0
  9
$USERI1
 70
     0
  9
$USERI2
 70
     0
  9
$USERI3
 70
     0
  9
$USERI4
 70
     0
  9
$USERI5
 70
     0
  9
$USERR1
 40
0.0
  9
$USERR2
 40
0.0
  9
$USERR3
 40
0.0
  9
$USERR4
 40
0.0
  9
$USERR5
 40
0.0
  9
$WORLDVIEW
 70
     1
  9
$SHADEDGE
 70
     3
  9
$SHADEDIF
 70
    70
  9
$TILEMODE
 70
     1
  9
$MAXACTVP
 70
    64
  9
$PINSBASE
 10
0.0
 20
0.0
 30
0.0
  9
$PLIMCHECK
 70
     0
  9
$PEXTMIN
 10
1.000000000000000E+20
 20
1.000000000000000E+20
 30
1.000000000000000E+20
  9
$PEXTMAX
 10
-1.000000000000000E+20
 20
-1.000000000000000E+20
 30
-1.000000000000000E+20
  9
$PLIMMIN
 10
0.0
 20
0.0
  9
$PLIMMAX
 10
420.0
 20
297.0
  9
$UNITMODE
 70
     0
  9
$VISRETAIN
 70
     1
  9
$PLINEGEN
 70
     0
  9
$PSLTSCALE
 70
     1
  9
$TREEDEPTH
 70
  3020
  9
$PICKSTYLE
 70
     1
  9
$CMLSTYLE
  2
STANDARD
  9
$CMLJUST
 70
     0
  9
$CMLSCALE
 40
20.0
  9
$PROXYGRAPHICS
 70
     1
  9
$MEASUREMENT
 70
     1
  0
ENDSEC
  0
SECTION
  2
CLASSES
  0
CLASS
  1
ACDBDICTIONARYWDFLT
  2
AcDbDictionaryWithDefault
  3
AutoCAD 2000
 90
        0
280
     0
281
     0
  0
CLASS
  1
ACDBPLACEHOLDER
  2
AcDbPlaceHolder
  3
AutoCAD 2000
 90
        0
280
     0
281
     0
  0
CLASS
  1
LAYOUT
  2
AcDbLayout
  3
AutoCAD 2000
 90
        0
280
     0
281
     0
  0
CLASS
  1
DICTIONARYVAR
  2
AcDbDictionaryVar
  3
AutoCAD 2000
 90
        0
280
     0
281
     0
  0
CLASS
  1
LONG_TRANSACTION
  2
AcDbLongTransaction
  3
AutoCAD 2000
 90
        0
280
     0
281
     0
  0
CLASS
  1
LWPOLYLINE
  2
AcDbPolyline
  3
AutoCAD 2000
 90
        0
280
     0
281
     1
  0
CLASS
  1
HATCH
  2
AcDbHatch
  3
AutoCAD 2000
 90
        0
280
     0
281
     1
  0
CLASS
  1
XRECORD
  2
AcDbXrecord
  3
AutoCAD 2000
 90
        0
280
     0
281
     0
  0
CLASS
  1
LONG_TRANSACTION
  2
AcDbLongTransaction
  3
AutoCAD 2000
 90
        0
280
     0
281
     0
  0
CLASS
  1
LWPOLYLINE
  2
AcDbPolyline
  3
AutoCAD 2000
 90
        0
280
     0
281
     1
  0
CLASS
  1
HATCH
  2
AcDbHatch
  3
AutoCAD 2000
 90
        0
280
     0
281
     1
  0
CLASS
  1
XRECORD
  2
AcDbXrecord
  3
AutoCAD 2000
 90
        0
280
     0
281
     0
  0
CLASS
  1
LONG_TRANSACTION
  2
AcDbLongTransaction
  3
AutoCAD 2000
 90
        0
280
     0
281
     0
  0
CLASS
  1
LWPOLYLINE
  2
AcDbPolyline
  3
AutoCAD 2000
 90
        0
280
     0
281
     1
  0
CLASS
  1
HATCH
  2
AcDbHatch
  3
AutoCAD 2000
 90
        0
280
     0
281
     1
  0
CLASS
  1
XRECORD
  2
AcDbXrecord
  3
AutoCAD 2000
 90
        0
280
     0
281
     0
  0
CLASS
  1
LONG_TRANSACTION
  2
AcDbLongTransaction
  3
AutoCAD 2000
 90
        0
280
     0
281
     0
  0
CLASS
  1
LWPOLYLINE
  2
AcDbPolyline
  3
AutoCAD 2000
 90
        0
280
     0
281
     1
  0
CLASS
  1
HATCH
  2
AcDbHatch
  3
AutoCAD 2000
 90
        0
280
     0
281
     1
  0
CLASS
  1
XRECORD
  2
AcDbXrecord
  3
AutoCAD 2000
 90
        0
280
     0
281
     0
  0
CLASS
  1
LONG_TRANSACTION
  2
AcDbLongTransaction
  3
AutoCAD 2000
 90
        0
280
     0
281
     0
  0
CLASS
  1
LWPOLYLINE
  2
AcDbPolyline
  3
AutoCAD 2000
 90
        0
280
     0
281
     1
  0
CLASS
  1
HATCH
  2
AcDbHatch
  3
AutoCAD 2000
 90
        0
280
     0
281
     1
  0
CLASS
  1
XRECORD
  2
AcDbXrecord
  3
AutoCAD 2000
 90
        0
280
     0
281
     0
  0
ENDSEC
  0
SECTION
  2
TABLES
  0
TABLE
  2
VPORT
  5
8
330
0
100
AcDbSymbolTable
 70
     2
  0
VPORT
  5
9C8
330
8
100
AcDbSymbolTableRecord
100
AcDbViewportTableRecord
  2
*ACTIVE
 70
     0
 10
0.0
 20
0.0
 11
1.0
 21
1.0
 12
183.1355346165207
 22
210.7155368045216
 13
0.0
 23
0.0
 14
10.0
 24
10.0
 15
10.0
 25
10.0
 16
0.0
 26
0.0
 36
1.0
 17
0.0
 27
0.0
 37
0.0
 40
424.4997391299742
 41
1.46415552855407
 42
50.0
 43
0.0
 44
0.0
 50
0.0
 51
0.0
 71
     0
 72
   100
 73
     1
 74
     3
 75
     0
 76
     0
 77
     0
 78
     0
  0
ENDTAB
  0
TABLE
  2
LTYPE
  5
5
330
0
100
AcDbSymbolTable
 70
     2
  0
LTYPE
  5
14
330
5
100
AcDbSymbolTableRecord
100
AcDbLinetypeTableRecord
  2
BYBLOCK
 70
     0
  3

 72
    65
 73
     0
 40
0.0
  0
LTYPE
  5
15
330
5
100
AcDbSymbolTableRecord
100
AcDbLinetypeTableRecord
  2
BYLAYER
 70
     0
  3

 72
    65
 73
     0
 40
0.0
  0
LTYPE
  5
16
330
5
100
AcDbSymbolTableRecord
100
AcDbLinetypeTableRecord
  2
CONTINUOUS
 70
     0
  3
Solid line
 72
    65
 73
     0
 40
0.0
  0
LTYPE
  5
2D9
330
5
100
AcDbSymbolTableRecord
100
AcDbLinetypeTableRecord
  2
CENTER
 70
     0
  3
__ . __ . __ . __ . __ . __ . __ . __ . __ . __
 72
    65
 73
     4
 40
1.0
 49
0.5
 74
     0
 49
-0.25
 74
     0
 49
0.0
 74
     0
 49
-0.25
 74
     0
  0
ENDTAB
  0
TABLE
  2
LAYER
  5
2
102
{ACAD_XDICTIONARY
360
2DF
102
}
330
0
100
AcDbSymbolTable
 70
     3
  0
LAYER
  5
10
330
2
100
AcDbSymbolTableRecord
100
AcDbLayerTableRecord
  2
0
 70
     0
 62
     7
  6
CONTINUOUS
  0
LAYER
  5
2DB
330
2
100
AcDbSymbolTableRecord
100
AcDbLayerTableRecord
  2
DEFPOINTS
 70
     0
 62
    -7
  6
CONTINUOUS
  0
LAYER
  5
2DC
330
2
100
AcDbSymbolTableRecord
100
AcDbLayerTableRecord
  2
1
 70
     0
 62
     3
  6
CONTINUOUS
  0
ENDTAB
  0
TABLE
  2
STYLE
  5
3
330
0
100
AcDbSymbolTable
 70
     1
  0
STYLE
  5
11
330
3
100
AcDbSymbolTableRecord
100
AcDbTextStyleTableRecord
  2
STANDARD
 70
     0
 40
0.0
 41
1.0
 50
0.0
 71
     0
 42
2.5
  3
txt
  4

  0
ENDTAB
  0
TABLE
  2
VIEW
  5
6
330
0
100
AcDbSymbolTable
 70
     0
  0
ENDTAB
  0
TABLE
  2
UCS
  5
7
330
0
100
AcDbSymbolTable
 70
     0
  0
ENDTAB
  0
TABLE
  2
APPID
  5
9
330
0
100
AcDbSymbolTable
 70
     1
  0
APPID
  5
12
330
9
100
AcDbSymbolTableRecord
100
AcDbRegAppTableRecord
  2
ACAD
 70
     0
  0
ENDTAB
  0
TABLE
  2
DIMSTYLE
  5
A
330
0
100
AcDbSymbolTable
 70
     2
  0
DIMSTYLE
105
27
330
A
100
AcDbSymbolTableRecord
100
AcDbDimStyleTableRecord
  2
ISO-25
 70
     0
  3

  4

  5

  6

  7

 40
1.0
 41
2.5
 42
0.625
 43
3.75
 44
1.25
 45
0.0
 46
0.0
 47
0.0
 48
0.0
140
2.5
141
2.5
142
0.0
143
0.03937007874016
144
1.0
145
0.0
146
1.0
147
0.625
 71
     0
 72
     0
 73
     0
 74
     0
 75
     0
 76
     0
 77
     1
 78
     8
170
     0
171
     3
172
     1
173
     0
174
     0
175
     0
176
     0
177
     0
178
     0
270
     2
271
     2
272
     2
273
     2
274
     3
340
11
275
     0
280
     0
281
     0
282
     0
283
     0
284
     8
285
     0
286
     0
287
     3
288
     0
  0
DIMSTYLE
105
2DE
330
A
100
AcDbSymbolTableRecord
100
AcDbDimStyleTableRecord
  2
STANDARD
 70
     0
  3

  4

  5

  6

  7

 40
1.0
 41
2.5
 42
0.625
 43
3.75
 44
1.25
 45
0.0
 46
0.0
 47
0.0
 48
0.0
140
2.5
141
2.5
142
0.0
143
0.0394
144
1.0
145
0.0
146
1.0
147
0.625
 71
     0
 72
     0
 73
     0
 74
     0
 75
     0
 76
     0
 77
     1
 78
     8
170
     0
171
     4
172
     1
173
     0
174
     0
175
     0
176
     0
177
     0
178
     0
270
     2
271
     4
272
     4
273
     8
274
     4
340
11
275
     0
280
     0
281
     0
282
     0
283
     1
284
     0
285
     0
286
     0
287
     3
288
     0
  0
ENDTAB
  0
TABLE
  2
BLOCK_RECORD
  5
1
330
0
100
AcDbSymbolTable
 70
     3
  0
BLOCK_RECORD
  5
1F
102
{ACAD_XDICTIONARY
360
93B
102
}
330
1
100
AcDbSymbolTableRecord
100
AcDbBlockTableRecord
  2
*MODEL_SPACE
  0
BLOCK_RECORD
  5
1B
102
{ACAD_XDICTIONARY
360
939
102
}
330
1
100
AcDbSymbolTableRecord
100
AcDbBlockTableRecord
  2
*PAPER_SPACE
  0
BLOCK_RECORD
  5
9A
330
1
100
AcDbSymbolTableRecord
100
AcDbBlockTableRecord
  2
A$C7A762DB8
  0
BLOCK_RECORD
  5
200
330
1
100
AcDbSymbolTableRecord
100
AcDbBlockTableRecord
  2
A$C413B70EE
  0
BLOCK_RECORD
  5
2D2
330
1
100
AcDbSymbolTableRecord
100
AcDbBlockTableRecord
  2
A$C5CFD6E8C
  0
ENDTAB
  0
ENDSEC
  0
SECTION
  2
BLOCKS
  0
BLOCK
  5
20
330
1F
100
AcDbEntity
  8
0
100
AcDbBlockBegin
  2
*MODEL_SPACE
 70
     0
 10
0.0
 20
0.0
 30
0.0
  3
*MODEL_SPACE
  1

  0
ENDBLK
  5
21
330
1F
100
AcDbEntity
  8
0
100
AcDbBlockEnd
  0
BLOCK
  5
1C
330
1B
100
AcDbEntity
 67
     1
  8
0
100
AcDbBlockBegin
  2
*PAPER_SPACE
 70
     0
 10
0.0
 20
0.0
 30
0.0
  3
*PAPER_SPACE
  1

  0
ENDBLK
  5
1D
330
1B
100
AcDbEntity
 67
     1
  8
0
100
AcDbBlockEnd
  0
BLOCK
  5
1FE
330
9A
100
AcDbEntity
  8
0
100
AcDbBlockBegin
  2
A$C7A762DB8
 70
     0
 10
0.0
 20
0.0
 30
0.0
  3
A$C7A762DB8
  1

  0
LINE
  5
9B
330
9A
100
AcDbEntity
  8
0
100
AcDbLine
 10
67.49999625813416
 20
49.99999727219666
 30
0.0
 11
48.49999625813413
 21
49.99999727219669
 31
0.0
  0
LINE
  5
9C
330
9A
100
AcDbEntity
  8
0
100
AcDbLine
 10
48.55277444428816
 20
101.9999972721965
 30
0.0
 11
67.44721807197925
 21
101.9999972721965
 31
0.0
  0
LINE
  5
9D
330
9A
100
AcDbEntity
  8
0
100
AcDbLine
 10
48.49999625813413
 20
91.99999727219669
 30
0.0
 11
67.49999625813416
 21
91.99999727219664
 31
0.0
  0
LINE
  5
9E
330
9A
100
AcDbEntity
  8
0
100
AcDbLine
 10
48.49999625813413
 20
89.99999727219664
 30
0.0
 11
67.49999625813416
 21
89.99999727219664
 31
0.0
  0
LINE
  5
9F
330
9A
100
AcDbEntity
  8
0
100
AcDbLine
 10
67.49999625813416
 20
51.99999727219664
 30
0.0
 11
48.49999625813413
 21
51.99999727219664
 31
0.0
  0
LINE
  5
A0
330
9A
100
AcDbEntity
  8
0
100
AcDbLine
 10
17.99999625813416
 20
4.999997272197671
 30
0.0
 11
71.99999625813416
 21
3.585957507460647
 31
0.0
  0
LINE
  5
A1
330
9A
100
AcDbEntity
  8
0
100
AcDbLine
 10
71.99999625813416
 20
3.585957507460647
 30
0.0
 11
18.99999625813416
 21
4.97381135062869
 31
0.0
  0
LINE
  5
A2
330
9A
100
AcDbEntity
  8
0
100
AcDbLine
 10
68.49999625813416
 20
48.97381135062869
 30
0.0
 11
47.49999625813415
 21
48.97381135062869
 31
0.0
  0
LINE
  5
A3
330
9A
100
AcDbEntity
  8
0
100
AcDbLine
 10
29.99999625813416
 20
21.97381135062868
 30
0.0
 11
71.99999625813416
 21
21.97381135062868
 31
0.0
  0
LINE
  5
A4
330
9A
100
AcDbEntity
  8
0
100
AcDbLine
 10
70.99999625813416
 20
42.97381135062869
 30
0.0
 11
29.99999625813416
 21
42.97381135062869
 31
0.0
  0
LINE
  5
A5
330
9A
100
AcDbEntity
  8
0
100
AcDbLine
 10
70.99999625813416
 20
40.97381135062867
 30
0.0
 11
29.99999625813416
 21
40.97381135062867
 31
0.0
  0
LINE
  5
A6
330
9A
100
AcDbEntity
  8
0
100
AcDbLine
 10
70.99999625813416
 20
35.97381135062867
 30
0.0
 11
29.99999625813416
 21
35.97381135062867
 31
0.0
  0
LINE
  5
A7
330
9A
100
AcDbEntity
  8
0
100
AcDbLine
 10
70.99999625813416
 20
33.97381135062869
 30
0.0
 11
29.99999625813416
 21
33.97381135062869
 31
0.0
  0
LINE
  5
A8
330
9A
100
AcDbEntity
  8
0
100
AcDbLine
 10
70.99999625813416
 20
28.97381135062869
 30
0.0
 11
29.99999625813416
 21
28.97381135062869
 31
0.0
  0
LINE
  5
A9
330
9A
100
AcDbEntity
  8
0
100
AcDbLine
 10
70.99999625813416
 20
26.97381135062869
 30
0.0
 11
29.99999625813416
 21
26.97381135062869
 31
0.0
  0
LINE
  5
AA
330
9A
100
AcDbEntity
  8
0
100
AcDbLine
 10
19.99999625813416
 20
120.9738113506287
 30
0.0
 11
71.99999625813416
 21
120.9738113506287
 31
0.0
  0
LINE
  5
AB
330
9A
100
AcDbEntity
  8
0
100
AcDbLine
 10
29.99999625813416
 20
103.9738113506285
 30
0.0
 11
71.99999625813416
 21
103.9738113506285
 31
0.0
  0
LINE
  5
AC
330
9A
100
AcDbEntity
  8
0
100
AcDbLine
 10
-0.0000037418658394
 20
-0.0000027278023111
 30
0.0
 11
71.99999625813416
 21
-0.0000027278023254
 31
0.0
  0
LINE
  5
AD
330
9A
100
AcDbEntity
  8
0
100
AcDbLine
 10
-0.0000037418658394
 20
78.99999727219769
 30
0.0
 11
-0.0000037418658394
 21
53.99999727219768
 31
0.0
  0
LINE
  5
AE
330
9A
100
AcDbEntity
  8
0
100
AcDbLine
 10
48.49999625813413
 20
49.99999727219669
 30
0.0
 11
48.49999625813413
 21
91.99999727219669
 31
0.0
  0
LINE
  5
AF
330
9A
100
AcDbEntity
  8
0
100
AcDbLine
 10
18.99999625813416
 20
70.99999727219767
 30
0.0
 11
18.99999625813416
 21
32.99999727219766
 31
0.0
  0
LINE
  5
B0
330
9A
100
AcDbEntity
  8
0
100
AcDbLine
 10
19.99999625813416
 20
32.97381135062966
 30
0.0
 11
19.99999625813416
 21
70.97381135062869
 31
0.0
  0
LINE
  5
B1
330
9A
100
AcDbEntity
  8
0
100
AcDbLine
 10
29.99999625813416
 20
103.9738113506285
 30
0.0
 11
29.99999625813416
 21
21.97381135062868
 31
0.0
  0
ARC
  5
B2
330
9A
100
AcDbEntity
  8
0
100
AcDbCircle
 10
0.9999962581341604
 20
56.05153804514964
 30
0.0
 40
1.0
100
AcDbArc
 50
93.03047684586102
 51
180.0
  0
LINE
  5
B3
330
9A
100
AcDbEntity
  8
0
100
AcDbLine
 10
17.99999625813416
 20
4.999997272197671
 30
0.0
 11
-0.0000037418658394
 21
4.52865068395171
 31
0.0
  0
LINE
  5
B4
330
9A
100
AcDbEntity
  8
0
100
AcDbLine
 10
-0.0000037418658394
 20
21.17551498883972
 30
0.0
 11
-0.0000037418658394
 21
-0.0000027278023111
 31
0.0
  0
LINE
  5
B5
330
9A
100
AcDbEntity
  8
0
100
AcDbLine
 10
0.1464428675408271
 20
53.64644388160439
 30
0.0
 11
3.99999625813416
 21
51.99999727219767
 31
0.0
  0
LINE
  5
B6
330
9A
100
AcDbEntity
  8
0
100
AcDbLine
 10
0.4738282800130948
 20
21.67482975621773
 30
0.0
 11
11.57850019249917
 21
22.2568009508177
 31
0.0
  0
LINE
  5
B7
330
9A
100
AcDbEntity
  8
0
100
AcDbLine
 10
0.9471291169941196
 20
29.05013960001873
 30
0.0
 11
11.57929696984524
 21
29.61301907458164
 31
0.0
  0
LINE
  5
B8
330
9A
100
AcDbEntity
  8
0
100
AcDbLine
 10
0.9471291169941196
 20
26.94985494437573
 30
0.0
 11
11.57929696984524
 21
26.38697546981267
 31
0.0
  0
LINE
  5
B9
330
9A
100
AcDbEntity
  8
0
100
AcDbLine
 10
0.9471291169941196
 20
54.94985494437571
 30
0.0
 11
11.57929696984524
 21
54.38697546981268
 31
0.0
  0
LINE
  5
BA
330
9A
100
AcDbEntity
  8
0
100
AcDbLine
 10
0.9471291169941196
 20
50.05013960001871
 30
0.0
 11
11.57929696984524
 21
50.61301907458164
 31
0.0
  0
LINE
  5
BB
330
9A
100
AcDbEntity
  8
0
100
AcDbLine
 10
0.9471291169941196
 20
47.94985494437571
 30
0.0
 11
11.57929696984524
 21
47.38697546981268
 31
0.0
  0
LINE
  5
BC
330
9A
100
AcDbEntity
  8
0
100
AcDbLine
 10
0.9471291169941196
 20
43.05013960001871
 30
0.0
 11
11.57929696984524
 21
43.61301907458164
 31
0.0
  0
LINE
  5
BD
330
9A
100
AcDbEntity
  8
0
100
AcDbLine
 10
0.9471291169941196
 20
40.94985494437572
 30
0.0
 11
11.57929696984524
 21
40.38697546981268
 31
0.0
  0
LINE
  5
BE
330
9A
100
AcDbEntity
  8
0
100
AcDbLine
 10
0.9471291169941196
 20
36.05013960001871
 30
0.0
 11
11.57929696984524
 21
36.61301907458164
 31
0.0
  0
LINE
  5
BF
330
9A
100
AcDbEntity
  8
0
100
AcDbLine
 10
0.9471291169941196
 20
33.94985494437573
 30
0.0
 11
11.57929696984524
 21
33.38697546981268
 31
0.0
  0
POINT
  5
C0
330
9A
100
AcDbEntity
  8
0
100
AcDbPoint
 10
-0.0000037418658394
 20
21.64999727219766
 30
0.0
  0
ARC
  5
C1
330
9A
100
AcDbEntity
  8
0
100
AcDbCircle
 10
0.4999962581341606
 20
21.17551498883972
 30
0.0
 40
0.5
100
AcDbArc
 50
92.9999999999991
 51
180.0
  0
LINE
  5
C2
330
9A
100
AcDbEntity
  8
0
100
AcDbLine
 10
-0.0000037418658394
 20
28.05153804514965
 30
0.0
 11
-0.0000037418658394
 21
27.9484564992447
 31
0.0
  0
ARC
  5
C3
330
9A
100
AcDbEntity
  8
0
100
AcDbCircle
 10
0.9999962581341604
 20
28.05153804514965
 30
0.0
 40
1.0
100
AcDbArc
 50
93.03047684586102
 51
180.0
  0
ARC
  5
C4
330
9A
100
AcDbEntity
  8
0
100
AcDbCircle
 10
0.9999962581341604
 20
27.9484564992447
 30
0.0
 40
1.0
100
AcDbArc
 50
180.0
 51
266.9695231541389
  0
LINE
  5
C5
330
9A
100
AcDbEntity
  8
0
100
AcDbLine
 10
-0.0000037418658394
 20
35.05153804514964
 30
0.0
 11
-0.0000037418658394
 21
34.94845649924467
 31
0.0
  0
ARC
  5
C6
330
9A
100
AcDbEntity
  8
0
100
AcDbCircle
 10
0.9999962581341604
 20
35.05153804514964
 30
0.0
 40
1.0
100
AcDbArc
 50
93.03047684586102
 51
180.0
  0
ARC
  5
C7
330
9A
100
AcDbEntity
  8
0
100
AcDbCircle
 10
0.9999962581341604
 20
34.94845649924469
 30
0.0
 40
1.0
100
AcDbArc
 50
180.0
 51
266.9695231541389
  0
ARC
  5
C8
330
9A
100
AcDbEntity
  8
0
100
AcDbCircle
 10
0.4999962581341606
 20
53.99999727219768
 30
0.0
 40
0.5
100
AcDbArc
 50
180.0
 51
224.9999999999904
  0
LINE
  5
C9
330
9A
100
AcDbEntity
  8
0
100
AcDbLine
 10
-0.0000037418658394
 20
42.05153804514964
 30
0.0
 11
-0.0000037418658394
 21
41.94845649924467
 31
0.0
  0
ARC
  5
CA
330
9A
100
AcDbEntity
  8
0
100
AcDbCircle
 10
0.9999962581341604
 20
42.05153804514964
 30
0.0
 40
1.0
100
AcDbArc
 50
93.03047684586102
 51
180.0
  0
ARC
  5
CB
330
9A
100
AcDbEntity
  8
0
100
AcDbCircle
 10
0.9999962581341604
 20
41.94845649924467
 30
0.0
 40
1.0
100
AcDbArc
 50
180.0
 51
266.9695231541389
  0
LINE
  5
CC
330
9A
100
AcDbEntity
  8
0
100
AcDbLine
 10
-0.0000037418658394
 20
56.05153804514964
 30
0.0
 11
-0.0000037418658394
 21
55.94845649924469
 31
0.0
  0
ARC
  5
CD
330
9A
100
AcDbEntity
  8
0
100
AcDbCircle
 10
0.9999962581341604
 20
55.94845649924469
 30
0.0
 40
1.0
100
AcDbArc
 50
180.0
 51
266.9695231541389
  0
LINE
  5
CE
330
9A
100
AcDbEntity
  8
0
100
AcDbLine
 10
-0.0000037418658394
 20
49.05153804514964
 30
0.0
 11
-0.0000037418658394
 21
48.94845649924469
 31
0.0
  0
ARC
  5
CF
330
9A
100
AcDbEntity
  8
0
100
AcDbCircle
 10
0.9999962581341604
 20
49.05153804514964
 30
0.0
 40
1.0
100
AcDbArc
 50
93.03047684586102
 51
180.0
  0
ARC
  5
D0
330
9A
100
AcDbEntity
  8
0
100
AcDbCircle
 10
0.9999962581341604
 20
48.94845649924469
 30
0.0
 40
1.0
100
AcDbArc
 50
180.0
 51
266.9695231541389
  0
ARC
  5
D1
330
9A
100
AcDbEntity
  8
0
100
AcDbCircle
 10
11.49999625813416
 20
38.11092140688574
 30
0.0
 40
1.5
100
AcDbArc
 50
273.030476845861
 51
0.0
  0
LINE
  5
D2
330
9A
100
AcDbEntity
  8
0
100
AcDbLine
 10
12.99999625813416
 20
31.88907313750871
 30
0.0
 11
12.99999625813416
 21
31.11092140688572
 31
0.0
  0
ARC
  5
D3
330
9A
100
AcDbEntity
  8
0
100
AcDbCircle
 10
11.49999625813416
 20
31.11092140688572
 30
0.0
 40
1.5
100
AcDbArc
 50
273.030476845861
 51
0.0
  0
LINE
  5
D4
330
9A
100
AcDbEntity
  8
0
100
AcDbLine
 10
12.99999625813416
 20
24.88907313750871
 30
0.0
 11
12.99999625813416
 21
23.75474525294964
 31
0.0
  0
ARC
  5
D5
330
9A
100
AcDbEntity
  8
0
100
AcDbCircle
 10
11.49999625813416
 20
24.88907313750873
 30
0.0
 40
1.5
100
AcDbArc
 50
0.0
 51
86.96952315413897
  0
ARC
  5
D6
330
9A
100
AcDbEntity
  8
0
100
AcDbCircle
 10
11.49999625813416
 20
23.75474525294966
 30
0.0
 40
1.5
100
AcDbArc
 50
273.0000000000056
 51
0.0
  0
ARC
  5
D7
330
9A
100
AcDbEntity
  8
0
100
AcDbCircle
 10
11.49999625813416
 20
31.88907313750873
 30
0.0
 40
1.5
100
AcDbArc
 50
0.0
 51
86.96952315413897
  0
LINE
  5
D8
330
9A
100
AcDbEntity
  8
0
  6
CONTINUOUS
100
AcDbLine
 10
5.999996258134157
 20
46.49999727219767
 30
0.0
 11
12.86994943312026
 21
46.49999727219767
 31
0.0
  0
LINE
  5
D9
330
9A
100
AcDbEntity
  8
0
  6
CONTINUOUS
100
AcDbLine
 10
3.999996258134046
 20
54.78823256631528
 30
0.0
 11
3.99999625813416
 21
53.99999727219768
 31
0.0
  0
LINE
  5
DA
330
9A
100
AcDbEntity
  8
0
  6
CONTINUOUS
100
AcDbLine
 10
5.999996258134157
 20
54.68235021337403
 30
0.0
 11
5.999996258134157
 21
50.31764433102035
 31
0.0
  0
LINE
  5
DB
330
9A
100
AcDbEntity
  8
0
100
AcDbLine
 10
1.999996258134158
 20
54.8941149192565
 30
0.0
 11
1.999996258134158
 21
54.85450553640181
 31
0.0
  0
LINE
  5
DC
330
9A
100
AcDbEntity
  8
0
100
AcDbLine
 10
3.99999625813416
 20
47.78823256631528
 30
0.0
 11
3.99999625813416
 21
46.99999727219767
 31
0.0
  0
LINE
  5
DD
330
9A
100
AcDbEntity
  8
0
100
AcDbLine
 10
5.999996258134157
 20
50.31764433102035
 30
0.0
 11
5.999996258134157
 21
53.99999727219768
 31
0.0
  0
LINE
  5
DE
330
9A
100
AcDbEntity
  8
0
  6
CONTINUOUS
100
AcDbLine
 10
5.999996258134157
 20
47.68235021337403
 30
0.0
 11
5.999996258134157
 21
46.49999727219767
 31
0.0
  0
LINE
  5
DF
330
9A
100
AcDbEntity
  8
0
100
AcDbLine
 10
1.999996258134158
 20
52.85450553640176
 30
0.0
 11
1.999996258134158
 21
51.99999727219767
 31
0.0
  0
LINE
  5
E0
330
9A
100
AcDbEntity
  8
0
100
AcDbLine
 10
1.999996258134158
 20
54.85450553640181
 30
0.0
 11
3.99999625813416
 21
53.99999727219768
 31
0.0
  0
LINE
  5
E1
330
9A
100
AcDbEntity
  8
0
100
AcDbLine
 10
1.999996258134158
 20
54.85450553640176
 30
0.0
 11
1.999996258134158
 21
54.8941149192565
 31
0.0
  0
ARC
  5
E2
330
9A
100
AcDbEntity
  8
0
100
AcDbCircle
 10
2.49999625813416
 20
51.99999727219767
 30
0.0
 40
0.5
100
AcDbArc
 50
180.0
 51
270.0
  0
ARC
  5
E3
330
9A
100
AcDbEntity
  8
0
100
AcDbCircle
 10
3.49999625813416
 20
51.99999727219767
 30
0.0
 40
0.5
100
AcDbArc
 50
270.0
 51
0.0
  0
LINE
  5
E4
330
9A
100
AcDbEntity
  8
0
100
AcDbLine
 10
2.49999625813416
 20
51.49999727219768
 30
0.0
 11
3.49999625813416
 21
51.49999727219768
 31
0.0
  0
ARC
  5
E5
330
9A
100
AcDbEntity
  8
0
100
AcDbCircle
 10
4.499996258134159
 20
46.99999727219767
 30
0.0
 40
0.5
100
AcDbArc
 50
180.0
 51
270.0
  0
ARC
  5
E6
330
9A
100
AcDbEntity
  8
0
100
AcDbCircle
 10
5.499996258134386
 20
46.99999727219767
 30
0.0
 40
0.5
100
AcDbArc
 50
270.0
 51
0.0
  0
ARC
  5
E7
330
9A
100
AcDbEntity
  8
0
100
AcDbCircle
 10
5.499996258134157
 20
53.99999727219768
 30
0.0
 40
0.5
100
AcDbArc
 50
0.0
 51
90.0
  0
ARC
  5
E8
330
9A
100
AcDbEntity
  8
0
100
AcDbCircle
 10
4.499996258134159
 20
53.99999727219768
 30
0.0
 40
0.5
100
AcDbArc
 50
90.0
 51
180.0
  0
LINE
  5
E9
330
9A
100
AcDbEntity
  8
0
100
AcDbLine
 10
3.99999625813416
 20
51.9999972721978
 30
0.0
 11
3.99999625813416
 21
50.21176197807914
 31
0.0
  0
LINE
  5
EA
330
9A
100
AcDbEntity
  8
0
100
AcDbLine
 10
5.499996258134157
 20
54.49999727219767
 30
0.0
 11
4.499996258134159
 21
54.49999727219767
 31
0.0
  0
LINE
  5
EB
330
9A
100
AcDbEntity
  8
0
100
AcDbLine
 10
5.999996258134387
 20
46.99999727219767
 30
0.0
 11
5.999996258134387
 21
47.68235021337402
 31
0.0
  0
LINE
  5
EC
330
9A
100
AcDbEntity
  8
0
100
AcDbLine
 10
4.499996258134159
 20
46.49999727219767
 30
0.0
 11
5.499996258134386
 21
46.49999727219767
 31
0.0
  0
LINE
  5
ED
330
9A
100
AcDbEntity
  8
0
100
AcDbLine
 10
12.99999625813416
 20
38.88907313750872
 30
0.0
 11
12.99999625813416
 21
38.11092140688572
 31
0.0
  0
LINE
  5
EE
330
9A
100
AcDbEntity
  8
0
100
AcDbLine
 10
11.99999625813416
 20
43.69670784451272
 30
0.0
 11
11.99999625813416
 21
46.49999727219767
 31
0.0
  0
LINE
  5
EF
330
9A
100
AcDbEntity
  8
0
100
AcDbLine
 10
12.99999625813416
 20
45.88907313750872
 30
0.0
 11
12.99999625813416
 21
45.11092140688572
 31
0.0
  0
ARC
  5
F0
330
9A
100
AcDbEntity
  8
0
100
AcDbCircle
 10
11.49999625813416
 20
45.88907313750872
 30
0.0
 40
1.5
100
AcDbArc
 50
0.0
 51
86.96952315413897
  0
ARC
  5
F1
330
9A
100
AcDbEntity
  8
0
100
AcDbCircle
 10
11.49999625813416
 20
45.11092140688572
 30
0.0
 40
1.5
100
AcDbArc
 50
273.030476845861
 51
0.0
  0
ARC
  5
F2
330
9A
100
AcDbEntity
  8
0
100
AcDbCircle
 10
11.49999625813416
 20
38.88907313750872
 30
0.0
 40
1.5
100
AcDbArc
 50
0.0
 51
86.96952315413897
  0
LINE
  5
F3
330
9A
100
AcDbEntity
  8
0
100
AcDbLine
 10
12.99999625813416
 20
52.88907313750872
 30
0.0
 11
12.99999625813416
 21
52.11092140688572
 31
0.0
  0
ARC
  5
F4
330
9A
100
AcDbEntity
  8
0
100
AcDbCircle
 10
11.49999625813416
 20
52.88907313750872
 30
0.0
 40
1.5
100
AcDbArc
 50
0.0
 51
86.96952315413897
  0
ARC
  5
F5
330
9A
100
AcDbEntity
  8
0
100
AcDbCircle
 10
11.49999625813416
 20
52.11092140688572
 30
0.0
 40
1.5
100
AcDbArc
 50
273.030476845861
 51
0.0
  0
LINE
  5
F6
330
9A
100
AcDbEntity
  8
0
100
AcDbLine
 10
18.99999625813416
 20
20.99999727219767
 30
0.0
 11
18.99999625813416
 21
4.973811350627665
 31
0.0
  0
LINE
  5
F7
330
9A
100
AcDbEntity
  8
0
100
AcDbLine
 10
19.99999625813416
 20
4.921439507490672
 30
0.0
 11
19.99999625813416
 21
20.97381135062869
 31
0.0
  0
LINE
  5
F8
330
9A
100
AcDbEntity
  8
0
100
AcDbLine
 10
45.2912841056111
 20
4.259163827532685
 30
0.0
 11
45.2912841056111
 21
21.97381135062868
 31
0.0
  0
LINE
  5
F9
330
9A
100
AcDbEntity
  8
0
100
AcDbLine
 10
40.70870841065607
 20
4.37916279526564
 30
0.0
 11
40.70870841065607
 21
21.97381135062971
 31
0.0
  0
LINE
  5
FA
330
9A
100
AcDbEntity
  8
0
100
AcDbLine
 10
40.89999625813312
 20
3.799997272196661
 30
0.0
 11
40.89999625813312
 21
-0.0000027278023254
 31
0.0
  0
LINE
  5
FB
330
9A
100
AcDbEntity
  8
0
100
AcDbLine
 10
45.09999625813406
 20
3.799997272196661
 30
0.0
 11
45.09999625813406
 21
-0.0000027278023254
 31
0.0
  0
LINE
  5
FC
330
9A
100
AcDbEntity
  8
0
100
AcDbLine
 10
37.49999625813415
 20
3.799997272196661
 30
0.0
 11
48.49999625813413
 21
3.799997272196661
 31
0.0
  0
LINE
  5
FD
330
9A
100
AcDbEntity
  8
0
100
AcDbLine
 10
37.49999625813415
 20
4.489371801597711
 30
0.0
 11
37.49999625813415
 21
3.799997272196661
 31
0.0
  0
LINE
  5
FE
330
9A
100
AcDbEntity
  8
0
100
AcDbLine
 10
48.49999625813413
 20
4.20132666433767
 30
0.0
 11
48.49999625813413
 21
3.799997272196661
 31
0.0
  0
LINE
  5
FF
330
9A
100
AcDbEntity
  8
0
100
AcDbLine
 10
48.49999625813413
 20
54.9738113506287
 30
0.0
 11
29.99999625813416
 21
54.9738113506287
 31
0.0
  0
LINE
  5
100
330
9A
100
AcDbEntity
  8
0
100
AcDbLine
 10
46.99999625813414
 20
49.9738113506287
 30
0.0
 11
29.99999625813416
 21
49.9738113506287
 31
0.0
  0
LINE
  5
101
330
9A
100
AcDbEntity
  8
0
100
AcDbLine
 10
46.99999625813414
 20
47.97381135062869
 30
0.0
 11
29.99999625813416
 21
47.97381135062869
 31
0.0
  0
LINE
  5
102
330
9A
100
AcDbEntity
  8
0
100
AcDbLine
 10
23.49999625813416
 20
22.99999727219767
 30
0.0
 11
21.99999625813313
 21
22.99999727219767
 31
0.0
  0
LINE
  5
103
330
9A
100
AcDbEntity
  8
0
100
AcDbLine
 10
23.69999625813306
 20
22.47381135062869
 30
0.0
 11
21.99999625813313
 21
22.47381135062869
 31
0.0
  0
LINE
  5
104
330
9A
100
AcDbEntity
  8
0
100
AcDbLine
 10
18.99999625813416
 20
20.99999727219767
 30
0.0
 11
17.6999962581342
 21
20.99999727219767
 31
0.0
  0
LINE
  5
105
330
9A
100
AcDbEntity
  8
0
100
AcDbLine
 10
19.99999625813416
 20
20.97381135062869
 30
0.0
 11
18.99999625813416
 21
20.97381135062869
 31
0.0
  0
LINE
  5
106
330
9A
100
AcDbEntity
  8
0
100
AcDbLine
 10
23.49999625813416
 20
30.99999727219767
 30
0.0
 11
21.99999625813313
 21
30.99999727219767
 31
0.0
  0
LINE
  5
107
330
9A
100
AcDbEntity
  8
0
100
AcDbLine
 10
18.99999625813416
 20
32.99999727219766
 30
0.0
 11
17.6999962581342
 21
32.99999727219766
 31
0.0
  0
LINE
  5
108
330
9A
100
AcDbEntity
  8
0
100
AcDbLine
 10
23.69999625813306
 20
31.47381135062869
 30
0.0
 11
21.99999625813313
 21
31.47381135062869
 31
0.0
  0
LINE
  5
109
330
9A
100
AcDbEntity
  8
0
100
AcDbLine
 10
19.99999625813416
 20
32.97381135062966
 30
0.0
 11
18.99999625813416
 21
32.97381135062966
 31
0.0
  0
LINE
  5
10A
330
9A
100
AcDbEntity
  8
0
100
AcDbLine
 10
22.09999625813407
 20
30.99999727219767
 30
0.0
 11
22.09999625813407
 21
22.99999727219767
 31
0.0
  0
LINE
  5
10B
330
9A
100
AcDbEntity
  8
0
100
AcDbLine
 10
22.6999962581342
 20
30.99999727219767
 30
0.0
 11
22.6999962581342
 21
22.99999727219767
 31
0.0
  0
LINE
  5
10C
330
9A
100
AcDbEntity
  8
0
100
AcDbLine
 10
23.49999625813416
 20
30.99999727219767
 30
0.0
 11
23.49999625813416
 21
22.99999727219767
 31
0.0
  0
LINE
  5
10D
330
9A
100
AcDbEntity
  8
0
100
AcDbLine
 10
17.6999962581342
 20
32.99999727219766
 30
0.0
 11
17.6999962581342
 21
21.09999727219667
 31
0.0
  0
LINE
  5
10E
330
9A
100
AcDbEntity
  8
0
100
AcDbLine
 10
18.49999625813416
 20
32.99999727219766
 30
0.0
 11
18.49999625813416
 21
20.99999727219767
 31
0.0
  0
LINE
  5
10F
330
9A
100
AcDbEntity
  8
0
100
AcDbLine
 10
18.99999625813416
 20
32.99999727219766
 30
0.0
 11
18.99999625813416
 21
20.99999727219663
 31
0.0
  0
LINE
  5
110
330
9A
100
AcDbEntity
  8
0
100
AcDbLine
 10
21.99999625813313
 20
31.47381135062869
 30
0.0
 11
21.99999625813313
 21
22.47381135062869
 31
0.0
  0
LINE
  5
111
330
9A
100
AcDbEntity
  8
0
100
AcDbLine
 10
23.69999625813306
 20
31.47381135062869
 30
0.0
 11
23.69999625813306
 21
22.47381135062869
 31
0.0
  0
LINE
  5
112
330
9A
100
AcDbEntity
  8
0
100
AcDbLine
 10
46.99999625813414
 20
47.97381135062869
 30
0.0
 11
46.99999625813414
 21
49.9738113506287
 31
0.0
  0
LINE
  5
113
330
9A
100
AcDbEntity
  8
0
100
AcDbLine
 10
47.49999625813415
 20
48.97381135062869
 30
0.0
 11
47.49999625813415
 21
54.9738113506287
 31
0.0
  0
LINE
  5
114
330
9A
100
AcDbEntity
  8
0
100
AcDbLine
 10
-0.0000037418658394
 20
120.5286506839515
 30
0.0
 11
17.9999962581371
 21
120.9999972721965
 31
0.0
  0
LINE
  5
115
330
9A
100
AcDbEntity
  8
0
100
AcDbLine
 10
10.79999625813513
 20
96.42823256631473
 30
0.0
 11
10.79999625813513
 21
92.57176197807972
 31
0.0
  0
LINE
  5
116
330
9A
100
AcDbEntity
  8
0
100
AcDbLine
 10
12.99999625813416
 20
94.88907313750871
 30
0.0
 11
12.99999625813416
 21
94.11092140688571
 31
0.0
  0
LINE
  5
117
330
9A
100
AcDbEntity
  8
0
100
AcDbLine
 10
0.1464428675408271
 20
79.35355066279097
 30
0.0
 11
3.99999625813416
 21
80.99999727219769
 31
0.0
  0
LINE
  5
118
330
9A
100
AcDbEntity
  8
0
100
AcDbLine
 10
0.9471291169941196
 20
64.05013960001872
 30
0.0
 11
11.57929696984524
 21
64.61301907458164
 31
0.0
  0
LINE
  5
119
330
9A
100
AcDbEntity
  8
0
100
AcDbLine
 10
0.9471291169941196
 20
61.94985494437571
 30
0.0
 11
11.57929696984524
 21
61.38697546981268
 31
0.0
  0
LINE
  5
11A
330
9A
100
AcDbEntity
  8
0
100
AcDbLine
 10
0.9471291169941196
 20
57.0501396000187
 30
0.0
 11
11.57929696984524
 21
57.61301907458165
 31
0.0
  0
LINE
  5
11B
330
9A
100
AcDbEntity
  8
0
100
AcDbLine
 10
0.9471291169941196
 20
92.0501396000187
 30
0.0
 11
11.57929696984524
 21
92.61301907458165
 31
0.0
  0
LINE
  5
11C
330
9A
100
AcDbEntity
  8
0
100
AcDbLine
 10
0.9471291169941196
 20
89.94985494437569
 30
0.0
 11
11.57929696984524
 21
89.38697546981268
 31
0.0
  0
LINE
  5
11D
330
9A
100
AcDbEntity
  8
0
100
AcDbLine
 10
0.9471291169941196
 20
85.05013960001873
 30
0.0
 11
11.57929696984524
 21
85.61301907458163
 31
0.0
  0
LINE
  5
11E
330
9A
100
AcDbEntity
  8
0
100
AcDbLine
 10
0.9471291169941196
 20
82.94985494437572
 30
0.0
 11
11.57929696984524
 21
82.38697546981269
 31
0.0
  0
LINE
  5
11F
330
9A
100
AcDbEntity
  8
0
100
AcDbLine
 10
0.9471291169941196
 20
78.05013960001872
 30
0.0
 11
11.57929696984524
 21
78.61301907458164
 31
0.0
  0
LINE
  5
120
330
9A
100
AcDbEntity
  8
0
100
AcDbLine
 10
0.9471291169941196
 20
75.94985494437572
 30
0.0
 11
11.57929696984524
 21
75.38697546981268
 31
0.0
  0
LINE
  5
121
330
9A
100
AcDbEntity
  8
0
100
AcDbLine
 10
0.9471291169941196
 20
71.05013960001873
 30
0.0
 11
11.57929696984524
 21
71.61301907458164
 31
0.0
  0
LINE
  5
122
330
9A
100
AcDbEntity
  8
0
100
AcDbLine
 10
0.9471291169941196
 20
68.94985494437571
 30
0.0
 11
11.57929696984524
 21
68.38697546981268
 31
0.0
  0
LINE
  5
123
330
9A
100
AcDbEntity
  8
0
100
AcDbLine
 10
-0.0000037418658394
 20
63.05153804514964
 30
0.0
 11
-0.0000037418658394
 21
62.94845649924468
 31
0.0
  0
ARC
  5
124
330
9A
100
AcDbEntity
  8
0
100
AcDbCircle
 10
0.9999962581341604
 20
63.05153804514964
 30
0.0
 40
1.0
100
AcDbArc
 50
93.03047684586102
 51
180.0
  0
ARC
  5
125
330
9A
100
AcDbEntity
  8
0
100
AcDbCircle
 10
0.9999962581341604
 20
62.94845649924468
 30
0.0
 40
1.0
100
AcDbArc
 50
180.0
 51
266.9695231541389
  0
LINE
  5
126
330
9A
100
AcDbEntity
  8
0
100
AcDbLine
 10
-0.0000037418658394
 20
70.05153804514964
 30
0.0
 11
-0.0000037418658394
 21
69.94845649924468
 31
0.0
  0
ARC
  5
127
330
9A
100
AcDbEntity
  8
0
100
AcDbCircle
 10
0.9999962581341604
 20
70.05153804514964
 30
0.0
 40
1.0
100
AcDbArc
 50
93.03047684586102
 51
180.0
  0
ARC
  5
128
330
9A
100
AcDbEntity
  8
0
100
AcDbCircle
 10
0.9999962581341604
 20
69.94845649924468
 30
0.0
 40
1.0
100
AcDbArc
 50
180.0
 51
266.9695231541389
  0
ARC
  5
129
330
9A
100
AcDbEntity
  8
0
100
AcDbCircle
 10
0.4999962581341606
 20
78.99999727219769
 30
0.0
 40
0.5
100
AcDbArc
 50
134.9999999999726
 51
180.0
  0
LINE
  5
12A
330
9A
100
AcDbEntity
  8
0
100
AcDbLine
 10
-0.0000037418658394
 20
77.05153804514964
 30
0.0
 11
-0.0000037418658394
 21
76.94845649924468
 31
0.0
  0
ARC
  5
12B
330
9A
100
AcDbEntity
  8
0
100
AcDbCircle
 10
0.9999962581341604
 20
77.05153804514964
 30
0.0
 40
1.0
100
AcDbArc
 50
93.03047684586102
 51
180.0
  0
ARC
  5
12C
330
9A
100
AcDbEntity
  8
0
100
AcDbCircle
 10
0.9999962581341604
 20
76.94845649924468
 30
0.0
 40
1.0
100
AcDbArc
 50
180.0
 51
266.9695231541389
  0
LINE
  5
12D
330
9A
100
AcDbEntity
  8
0
100
AcDbLine
 10
-0.0000037418658394
 20
84.05153804514965
 30
0.0
 11
-0.0000037418658394
 21
83.94845649924468
 31
0.0
  0
ARC
  5
12E
330
9A
100
AcDbEntity
  8
0
100
AcDbCircle
 10
0.9999962581341604
 20
84.05153804514965
 30
0.0
 40
1.0
100
AcDbArc
 50
93.03047684586102
 51
180.0
  0
ARC
  5
12F
330
9A
100
AcDbEntity
  8
0
100
AcDbCircle
 10
0.9999962581341604
 20
83.94845649924468
 30
0.0
 40
1.0
100
AcDbArc
 50
180.0
 51
266.9695231541389
  0
LINE
  5
130
330
9A
100
AcDbEntity
  8
0
100
AcDbLine
 10
-0.0000037418658394
 20
91.05153804514962
 30
0.0
 11
-0.0000037418658394
 21
90.94845649924469
 31
0.0
  0
ARC
  5
131
330
9A
100
AcDbEntity
  8
0
100
AcDbCircle
 10
0.9999962581341604
 20
91.05153804514962
 30
0.0
 40
1.0
100
AcDbArc
 50
93.03047684586102
 51
180.0
  0
ARC
  5
132
330
9A
100
AcDbEntity
  8
0
100
AcDbCircle
 10
0.9999962581341604
 20
90.94845649924469
 30
0.0
 40
1.0
100
AcDbArc
 50
180.0
 51
266.9695231541389
  0
LINE
  5
133
330
9A
100
AcDbEntity
  8
0
  6
CONTINUOUS
100
AcDbLine
 10
3.99999625813416
 20
75.78823256631527
 30
0.0
 11
3.99999625813416
 21
71.21176197807912
 31
0.0
  0
LINE
  5
134
330
9A
100
AcDbEntity
  8
0
  6
CONTINUOUS
100
AcDbLine
 10
5.999996258134157
 20
75.68235021337404
 30
0.0
 11
5.999996258134157
 21
71.31764433102034
 31
0.0
  0
LINE
  5
135
330
9A
100
AcDbEntity
  8
0
100
AcDbLine
 10
1.999996258134158
 20
71.10587962513791
 30
0.0
 11
1.999996258134158
 21
75.89411491925651
 31
0.0
  0
LINE
  5
136
330
9A
100
AcDbEntity
  8
0
100
AcDbLine
 10
1.9999962581345
 20
75.89411491925648
 30
0.0
 11
1.999996258134386
 21
71.10587962513794
 31
0.0
  0
ARC
  5
137
330
9A
100
AcDbEntity
  8
0
100
AcDbCircle
 10
11.49999625813416
 20
73.88907313750872
 30
0.0
 40
1.5
100
AcDbArc
 50
0.0
 51
86.96952315413897
  0
LINE
  5
138
330
9A
100
AcDbEntity
  8
0
  6
CONTINUOUS
100
AcDbLine
 10
3.99999625813416
 20
61.78823256631527
 30
0.0
 11
3.99999625813416
 21
57.21176197807913
 31
0.0
  0
LINE
  5
139
330
9A
100
AcDbEntity
  8
0
  6
CONTINUOUS
100
AcDbLine
 10
3.99999625813416
 20
68.78823256631529
 30
0.0
 11
3.99999625813416
 21
64.21176197807914
 31
0.0
  0
LINE
  5
13A
330
9A
100
AcDbEntity
  8
0
  6
CONTINUOUS
100
AcDbLine
 10
5.999996258134157
 20
68.68235021337404
 30
0.0
 11
5.999996258134157
 21
64.31764433102036
 31
0.0
  0
LINE
  5
13B
330
9A
100
AcDbEntity
  8
0
100
AcDbLine
 10
1.999996258134158
 20
61.89411491925651
 30
0.0
 11
1.999996258134158
 21
57.10587962513793
 31
0.0
  0
LINE
  5
13C
330
9A
100
AcDbEntity
  8
0
100
AcDbLine
 10
1.999996258134158
 20
64.10587962513793
 30
0.0
 11
1.999996258134158
 21
68.89411491925651
 31
0.0
  0
LINE
  5
13D
330
9A
100
AcDbEntity
  8
0
  6
CONTINUOUS
100
AcDbLine
 10
5.999996258134157
 20
61.68235021337403
 30
0.0
 11
5.999996258134157
 21
57.31764433102036
 31
0.0
  0
LINE
  5
13E
330
9A
100
AcDbEntity
  8
0
100
AcDbLine
 10
1.999996258134158
 20
57.10587962513793
 30
0.0
 11
1.999996258134158
 21
61.89411491925651
 31
0.0
  0
LINE
  5
13F
330
9A
100
AcDbEntity
  8
0
100
AcDbLine
 10
1.999996258134386
 20
68.89411491925651
 30
0.0
 11
1.999996258134158
 21
64.10587962513793
 31
0.0
  0
LINE
  5
140
330
9A
100
AcDbEntity
  8
0
100
AcDbLine
 10
12.99999625813416
 20
59.88907313750871
 30
0.0
 11
12.99999625813416
 21
59.11092140688572
 31
0.0
  0
ARC
  5
141
330
9A
100
AcDbEntity
  8
0
100
AcDbCircle
 10
11.49999625813416
 20
59.88907313750871
 30
0.0
 40
1.5
100
AcDbArc
 50
0.0
 51
86.96952315413897
  0
ARC
  5
142
330
9A
100
AcDbEntity
  8
0
100
AcDbCircle
 10
11.49999625813416
 20
59.11092140688572
 30
0.0
 40
1.5
100
AcDbArc
 50
273.030476845861
 51
0.0
  0
LINE
  5
143
330
9A
100
AcDbEntity
  8
0
100
AcDbLine
 10
12.99999625813416
 20
66.8890731375087
 30
0.0
 11
12.99999625813416
 21
66.11092140688572
 31
0.0
  0
ARC
  5
144
330
9A
100
AcDbEntity
  8
0
100
AcDbCircle
 10
11.49999625813416
 20
66.8890731375087
 30
0.0
 40
1.5
100
AcDbArc
 50
0.0
 51
86.96952315413897
  0
LINE
  5
145
330
9A
100
AcDbEntity
  8
0
100
AcDbLine
 10
12.99999625813416
 20
73.88907313750872
 30
0.0
 11
12.99999625813416
 21
73.11092140688572
 31
0.0
  0
ARC
  5
146
330
9A
100
AcDbEntity
  8
0
100
AcDbCircle
 10
11.49999625813416
 20
73.11092140688572
 30
0.0
 40
1.5
100
AcDbArc
 50
273.030476845861
 51
0.0
  0
ARC
  5
147
330
9A
100
AcDbEntity
  8
0
100
AcDbCircle
 10
11.49999625813416
 20
66.11092140688572
 30
0.0
 40
1.5
100
AcDbArc
 50
273.030476845861
 51
0.0
  0
LWPOLYLINE
  5
148
330
9A
100
AcDbEntity
  8
0
100
AcDbPolyline
 90
        3
 70
     0
 43
0.0
 10
12.86994943312071
 20
86.49999727219769
 10
5.999996258134157
 20
86.49999727219769
 10
5.999996258134157
 20
85.31764433102036
  0
LINE
  5
149
330
9A
100
AcDbEntity
  8
0
  6
CONTINUOUS
100
AcDbLine
 10
3.99999625813416
 20
78.99999727219769
 30
0.0
 11
3.99999625813416
 21
78.21176197807914
 31
0.0
  0
LINE
  5
14A
330
9A
100
AcDbEntity
  8
0
  6
CONTINUOUS
100
AcDbLine
 10
5.999996258134157
 20
82.68235021337403
 30
0.0
 11
5.999996258134157
 21
78.31764433102034
 31
0.0
  0
LINE
  5
14B
330
9A
100
AcDbEntity
  8
0
100
AcDbLine
 10
1.999996258134158
 20
78.10587962513792
 30
0.0
 11
1.999996258134158
 21
78.14548900799362
 31
0.0
  0
LINE
  5
14C
330
9A
100
AcDbEntity
  8
0
100
AcDbLine
 10
3.99999625813416
 20
82.78823256631527
 30
0.0
 11
3.99999625813416
 21
80.99999727219769
 31
0.0
  0
LINE
  5
14D
330
9A
100
AcDbEntity
  8
0
100
AcDbLine
 10
5.999996258134157
 20
85.31764433102035
 30
0.0
 11
5.999996258134157
 21
85.99999727219769
 31
0.0
  0
LINE
  5
14E
330
9A
100
AcDbEntity
  8
0
100
AcDbLine
 10
1.999996258134615
 20
78.14548900799384
 30
0.0
 11
1.9999962581345
 21
78.10587962513794
 31
0.0
  0
LINE
  5
14F
330
9A
100
AcDbEntity
  8
0
100
AcDbLine
 10
1.999996258134615
 20
78.14548900799384
 30
0.0
 11
3.99999625813416
 21
78.99999727219769
 31
0.0
  0
ARC
  5
150
330
9A
100
AcDbEntity
  8
0
100
AcDbCircle
 10
3.499996258134383
 20
80.99999727219769
 30
0.0
 40
0.5
100
AcDbArc
 50
0.0
 51
90.0
  0
ARC
  5
151
330
9A
100
AcDbEntity
  8
0
100
AcDbCircle
 10
2.499996258134383
 20
80.99999727219769
 30
0.0
 40
0.5
100
AcDbArc
 50
90.0
 51
180.0
  0
LINE
  5
152
330
9A
100
AcDbEntity
  8
0
100
AcDbLine
 10
1.999996258134386
 20
80.99999727219769
 30
0.0
 11
1.999996258134615
 21
80.14548900799384
 31
0.0
  0
LINE
  5
153
330
9A
100
AcDbEntity
  8
0
100
AcDbLine
 10
3.499996258134383
 20
81.49999727219769
 30
0.0
 11
2.499996258134383
 21
81.49999727219769
 31
0.0
  0
ARC
  5
154
330
9A
100
AcDbEntity
  8
0
100
AcDbCircle
 10
4.499996258134159
 20
78.99999727219769
 30
0.0
 40
0.5
100
AcDbArc
 50
180.0
 51
270.0
  0
ARC
  5
155
330
9A
100
AcDbEntity
  8
0
100
AcDbCircle
 10
5.499996258134386
 20
78.99999727219769
 30
0.0
 40
0.5
100
AcDbArc
 50
270.0
 51
0.0
  0
ARC
  5
156
330
9A
100
AcDbEntity
  8
0
100
AcDbCircle
 10
5.499996258134157
 20
85.99999727219769
 30
0.0
 40
0.5
100
AcDbArc
 50
0.0
 51
90.0
  0
ARC
  5
157
330
9A
100
AcDbEntity
  8
0
100
AcDbCircle
 10
4.499996258134159
 20
85.99999727219769
 30
0.0
 40
0.5
100
AcDbArc
 50
90.0
 51
180.0
  0
LINE
  5
158
330
9A
100
AcDbEntity
  8
0
100
AcDbLine
 10
3.99999625813416
 20
85.99999727219769
 30
0.0
 11
3.99999625813416
 21
85.21176197807914
 31
0.0
  0
LINE
  5
159
330
9A
100
AcDbEntity
  8
0
100
AcDbLine
 10
5.499996258134157
 20
86.49999727219769
 30
0.0
 11
4.499996258134159
 21
86.49999727219769
 31
0.0
  0
LINE
  5
15A
330
9A
100
AcDbEntity
  8
0
100
AcDbLine
 10
5.999996258134387
 20
78.99999727219769
 30
0.0
 11
5.999996258134157
 21
82.68235021337401
 31
0.0
  0
LINE
  5
15B
330
9A
100
AcDbEntity
  8
0
100
AcDbLine
 10
4.499996258134159
 20
78.49999727219769
 30
0.0
 11
5.499996258134386
 21
78.49999727219769
 31
0.0
  0
LINE
  5
15C
330
9A
100
AcDbEntity
  8
0
  6
CONTINUOUS
100
AcDbLine
 10
5.999996258134157
 20
86.49999727219769
 30
0.0
 11
5.999996258134157
 21
85.31764433102036
 31
0.0
  0
LINE
  5
15D
330
9A
100
AcDbEntity
  8
0
100
AcDbLine
 10
12.99999625813416
 20
80.88907313750871
 30
0.0
 11
12.99999625813416
 21
80.11092140688573
 31
0.0
  0
ARC
  5
15E
330
9A
100
AcDbEntity
  8
0
100
AcDbCircle
 10
11.49999625813416
 20
80.11092140688573
 30
0.0
 40
1.5
100
AcDbArc
 50
273.030476845861
 51
0.0
  0
LINE
  5
15F
330
9A
100
AcDbEntity
  8
0
100
AcDbLine
 10
11.99999625813416
 20
86.49999727219769
 30
0.0
 11
11.99999625813416
 21
89.3032866998817
 31
0.0
  0
LINE
  5
160
330
9A
100
AcDbEntity
  8
0
100
AcDbLine
 10
10.79999625813513
 20
89.0489597465187
 30
0.0
 11
11.99999625813416
 21
89.01753664063575
 31
0.0
  0
LINE
  5
161
330
9A
100
AcDbEntity
  8
0
100
AcDbLine
 10
12.99999625813416
 20
87.88907313750872
 30
0.0
 11
12.99999625813416
 21
87.11092140688572
 31
0.0
  0
ARC
  5
162
330
9A
100
AcDbEntity
  8
0
100
AcDbCircle
 10
11.49999625813416
 20
87.11092140688572
 30
0.0
 40
1.5
100
AcDbArc
 50
273.030476845861
 51
0.0
  0
ARC
  5
163
330
9A
100
AcDbEntity
  8
0
100
AcDbCircle
 10
11.49999625813416
 20
94.11092140688571
 30
0.0
 40
1.5
100
AcDbArc
 50
273.030476845861
 51
0.0
  0
LINE
  5
164
330
9A
100
AcDbEntity
  8
0
100
AcDbLine
 10
10.79999625813513
 20
89.42823256631468
 30
0.0
 11
10.79999625813513
 21
89.0489597465187
 31
0.0
  0
ARC
  5
165
330
9A
100
AcDbEntity
  8
0
100
AcDbCircle
 10
11.49999625813416
 20
87.88907313750872
 30
0.0
 40
1.5
100
AcDbArc
 50
0.0
 51
86.96952315413897
  0
ARC
  5
166
330
9A
100
AcDbEntity
  8
0
100
AcDbCircle
 10
11.49999625813416
 20
80.88907313750871
 30
0.0
 40
1.5
100
AcDbArc
 50
0.0
 51
86.96952315413897
  0
LINE
  5
167
330
9A
100
AcDbEntity
  8
0
100
AcDbLine
 10
0.9471291169941196
 20
96.94985494437574
 30
0.0
 11
11.57929696984524
 21
96.38697546981269
 31
0.0
  0
LINE
  5
168
330
9A
100
AcDbEntity
  8
0
100
AcDbLine
 10
0.4738282800130948
 20
104.3251647881775
 30
0.0
 11
11.57850019249917
 21
103.7431935935775
 31
0.0
  0
LINE
  5
169
330
9A
100
AcDbEntity
  8
0
100
AcDbLine
 10
0.9471291169941196
 20
99.05013960001872
 30
0.0
 11
11.57929696984524
 21
99.61301907458164
 31
0.0
  0
LINE
  5
16A
330
9A
100
AcDbEntity
  8
0
100
AcDbLine
 10
-0.0000037418658394
 20
104.8244795555546
 30
0.0
 11
-0.0000037418658394
 21
120.5286506839515
 31
0.0
  0
LINE
  5
16B
330
9A
100
AcDbEntity
  8
0
100
AcDbLine
 10
-0.0000037418658394
 20
98.05153804514963
 30
0.0
 11
-0.0000037418658394
 21
97.94845649924468
 31
0.0
  0
POINT
  5
16C
330
9A
100
AcDbEntity
  8
0
100
AcDbPoint
 10
-0.0000037418658394
 20
104.3499972721966
 30
0.0
  0
ARC
  5
16D
330
9A
100
AcDbEntity
  8
0
100
AcDbCircle
 10
0.4999962581341606
 20
104.8244795555546
 30
0.0
 40
0.5
100
AcDbArc
 50
180.0
 51
266.9999999999943
  0
ARC
  5
16E
330
9A
100
AcDbEntity
  8
0
100
AcDbCircle
 10
0.9999962581341604
 20
98.05153804514963
 30
0.0
 40
1.0
100
AcDbArc
 50
93.03047684586102
 51
180.0
  0
ARC
  5
16F
330
9A
100
AcDbEntity
  8
0
100
AcDbCircle
 10
0.9999962581341604
 20
97.94845649924468
 30
0.0
 40
1.0
100
AcDbArc
 50
180.0
 51
266.9695231541389
  0
ARC
  5
170
330
9A
100
AcDbEntity
  8
0
100
AcDbCircle
 10
11.49999625813416
 20
94.88907313750871
 30
0.0
 40
1.5
100
AcDbArc
 50
0.0
 51
86.96952315413897
  0
LINE
  5
171
330
9A
100
AcDbEntity
  8
0
100
AcDbLine
 10
10.79999625813513
 20
103.7839932559404
 30
0.0
 11
10.79999625813513
 21
99.56600128845366
 31
0.0
  0
LINE
  5
172
330
9A
100
AcDbEntity
  8
0
100
AcDbLine
 10
12.99999625813416
 20
102.2452492914456
 30
0.0
 11
12.99999625813416
 21
101.1109214068855
 31
0.0
  0
ARC
  5
173
330
9A
100
AcDbEntity
  8
0
100
AcDbCircle
 10
11.49999625813416
 20
102.2452492914456
 30
0.0
 40
1.5
100
AcDbArc
 50
0.0
 51
87.00000000000093
  0
ARC
  5
174
330
9A
100
AcDbEntity
  8
0
100
AcDbCircle
 10
11.49999625813416
 20
101.1109214068855
 30
0.0
 40
1.5
100
AcDbArc
 50
273.030476845861
 51
0.0
  0
LINE
  5
175
330
9A
100
AcDbEntity
  8
0
100
AcDbLine
 10
48.55277444428816
 20
101.9999972721965
 30
0.0
 11
48.55277444428816
 21
91.99999727219669
 31
0.0
  0
LINE
  5
176
330
9A
100
AcDbEntity
  8
0
100
AcDbLine
 10
18.99999625813416
 20
110.4710163300716
 30
0.0
 11
18.99999625813416
 21
82.99999727219768
 31
0.0
  0
LINE
  5
177
330
9A
100
AcDbEntity
  8
0
100
AcDbLine
 10
19.99999625813416
 20
82.97381135062966
 30
0.0
 11
19.99999625813416
 21
109.6057307773266
 31
0.0
  0
LINE
  5
178
330
9A
100
AcDbEntity
  8
0
100
AcDbLine
 10
47.49999625813415
 20
70.97381135062869
 30
0.0
 11
47.49999625813415
 21
96.97381135062869
 31
0.0
  0
LINE
  5
179
330
9A
100
AcDbEntity
  8
0
100
AcDbLine
 10
48.49999625813413
 20
56.97381135062869
 30
0.0
 11
29.99999625813416
 21
56.97381135062869
 31
0.0
  0
LINE
  5
17A
330
9A
100
AcDbEntity
  8
0
100
AcDbLine
 10
48.49999625813413
 20
61.97381135062869
 30
0.0
 11
29.99999625813416
 21
61.97381135062869
 31
0.0
  0
LINE
  5
17B
330
9A
100
AcDbEntity
  8
0
100
AcDbLine
 10
48.49999625813413
 20
63.97381135062869
 30
0.0
 11
29.99999625813416
 21
63.97381135062869
 31
0.0
  0
LINE
  5
17C
330
9A
100
AcDbEntity
  8
0
100
AcDbLine
 10
48.49999625813413
 20
68.97381135062869
 30
0.0
 11
29.99999625813416
 21
68.97381135062869
 31
0.0
  0
LINE
  5
17D
330
9A
100
AcDbEntity
  8
0
100
AcDbLine
 10
48.49999625813413
 20
70.97381135062869
 30
0.0
 11
29.99999625813416
 21
70.97381135062869
 31
0.0
  0
LINE
  5
17E
330
9A
100
AcDbEntity
  8
0
100
AcDbLine
 10
46.99999625813414
 20
84.9738113506287
 30
0.0
 11
29.99999625813416
 21
84.9738113506287
 31
0.0
  0
LINE
  5
17F
330
9A
100
AcDbEntity
  8
0
100
AcDbLine
 10
46.99999625813414
 20
82.97381135062869
 30
0.0
 11
29.99999625813416
 21
82.97381135062869
 31
0.0
  0
LINE
  5
180
330
9A
100
AcDbEntity
  8
0
100
AcDbLine
 10
46.99999625813414
 20
77.97381135062869
 30
0.0
 11
29.99999625813416
 21
77.97381135062869
 31
0.0
  0
LINE
  5
181
330
9A
100
AcDbEntity
  8
0
100
AcDbLine
 10
46.99999625813414
 20
75.97381135062869
 30
0.0
 11
29.99999625813416
 21
75.97381135062869
 31
0.0
  0
LINE
  5
182
330
9A
100
AcDbEntity
  8
0
100
AcDbLine
 10
46.99999625813414
 20
91.97381135062867
 30
0.0
 11
29.99999625813416
 21
91.97381135062867
 31
0.0
  0
LINE
  5
183
330
9A
100
AcDbEntity
  8
0
100
AcDbLine
 10
46.99999625813414
 20
89.9738113506287
 30
0.0
 11
29.99999625813416
 21
89.9738113506287
 31
0.0
  0
LINE
  5
184
330
9A
100
AcDbEntity
  8
0
100
AcDbLine
 10
22.09999625813407
 20
80.99999727219767
 30
0.0
 11
22.09999625813407
 21
72.99999727219767
 31
0.0
  0
LINE
  5
185
330
9A
100
AcDbEntity
  8
0
100
AcDbLine
 10
22.6999962581342
 20
80.99999727219767
 30
0.0
 11
22.6999962581342
 21
72.99999727219767
 31
0.0
  0
LINE
  5
186
330
9A
100
AcDbEntity
  8
0
100
AcDbLine
 10
23.49999625813416
 20
80.99999727219767
 30
0.0
 11
23.49999625813416
 21
72.99999727219767
 31
0.0
  0
LINE
  5
187
330
9A
100
AcDbEntity
  8
0
100
AcDbLine
 10
21.99999625813313
 20
81.4738113506287
 30
0.0
 11
21.99999625813313
 21
72.4738113506287
 31
0.0
  0
LINE
  5
188
330
9A
100
AcDbEntity
  8
0
100
AcDbLine
 10
23.69999625813306
 20
81.4738113506287
 30
0.0
 11
23.69999625813306
 21
72.4738113506287
 31
0.0
  0
LINE
  5
189
330
9A
100
AcDbEntity
  8
0
100
AcDbLine
 10
17.6999962581342
 20
82.99999727219768
 30
0.0
 11
17.6999962581342
 21
71.09999727219667
 31
0.0
  0
LINE
  5
18A
330
9A
100
AcDbEntity
  8
0
100
AcDbLine
 10
18.49999625813416
 20
82.99999727219768
 30
0.0
 11
18.49999625813416
 21
70.99999727219767
 31
0.0
  0
LINE
  5
18B
330
9A
100
AcDbEntity
  8
0
100
AcDbLine
 10
18.99999625813416
 20
70.99999727219665
 30
0.0
 11
18.99999625813416
 21
82.99999727219768
 31
0.0
  0
LINE
  5
18C
330
9A
100
AcDbEntity
  8
0
100
AcDbLine
 10
18.99999625813416
 20
70.99999727219767
 30
0.0
 11
17.6999962581342
 21
70.99999727219767
 31
0.0
  0
LINE
  5
18D
330
9A
100
AcDbEntity
  8
0
100
AcDbLine
 10
19.99999625813416
 20
70.97381135062869
 30
0.0
 11
18.99999625813416
 21
70.97381135062869
 31
0.0
  0
LINE
  5
18E
330
9A
100
AcDbEntity
  8
0
100
AcDbLine
 10
23.49999625813416
 20
72.99999727219767
 30
0.0
 11
21.99999625813313
 21
72.99999727219767
 31
0.0
  0
LINE
  5
18F
330
9A
100
AcDbEntity
  8
0
100
AcDbLine
 10
23.69999625813306
 20
72.4738113506287
 30
0.0
 11
21.99999625813313
 21
72.4738113506287
 31
0.0
  0
LINE
  5
190
330
9A
100
AcDbEntity
  8
0
100
AcDbLine
 10
23.49999625813416
 20
80.99999727219767
 30
0.0
 11
21.99999625813313
 21
80.99999727219767
 31
0.0
  0
LINE
  5
191
330
9A
100
AcDbEntity
  8
0
100
AcDbLine
 10
18.99999625813416
 20
82.99999727219768
 30
0.0
 11
17.6999962581342
 21
82.99999727219768
 31
0.0
  0
LINE
  5
192
330
9A
100
AcDbEntity
  8
0
100
AcDbLine
 10
23.69999625813306
 20
81.4738113506287
 30
0.0
 11
21.99999625813313
 21
81.4738113506287
 31
0.0
  0
LINE
  5
193
330
9A
100
AcDbEntity
  8
0
100
AcDbLine
 10
19.99999625813416
 20
82.97381135062966
 30
0.0
 11
18.99999625813416
 21
82.97381135062966
 31
0.0
  0
LINE
  5
194
330
9A
100
AcDbEntity
  8
0
100
AcDbLine
 10
47.49999625813415
 20
56.97381135062869
 30
0.0
 11
47.49999625813415
 21
61.97381135062869
 31
0.0
  0
LINE
  5
195
330
9A
100
AcDbEntity
  8
0
100
AcDbLine
 10
47.49999625813415
 20
63.97381135062869
 30
0.0
 11
47.49999625813415
 21
68.97381135062869
 31
0.0
  0
ARC
  5
196
330
9A
100
AcDbEntity
  8
0
100
AcDbCircle
 10
49.29999625813412
 20
81.99999727219667
 30
0.0
 40
1.05
100
AcDbArc
 50
139.6324064558195
 51
220.3675935441804
  0
LINE
  5
197
330
9A
100
AcDbEntity
  8
0
100
AcDbLine
 10
46.99999625813414
 20
75.97381135062869
 30
0.0
 11
46.99999625813414
 21
77.97381135062869
 31
0.0
  0
LINE
  5
198
330
9A
100
AcDbEntity
  8
0
100
AcDbLine
 10
46.99999625813414
 20
82.97381135062869
 30
0.0
 11
46.99999625813414
 21
84.9738113506287
 31
0.0
  0
LINE
  5
199
330
9A
100
AcDbEntity
  8
0
100
AcDbLine
 10
46.99999625813414
 20
89.9738113506287
 30
0.0
 11
46.99999625813414
 21
91.97381135062867
 31
0.0
  0
LINE
  5
19A
330
9A
100
AcDbEntity
  8
0
100
AcDbLine
 10
48.55277444428816
 20
96.97381135062869
 30
0.0
 11
29.99999625813416
 21
96.97381135062869
 31
0.0
  0
LINE
  5
19B
330
9A
100
AcDbEntity
  8
0
100
AcDbLine
 10
48.55277444428816
 20
98.9738113506287
 30
0.0
 11
29.99999625813416
 21
98.9738113506287
 31
0.0
  0
LINE
  5
19C
330
9A
100
AcDbEntity
  8
0
100
AcDbLine
 10
28.09999625813407
 20
121.9738113506287
 30
0.0
 11
36.69999625813328
 21
121.9738113506287
 31
0.0
  0
LINE
  5
19D
330
9A
100
AcDbEntity
  8
0
100
AcDbLine
 10
29.19999625813318
 20
126.2738113506287
 30
0.0
 11
35.09999625813316
 21
126.2738113506287
 31
0.0
  0
LINE
  5
19E
330
9A
100
AcDbEntity
  8
0
100
AcDbLine
 10
29.59999625813316
 20
127.5738113506285
 30
0.0
 11
38.94499625813319
 21
127.5738113506285
 31
0.0
  0
LINE
  5
19F
330
9A
100
AcDbEntity
  8
0
100
AcDbLine
 10
21.99999625813416
 20
110.9999972721974
 30
0.0
 11
21.99999625813416
 21
120.8952535859205
 31
0.0
  0
LINE
  5
1A0
330
9A
100
AcDbEntity
  8
0
100
AcDbLine
 10
22.99999625813416
 20
120.9738113506287
 30
0.0
 11
22.99999625813416
 21
110.1347117194515
 31
0.0
  0
LINE
  5
1A1
330
9A
100
AcDbEntity
  8
0
100
AcDbLine
 10
21.99999625813416
 20
120.4738113506285
 30
0.0
 11
21.99999625813416
 21
110.9738113506296
 31
0.0
  0
LINE
  5
1A2
330
9A
100
AcDbEntity
  8
0
100
AcDbLine
 10
21.99999625813416
 20
110.9999972721974
 30
0.0
 11
18.99999625813416
 21
110.4710163300716
 31
0.0
  0
LINE
  5
1A3
330
9A
100
AcDbEntity
  8
0
100
AcDbLine
 10
22.99999625813416
 20
110.1347117194515
 30
0.0
 11
19.99999625813416
 21
109.6057307773266
 31
0.0
  0
LINE
  5
1A4
330
9A
100
AcDbEntity
  8
0
100
AcDbLine
 10
18.99999625813416
 20
110.4448304085035
 30
0.0
 11
21.99999625813416
 21
110.9738113506296
 31
0.0
  0
LINE
  5
1A5
330
9A
100
AcDbEntity
  8
0
100
AcDbLine
 10
17.99999625813416
 20
120.9999972721975
 30
0.0
 11
21.99999625813416
 21
120.8952535859205
 31
0.0
  0
LINE
  5
1A6
330
9A
100
AcDbEntity
  8
0
100
AcDbLine
 10
21.99999625813416
 20
120.4738113506285
 30
0.0
 11
22.99999625813416
 21
120.4738113506285
 31
0.0
  0
LINE
  5
1A7
330
9A
100
AcDbEntity
  8
0
100
AcDbLine
 10
19.99999625813416
 20
120.9738113506287
 30
0.0
 11
19.99999625813416
 21
120.9476254290595
 31
0.0
  0
LINE
  5
1A8
330
9A
100
AcDbEntity
  8
0
100
AcDbLine
 10
19.99999625813416
 20
120.9738113506287
 30
0.0
 11
19.99999625813416
 21
120.9476254290589
 31
0.0
  0
LINE
  5
1A9
330
9A
100
AcDbEntity
  8
0
100
AcDbLine
 10
28.09999625813407
 20
120.9738113506287
 30
0.0
 11
28.09999625813407
 21
121.9738113506287
 31
0.0
  0
LINE
  5
1AA
330
9A
100
AcDbEntity
  8
0
100
AcDbLine
 10
29.19999625813318
 20
121.9738113506287
 30
0.0
 11
29.19999625813318
 21
126.2738113506287
 31
0.0
  0
LINE
  5
1AB
330
9A
100
AcDbEntity
  8
0
100
AcDbLine
 10
29.59999625813316
 20
126.2738113506285
 30
0.0
 11
29.59999625813316
 21
127.5738113506285
 31
0.0
  0
LINE
  5
1AC
330
9A
100
AcDbEntity
  8
0
100
AcDbLine
 10
39.1999962581342
 20
107.4738113506287
 30
0.0
 11
39.1999962581342
 21
115.4738113506285
 31
0.0
  0
LINE
  5
1AD
330
9A
100
AcDbEntity
  8
0
100
AcDbLine
 10
42.19999625813421
 20
105.4738113506285
 30
0.0
 11
42.19999625813421
 21
117.4738113506285
 31
0.0
  0
LINE
  5
1AE
330
9A
100
AcDbEntity
  8
0
100
AcDbLine
 10
42.19999625813421
 20
105.4738113506285
 30
0.0
 11
33.99999625813416
 21
105.4738113506285
 31
0.0
  0
LINE
  5
1AF
330
9A
100
AcDbEntity
  8
0
100
AcDbLine
 10
37.1999962581342
 20
109.4738113506287
 30
0.0
 11
37.1999962581342
 21
107.4738113506287
 31
0.0
  0
LINE
  5
1B0
330
9A
100
AcDbEntity
  8
0
100
AcDbLine
 10
37.1999962581342
 20
107.4738113506287
 30
0.0
 11
39.1999962581342
 21
107.4738113506287
 31
0.0
  0
LINE
  5
1B1
330
9A
100
AcDbEntity
  8
0
100
AcDbLine
 10
33.99999625813416
 20
109.4738113506287
 30
0.0
 11
33.99999625813416
 21
105.4738113506285
 31
0.0
  0
LINE
  5
1B2
330
9A
100
AcDbEntity
  8
0
100
AcDbLine
 10
33.99999625813416
 20
109.4738113506287
 30
0.0
 11
37.1999962581342
 21
109.4738113506287
 31
0.0
  0
LINE
  5
1B3
330
9A
100
AcDbEntity
  8
0
100
AcDbLine
 10
47.49999625813415
 20
98.9738113506287
 30
0.0
 11
47.49999625813415
 21
103.9738113506285
 31
0.0
  0
LINE
  5
1B4
330
9A
100
AcDbEntity
  8
0
100
AcDbLine
 10
33.99999625813416
 20
117.4738113506285
 30
0.0
 11
42.19999625813421
 21
117.4738113506285
 31
0.0
  0
LINE
  5
1B5
330
9A
100
AcDbEntity
  8
0
100
AcDbLine
 10
36.69999625813328
 20
121.9738113506287
 30
0.0
 11
36.69999625813328
 21
120.9738113506287
 31
0.0
  0
LINE
  5
1B6
330
9A
100
AcDbEntity
  8
0
100
AcDbLine
 10
35.09999625813316
 20
126.2738113506287
 30
0.0
 11
35.09999625813316
 21
121.9738113506287
 31
0.0
  0
LINE
  5
1B7
330
9A
100
AcDbEntity
  8
0
100
AcDbLine
 10
38.94499625813319
 20
127.5738113506285
 30
0.0
 11
38.94499625813319
 21
120.9738113506287
 31
0.0
  0
LINE
  5
1B8
330
9A
100
AcDbEntity
  8
0
100
AcDbLine
 10
37.1999962581342
 20
113.4738113506287
 30
0.0
 11
37.1999962581342
 21
115.4738113506285
 31
0.0
  0
LINE
  5
1B9
330
9A
100
AcDbEntity
  8
0
100
AcDbLine
 10
37.1999962581342
 20
115.4738113506285
 30
0.0
 11
39.1999962581342
 21
115.4738113506285
 31
0.0
  0
LINE
  5
1BA
330
9A
100
AcDbEntity
  8
0
100
AcDbLine
 10
33.99999625813416
 20
113.4738113506287
 30
0.0
 11
33.99999625813416
 21
117.4738113506285
 31
0.0
  0
LINE
  5
1BB
330
9A
100
AcDbEntity
  8
0
100
AcDbLine
 10
33.99999625813416
 20
113.4738113506287
 30
0.0
 11
37.1999962581342
 21
113.4738113506287
 31
0.0
  0
LINE
  5
1BC
330
9A
100
AcDbEntity
  8
0
100
AcDbLine
 10
67.49999625813416
 20
91.99999727219664
 30
0.0
 11
67.49999625813416
 21
49.99999727219666
 31
0.0
  0
LINE
  5
1BD
330
9A
100
AcDbEntity
  8
0
100
AcDbLine
 10
68.99999625813416
 20
54.9738113506287
 30
0.0
 11
68.99999625813416
 21
56.97381135062869
 31
0.0
  0
LINE
  5
1BE
330
9A
100
AcDbEntity
  8
0
100
AcDbLine
 10
69.99999625813416
 20
54.9738113506287
 30
0.0
 11
69.99999625813416
 21
56.97381135062869
 31
0.0
  0
LINE
  5
1BF
330
9A
100
AcDbEntity
  8
0
100
AcDbLine
 10
70.99999625813416
 20
21.97381135062868
 30
0.0
 11
70.99999625813416
 21
103.9738113506285
 31
0.0
  0
LINE
  5
1C0
330
9A
100
AcDbEntity
  8
0
100
AcDbLine
 10
71.99999625813416
 20
3.585957507460647
 30
0.0
 11
71.99999625813416
 21
120.9738113506287
 31
0.0
  0
LINE
  5
1C1
330
9A
100
AcDbEntity
  8
0
100
AcDbLine
 10
71.99999625813416
 20
-0.0000027278023254
 30
0.0
 11
71.99999625813416
 21
3.585957507460647
 31
0.0
  0
LINE
  5
1C2
330
9A
100
AcDbEntity
  8
0
100
AcDbLine
 10
62.99999625813414
 20
49.99999727219666
 30
0.0
 11
67.49999625813416
 21
49.99999727219666
 31
0.0
  0
LINE
  5
1C3
330
9A
100
AcDbEntity
  8
0
100
AcDbLine
 10
62.99999625813414
 20
49.99999727219666
 30
0.0
 11
52.99999625813414
 21
49.99999727219669
 31
0.0
  0
LINE
  5
1C4
330
9A
100
AcDbEntity
  8
0
100
AcDbLine
 10
52.99999625813414
 20
49.9738113506287
 30
0.0
 11
62.99999625813414
 21
49.9738113506287
 31
0.0
  0
LINE
  5
1C5
330
9A
100
AcDbEntity
  8
0
100
AcDbLine
 10
52.99999625813414
 20
51.99999727219664
 30
0.0
 11
52.99999625813414
 21
49.9738113506287
 31
0.0
  0
ARC
  5
1C6
330
9A
100
AcDbEntity
  8
0
100
AcDbCircle
 10
52.99999625813414
 20
50.47381135062869
 30
0.0
 40
0.5
100
AcDbArc
 50
251.374822272642
 51
270.0
  0
LINE
  5
1C7
330
9A
100
AcDbEntity
  8
0
100
AcDbLine
 10
62.99999625813414
 20
49.9738113506287
 30
0.0
 11
62.99999625813414
 21
51.99999727219664
 31
0.0
  0
ARC
  5
1C8
330
9A
100
AcDbEntity
  8
0
100
AcDbCircle
 10
62.99999625813414
 20
50.47381135062869
 30
0.0
 40
0.5
100
AcDbArc
 50
270.0
 51
288.6251777273578
  0
LINE
  5
1C9
330
9A
100
AcDbEntity
  8
0
100
AcDbLine
 10
68.99999625813416
 20
33.97381135062869
 30
0.0
 11
68.99999625813416
 21
35.97381135062867
 31
0.0
  0
LINE
  5
1CA
330
9A
100
AcDbEntity
  8
0
100
AcDbLine
 10
69.99999625813416
 20
33.97381135062869
 30
0.0
 11
69.99999625813416
 21
35.97381135062867
 31
0.0
  0
LINE
  5
1CB
330
9A
100
AcDbEntity
  8
0
100
AcDbLine
 10
68.99999625813416
 20
26.97381135062869
 30
0.0
 11
68.99999625813416
 21
28.97381135062869
 31
0.0
  0
LINE
  5
1CC
330
9A
100
AcDbEntity
  8
0
100
AcDbLine
 10
69.99999625813416
 20
26.97381135062869
 30
0.0
 11
69.99999625813416
 21
28.97381135062869
 31
0.0
  0
LINE
  5
1CD
330
9A
100
AcDbEntity
  8
0
100
AcDbLine
 10
67.49999625813416
 20
49.99999727219666
 30
0.0
 11
67.49999625813416
 21
49.99999727219666
 31
0.0
  0
LINE
  5
1CE
330
9A
100
AcDbEntity
  8
0
100
AcDbLine
 10
68.99999625813416
 20
40.97381135062867
 30
0.0
 11
68.99999625813416
 21
42.97381135062869
 31
0.0
  0
LINE
  5
1CF
330
9A
100
AcDbEntity
  8
0
100
AcDbLine
 10
69.99999625813416
 20
40.97381135062867
 30
0.0
 11
69.99999625813416
 21
42.97381135062869
 31
0.0
  0
LINE
  5
1D0
330
9A
100
AcDbEntity
  8
0
100
AcDbLine
 10
70.99999625813416
 20
49.9738113506287
 30
0.0
 11
68.99999625813416
 21
49.9738113506287
 31
0.0
  0
LINE
  5
1D1
330
9A
100
AcDbEntity
  8
0
100
AcDbLine
 10
70.99999625813416
 20
47.97381135062869
 30
0.0
 11
68.99999625813416
 21
47.97381135062869
 31
0.0
  0
LINE
  5
1D2
330
9A
100
AcDbEntity
  8
0
100
AcDbLine
 10
68.99999625813416
 20
47.97381135062869
 30
0.0
 11
68.99999625813416
 21
49.9738113506287
 31
0.0
  0
LINE
  5
1D3
330
9A
100
AcDbEntity
  8
0
100
AcDbLine
 10
69.99999625813416
 20
47.97381135062869
 30
0.0
 11
69.99999625813416
 21
49.9738113506287
 31
0.0
  0
LINE
  5
1D4
330
9A
100
AcDbEntity
  8
0
100
AcDbLine
 10
68.49999625813416
 20
54.9738113506287
 30
0.0
 11
68.49999625813416
 21
48.97381135062869
 31
0.0
  0
LINE
  5
1D5
330
9A
100
AcDbEntity
  8
0
100
AcDbLine
 10
70.99999625813416
 20
54.9738113506287
 30
0.0
 11
67.49999625813416
 21
54.9738113506287
 31
0.0
  0
LINE
  5
1D6
330
9A
100
AcDbEntity
  8
0
100
AcDbLine
 10
67.44721807197925
 20
101.9999972721965
 30
0.0
 11
67.44721807197925
 21
91.99999727219664
 31
0.0
  0
LINE
  5
1D7
330
9A
100
AcDbEntity
  8
0
100
AcDbLine
 10
68.49999625813416
 20
96.97381135062869
 30
0.0
 11
68.49999625813416
 21
70.97381135062869
 31
0.0
  0
LINE
  5
1D8
330
9A
100
AcDbEntity
  8
0
100
AcDbLine
 10
68.49999625813416
 20
61.97381135062869
 30
0.0
 11
68.49999625813416
 21
56.97381135062869
 31
0.0
  0
LINE
  5
1D9
330
9A
100
AcDbEntity
  8
0
100
AcDbLine
 10
68.99999625813416
 20
68.97381135062869
 30
0.0
 11
68.99999625813416
 21
70.97381135062869
 31
0.0
  0
LINE
  5
1DA
330
9A
100
AcDbEntity
  8
0
100
AcDbLine
 10
69.99999625813416
 20
68.97381135062869
 30
0.0
 11
69.99999625813416
 21
70.97381135062869
 31
0.0
  0
LINE
  5
1DB
330
9A
100
AcDbEntity
  8
0
100
AcDbLine
 10
68.49999625813416
 20
68.97381135062869
 30
0.0
 11
68.49999625813416
 21
63.97381135062869
 31
0.0
  0
LINE
  5
1DC
330
9A
100
AcDbEntity
  8
0
100
AcDbLine
 10
68.99999625813416
 20
61.97381135062869
 30
0.0
 11
68.99999625813416
 21
63.97381135062869
 31
0.0
  0
LINE
  5
1DD
330
9A
100
AcDbEntity
  8
0
100
AcDbLine
 10
69.99999625813416
 20
61.97381135062869
 30
0.0
 11
69.99999625813416
 21
63.97381135062869
 31
0.0
  0
LINE
  5
1DE
330
9A
100
AcDbEntity
  8
0
100
AcDbLine
 10
70.99999625813416
 20
70.97381135062869
 30
0.0
 11
67.49999625813416
 21
70.97381135062869
 31
0.0
  0
LINE
  5
1DF
330
9A
100
AcDbEntity
  8
0
100
AcDbLine
 10
70.99999625813416
 20
68.97381135062869
 30
0.0
 11
67.49999625813416
 21
68.97381135062869
 31
0.0
  0
LINE
  5
1E0
330
9A
100
AcDbEntity
  8
0
100
AcDbLine
 10
70.99999625813416
 20
63.97381135062869
 30
0.0
 11
67.49999625813416
 21
63.97381135062869
 31
0.0
  0
LINE
  5
1E1
330
9A
100
AcDbEntity
  8
0
100
AcDbLine
 10
70.99999625813416
 20
61.97381135062869
 30
0.0
 11
67.49999625813416
 21
61.97381135062869
 31
0.0
  0
LINE
  5
1E2
330
9A
100
AcDbEntity
  8
0
100
AcDbLine
 10
70.99999625813416
 20
56.97381135062869
 30
0.0
 11
67.49999625813416
 21
56.97381135062869
 31
0.0
  0
LINE
  5
1E3
330
9A
100
AcDbEntity
  8
0
100
AcDbLine
 10
70.99999625813416
 20
77.97381135062869
 30
0.0
 11
68.99999625813416
 21
77.97381135062869
 31
0.0
  0
LINE
  5
1E4
330
9A
100
AcDbEntity
  8
0
100
AcDbLine
 10
70.99999625813416
 20
75.97381135062869
 30
0.0
 11
68.99999625813416
 21
75.97381135062869
 31
0.0
  0
LINE
  5
1E5
330
9A
100
AcDbEntity
  8
0
100
AcDbLine
 10
68.99999625813416
 20
75.97381135062869
 30
0.0
 11
68.99999625813416
 21
77.97381135062869
 31
0.0
  0
LINE
  5
1E6
330
9A
100
AcDbEntity
  8
0
100
AcDbLine
 10
69.99999625813416
 20
75.97381135062869
 30
0.0
 11
69.99999625813416
 21
77.97381135062869
 31
0.0
  0
LINE
  5
1E7
330
9A
100
AcDbEntity
  8
0
100
AcDbLine
 10
70.99999625813416
 20
84.9738113506287
 30
0.0
 11
68.99999625813416
 21
84.9738113506287
 31
0.0
  0
LINE
  5
1E8
330
9A
100
AcDbEntity
  8
0
100
AcDbLine
 10
70.99999625813416
 20
82.97381135062869
 30
0.0
 11
68.99999625813416
 21
82.97381135062869
 31
0.0
  0
LINE
  5
1E9
330
9A
100
AcDbEntity
  8
0
100
AcDbLine
 10
68.99999625813416
 20
82.97381135062869
 30
0.0
 11
68.99999625813416
 21
84.9738113506287
 31
0.0
  0
LINE
  5
1EA
330
9A
100
AcDbEntity
  8
0
100
AcDbLine
 10
69.99999625813416
 20
82.97381135062869
 30
0.0
 11
69.99999625813416
 21
84.9738113506287
 31
0.0
  0
LINE
  5
1EB
330
9A
100
AcDbEntity
  8
0
100
AcDbLine
 10
70.99999625813416
 20
91.97381135062867
 30
0.0
 11
68.99999625813416
 21
91.97381135062867
 31
0.0
  0
LINE
  5
1EC
330
9A
100
AcDbEntity
  8
0
100
AcDbLine
 10
70.99999625813416
 20
89.9738113506287
 30
0.0
 11
68.99999625813416
 21
89.9738113506287
 31
0.0
  0
LINE
  5
1ED
330
9A
100
AcDbEntity
  8
0
100
AcDbLine
 10
68.99999625813416
 20
89.9738113506287
 30
0.0
 11
68.99999625813416
 21
91.97381135062867
 31
0.0
  0
LINE
  5
1EE
330
9A
100
AcDbEntity
  8
0
100
AcDbLine
 10
69.99999625813416
 20
89.9738113506287
 30
0.0
 11
69.99999625813416
 21
91.97381135062867
 31
0.0
  0
ARC
  5
1EF
330
9A
100
AcDbEntity
  8
0
100
AcDbCircle
 10
66.99999625813416
 20
91.97381135062867
 30
0.0
 40
0.5
100
AcDbArc
 50
0.0
 51
26.56294527600511
  0
LINE
  5
1F0
330
9A
100
AcDbEntity
  8
0
100
AcDbLine
 10
67.49999625813416
 20
86.97381135062867
 30
0.0
 11
67.49999625813416
 21
91.97381135062867
 31
0.0
  0
LINE
  5
1F1
330
9A
100
AcDbEntity
  8
0
100
AcDbLine
 10
65.49999625813416
 20
101.9999972721965
 30
0.0
 11
63.99999625813414
 21
101.9999972721965
 31
0.0
  0
LINE
  5
1F2
330
9A
100
AcDbEntity
  8
0
100
AcDbLine
 10
55.14999625813425
 20
124.3738113506287
 30
0.0
 11
61.4499962581342
 21
124.3738113506287
 31
0.0
  0
LINE
  5
1F3
330
9A
100
AcDbEntity
  8
0
100
AcDbLine
 10
55.14999625813425
 20
120.9738113506287
 30
0.0
 11
55.14999625813425
 21
124.3738113506287
 31
0.0
  0
LINE
  5
1F4
330
9A
100
AcDbEntity
  8
0
100
AcDbLine
 10
61.4499962581342
 20
124.3738113506287
 30
0.0
 11
61.4499962581342
 21
120.9738113506287
 31
0.0
  0
LINE
  5
1F5
330
9A
100
AcDbEntity
  8
0
100
AcDbLine
 10
68.49999625813416
 20
103.9738113506285
 30
0.0
 11
68.49999625813416
 21
98.9738113506287
 31
0.0
  0
LINE
  5
1F6
330
9A
100
AcDbEntity
  8
0
100
AcDbLine
 10
68.99999625813416
 20
96.97381135062869
 30
0.0
 11
68.99999625813416
 21
98.9738113506287
 31
0.0
  0
LINE
  5
1F7
330
9A
100
AcDbEntity
  8
0
100
AcDbLine
 10
69.99999625813416
 20
96.97381135062869
 30
0.0
 11
69.99999625813416
 21
98.9738113506287
 31
0.0
  0
LINE
  5
1F8
330
9A
100
AcDbEntity
  8
0
100
AcDbLine
 10
70.99999625813416
 20
98.9738113506287
 30
0.0
 11
67.44721807197925
 21
98.9738113506287
 31
0.0
  0
LINE
  5
1F9
330
9A
100
AcDbEntity
  8
0
100
AcDbLine
 10
70.99999625813416
 20
96.97381135062869
 30
0.0
 11
67.44721807197925
 21
96.97381135062869
 31
0.0
  0
LINE
  5
1FA
330
9A
100
AcDbEntity
  8
0
100
AcDbLine
 10
19.99999625813416
 20
120.9738113506287
 30
0.0
 11
71.99999625813416
 21
120.9738113506287
 31
0.0
  0
LINE
  5
1FB
330
9A
100
AcDbEntity
  8
0
100
AcDbLine
 10
55.14999625813425
 20
120.9738113506287
 30
0.0
 11
55.14999625813425
 21
124.3738113506287
 31
0.0
  0
LINE
  5
1FC
330
9A
100
AcDbEntity
  8
0
100
AcDbLine
 10
55.14999625813425
 20
124.3738113506287
 30
0.0
 11
61.4499962581342
 21
124.3738113506287
 31
0.0
  0
LINE
  5
1FD
330
9A
100
AcDbEntity
  8
0
100
AcDbLine
 10
61.4499962581342
 20
124.3738113506287
 30
0.0
 11
61.4499962581342
 21
120.9738113506287
 31
0.0
  0
ENDBLK
  5
1FF
330
9A
100
AcDbEntity
  8
0
100
AcDbBlockEnd
  0
BLOCK
  5
2D0
330
200
100
AcDbEntity
  8
0
100
AcDbBlockBegin
  2
A$C413B70EE
 70
     0
 10
0.0
 20
0.0
 30
0.0
  3
A$C413B70EE
  1

  0
LINE
  5
201
330
200
100
AcDbEntity
  8
0
100
AcDbLine
 10
127.5999998339284
 20
200.3690727306389
 30
0.0
 11
127.5999998339284
 21
6.63093194633106
 31
0.0
  0
LINE
  5
202
330
200
100
AcDbEntity
  8
0
100
AcDbLine
 10
122.5999998339284
 20
6.500002338485045
 30
0.0
 11
122.5999998339284
 21
16.50000233848504
 31
0.0
  0
LINE
  5
203
330
200
100
AcDbEntity
  8
0
100
AcDbLine
 10
6.599999833929357
 20
16.50000233848504
 30
0.0
 11
6.599999833929357
 21
190.5000023384846
 31
0.0
  0
LINE
  5
204
330
200
100
AcDbEntity
  8
0
100
AcDbLine
 10
6.599999833929357
 20
190.5000023384846
 30
0.0
 11
122.5999998339284
 21
190.5000023384846
 31
0.0
  0
LINE
  5
205
330
200
100
AcDbEntity
  8
0
100
AcDbLine
 10
6.599999833929357
 20
16.50000233848504
 30
0.0
 11
122.5999998339284
 21
16.50000233848504
 31
0.0
  0
LINE
  5
206
330
200
100
AcDbEntity
  8
0
100
AcDbLine
 10
122.5999998339284
 20
200.5000023384849
 30
0.0
 11
127.5999998339284
 21
200.3690727306389
 31
0.0
  0
LINE
  5
207
330
200
100
AcDbEntity
  8
0
100
AcDbLine
 10
124.014039598665
 20
200.4629744041099
 30
0.0
 11
124.0140395986643
 21
6.537030272860023
 31
0.0
  0
LINE
  5
208
330
200
100
AcDbEntity
  8
0
100
AcDbLine
 10
122.5999998339284
 20
6.500002338485045
 30
0.0
 11
127.5999998339284
 21
6.63093194633106
 31
0.0
  0
LINE
  5
209
330
200
100
AcDbEntity
  8
0
100
AcDbLine
 10
6.599999833929357
 20
16.50000233848504
 30
0.0
 11
6.599999833929357
 21
190.5000023384846
 31
0.0
  0
LINE
  5
20A
330
200
100
AcDbEntity
  8
0
100
AcDbLine
 10
6.599999833929357
 20
190.5000023384846
 30
0.0
 11
123.9878536770973
 21
190.5000023384846
 31
0.0
  0
LINE
  5
20B
330
200
100
AcDbEntity
  8
0
100
AcDbLine
 10
23.59999983392935
 20
16.50000233848504
 30
0.0
 11
23.59999983392935
 21
190.5000023384846
 31
0.0
  0
LINE
  5
20C
330
200
100
AcDbEntity
  8
0
100
AcDbLine
 10
105.5999998339291
 20
16.50000233848504
 30
0.0
 11
105.5999998339291
 21
190.5000023384846
 31
0.0
  0
LINE
  5
20D
330
200
100
AcDbEntity
  8
0
100
AcDbLine
 10
23.59999983392935
 20
189.5000023384849
 30
0.0
 11
105.5999998339291
 21
189.5000023384849
 31
0.0
  0
LINE
  5
20E
330
200
100
AcDbEntity
  8
0
100
AcDbLine
 10
28.59999983392935
 20
187.5000023384849
 30
0.0
 11
30.59999983392935
 21
187.5000023384849
 31
0.0
  0
LINE
  5
20F
330
200
100
AcDbEntity
  8
0
100
AcDbLine
 10
28.59999983392935
 20
17.50000233848504
 30
0.0
 11
28.59999983392935
 21
70.75000233848505
 31
0.0
  0
LINE
  5
210
330
200
100
AcDbEntity
  8
0
100
AcDbLine
 10
30.59999983392935
 20
17.50000233848504
 30
0.0
 11
30.59999983392935
 21
70.75000233848505
 31
0.0
  0
LINE
  5
211
330
200
100
AcDbEntity
  8
0
100
AcDbLine
 10
28.59999983392935
 20
136.2500023384845
 30
0.0
 11
30.59999983392935
 21
136.2500023384845
 31
0.0
  0
LINE
  5
212
330
200
100
AcDbEntity
  8
0
100
AcDbLine
 10
28.59999983392935
 20
70.75000233848505
 30
0.0
 11
30.59999983392935
 21
70.75000233848505
 31
0.0
  0
LINE
  5
213
330
200
100
AcDbEntity
  8
0
100
AcDbLine
 10
23.59999983392935
 20
17.50000233848504
 30
0.0
 11
105.5999998339291
 21
17.50000233848504
 31
0.0
  0
LINE
  5
214
330
200
100
AcDbEntity
  8
0
100
AcDbLine
 10
28.59999983392935
 20
19.50000233848504
 30
0.0
 11
30.59999983392935
 21
19.50000233848504
 31
0.0
  0
LINE
  5
215
330
200
100
AcDbEntity
  8
0
100
AcDbLine
 10
28.59999983392935
 20
136.2500023384845
 30
0.0
 11
28.59999983392935
 21
189.5000023384849
 31
0.0
  0
LINE
  5
216
330
200
100
AcDbEntity
  8
0
100
AcDbLine
 10
30.59999983392935
 20
136.2500023384845
 30
0.0
 11
30.59999983392935
 21
189.5000023384849
 31
0.0
  0
LINE
  5
217
330
200
100
AcDbEntity
  8
0
100
AcDbLine
 10
35.59999983392936
 20
187.5000023384849
 30
0.0
 11
37.59999983392936
 21
187.5000023384849
 31
0.0
  0
LINE
  5
218
330
200
100
AcDbEntity
  8
0
100
AcDbLine
 10
35.59999983392936
 20
17.50000233848504
 30
0.0
 11
35.59999983392936
 21
70.75000233848505
 31
0.0
  0
LINE
  5
219
330
200
100
AcDbEntity
  8
0
100
AcDbLine
 10
37.59999983392936
 20
17.50000233848504
 30
0.0
 11
37.59999983392936
 21
70.75000233848505
 31
0.0
  0
LINE
  5
21A
330
200
100
AcDbEntity
  8
0
100
AcDbLine
 10
35.59999983392936
 20
136.2500023384845
 30
0.0
 11
37.59999983392936
 21
136.2500023384845
 31
0.0
  0
LINE
  5
21B
330
200
100
AcDbEntity
  8
0
100
AcDbLine
 10
35.59999983392936
 20
70.75000233848505
 30
0.0
 11
37.59999983392936
 21
70.75000233848505
 31
0.0
  0
LINE
  5
21C
330
200
100
AcDbEntity
  8
0
100
AcDbLine
 10
35.59999983392936
 20
19.50000233848504
 30
0.0
 11
37.59999983392936
 21
19.50000233848504
 31
0.0
  0
LINE
  5
21D
330
200
100
AcDbEntity
  8
0
100
AcDbLine
 10
35.59999983392936
 20
136.2500023384845
 30
0.0
 11
35.59999983392936
 21
189.5000023384849
 31
0.0
  0
LINE
  5
21E
330
200
100
AcDbEntity
  8
0
100
AcDbLine
 10
37.59999983392936
 20
136.2500023384845
 30
0.0
 11
37.59999983392936
 21
189.5000023384849
 31
0.0
  0
LINE
  5
21F
330
200
100
AcDbEntity
  8
0
100
AcDbLine
 10
42.59999983392936
 20
187.5000023384849
 30
0.0
 11
44.59999983392934
 21
187.5000023384849
 31
0.0
  0
LINE
  5
220
330
200
100
AcDbEntity
  8
0
100
AcDbLine
 10
42.59999983392936
 20
17.50000233848504
 30
0.0
 11
42.59999983392936
 21
70.75000233848505
 31
0.0
  0
LINE
  5
221
330
200
100
AcDbEntity
  8
0
100
AcDbLine
 10
44.59999983392934
 20
17.50000233848504
 30
0.0
 11
44.59999983392934
 21
70.75000233848505
 31
0.0
  0
LINE
  5
222
330
200
100
AcDbEntity
  8
0
100
AcDbLine
 10
42.59999983392936
 20
136.2500023384845
 30
0.0
 11
44.59999983392934
 21
136.2500023384845
 31
0.0
  0
LINE
  5
223
330
200
100
AcDbEntity
  8
0
100
AcDbLine
 10
42.59999983392936
 20
70.75000233848505
 30
0.0
 11
44.59999983392934
 21
70.75000233848505
 31
0.0
  0
LINE
  5
224
330
200
100
AcDbEntity
  8
0
100
AcDbLine
 10
42.59999983392936
 20
19.50000233848504
 30
0.0
 11
44.59999983392934
 21
19.50000233848504
 31
0.0
  0
LINE
  5
225
330
200
100
AcDbEntity
  8
0
100
AcDbLine
 10
42.59999983392936
 20
136.2500023384845
 30
0.0
 11
42.59999983392936
 21
189.5000023384849
 31
0.0
  0
LINE
  5
226
330
200
100
AcDbEntity
  8
0
100
AcDbLine
 10
44.59999983392934
 20
136.2500023384845
 30
0.0
 11
44.59999983392934
 21
189.5000023384849
 31
0.0
  0
LINE
  5
227
330
200
100
AcDbEntity
  8
0
100
AcDbLine
 10
49.59999983392936
 20
17.50000233848504
 30
0.0
 11
49.59999983392936
 21
70.75000233848505
 31
0.0
  0
LINE
  5
228
330
200
100
AcDbEntity
  8
0
100
AcDbLine
 10
51.59999983392935
 20
17.50000233848504
 30
0.0
 11
51.59999983392935
 21
70.75000233848505
 31
0.0
  0
LINE
  5
229
330
200
100
AcDbEntity
  8
0
100
AcDbLine
 10
49.59999983392936
 20
136.2500023384845
 30
0.0
 11
51.59999983392935
 21
136.2500023384845
 31
0.0
  0
LINE
  5
22A
330
200
100
AcDbEntity
  8
0
100
AcDbLine
 10
49.59999983392936
 20
70.75000233848505
 30
0.0
 11
51.59999983392935
 21
70.75000233848505
 31
0.0
  0
LINE
  5
22B
330
200
100
AcDbEntity
  8
0
100
AcDbLine
 10
49.59999983392936
 20
19.50000233848504
 30
0.0
 11
51.59999983392935
 21
19.50000233848504
 31
0.0
  0
LINE
  5
22C
330
200
100
AcDbEntity
  8
0
100
AcDbLine
 10
49.59999983392936
 20
136.2500023384845
 30
0.0
 11
49.59999983392936
 21
189.5000023384849
 31
0.0
  0
LINE
  5
22D
330
200
100
AcDbEntity
  8
0
100
AcDbLine
 10
51.59999983392935
 20
136.2500023384845
 30
0.0
 11
51.59999983392935
 21
189.5000023384849
 31
0.0
  0
LINE
  5
22E
330
200
100
AcDbEntity
  8
0
100
AcDbLine
 10
56.59999983392935
 20
187.5000023384849
 30
0.0
 11
58.59999983392936
 21
187.5000023384849
 31
0.0
  0
LINE
  5
22F
330
200
100
AcDbEntity
  8
0
100
AcDbLine
 10
56.59999983392935
 20
17.50000233848504
 30
0.0
 11
56.59999983392935
 21
70.75000233848505
 31
0.0
  0
LINE
  5
230
330
200
100
AcDbEntity
  8
0
100
AcDbLine
 10
58.59999983392936
 20
17.50000233848504
 30
0.0
 11
58.59999983392936
 21
70.75000233848505
 31
0.0
  0
LINE
  5
231
330
200
100
AcDbEntity
  8
0
100
AcDbLine
 10
56.59999983392935
 20
136.2500023384845
 30
0.0
 11
58.59999983392936
 21
136.2500023384845
 31
0.0
  0
LINE
  5
232
330
200
100
AcDbEntity
  8
0
100
AcDbLine
 10
56.59999983392935
 20
70.75000233848505
 30
0.0
 11
58.59999983392936
 21
70.75000233848505
 31
0.0
  0
LINE
  5
233
330
200
100
AcDbEntity
  8
0
100
AcDbLine
 10
56.59999983392935
 20
19.50000233848504
 30
0.0
 11
58.59999983392936
 21
19.50000233848504
 31
0.0
  0
LINE
  5
234
330
200
100
AcDbEntity
  8
0
100
AcDbLine
 10
56.59999983392935
 20
136.2500023384845
 30
0.0
 11
56.59999983392935
 21
189.5000023384849
 31
0.0
  0
LINE
  5
235
330
200
100
AcDbEntity
  8
0
100
AcDbLine
 10
58.59999983392936
 20
136.2500023384845
 30
0.0
 11
58.59999983392936
 21
189.5000023384849
 31
0.0
  0
LINE
  5
236
330
200
100
AcDbEntity
  8
0
100
AcDbLine
 10
63.59999983392936
 20
187.5000023384849
 30
0.0
 11
65.59999983392936
 21
187.5000023384849
 31
0.0
  0
LINE
  5
237
330
200
100
AcDbEntity
  8
0
100
AcDbLine
 10
63.59999983392936
 20
17.50000233848504
 30
0.0
 11
63.59999983392936
 21
70.75000233848505
 31
0.0
  0
LINE
  5
238
330
200
100
AcDbEntity
  8
0
100
AcDbLine
 10
65.59999983392936
 20
17.50000233848504
 30
0.0
 11
65.59999983392936
 21
70.75000233848505
 31
0.0
  0
LINE
  5
239
330
200
100
AcDbEntity
  8
0
100
AcDbLine
 10
63.59999983392936
 20
136.2500023384845
 30
0.0
 11
65.59999983392936
 21
136.2500023384845
 31
0.0
  0
LINE
  5
23A
330
200
100
AcDbEntity
  8
0
100
AcDbLine
 10
63.59999983392936
 20
70.75000233848505
 30
0.0
 11
65.59999983392936
 21
70.75000233848505
 31
0.0
  0
LINE
  5
23B
330
200
100
AcDbEntity
  8
0
100
AcDbLine
 10
63.59999983392936
 20
19.50000233848504
 30
0.0
 11
65.59999983392936
 21
19.50000233848504
 31
0.0
  0
LINE
  5
23C
330
200
100
AcDbEntity
  8
0
100
AcDbLine
 10
63.59999983392936
 20
136.2500023384845
 30
0.0
 11
63.59999983392936
 21
189.5000023384849
 31
0.0
  0
LINE
  5
23D
330
200
100
AcDbEntity
  8
0
100
AcDbLine
 10
65.59999983392936
 20
136.2500023384845
 30
0.0
 11
65.59999983392936
 21
189.5000023384849
 31
0.0
  0
LINE
  5
23E
330
200
100
AcDbEntity
  8
0
100
AcDbLine
 10
70.59999983392936
 20
187.5000023384849
 30
0.0
 11
72.59999983392936
 21
187.5000023384849
 31
0.0
  0
LINE
  5
23F
330
200
100
AcDbEntity
  8
0
100
AcDbLine
 10
70.59999983392936
 20
17.50000233848504
 30
0.0
 11
70.59999983392936
 21
70.75000233848505
 31
0.0
  0
LINE
  5
240
330
200
100
AcDbEntity
  8
0
100
AcDbLine
 10
72.59999983392936
 20
17.50000233848504
 30
0.0
 11
72.59999983392936
 21
70.75000233848505
 31
0.0
  0
LINE
  5
241
330
200
100
AcDbEntity
  8
0
100
AcDbLine
 10
70.59999983392936
 20
136.2500023384845
 30
0.0
 11
72.59999983392936
 21
136.2500023384845
 31
0.0
  0
LINE
  5
242
330
200
100
AcDbEntity
  8
0
100
AcDbLine
 10
70.59999983392936
 20
70.75000233848505
 30
0.0
 11
72.59999983392936
 21
70.75000233848505
 31
0.0
  0
LINE
  5
243
330
200
100
AcDbEntity
  8
0
100
AcDbLine
 10
70.59999983392936
 20
19.50000233848504
 30
0.0
 11
72.59999983392936
 21
19.50000233848504
 31
0.0
  0
LINE
  5
244
330
200
100
AcDbEntity
  8
0
100
AcDbLine
 10
70.59999983392936
 20
136.2500023384845
 30
0.0
 11
70.59999983392936
 21
189.5000023384849
 31
0.0
  0
LINE
  5
245
330
200
100
AcDbEntity
  8
0
100
AcDbLine
 10
72.59999983392936
 20
136.2500023384845
 30
0.0
 11
72.59999983392936
 21
189.5000023384849
 31
0.0
  0
LINE
  5
246
330
200
100
AcDbEntity
  8
0
100
AcDbLine
 10
77.59999983392936
 20
187.5000023384849
 30
0.0
 11
79.59999983392936
 21
187.5000023384849
 31
0.0
  0
LINE
  5
247
330
200
100
AcDbEntity
  8
0
100
AcDbLine
 10
77.59999983392936
 20
17.50000233848504
 30
0.0
 11
77.59999983392936
 21
70.75000233848505
 31
0.0
  0
LINE
  5
248
330
200
100
AcDbEntity
  8
0
100
AcDbLine
 10
79.59999983392936
 20
17.50000233848504
 30
0.0
 11
79.59999983392936
 21
70.75000233848505
 31
0.0
  0
LINE
  5
249
330
200
100
AcDbEntity
  8
0
100
AcDbLine
 10
77.59999983392936
 20
136.2500023384845
 30
0.0
 11
79.59999983392936
 21
136.2500023384845
 31
0.0
  0
LINE
  5
24A
330
200
100
AcDbEntity
  8
0
100
AcDbLine
 10
77.59999983392936
 20
70.75000233848505
 30
0.0
 11
79.59999983392936
 21
70.75000233848505
 31
0.0
  0
LINE
  5
24B
330
200
100
AcDbEntity
  8
0
100
AcDbLine
 10
77.59999983392936
 20
19.50000233848504
 30
0.0
 11
79.59999983392936
 21
19.50000233848504
 31
0.0
  0
LINE
  5
24C
330
200
100
AcDbEntity
  8
0
100
AcDbLine
 10
77.59999983392936
 20
136.2500023384845
 30
0.0
 11
77.59999983392936
 21
189.5000023384849
 31
0.0
  0
LINE
  5
24D
330
200
100
AcDbEntity
  8
0
100
AcDbLine
 10
79.59999983392936
 20
136.2500023384845
 30
0.0
 11
79.59999983392936
 21
189.5000023384849
 31
0.0
  0
LINE
  5
24E
330
200
100
AcDbEntity
  8
0
100
AcDbLine
 10
84.59999983392936
 20
187.5000023384849
 30
0.0
 11
86.59999983392934
 21
187.5000023384849
 31
0.0
  0
LINE
  5
24F
330
200
100
AcDbEntity
  8
0
100
AcDbLine
 10
84.59999983392936
 20
17.50000233848504
 30
0.0
 11
84.59999983392936
 21
70.75000233848505
 31
0.0
  0
LINE
  5
250
330
200
100
AcDbEntity
  8
0
100
AcDbLine
 10
86.59999983392934
 20
17.50000233848504
 30
0.0
 11
86.59999983392934
 21
70.75000233848505
 31
0.0
  0
LINE
  5
251
330
200
100
AcDbEntity
  8
0
100
AcDbLine
 10
84.59999983392936
 20
136.2500023384845
 30
0.0
 11
86.59999983392934
 21
136.2500023384845
 31
0.0
  0
LINE
  5
252
330
200
100
AcDbEntity
  8
0
100
AcDbLine
 10
84.59999983392936
 20
70.75000233848505
 30
0.0
 11
86.59999983392934
 21
70.75000233848505
 31
0.0
  0
LINE
  5
253
330
200
100
AcDbEntity
  8
0
100
AcDbLine
 10
84.59999983392936
 20
19.50000233848504
 30
0.0
 11
86.59999983392934
 21
19.50000233848504
 31
0.0
  0
LINE
  5
254
330
200
100
AcDbEntity
  8
0
100
AcDbLine
 10
84.59999983392936
 20
136.2500023384845
 30
0.0
 11
84.59999983392936
 21
189.5000023384849
 31
0.0
  0
LINE
  5
255
330
200
100
AcDbEntity
  8
0
100
AcDbLine
 10
86.59999983392934
 20
136.2500023384845
 30
0.0
 11
86.59999983392934
 21
189.5000023384849
 31
0.0
  0
LINE
  5
256
330
200
100
AcDbEntity
  8
0
100
AcDbLine
 10
91.59999983392937
 20
187.5000023384849
 30
0.0
 11
93.59999983392937
 21
187.5000023384849
 31
0.0
  0
LINE
  5
257
330
200
100
AcDbEntity
  8
0
100
AcDbLine
 10
91.59999983392937
 20
17.50000233848504
 30
0.0
 11
91.59999983392937
 21
70.75000233848505
 31
0.0
  0
LINE
  5
258
330
200
100
AcDbEntity
  8
0
100
AcDbLine
 10
93.59999983392937
 20
17.50000233848504
 30
0.0
 11
93.59999983392937
 21
70.75000233848505
 31
0.0
  0
LINE
  5
259
330
200
100
AcDbEntity
  8
0
100
AcDbLine
 10
91.59999983392937
 20
136.2500023384845
 30
0.0
 11
93.59999983392937
 21
136.2500023384845
 31
0.0
  0
LINE
  5
25A
330
200
100
AcDbEntity
  8
0
100
AcDbLine
 10
91.59999983392937
 20
70.75000233848505
 30
0.0
 11
93.59999983392937
 21
70.75000233848505
 31
0.0
  0
LINE
  5
25B
330
200
100
AcDbEntity
  8
0
100
AcDbLine
 10
91.59999983392937
 20
19.50000233848504
 30
0.0
 11
93.59999983392937
 21
19.50000233848504
 31
0.0
  0
LINE
  5
25C
330
200
100
AcDbEntity
  8
0
100
AcDbLine
 10
91.59999983392937
 20
136.2500023384845
 30
0.0
 11
91.59999983392937
 21
189.5000023384849
 31
0.0
  0
LINE
  5
25D
330
200
100
AcDbEntity
  8
0
100
AcDbLine
 10
93.59999983392937
 20
136.2500023384845
 30
0.0
 11
93.59999983392937
 21
189.5000023384849
 31
0.0
  0
LINE
  5
25E
330
200
100
AcDbEntity
  8
0
100
AcDbLine
 10
98.59999983392938
 20
187.5000023384849
 30
0.0
 11
100.5999998339291
 21
187.5000023384849
 31
0.0
  0
LINE
  5
25F
330
200
100
AcDbEntity
  8
0
100
AcDbLine
 10
98.59999983392938
 20
17.50000233848504
 30
0.0
 11
98.59999983392938
 21
70.75000233848505
 31
0.0
  0
LINE
  5
260
330
200
100
AcDbEntity
  8
0
100
AcDbLine
 10
100.5999998339291
 20
17.50000233848504
 30
0.0
 11
100.5999998339291
 21
70.75000233848505
 31
0.0
  0
LINE
  5
261
330
200
100
AcDbEntity
  8
0
100
AcDbLine
 10
98.59999983392938
 20
136.2500023384845
 30
0.0
 11
100.5999998339291
 21
136.2500023384845
 31
0.0
  0
LINE
  5
262
330
200
100
AcDbEntity
  8
0
100
AcDbLine
 10
98.59999983392938
 20
70.75000233848505
 30
0.0
 11
100.5999998339291
 21
70.75000233848505
 31
0.0
  0
LINE
  5
263
330
200
100
AcDbEntity
  8
0
100
AcDbLine
 10
98.59999983392938
 20
19.50000233848504
 30
0.0
 11
100.5999998339291
 21
19.50000233848504
 31
0.0
  0
LINE
  5
264
330
200
100
AcDbEntity
  8
0
100
AcDbLine
 10
98.59999983392938
 20
136.2500023384845
 30
0.0
 11
98.59999983392938
 21
189.5000023384849
 31
0.0
  0
LINE
  5
265
330
200
100
AcDbEntity
  8
0
100
AcDbLine
 10
100.5999998339291
 20
136.2500023384845
 30
0.0
 11
100.5999998339291
 21
189.5000023384849
 31
0.0
  0
LINE
  5
266
330
200
100
AcDbEntity
  8
0
100
AcDbLine
 10
28.59999983392935
 20
165.0000023384849
 30
0.0
 11
30.59999983392935
 21
165.0000023384849
 31
0.0
  0
LINE
  5
267
330
200
100
AcDbEntity
  8
0
100
AcDbLine
 10
28.59999983392935
 20
162.0000023384849
 30
0.0
 11
30.59999983392935
 21
162.0000023384849
 31
0.0
  0
LINE
  5
268
330
200
100
AcDbEntity
  8
0
100
AcDbLine
 10
28.59999983392935
 20
45.00000233848505
 30
0.0
 11
30.59999983392935
 21
45.00000233848505
 31
0.0
  0
LINE
  5
269
330
200
100
AcDbEntity
  8
0
100
AcDbLine
 10
28.59999983392935
 20
42.00000233848505
 30
0.0
 11
30.59999983392935
 21
42.00000233848505
 31
0.0
  0
LINE
  5
26A
330
200
100
AcDbEntity
  8
0
100
AcDbLine
 10
35.59999983392936
 20
165.0000023384849
 30
0.0
 11
37.59999983392936
 21
165.0000023384849
 31
0.0
  0
LINE
  5
26B
330
200
100
AcDbEntity
  8
0
100
AcDbLine
 10
35.59999983392936
 20
162.0000023384849
 30
0.0
 11
37.59999983392936
 21
162.0000023384849
 31
0.0
  0
LINE
  5
26C
330
200
100
AcDbEntity
  8
0
100
AcDbLine
 10
35.59999983392936
 20
45.00000233848505
 30
0.0
 11
37.59999983392936
 21
45.00000233848505
 31
0.0
  0
LINE
  5
26D
330
200
100
AcDbEntity
  8
0
100
AcDbLine
 10
35.59999983392936
 20
42.00000233848505
 30
0.0
 11
37.59999983392936
 21
42.00000233848505
 31
0.0
  0
LINE
  5
26E
330
200
100
AcDbEntity
  8
0
100
AcDbLine
 10
42.59999983392936
 20
165.0000023384849
 30
0.0
 11
44.59999983392934
 21
165.0000023384849
 31
0.0
  0
LINE
  5
26F
330
200
100
AcDbEntity
  8
0
100
AcDbLine
 10
42.59999983392936
 20
162.0000023384849
 30
0.0
 11
44.59999983392934
 21
162.0000023384849
 31
0.0
  0
LINE
  5
270
330
200
100
AcDbEntity
  8
0
100
AcDbLine
 10
42.59999983392936
 20
45.00000233848505
 30
0.0
 11
44.59999983392934
 21
45.00000233848505
 31
0.0
  0
LINE
  5
271
330
200
100
AcDbEntity
  8
0
100
AcDbLine
 10
42.59999983392936
 20
42.00000233848505
 30
0.0
 11
44.59999983392934
 21
42.00000233848505
 31
0.0
  0
LINE
  5
272
330
200
100
AcDbEntity
  8
0
100
AcDbLine
 10
49.59999983392936
 20
165.0000023384849
 30
0.0
 11
51.59999983392935
 21
165.0000023384849
 31
0.0
  0
LINE
  5
273
330
200
100
AcDbEntity
  8
0
100
AcDbLine
 10
49.59999983392936
 20
162.0000023384849
 30
0.0
 11
51.59999983392935
 21
162.0000023384849
 31
0.0
  0
LINE
  5
274
330
200
100
AcDbEntity
  8
0
100
AcDbLine
 10
49.59999983392936
 20
45.00000233848505
 30
0.0
 11
51.59999983392935
 21
45.00000233848505
 31
0.0
  0
LINE
  5
275
330
200
100
AcDbEntity
  8
0
100
AcDbLine
 10
49.59999983392936
 20
42.00000233848505
 30
0.0
 11
51.59999983392935
 21
42.00000233848505
 31
0.0
  0
LINE
  5
276
330
200
100
AcDbEntity
  8
0
100
AcDbLine
 10
56.59999983392935
 20
165.0000023384849
 30
0.0
 11
58.59999983392936
 21
165.0000023384849
 31
0.0
  0
LINE
  5
277
330
200
100
AcDbEntity
  8
0
100
AcDbLine
 10
56.59999983392935
 20
162.0000023384849
 30
0.0
 11
58.59999983392936
 21
162.0000023384849
 31
0.0
  0
LINE
  5
278
330
200
100
AcDbEntity
  8
0
100
AcDbLine
 10
56.59999983392935
 20
45.00000233848505
 30
0.0
 11
58.59999983392936
 21
45.00000233848505
 31
0.0
  0
LINE
  5
279
330
200
100
AcDbEntity
  8
0
100
AcDbLine
 10
56.59999983392935
 20
42.00000233848505
 30
0.0
 11
58.59999983392936
 21
42.00000233848505
 31
0.0
  0
LINE
  5
27A
330
200
100
AcDbEntity
  8
0
100
AcDbLine
 10
63.59999983392936
 20
165.0000023384849
 30
0.0
 11
65.59999983392936
 21
165.0000023384849
 31
0.0
  0
LINE
  5
27B
330
200
100
AcDbEntity
  8
0
100
AcDbLine
 10
63.59999983392936
 20
162.0000023384849
 30
0.0
 11
65.59999983392936
 21
162.0000023384849
 31
0.0
  0
LINE
  5
27C
330
200
100
AcDbEntity
  8
0
100
AcDbLine
 10
63.59999983392936
 20
45.00000233848505
 30
0.0
 11
65.59999983392936
 21
45.00000233848505
 31
0.0
  0
LINE
  5
27D
330
200
100
AcDbEntity
  8
0
100
AcDbLine
 10
63.59999983392936
 20
42.00000233848505
 30
0.0
 11
65.59999983392936
 21
42.00000233848505
 31
0.0
  0
LINE
  5
27E
330
200
100
AcDbEntity
  8
0
100
AcDbLine
 10
70.59999983392936
 20
165.0000023384849
 30
0.0
 11
72.59999983392936
 21
165.0000023384849
 31
0.0
  0
LINE
  5
27F
330
200
100
AcDbEntity
  8
0
100
AcDbLine
 10
70.59999983392936
 20
162.0000023384849
 30
0.0
 11
72.59999983392936
 21
162.0000023384849
 31
0.0
  0
LINE
  5
280
330
200
100
AcDbEntity
  8
0
100
AcDbLine
 10
70.59999983392936
 20
45.00000233848505
 30
0.0
 11
72.59999983392936
 21
45.00000233848505
 31
0.0
  0
LINE
  5
281
330
200
100
AcDbEntity
  8
0
100
AcDbLine
 10
70.59999983392936
 20
42.00000233848505
 30
0.0
 11
72.59999983392936
 21
42.00000233848505
 31
0.0
  0
LINE
  5
282
330
200
100
AcDbEntity
  8
0
100
AcDbLine
 10
77.59999983392936
 20
165.0000023384849
 30
0.0
 11
79.59999983392936
 21
165.0000023384849
 31
0.0
  0
LINE
  5
283
330
200
100
AcDbEntity
  8
0
100
AcDbLine
 10
77.59999983392936
 20
162.0000023384849
 30
0.0
 11
79.59999983392936
 21
162.0000023384849
 31
0.0
  0
LINE
  5
284
330
200
100
AcDbEntity
  8
0
100
AcDbLine
 10
77.59999983392936
 20
45.00000233848505
 30
0.0
 11
79.59999983392936
 21
45.00000233848505
 31
0.0
  0
LINE
  5
285
330
200
100
AcDbEntity
  8
0
100
AcDbLine
 10
77.59999983392936
 20
42.00000233848505
 30
0.0
 11
79.59999983392936
 21
42.00000233848505
 31
0.0
  0
LINE
  5
286
330
200
100
AcDbEntity
  8
0
100
AcDbLine
 10
84.59999983392936
 20
165.0000023384849
 30
0.0
 11
86.59999983392934
 21
165.0000023384849
 31
0.0
  0
LINE
  5
287
330
200
100
AcDbEntity
  8
0
100
AcDbLine
 10
84.59999983392936
 20
162.0000023384849
 30
0.0
 11
86.59999983392934
 21
162.0000023384849
 31
0.0
  0
LINE
  5
288
330
200
100
AcDbEntity
  8
0
100
AcDbLine
 10
84.59999983392936
 20
45.00000233848505
 30
0.0
 11
86.59999983392934
 21
45.00000233848505
 31
0.0
  0
LINE
  5
289
330
200
100
AcDbEntity
  8
0
100
AcDbLine
 10
84.59999983392936
 20
42.00000233848505
 30
0.0
 11
86.59999983392934
 21
42.00000233848505
 31
0.0
  0
LINE
  5
28A
330
200
100
AcDbEntity
  8
0
100
AcDbLine
 10
91.59999983392937
 20
165.0000023384849
 30
0.0
 11
93.59999983392937
 21
165.0000023384849
 31
0.0
  0
LINE
  5
28B
330
200
100
AcDbEntity
  8
0
100
AcDbLine
 10
91.59999983392937
 20
162.0000023384849
 30
0.0
 11
93.59999983392937
 21
162.0000023384849
 31
0.0
  0
LINE
  5
28C
330
200
100
AcDbEntity
  8
0
100
AcDbLine
 10
91.59999983392937
 20
45.00000233848505
 30
0.0
 11
93.59999983392937
 21
45.00000233848505
 31
0.0
  0
LINE
  5
28D
330
200
100
AcDbEntity
  8
0
100
AcDbLine
 10
91.59999983392937
 20
42.00000233848505
 30
0.0
 11
93.59999983392937
 21
42.00000233848505
 31
0.0
  0
LINE
  5
28E
330
200
100
AcDbEntity
  8
0
100
AcDbLine
 10
98.59999983392938
 20
165.0000023384849
 30
0.0
 11
100.5999998339291
 21
165.0000023384849
 31
0.0
  0
LINE
  5
28F
330
200
100
AcDbEntity
  8
0
100
AcDbLine
 10
98.59999983392938
 20
162.0000023384849
 30
0.0
 11
100.5999998339291
 21
162.0000023384849
 31
0.0
  0
LINE
  5
290
330
200
100
AcDbEntity
  8
0
100
AcDbLine
 10
98.59999983392938
 20
45.00000233848505
 30
0.0
 11
100.5999998339291
 21
45.00000233848505
 31
0.0
  0
LINE
  5
291
330
200
100
AcDbEntity
  8
0
100
AcDbLine
 10
98.59999983392938
 20
42.00000233848505
 30
0.0
 11
100.5999998339291
 21
42.00000233848505
 31
0.0
  0
LINE
  5
292
330
200
100
AcDbEntity
  8
0
100
AcDbLine
 10
78.59999983392936
 20
17.50000233848504
 30
0.0
 11
78.59999983392835
 21
17.00000233848504
 31
0.0
  0
LINE
  5
293
330
200
100
AcDbEntity
  8
0
100
AcDbLine
 10
23.59999983392935
 20
17.00000233848504
 30
0.0
 11
78.59999983392936
 21
17.00000233848504
 31
0.0
  0
LINE
  5
294
330
200
100
AcDbEntity
  8
0
100
AcDbLine
 10
123.9878536770963
 20
16.50000233848504
 30
0.0
 11
123.9878536770973
 21
190.5000023384846
 31
0.0
  0
LINE
  5
295
330
200
100
AcDbEntity
  8
0
100
AcDbLine
 10
3.199999833929495
 20
57.20000307217538
 30
0.0
 11
3.199999833929495
 21
37.00000307217532
 31
0.0
  0
LINE
  5
296
330
200
100
AcDbEntity
  8
0
100
AcDbLine
 10
4.099999833929357
 20
33.50000307217532
 30
0.0
 11
3.599999833929357
 21
34.00000307217532
 31
0.0
  0
LINE
  5
297
330
200
100
AcDbEntity
  8
0
100
AcDbLine
 10
3.599999833929472
 20
34.90000307217542
 30
0.0
 11
3.599999833929357
 21
34.00000307217532
 31
0.0
  0
LINE
  5
298
330
200
100
AcDbEntity
  8
0
100
AcDbLine
 10
4.899999833929538
 20
33.50000307217532
 30
0.0
 11
4.099999833929357
 21
33.50000307217532
 31
0.0
  0
ARC
  5
299
330
200
100
AcDbEntity
  8
0
100
AcDbCircle
 10
4.599999833929471
 20
34.90000307217531
 30
0.0
 40
1.0
100
AcDbArc
 50
90.0
 51
180.0
  0
LINE
  5
29A
330
200
100
AcDbEntity
  8
0
100
AcDbLine
 10
6.599999833929357
 20
35.90000307217538
 30
0.0
 11
4.599999833929471
 21
35.90000307217531
 31
0.0
  0
LINE
  5
29B
330
200
100
AcDbEntity
  8
0
100
AcDbLine
 10
6.599999833929357
 20
34.70000307217537
 30
0.0
 11
4.899999833929655
 21
34.70000307217537
 31
0.0
  0
LINE
  5
29C
330
200
100
AcDbEntity
  8
0
100
AcDbLine
 10
6.599999833929357
 20
37.00000307217528
 30
0.0
 11
3.199999833929495
 21
37.00000307217532
 31
0.0
  0
LINE
  5
29D
330
200
100
AcDbEntity
  8
0
100
AcDbLine
 10
4.899999833929538
 20
33.50000307217532
 30
0.0
 11
4.899999833929538
 21
34.70000307217537
 31
0.0
  0
LINE
  5
29E
330
200
100
AcDbEntity
  8
0
100
AcDbLine
 10
4.099999833929587
 20
60.70000307217537
 30
0.0
 11
3.599999833929587
 21
60.20000307217538
 31
0.0
  0
LINE
  5
29F
330
200
100
AcDbEntity
  8
0
100
AcDbLine
 10
3.599999833929587
 20
60.20000307217538
 30
0.0
 11
3.599999833929587
 21
59.30000307217529
 31
0.0
  0
LINE
  5
2A0
330
200
100
AcDbEntity
  8
0
100
AcDbLine
 10
4.899999833929538
 20
60.70000307217537
 30
0.0
 11
4.099999833929587
 21
60.70000307217537
 31
0.0
  0
ARC
  5
2A1
330
200
100
AcDbEntity
  8
0
100
AcDbCircle
 10
4.599999833929587
 20
59.3000030721754
 30
0.0
 40
1.0
100
AcDbArc
 50
180.0
 51
270.0
  0
LINE
  5
2A2
330
200
100
AcDbEntity
  8
0
100
AcDbLine
 10
6.599999833929357
 20
58.3000030721754
 30
0.0
 11
4.599999833929587
 21
58.3000030721754
 31
0.0
  0
LINE
  5
2A3
330
200
100
AcDbEntity
  8
0
100
AcDbLine
 10
3.199999833929495
 20
57.20000307217538
 30
0.0
 11
6.599999833929357
 21
57.20000307217538
 31
0.0
  0
LINE
  5
2A4
330
200
100
AcDbEntity
  8
0
100
AcDbLine
 10
6.599999833929357
 20
59.50000307217544
 30
0.0
 11
4.899999833929427
 21
59.50000307217544
 31
0.0
  0
LINE
  5
2A5
330
200
100
AcDbEntity
  8
0
100
AcDbLine
 10
4.899999833929538
 20
59.50000307217533
 30
0.0
 11
4.899999833929538
 21
60.70000307217537
 31
0.0
  0
LINE
  5
2A6
330
200
100
AcDbEntity
  8
0
100
AcDbLine
 10
6.599999833929357
 20
21.50000307217532
 30
0.0
 11
4.099999833929246
 21
21.50000307217532
 31
0.0
  0
LINE
  5
2A7
330
200
100
AcDbEntity
  8
0
100
AcDbLine
 10
4.099999833929246
 20
21.50000307217532
 30
0.0
 11
4.099999833929246
 21
27.00000307217532
 31
0.0
  0
LINE
  5
2A8
330
200
100
AcDbEntity
  8
0
100
AcDbLine
 10
4.099999833929246
 20
27.00000307217532
 30
0.0
 11
6.599999833929357
 21
27.00000307217532
 31
0.0
  0
LINE
  5
2A9
330
200
100
AcDbEntity
  8
0
100
AcDbLine
 10
6.599999833929357
 20
62.14000233848515
 30
0.0
 11
5.599999833929358
 21
62.14000233848515
 31
0.0
  0
LINE
  5
2AA
330
200
100
AcDbEntity
  8
0
100
AcDbLine
 10
5.599999833929358
 20
62.14000233848515
 30
0.0
 11
5.599999833929358
 21
59.50000307217544
 31
0.0
  0
LINE
  5
2AB
330
200
100
AcDbEntity
  8
0
100
AcDbLine
 10
-0.000000166070663
 20
112.5000023384849
 30
0.0
 11
6.599999833929357
 21
112.5000023384849
 31
0.0
  0
LINE
  5
2AC
330
200
100
AcDbEntity
  8
0
100
AcDbLine
 10
6.599999833929357
 20
136.6600023384848
 30
0.0
 11
-0.000000166070663
 21
136.6600023384848
 31
0.0
  0
LINE
  5
2AD
330
200
100
AcDbEntity
  8
0
100
AcDbLine
 10
-0.000000166070663
 20
136.6600023384848
 30
0.0
 11
-0.000000166070663
 21
112.5000023384849
 31
0.0
  0
LINE
  5
2AE
330
200
100
AcDbEntity
  8
0
100
AcDbLine
 10
1.299999833929404
 20
71.34000233848508
 30
0.0
 11
1.299999833929404
 21
99.80000233848514
 31
0.0
  0
LINE
  5
2AF
330
200
100
AcDbEntity
  8
0
100
AcDbLine
 10
1.299999833929404
 20
75.45000233848509
 30
0.0
 11
5.599999833929246
 21
75.45000233848509
 31
0.0
  0
LINE
  5
2B0
330
200
100
AcDbEntity
  8
0
100
AcDbLine
 10
5.599999833929358
 20
71.34000233848508
 30
0.0
 11
1.299999833929404
 21
71.34000233848508
 31
0.0
  0
LINE
  5
2B1
330
200
100
AcDbEntity
  8
0
100
AcDbLine
 10
1.299999833929404
 20
95.69000233848512
 30
0.0
 11
6.599999833929357
 21
95.69000233848512
 31
0.0
  0
LINE
  5
2B2
330
200
100
AcDbEntity
  8
0
100
AcDbLine
 10
1.299999833929404
 20
90.69000233848512
 30
0.0
 11
6.599999833929357
 21
90.69000233848512
 31
0.0
  0
LINE
  5
2B3
330
200
100
AcDbEntity
  8
0
100
AcDbLine
 10
1.299999833929404
 20
83.0700023384851
 30
0.0
 11
6.599999833929357
 21
83.0700023384851
 31
0.0
  0
LINE
  5
2B4
330
200
100
AcDbEntity
  8
0
100
AcDbLine
 10
1.299999833929404
 20
88.07000233848507
 30
0.0
 11
6.599999833929357
 21
88.07000233848507
 31
0.0
  0
LINE
  5
2B5
330
200
100
AcDbEntity
  8
0
100
AcDbLine
 10
1.299999833929404
 20
80.4500023384851
 30
0.0
 11
5.799999833929632
 21
80.4500023384851
 31
0.0
  0
LINE
  5
2B6
330
200
100
AcDbEntity
  8
0
100
AcDbLine
 10
5.799999833929632
 20
99.80000233848514
 30
0.0
 11
1.299999833929404
 21
99.80000233848514
 31
0.0
  0
LINE
  5
2B7
330
200
100
AcDbEntity
  8
0
100
AcDbLine
 10
49.59999983392936
 20
187.5000023384849
 30
0.0
 11
51.59999983392935
 21
187.5000023384849
 31
0.0
  0
LINE
  5
2B8
330
200
100
AcDbEntity
  8
0
100
AcDbLine
 10
122.5999998339284
 20
190.5000023384846
 30
0.0
 11
122.5999998339284
 21
200.5000023384849
 31
0.0
  0
LINE
  5
2B9
330
200
100
AcDbEntity
  8
0
100
AcDbLine
 10
6.599999833929357
 20
16.50000233848504
 30
0.0
 11
123.9878536770973
 21
16.50000233848504
 31
0.0
  0
LINE
  5
2BA
330
200
100
AcDbEntity
  8
0
100
AcDbLine
 10
25.59999983392935
 20
0.0000023384850465
 30
0.0
 11
25.59999983392935
 21
8.500002338485044
 31
0.0
  0
LINE
  5
2BB
330
200
100
AcDbEntity
  8
0
100
AcDbLine
 10
77.59999983392835
 20
0.0000023384850465
 30
0.0
 11
77.59999983392835
 21
16.50000233848504
 31
0.0
  0
LINE
  5
2BC
330
200
100
AcDbEntity
  8
0
100
AcDbLine
 10
25.59999983392935
 20
0.0000023384850465
 30
0.0
 11
77.59999983392835
 21
0.0000023384850465
 31
0.0
  0
LINE
  5
2BD
330
200
100
AcDbEntity
  8
0
100
AcDbLine
 10
35.59999983392936
 20
0.0000023384850465
 30
0.0
 11
35.59999983392936
 21
16.50000233848504
 31
0.0
  0
LINE
  5
2BE
330
200
100
AcDbEntity
  8
0
100
AcDbLine
 10
25.59999983392935
 20
8.500002338485044
 30
0.0
 11
35.59999983392936
 21
8.500002338485044
 31
0.0
  0
LINE
  5
2BF
330
200
100
AcDbEntity
  8
0
100
AcDbLine
 10
37.59999983392936
 20
9.500002338485046
 30
0.0
 11
37.59999983392936
 21
0.0000023384850465
 31
0.0
  0
LINE
  5
2C0
330
200
100
AcDbEntity
  8
0
100
AcDbLine
 10
75.59999983392835
 20
9.500002338485046
 30
0.0
 11
75.59999983392835
 21
0.0000023384850465
 31
0.0
  0
LINE
  5
2C1
330
200
100
AcDbEntity
  8
0
100
AcDbLine
 10
5.599999833929358
 20
58.3000030721754
 30
0.0
 11
5.599999833929358
 21
57.20000307217538
 31
0.0
  0
LINE
  5
2C2
330
200
100
AcDbEntity
  8
0
100
AcDbLine
 10
5.599999833929358
 20
37.00000307217532
 30
0.0
 11
5.599999833929358
 21
35.90000307217532
 31
0.0
  0
LINE
  5
2C3
330
200
100
AcDbEntity
  8
0
100
AcDbLine
 10
5.599999833929358
 20
34.70000307217537
 30
0.0
 11
5.599999833929358
 21
27.00000307217532
 31
0.0
  0
LINE
  5
2C4
330
200
100
AcDbEntity
  8
0
100
AcDbLine
 10
6.599999833929357
 20
157.9400023384851
 30
0.0
 11
5.595637893078333
 21
157.9400023384851
 31
0.0
  0
LINE
  5
2C5
330
200
100
AcDbEntity
  8
0
100
AcDbLine
 10
6.599999833929357
 20
68.70000307217536
 30
0.0
 11
5.599999833929358
 21
68.70000307217536
 31
0.0
  0
LINE
  5
2C6
330
200
100
AcDbEntity
  8
0
100
AcDbLine
 10
5.599999833929358
 20
68.70000307217536
 30
0.0
 11
5.599999833929246
 21
77.10000307217547
 31
0.0
  0
LINE
  5
2C7
330
200
100
AcDbEntity
  8
0
100
AcDbLine
 10
5.599999833929246
 20
77.10000307217547
 30
0.0
 11
6.599999833929357
 21
77.10000307217547
 31
0.0
  0
LINE
  5
2C8
330
200
100
AcDbEntity
  8
0
100
AcDbLine
 10
6.599999833929357
 20
78.60000307217545
 30
0.0
 11
5.799999833929632
 21
78.60000307217545
 31
0.0
  0
LINE
  5
2C9
330
200
100
AcDbEntity
  8
0
100
AcDbLine
 10
5.799999833929632
 20
78.60000307217545
 30
0.0
 11
5.799999833929632
 21
81.60000307217547
 31
0.0
  0
LINE
  5
2CA
330
200
100
AcDbEntity
  8
0
100
AcDbLine
 10
5.799999833929632
 20
81.60000307217547
 30
0.0
 11
6.599999833929357
 21
81.60000307217547
 31
0.0
  0
LINE
  5
2CB
330
200
100
AcDbEntity
  8
0
100
AcDbLine
 10
6.599999833929357
 20
98.60000307217545
 30
0.0
 11
5.799999833929632
 21
98.60000307217545
 31
0.0
  0
LINE
  5
2CC
330
200
100
AcDbEntity
  8
0
100
AcDbLine
 10
5.799999833929632
 20
98.60000307217545
 30
0.0
 11
5.799999833929632
 21
101.6000030721754
 31
0.0
  0
LINE
  5
2CD
330
200
100
AcDbEntity
  8
0
100
AcDbLine
 10
5.799999833929632
 20
101.6000030721754
 30
0.0
 11
6.599999833929357
 21
101.6000030721754
 31
0.0
  0
LINE
  5
2CE
330
200
100
AcDbEntity
  8
0
  6
CONTINUOUS
100
AcDbLine
 10
5.595637893078333
 20
157.9400023384851
 30
0.0
 11
5.595637893078333
 21
142.5400023384848
 31
0.0
  0
LINE
  5
2CF
330
200
100
AcDbEntity
  8
0
  6
CONTINUOUS
100
AcDbLine
 10
5.595637893078333
 20
142.5400023384848
 30
0.0
 11
6.599999833929357
 21
142.5400023384848
 31
0.0
  0
ENDBLK
  5
2D1
330
200
100
AcDbEntity
  8
0
100
AcDbBlockEnd
  0
BLOCK
  5
2D7
330
2D2
100
AcDbEntity
  8
0
 48
5.0
100
AcDbBlockBegin
  2
A$C5CFD6E8C
 70
     0
 10
0.0
 20
0.0
 30
0.0
  3
A$C5CFD6E8C
  1

  0
LINE
  5
2D3
330
2D2
100
AcDbEntity
  8
0
 62
     0
100
AcDbLine
 10
1.599997211020308
 20
2.70000247964549
 30
0.0
 11
1.599997211020308
 21
0.0000024796447633
 31
0.0
  0
LINE
  5
2D4
330
2D2
100
AcDbEntity
  8
0
 62
     0
100
AcDbLine
 10
-0.0000027889800549
 20
0.0000024796447633
 30
0.0
 11
-0.0000027889800549
 21
2.70000247964549
 31
0.0
  0
LINE
  5
2D5
330
2D2
100
AcDbEntity
  8
0
  6
CENTER
 62
     0
100
AcDbLine
 10
1.599997211020308
 20
2.70000247964549
 30
0.0
 11
-0.0000027889800549
 21
2.70000247964549
 31
0.0
  0
LINE
  5
2D6
330
2D2
100
AcDbEntity
  8
0
  6
CENTER
 62
     0
100
AcDbLine
 10
1.599997211020308
 20
0.0000024796447633
 30
0.0
 11
-0.0000027889800549
 21
0.0000024796447633
 31
0.0
  0
ENDBLK
  5
2D8
330
2D2
100
AcDbEntity
  8
0
 48
5.0
100
AcDbBlockEnd
  0
ENDSEC
  0
SECTION
  2
ENTITIES
  0
LINE
  5
59A
330
1F
100
AcDbEntity
  8
1
100
AcDbLine
 10
72.68454962301518
 20
175.9738177244594
 30
0.0
 11
87.6845496230152
 21
175.9738177244594
 31
0.0
  0
LINE
  5
59B
330
1F
100
AcDbEntity
  8
1
100
AcDbLine
 10
80.18454962301518
 20
168.4738177244593
 30
0.0
 11
80.18454962301518
 21
183.4738177244594
 31
0.0
  0
LINE
  5
59C
330
1F
100
AcDbEntity
  8
1
100
AcDbLine
 10
80.18454962301484
 20
352.4738177244593
 30
0.0
 11
80.18454962301484
 21
367.4738177244593
 31
0.0
  0
LINE
  5
59D
330
1F
100
AcDbEntity
  8
1
100
AcDbLine
 10
72.68454962301518
 20
359.9738177244595
 30
0.0
 11
87.6845496230152
 21
359.9738177244595
 31
0.0
  0
INSERT
  5
5AA
330
1F
100
AcDbEntity
  8
0
100
AcDbBlockReference
  2
A$C7A762DB8
 10
37.18455336488114
 20
0.0000063738307787
 30
0.0
  0
INSERT
  5
5AB
330
1F
100
AcDbEntity
  8
0
100
AcDbBlockReference
  2
A$C413B70EE
 10
202.5845497890855
 20
164.4738153859743
 30
0.0
  0
LINE
  5
5AC
330
1F
100
AcDbEntity
  8
0
100
AcDbLine
 10
98.63454962301524
 20
204.0901008670513
 30
0.0
 11
98.63454962301524
 21
219.0575345818679
 31
0.0
  0
LINE
  5
5AD
330
1F
100
AcDbEntity
  8
0
100
AcDbLine
 10
92.33454962301513
 20
219.6738177244593
 30
0.0
 11
92.33454962301513
 21
203.4738177244594
 31
0.0
  0
LINE
  5
5AE
330
1F
100
AcDbEntity
  8
0
100
AcDbLine
 10
93.88454962301523
 20
220.1738177244594
 30
0.0
 11
93.88454962301523
 21
202.9738177244594
 31
0.0
  0
LINE
  5
5AF
330
1F
100
AcDbEntity
  8
0
100
AcDbLine
 10
97.08454962301516
 20
202.9738177244594
 30
0.0
 11
97.08454962301516
 21
220.1738177244594
 31
0.0
  0
LINE
  5
5B0
330
1F
100
AcDbEntity
  8
0
100
AcDbLine
 10
90.88454962301524
 20
229.1738177244594
 30
0.0
 11
90.88454962301524
 21
193.9738177244594
 31
0.0
  0
LINE
  5
5B1
330
1F
100
AcDbEntity
  8
0
100
AcDbLine
 10
99.98454962301515
 20
192.9738177244594
 30
0.0
 11
99.98454962301515
 21
230.1738177244593
 31
0.0
  0
LINE
  5
5B2
330
1F
100
AcDbEntity
  8
0
100
AcDbLine
 10
101.184549744933
 20
230.6738175651153
 30
0.0
 11
101.184549744933
 21
185.1738175651153
 31
0.0
  0
LINE
  5
5B3
330
1F
100
AcDbEntity
  8
0
100
AcDbLine
 10
89.7845497449323
 20
230.6738175651153
 30
0.0
 11
89.7845497449323
 21
185.1738175651153
 31
0.0
  0
LINE
  5
5B4
330
1F
100
AcDbEntity
  8
0
100
AcDbLine
 10
100.284549623015
 20
230.6738175651153
 30
0.0
 11
100.284549623015
 21
185.1738175651153
 31
0.0
  0
LINE
  5
5B5
330
1F
100
AcDbEntity
  8
0
100
AcDbLine
 10
74.78454974493229
 20
239.5738175651154
 30
0.0
 11
74.78454974493229
 21
185.1738175651153
 31
0.0
  0
LINE
  5
5B6
330
1F
100
AcDbEntity
  8
0
100
AcDbLine
 10
73.88454962301421
 20
185.9738177244594
 30
0.0
 11
73.88454962301421
 21
226.6138177244594
 31
0.0
  0
LINE
  5
5B7
330
1F
100
AcDbEntity
  8
0
100
AcDbLine
 10
65.28454962301418
 20
226.6138177244594
 30
0.0
 11
65.28454962301418
 21
185.9738177244594
 31
0.0
  0
LINE
  5
5B8
330
1F
100
AcDbEntity
  8
0
100
AcDbLine
 10
64.18454974493204
 20
271.4738175651153
 30
0.0
 11
64.18454974493204
 21
185.1738175651153
 31
0.0
  0
LINE
  5
5B9
330
1F
100
AcDbEntity
  8
0
100
AcDbLine
 10
65.28454962301509
 20
185.1738175651153
 30
0.0
 11
65.28454962301509
 21
271.4738175651153
 31
0.0
  0
LINE
  5
5BA
330
1F
100
AcDbEntity
  8
0
100
AcDbLine
 10
56.18454962301519
 20
201.6069981493723
 30
0.0
 11
56.18454962301519
 21
354.9476318028903
 31
0.0
  0
LINE
  5
5BB
330
1F
100
AcDbEntity
  8
0
100
AcDbLine
 10
57.18454962301507
 20
354.9738177244593
 30
0.0
 11
57.18454962301414
 21
202.3555981844971
 31
0.0
  0
LINE
  5
5BC
330
1F
100
AcDbEntity
  8
0
100
AcDbLine
 10
59.18454962301519
 20
352.9738177244593
 30
0.0
 11
59.18454962301405
 21
203.5595137419633
 31
0.0
  0
LINE
  5
5BD
330
1F
100
AcDbEntity
  8
0
100
AcDbLine
 10
56.18454962301519
 20
201.6069981493733
 30
0.0
 11
56.18454962301519
 21
354.4738177244591
 31
0.0
  0
LINE
  5
5BE
330
1F
100
AcDbEntity
  8
0
100
AcDbLine
 10
59.28454962301419
 20
352.7738177244593
 30
0.0
 11
59.28454962301419
 21
203.6659175127584
 31
0.0
  0
LINE
  5
5BF
330
1F
100
AcDbEntity
  8
0
100
AcDbLine
 10
109.1845496230151
 20
363.9738177244593
 30
0.0
 11
109.1845496230151
 21
171.9738177244594
 31
0.0
  0
LINE
  5
5C0
330
1F
100
AcDbEntity
  8
0
100
AcDbLine
 10
107.184549623015
 20
182.9738177244594
 30
0.0
 11
107.184549623015
 21
352.9738177244593
 31
0.0
  0
LINE
  5
5C1
330
1F
100
AcDbEntity
  8
0
100
AcDbLine
 10
109.1845496230151
 20
180.9738177244594
 30
0.0
 11
109.1845496230151
 21
354.9738177244593
 31
0.0
  0
LINE
  5
5C2
330
1F
100
AcDbEntity
  8
0
100
AcDbLine
 10
106.8845496230142
 20
352.7738177244593
 30
0.0
 11
106.8845496230142
 21
183.1738177244594
 31
0.0
  0
LINE
  5
5C3
330
1F
100
AcDbEntity
  8
0
100
AcDbLine
 10
37.18454962301517
 20
363.5283142652923
 30
0.0
 11
37.18454962301517
 21
172.4193211836264
 31
0.0
  0
ARC
  5
5C4
330
1F
100
AcDbEntity
  8
0
100
AcDbCircle
 10
80.18454962301518
 20
175.9738177244594
 30
0.0
 40
5.5
100
AcDbArc
 50
0.0
 51
65.38002267134427
  0
LINE
  5
5C5
330
1F
100
AcDbEntity
  8
0
100
AcDbLine
 10
82.2845496230151
 20
170.9738177244593
 30
0.0
 11
85.68454962301414
 21
170.9738177244593
 31
0.0
  0
LINE
  5
5C6
330
1F
100
AcDbEntity
  8
0
100
AcDbLine
 10
57.18454962301414
 20
180.9738177244594
 30
0.0
 11
109.1845496230151
 21
180.9738177244594
 31
0.0
  0
LINE
  5
5C7
330
1F
100
AcDbEntity
  8
0
100
AcDbLine
 10
107.184549623015
 20
182.9738177244594
 30
0.0
 11
62.1845496230103
 21
182.9738177244594
 31
0.0
  0
LINE
  5
5C8
330
1F
100
AcDbEntity
  8
0
100
AcDbLine
 10
62.28454962301009
 20
183.1738177244594
 30
0.0
 11
106.8845496230142
 21
183.1738177244594
 31
0.0
  0
LINE
  5
5C9
330
1F
100
AcDbEntity
  8
0
100
AcDbLine
 10
37.6714611488611
 20
181.4324140856784
 30
0.0
 11
55.18454962301518
 21
180.9738177244594
 31
0.0
  0
LINE
  5
5CA
330
1F
100
AcDbEntity
  8
0
100
AcDbLine
 10
55.18454962301518
 20
170.9738177244593
 30
0.0
 11
38.15837267470692
 21
171.4196638586513
 31
0.0
  0
ARC
  5
5CB
330
1F
100
AcDbEntity
  8
0
100
AcDbCircle
 10
38.18454962301519
 20
172.4193211836264
 30
0.0
 40
1.0
100
AcDbArc
 50
180.0
 51
268.5000000000038
  0
ARC
  5
5CC
330
1F
100
AcDbEntity
  8
0
100
AcDbCircle
 10
37.68454962301518
 20
181.9322427481663
 30
0.0
 40
0.5
100
AcDbArc
 50
180.0
 51
268.5000000000038
  0
LINE
  5
5CD
330
1F
100
AcDbEntity
  8
0
100
AcDbLine
 10
78.08454962301515
 20
175.9738177244594
 30
0.0
 11
78.08454962301515
 21
170.9738177244593
 31
0.0
  0
LINE
  5
5CE
330
1F
100
AcDbEntity
  8
0
100
AcDbLine
 10
82.2845496230151
 20
175.9738177244594
 30
0.0
 11
82.2845496230151
 21
170.9738177244593
 31
0.0
  0
LINE
  5
5CF
330
1F
100
AcDbEntity
  8
0
100
AcDbLine
 10
74.68454962301518
 20
175.9738177244594
 30
0.0
 11
74.68454962301518
 21
170.9738177244593
 31
0.0
  0
LINE
  5
5D0
330
1F
100
AcDbEntity
  8
0
100
AcDbLine
 10
55.18454962301518
 20
170.9738177244593
 30
0.0
 11
78.08454962301515
 21
170.9738177244593
 31
0.0
  0
LINE
  5
5D1
330
1F
100
AcDbEntity
  8
0
100
AcDbLine
 10
55.18454962301518
 20
170.9738177244593
 30
0.0
 11
77.93454962301519
 21
170.9738177244593
 31
0.0
  0
LINE
  5
5D2
330
1F
100
AcDbEntity
  8
0
100
AcDbLine
 10
74.78454974493229
 20
185.1738175651153
 30
0.0
 11
64.18454974493204
 21
185.1738175651153
 31
0.0
  0
LINE
  5
5D3
330
1F
100
AcDbEntity
  8
0
100
AcDbLine
 10
65.28454962301418
 20
185.9738177244594
 30
0.0
 11
73.88454962301421
 21
185.9738177244594
 31
0.0
  0
LINE
  5
5D4
330
1F
100
AcDbEntity
  8
0
100
AcDbLine
 10
59.18454962301109
 20
197.9738177244594
 30
0.0
 11
59.1845496230103
 21
181.0785614107363
 31
0.0
  0
LINE
  5
5D5
330
1F
100
AcDbEntity
  8
0
100
AcDbLine
 10
60.1845496230111
 20
197.9738177244594
 30
0.0
 11
60.1845496230103
 21
180.9738177244594
 31
0.0
  0
LINE
  5
5D6
330
1F
100
AcDbEntity
  8
0
100
AcDbLine
 10
62.18454962301098
 20
197.9738177244594
 30
0.0
 11
62.1845496230103
 21
182.9738177244594
 31
0.0
  0
LINE
  5
5D7
330
1F
100
AcDbEntity
  8
0
100
AcDbLine
 10
59.18454962301109
 20
197.9738177244594
 30
0.0
 11
59.1845496230103
 21
181.4738177244594
 31
0.0
  0
LINE
  5
5D8
330
1F
100
AcDbEntity
  8
0
100
AcDbLine
 10
62.2845496230111
 20
197.9738177244594
 30
0.0
 11
62.28454962301009
 21
183.1738177244594
 31
0.0
  0
LINE
  5
5D9
330
1F
100
AcDbEntity
  8
0
100
AcDbLine
 10
55.18454962301518
 20
180.9738177244594
 30
0.0
 11
59.1845496230103
 21
181.0785614107363
 31
0.0
  0
LINE
  5
5DA
330
1F
100
AcDbEntity
  8
0
100
AcDbLine
 10
55.18454962301518
 20
180.9738177244594
 30
0.0
 11
59.18454962301109
 21
181.0785614107363
 31
0.0
  0
CIRCLE
  5
5DB
330
1F
100
AcDbEntity
  8
0
100
AcDbCircle
 10
55.18454962301518
 20
185.9738177244594
 30
0.0
 40
1.6
  0
CIRCLE
  5
5DC
330
1F
100
AcDbEntity
  8
0
100
AcDbCircle
 10
55.18454962301518
 20
185.9738177244594
 30
0.0
 40
2.0
  0
LINE
  5
5DD
330
1F
100
AcDbEntity
  8
0
100
AcDbLine
 10
57.18454962301269
 20
181.0261895675978
 30
0.0
 11
57.18454962301414
 21
180.9738177244594
 31
0.0
  0
LINE
  5
5DE
330
1F
100
AcDbEntity
  8
0
100
AcDbLine
 10
60.1845496230103
 20
181.4738177244594
 30
0.0
 11
59.1845496230103
 21
181.4738177244592
 31
0.0
  0
ARC
  5
5DF
330
1F
100
AcDbEntity
  8
0
100
AcDbCircle
 10
55.48454962301513
 20
197.9738177244594
 30
0.0
 40
3.699999999995998
100
AcDbArc
 50
0.0
 51
79.09453000326441
  0
ARC
  5
5E0
330
1F
100
AcDbEntity
  8
0
100
AcDbCircle
 10
55.48454962301513
 20
197.9738177244594
 30
0.0
 40
4.699999999995998
100
AcDbArc
 50
0.0
 51
68.79523363710098
  0
ARC
  5
5E1
330
1F
100
AcDbEntity
  8
0
100
AcDbCircle
 10
55.48454962301513
 20
197.9738177244594
 30
0.0
 40
3.699999999995998
100
AcDbArc
 50
0.0
 51
79.09453000326441
  0
LINE
  5
5E2
330
1F
100
AcDbEntity
  8
0
100
AcDbLine
 10
53.53454962301508
 20
203.9738177244594
 30
0.0
 11
53.53454962301508
 21
205.3238177244593
 31
0.0
  0
LINE
  5
5E3
330
1F
100
AcDbEntity
  8
0
100
AcDbLine
 10
53.83454962301424
 20
203.9738177244594
 30
0.0
 11
53.83454962301424
 21
205.3238177244593
 31
0.0
  0
ARC
  5
5E4
330
1F
100
AcDbEntity
  8
0
100
AcDbCircle
 10
53.68454962301519
 20
205.3238177244593
 30
0.0
 40
0.15
100
AcDbArc
 50
0.0
 51
180.0
  0
ARC
  5
5E5
330
1F
100
AcDbEntity
  8
0
100
AcDbCircle
 10
55.0345496230151
 20
203.8238177244594
 30
0.0
 40
0.15
100
AcDbArc
 50
270.0
 51
90.0
  0
LINE
  5
5E6
330
1F
100
AcDbEntity
  8
0
100
AcDbLine
 10
53.83454962301424
 20
203.9738177244594
 30
0.0
 11
55.0345496230151
 21
203.9738177244594
 31
0.0
  0
LINE
  5
5E7
330
1F
100
AcDbEntity
  8
0
100
AcDbLine
 10
52.73454962301514
 20
203.3238177244593
 30
0.0
 11
54.63454962301421
 21
203.3238177244593
 31
0.0
  0
LINE
  5
5E8
330
1F
100
AcDbEntity
  8
0
100
AcDbLine
 10
52.73454962301514
 20
203.023817724459
 30
0.0
 11
54.63454962301421
 21
203.023817724459
 31
0.0
  0
LINE
  5
5E9
330
1F
100
AcDbEntity
  8
0
100
AcDbLine
 10
53.13454962301523
 20
202.6738177244594
 30
0.0
 11
54.23454962301423
 21
202.6738177244594
 31
0.0
  0
LINE
  5
5EA
330
1F
100
AcDbEntity
  8
0
100
AcDbLine
 10
53.13454962301523
 20
202.3738177244594
 30
0.0
 11
54.23454962301423
 21
202.3738177244594
 31
0.0
  0
ARC
  5
5EB
330
1F
100
AcDbEntity
  8
0
100
AcDbCircle
 10
53.13454962301523
 20
202.5238177244593
 30
0.0
 40
0.15
100
AcDbArc
 50
90.0
 51
270.0
  0
ARC
  5
5EC
330
1F
100
AcDbEntity
  8
0
100
AcDbCircle
 10
54.23454962301423
 20
202.5238177244593
 30
0.0
 40
0.15
100
AcDbArc
 50
270.0
 51
90.0
  0
ARC
  5
5ED
330
1F
100
AcDbEntity
  8
0
100
AcDbCircle
 10
52.73454962301514
 20
203.1738177244593
 30
0.0
 40
0.15
100
AcDbArc
 50
90.0
 51
270.0
  0
ARC
  5
5EE
330
1F
100
AcDbEntity
  8
0
100
AcDbCircle
 10
54.63454962301421
 20
203.1738177244593
 30
0.0
 40
0.15
100
AcDbArc
 50
270.0
 51
90.0
  0
ARC
  5
5EF
330
1F
100
AcDbEntity
  8
0
100
AcDbCircle
 10
52.33454962301514
 20
203.8238177244594
 30
0.0
 40
0.15
100
AcDbArc
 50
90.0
 51
270.0
  0
CIRCLE
  5
5F0
330
1F
100
AcDbEntity
  8
0
100
AcDbCircle
 10
53.68454962301519
 20
203.9738177244594
 30
0.0
 40
2.149999999999999
  0
CIRCLE
  5
5F1
330
1F
100
AcDbEntity
  8
0
100
AcDbCircle
 10
53.68454962301519
 20
203.9738177244594
 30
0.0
 40
1.85
  0
LINE
  5
5F2
330
1F
100
AcDbEntity
  8
0
100
AcDbLine
 10
52.33454962301514
 20
203.6738177244594
 30
0.0
 11
55.0345496230151
 21
203.6738177244594
 31
0.0
  0
LINE
  5
5F3
330
1F
100
AcDbEntity
  8
0
100
AcDbLine
 10
52.33454962301514
 20
203.9738177244594
 30
0.0
 11
53.53454962301508
 21
203.9738177244594
 31
0.0
  0
CIRCLE
  5
5F4
330
1F
100
AcDbEntity
  8
0
100
AcDbCircle
 10
55.18454962301518
 20
195.9738177244594
 30
0.0
 40
2.0
  0
CIRCLE
  5
5F5
330
1F
100
AcDbEntity
  8
0
100
AcDbCircle
 10
55.18454962301518
 20
195.9738177244594
 30
0.0
 40
1.6
  0
ARC
  5
5F6
330
1F
100
AcDbEntity
  8
0
100
AcDbCircle
 10
55.48454962301513
 20
197.9738177244594
 30
0.0
 40
6.699999999996
100
AcDbArc
 50
0.0
 51
56.47925960398296
  0
ARC
  5
5F7
330
1F
100
AcDbEntity
  8
0
100
AcDbCircle
 10
55.38454962301421
 20
197.9738177244594
 30
0.0
 40
6.899999999996
100
AcDbArc
 50
0.0
 51
55.58261128953329
  0
CIRCLE
  5
5F8
330
1F
100
AcDbEntity
  8
0
100
AcDbCircle
 10
69.28454962301419
 20
193.5938177244593
 30
0.0
 40
2.0
  0
ARC
  5
5F9
330
1F
100
AcDbEntity
  8
0
100
AcDbCircle
 10
80.18454962301518
 20
175.9738177244594
 30
0.0
 40
5.5
100
AcDbArc
 50
114.6199773286557
 51
179.9999999999966
  0
CIRCLE
  5
5FA
330
1F
100
AcDbEntity
  8
0
100
AcDbCircle
 10
69.28454962301419
 20
188.8438177244593
 30
0.0
 40
1.0
  0
CIRCLE
  5
5FB
330
1F
100
AcDbEntity
  8
0
100
AcDbCircle
 10
69.28454962301419
 20
188.8438177244593
 30
0.0
 40
1.5
  0
ARC
  5
5FC
330
1F
100
AcDbEntity
  8
0
100
AcDbCircle
 10
80.18454962301518
 20
175.9738177244594
 30
0.0
 40
2.1
100
AcDbArc
 50
0.0
 51
180.0
  0
CIRCLE
  5
5FD
330
1F
100
AcDbEntity
  8
0
100
AcDbCircle
 10
69.28454962301419
 20
203.7538177244604
 30
0.0
 40
2.0
  0
CIRCLE
  5
5FE
330
1F
100
AcDbEntity
  8
0
100
AcDbCircle
 10
69.28454962301419
 20
203.7538177244604
 30
0.0
 40
2.0
  0
CIRCLE
  5
5FF
330
1F
100
AcDbEntity
  8
0
100
AcDbCircle
 10
69.28454962301419
 20
198.6738177244594
 30
0.0
 40
2.0
  0
CIRCLE
  5
600
330
1F
100
AcDbEntity
  8
0
100
AcDbCircle
 10
69.28454962301419
 20
198.6738177244594
 30
0.0
 40
2.0
  0
CIRCLE
  5
601
330
1F
100
AcDbEntity
  8
0
100
AcDbCircle
 10
69.28454962301419
 20
208.8338177244593
 30
0.0
 40
2.0
  0
LINE
  5
602
330
1F
100
AcDbEntity
  8
0
100
AcDbLine
 10
104.6845496230139
 20
164.4738177244593
 30
0.0
 11
104.6845496230139
 21
180.9738177244594
 31
0.0
  0
LINE
  5
603
330
1F
100
AcDbEntity
  8
0
100
AcDbLine
 10
85.68454962301519
 20
175.9738177244594
 30
0.0
 11
85.68454962301519
 21
170.9738177244593
 31
0.0
  0
LINE
  5
604
330
1F
100
AcDbEntity
  8
0
100
AcDbLine
 10
85.68454962301414
 20
164.4738177244593
 30
0.0
 11
85.68454962301414
 21
180.9738177244594
 31
0.0
  0
ARC
  5
605
330
1F
100
AcDbEntity
  8
0
100
AcDbCircle
 10
95.18454962301417
 20
173.9738177244594
 30
0.0
 40
7.5
100
AcDbArc
 50
180.0
 51
0.0
  0
LINE
  5
606
330
1F
100
AcDbEntity
  8
0
100
AcDbLine
 10
104.6845496230139
 20
164.4738177244593
 30
0.0
 11
85.68454962301414
 21
164.4738177244593
 31
0.0
  0
ARC
  5
607
330
1F
100
AcDbEntity
  8
0
100
AcDbCircle
 10
95.18454962301417
 20
173.9738177244594
 30
0.0
 40
9.5
100
AcDbArc
 50
186.0423284190535
 51
353.9576715809463
  0
LINE
  5
608
330
1F
100
AcDbEntity
  8
0
100
AcDbLine
 10
87.75151524935507
 20
172.9738177244594
 30
0.0
 11
85.73732780916918
 21
172.9738177244594
 31
0.0
  0
LINE
  5
609
330
1F
100
AcDbEntity
  8
0
100
AcDbLine
 10
104.6845496230139
 20
170.9738177244593
 30
0.0
 11
108.1845496230151
 21
170.9738177244593
 31
0.0
  0
LINE
  5
60A
330
1F
100
AcDbEntity
  8
0
100
AcDbLine
 10
104.6317714368599
 20
172.9738177244594
 30
0.0
 11
102.6175839966739
 21
172.9738177244594
 31
0.0
  0
ARC
  5
60B
330
1F
100
AcDbEntity
  8
0
100
AcDbCircle
 10
108.1845496230151
 20
171.9738177244594
 30
0.0
 40
1.0
100
AcDbArc
 50
270.0
 51
0.0
  0
LINE
  5
60C
330
1F
100
AcDbEntity
  8
0
100
AcDbLine
 10
100.2845496230138
 20
191.4738177244594
 30
0.0
 11
93.78454962301418
 21
191.4738177244594
 31
0.0
  0
LINE
  5
60D
330
1F
100
AcDbEntity
  8
0
100
AcDbLine
 10
91.6845496230152
 20
192.9738177244594
 30
0.0
 11
99.98454962301515
 21
192.9738177244594
 31
0.0
  0
LINE
  5
60E
330
1F
100
AcDbEntity
  8
0
100
AcDbLine
 10
90.88454962301524
 20
193.9738177244594
 30
0.0
 11
99.98454962301515
 21
193.9738177244594
 31
0.0
  0
LINE
  5
60F
330
1F
100
AcDbEntity
  8
0
100
AcDbLine
 10
93.78454962301418
 20
185.9738177244594
 30
0.0
 11
100.2845496230138
 21
185.9738177244594
 31
0.0
  0
LINE
  5
610
330
1F
100
AcDbEntity
  8
0
100
AcDbLine
 10
101.184549744933
 20
185.1738175651153
 30
0.0
 11
89.7845497449323
 21
185.1738175651153
 31
0.0
  0
LINE
  5
611
330
1F
100
AcDbEntity
  8
0
100
AcDbLine
 10
87.68454962301404
 20
180.9738177244594
 30
0.0
 11
87.68454962301404
 21
173.9738177244594
 31
0.0
  0
CIRCLE
  5
612
330
1F
100
AcDbEntity
  8
0
100
AcDbCircle
 10
96.85454962301399
 20
189.9738177244594
 30
0.0
 40
0.32
  0
LINE
  5
613
330
1F
100
AcDbEntity
  8
0
100
AcDbLine
 10
94.78454962301418
 20
189.4738177244594
 30
0.0
 11
93.78454962301418
 21
189.4738177244594
 31
0.0
  0
CIRCLE
  5
614
330
1F
100
AcDbEntity
  8
0
100
AcDbCircle
 10
96.85454962301399
 20
187.4738177244594
 30
0.0
 40
0.32
  0
LINE
  5
615
330
1F
100
AcDbEntity
  8
0
100
AcDbLine
 10
93.78454962301418
 20
187.9738177244594
 30
0.0
 11
94.78454962301418
 21
187.9738177244594
 31
0.0
  0
LINE
  5
616
330
1F
100
AcDbEntity
  8
0
100
AcDbLine
 10
93.78454962301418
 20
185.9738177244594
 30
0.0
 11
94.78454962301418
 21
185.9738177244594
 31
0.0
  0
LINE
  5
617
330
1F
100
AcDbEntity
  8
0
100
AcDbLine
 10
94.78454962301418
 20
187.9738177244594
 30
0.0
 11
94.78454962301418
 21
189.4738177244594
 31
0.0
  0
LINE
  5
618
330
1F
100
AcDbEntity
  8
0
100
AcDbLine
 10
93.78454962301418
 20
189.4738177244594
 30
0.0
 11
93.78454962301418
 21
187.9738177244594
 31
0.0
  0
LINE
  5
619
330
1F
100
AcDbEntity
  8
0
100
AcDbLine
 10
94.78454962301418
 20
185.9738177244594
 30
0.0
 11
94.78454962301418
 21
191.4738177244594
 31
0.0
  0
LINE
  5
61A
330
1F
100
AcDbEntity
  8
0
100
AcDbLine
 10
93.78454962301418
 20
191.4738177244594
 30
0.0
 11
93.78454962301418
 21
185.9738177244594
 31
0.0
  0
ARC
  5
61B
330
1F
100
AcDbEntity
  8
0
100
AcDbCircle
 10
91.6845496230152
 20
193.4738177244594
 30
0.0
 40
0.5
100
AcDbArc
 50
180.0
 51
270.0
  0
LINE
  5
61C
330
1F
100
AcDbEntity
  8
0
100
AcDbLine
 10
91.1845496230152
 20
193.9738177244594
 30
0.0
 11
91.1845496230152
 21
193.4738177244594
 31
0.0
  0
ARC
  5
61D
330
1F
100
AcDbEntity
  8
0
100
AcDbCircle
 10
96.63454962301523
 20
204.0901008670513
 30
0.0
 40
2.0
100
AcDbArc
 50
285.0000000000008
 51
0.0
  0
LINE
  5
61E
330
1F
100
AcDbEntity
  8
0
100
AcDbLine
 10
98.63454962301524
 20
197.9738177244594
 30
0.0
 11
98.63454962301524
 21
200.3738177244594
 31
0.0
  0
ARC
  5
61F
330
1F
100
AcDbEntity
  8
0
100
AcDbCircle
 10
94.33454962301516
 20
203.4738177244594
 30
0.0
 40
2.0
100
AcDbArc
 50
180.0
 51
285.0000000000008
  0
LINE
  5
620
330
1F
100
AcDbEntity
  8
0
100
AcDbLine
 10
92.33454962301513
 20
200.3738177244594
 30
0.0
 11
92.33454962301513
 21
197.9738177244594
 31
0.0
  0
LINE
  5
621
330
1F
100
AcDbEntity
  8
0
100
AcDbLine
 10
94.85218771322022
 20
201.5419660718813
 30
0.0
 11
97.15218771322021
 21
202.1582492144723
 31
0.0
  0
LINE
  5
622
330
1F
100
AcDbEntity
  8
0
100
AcDbLine
 10
93.88454962301523
 20
202.9738177244594
 30
0.0
 11
97.08454962301516
 21
202.9738177244594
 31
0.0
  0
LINE
  5
623
330
1F
100
AcDbEntity
  8
0
100
AcDbLine
 10
92.33454962301513
 20
200.3738177244594
 30
0.0
 11
98.63454962301524
 21
200.3738177244594
 31
0.0
  0
LINE
  5
624
330
1F
100
AcDbEntity
  8
0
100
AcDbLine
 10
92.33454962301513
 20
198.4738177244594
 30
0.0
 11
98.63454962301524
 21
198.4738177244594
 31
0.0
  0
LINE
  5
625
330
1F
100
AcDbEntity
  8
0
100
AcDbLine
 10
92.33454962301513
 20
197.9738177244594
 30
0.0
 11
98.63454962301524
 21
197.9738177244594
 31
0.0
  0
CIRCLE
  5
626
330
1F
100
AcDbEntity
  8
0
100
AcDbCircle
 10
95.48454962301523
 20
195.9438177244589
 30
0.0
 40
1.399999999999999
  0
LINE
  5
627
330
1F
100
AcDbEntity
  8
0
100
AcDbLine
 10
102.6845496230138
 20
180.9738177244594
 30
0.0
 11
102.6845496230138
 21
173.9738177244594
 31
0.0
  0
LINE
  5
628
330
1F
100
AcDbEntity
  8
0
100
AcDbLine
 10
100.2845496230138
 20
185.9738177244594
 30
0.0
 11
100.2845496230138
 21
191.4738177244594
 31
0.0
  0
LINE
  5
629
330
1F
100
AcDbEntity
  8
0
100
AcDbLine
 10
99.98454962301515
 20
210.3038177244604
 30
0.0
 11
100.284549623015
 21
210.3038177244604
 31
0.0
  0
LINE
  5
62A
330
1F
100
AcDbEntity
  8
0
100
AcDbLine
 10
99.98454962301515
 20
209.0338177244604
 30
0.0
 11
100.284549623015
 21
209.0338177244604
 31
0.0
  0
LINE
  5
62B
330
1F
100
AcDbEntity
  8
0
100
AcDbLine
 10
99.98454962301515
 20
207.7638177244601
 30
0.0
 11
100.284549623015
 21
207.7638177244601
 31
0.0
  0
LINE
  5
62C
330
1F
100
AcDbEntity
  8
0
100
AcDbLine
 10
99.98454962301515
 20
207.7638177244601
 30
0.0
 11
100.284549623015
 21
207.7638177244601
 31
0.0
  0
LINE
  5
62D
330
1F
100
AcDbEntity
  8
0
100
AcDbLine
 10
99.98454962301515
 20
206.4938177244604
 30
0.0
 11
100.284549623015
 21
206.4938177244604
 31
0.0
  0
LINE
  5
62E
330
1F
100
AcDbEntity
  8
0
100
AcDbLine
 10
99.98454962301515
 20
205.2238177244604
 30
0.0
 11
100.284549623015
 21
205.2238177244604
 31
0.0
  0
LINE
  5
62F
330
1F
100
AcDbEntity
  8
0
100
AcDbLine
 10
99.98454962301515
 20
203.9538177244601
 30
0.0
 11
100.284549623015
 21
203.9538177244601
 31
0.0
  0
LINE
  5
630
330
1F
100
AcDbEntity
  8
0
100
AcDbLine
 10
99.98454962301515
 20
200.3738177244594
 30
0.0
 11
100.284549623015
 21
200.3738177244594
 31
0.0
  0
ARC
  5
631
330
1F
100
AcDbEntity
  8
0
100
AcDbCircle
 10
99.98454962301515
 20
193.2738177244594
 30
0.0
 40
0.3
100
AcDbArc
 50
270.0
 51
0.0
  0
LINE
  5
632
330
1F
100
AcDbEntity
  8
0
100
AcDbLine
 10
100.284549623015
 20
200.3738177244594
 30
0.0
 11
100.284549623015
 21
193.2738177244594
 31
0.0
  0
ARC
  5
633
330
1F
100
AcDbEntity
  8
0
100
AcDbCircle
 10
80.18454962301518
 20
359.9738177244595
 30
0.0
 40
5.5
100
AcDbArc
 50
294.6199773286556
 51
0.0
  0
LINE
  5
634
330
1F
100
AcDbEntity
  8
0
100
AcDbLine
 10
55.18454962301518
 20
364.9738177244593
 30
0.0
 11
108.1845496230151
 21
364.9738177244593
 31
0.0
  0
LINE
  5
635
330
1F
100
AcDbEntity
  8
0
100
AcDbLine
 10
57.18454962301507
 20
354.9738177244593
 30
0.0
 11
109.1845496230151
 21
354.9738177244593
 31
0.0
  0
LINE
  5
636
330
1F
100
AcDbEntity
  8
0
100
AcDbLine
 10
107.184549623015
 20
352.9738177244593
 30
0.0
 11
59.18454962301519
 21
352.9738177244593
 31
0.0
  0
LINE
  5
637
330
1F
100
AcDbEntity
  8
0
100
AcDbLine
 10
106.8845496230142
 20
352.7738177244593
 30
0.0
 11
59.28454962301419
 21
352.7738177244593
 31
0.0
  0
LINE
  5
638
330
1F
100
AcDbEntity
  8
0
100
AcDbLine
 10
55.18454962301518
 20
364.9738177244593
 30
0.0
 11
108.1845496230151
 21
364.9738177244593
 31
0.0
  0
CIRCLE
  5
639
330
1F
100
AcDbEntity
  8
0
100
AcDbCircle
 10
80.18454962301518
 20
359.9738177244595
 30
0.0
 40
2.1
  0
LINE
  5
63A
330
1F
100
AcDbEntity
  8
0
100
AcDbLine
 10
74.68454962301518
 20
359.9738177244595
 30
0.0
 11
74.68454962301518
 21
364.9738177244593
 31
0.0
  0
LINE
  5
63B
330
1F
100
AcDbEntity
  8
0
100
AcDbLine
 10
76.1295496230142
 20
301.1338177244591
 30
0.0
 11
76.1295496230142
 21
276.9738177244594
 31
0.0
  0
LINE
  5
63C
330
1F
100
AcDbEntity
  8
0
100
AcDbLine
 10
76.58454974493213
 20
302.1738175651151
 30
0.0
 11
76.58454974493213
 21
275.9738175651154
 31
0.0
  0
LINE
  5
63D
330
1F
100
AcDbEntity
  8
0
100
AcDbLine
 10
67.78454962301418
 20
301.1338177244591
 30
0.0
 11
67.78454962301418
 21
276.9738177244594
 31
0.0
  0
LINE
  5
63E
330
1F
100
AcDbEntity
  8
0
100
AcDbLine
 10
74.76954962301419
 20
301.1338177244591
 30
0.0
 11
74.76954962301419
 21
276.9738177244594
 31
0.0
  0
LINE
  5
63F
330
1F
100
AcDbEntity
  8
0
100
AcDbLine
 10
66.78454962301419
 20
301.1338177244591
 30
0.0
 11
66.78454962301419
 21
276.9738177244594
 31
0.0
  0
LINE
  5
640
330
1F
100
AcDbEntity
  8
0
100
AcDbLine
 10
64.18454974493204
 20
302.1738175651151
 30
0.0
 11
64.18454974493204
 21
275.9738175651154
 31
0.0
  0
LINE
  5
641
330
1F
100
AcDbEntity
  8
0
100
AcDbLine
 10
65.28454962301509
 20
275.9738175651154
 30
0.0
 11
65.28454962301509
 21
302.1738175651151
 31
0.0
  0
LINE
  5
642
330
1F
100
AcDbEntity
  8
0
100
AcDbLine
 10
72.28454962301419
 20
252.5438177244594
 30
0.0
 11
72.28454962301419
 21
247.5438177244594
 31
0.0
  0
LINE
  5
643
330
1F
100
AcDbEntity
  8
0
100
AcDbLine
 10
67.28454962301419
 20
251.7538177244594
 30
0.0
 11
67.28454962301419
 21
248.3338177244589
 31
0.0
  0
LINE
  5
644
330
1F
100
AcDbEntity
  8
0
100
AcDbLine
 10
74.78454974493229
 20
256.5738175651154
 30
0.0
 11
74.78454974493229
 21
243.1738175651153
 31
0.0
  0
LINE
  5
645
330
1F
100
AcDbEntity
  8
0
100
AcDbLine
 10
73.78454962301418
 20
234.6138177244593
 30
0.0
 11
73.78454962301418
 21
265.113817724459
 31
0.0
  0
LINE
  5
646
330
1F
100
AcDbEntity
  8
0
100
AcDbLine
 10
65.28454962301418
 20
270.4738177244594
 30
0.0
 11
65.28454962301418
 21
229.6138177244594
 31
0.0
  0
ARC
  5
647
330
1F
100
AcDbEntity
  8
0
100
AcDbCircle
 10
69.28454962301419
 20
238.6138177244593
 30
0.0
 40
2.9
100
AcDbArc
 50
133.6028189726984
 51
226.3971810273015
  0
LINE
  5
648
330
1F
100
AcDbEntity
  8
0
100
AcDbLine
 10
65.28454962301418
 20
229.6138177244594
 30
0.0
 11
72.28454962301419
 21
229.6138177244594
 31
0.0
  0
LINE
  5
649
330
1F
100
AcDbEntity
  8
0
100
AcDbLine
 10
65.28454962301418
 20
229.6138177244594
 30
0.0
 11
72.28454962301419
 21
229.6138177244594
 31
0.0
  0
LINE
  5
64A
330
1F
100
AcDbEntity
  8
0
100
AcDbLine
 10
73.88454962301421
 20
226.6138177244594
 30
0.0
 11
65.28454962301418
 21
226.6138177244594
 31
0.0
  0
ARC
  5
64B
330
1F
100
AcDbEntity
  8
0
100
AcDbCircle
 10
69.28454962301419
 20
246.2338177244594
 30
0.0
 40
2.9
100
AcDbArc
 50
133.6028189726984
 51
226.3971810273015
  0
LINE
  5
64C
330
1F
100
AcDbEntity
  8
0
100
AcDbLine
 10
65.28454962301418
 20
234.8538177244594
 30
0.0
 11
65.28454962301418
 21
229.6138177244594
 31
0.0
  0
LINE
  5
64D
330
1F
100
AcDbEntity
  8
0
100
AcDbLine
 10
72.28454962301419
 20
229.6138177244594
 30
0.0
 11
72.28454962301419
 21
234.6138177244593
 31
0.0
  0
LINE
  5
64E
330
1F
100
AcDbEntity
  8
0
100
AcDbLine
 10
72.28454962301419
 20
229.6138177244594
 30
0.0
 11
72.28454962301419
 21
234.8538177244594
 31
0.0
  0
CIRCLE
  5
64F
330
1F
100
AcDbEntity
  8
0
100
AcDbCircle
 10
69.28454962301419
 20
223.7438177244603
 30
0.0
 40
1.0
  0
CIRCLE
  5
650
330
1F
100
AcDbEntity
  8
0
100
AcDbCircle
 10
69.28454962301419
 20
223.7438177244603
 30
0.0
 40
1.5
  0
CIRCLE
  5
651
330
1F
100
AcDbEntity
  8
0
100
AcDbCircle
 10
69.28454962301419
 20
213.9138177244594
 30
0.0
 40
2.0
  0
CIRCLE
  5
652
330
1F
100
AcDbEntity
  8
0
100
AcDbCircle
 10
69.28454962301419
 20
213.9138177244594
 30
0.0
 40
2.0
  0
CIRCLE
  5
653
330
1F
100
AcDbEntity
  8
0
100
AcDbCircle
 10
69.28454962301419
 20
218.9938177244601
 30
0.0
 40
2.0
  0
LINE
  5
654
330
1F
100
AcDbEntity
  8
0
100
AcDbLine
 10
74.78454974493229
 20
243.1738175651153
 30
0.0
 11
76.38454974493196
 21
243.1738175651153
 31
0.0
  0
LINE
  5
655
330
1F
100
AcDbEntity
  8
0
100
AcDbLine
 10
73.78454962301418
 20
242.1638177244594
 30
0.0
 11
75.48454962301423
 21
242.1638177244594
 31
0.0
  0
LINE
  5
656
330
1F
100
AcDbEntity
  8
0
100
AcDbLine
 10
75.48454962301423
 20
240.5638177244593
 30
0.0
 11
73.78454962301418
 21
240.5638177244593
 31
0.0
  0
LINE
  5
657
330
1F
100
AcDbEntity
  8
0
100
AcDbLine
 10
74.78454974493229
 20
239.5738175651154
 30
0.0
 11
76.38454974493196
 21
239.5738175651154
 31
0.0
  0
LINE
  5
658
330
1F
100
AcDbEntity
  8
0
100
AcDbLine
 10
71.48454962301423
 20
247.5438177244594
 30
0.0
 11
72.28454962301419
 21
247.5438177244594
 31
0.0
  0
LINE
  5
659
330
1F
100
AcDbEntity
  8
0
100
AcDbLine
 10
71.48454962301423
 20
244.9238177244594
 30
0.0
 11
72.28454962301419
 21
244.9238177244594
 31
0.0
  0
LINE
  5
65A
330
1F
100
AcDbEntity
  8
0
100
AcDbLine
 10
71.48454962301423
 20
247.5438177244594
 30
0.0
 11
71.48454962301423
 21
244.9238177244594
 31
0.0
  0
CIRCLE
  5
65B
330
1F
100
AcDbEntity
  8
0
100
AcDbCircle
 10
69.28454962301419
 20
246.2338177244594
 30
0.0
 40
0.75
  0
LINE
  5
65C
330
1F
100
AcDbEntity
  8
0
100
AcDbLine
 10
71.48454962301423
 20
239.9238177244594
 30
0.0
 11
72.28454962301419
 21
239.9238177244594
 31
0.0
  0
LINE
  5
65D
330
1F
100
AcDbEntity
  8
0
100
AcDbLine
 10
72.28454962301419
 20
234.6138177244593
 30
0.0
 11
73.78454962301418
 21
234.6138177244593
 31
0.0
  0
LINE
  5
65E
330
1F
100
AcDbEntity
  8
0
100
AcDbLine
 10
71.48454962301423
 20
237.3038177244594
 30
0.0
 11
72.28454962301419
 21
237.3038177244594
 31
0.0
  0
LINE
  5
65F
330
1F
100
AcDbEntity
  8
0
100
AcDbLine
 10
72.28454962301419
 20
237.3038177244594
 30
0.0
 11
72.28454962301419
 21
235.6138177244594
 31
0.0
  0
LINE
  5
660
330
1F
100
AcDbEntity
  8
0
100
AcDbLine
 10
71.48454962301423
 20
239.9238177244594
 30
0.0
 11
71.48454962301423
 21
237.3038177244594
 31
0.0
  0
LINE
  5
661
330
1F
100
AcDbEntity
  8
0
100
AcDbLine
 10
67.28454962301419
 20
244.1338177244594
 30
0.0
 11
67.28454962301419
 21
240.7138177244593
 31
0.0
  0
LINE
  5
662
330
1F
100
AcDbEntity
  8
0
100
AcDbLine
 10
67.28454962301419
 20
236.5138177244594
 30
0.0
 11
67.28454962301419
 21
235.6138177244594
 31
0.0
  0
CIRCLE
  5
663
330
1F
100
AcDbEntity
  8
0
100
AcDbCircle
 10
69.28454962301419
 20
238.6138177244593
 30
0.0
 40
0.75
  0
CIRCLE
  5
664
330
1F
100
AcDbEntity
  8
0
100
AcDbCircle
 10
69.24816356261111
 20
232.5138177244594
 30
0.0
 40
0.9
  0
LINE
  5
665
330
1F
100
AcDbEntity
  8
0
100
AcDbLine
 10
67.28454962301419
 20
235.6138177244594
 30
0.0
 11
72.28454962301419
 21
235.6138177244594
 31
0.0
  0
CIRCLE
  5
666
330
1F
100
AcDbEntity
  8
0
100
AcDbCircle
 10
69.28454962301419
 20
238.6138177244593
 30
0.0
 40
1.5
  0
CIRCLE
  5
667
330
1F
100
AcDbEntity
  8
0
100
AcDbCircle
 10
69.24816356261111
 20
232.5138177244594
 30
0.0
 40
2.0
  0
LINE
  5
668
330
1F
100
AcDbEntity
  8
0
100
AcDbLine
 10
72.28454962301419
 20
244.9238177244594
 30
0.0
 11
72.28454962301419
 21
239.9238177244594
 31
0.0
  0
CIRCLE
  5
669
330
1F
100
AcDbEntity
  8
0
100
AcDbCircle
 10
69.28454962301419
 20
246.2338177244594
 30
0.0
 40
1.5
  0
LINE
  5
66A
330
1F
100
AcDbEntity
  8
0
100
AcDbLine
 10
75.48454962301423
 20
242.1638177244594
 30
0.0
 11
75.48454962301423
 21
240.5638177244593
 31
0.0
  0
LINE
  5
66B
330
1F
100
AcDbEntity
  8
0
100
AcDbLine
 10
76.38454974493196
 20
243.1738175651153
 30
0.0
 11
76.38454974493196
 21
239.5738175651154
 31
0.0
  0
LINE
  5
66C
330
1F
100
AcDbEntity
  8
0
100
AcDbLine
 10
66.78454962301419
 20
276.9738177244594
 30
0.0
 11
76.1295496230142
 21
276.9738177244594
 31
0.0
  0
LINE
  5
66D
330
1F
100
AcDbEntity
  8
0
100
AcDbLine
 10
64.18454974493204
 20
271.4738175651153
 30
0.0
 11
74.78454974493229
 21
271.4738175651153
 31
0.0
  0
LINE
  5
66E
330
1F
100
AcDbEntity
  8
0
100
AcDbLine
 10
65.28454962301418
 20
270.4738177244594
 30
0.0
 11
72.28454962301419
 21
270.4738177244594
 31
0.0
  0
LINE
  5
66F
330
1F
100
AcDbEntity
  8
0
100
AcDbLine
 10
65.28454962301418
 20
270.4738177244594
 30
0.0
 11
72.28454962301419
 21
270.4738177244594
 31
0.0
  0
ARC
  5
670
330
1F
100
AcDbEntity
  8
0
100
AcDbCircle
 10
69.28454962301419
 20
253.853817724459
 30
0.0
 40
2.9
100
AcDbArc
 50
133.6028189726984
 51
226.3971810273015
  0
ARC
  5
671
330
1F
100
AcDbEntity
  8
0
100
AcDbCircle
 10
69.28454962301419
 20
261.4738177244594
 30
0.0
 40
2.9
100
AcDbArc
 50
133.6028189726984
 51
226.3971810273015
  0
LINE
  5
672
330
1F
100
AcDbEntity
  8
0
100
AcDbLine
 10
64.18454974493204
 20
275.9738175651154
 30
0.0
 11
76.58454974493213
 21
275.9738175651154
 31
0.0
  0
LINE
  5
673
330
1F
100
AcDbEntity
  8
0
100
AcDbLine
 10
65.28454962301418
 20
265.2338177244593
 30
0.0
 11
65.28454962301418
 21
270.4738177244594
 31
0.0
  0
LINE
  5
674
330
1F
100
AcDbEntity
  8
0
100
AcDbLine
 10
66.78454962301419
 20
284.4738177244593
 30
0.0
 11
65.28454962301509
 21
284.4738177244591
 31
0.0
  0
LINE
  5
675
330
1F
100
AcDbEntity
  8
0
100
AcDbLine
 10
65.28454962301509
 20
283.4738177244592
 30
0.0
 11
66.78454962301419
 21
283.4738177244592
 31
0.0
  0
LINE
  5
676
330
1F
100
AcDbEntity
  8
0
100
AcDbLine
 10
66.78454962301419
 20
283.4738177244592
 30
0.0
 11
66.78454962301419
 21
284.4738177244593
 31
0.0
  0
LINE
  5
677
330
1F
100
AcDbEntity
  8
0
100
AcDbLine
 10
66.78454962301419
 20
279.9738177244594
 30
0.0
 11
65.28454962301418
 21
279.9738177244594
 31
0.0
  0
LINE
  5
678
330
1F
100
AcDbEntity
  8
0
100
AcDbLine
 10
65.28454962301418
 20
276.9738177244594
 30
0.0
 11
66.78454962301419
 21
276.9738177244594
 31
0.0
  0
LINE
  5
679
330
1F
100
AcDbEntity
  8
0
100
AcDbLine
 10
66.78454962301419
 20
276.9738177244594
 30
0.0
 11
66.78454962301419
 21
277.9738177244594
 31
0.0
  0
LINE
  5
67A
330
1F
100
AcDbEntity
  8
0
100
AcDbLine
 10
66.78454962301419
 20
276.9738177244594
 30
0.0
 11
66.78454962301419
 21
279.9738177244594
 31
0.0
  0
LINE
  5
67B
330
1F
100
AcDbEntity
  8
0
100
AcDbLine
 10
65.28454962301418
 20
279.9738177244594
 30
0.0
 11
65.28454962301418
 21
276.9738177244594
 31
0.0
  0
LINE
  5
67C
330
1F
100
AcDbEntity
  8
0
100
AcDbLine
 10
72.28454962301419
 20
265.4738177244594
 30
0.0
 11
72.28454962301419
 21
270.4738177244594
 31
0.0
  0
LINE
  5
67D
330
1F
100
AcDbEntity
  8
0
100
AcDbLine
 10
72.28454962301419
 20
270.4738177244594
 30
0.0
 11
72.28454962301419
 21
265.2338177244593
 31
0.0
  0
CIRCLE
  5
67E
330
1F
100
AcDbEntity
  8
0
100
AcDbCircle
 10
69.28454962301419
 20
267.5738177244592
 30
0.0
 40
0.9
  0
CIRCLE
  5
67F
330
1F
100
AcDbEntity
  8
0
100
AcDbCircle
 10
69.28454962301419
 20
267.5738177244592
 30
0.0
 40
2.0
  0
LINE
  5
680
330
1F
100
AcDbEntity
  8
0
100
AcDbLine
 10
74.78454974493229
 20
271.4738175651153
 30
0.0
 11
74.78454974493229
 21
260.1738175651151
 31
0.0
  0
LINE
  5
681
330
1F
100
AcDbEntity
  8
0
100
AcDbLine
 10
74.78454974493229
 20
260.1738175651151
 30
0.0
 11
76.38454974493196
 21
260.1738175651151
 31
0.0
  0
LINE
  5
682
330
1F
100
AcDbEntity
  8
0
100
AcDbLine
 10
75.48454962301423
 20
259.1638177244594
 30
0.0
 11
73.78454962301418
 21
259.1638177244594
 31
0.0
  0
LINE
  5
683
330
1F
100
AcDbEntity
  8
0
100
AcDbLine
 10
74.78454974493229
 20
256.5738175651154
 30
0.0
 11
76.38454974493196
 21
256.5738175651154
 31
0.0
  0
LINE
  5
684
330
1F
100
AcDbEntity
  8
0
100
AcDbLine
 10
75.48454962301423
 20
257.563817724459
 30
0.0
 11
73.78454962301418
 21
257.563817724459
 31
0.0
  0
LINE
  5
685
330
1F
100
AcDbEntity
  8
0
100
AcDbLine
 10
72.28454962301419
 20
265.4738177244594
 30
0.0
 11
73.78454962301418
 21
265.4738177244594
 31
0.0
  0
LINE
  5
686
330
1F
100
AcDbEntity
  8
0
100
AcDbLine
 10
73.78454962301418
 20
265.4738177244594
 30
0.0
 11
73.78454962301418
 21
265.113817724459
 31
0.0
  0
LINE
  5
687
330
1F
100
AcDbEntity
  8
0
100
AcDbLine
 10
67.28454962301419
 20
264.113817724459
 30
0.0
 11
67.28454962301419
 21
263.5738177244592
 31
0.0
  0
LINE
  5
688
330
1F
100
AcDbEntity
  8
0
100
AcDbLine
 10
72.28454962301419
 20
264.113817724459
 30
0.0
 11
67.28454962301419
 21
264.113817724459
 31
0.0
  0
LINE
  5
689
330
1F
100
AcDbEntity
  8
0
100
AcDbLine
 10
71.48454962301423
 20
262.7838177244594
 30
0.0
 11
72.28454962301419
 21
262.7838177244594
 31
0.0
  0
LINE
  5
68A
330
1F
100
AcDbEntity
  8
0
100
AcDbLine
 10
71.48454962301423
 20
260.1638177244594
 30
0.0
 11
72.28454962301419
 21
260.1638177244594
 31
0.0
  0
LINE
  5
68B
330
1F
100
AcDbEntity
  8
0
100
AcDbLine
 10
71.48454962301423
 20
262.7838177244594
 30
0.0
 11
71.48454962301423
 21
260.1638177244594
 31
0.0
  0
LINE
  5
68C
330
1F
100
AcDbEntity
  8
0
100
AcDbLine
 10
71.48454962301423
 20
255.1638177244594
 30
0.0
 11
72.28454962301419
 21
255.1638177244594
 31
0.0
  0
LINE
  5
68D
330
1F
100
AcDbEntity
  8
0
100
AcDbLine
 10
71.48454962301423
 20
252.5438177244594
 30
0.0
 11
72.28454962301419
 21
252.5438177244594
 31
0.0
  0
LINE
  5
68E
330
1F
100
AcDbEntity
  8
0
100
AcDbLine
 10
71.48454962301423
 20
255.1638177244594
 30
0.0
 11
71.48454962301423
 21
252.5438177244594
 31
0.0
  0
LINE
  5
68F
330
1F
100
AcDbEntity
  8
0
100
AcDbLine
 10
72.28454962301419
 20
260.1638177244594
 30
0.0
 11
72.28454962301419
 21
255.1638177244594
 31
0.0
  0
CIRCLE
  5
690
330
1F
100
AcDbEntity
  8
0
100
AcDbCircle
 10
69.28454962301419
 20
261.4738177244594
 30
0.0
 40
0.75
  0
CIRCLE
  5
691
330
1F
100
AcDbEntity
  8
0
100
AcDbCircle
 10
69.28454962301419
 20
253.853817724459
 30
0.0
 40
0.75
  0
LINE
  5
692
330
1F
100
AcDbEntity
  8
0
100
AcDbLine
 10
67.28454962301419
 20
259.373817724459
 30
0.0
 11
67.28454962301419
 21
255.9538177244589
 31
0.0
  0
CIRCLE
  5
693
330
1F
100
AcDbEntity
  8
0
100
AcDbCircle
 10
69.28454962301419
 20
261.4738177244594
 30
0.0
 40
1.5
  0
CIRCLE
  5
694
330
1F
100
AcDbEntity
  8
0
100
AcDbCircle
 10
69.28454962301419
 20
253.853817724459
 30
0.0
 40
1.5
  0
LINE
  5
695
330
1F
100
AcDbEntity
  8
0
100
AcDbLine
 10
72.28454962301419
 20
264.113817724459
 30
0.0
 11
72.28454962301419
 21
262.7838177244594
 31
0.0
  0
LINE
  5
696
330
1F
100
AcDbEntity
  8
0
100
AcDbLine
 10
76.38454974493196
 20
260.1738175651151
 30
0.0
 11
76.38454974493196
 21
256.5738175651154
 31
0.0
  0
LINE
  5
697
330
1F
100
AcDbEntity
  8
0
100
AcDbLine
 10
75.48454962301423
 20
259.1638177244594
 30
0.0
 11
75.48454962301423
 21
257.563817724459
 31
0.0
  0
LINE
  5
698
330
1F
100
AcDbEntity
  8
0
100
AcDbLine
 10
71.78454962301419
 20
284.9738177244593
 30
0.0
 11
70.78454962301418
 21
284.9738177244593
 31
0.0
  0
LINE
  5
699
330
1F
100
AcDbEntity
  8
0
100
AcDbLine
 10
70.78454962301418
 20
282.9738177244593
 30
0.0
 11
71.78454962301419
 21
282.9738177244593
 31
0.0
  0
LINE
  5
69A
330
1F
100
AcDbEntity
  8
0
100
AcDbLine
 10
71.78454962301419
 20
282.9738177244593
 30
0.0
 11
71.78454962301419
 21
284.9738177244593
 31
0.0
  0
LINE
  5
69B
330
1F
100
AcDbEntity
  8
0
100
AcDbLine
 10
70.78454962301418
 20
284.9738177244593
 30
0.0
 11
70.78454962301418
 21
282.9738177244593
 31
0.0
  0
LINE
  5
69C
330
1F
100
AcDbEntity
  8
0
100
AcDbLine
 10
67.78454962301418
 20
277.9738177244594
 30
0.0
 11
74.76954962301419
 21
277.9738177244594
 31
0.0
  0
LINE
  5
69D
330
1F
100
AcDbEntity
  8
0
100
AcDbLine
 10
37.6714611488611
 20
354.5152213632413
 30
0.0
 11
55.18454962301518
 21
354.9738177244593
 31
0.0
  0
ARC
  5
69E
330
1F
100
AcDbEntity
  8
0
100
AcDbCircle
 10
37.68454962301518
 20
354.0153927007533
 30
0.0
 40
0.5
100
AcDbArc
 50
91.4999999999962
 51
180.0
  0
LINE
  5
69F
330
1F
100
AcDbEntity
  8
0
100
AcDbLine
 10
77.08454974493213
 20
331.0738175651152
 30
0.0
 11
77.08454974493213
 21
322.8738175651153
 31
0.0
  0
LINE
  5
6A0
330
1F
100
AcDbEntity
  8
0
100
AcDbLine
 10
75.48454962301514
 20
323.4138177244592
 30
0.0
 11
75.48454962301514
 21
330.0538177244593
 31
0.0
  0
LINE
  5
6A1
330
1F
100
AcDbEntity
  8
0
100
AcDbLine
 10
65.28454962301509
 20
323.4138177244592
 30
0.0
 11
65.28454962301509
 21
330.0538177244593
 31
0.0
  0
LINE
  5
6A2
330
1F
100
AcDbEntity
  8
0
100
AcDbLine
 10
64.18454974493204
 20
339.0738175651151
 30
0.0
 11
64.18454974493204
 21
306.0738175651152
 31
0.0
  0
LINE
  5
6A3
330
1F
100
AcDbEntity
  8
0
100
AcDbLine
 10
65.28454962301521
 20
306.0738175651152
 30
0.0
 11
65.28454962301509
 21
339.0738175651151
 31
0.0
  0
LINE
  5
6A4
330
1F
100
AcDbEntity
  8
0
100
AcDbLine
 10
72.5345496230151
 20
322.4138177244593
 30
0.0
 11
65.28454962301418
 21
322.4138177244593
 31
0.0
  0
LINE
  5
6A5
330
1F
100
AcDbEntity
  8
0
100
AcDbLine
 10
75.48454962301514
 20
323.4138177244592
 30
0.0
 11
65.28454962301509
 21
323.4138177244592
 31
0.0
  0
LINE
  5
6A6
330
1F
100
AcDbEntity
  8
0
100
AcDbLine
 10
66.78454962301419
 20
301.1338177244591
 30
0.0
 11
67.78454962301418
 21
301.1338177244591
 31
0.0
  0
LINE
  5
6A7
330
1F
100
AcDbEntity
  8
0
100
AcDbLine
 10
65.28454962301418
 20
307.0138177244594
 30
0.0
 11
72.5345496230151
 21
307.0138177244594
 31
0.0
  0
LINE
  5
6A8
330
1F
100
AcDbEntity
  8
0
100
AcDbLine
 10
64.18454974493204
 20
306.0738175651152
 30
0.0
 11
73.48454974493222
 21
306.0738175651152
 31
0.0
  0
LINE
  5
6A9
330
1F
100
AcDbEntity
  8
0
100
AcDbLine
 10
76.1295496230142
 20
301.1338177244591
 30
0.0
 11
66.78454962301419
 21
301.1338177244591
 31
0.0
  0
LINE
  5
6AA
330
1F
100
AcDbEntity
  8
0
100
AcDbLine
 10
64.18454974493204
 20
302.1738175651151
 30
0.0
 11
76.58454974493213
 21
302.1738175651151
 31
0.0
  0
LINE
  5
6AB
330
1F
100
AcDbEntity
  8
0
100
AcDbLine
 10
66.78454962301419
 20
301.1338177244591
 30
0.0
 11
65.28454962301418
 21
301.1338177244591
 31
0.0
  0
LINE
  5
6AC
330
1F
100
AcDbEntity
  8
0
100
AcDbLine
 10
65.28454962301418
 20
298.1338177244591
 30
0.0
 11
66.78454962301419
 21
298.1338177244591
 31
0.0
  0
LINE
  5
6AD
330
1F
100
AcDbEntity
  8
0
100
AcDbLine
 10
66.78454962301419
 20
293.6338177244591
 30
0.0
 11
66.78454962301419
 21
294.6338177244588
 31
0.0
  0
LINE
  5
6AE
330
1F
100
AcDbEntity
  8
0
100
AcDbLine
 10
65.28454962301509
 20
293.6338177244591
 30
0.0
 11
66.78454962301419
 21
293.6338177244591
 31
0.0
  0
LINE
  5
6AF
330
1F
100
AcDbEntity
  8
0
100
AcDbLine
 10
66.78454962301419
 20
294.6338177244588
 30
0.0
 11
65.28454962301509
 21
294.6338177244588
 31
0.0
  0
LINE
  5
6B0
330
1F
100
AcDbEntity
  8
0
100
AcDbLine
 10
66.78454962301419
 20
288.5538177244594
 30
0.0
 11
66.78454962301419
 21
289.5538177244594
 31
0.0
  0
LINE
  5
6B1
330
1F
100
AcDbEntity
  8
0
100
AcDbLine
 10
65.28454962301509
 20
288.5538177244594
 30
0.0
 11
66.78454962301419
 21
288.5538177244594
 31
0.0
  0
LINE
  5
6B2
330
1F
100
AcDbEntity
  8
0
100
AcDbLine
 10
66.78454962301419
 20
289.5538177244594
 30
0.0
 11
65.28454962301509
 21
289.5538177244594
 31
0.0
  0
LINE
  5
6B3
330
1F
100
AcDbEntity
  8
0
100
AcDbLine
 10
66.78454962301419
 20
301.1338177244591
 30
0.0
 11
66.78454962301419
 21
300.1338177244591
 31
0.0
  0
LINE
  5
6B4
330
1F
100
AcDbEntity
  8
0
100
AcDbLine
 10
66.78454962301419
 20
298.1338177244591
 30
0.0
 11
66.78454962301419
 21
301.1338177244591
 31
0.0
  0
LINE
  5
6B5
330
1F
100
AcDbEntity
  8
0
100
AcDbLine
 10
65.28454962301418
 20
301.1338177244591
 30
0.0
 11
65.28454962301418
 21
298.1338177244591
 31
0.0
  0
LINE
  5
6B6
330
1F
100
AcDbEntity
  8
0
100
AcDbLine
 10
65.28454962301418
 20
322.4138177244593
 30
0.0
 11
65.28454962301418
 21
307.0138177244594
 31
0.0
  0
LINE
  5
6B7
330
1F
100
AcDbEntity
  8
0
100
AcDbLine
 10
75.2695496230142
 20
301.1338177244591
 30
0.0
 11
74.76954962301419
 21
301.1338177244591
 31
0.0
  0
LINE
  5
6B8
330
1F
100
AcDbEntity
  8
0
100
AcDbLine
 10
70.78454962301418
 20
293.1338177244591
 30
0.0
 11
71.78454962301419
 21
293.1338177244591
 31
0.0
  0
LINE
  5
6B9
330
1F
100
AcDbEntity
  8
0
100
AcDbLine
 10
71.78454962301419
 20
293.1338177244591
 30
0.0
 11
71.78454962301419
 21
295.1338177244593
 31
0.0
  0
LINE
  5
6BA
330
1F
100
AcDbEntity
  8
0
100
AcDbLine
 10
71.78454962301419
 20
295.1338177244593
 30
0.0
 11
70.78454962301418
 21
295.1338177244593
 31
0.0
  0
LINE
  5
6BB
330
1F
100
AcDbEntity
  8
0
100
AcDbLine
 10
70.78454962301418
 20
295.1338177244593
 30
0.0
 11
70.78454962301418
 21
293.1338177244591
 31
0.0
  0
LINE
  5
6BC
330
1F
100
AcDbEntity
  8
0
100
AcDbLine
 10
71.78454962301419
 20
290.0538177244594
 30
0.0
 11
70.78454962301418
 21
290.0538177244594
 31
0.0
  0
LINE
  5
6BD
330
1F
100
AcDbEntity
  8
0
100
AcDbLine
 10
70.78454962301418
 20
288.0538177244594
 30
0.0
 11
71.78454962301419
 21
288.0538177244594
 31
0.0
  0
LINE
  5
6BE
330
1F
100
AcDbEntity
  8
0
100
AcDbLine
 10
71.78454962301419
 20
288.0538177244594
 30
0.0
 11
71.78454962301419
 21
290.0538177244594
 31
0.0
  0
LINE
  5
6BF
330
1F
100
AcDbEntity
  8
0
100
AcDbLine
 10
70.78454962301418
 20
290.0538177244594
 30
0.0
 11
70.78454962301418
 21
288.0538177244594
 31
0.0
  0
LINE
  5
6C0
330
1F
100
AcDbEntity
  8
0
100
AcDbLine
 10
67.78454962301418
 20
300.1338177244591
 30
0.0
 11
74.76954962301419
 21
300.1338177244591
 31
0.0
  0
LINE
  5
6C1
330
1F
100
AcDbEntity
  8
0
100
AcDbLine
 10
73.48454974493222
 20
322.8738175651153
 30
0.0
 11
77.08454974493213
 21
322.8738175651153
 31
0.0
  0
CIRCLE
  5
6C2
330
1F
100
AcDbEntity
  8
0
100
AcDbCircle
 10
68.78454962301418
 20
312.9638177244594
 30
0.0
 40
1.0
  0
CIRCLE
  5
6C3
330
1F
100
AcDbEntity
  8
0
100
AcDbCircle
 10
68.78454962301418
 20
316.4638177244593
 30
0.0
 40
1.0
  0
CIRCLE
  5
6C4
330
1F
100
AcDbEntity
  8
0
100
AcDbCircle
 10
68.78454962301418
 20
309.4638177244593
 30
0.0
 40
1.0
  0
CIRCLE
  5
6C5
330
1F
100
AcDbEntity
  8
0
100
AcDbCircle
 10
68.78454962301418
 20
319.9638177244593
 30
0.0
 40
1.0
  0
LINE
  5
6C6
330
1F
100
AcDbEntity
  8
0
100
AcDbLine
 10
72.5345496230151
 20
307.0138177244594
 30
0.0
 11
72.5345496230151
 21
322.4138177244593
 31
0.0
  0
LINE
  5
6C7
330
1F
100
AcDbEntity
  8
0
100
AcDbLine
 10
73.48454974493222
 20
322.8738175651153
 30
0.0
 11
73.48454974493222
 21
306.0738175651152
 31
0.0
  0
CIRCLE
  5
6C8
330
1F
100
AcDbEntity
  8
0
100
AcDbCircle
 10
67.78454974493229
 20
347.7738175651152
 30
0.0
 40
1.399999999999999
  0
CIRCLE
  5
6C9
330
1F
100
AcDbEntity
  8
0
100
AcDbCircle
 10
67.78454974493229
 20
342.9738175651154
 30
0.0
 40
1.399999999999999
  0
LINE
  5
6CA
330
1F
100
AcDbEntity
  8
0
100
AcDbLine
 10
74.08454974493223
 20
339.0738175651151
 30
0.0
 11
64.18454974493204
 21
339.0738175651151
 31
0.0
  0
LINE
  5
6CB
330
1F
100
AcDbEntity
  8
0
100
AcDbLine
 10
73.18454962301415
 20
338.5538177244593
 30
0.0
 11
65.28454962301418
 21
338.5538177244593
 31
0.0
  0
LINE
  5
6CC
330
1F
100
AcDbEntity
  8
0
100
AcDbLine
 10
73.18454962301415
 20
331.0538177244603
 30
0.0
 11
65.28454962301418
 21
331.0538177244603
 31
0.0
  0
LINE
  5
6CD
330
1F
100
AcDbEntity
  8
0
100
AcDbLine
 10
75.48454962301514
 20
330.0538177244593
 30
0.0
 11
65.28454962301509
 21
330.0538177244593
 31
0.0
  0
LINE
  5
6CE
330
1F
100
AcDbEntity
  8
0
100
AcDbLine
 10
65.28454962301509
 20
337.6438177244601
 30
0.0
 11
65.68454962301415
 21
337.6438177244601
 31
0.0
  0
LINE
  5
6CF
330
1F
100
AcDbEntity
  8
0
100
AcDbLine
 10
65.28454962301509
 20
337.0438177244601
 30
0.0
 11
65.68454962301415
 21
337.0438177244601
 31
0.0
  0
LINE
  5
6D0
330
1F
100
AcDbEntity
  8
0
100
AcDbLine
 10
65.28454962301509
 20
335.1038177244601
 30
0.0
 11
65.68454962301415
 21
335.1038177244601
 31
0.0
  0
LINE
  5
6D1
330
1F
100
AcDbEntity
  8
0
100
AcDbLine
 10
65.28454962301509
 20
334.5038177244603
 30
0.0
 11
65.68454962301415
 21
334.5038177244603
 31
0.0
  0
LINE
  5
6D2
330
1F
100
AcDbEntity
  8
0
100
AcDbLine
 10
65.28454962301509
 20
331.9638177244601
 30
0.0
 11
65.68454962301415
 21
331.9638177244601
 31
0.0
  0
LINE
  5
6D3
330
1F
100
AcDbEntity
  8
0
100
AcDbLine
 10
65.28454962301509
 20
332.5638177244603
 30
0.0
 11
65.68454962301415
 21
332.5638177244603
 31
0.0
  0
LINE
  5
6D4
330
1F
100
AcDbEntity
  8
0
100
AcDbLine
 10
65.28454962301418
 20
331.0538177244603
 30
0.0
 11
65.28454962301418
 21
331.9638177244601
 31
0.0
  0
LINE
  5
6D5
330
1F
100
AcDbEntity
  8
0
100
AcDbLine
 10
65.28454962301418
 20
337.6438177244593
 30
0.0
 11
65.28454962301418
 21
338.5538177244593
 31
0.0
  0
LINE
  5
6D6
330
1F
100
AcDbEntity
  8
0
100
AcDbLine
 10
65.68454962301415
 20
331.0538177244603
 30
0.0
 11
65.68454962301415
 21
338.5538177244593
 31
0.0
  0
LINE
  5
6D7
330
1F
100
AcDbEntity
  8
0
100
AcDbLine
 10
55.18454962301518
 20
354.9738177244593
 30
0.0
 11
56.18454962301519
 21
354.9476318028903
 31
0.0
  0
LINE
  5
6D8
330
1F
100
AcDbEntity
  8
0
100
AcDbLine
 10
56.18454962301519
 20
350.9738177244593
 30
0.0
 11
56.19763809716812
 21
350.9741604582171
 31
0.0
  0
LINE
  5
6D9
330
1F
100
AcDbEntity
  8
0
100
AcDbLine
 10
57.18454962301507
 20
354.4738177244591
 30
0.0
 11
56.18454962301519
 21
354.4738177244591
 31
0.0
  0
CIRCLE
  5
6DA
330
1F
100
AcDbEntity
  8
0
100
AcDbCircle
 10
72.8845497449321
 20
342.9738175651154
 30
0.0
 40
1.399999999999999
  0
LINE
  5
6DB
330
1F
100
AcDbEntity
  8
0
100
AcDbLine
 10
75.48454962301514
 20
324.8638177244592
 30
0.0
 11
70.70905469402316
 21
324.8638177244592
 31
0.0
  0
LINE
  5
6DC
330
1F
100
AcDbEntity
  8
0
100
AcDbLine
 10
75.48454962301514
 20
328.6038177244593
 30
0.0
 11
70.70905469402316
 21
328.6038177244593
 31
0.0
  0
LINE
  5
6DD
330
1F
100
AcDbEntity
  8
0
100
AcDbLine
 10
75.48454962301514
 20
327.4038177244593
 30
0.0
 11
72.48454962301514
 21
327.4038177244593
 31
0.0
  0
LINE
  5
6DE
330
1F
100
AcDbEntity
  8
0
100
AcDbLine
 10
75.48454962301514
 20
326.0638177244591
 30
0.0
 11
72.48454962301514
 21
326.0638177244591
 31
0.0
  0
LINE
  5
6DF
330
1F
100
AcDbEntity
  8
0
100
AcDbLine
 10
75.48454962301514
 20
324.8638177244592
 30
0.0
 11
72.48454962301514
 21
324.8638177244592
 31
0.0
  0
LINE
  5
6E0
330
1F
100
AcDbEntity
  8
0
100
AcDbLine
 10
74.08454974493223
 20
331.0738175651152
 30
0.0
 11
77.08454974493213
 21
331.0738175651152
 31
0.0
  0
LINE
  5
6E1
330
1F
100
AcDbEntity
  8
0
100
AcDbLine
 10
72.48454962301514
 20
327.4038177244593
 30
0.0
 11
72.48454962301514
 21
328.6038177244593
 31
0.0
  0
LINE
  5
6E2
330
1F
100
AcDbEntity
  8
0
100
AcDbLine
 10
72.48454962301514
 20
324.8638177244592
 30
0.0
 11
72.48454962301514
 21
326.0638177244591
 31
0.0
  0
LINE
  5
6E3
330
1F
100
AcDbEntity
  8
0
100
AcDbLine
 10
73.98454962301525
 20
326.0638177244591
 30
0.0
 11
73.98454962301525
 21
327.4038177244593
 31
0.0
  0
LINE
  5
6E4
330
1F
100
AcDbEntity
  8
0
100
AcDbLine
 10
74.48454962301525
 20
327.4038177244593
 30
0.0
 11
74.48454962301525
 21
328.6038177244593
 31
0.0
  0
LINE
  5
6E5
330
1F
100
AcDbEntity
  8
0
100
AcDbLine
 10
74.48454962301525
 20
324.8638177244592
 30
0.0
 11
74.48454962301525
 21
326.0638177244591
 31
0.0
  0
LINE
  5
6E6
330
1F
100
AcDbEntity
  8
0
100
AcDbLine
 10
70.70905469402316
 20
328.6038177244593
 30
0.0
 11
70.70905469402316
 21
324.8638177244592
 31
0.0
  0
CIRCLE
  5
6E7
330
1F
100
AcDbEntity
  8
0
100
AcDbCircle
 10
69.43454962301405
 20
334.8038177244593
 30
0.0
 40
1.290290050200999
  0
LINE
  5
6E8
330
1F
100
AcDbEntity
  8
0
100
AcDbLine
 10
74.08454974493223
 20
339.0738175651151
 30
0.0
 11
74.08454974493223
 21
331.0738175651152
 31
0.0
  0
LINE
  5
6E9
330
1F
100
AcDbEntity
  8
0
100
AcDbLine
 10
73.18454962301415
 20
331.0538177244603
 30
0.0
 11
73.18454962301415
 21
338.5538177244593
 31
0.0
  0
ARC
  5
6EA
330
1F
100
AcDbEntity
  8
0
100
AcDbCircle
 10
80.18454962301518
 20
359.9738177244595
 30
0.0
 40
5.5
100
AcDbArc
 50
180.0
 51
245.3800226713443
  0
CIRCLE
  5
6EB
330
1F
100
AcDbEntity
  8
0
100
AcDbCircle
 10
72.8845497449321
 20
347.7738175651152
 30
0.0
 40
1.399999999999999
  0
LINE
  5
6EC
330
1F
100
AcDbEntity
  8
0
100
AcDbLine
 10
55.18454962301518
 20
364.9738177244593
 30
0.0
 11
38.15837267470692
 21
364.5279715902681
 31
0.0
  0
ARC
  5
6ED
330
1F
100
AcDbEntity
  8
0
100
AcDbCircle
 10
38.18454962301519
 20
363.5283142652923
 30
0.0
 40
1.0
100
AcDbArc
 50
91.4999999999962
 51
180.0
  0
LINE
  5
6EE
330
1F
100
AcDbEntity
  8
0
100
AcDbLine
 10
85.68454962301519
 20
359.9738177244595
 30
0.0
 11
85.68454962301519
 21
364.9738177244593
 31
0.0
  0
LINE
  5
6EF
330
1F
100
AcDbEntity
  8
0
100
AcDbLine
 10
100.284549623015
 20
247.5738177244592
 30
0.0
 11
100.284549623015
 21
253.4738177244594
 31
0.0
  0
LINE
  5
6F0
330
1F
100
AcDbEntity
  8
0
100
AcDbLine
 10
101.184549744933
 20
267.5738175651154
 30
0.0
 11
101.184549744933
 21
232.6738175651153
 31
0.0
  0
LINE
  5
6F1
330
1F
100
AcDbEntity
  8
0
100
AcDbLine
 10
100.284549623015
 20
267.5738175651154
 30
0.0
 11
100.284549623015
 21
232.6738175651153
 31
0.0
  0
LINE
  5
6F2
330
1F
100
AcDbEntity
  8
0
100
AcDbLine
 10
86.3845497449321
 20
263.0738175651154
 30
0.0
 11
86.3845497449321
 21
247.0738175651153
 31
0.0
  0
LINE
  5
6F3
330
1F
100
AcDbEntity
  8
0
100
AcDbLine
 10
87.48454962301424
 20
247.5738177244592
 30
0.0
 11
87.48454962301424
 21
261.5738177244592
 31
0.0
  0
LINE
  5
6F4
330
1F
100
AcDbEntity
  8
0
100
AcDbLine
 10
100.2845496230138
 20
247.0738177244589
 30
0.0
 11
92.38454962301421
 21
247.0738177244589
 31
0.0
  0
LINE
  5
6F5
330
1F
100
AcDbEntity
  8
0
100
AcDbLine
 10
100.2845496230138
 20
241.5738177244592
 30
0.0
 11
93.03454962301421
 21
241.5738177244592
 31
0.0
  0
LINE
  5
6F6
330
1F
100
AcDbEntity
  8
0
100
AcDbLine
 10
92.38454962301421
 20
242.073817724459
 30
0.0
 11
100.2845496230138
 21
242.073817724459
 31
0.0
  0
LINE
  5
6F7
330
1F
100
AcDbEntity
  8
0
100
AcDbLine
 10
93.03454962301421
 20
233.1738177244594
 30
0.0
 11
100.2845496230138
 21
233.1738177244594
 31
0.0
  0
LINE
  5
6F8
330
1F
100
AcDbEntity
  8
0
100
AcDbLine
 10
101.184549744933
 20
232.6738175651153
 30
0.0
 11
89.7845497449323
 21
232.6738175651153
 31
0.0
  0
LINE
  5
6F9
330
1F
100
AcDbEntity
  8
0
100
AcDbLine
 10
101.184549744933
 20
230.6738175651153
 30
0.0
 11
89.7845497449323
 21
230.6738175651153
 31
0.0
  0
LINE
  5
6FA
330
1F
100
AcDbEntity
  8
0
100
AcDbLine
 10
91.6845496230152
 20
230.1738177244593
 30
0.0
 11
99.98454962301515
 21
230.1738177244604
 31
0.0
  0
LINE
  5
6FB
330
1F
100
AcDbEntity
  8
0
100
AcDbLine
 10
90.88454962301524
 20
229.1738177244594
 30
0.0
 11
99.98454962301515
 21
229.1738177244594
 31
0.0
  0
LINE
  5
6FC
330
1F
100
AcDbEntity
  8
0
100
AcDbLine
 10
100.284549623015
 20
247.5738177244592
 30
0.0
 11
87.48454962301424
 21
247.5738177244592
 31
0.0
  0
ARC
  5
6FD
330
1F
100
AcDbEntity
  8
0
100
AcDbCircle
 10
91.6845496230152
 20
229.6738177244594
 30
0.0
 40
0.5
100
AcDbArc
 50
90.0
 51
180.0
  0
LINE
  5
6FE
330
1F
100
AcDbEntity
  8
0
100
AcDbLine
 10
91.1845496230152
 20
229.6738177244594
 30
0.0
 11
91.1845496230152
 21
229.1738177244594
 31
0.0
  0
LINE
  5
6FF
330
1F
100
AcDbEntity
  8
0
100
AcDbLine
 10
98.63454962301524
 20
222.7738177244594
 30
0.0
 11
98.63454962301524
 21
225.1738177244603
 31
0.0
  0
ARC
  5
700
330
1F
100
AcDbEntity
  8
0
100
AcDbCircle
 10
96.63454962301523
 20
219.0575345818679
 30
0.0
 40
2.0
100
AcDbArc
 50
0.0
 51
74.99999999999879
  0
LINE
  5
701
330
1F
100
AcDbEntity
  8
0
100
AcDbLine
 10
92.33454962301513
 20
225.1738177244603
 30
0.0
 11
92.33454962301513
 21
222.7738177244594
 31
0.0
  0
ARC
  5
702
330
1F
100
AcDbEntity
  8
0
100
AcDbCircle
 10
94.33454962301516
 20
219.6738177244593
 30
0.0
 40
2.0
100
AcDbArc
 50
74.99999999999879
 51
180.0
  0
LINE
  5
703
330
1F
100
AcDbEntity
  8
0
100
AcDbLine
 10
94.85218771322022
 20
221.6056693770373
 30
0.0
 11
97.15218771322021
 21
220.9893862344464
 31
0.0
  0
LINE
  5
704
330
1F
100
AcDbEntity
  8
0
100
AcDbLine
 10
92.33454962301513
 20
222.7738177244594
 30
0.0
 11
98.63454962301524
 21
222.7738177244594
 31
0.0
  0
LINE
  5
705
330
1F
100
AcDbEntity
  8
0
100
AcDbLine
 10
92.33454962301513
 20
224.6738177244592
 30
0.0
 11
98.63454962301524
 21
224.6738177244592
 31
0.0
  0
LINE
  5
706
330
1F
100
AcDbEntity
  8
0
100
AcDbLine
 10
92.33454962301513
 20
225.1738177244594
 30
0.0
 11
98.63454962301524
 21
225.1738177244594
 31
0.0
  0
LINE
  5
707
330
1F
100
AcDbEntity
  8
0
100
AcDbLine
 10
97.08454962301516
 20
220.1738177244594
 30
0.0
 11
93.88454962301523
 21
220.1738177244604
 31
0.0
  0
CIRCLE
  5
708
330
1F
100
AcDbEntity
  8
0
100
AcDbCircle
 10
95.48454962301523
 20
227.2038177244594
 30
0.0
 40
1.399999999999999
  0
LINE
  5
709
330
1F
100
AcDbEntity
  8
0
100
AcDbLine
 10
89.7845497449323
 20
247.0738175651153
 30
0.0
 11
89.7845497449323
 21
232.6738175651153
 31
0.0
  0
LINE
  5
70A
330
1F
100
AcDbEntity
  8
0
100
AcDbLine
 10
89.7845497449323
 20
247.0738175651153
 30
0.0
 11
86.3845497449321
 21
247.0738175651153
 31
0.0
  0
LINE
  5
70B
330
1F
100
AcDbEntity
  8
0
100
AcDbLine
 10
95.33454962301425
 20
246.0738177244589
 30
0.0
 11
94.33454962301402
 21
246.0738177244589
 31
0.0
  0
LINE
  5
70C
330
1F
100
AcDbEntity
  8
0
100
AcDbLine
 10
99.33454962301425
 20
246.0738177244589
 30
0.0
 11
93.334549623014
 21
246.0738177244589
 31
0.0
  0
CIRCLE
  5
70D
330
1F
100
AcDbEntity
  8
0
100
AcDbCircle
 10
96.78454962301421
 20
235.6238177244593
 30
0.0
 40
1.0
  0
CIRCLE
  5
70E
330
1F
100
AcDbEntity
  8
0
100
AcDbCircle
 10
96.78454962301421
 20
239.1238177244594
 30
0.0
 40
1.0
  0
LINE
  5
70F
330
1F
100
AcDbEntity
  8
0
100
AcDbLine
 10
94.33454962301402
 20
243.0738177244593
 30
0.0
 11
95.33454962301425
 21
243.0738177244593
 31
0.0
  0
LINE
  5
710
330
1F
100
AcDbEntity
  8
0
100
AcDbLine
 10
93.03454962301421
 20
241.5738177244592
 30
0.0
 11
93.03454962301421
 21
233.1738177244594
 31
0.0
  0
LINE
  5
711
330
1F
100
AcDbEntity
  8
0
100
AcDbLine
 10
93.334549623014
 20
243.0738177244593
 30
0.0
 11
99.33454962301425
 21
243.0738177244593
 31
0.0
  0
LINE
  5
712
330
1F
100
AcDbEntity
  8
0
100
AcDbLine
 10
96.13454962301421
 20
243.0738177244593
 30
0.0
 11
96.13454962301421
 21
246.0738177244589
 31
0.0
  0
LINE
  5
713
330
1F
100
AcDbEntity
  8
0
100
AcDbLine
 10
99.33454962301425
 20
243.0738177244593
 30
0.0
 11
99.33454962301425
 21
246.0738177244589
 31
0.0
  0
LINE
  5
714
330
1F
100
AcDbEntity
  8
0
100
AcDbLine
 10
93.334549623014
 20
246.0738177244589
 30
0.0
 11
93.334549623014
 21
243.0738177244593
 31
0.0
  0
LINE
  5
715
330
1F
100
AcDbEntity
  8
0
100
AcDbLine
 10
95.33454962301425
 20
243.0738177244593
 30
0.0
 11
95.33454962301425
 21
246.0738177244589
 31
0.0
  0
LINE
  5
716
330
1F
100
AcDbEntity
  8
0
100
AcDbLine
 10
94.33454962301402
 20
246.0738177244589
 30
0.0
 11
94.33454962301402
 21
243.0738177244593
 31
0.0
  0
LINE
  5
717
330
1F
100
AcDbEntity
  8
0
100
AcDbLine
 10
92.38454962301421
 20
247.0738177244589
 30
0.0
 11
92.38454962301421
 21
242.073817724459
 31
0.0
  0
LINE
  5
718
330
1F
100
AcDbEntity
  8
0
100
AcDbLine
 10
100.284549623015
 20
229.8738177244603
 30
0.0
 11
100.284549623015
 21
222.7738177244594
 31
0.0
  0
LINE
  5
719
330
1F
100
AcDbEntity
  8
0
100
AcDbLine
 10
99.98454962301515
 20
222.7738177244594
 30
0.0
 11
100.284549623015
 21
222.7738177244594
 31
0.0
  0
LINE
  5
71A
330
1F
100
AcDbEntity
  8
0
100
AcDbLine
 10
99.98454962301515
 20
215.3838177244602
 30
0.0
 11
100.284549623015
 21
215.3838177244602
 31
0.0
  0
LINE
  5
71B
330
1F
100
AcDbEntity
  8
0
100
AcDbLine
 10
99.98454962301515
 20
214.1138177244601
 30
0.0
 11
100.284549623015
 21
214.1138177244601
 31
0.0
  0
LINE
  5
71C
330
1F
100
AcDbEntity
  8
0
100
AcDbLine
 10
99.98454962301515
 20
217.9238177244604
 30
0.0
 11
100.284549623015
 21
217.9238177244604
 31
0.0
  0
LINE
  5
71D
330
1F
100
AcDbEntity
  8
0
100
AcDbLine
 10
99.98454962301515
 20
216.6538177244603
 30
0.0
 11
100.284549623015
 21
216.6538177244603
 31
0.0
  0
LINE
  5
71E
330
1F
100
AcDbEntity
  8
0
100
AcDbLine
 10
99.98454962301515
 20
215.3838177244602
 30
0.0
 11
100.284549623015
 21
215.3838177244602
 31
0.0
  0
LINE
  5
71F
330
1F
100
AcDbEntity
  8
0
100
AcDbLine
 10
99.98454962301515
 20
219.1938177244593
 30
0.0
 11
100.284549623015
 21
219.1938177244593
 31
0.0
  0
LINE
  5
720
330
1F
100
AcDbEntity
  8
0
100
AcDbLine
 10
99.98454962301515
 20
217.9238177244604
 30
0.0
 11
100.284549623015
 21
217.9238177244604
 31
0.0
  0
LINE
  5
721
330
1F
100
AcDbEntity
  8
0
100
AcDbLine
 10
99.98454962301515
 20
212.8438177244603
 30
0.0
 11
100.284549623015
 21
212.8438177244603
 31
0.0
  0
LINE
  5
722
330
1F
100
AcDbEntity
  8
0
100
AcDbLine
 10
99.98454962301515
 20
211.5738177244602
 30
0.0
 11
100.284549623015
 21
211.5738177244602
 31
0.0
  0
ARC
  5
723
330
1F
100
AcDbEntity
  8
0
100
AcDbCircle
 10
99.98454962301515
 20
229.8738177244603
 30
0.0
 40
0.3
100
AcDbArc
 50
0.0
 51
90.0
  0
LINE
  5
724
330
1F
100
AcDbEntity
  8
0
100
AcDbLine
 10
100.2845496230138
 20
233.1738177244594
 30
0.0
 11
100.2845496230138
 21
241.5738177244592
 31
0.0
  0
LINE
  5
725
330
1F
100
AcDbEntity
  8
0
100
AcDbLine
 10
100.2845496230138
 20
242.073817724459
 30
0.0
 11
100.2845496230138
 21
247.0738177244589
 31
0.0
  0
LINE
  5
726
330
1F
100
AcDbEntity
  8
0
100
AcDbLine
 10
101.184549744933
 20
267.5738175651154
 30
0.0
 11
89.7845497449323
 21
267.5738175651154
 31
0.0
  0
LINE
  5
727
330
1F
100
AcDbEntity
  8
0
100
AcDbLine
 10
100.2845496230138
 20
267.0738177244592
 30
0.0
 11
92.38454962301421
 21
267.0738177244592
 31
0.0
  0
LINE
  5
728
330
1F
100
AcDbEntity
  8
0
100
AcDbLine
 10
92.38454962301421
 20
262.0738177244593
 30
0.0
 11
100.2845496230138
 21
262.0738177244593
 31
0.0
  0
LINE
  5
729
330
1F
100
AcDbEntity
  8
0
100
AcDbLine
 10
100.284549623015
 20
261.5738177244592
 30
0.0
 11
87.48454962301424
 21
261.5738177244592
 31
0.0
  0
LINE
  5
72A
330
1F
100
AcDbEntity
  8
0
100
AcDbLine
 10
89.7845497449323
 20
263.0738175651154
 30
0.0
 11
89.7845497449323
 21
267.5738175651154
 31
0.0
  0
CIRCLE
  5
72B
330
1F
100
AcDbEntity
  8
0
100
AcDbCircle
 10
93.78454962301509
 20
254.573817724459
 30
0.0
 40
5.5
  0
LINE
  5
72C
330
1F
100
AcDbEntity
  8
0
100
AcDbLine
 10
89.7845497449323
 20
263.0738175651154
 30
0.0
 11
86.3845497449321
 21
263.0738175651154
 31
0.0
  0
LINE
  5
72D
330
1F
100
AcDbEntity
  8
0
100
AcDbLine
 10
95.33454962301425
 20
266.0738177244593
 30
0.0
 11
94.33454962301402
 21
266.0738177244593
 31
0.0
  0
LINE
  5
72E
330
1F
100
AcDbEntity
  8
0
100
AcDbLine
 10
99.33454962301425
 20
266.0738177244593
 30
0.0
 11
93.334549623014
 21
266.0738177244593
 31
0.0
  0
LINE
  5
72F
330
1F
100
AcDbEntity
  8
0
100
AcDbLine
 10
94.33454962301402
 20
263.0738177244592
 30
0.0
 11
95.33454962301425
 21
263.0738177244592
 31
0.0
  0
LINE
  5
730
330
1F
100
AcDbEntity
  8
0
100
AcDbLine
 10
93.334549623014
 20
263.0738177244592
 30
0.0
 11
99.33454962301425
 21
263.0738177244592
 31
0.0
  0
LINE
  5
731
330
1F
100
AcDbEntity
  8
0
100
AcDbLine
 10
99.33454962301425
 20
263.0738177244592
 30
0.0
 11
99.33454962301425
 21
266.0738177244593
 31
0.0
  0
LINE
  5
732
330
1F
100
AcDbEntity
  8
0
100
AcDbLine
 10
96.13454962301421
 20
263.0738177244592
 30
0.0
 11
96.13454962301421
 21
266.0738177244593
 31
0.0
  0
LINE
  5
733
330
1F
100
AcDbEntity
  8
0
100
AcDbLine
 10
95.33454962301425
 20
263.0738177244592
 30
0.0
 11
95.33454962301425
 21
266.0738177244593
 31
0.0
  0
LINE
  5
734
330
1F
100
AcDbEntity
  8
0
100
AcDbLine
 10
94.33454962301402
 20
266.0738177244593
 30
0.0
 11
94.33454962301402
 21
263.0738177244592
 31
0.0
  0
LINE
  5
735
330
1F
100
AcDbEntity
  8
0
100
AcDbLine
 10
93.334549623014
 20
266.0738177244593
 30
0.0
 11
93.334549623014
 21
263.0738177244592
 31
0.0
  0
LINE
  5
736
330
1F
100
AcDbEntity
  8
0
100
AcDbLine
 10
92.38454962301421
 20
267.0738177244592
 30
0.0
 11
92.38454962301421
 21
262.0738177244593
 31
0.0
  0
LINE
  5
737
330
1F
100
AcDbEntity
  8
0
100
AcDbLine
 10
100.284549623015
 20
255.6738177244594
 30
0.0
 11
100.284549623015
 21
261.5738177244592
 31
0.0
  0
LINE
  5
738
330
1F
100
AcDbEntity
  8
0
100
AcDbLine
 10
100.2845496230138
 20
262.0738177244593
 30
0.0
 11
100.2845496230138
 21
267.0738177244592
 31
0.0
  0
ARC
  5
739
330
1F
100
AcDbEntity
  8
0
100
AcDbCircle
 10
108.1845496230151
 20
363.9738177244593
 30
0.0
 40
1.0
100
AcDbArc
 50
0.0
 51
90.0
  0
ARC
  5
73A
330
1F
100
AcDbEntity
  8
0
100
AcDbCircle
 10
108.1845496230151
 20
363.9738177244593
 30
0.0
 40
1.0
100
AcDbArc
 50
0.0
 51
90.0
  0
LINE
  5
73B
330
1F
100
AcDbEntity
  8
0
100
AcDbLine
 10
101.184549744933
 20
267.5738175651154
 30
0.0
 11
89.7845497449332
 21
267.5738175651154
 31
0.0
  0
LINE
  5
73C
330
1F
100
AcDbEntity
  8
0
  6
BYBLOCK
 62
     0
100
AcDbLine
 10
82.2846982481119
 20
308.2989530291596
 30
0.0
 11
97.1846239355642
 21
308.2989530291616
 31
0.0
  0
LINE
  5
73D
330
1F
100
AcDbEntity
  8
0
  6
BYBLOCK
 62
     0
100
AcDbLine
 10
97.18462393556604
 20
275.4989494291621
 30
0.0
 11
97.1846239355642
 21
308.2989530291616
 31
0.0
  0
LINE
  5
73E
330
1F
100
AcDbEntity
  8
0
  6
BYBLOCK
 62
     0
100
AcDbLine
 10
82.2846982481119
 20
275.4989494291621
 30
0.0
 11
97.18462393556604
 21
275.4989494291621
 31
0.0
  0
INSERT
  5
73F
330
1F
100
AcDbEntity
  8
0
 62
     0
 48
5.0
100
AcDbBlockReference
  2
A$C5CFD6E8C
 10
98.68455241199502
 20
315.7488159785048
 30
0.0
  0
INSERT
  5
740
330
1F
100
AcDbEntity
  8
0
 62
     0
 48
5.0
100
AcDbBlockReference
  2
A$C5CFD6E8C
 10
98.68455241199502
 20
310.2488159785047
 30
0.0
  0
LINE
  5
741
330
1F
100
AcDbEntity
  8
0
 62
     0
 48
5.0
100
AcDbLine
 10
82.2846982481119
 20
308.2989530291596
 30
0.0
 11
82.2846982481119
 21
275.4989494291621
 31
0.0
  0
LINE
  5
742
330
1F
100
AcDbEntity
  8
0
 62
     0
100
AcDbLine
 10
87.61138831846983
 20
281.1338177244596
 30
0.0
 11
89.22115676587281
 21
281.1338177244596
 31
0.0
  0
LINE
  5
743
330
1F
100
AcDbEntity
  8
0
 62
     0
100
AcDbLine
 10
89.22115676587281
 20
287.4238177244606
 30
0.0
 11
87.61138831846983
 21
287.4238177244606
 31
0.0
  0
LINE
  5
744
330
1F
100
AcDbEntity
  8
0
 62
     0
100
AcDbLine
 10
87.61138831846983
 20
296.3738177244603
 30
0.0
 11
89.22115676587281
 21
296.3738177244603
 31
0.0
  0
LINE
  5
745
330
1F
100
AcDbEntity
  8
0
 62
     0
100
AcDbLine
 10
87.61138831846983
 20
296.3738177244603
 30
0.0
 11
88.08454962301595
 21
296.0038177244602
 31
0.0
  0
LINE
  5
746
330
1F
100
AcDbEntity
  8
0
 62
     0
100
AcDbLine
 10
89.22115676587281
 20
297.5838177244601
 30
0.0
 11
87.61138831846983
 21
297.5838177244601
 31
0.0
  0
LINE
  5
747
330
1F
100
AcDbEntity
  8
0
 62
     0
100
AcDbLine
 10
87.61138831846983
 20
301.4538177244602
 30
0.0
 11
88.08454962301595
 21
301.0838177244603
 31
0.0
  0
LINE
  5
748
330
1F
100
AcDbEntity
  8
0
 62
     0
100
AcDbLine
 10
88.51454962301572
 20
305.5988177244598
 30
0.0
 11
88.08454962301595
 21
305.5988177244598
 31
0.0
  0
LINE
  5
749
330
1F
100
AcDbEntity
  8
0
 62
     0
100
AcDbLine
 10
88.08454962301595
 20
303.0338177244601
 30
0.0
 11
88.08454962301595
 21
305.5988177244598
 31
0.0
  0
LINE
  5
74A
330
1F
100
AcDbEntity
  8
0
 62
     0
100
AcDbLine
 10
96.18454962301576
 20
293.39881772446
 30
0.0
 11
96.18454962301576
 21
292.5988177244598
 31
0.0
  0
LINE
  5
74B
330
1F
100
AcDbEntity
  8
0
 62
     0
100
AcDbLine
 10
96.18454962301576
 20
292.5988177244598
 30
0.0
 11
96.18454962301576
 21
291.1988177244603
 31
0.0
  0
LINE
  5
74C
330
1F
100
AcDbEntity
  8
0
 62
     0
100
AcDbLine
 10
96.18454962301576
 20
283.2388177244602
 30
0.0
 11
96.18454962301576
 21
282.4388177244598
 31
0.0
  0
LINE
  5
74D
330
1F
100
AcDbEntity
  8
0
 62
     0
100
AcDbLine
 10
96.18454962301576
 20
282.4388177244598
 30
0.0
 11
96.18454962301576
 21
281.0388177244604
 31
0.0
  0
LINE
  5
74E
330
1F
100
AcDbEntity
  8
0
 62
     0
100
AcDbLine
 10
96.18454962301576
 20
280.2388177244602
 30
0.0
 11
96.18454962301576
 21
278.1988177244601
 31
0.0
  0
LINE
  5
74F
330
1F
100
AcDbEntity
  8
0
 62
     0
100
AcDbLine
 10
96.18454962301576
 20
281.0388177244604
 30
0.0
 11
96.18454962301576
 21
280.2388177244602
 31
0.0
  0
LINE
  5
750
330
1F
100
AcDbEntity
  8
0
 62
     0
100
AcDbLine
 10
96.18454962301576
 20
287.5188177244599
 30
0.0
 11
96.18454962301576
 21
286.1188177244603
 31
0.0
  0
LINE
  5
751
330
1F
100
AcDbEntity
  8
0
 62
     0
100
AcDbLine
 10
96.18454962301576
 20
288.31881772446
 30
0.0
 11
96.18454962301576
 21
287.5188177244599
 31
0.0
  0
LINE
  5
752
330
1F
100
AcDbEntity
  8
0
 62
     0
100
AcDbLine
 10
96.18454962301576
 20
290.3988177244601
 30
0.0
 11
96.18454962301576
 21
288.31881772446
 31
0.0
  0
LINE
  5
753
330
1F
100
AcDbEntity
  8
0
 62
     0
100
AcDbLine
 10
96.18454962301576
 20
291.1988177244603
 30
0.0
 11
96.18454962301576
 21
290.3988177244601
 31
0.0
  0
LINE
  5
754
330
1F
100
AcDbEntity
  8
0
 62
     0
100
AcDbLine
 10
96.18454962301576
 20
285.3188177244602
 30
0.0
 11
96.18454962301576
 21
283.2388177244602
 31
0.0
  0
LINE
  5
755
330
1F
100
AcDbEntity
  8
0
 62
     0
100
AcDbLine
 10
96.18454962301576
 20
286.1188177244603
 30
0.0
 11
96.18454962301576
 21
285.3188177244602
 31
0.0
  0
LINE
  5
756
330
1F
100
AcDbEntity
  8
0
 62
     0
100
AcDbLine
 10
96.18454962301576
 20
303.5588177244598
 30
0.0
 11
96.18454962301576
 21
302.7588177244596
 31
0.0
  0
LINE
  5
757
330
1F
100
AcDbEntity
  8
0
 62
     0
100
AcDbLine
 10
96.18454962301576
 20
305.5988177244598
 30
0.0
 11
96.18454962301576
 21
303.5588177244598
 31
0.0
  0
LINE
  5
758
330
1F
100
AcDbEntity
  8
0
 62
     0
100
AcDbLine
 10
96.18454962301576
 20
298.4788177244599
 30
0.0
 11
96.18454962301576
 21
297.6788177244596
 31
0.0
  0
LINE
  5
759
330
1F
100
AcDbEntity
  8
0
 62
     0
100
AcDbLine
 10
96.18454962301576
 20
302.7588177244596
 30
0.0
 11
96.18454962301576
 21
301.3588177244601
 31
0.0
  0
LINE
  5
75A
330
1F
100
AcDbEntity
  8
0
 62
     0
100
AcDbLine
 10
96.18454962301576
 20
300.5588177244598
 30
0.0
 11
96.18454962301576
 21
298.4788177244599
 31
0.0
  0
LINE
  5
75B
330
1F
100
AcDbEntity
  8
0
 62
     0
100
AcDbLine
 10
96.18454962301576
 20
301.3588177244601
 30
0.0
 11
96.18454962301576
 21
300.5588177244598
 31
0.0
  0
LINE
  5
75C
330
1F
100
AcDbEntity
  8
0
 62
     0
100
AcDbLine
 10
96.18454962301576
 20
297.6788177244596
 30
0.0
 11
96.18454962301576
 21
296.2788177244601
 31
0.0
  0
LINE
  5
75D
330
1F
100
AcDbEntity
  8
0
 62
     0
100
AcDbLine
 10
96.18454962301576
 20
295.47881772446
 30
0.0
 11
96.18454962301576
 21
293.39881772446
 31
0.0
  0
LINE
  5
75E
330
1F
100
AcDbEntity
  8
0
 62
     0
100
AcDbLine
 10
96.18454962301576
 20
296.2788177244601
 30
0.0
 11
96.18454962301576
 21
295.47881772446
 31
0.0
  0
LINE
  5
75F
330
1F
100
AcDbEntity
  8
0
 62
     0
100
AcDbLine
 10
94.51454962301573
 20
299.0184255298972
 30
0.0
 11
94.51454962301573
 21
300.0192099190235
 31
0.0
  0
LINE
  5
760
330
1F
100
AcDbEntity
  8
0
 62
     0
100
AcDbLine
 10
94.81454962301596
 20
299.1328836473138
 30
0.0
 11
94.81454962301596
 21
299.9047518016066
 31
0.0
  0
LINE
  5
761
330
1F
100
AcDbEntity
  8
0
 62
     0
100
AcDbLine
 10
88.90954962301576
 20
280.7638177244598
 30
0.0
 11
88.08454962301595
 21
280.7638177244598
 31
0.0
  0
LINE
  5
762
330
1F
100
AcDbEntity
  8
0
 62
     0
100
AcDbLine
 10
88.08454962301595
 20
287.7938177244605
 30
0.0
 11
88.90954962301576
 21
287.7938177244605
 31
0.0
  0
LINE
  5
763
330
1F
100
AcDbEntity
  8
0
 62
     0
100
AcDbLine
 10
88.08454962301595
 20
296.0038177244602
 30
0.0
 11
88.90954962301576
 21
296.0038177244602
 31
0.0
  0
LINE
  5
764
330
1F
100
AcDbEntity
  8
0
 62
     0
100
AcDbLine
 10
88.08454962301595
 20
297.9538177244601
 30
0.0
 11
88.90954962301576
 21
297.9538177244601
 31
0.0
  0
LINE
  5
765
330
1F
100
AcDbEntity
  8
0
 62
     0
100
AcDbLine
 10
88.08454962301595
 20
287.7938177244605
 30
0.0
 11
88.08454962301595
 21
290.9238177244606
 31
0.0
  0
LINE
  5
766
330
1F
100
AcDbEntity
  8
0
 62
     0
100
AcDbLine
 10
89.22115676587281
 20
291.2548065436785
 30
0.0
 11
88.90954962301576
 21
290.9238177244606
 31
0.0
  0
LINE
  5
767
330
1F
100
AcDbEntity
  8
0
 62
     0
100
AcDbLine
 10
88.08454962301595
 20
290.9238177244606
 30
0.0
 11
88.90954962301576
 21
290.9238177244606
 31
0.0
  0
LINE
  5
768
330
1F
100
AcDbEntity
  8
0
 62
     0
100
AcDbLine
 10
88.08454962301595
 20
282.7138177244606
 30
0.0
 11
88.08454962301595
 21
285.8438177244597
 31
0.0
  0
LINE
  5
769
330
1F
100
AcDbEntity
  8
0
 62
     0
100
AcDbLine
 10
88.08454962301595
 20
285.8438177244597
 30
0.0
 11
88.90954962301576
 21
285.8438177244597
 31
0.0
  0
LINE
  5
76A
330
1F
100
AcDbEntity
  8
0
 62
     0
100
AcDbLine
 10
88.08454962301595
 20
282.7138177244606
 30
0.0
 11
88.90954962301576
 21
282.7138177244606
 31
0.0
  0
LINE
  5
76B
330
1F
100
AcDbEntity
  8
0
 62
     0
100
AcDbLine
 10
89.22115676587281
 20
296.3348065436785
 30
0.0
 11
88.90954962301576
 21
296.0038177244602
 31
0.0
  0
LINE
  5
76C
330
1F
100
AcDbEntity
  8
0
 62
     0
100
AcDbLine
 10
89.22115676587281
 20
281.0948065436777
 30
0.0
 11
88.90954962301576
 21
280.7638177244598
 31
0.0
  0
LINE
  5
76D
330
1F
100
AcDbEntity
  8
0
 62
     0
100
AcDbLine
 10
88.90954962301576
 20
287.7938177244605
 30
0.0
 11
89.22115676587281
 21
287.4628289052423
 31
0.0
  0
LINE
  5
76E
330
1F
100
AcDbEntity
  8
0
 62
     0
100
AcDbLine
 10
88.90954962301576
 20
280.7638177244598
 30
0.0
 11
88.90954962301576
 21
279.1988177244602
 31
0.0
  0
LINE
  5
76F
330
1F
100
AcDbEntity
  8
0
 62
     0
100
AcDbLine
 10
94.51454962301573
 20
279.1988177244602
 30
0.0
 11
94.81454962301596
 21
279.1988177244602
 31
0.0
  0
LINE
  5
770
330
1F
100
AcDbEntity
  8
0
 62
     0
100
AcDbLine
 10
92.08249881544771
 20
296.7467669168907
 30
0.0
 11
92.54660043058548
 21
296.7467669168907
 31
0.0
  0
LINE
  5
771
330
1F
100
AcDbEntity
  8
0
 62
     0
100
AcDbLine
 10
91.81454962301632
 20
296.4788177244598
 30
0.0
 11
92.08249881544771
 21
296.7467669168907
 31
0.0
  0
LINE
  5
772
330
1F
100
AcDbEntity
  8
0
 62
     0
100
AcDbLine
 10
92.81454962301598
 20
296.4788177244598
 30
0.0
 11
91.81454962301632
 21
296.4788177244598
 31
0.0
  0
LINE
  5
773
330
1F
100
AcDbEntity
  8
0
 62
     0
100
AcDbLine
 10
92.54660043058548
 20
296.7467669168907
 30
0.0
 11
92.81454962301598
 21
296.4788177244598
 31
0.0
  0
LINE
  5
774
330
1F
100
AcDbEntity
  8
0
 62
     0
100
AcDbLine
 10
92.81454962301632
 20
297.47881772446
 30
0.0
 11
92.81454962301598
 21
296.4788177244598
 31
0.0
  0
LINE
  5
775
330
1F
100
AcDbEntity
  8
0
 62
     0
100
AcDbLine
 10
91.81454962301632
 20
296.4788177244598
 30
0.0
 11
91.81454962301632
 21
297.47881772446
 31
0.0
  0
LINE
  5
776
330
1F
100
AcDbEntity
  8
0
 62
     0
100
AcDbLine
 10
91.81454962301632
 20
297.47881772446
 30
0.0
 11
92.81454962301632
 21
297.47881772446
 31
0.0
  0
LINE
  5
777
330
1F
100
AcDbEntity
  8
0
 62
     0
100
AcDbLine
 10
92.08249881544771
 20
297.2108685320288
 30
0.0
 11
91.81454962301632
 21
297.47881772446
 31
0.0
  0
LINE
  5
778
330
1F
100
AcDbEntity
  8
0
 62
     0
100
AcDbLine
 10
92.08249881544771
 20
297.2108685320288
 30
0.0
 11
92.08249881544771
 21
296.7467669168907
 31
0.0
  0
LINE
  5
779
330
1F
100
AcDbEntity
  8
0
 62
     0
100
AcDbLine
 10
92.54660043058548
 20
296.7467669168907
 30
0.0
 11
92.54660043058548
 21
297.2108685320288
 31
0.0
  0
LINE
  5
77A
330
1F
100
AcDbEntity
  8
0
 62
     0
100
AcDbLine
 10
92.08249881544771
 20
297.2108685320288
 30
0.0
 11
92.54660043058548
 21
297.2108685320288
 31
0.0
  0
LINE
  5
77B
330
1F
100
AcDbEntity
  8
0
 62
     0
100
AcDbLine
 10
92.54660043058548
 20
297.2108685320288
 30
0.0
 11
92.81454962301632
 21
297.47881772446
 31
0.0
  0
LINE
  5
77C
330
1F
100
AcDbEntity
  8
0
 62
     0
100
AcDbLine
 10
93.06454962301598
 20
289.559779618783
 30
0.0
 11
93.06454962301598
 21
289.1578558301371
 31
0.0
  0
LINE
  5
77D
330
1F
100
AcDbEntity
  8
0
 62
     0
100
AcDbLine
 10
93.06454962301598
 20
289.1578558301371
 30
0.0
 11
92.31454962301596
 21
289.3588177244598
 31
0.0
  0
LINE
  5
77E
330
1F
100
AcDbEntity
  8
0
 62
     0
100
AcDbLine
 10
92.31454962301596
 20
289.3588177244598
 30
0.0
 11
93.06454962301598
 21
289.559779618783
 31
0.0
  0
LINE
  5
77F
330
1F
100
AcDbEntity
  8
0
 62
     0
100
AcDbLine
 10
93.06454962301598
 20
294.6397796187838
 30
0.0
 11
93.06454962301598
 21
294.2378558301371
 31
0.0
  0
LINE
  5
780
330
1F
100
AcDbEntity
  8
0
 62
     0
100
AcDbLine
 10
93.06454962301598
 20
294.2378558301371
 30
0.0
 11
92.31454962301596
 21
294.4388177244598
 31
0.0
  0
LINE
  5
781
330
1F
100
AcDbEntity
  8
0
 62
     0
100
AcDbLine
 10
92.31454962301596
 20
294.4388177244598
 30
0.0
 11
93.06454962301598
 21
294.6397796187838
 31
0.0
  0
LINE
  5
782
330
1F
100
AcDbEntity
  8
0
 62
     0
100
AcDbLine
 10
89.22115676587281
 20
279.1988177244602
 30
0.0
 11
89.22115676587281
 21
281.0948065436777
 31
0.0
  0
LINE
  5
783
330
1F
100
AcDbEntity
  8
0
 62
     0
100
AcDbLine
 10
89.22115676587281
 20
279.1988177244602
 30
0.0
 11
94.51454962301573
 21
279.1988177244602
 31
0.0
  0
LINE
  5
784
330
1F
100
AcDbEntity
  8
0
 62
     0
100
AcDbLine
 10
88.90954962301576
 20
279.1988177244602
 30
0.0
 11
89.22115676587281
 21
279.1988177244602
 31
0.0
  0
LINE
  5
785
330
1F
100
AcDbEntity
  8
0
 62
     0
100
AcDbLine
 10
89.22115676587281
 20
287.4628289052423
 30
0.0
 11
89.22115676587281
 21
287.4238177244606
 31
0.0
  0
LINE
  5
786
330
1F
100
AcDbEntity
  8
0
 62
     0
100
AcDbLine
 10
89.22115676587281
 20
287.4238177244606
 30
0.0
 11
89.22115676587281
 21
286.2138177244606
 31
0.0
  0
LINE
  5
787
330
1F
100
AcDbEntity
  8
0
 62
     0
100
AcDbLine
 10
89.22115676587281
 20
282.3828289052423
 30
0.0
 11
89.22115676587281
 21
286.1748065436776
 31
0.0
  0
LINE
  5
788
330
1F
100
AcDbEntity
  8
0
 62
     0
100
AcDbLine
 10
89.22115676587281
 20
286.2138177244606
 30
0.0
 11
89.22115676587281
 21
286.1748065436776
 31
0.0
  0
LINE
  5
789
330
1F
100
AcDbEntity
  8
0
 62
     0
100
AcDbLine
 10
89.22115676587281
 20
282.3828289052423
 30
0.0
 11
89.22115676587281
 21
282.3438177244597
 31
0.0
  0
LINE
  5
78A
330
1F
100
AcDbEntity
  8
0
 62
     0
100
AcDbLine
 10
89.22115676587281
 20
282.3438177244597
 30
0.0
 11
89.22115676587281
 21
281.1338177244596
 31
0.0
  0
LINE
  5
78B
330
1F
100
AcDbEntity
  8
0
 62
     0
100
AcDbLine
 10
89.22115676587281
 20
281.1338177244596
 30
0.0
 11
89.22115676587281
 21
281.0948065436777
 31
0.0
  0
LINE
  5
78C
330
1F
100
AcDbEntity
  8
0
 62
     0
100
AcDbLine
 10
93.06454962301598
 20
284.4797796187831
 30
0.0
 11
93.06454962301598
 21
284.0778558301371
 31
0.0
  0
LINE
  5
78D
330
1F
100
AcDbEntity
  8
0
 62
     0
100
AcDbLine
 10
93.06454962301598
 20
284.0778558301371
 30
0.0
 11
92.31454962301596
 21
284.2788177244601
 31
0.0
  0
LINE
  5
78E
330
1F
100
AcDbEntity
  8
0
 62
     0
100
AcDbLine
 10
92.31454962301596
 20
284.2788177244601
 30
0.0
 11
93.06454962301598
 21
284.4797796187831
 31
0.0
  0
LINE
  5
78F
330
1F
100
AcDbEntity
  8
0
 62
     0
100
AcDbLine
 10
92.81454962301632
 20
281.2388177244601
 30
0.0
 11
92.81454962301632
 21
282.2388177244602
 31
0.0
  0
LINE
  5
790
330
1F
100
AcDbEntity
  8
0
 62
     0
100
AcDbLine
 10
92.54660043058548
 20
281.5067669168911
 30
0.0
 11
92.81454962301632
 21
281.2388177244601
 31
0.0
  0
LINE
  5
791
330
1F
100
AcDbEntity
  8
0
 62
     0
100
AcDbLine
 10
92.54660043058548
 20
281.9708685320292
 30
0.0
 11
92.81454962301632
 21
282.2388177244602
 31
0.0
  0
LINE
  5
792
330
1F
100
AcDbEntity
  8
0
 62
     0
100
AcDbLine
 10
92.54660043058548
 20
281.9708685320292
 30
0.0
 11
92.54660043058548
 21
281.5067669168911
 31
0.0
  0
LINE
  5
793
330
1F
100
AcDbEntity
  8
0
 62
     0
100
AcDbLine
 10
91.81454962301632
 20
282.2388177244602
 30
0.0
 11
92.81454962301632
 21
282.2388177244602
 31
0.0
  0
LINE
  5
794
330
1F
100
AcDbEntity
  8
0
 62
     0
100
AcDbLine
 10
92.54660043058548
 20
281.5067669168911
 30
0.0
 11
92.08249881544771
 21
281.5067669168911
 31
0.0
  0
LINE
  5
795
330
1F
100
AcDbEntity
  8
0
 62
     0
100
AcDbLine
 10
91.81454962301632
 20
281.2388177244601
 30
0.0
 11
91.81454962301632
 21
282.2388177244602
 31
0.0
  0
LINE
  5
796
330
1F
100
AcDbEntity
  8
0
 62
     0
100
AcDbLine
 10
91.81454962301632
 20
281.2388177244601
 30
0.0
 11
92.08249881544771
 21
281.5067669168911
 31
0.0
  0
LINE
  5
797
330
1F
100
AcDbEntity
  8
0
 62
     0
100
AcDbLine
 10
92.08249881544771
 20
281.9708685320292
 30
0.0
 11
92.08249881544771
 21
281.5067669168911
 31
0.0
  0
LINE
  5
798
330
1F
100
AcDbEntity
  8
0
 62
     0
100
AcDbLine
 10
92.08249881544771
 20
281.9708685320292
 30
0.0
 11
91.81454962301632
 21
282.2388177244602
 31
0.0
  0
LINE
  5
799
330
1F
100
AcDbEntity
  8
0
 62
     0
100
AcDbLine
 10
92.08249881544771
 20
281.9708685320292
 30
0.0
 11
92.54660043058548
 21
281.9708685320292
 31
0.0
  0
LINE
  5
79A
330
1F
100
AcDbEntity
  8
0
 62
     0
100
AcDbLine
 10
92.81454962301632
 20
281.2388177244601
 30
0.0
 11
91.81454962301632
 21
281.2388177244601
 31
0.0
  0
LINE
  5
79B
330
1F
100
AcDbEntity
  8
0
 62
     0
100
AcDbLine
 10
91.10211405771769
 20
281.0388177244604
 30
0.0
 11
93.52698518831415
 21
281.0388177244604
 31
0.0
  0
LINE
  5
79C
330
1F
100
AcDbEntity
  8
0
 62
     0
100
AcDbLine
 10
91.81454962301632
 20
291.3988177244601
 30
0.0
 11
92.81454962301632
 21
291.3988177244601
 31
0.0
  0
LINE
  5
79D
330
1F
100
AcDbEntity
  8
0
 62
     0
100
AcDbLine
 10
91.81454962301632
 20
292.3988177244601
 30
0.0
 11
92.81454962301632
 21
292.3988177244601
 31
0.0
  0
LINE
  5
79E
330
1F
100
AcDbEntity
  8
0
 62
     0
100
AcDbLine
 10
91.81454962301632
 20
291.3988177244601
 30
0.0
 11
91.81454962301632
 21
292.3988177244601
 31
0.0
  0
LINE
  5
79F
330
1F
100
AcDbEntity
  8
0
 62
     0
100
AcDbLine
 10
92.81454962301632
 20
292.3988177244601
 30
0.0
 11
92.81454962301632
 21
291.3988177244601
 31
0.0
  0
LINE
  5
7A0
330
1F
100
AcDbEntity
  8
0
 62
     0
100
AcDbLine
 10
92.08249881544771
 20
291.6667669168908
 30
0.0
 11
92.54660043058548
 21
291.6667669168908
 31
0.0
  0
LINE
  5
7A1
330
1F
100
AcDbEntity
  8
0
 62
     0
100
AcDbLine
 10
92.08249881544771
 20
292.1308685320291
 30
0.0
 11
92.08249881544771
 21
291.6667669168908
 31
0.0
  0
LINE
  5
7A2
330
1F
100
AcDbEntity
  8
0
 62
     0
100
AcDbLine
 10
92.08249881544771
 20
292.1308685320291
 30
0.0
 11
91.81454962301632
 21
292.3988177244601
 31
0.0
  0
LINE
  5
7A3
330
1F
100
AcDbEntity
  8
0
 62
     0
100
AcDbLine
 10
92.54660043058548
 20
291.6667669168908
 30
0.0
 11
92.54660043058548
 21
292.1308685320291
 31
0.0
  0
LINE
  5
7A4
330
1F
100
AcDbEntity
  8
0
 62
     0
100
AcDbLine
 10
92.08249881544771
 20
292.1308685320291
 30
0.0
 11
92.54660043058548
 21
292.1308685320291
 31
0.0
  0
LINE
  5
7A5
330
1F
100
AcDbEntity
  8
0
 62
     0
100
AcDbLine
 10
92.54660043058548
 20
291.6667669168908
 30
0.0
 11
92.81454962301632
 21
291.3988177244601
 31
0.0
  0
LINE
  5
7A6
330
1F
100
AcDbEntity
  8
0
 62
     0
100
AcDbLine
 10
91.81454962301632
 20
291.3988177244601
 30
0.0
 11
92.08249881544771
 21
291.6667669168908
 31
0.0
  0
LINE
  5
7A7
330
1F
100
AcDbEntity
  8
0
 62
     0
100
AcDbLine
 10
92.54660043058548
 20
292.1308685320291
 30
0.0
 11
92.81454962301632
 21
292.3988177244601
 31
0.0
  0
LINE
  5
7A8
330
1F
100
AcDbEntity
  8
0
 62
     0
100
AcDbLine
 10
94.81454962301596
 20
279.584751801606
 30
0.0
 11
94.81454962301596
 21
279.1988177244602
 31
0.0
  0
LINE
  5
7A9
330
1F
100
AcDbEntity
  8
0
 62
     0
100
AcDbLine
 10
94.81454962301596
 20
283.8928836473142
 30
0.0
 11
94.81454962301596
 21
284.6647518016071
 31
0.0
  0
LINE
  5
7AA
330
1F
100
AcDbEntity
  8
0
 62
     0
100
AcDbLine
 10
94.81454962301596
 20
288.9728836473141
 30
0.0
 11
94.81454962301596
 21
289.744751801607
 31
0.0
  0
LINE
  5
7AB
330
1F
100
AcDbEntity
  8
0
 62
     0
100
AcDbLine
 10
94.51454962301573
 20
293.9384255298973
 30
0.0
 11
94.51454962301573
 21
294.9392099190236
 31
0.0
  0
LINE
  5
7AC
330
1F
100
AcDbEntity
  8
0
 62
     0
100
AcDbLine
 10
94.81454962301596
 20
294.0528836473141
 30
0.0
 11
94.81454962301596
 21
294.8247518016068
 31
0.0
  0
LINE
  5
7AD
330
1F
100
AcDbEntity
  8
0
 62
     0
100
AcDbLine
 10
94.51454962301573
 20
288.8584255298973
 30
0.0
 11
94.51454962301573
 21
289.8592099190237
 31
0.0
  0
LINE
  5
7AE
330
1F
100
AcDbEntity
  8
0
 62
     0
100
AcDbLine
 10
94.51454962301573
 20
283.7784255298974
 30
0.0
 11
94.51454962301573
 21
284.7792099190236
 31
0.0
  0
LINE
  5
7AF
330
1F
100
AcDbEntity
  8
0
 62
     0
100
AcDbLine
 10
94.51454962301573
 20
279.1988177244602
 30
0.0
 11
94.51454962301573
 21
279.6992099190229
 31
0.0
  0
LINE
  5
7B0
330
1F
100
AcDbEntity
  8
0
 62
     0
100
AcDbLine
 10
91.81454962301632
 20
286.31881772446
 30
0.0
 11
91.81454962301632
 21
287.3188177244601
 31
0.0
  0
LINE
  5
7B1
330
1F
100
AcDbEntity
  8
0
 62
     0
100
AcDbLine
 10
92.81454962301632
 20
287.3188177244601
 30
0.0
 11
92.81454962301598
 21
286.31881772446
 31
0.0
  0
LINE
  5
7B2
330
1F
100
AcDbEntity
  8
0
 62
     0
100
AcDbLine
 10
92.54660043058548
 20
286.586766916891
 30
0.0
 11
92.81454962301598
 21
286.31881772446
 31
0.0
  0
LINE
  5
7B3
330
1F
100
AcDbEntity
  8
0
 62
     0
100
AcDbLine
 10
92.81454962301598
 20
286.31881772446
 30
0.0
 11
91.81454962301632
 21
286.31881772446
 31
0.0
  0
LINE
  5
7B4
330
1F
100
AcDbEntity
  8
0
 62
     0
100
AcDbLine
 10
91.81454962301632
 20
286.31881772446
 30
0.0
 11
92.08249881544771
 21
286.586766916891
 31
0.0
  0
LINE
  5
7B5
330
1F
100
AcDbEntity
  8
0
 62
     0
100
AcDbLine
 10
92.54660043058548
 20
287.0508685320292
 30
0.0
 11
92.54660043058548
 21
286.586766916891
 31
0.0
  0
LINE
  5
7B6
330
1F
100
AcDbEntity
  8
0
 62
     0
100
AcDbLine
 10
92.08249881544771
 20
286.586766916891
 30
0.0
 11
92.54660043058548
 21
286.586766916891
 31
0.0
  0
LINE
  5
7B7
330
1F
100
AcDbEntity
  8
0
 62
     0
100
AcDbLine
 10
92.08249881544771
 20
287.0508685320292
 30
0.0
 11
92.08249881544771
 21
286.586766916891
 31
0.0
  0
LINE
  5
7B8
330
1F
100
AcDbEntity
  8
0
 62
     0
100
AcDbLine
 10
92.08249881544771
 20
287.0508685320292
 30
0.0
 11
92.54660043058548
 21
287.0508685320292
 31
0.0
  0
LINE
  5
7B9
330
1F
100
AcDbEntity
  8
0
 62
     0
100
AcDbLine
 10
92.08249881544771
 20
287.0508685320292
 30
0.0
 11
91.81454962301632
 21
287.3188177244601
 31
0.0
  0
LINE
  5
7BA
330
1F
100
AcDbEntity
  8
0
 62
     0
100
AcDbLine
 10
91.81454962301632
 20
287.3188177244601
 30
0.0
 11
92.81454962301632
 21
287.3188177244601
 31
0.0
  0
LINE
  5
7BB
330
1F
100
AcDbEntity
  8
0
 62
     0
100
AcDbLine
 10
92.54660043058548
 20
287.0508685320292
 30
0.0
 11
92.81454962301632
 21
287.3188177244601
 31
0.0
  0
LINE
  5
7BC
330
1F
100
AcDbEntity
  8
0
 62
     0
100
AcDbLine
 10
89.22115676587281
 20
297.5838177244601
 30
0.0
 11
89.22115676587281
 21
297.6228289052424
 31
0.0
  0
LINE
  5
7BD
330
1F
100
AcDbEntity
  8
0
 62
     0
100
AcDbLine
 10
89.22115676587281
 20
296.3738177244603
 30
0.0
 11
89.22115676587281
 21
297.5838177244601
 31
0.0
  0
LINE
  5
7BE
330
1F
100
AcDbEntity
  8
0
 62
     0
100
AcDbLine
 10
89.22115676587281
 20
296.3348065436785
 30
0.0
 11
89.22115676587281
 21
296.3738177244603
 31
0.0
  0
LINE
  5
7BF
330
1F
100
AcDbEntity
  8
0
 62
     0
100
AcDbLine
 10
89.22115676587281
 20
287.4628289052423
 30
0.0
 11
89.22115676587281
 21
291.2548065436785
 31
0.0
  0
LINE
  5
7C0
330
1F
100
AcDbEntity
  8
0
 62
     0
100
AcDbLine
 10
89.22115676587281
 20
291.2938177244601
 30
0.0
 11
89.22115676587281
 21
291.2548065436785
 31
0.0
  0
LINE
  5
7C1
330
1F
100
AcDbEntity
  8
0
 62
     0
100
AcDbLine
 10
89.22115676587281
 20
292.5038177244605
 30
0.0
 11
89.22115676587281
 21
291.2938177244601
 31
0.0
  0
LINE
  5
7C2
330
1F
100
AcDbEntity
  8
0
 62
     0
100
AcDbLine
 10
89.22115676587281
 20
292.5428289052425
 30
0.0
 11
89.22115676587281
 21
296.3348065436785
 31
0.0
  0
LINE
  5
7C3
330
1F
100
AcDbEntity
  8
0
 62
     0
100
AcDbLine
 10
89.22115676587281
 20
292.5038177244605
 30
0.0
 11
89.22115676587281
 21
292.5428289052425
 31
0.0
  0
LINE
  5
7C4
330
1F
100
AcDbEntity
  8
0
 62
     0
100
AcDbLine
 10
88.90954962301576
 20
282.7138177244606
 30
0.0
 11
88.90954962301576
 21
285.8438177244597
 31
0.0
  0
LINE
  5
7C5
330
1F
100
AcDbEntity
  8
0
 62
     0
100
AcDbLine
 10
88.90954962301576
 20
287.7938177244605
 30
0.0
 11
88.90954962301576
 21
290.9238177244606
 31
0.0
  0
LINE
  5
7C6
330
1F
100
AcDbEntity
  8
0
 62
     0
100
AcDbLine
 10
88.90954962301576
 20
292.8738177244603
 30
0.0
 11
88.90954962301576
 21
296.0038177244602
 31
0.0
  0
LINE
  5
7C7
330
1F
100
AcDbEntity
  8
0
 62
     0
100
AcDbLine
 10
88.90954962301576
 20
297.9538177244601
 30
0.0
 11
89.22115676587281
 21
297.6228289052424
 31
0.0
  0
LINE
  5
7C8
330
1F
100
AcDbEntity
  8
0
 62
     0
100
AcDbLine
 10
89.22115676587281
 20
286.1748065436776
 30
0.0
 11
88.90954962301576
 21
285.8438177244597
 31
0.0
  0
LINE
  5
7C9
330
1F
100
AcDbEntity
  8
0
 62
     0
100
AcDbLine
 10
88.90954962301576
 20
282.7138177244606
 30
0.0
 11
89.22115676587281
 21
282.3828289052423
 31
0.0
  0
LINE
  5
7CA
330
1F
100
AcDbEntity
  8
0
 62
     0
100
AcDbLine
 10
88.90954962301576
 20
292.8738177244603
 30
0.0
 11
89.22115676587281
 21
292.5428289052425
 31
0.0
  0
LINE
  5
7CB
330
1F
100
AcDbEntity
  8
0
 62
     0
100
AcDbLine
 10
88.08454962301595
 20
292.8738177244603
 30
0.0
 11
88.90954962301576
 21
292.8738177244603
 31
0.0
  0
LINE
  5
7CC
330
1F
100
AcDbEntity
  8
0
 62
     0
100
AcDbLine
 10
88.08454962301595
 20
292.8738177244603
 30
0.0
 11
88.08454962301595
 21
296.0038177244602
 31
0.0
  0
LINE
  5
7CD
330
1F
100
AcDbEntity
  8
0
 62
     0
100
AcDbLine
 10
89.22115676587281
 20
302.7028289052422
 30
0.0
 11
89.22115676587281
 21
304.5988177244598
 31
0.0
  0
LINE
  5
7CE
330
1F
100
AcDbEntity
  8
0
 62
     0
100
AcDbLine
 10
93.06454962301598
 20
299.7197796187835
 30
0.0
 11
93.06454962301598
 21
299.3178558301368
 31
0.0
  0
LINE
  5
7CF
330
1F
100
AcDbEntity
  8
0
 62
     0
100
AcDbLine
 10
93.06454962301598
 20
299.3178558301368
 30
0.0
 11
92.31454962301596
 21
299.51881772446
 31
0.0
  0
LINE
  5
7D0
330
1F
100
AcDbEntity
  8
0
 62
     0
100
AcDbLine
 10
92.31454962301596
 20
299.51881772446
 30
0.0
 11
93.06454962301598
 21
299.7197796187835
 31
0.0
  0
LINE
  5
7D1
330
1F
100
AcDbEntity
  8
0
 62
     0
100
AcDbLine
 10
88.08454962301595
 20
297.9538177244601
 30
0.0
 11
88.08454962301595
 21
301.0838177244603
 31
0.0
  0
LINE
  5
7D2
330
1F
100
AcDbEntity
  8
0
 62
     0
100
AcDbLine
 10
89.22115676587281
 20
301.4148065436783
 30
0.0
 11
89.22115676587281
 21
301.4538177244602
 31
0.0
  0
LINE
  5
7D3
330
1F
100
AcDbEntity
  8
0
 62
     0
100
AcDbLine
 10
89.22115676587281
 20
297.6228289052424
 30
0.0
 11
89.22115676587281
 21
301.4148065436783
 31
0.0
  0
LINE
  5
7D4
330
1F
100
AcDbEntity
  8
0
 62
     0
100
AcDbLine
 10
88.90954962301576
 20
297.9538177244601
 30
0.0
 11
88.90954962301576
 21
301.0838177244603
 31
0.0
  0
LINE
  5
7D5
330
1F
100
AcDbEntity
  8
0
 62
     0
100
AcDbLine
 10
89.22115676587281
 20
304.5988177244598
 30
0.0
 11
88.90954962301576
 21
304.5988177244598
 31
0.0
  0
LINE
  5
7D6
330
1F
100
AcDbEntity
  8
0
 62
     0
100
AcDbLine
 10
88.90954962301576
 20
304.5988177244598
 30
0.0
 11
88.90954962301576
 21
303.0338177244601
 31
0.0
  0
LINE
  5
7D7
330
1F
100
AcDbEntity
  8
0
 62
     0
100
AcDbLine
 10
88.08454962301595
 20
303.0338177244601
 30
0.0
 11
88.90954962301576
 21
303.0338177244601
 31
0.0
  0
LINE
  5
7D8
330
1F
100
AcDbEntity
  8
0
 62
     0
100
AcDbLine
 10
94.81454962301596
 20
304.5988177244598
 30
0.0
 11
94.81454962301596
 21
304.2128836473139
 31
0.0
  0
LINE
  5
7D9
330
1F
100
AcDbEntity
  8
0
 62
     0
100
AcDbLine
 10
94.51454962301573
 20
304.0984255298972
 30
0.0
 11
94.51454962301573
 21
304.5988177244598
 31
0.0
  0
LINE
  5
7DA
330
1F
100
AcDbEntity
  8
0
 62
     0
100
AcDbLine
 10
94.51454962301573
 20
304.5988177244598
 30
0.0
 11
89.22115676587281
 21
304.5988177244598
 31
0.0
  0
LINE
  5
7DB
330
1F
100
AcDbEntity
  8
0
 62
     0
100
AcDbLine
 10
94.81454962301596
 20
304.5988177244598
 30
0.0
 11
94.51454962301573
 21
304.5988177244598
 31
0.0
  0
LINE
  5
7DC
330
1F
100
AcDbEntity
  8
0
 62
     0
100
AcDbLine
 10
92.81454962301678
 20
302.5588177244598
 30
0.0
 11
92.54660043058548
 21
302.290868532029
 31
0.0
  0
LINE
  5
7DD
330
1F
100
AcDbEntity
  8
0
 62
     0
100
AcDbLine
 10
92.81454962301632
 20
301.5588177244598
 30
0.0
 11
92.81454962301678
 21
302.5588177244598
 31
0.0
  0
LINE
  5
7DE
330
1F
100
AcDbEntity
  8
0
 62
     0
100
AcDbLine
 10
92.54660043058548
 20
301.8267669168908
 30
0.0
 11
92.81454962301632
 21
301.5588177244598
 31
0.0
  0
LINE
  5
7DF
330
1F
100
AcDbEntity
  8
0
 62
     0
100
AcDbLine
 10
92.54660043058548
 20
301.8267669168908
 30
0.0
 11
92.54660043058548
 21
302.290868532029
 31
0.0
  0
LINE
  5
7E0
330
1F
100
AcDbEntity
  8
0
 62
     0
100
AcDbLine
 10
91.81454962301677
 20
302.5588177244598
 30
0.0
 11
92.81454962301678
 21
302.5588177244598
 31
0.0
  0
LINE
  5
7E1
330
1F
100
AcDbEntity
  8
0
 62
     0
100
AcDbLine
 10
91.81454962301632
 20
301.5588177244598
 30
0.0
 11
92.08249881544771
 21
301.8267669168908
 31
0.0
  0
LINE
  5
7E2
330
1F
100
AcDbEntity
  8
0
 62
     0
100
AcDbLine
 10
91.81454962301677
 20
302.5588177244598
 30
0.0
 11
91.81454962301632
 21
301.5588177244598
 31
0.0
  0
LINE
  5
7E3
330
1F
100
AcDbEntity
  8
0
 62
     0
100
AcDbLine
 10
91.81454962301677
 20
302.5588177244598
 30
0.0
 11
92.08249881544771
 21
302.290868532029
 31
0.0
  0
LINE
  5
7E4
330
1F
100
AcDbEntity
  8
0
 62
     0
100
AcDbLine
 10
92.08249881544771
 20
301.8267669168908
 30
0.0
 11
92.54660043058548
 21
301.8267669168908
 31
0.0
  0
LINE
  5
7E5
330
1F
100
AcDbEntity
  8
0
 62
     0
100
AcDbLine
 10
92.08249881544771
 20
302.290868532029
 30
0.0
 11
92.08249881544771
 21
301.8267669168908
 31
0.0
  0
LINE
  5
7E6
330
1F
100
AcDbEntity
  8
0
 62
     0
100
AcDbLine
 10
92.08249881544771
 20
302.290868532029
 30
0.0
 11
92.54660043058548
 21
302.290868532029
 31
0.0
  0
LINE
  5
7E7
330
1F
100
AcDbEntity
  8
0
 62
     0
100
AcDbLine
 10
91.81454962301632
 20
301.5588177244598
 30
0.0
 11
92.81454962301632
 21
301.5588177244598
 31
0.0
  0
LINE
  5
7E8
330
1F
100
AcDbEntity
  8
0
 62
     0
100
AcDbLine
 10
88.08454962301595
 20
301.0838177244603
 30
0.0
 11
88.90954962301576
 21
301.0838177244603
 31
0.0
  0
LINE
  5
7E9
330
1F
100
AcDbEntity
  8
0
 62
     0
100
AcDbLine
 10
89.22115676587281
 20
301.4148065436783
 30
0.0
 11
88.90954962301576
 21
301.0838177244603
 31
0.0
  0
LINE
  5
7EA
330
1F
100
AcDbEntity
  8
0
 62
     0
100
AcDbLine
 10
88.90954962301576
 20
303.0338177244601
 30
0.0
 11
89.22115676587281
 21
302.7028289052422
 31
0.0
  0
LINE
  5
7EB
330
1F
100
AcDbEntity
  8
0
 62
     0
100
AcDbLine
 10
89.22115676587281
 20
302.6638177244604
 30
0.0
 11
89.22115676587281
 21
302.7028289052422
 31
0.0
  0
LINE
  5
7EC
330
1F
100
AcDbEntity
  8
0
 62
     0
100
AcDbLine
 10
89.22115676587281
 20
301.4538177244602
 30
0.0
 11
89.22115676587281
 21
302.6638177244604
 31
0.0
  0
LINE
  5
7ED
330
1F
100
AcDbEntity
  8
0
 62
     0
100
AcDbLine
 10
92.11358772869244
 20
278.1988177244601
 30
0.0
 11
92.31454962301596
 21
278.1988177244601
 31
0.0
  0
LINE
  5
7EE
330
1F
100
AcDbEntity
  8
0
 62
     0
100
AcDbLine
 10
92.51551151733929
 20
278.1988177244601
 30
0.0
 11
96.18454962301576
 21
278.1988177244601
 31
0.0
  0
LINE
  5
7EF
330
1F
100
AcDbEntity
  8
0
 62
     0
100
AcDbLine
 10
92.31454962301596
 20
278.1988177244601
 30
0.0
 11
92.51551151733929
 21
278.1988177244601
 31
0.0
  0
LINE
  5
7F0
330
1F
100
AcDbEntity
  8
0
 62
     0
100
AcDbLine
 10
88.51454962301572
 20
278.1988177244601
 30
0.0
 11
92.11358772869244
 21
278.1988177244601
 31
0.0
  0
LINE
  5
7F1
330
1F
100
AcDbEntity
  8
0
 62
     0
100
AcDbLine
 10
88.08454962301595
 20
278.1988177244601
 30
0.0
 11
88.51454962301572
 21
278.1988177244601
 31
0.0
  0
LINE
  5
7F2
330
1F
100
AcDbEntity
  8
0
 62
     0
100
AcDbLine
 10
88.08454962301595
 20
280.7638177244598
 30
0.0
 11
88.08454962301595
 21
278.1988177244601
 31
0.0
  0
LINE
  5
7F3
330
1F
100
AcDbEntity
  8
0
 62
     0
100
AcDbLine
 10
92.83455076301516
 20
305.5988177244598
 30
0.0
 11
88.51454962301572
 21
305.5988177244598
 31
0.0
  0
LINE
  5
7F4
330
1F
100
AcDbEntity
  8
0
 62
     0
100
AcDbLine
 10
93.03480670486214
 20
305.5988177244598
 30
0.0
 11
92.83455076301516
 21
305.5988177244598
 31
0.0
  0
LINE
  5
7F5
330
1F
100
AcDbEntity
  8
0
 62
     0
100
AcDbLine
 10
93.143308739384
 20
305.5988177244598
 30
0.0
 11
93.03480670486214
 21
305.5988177244598
 31
0.0
  0
LINE
  5
7F6
330
1F
100
AcDbEntity
  8
0
 62
     0
100
AcDbLine
 10
93.2935006957688
 20
305.5988177244598
 30
0.0
 11
93.143308739384
 21
305.5988177244598
 31
0.0
  0
LINE
  5
7F7
330
1F
100
AcDbEntity
  8
0
 62
     0
100
AcDbLine
 10
93.52145210801257
 20
305.5988177244598
 30
0.0
 11
93.2935006957688
 21
305.5988177244598
 31
0.0
  0
LINE
  5
7F8
330
1F
100
AcDbEntity
  8
0
 62
     0
100
AcDbLine
 10
95.68454962301577
 20
305.5988177244598
 30
0.0
 11
95.48429368116922
 21
305.5988177244598
 31
0.0
  0
LINE
  5
7F9
330
1F
100
AcDbEntity
  8
0
 62
     0
100
AcDbLine
 10
96.18454962301576
 20
305.5988177244598
 30
0.0
 11
95.68454962301577
 21
305.5988177244598
 31
0.0
  0
LINE
  5
7FA
330
1F
100
AcDbEntity
  8
0
 62
     0
100
AcDbLine
 10
93.65657570765199
 20
305.5988177244598
 30
0.0
 11
93.52145210801257
 21
305.5988177244598
 31
0.0
  0
LINE
  5
7FB
330
1F
100
AcDbEntity
  8
0
 62
     0
100
AcDbLine
 10
94.5724134385415
 20
305.5988177244598
 30
0.0
 11
94.43728983890251
 21
305.5988177244598
 31
0.0
  0
LINE
  5
7FC
330
1F
100
AcDbEntity
  8
0
 62
     0
100
AcDbLine
 10
94.80036485078516
 20
305.5988177244598
 30
0.0
 11
94.5724134385415
 21
305.5988177244598
 31
0.0
  0
LINE
  5
7FD
330
1F
100
AcDbEntity
  8
0
 62
     0
100
AcDbLine
 10
95.37579164663986
 20
305.5988177244598
 30
0.0
 11
95.22559969025506
 21
305.5988177244598
 31
0.0
  0
LINE
  5
7FE
330
1F
100
AcDbEntity
  8
0
 62
     0
100
AcDbLine
 10
95.48429368116922
 20
305.5988177244598
 30
0.0
 11
95.37579164663986
 21
305.5988177244598
 31
0.0
  0
LINE
  5
7FF
330
1F
100
AcDbEntity
  8
0
 62
     0
100
AcDbLine
 10
94.95055680717053
 20
305.5988177244598
 30
0.0
 11
94.80036485078516
 21
305.5988177244598
 31
0.0
  0
LINE
  5
800
330
1F
100
AcDbEntity
  8
0
 62
     0
100
AcDbLine
 10
95.22559969025506
 20
305.5988177244598
 30
0.0
 11
94.95055680717053
 21
305.5988177244598
 31
0.0
  0
LINE
  5
801
330
1F
100
AcDbEntity
  8
0
 62
     0
100
AcDbLine
 10
93.82998883627623
 20
305.5988177244598
 30
0.0
 11
93.65657570765199
 21
305.5988177244598
 31
0.0
  0
LINE
  5
802
330
1F
100
AcDbEntity
  8
0
 62
     0
100
AcDbLine
 10
94.26387671027772
 20
305.5988177244598
 30
0.0
 11
93.82998883627623
 21
305.5988177244598
 31
0.0
  0
LINE
  5
803
330
1F
100
AcDbEntity
  8
0
 62
     0
100
AcDbLine
 10
94.43728983890251
 20
305.5988177244598
 30
0.0
 11
94.26387671027772
 21
305.5988177244598
 31
0.0
  0
LINE
  5
804
330
1F
100
AcDbEntity
  8
0
 62
     0
100
AcDbLine
 10
87.61138831846983
 20
297.5838177244601
 30
0.0
 11
88.08454962301595
 21
297.9538177244601
 31
0.0
  0
LINE
  5
805
330
1F
100
AcDbEntity
  8
0
 62
     0
100
AcDbLine
 10
87.61138831846983
 20
297.5838177244601
 30
0.0
 11
87.61138831846983
 21
296.3738177244603
 31
0.0
  0
LINE
  5
806
330
1F
100
AcDbEntity
  8
0
 62
     0
100
AcDbLine
 10
87.61138831846983
 20
291.2938177244601
 30
0.0
 11
88.08454962301595
 21
290.9238177244606
 31
0.0
  0
LINE
  5
807
330
1F
100
AcDbEntity
  8
0
 62
     0
100
AcDbLine
 10
87.61138831846983
 20
291.2938177244601
 30
0.0
 11
89.22115676587281
 21
291.2938177244601
 31
0.0
  0
LINE
  5
808
330
1F
100
AcDbEntity
  8
0
 62
     0
100
AcDbLine
 10
87.61138831846983
 20
287.4238177244606
 30
0.0
 11
88.08454962301595
 21
287.7938177244605
 31
0.0
  0
LINE
  5
809
330
1F
100
AcDbEntity
  8
0
 62
     0
100
AcDbLine
 10
87.61138831846983
 20
286.2138177244606
 30
0.0
 11
87.61138831846983
 21
287.4238177244606
 31
0.0
  0
LINE
  5
80A
330
1F
100
AcDbEntity
  8
0
 62
     0
100
AcDbLine
 10
87.61138831846983
 20
286.2138177244606
 30
0.0
 11
88.08454962301595
 21
285.8438177244597
 31
0.0
  0
LINE
  5
80B
330
1F
100
AcDbEntity
  8
0
 62
     0
100
AcDbLine
 10
87.61138831846983
 20
291.2938177244601
 30
0.0
 11
87.61138831846983
 21
292.5038177244605
 31
0.0
  0
LINE
  5
80C
330
1F
100
AcDbEntity
  8
0
 62
     0
100
AcDbLine
 10
87.61138831846983
 20
282.3438177244597
 30
0.0
 11
88.08454962301595
 21
282.7138177244606
 31
0.0
  0
LINE
  5
80D
330
1F
100
AcDbEntity
  8
0
 62
     0
100
AcDbLine
 10
87.61138831846983
 20
281.1338177244596
 30
0.0
 11
87.61138831846983
 21
282.3438177244597
 31
0.0
  0
LINE
  5
80E
330
1F
100
AcDbEntity
  8
0
 62
     0
100
AcDbLine
 10
89.22115676587281
 20
282.3438177244597
 30
0.0
 11
87.61138831846983
 21
282.3438177244597
 31
0.0
  0
LINE
  5
80F
330
1F
100
AcDbEntity
  8
0
 62
     0
100
AcDbLine
 10
88.08454962301595
 20
280.7638177244598
 30
0.0
 11
87.61138831846983
 21
281.1338177244596
 31
0.0
  0
LINE
  5
810
330
1F
100
AcDbEntity
  8
0
 62
     0
100
AcDbLine
 10
87.61138831846983
 20
286.2138177244606
 30
0.0
 11
89.22115676587281
 21
286.2138177244606
 31
0.0
  0
LINE
  5
811
330
1F
100
AcDbEntity
  8
0
 62
     0
100
AcDbLine
 10
87.61138831846983
 20
292.5038177244605
 30
0.0
 11
88.08454962301595
 21
292.8738177244603
 31
0.0
  0
LINE
  5
812
330
1F
100
AcDbEntity
  8
0
 62
     0
100
AcDbLine
 10
89.22115676587281
 20
292.5038177244605
 30
0.0
 11
87.61138831846983
 21
292.5038177244605
 31
0.0
  0
LINE
  5
813
330
1F
100
AcDbEntity
  8
0
 62
     0
100
AcDbLine
 10
87.61138831846983
 20
301.4538177244602
 30
0.0
 11
89.22115676587281
 21
301.4538177244602
 31
0.0
  0
LINE
  5
814
330
1F
100
AcDbEntity
  8
0
 62
     0
100
AcDbLine
 10
87.61138831846983
 20
301.4538177244602
 30
0.0
 11
87.61138831846983
 21
302.6638177244604
 31
0.0
  0
LINE
  5
815
330
1F
100
AcDbEntity
  8
0
 62
     0
100
AcDbLine
 10
89.22115676587281
 20
302.6638177244604
 30
0.0
 11
87.61138831846983
 21
302.6638177244604
 31
0.0
  0
LINE
  5
816
330
1F
100
AcDbEntity
  8
0
 62
     0
100
AcDbLine
 10
87.61138831846983
 20
302.6638177244604
 30
0.0
 11
88.08454962301595
 21
303.0338177244601
 31
0.0
  0
LINE
  5
817
330
1F
100
AcDbEntity
  8
0
 62
     0
100
AcDbLine
 10
87.58454962301597
 20
278.1988177244601
 30
0.0
 11
88.08454962301595
 21
278.1988177244601
 31
0.0
  0
LINE
  5
818
330
1F
100
AcDbEntity
  8
0
 62
     0
100
AcDbLine
 10
87.58454962301597
 20
278.1988177244601
 30
0.0
 11
87.58454962301597
 21
305.5988177244598
 31
0.0
  0
LINE
  5
819
330
1F
100
AcDbEntity
  8
0
 62
     0
100
AcDbLine
 10
88.08454962301595
 20
305.5988177244598
 30
0.0
 11
87.58454962301597
 21
305.5988177244598
 31
0.0
  0
ARC
  5
81A
330
1F
100
AcDbEntity
  8
0
 62
     0
100
AcDbCircle
 10
92.31454962301631
 20
302.0588177244598
 30
0.0
 40
3.299999999999346
100
AcDbArc
 50
319.2509456225096
 51
40.74905437749029
  0
ARC
  5
81B
330
1F
100
AcDbEntity
  8
0
 62
     0
100
AcDbCircle
 10
92.31454962301631
 20
302.0588177244598
 30
0.0
 40
2.999999999999346
100
AcDbArc
 50
317.1665719339526
 51
42.83342806604736
  0
ARC
  5
81C
330
1F
100
AcDbEntity
  8
0
 62
     0
100
AcDbCircle
 10
92.31454962301596
 20
281.7388177244601
 30
0.0
 40
1.400000000000003
100
AcDbArc
 50
330.0000000000068
 51
209.9999999999929
  0
ARC
  5
81D
330
1F
100
AcDbEntity
  8
0
 62
     0
100
AcDbCircle
 10
92.31454962301596
 20
286.81881772446
 30
0.0
 40
2.999999999999798
100
AcDbArc
 50
317.1665719339526
 51
42.83342806604736
  0
ARC
  5
81E
330
1F
100
AcDbEntity
  8
0
 62
     0
100
AcDbCircle
 10
92.31454962301596
 20
281.7388177244601
 30
0.0
 40
3.299999999999986
100
AcDbArc
 50
319.2509456225477
 51
40.74905437745228
  0
ARC
  5
81F
330
1F
100
AcDbEntity
  8
0
 62
     0
100
AcDbCircle
 10
92.31454962301596
 20
286.81881772446
 30
0.0
 40
3.299999999999825
100
AcDbArc
 50
319.2509456225477
 51
40.74905437745228
  0
ARC
  5
820
330
1F
100
AcDbEntity
  8
0
 62
     0
100
AcDbCircle
 10
92.31454962301596
 20
291.8988177244601
 30
0.0
 40
3.299999999999825
100
AcDbArc
 50
319.2509456225477
 51
40.74905437745228
  0
ARC
  5
821
330
1F
100
AcDbEntity
  8
0
 62
     0
100
AcDbCircle
 10
92.31454962301596
 20
296.9788177244598
 30
0.0
 40
3.299999999999816
100
AcDbArc
 50
319.2509456225477
 51
40.74905437745228
  0
ARC
  5
822
330
1F
100
AcDbEntity
  8
0
 62
     0
100
AcDbCircle
 10
92.31454962301596
 20
291.8988177244601
 30
0.0
 40
2.999999999999798
100
AcDbArc
 50
317.1665719339526
 51
42.83342806604736
  0
ARC
  5
823
330
1F
100
AcDbEntity
  8
0
 62
     0
100
AcDbCircle
 10
92.31454962301596
 20
296.9788177244598
 30
0.0
 40
2.999999999999796
100
AcDbArc
 50
317.1665719339526
 51
42.83342806604736
  0
ARC
  5
824
330
1F
100
AcDbEntity
  8
0
 62
     0
100
AcDbCircle
 10
92.31454962301596
 20
281.7388177244601
 30
0.0
 40
2.99999999999996
100
AcDbArc
 50
317.1665719339526
 51
42.83342806604736
  0
CIRCLE
  5
825
330
1F
100
AcDbEntity
  8
0
 62
     0
100
AcDbCircle
 10
92.31454962301596
 20
296.9788177244598
 30
0.0
 40
1.399999999998762
  0
CIRCLE
  5
826
330
1F
100
AcDbEntity
  8
0
 62
     0
100
AcDbCircle
 10
92.31454962301596
 20
291.8988177244601
 30
0.0
 40
1.399999999998762
  0
CIRCLE
  5
827
330
1F
100
AcDbEntity
  8
0
 62
     0
100
AcDbCircle
 10
92.31454962301596
 20
286.81881772446
 30
0.0
 40
1.399999999999999
  0
CIRCLE
  5
828
330
1F
100
AcDbEntity
  8
0
 62
     0
100
AcDbCircle
 10
92.31454962301631
 20
302.0588177244598
 30
0.0
 40
1.399999999999379
  0
ARC
  5
829
330
1F
100
AcDbEntity
  8
0
 62
     0
100
AcDbCircle
 10
101.2260268437507
 20
266.6281294056568
 30
6.483974233579615E+99
 40
18.41680697560812
100
AcDbArc
 50
110.3730936678199
 51
110.8717620092467
  0
LINE
  5
82A
330
1F
100
AcDbEntity
  8
0
 62
     0
100
AcDbLine
 10
94.66453221219998
 20
283.8364287805788
 30
6.483974233579615E+99
 11
94.58901523262102
 21
283.8074271548866
 31
6.483974233579615E+99
  0
LINE
  5
82B
330
1F
100
AcDbEntity
  8
0
 62
     0
100
AcDbLine
 10
94.58901523262102
 20
283.8074271548866
 30
6.483974233579615E+99
 11
94.51454962301573
 21
283.7784255298974
 31
6.483974233579615E+99
  0
ARC
  5
82C
330
1F
100
AcDbEntity
  8
0
 62
     0
100
AcDbCircle
 10
100.7009688478771
 20
295.472905105028
 30
6.483974233579615E+99
 40
16.94347197733493
100
AcDbArc
 50
248.584964048543
 51
249.1287512867593
  0
LINE
  5
82D
330
1F
100
AcDbEntity
  8
0
 62
     0
100
AcDbLine
 10
94.66453221219998
 20
279.6412066683415
 30
6.483974233579615E+99
 11
94.73933522412435
 21
279.6128692392475
 31
6.483974233579615E+99
  0
LINE
  5
82E
330
1F
100
AcDbEntity
  8
0
 62
     0
100
AcDbLine
 10
94.73933522412435
 20
279.6128692392475
 30
6.483974233579615E+99
 11
94.81454962301596
 21
279.584751801606
 31
6.483974233579615E+99
  0
ARC
  5
82F
330
1F
100
AcDbEntity
  8
0
 62
     0
100
AcDbCircle
 10
100.680716404207
 20
300.500537109995
 30
6.483974233579615E+99
 40
16.88732487456338
100
AcDbArc
 50
248.5840600477166
 51
249.1296552877334
  0
LINE
  5
830
330
1F
100
AcDbEntity
  8
0
 62
     0
100
AcDbLine
 10
94.66453221228858
 20
284.7212066683076
 30
6.483974233579615E+99
 11
94.73904292652573
 21
284.6929792344472
 31
6.483974233579615E+99
  0
LINE
  5
831
330
1F
100
AcDbEntity
  8
0
 62
     0
100
AcDbLine
 10
94.73904292652573
 20
284.6929792344472
 30
6.483974233579615E+99
 11
94.81454962301596
 21
284.6647518016071
 31
6.483974233579615E+99
  0
ARC
  5
832
330
1F
100
AcDbEntity
  8
0
 62
     0
100
AcDbCircle
 10
101.2260268436707
 20
271.7081294059398
 30
6.483974233579615E+99
 40
18.41680697531573
100
AcDbArc
 50
110.3730936679033
 51
110.8717620093304
  0
LINE
  5
833
330
1F
100
AcDbEntity
  8
0
 62
     0
100
AcDbLine
 10
94.66453221219998
 20
288.9164287805787
 30
6.483974233579615E+99
 11
94.58876734017314
 21
288.8873312844188
 31
6.483974233579615E+99
  0
LINE
  5
834
330
1F
100
AcDbEntity
  8
0
 62
     0
100
AcDbLine
 10
94.58876734017314
 20
288.8873312844188
 30
6.483974233579615E+99
 11
94.51454962301573
 21
288.8584255298973
 31
6.483974233579615E+99
  0
ARC
  5
835
330
1F
100
AcDbEntity
  8
0
 62
     0
100
AcDbCircle
 10
100.7009688485318
 20
305.6329051067031
 30
6.483974233579615E+99
 40
16.94347197913375
100
AcDbArc
 50
248.5849640485708
 51
249.1287512870383
  0
LINE
  5
836
330
1F
100
AcDbEntity
  8
0
 62
     0
100
AcDbLine
 10
94.66453221228858
 20
289.8012066683077
 30
6.483974233579615E+99
 11
94.73904292652468
 21
289.772979234448
 31
6.483974233579615E+99
  0
LINE
  5
837
330
1F
100
AcDbEntity
  8
0
 62
     0
100
AcDbLine
 10
94.73904292652468
 20
289.772979234448
 30
6.483974233579615E+99
 11
94.81454962301596
 21
289.744751801607
 31
6.483974233579615E+99
  0
ARC
  5
838
330
1F
100
AcDbEntity
  8
0
 62
     0
100
AcDbCircle
 10
100.6807151846419
 20
310.6605339565521
 30
6.483974233579615E+99
 40
16.8873214935453
100
AcDbArc
 50
248.5840599931689
 51
249.1296553424152
  0
LINE
  5
839
330
1F
100
AcDbEntity
  8
0
 62
     0
100
AcDbLine
 10
94.66453221228858
 20
294.8812066683077
 30
6.483974233579615E+99
 11
94.73904292652376
 21
294.852979234448
 31
6.483974233579615E+99
  0
LINE
  5
83A
330
1F
100
AcDbEntity
  8
0
 62
     0
100
AcDbLine
 10
94.73904292652376
 20
294.852979234448
 30
6.483974233579615E+99
 11
94.81454962301596
 21
294.8247518016068
 31
6.483974233579615E+99
  0
ARC
  5
83B
330
1F
100
AcDbEntity
  8
0
 62
     0
100
AcDbCircle
 10
101.2009870945731
 20
276.8546674838862
 30
6.483974233579615E+99
 40
18.34571401668807
100
AcDbArc
 50
110.3721274466995
 51
110.8727282303886
  0
LINE
  5
83C
330
1F
100
AcDbEntity
  8
0
 62
     0
100
AcDbLine
 10
94.66453221219998
 20
293.9964287805787
 30
6.483974233579615E+99
 11
94.58876733345823
 21
293.9673312818212
 31
6.483974233579615E+99
  0
LINE
  5
83D
330
1F
100
AcDbEntity
  8
0
 62
     0
100
AcDbLine
 10
94.58876733345823
 20
293.9673312818212
 30
6.483974233579615E+99
 11
94.51454962301573
 21
293.9384255298973
 31
6.483974233579615E+99
  0
ARC
  5
83E
330
1F
100
AcDbEntity
  8
0
 62
     0
100
AcDbCircle
 10
101.2260268436977
 20
286.9481294058676
 30
6.483974233579615E+99
 40
18.41680697539202
100
AcDbArc
 50
110.3730936679033
 51
110.8717620093304
  0
LINE
  5
83F
330
1F
100
AcDbEntity
  8
0
 62
     0
100
AcDbLine
 10
94.66453221219998
 20
304.1564287805785
 30
6.483974233579615E+99
 11
94.58876739572643
 21
304.1273313059036
 31
6.483974233579615E+99
  0
LINE
  5
840
330
1F
100
AcDbEntity
  8
0
 62
     0
100
AcDbLine
 10
94.58876739572643
 20
304.1273313059036
 30
6.483974233579615E+99
 11
94.51454962301573
 21
304.0984255298972
 31
6.483974233579615E+99
  0
ARC
  5
841
330
1F
100
AcDbEntity
  8
0
 62
     0
100
AcDbCircle
 10
100.6807163744612
 20
315.7405370330796
 30
6.483974233579615E+99
 40
16.8873247920978
100
AcDbArc
 50
248.5840600463733
 51
249.1296552890719
  0
LINE
  5
842
330
1F
100
AcDbEntity
  8
0
 62
     0
100
AcDbLine
 10
94.66453221228858
 20
299.9612066683076
 30
6.483974233579615E+99
 11
94.73904292652511
 21
299.9329792344478
 31
6.483974233579615E+99
  0
LINE
  5
843
330
1F
100
AcDbEntity
  8
0
 62
     0
100
AcDbLine
 10
94.73904292652511
 20
299.9329792344478
 30
6.483974233579615E+99
 11
94.81454962301596
 21
299.9047518016066
 31
6.483974233579615E+99
  0
ARC
  5
844
330
1F
100
AcDbEntity
  8
0
 62
     0
100
AcDbCircle
 10
101.2260268436784
 20
281.8681294058506
 30
0.0
 40
18.41680697540189
100
AcDbArc
 50
110.3730936678199
 51
110.8717620092467
  0
LINE
  5
845
330
1F
100
AcDbEntity
  8
0
 62
     0
100
AcDbLine
 10
94.66453221219998
 20
299.0764287805786
 30
0.0
 11
94.58901523262102
 21
299.0474271548865
 31
0.0
  0
LINE
  5
846
330
1F
100
AcDbEntity
  8
0
 62
     0
100
AcDbLine
 10
94.58901523262102
 20
299.0474271548865
 30
0.0
 11
94.51454962301573
 21
299.0184255298972
 31
0.0
  0
LINE
  5
847
330
1F
100
AcDbEntity
  8
0
 62
     0
100
AcDbLine
 10
96.18454962301576
 20
308.1988177244598
 30
0.0
 11
96.18454962301576
 21
275.5988177244599
 31
0.0
  0
LWPOLYLINE
  5
848
330
1F
100
AcDbEntity
  8
0
 62
     0
100
AcDbPolyline
 90
        4
 70
     1
 43
0.0
 10
98.68454962301495
 20
318.4488184581503
 10
100.2845496230152
 20
318.4488184581503
 10
100.2845496230152
 20
315.7488184581497
 10
98.68454962301495
 20
315.7488184581497
  0
LWPOLYLINE
  5
849
330
1F
100
AcDbEntity
  8
0
 62
     0
100
AcDbPolyline
 90
        4
 70
     1
 43
0.0
 10
98.68454962301495
 20
312.9488184581503
 10
100.2845496230152
 20
312.9488184581503
 10
100.2845496230152
 20
310.2488184581498
 10
98.68454962301495
 20
310.2488184581498
  0
LINE
  5
84A
330
1F
100
AcDbEntity
  8
0
100
AcDbLine
 10
96.18454962301576
 20
308.1988177244598
 30
0.0
 11
97.1846239355642
 21
308.1988177244598
 31
0.0
  0
LINE
  5
84B
330
1F
100
AcDbEntity
  8
0
100
AcDbLine
 10
96.18454962301576
 20
275.5988177244599
 30
0.0
 11
97.18462393556604
 21
275.5988177244599
 31
0.0
  0
MTEXT
  5
975
330
1F
100
AcDbEntity
  8
0
100
AcDbMText
 10
36.08651961002738
 20
421.4310699630146
 30
0.0
 40
10.0
 41
0.0
 71
     1
 72
     5
  1
SCON-C-400A~750A-CC-*-1/2\PSCON-C-100SA~750SA-CC-*-1/2
1001
ACAD
1000
MTEXTBEGIN
1070
    73
1070
     1
1070
    44
1040
1.0
1070
    74
1070
     0
1000
MTEXTEND
1000
MTEXTBEGIN
1070
    73
1070
     1
1070
    44
1040
1.0
1070
    74
1070
     0
1000
MTEXTEND
1000
MTEXTBEGIN
1070
    73
1070
     1
1070
    44
1040
1.0
1070
    74
1070
     0
1000
MTEXTEND
  0
ENDSEC
  0
SECTION
  2
OBJECTS
  0
DICTIONARY
  5
C
330
0
100
AcDbDictionary
  3
ACAD_GROUP
350
D
  3
ACAD_LAYOUT
350
1A
  3
ACAD_MLINESTYLE
350
17
  3
ACAD_PLOTSETTINGS
350
19
  3
ACAD_PLOTSTYLENAME
350
E
  3
ACDBHEADERROUNDTRIPXREC
350
9C9
  3
ACDBVARIABLEDICTIONARY
350
915
  0
DICTIONARY
  5
2DF
330
2
100
AcDbDictionary
280
     1
  3
ACAD_LAYERSTATES
360
2E0
  0
DICTIONARY
  5
93B
330
1F
100
AcDbDictionary
280
     1
  3
ACAD_LAYOUTSELFREF
360
9EA
  0
DICTIONARY
  5
939
330
1B
100
AcDbDictionary
280
     1
  3
ACAD_LAYOUTSELFREF
360
9E9
  0
DICTIONARY
  5
D
102
{ACAD_REACTORS
330
C
102
}
330
C
100
AcDbDictionary
  0
DICTIONARY
  5
1A
102
{ACAD_REACTORS
330
C
102
}
330
C
100
AcDbDictionary
  0
DICTIONARY
  5
17
102
{ACAD_REACTORS
330
C
102
}
330
C
100
AcDbDictionary
  3
STANDARD
350
18
  0
DICTIONARY
  5
19
102
{ACAD_REACTORS
330
C
102
}
330
C
100
AcDbDictionary
  0
ACDBDICTIONARYWDFLT
  5
E
102
{ACAD_REACTORS
330
C
102
}
330
C
100
AcDbDictionary
281
     1
  3
Normal
350
F
100
AcDbDictionaryWithDefault
340
F
  0
DICTIONARY
  5
9C9
102
{ACAD_REACTORS
330
C
102
}
330
C
100
AcDbDictionary
  3
CEPSNTYPE
350
9D3
  3
FINGERPRINTGUID
350
9D4
  3
HYPERLINKBASE
350
9CC
  3
INSUNITS
350
9D2
  3
LAYOUTDICT
350
9CE
  3
LWETCUNION
350
9D1
  3
PLOTSETDICT
350
9CF
  3
PLOTSTYLNAMDICT
350
9D0
  3
PSVPSCALE
350
9D6
  3
PUCSBASE
350
9D9
  3
PUCSORGBACK
350
9DF
  3
PUCSORGBOTTOM
350
9DB
  3
PUCSORGFRONT
350
9DE
  3
PUCSORGLEFT
350
9DC
  3
PUCSORGRIGHT
350
9DD
  3
PUCSORGTOP
350
9DA
  3
PUCSORTHOREF
350
9D7
  3
PUCSORTHOVIEW
350
9D8
  3
STYLESHEET
350
9CD
  3
TSTACKALIGN
350
9CA
  3
TSTACKSIZE
350
9CB
  3
UCSBASE
350
9E2
  3
UCSORGBACK
350
9E8
  3
UCSORGBOTTOM
350
9E4
  3
UCSORGFRONT
350
9E7
  3
UCSORGLEFT
350
9E5
  3
UCSORGRIGHT
350
9E6
  3
UCSORGTOP
350
9E3
  3
UCSORTHOREF
350
9E0
  3
UCSORTHOVIEW
350
9E1
  3
VERSIONGUID
350
9D5
  0
DICTIONARY
  5
915
102
{ACAD_REACTORS
330
C
102
}
330
C
100
AcDbDictionary
  3
DIMASSOC
350
917
  3
HIDETEXT
350
916
  0
DICTIONARY
  5
2E0
102
{ACAD_REACTORS
330
2DF
102
}
330
2DF
100
AcDbDictionary
  0
XRECORD
  5
9EA
102
{ACAD_REACTORS
330
93B
102
}
330
93B
100
AcDbXrecord
340
1F
  0
XRECORD
  5
9E9
102
{ACAD_REACTORS
330
939
102
}
330
939
100
AcDbXrecord
340
1B
  0
MLINESTYLE
  5
18
102
{ACAD_REACTORS
330
17
102
}
330
17
100
AcDbMlineStyle
  2
STANDARD
 70
     0
  3

 62
   256
 51
90.0
 52
90.0
 71
     2
 49
0.5
 62
   256
  6
BYLAYER
 49
-0.5
 62
   256
  6
BYLAYER
  0
ACDBPLACEHOLDER
  5
F
102
{ACAD_REACTORS
330
E
102
}
330
E
100
AcDbPlaceHolder
280
     0
  0
XRECORD
  5
9D3
102
{ACAD_REACTORS
330
9C9
102
}
330
9C9
100
AcDbXrecord
 90
        0
  0
XRECORD
  5
9D4
102
{ACAD_REACTORS
330
9C9
102
}
330
9C9
100
AcDbXrecord
  1
{79F6EF2F-D7A9-42AD-985F-FC4C0D8411B1}
  0
XRECORD
  5
9CC
102
{ACAD_REACTORS
330
9C9
102
}
330
9C9
100
AcDbXrecord
  1

  0
XRECORD
  5
9D2
102
{ACAD_REACTORS
330
9C9
102
}
330
9C9
100
AcDbXrecord
 90
        4
  0
XRECORD
  5
9CE
102
{ACAD_REACTORS
330
9C9
102
}
330
9C9
100
AcDbXrecord
340
1A
  0
XRECORD
  5
9D1
102
{ACAD_REACTORS
330
9C9
102
}
330
9C9
100
AcDbXrecord
 90
    10781
  0
XRECORD
  5
9CF
102
{ACAD_REACTORS
330
9C9
102
}
330
9C9
100
AcDbXrecord
340
19
  0
XRECORD
  5
9D0
102
{ACAD_REACTORS
330
9C9
102
}
330
9C9
100
AcDbXrecord
340
E
  0
XRECORD
  5
9D6
102
{ACAD_REACTORS
330
9C9
102
}
330
9C9
100
AcDbXrecord
 40
0.0
  0
XRECORD
  5
9D9
102
{ACAD_REACTORS
330
9C9
102
}
330
9C9
100
AcDbXrecord
340
0
  0
XRECORD
  5
9DF
102
{ACAD_REACTORS
330
9C9
102
}
330
9C9
100
AcDbXrecord
 10
0.0
 20
0.0
 30
0.0
  0
XRECORD
  5
9DB
102
{ACAD_REACTORS
330
9C9
102
}
330
9C9
100
AcDbXrecord
 10
0.0
 20
0.0
 30
0.0
  0
XRECORD
  5
9DE
102
{ACAD_REACTORS
330
9C9
102
}
330
9C9
100
AcDbXrecord
 10
0.0
 20
0.0
 30
0.0
  0
XRECORD
  5
9DC
102
{ACAD_REACTORS
330
9C9
102
}
330
9C9
100
AcDbXrecord
 10
0.0
 20
0.0
 30
0.0
  0
XRECORD
  5
9DD
102
{ACAD_REACTORS
330
9C9
102
}
330
9C9
100
AcDbXrecord
 10
0.0
 20
0.0
 30
0.0
  0
XRECORD
  5
9DA
102
{ACAD_REACTORS
330
9C9
102
}
330
9C9
100
AcDbXrecord
 10
0.0
 20
0.0
 30
0.0
  0
XRECORD
  5
9D7
102
{ACAD_REACTORS
330
9C9
102
}
330
9C9
100
AcDbXrecord
340
0
  0
XRECORD
  5
9D8
102
{ACAD_REACTORS
330
9C9
102
}
330
9C9
100
AcDbXrecord
 70
     0
  0
XRECORD
  5
9CD
102
{ACAD_REACTORS
330
9C9
102
}
330
9C9
100
AcDbXrecord
  1

  0
XRECORD
  5
9CA
102
{ACAD_REACTORS
330
9C9
102
}
330
9C9
100
AcDbXrecord
 90
        1
  0
XRECORD
  5
9CB
102
{ACAD_REACTORS
330
9C9
102
}
330
9C9
100
AcDbXrecord
 90
       70
  0
XRECORD
  5
9E2
102
{ACAD_REACTORS
330
9C9
102
}
330
9C9
100
AcDbXrecord
340
0
  0
XRECORD
  5
9E8
102
{ACAD_REACTORS
330
9C9
102
}
330
9C9
100
AcDbXrecord
 10
0.0
 20
0.0
 30
0.0
  0
XRECORD
  5
9E4
102
{ACAD_REACTORS
330
9C9
102
}
330
9C9
100
AcDbXrecord
 10
0.0
 20
0.0
 30
0.0
  0
XRECORD
  5
9E7
102
{ACAD_REACTORS
330
9C9
102
}
330
9C9
100
AcDbXrecord
 10
0.0
 20
0.0
 30
0.0
  0
XRECORD
  5
9E5
102
{ACAD_REACTORS
330
9C9
102
}
330
9C9
100
AcDbXrecord
 10
0.0
 20
0.0
 30
0.0
  0
XRECORD
  5
9E6
102
{ACAD_REACTORS
330
9C9
102
}
330
9C9
100
AcDbXrecord
 10
0.0
 20
0.0
 30
0.0
  0
XRECORD
  5
9E3
102
{ACAD_REACTORS
330
9C9
102
}
330
9C9
100
AcDbXrecord
 10
0.0
 20
0.0
 30
0.0
  0
XRECORD
  5
9E0
102
{ACAD_REACTORS
330
9C9
102
}
330
9C9
100
AcDbXrecord
340
0
  0
XRECORD
  5
9E1
102
{ACAD_REACTORS
330
9C9
102
}
330
9C9
100
AcDbXrecord
 70
     0
  0
XRECORD
  5
9D5
102
{ACAD_REACTORS
330
9C9
102
}
330
9C9
100
AcDbXrecord
  1
{7CC60A6F-7EB4-4208-B5D8-DEB502397E65}
  0
DICTIONARYVAR
  5
917
102
{ACAD_REACTORS
330
915
102
}
330
915
100
DictionaryVariables
280
     0
  1
2
  0
DICTIONARYVAR
  5
916
102
{ACAD_REACTORS
330
915
102
}
330
915
100
DictionaryVariables
280
     0
  1
1
  0
ENDSEC
  0
EOF
