  0
SECTION
  2
HEADER
  9
$ACADVER
  1
AC1014
  9
$ACADMAINTVER
 70
     9
  9
$DWGCODEPAGE
  3
ANSI_932
  9
$INSBASE
 10
0.0
 20
0.0
 30
0.0
  9
$EXTMIN
 10
36.98133615374445
 20
0.0000038144634118
 30
0.0
  9
$EXTMAX
 10
330.1845496230143
 20
407.5633575116541
 30
6.483974233579615E+99
  9
$LIMMIN
 10
0.0
 20
0.0
  9
$LIMMAX
 10
420.0
 20
297.0
  9
$ORTHOMODE
 70
     0
  9
$REGENMODE
 70
     1
  9
$FILLMODE
 70
     1
  9
$QTEXTMODE
 70
     0
  9
$MIRRTEXT
 70
     1
  9
$DRAGMODE
 70
     2
  9
$LTSCALE
 40
1.0
  9
$OSMODE
 70
    55
  9
$ATTMODE
 70
     1
  9
$TEXTSIZE
 40
2.5
  9
$TRACEWID
 40
1.0
  9
$TEXTSTYLE
  7
STANDARD
  9
$CLAYER
  8
0
  9
$CELTYPE
  6
BYLAYER
  9
$CECOLOR
 62
   256
  9
$CELTSCALE
 40
1.0
  9
$DELOBJ
 70
     1
  9
$DISPSILH
 70
     0
  9
$DIMSCALE
 40
1.0
  9
$DIMASZ
 40
2.5
  9
$DIMEXO
 40
0.625
  9
$DIMDLI
 40
3.75
  9
$DIMRND
 40
0.0
  9
$DIMDLE
 40
0.0
  9
$DIMEXE
 40
1.25
  9
$DIMTP
 40
0.0
  9
$DIMTM
 40
0.0
  9
$DIMTXT
 40
2.5
  9
$DIMCEN
 40
2.5
  9
$DIMTSZ
 40
0.0
  9
$DIMTOL
 70
     0
  9
$DIMLIM
 70
     0
  9
$DIMTIH
 70
     0
  9
$DIMTOH
 70
     0
  9
$DIMSE1
 70
     0
  9
$DIMSE2
 70
     0
  9
$DIMTAD
 70
     1
  9
$DIMZIN
 70
     8
  9
$DIMBLK
  1

  9
$DIMASO
 70
     1
  9
$DIMSHO
 70
     1
  9
$DIMPOST
  1

  9
$DIMAPOST
  1

  9
$DIMALT
 70
     0
  9
$DIMALTD
 70
     3
  9
$DIMALTF
 40
0.03937007874016
  9
$DIMLFAC
 40
1.0
  9
$DIMTOFL
 70
     1
  9
$DIMTVP
 40
0.0
  9
$DIMTIX
 70
     0
  9
$DIMSOXD
 70
     0
  9
$DIMSAH
 70
     0
  9
$DIMBLK1
  1

  9
$DIMBLK2
  1

  9
$DIMSTYLE
  2
ISO-25
  9
$DIMCLRD
 70
     0
  9
$DIMCLRE
 70
     0
  9
$DIMCLRT
 70
     0
  9
$DIMTFAC
 40
1.0
  9
$DIMGAP
 40
0.625
  9
$DIMJUST
 70
     0
  9
$DIMSD1
 70
     0
  9
$DIMSD2
 70
     0
  9
$DIMTOLJ
 70
     0
  9
$DIMTZIN
 70
     8
  9
$DIMALTZ
 70
     0
  9
$DIMALTTZ
 70
     0
  9
$DIMFIT
 70
     3
  9
$DIMUPT
 70
     0
  9
$DIMUNIT
 70
     2
  9
$DIMDEC
 70
     2
  9
$DIMTDEC
 70
     2
  9
$DIMALTU
 70
     2
  9
$DIMALTTD
 70
     3
  9
$DIMTXSTY
  7
STANDARD
  9
$DIMAUNIT
 70
     0
  9
$LUNITS
 70
     2
  9
$LUPREC
 70
     4
  9
$SKETCHINC
 40
1.0
  9
$FILLETRAD
 40
10.0
  9
$AUNITS
 70
     0
  9
$AUPREC
 70
     0
  9
$MENU
  1
.
  9
$ELEVATION
 40
0.0
  9
$PELEVATION
 40
0.0
  9
$THICKNESS
 40
0.0
  9
$LIMCHECK
 70
     0
  9
$BLIPMODE
 70
     0
  9
$CHAMFERA
 40
10.0
  9
$CHAMFERB
 40
10.0
  9
$CHAMFERC
 40
20.0
  9
$CHAMFERD
 40
0.0
  9
$SKPOLY
 70
     0
  9
$TDCREATE
 40
2455874.710634120
  9
$TDUPDATE
 40
2456013.751557188
  9
$TDINDWG
 40
0.0032370139
  9
$TDUSRTIMER
 40
0.0032348495
  9
$USRTIMER
 70
     1
  9
$ANGBASE
 50
0.0
  9
$ANGDIR
 70
     0
  9
$PDMODE
 70
     0
  9
$PDSIZE
 40
0.0
  9
$PLINEWID
 40
0.0
  9
$COORDS
 70
     1
  9
$SPLFRAME
 70
     0
  9
$SPLINETYPE
 70
     6
  9
$SPLINESEGS
 70
     8
  9
$ATTDIA
 70
     0
  9
$ATTREQ
 70
     1
  9
$HANDLING
 70
 22529
  9
$HANDSEED
  5
8E2
  9
$SURFTAB1
 70
     6
  9
$SURFTAB2
 70
     6
  9
$SURFTYPE
 70
     6
  9
$SURFU
 70
     6
  9
$SURFV
 70
     6
  9
$UCSNAME
  2

  9
$UCSORG
 10
0.0
 20
0.0
 30
0.0
  9
$UCSXDIR
 10
1.0
 20
0.0
 30
0.0
  9
$UCSYDIR
 10
0.0
 20
1.0
 30
0.0
  9
$PUCSNAME
  2

  9
$PUCSORG
 10
0.0
 20
0.0
 30
0.0
  9
$PUCSXDIR
 10
1.0
 20
0.0
 30
0.0
  9
$PUCSYDIR
 10
0.0
 20
1.0
 30
0.0
  9
$USERI1
 70
     0
  9
$USERI2
 70
     0
  9
$USERI3
 70
     0
  9
$USERI4
 70
     0
  9
$USERI5
 70
     0
  9
$USERR1
 40
0.0
  9
$USERR2
 40
0.0
  9
$USERR3
 40
0.0
  9
$USERR4
 40
0.0
  9
$USERR5
 40
0.0
  9
$WORLDVIEW
 70
     1
  9
$SHADEDGE
 70
     3
  9
$SHADEDIF
 70
    70
  9
$TILEMODE
 70
     1
  9
$MAXACTVP
 70
    64
  9
$PINSBASE
 10
0.0
 20
0.0
 30
0.0
  9
$PLIMCHECK
 70
     0
  9
$PEXTMIN
 10
1.000000000000000E+20
 20
1.000000000000000E+20
 30
1.000000000000000E+20
  9
$PEXTMAX
 10
-1.000000000000000E+20
 20
-1.000000000000000E+20
 30
-1.000000000000000E+20
  9
$PLIMMIN
 10
0.0
 20
0.0
  9
$PLIMMAX
 10
420.0
 20
297.0
  9
$UNITMODE
 70
     0
  9
$VISRETAIN
 70
     1
  9
$PLINEGEN
 70
     0
  9
$PSLTSCALE
 70
     1
  9
$TREEDEPTH
 70
  3020
  9
$PICKSTYLE
 70
     1
  9
$CMLSTYLE
  2
STANDARD
  9
$CMLJUST
 70
     0
  9
$CMLSCALE
 40
20.0
  9
$PROXYGRAPHICS
 70
     1
  9
$MEASUREMENT
 70
     1
  0
ENDSEC
  0
SECTION
  2
CLASSES
  0
CLASS
  1
ACDBDICTIONARYWDFLT
  2
AcDbDictionaryWithDefault
  3
AutoCAD 2000
 90
        0
280
     0
281
     0
  0
CLASS
  1
ACDBPLACEHOLDER
  2
AcDbPlaceHolder
  3
AutoCAD 2000
 90
        0
280
     0
281
     0
  0
CLASS
  1
LAYOUT
  2
AcDbLayout
  3
AutoCAD 2000
 90
        0
280
     0
281
     0
  0
CLASS
  1
DICTIONARYVAR
  2
AcDbDictionaryVar
  3
AutoCAD 2000
 90
        0
280
     0
281
     0
  0
CLASS
  1
LONG_TRANSACTION
  2
AcDbLongTransaction
  3
AutoCAD 2000
 90
        0
280
     0
281
     0
  0
CLASS
  1
LWPOLYLINE
  2
AcDbPolyline
  3
AutoCAD 2000
 90
        0
280
     0
281
     1
  0
CLASS
  1
HATCH
  2
AcDbHatch
  3
AutoCAD 2000
 90
        0
280
     0
281
     1
  0
CLASS
  1
XRECORD
  2
AcDbXrecord
  3
AutoCAD 2000
 90
        0
280
     0
281
     0
  0
CLASS
  1
LONG_TRANSACTION
  2
AcDbLongTransaction
  3
AutoCAD 2000
 90
        0
280
     0
281
     0
  0
CLASS
  1
LWPOLYLINE
  2
AcDbPolyline
  3
AutoCAD 2000
 90
        0
280
     0
281
     1
  0
CLASS
  1
HATCH
  2
AcDbHatch
  3
AutoCAD 2000
 90
        0
280
     0
281
     1
  0
CLASS
  1
XRECORD
  2
AcDbXrecord
  3
AutoCAD 2000
 90
        0
280
     0
281
     0
  0
CLASS
  1
LONG_TRANSACTION
  2
AcDbLongTransaction
  3
AutoCAD 2000
 90
        0
280
     0
281
     0
  0
CLASS
  1
LWPOLYLINE
  2
AcDbPolyline
  3
AutoCAD 2000
 90
        0
280
     0
281
     1
  0
CLASS
  1
HATCH
  2
AcDbHatch
  3
AutoCAD 2000
 90
        0
280
     0
281
     1
  0
CLASS
  1
XRECORD
  2
AcDbXrecord
  3
AutoCAD 2000
 90
        0
280
     0
281
     0
  0
CLASS
  1
LONG_TRANSACTION
  2
AcDbLongTransaction
  3
AutoCAD 2000
 90
        0
280
     0
281
     0
  0
CLASS
  1
LWPOLYLINE
  2
AcDbPolyline
  3
AutoCAD 2000
 90
        0
280
     0
281
     1
  0
CLASS
  1
HATCH
  2
AcDbHatch
  3
AutoCAD 2000
 90
        0
280
     0
281
     1
  0
CLASS
  1
XRECORD
  2
AcDbXrecord
  3
AutoCAD 2000
 90
        0
280
     0
281
     0
  0
CLASS
  1
LONG_TRANSACTION
  2
AcDbLongTransaction
  3
AutoCAD 2000
 90
        0
280
     0
281
     0
  0
CLASS
  1
LWPOLYLINE
  2
AcDbPolyline
  3
AutoCAD 2000
 90
        0
280
     0
281
     1
  0
CLASS
  1
HATCH
  2
AcDbHatch
  3
AutoCAD 2000
 90
        0
280
     0
281
     1
  0
CLASS
  1
XRECORD
  2
AcDbXrecord
  3
AutoCAD 2000
 90
        0
280
     0
281
     0
  0
ENDSEC
  0
SECTION
  2
TABLES
  0
TABLE
  2
VPORT
  5
8
330
0
100
AcDbSymbolTable
 70
     2
  0
VPORT
  5
8BF
330
8
100
AcDbSymbolTableRecord
100
AcDbViewportTableRecord
  2
*ACTIVE
 70
     0
 10
0.0
 20
0.0
 11
1.0
 21
1.0
 12
178.8211204599996
 22
209.2551643643531
 13
0.0
 23
0.0
 14
10.0
 24
10.0
 15
10.0
 25
10.0
 16
0.0
 26
0.0
 36
1.0
 17
0.0
 27
0.0
 37
0.0
 40
421.5577263505061
 41
1.46415552855407
 42
50.0
 43
0.0
 44
0.0
 50
0.0
 51
0.0
 71
     0
 72
   100
 73
     1
 74
     3
 75
     0
 76
     0
 77
     0
 78
     0
  0
ENDTAB
  0
TABLE
  2
LTYPE
  5
5
330
0
100
AcDbSymbolTable
 70
     2
  0
LTYPE
  5
14
330
5
100
AcDbSymbolTableRecord
100
AcDbLinetypeTableRecord
  2
BYBLOCK
 70
     0
  3

 72
    65
 73
     0
 40
0.0
  0
LTYPE
  5
15
330
5
100
AcDbSymbolTableRecord
100
AcDbLinetypeTableRecord
  2
BYLAYER
 70
     0
  3

 72
    65
 73
     0
 40
0.0
  0
LTYPE
  5
16
330
5
100
AcDbSymbolTableRecord
100
AcDbLinetypeTableRecord
  2
CONTINUOUS
 70
     0
  3
Solid line
 72
    65
 73
     0
 40
0.0
  0
LTYPE
  5
3F0
330
5
100
AcDbSymbolTableRecord
100
AcDbLinetypeTableRecord
  2
CENTER
 70
     0
  3
__ . __ . __ . __ . __ . __ . __ . __ . __ . __
 72
    65
 73
     4
 40
1.0
 49
0.5
 74
     0
 49
-0.25
 74
     0
 49
0.0
 74
     0
 49
-0.25
 74
     0
  0
ENDTAB
  0
TABLE
  2
LAYER
  5
2
102
{ACAD_XDICTIONARY
360
3F6
102
}
330
0
100
AcDbSymbolTable
 70
     3
  0
LAYER
  5
10
330
2
100
AcDbSymbolTableRecord
100
AcDbLayerTableRecord
  2
0
 70
     0
 62
     7
  6
CONTINUOUS
  0
LAYER
  5
3F2
330
2
100
AcDbSymbolTableRecord
100
AcDbLayerTableRecord
  2
DEFPOINTS
 70
     0
 62
    -7
  6
CONTINUOUS
  0
LAYER
  5
3F3
330
2
100
AcDbSymbolTableRecord
100
AcDbLayerTableRecord
  2
1
 70
     0
 62
     3
  6
CONTINUOUS
  0
ENDTAB
  0
TABLE
  2
STYLE
  5
3
330
0
100
AcDbSymbolTable
 70
     1
  0
STYLE
  5
11
330
3
100
AcDbSymbolTableRecord
100
AcDbTextStyleTableRecord
  2
STANDARD
 70
     0
 40
0.0
 41
1.0
 50
0.0
 71
     0
 42
2.5
  3
txt
  4

  0
ENDTAB
  0
TABLE
  2
VIEW
  5
6
330
0
100
AcDbSymbolTable
 70
     0
  0
ENDTAB
  0
TABLE
  2
UCS
  5
7
330
0
100
AcDbSymbolTable
 70
     0
  0
ENDTAB
  0
TABLE
  2
APPID
  5
9
330
0
100
AcDbSymbolTable
 70
     1
  0
APPID
  5
12
330
9
100
AcDbSymbolTableRecord
100
AcDbRegAppTableRecord
  2
ACAD
 70
     0
  0
ENDTAB
  0
TABLE
  2
DIMSTYLE
  5
A
330
0
100
AcDbSymbolTable
 70
     2
  0
DIMSTYLE
105
27
330
A
100
AcDbSymbolTableRecord
100
AcDbDimStyleTableRecord
  2
ISO-25
 70
     0
  3

  4

  5

  6

  7

 40
1.0
 41
2.5
 42
0.625
 43
3.75
 44
1.25
 45
0.0
 46
0.0
 47
0.0
 48
0.0
140
2.5
141
2.5
142
0.0
143
0.03937007874016
144
1.0
145
0.0
146
1.0
147
0.625
 71
     0
 72
     0
 73
     0
 74
     0
 75
     0
 76
     0
 77
     1
 78
     8
170
     0
171
     3
172
     1
173
     0
174
     0
175
     0
176
     0
177
     0
178
     0
270
     2
271
     2
272
     2
273
     2
274
     3
340
11
275
     0
280
     0
281
     0
282
     0
283
     0
284
     8
285
     0
286
     0
287
     3
288
     0
  0
DIMSTYLE
105
3F5
330
A
100
AcDbSymbolTableRecord
100
AcDbDimStyleTableRecord
  2
STANDARD
 70
     0
  3

  4

  5

  6

  7

 40
1.0
 41
2.5
 42
0.625
 43
3.75
 44
1.25
 45
0.0
 46
0.0
 47
0.0
 48
0.0
140
2.5
141
2.5
142
0.0
143
0.0394
144
1.0
145
0.0
146
1.0
147
0.625
 71
     0
 72
     0
 73
     0
 74
     0
 75
     0
 76
     0
 77
     1
 78
     8
170
     0
171
     4
172
     1
173
     0
174
     0
175
     0
176
     0
177
     0
178
     0
270
     2
271
     4
272
     4
273
     8
274
     4
340
11
275
     0
280
     0
281
     0
282
     0
283
     1
284
     0
285
     0
286
     0
287
     3
288
     0
  0
ENDTAB
  0
TABLE
  2
BLOCK_RECORD
  5
1
330
0
100
AcDbSymbolTable
 70
     5
  0
BLOCK_RECORD
  5
1F
102
{ACAD_XDICTIONARY
360
834
102
}
330
1
100
AcDbSymbolTableRecord
100
AcDbBlockTableRecord
  2
*MODEL_SPACE
  0
BLOCK_RECORD
  5
1B
102
{ACAD_XDICTIONARY
360
832
102
}
330
1
100
AcDbSymbolTableRecord
100
AcDbBlockTableRecord
  2
*PAPER_SPACE
  0
BLOCK_RECORD
  5
9A
330
1
100
AcDbSymbolTableRecord
100
AcDbBlockTableRecord
  2
A$C7A762DB8
  0
BLOCK_RECORD
  5
200
330
1
100
AcDbSymbolTableRecord
100
AcDbBlockTableRecord
  2
A$C413B70EE
  0
BLOCK_RECORD
  5
2D2
330
1
100
AcDbSymbolTableRecord
100
AcDbBlockTableRecord
  2
A$C40301A48
  0
BLOCK_RECORD
  5
2D6
330
1
100
AcDbSymbolTableRecord
100
AcDbBlockTableRecord
  2
A$C5CFD6E8C
  0
BLOCK_RECORD
  5
2DD
330
1
100
AcDbSymbolTableRecord
100
AcDbBlockTableRecord
  2
A$C3E87127B
  0
ENDTAB
  0
ENDSEC
  0
SECTION
  2
BLOCKS
  0
BLOCK
  5
20
330
1F
100
AcDbEntity
  8
0
100
AcDbBlockBegin
  2
*MODEL_SPACE
 70
     0
 10
0.0
 20
0.0
 30
0.0
  3
*MODEL_SPACE
  1

  0
ENDBLK
  5
21
330
1F
100
AcDbEntity
  8
0
100
AcDbBlockEnd
  0
BLOCK
  5
1C
330
1B
100
AcDbEntity
 67
     1
  8
0
100
AcDbBlockBegin
  2
*PAPER_SPACE
 70
     0
 10
0.0
 20
0.0
 30
0.0
  3
*PAPER_SPACE
  1

  0
ENDBLK
  5
1D
330
1B
100
AcDbEntity
 67
     1
  8
0
100
AcDbBlockEnd
  0
BLOCK
  5
1FE
330
9A
100
AcDbEntity
  8
0
100
AcDbBlockBegin
  2
A$C7A762DB8
 70
     0
 10
0.0
 20
0.0
 30
0.0
  3
A$C7A762DB8
  1

  0
LINE
  5
9B
330
9A
100
AcDbEntity
  8
0
100
AcDbLine
 10
67.49999625813416
 20
49.99999727219666
 30
0.0
 11
48.49999625813413
 21
49.99999727219669
 31
0.0
  0
LINE
  5
9C
330
9A
100
AcDbEntity
  8
0
100
AcDbLine
 10
48.55277444428816
 20
101.9999972721965
 30
0.0
 11
67.44721807197925
 21
101.9999972721965
 31
0.0
  0
LINE
  5
9D
330
9A
100
AcDbEntity
  8
0
100
AcDbLine
 10
48.49999625813413
 20
91.99999727219669
 30
0.0
 11
67.49999625813416
 21
91.99999727219664
 31
0.0
  0
LINE
  5
9E
330
9A
100
AcDbEntity
  8
0
100
AcDbLine
 10
48.49999625813413
 20
89.99999727219664
 30
0.0
 11
67.49999625813416
 21
89.99999727219664
 31
0.0
  0
LINE
  5
9F
330
9A
100
AcDbEntity
  8
0
100
AcDbLine
 10
67.49999625813416
 20
51.99999727219664
 30
0.0
 11
48.49999625813413
 21
51.99999727219664
 31
0.0
  0
LINE
  5
A0
330
9A
100
AcDbEntity
  8
0
100
AcDbLine
 10
17.99999625813416
 20
4.999997272197671
 30
0.0
 11
71.99999625813416
 21
3.585957507460647
 31
0.0
  0
LINE
  5
A1
330
9A
100
AcDbEntity
  8
0
100
AcDbLine
 10
71.99999625813416
 20
3.585957507460647
 30
0.0
 11
18.99999625813416
 21
4.97381135062869
 31
0.0
  0
LINE
  5
A2
330
9A
100
AcDbEntity
  8
0
100
AcDbLine
 10
68.49999625813416
 20
48.97381135062869
 30
0.0
 11
47.49999625813415
 21
48.97381135062869
 31
0.0
  0
LINE
  5
A3
330
9A
100
AcDbEntity
  8
0
100
AcDbLine
 10
29.99999625813416
 20
21.97381135062868
 30
0.0
 11
71.99999625813416
 21
21.97381135062868
 31
0.0
  0
LINE
  5
A4
330
9A
100
AcDbEntity
  8
0
100
AcDbLine
 10
70.99999625813416
 20
42.97381135062869
 30
0.0
 11
29.99999625813416
 21
42.97381135062869
 31
0.0
  0
LINE
  5
A5
330
9A
100
AcDbEntity
  8
0
100
AcDbLine
 10
70.99999625813416
 20
40.97381135062867
 30
0.0
 11
29.99999625813416
 21
40.97381135062867
 31
0.0
  0
LINE
  5
A6
330
9A
100
AcDbEntity
  8
0
100
AcDbLine
 10
70.99999625813416
 20
35.97381135062867
 30
0.0
 11
29.99999625813416
 21
35.97381135062867
 31
0.0
  0
LINE
  5
A7
330
9A
100
AcDbEntity
  8
0
100
AcDbLine
 10
70.99999625813416
 20
33.97381135062869
 30
0.0
 11
29.99999625813416
 21
33.97381135062869
 31
0.0
  0
LINE
  5
A8
330
9A
100
AcDbEntity
  8
0
100
AcDbLine
 10
70.99999625813416
 20
28.97381135062869
 30
0.0
 11
29.99999625813416
 21
28.97381135062869
 31
0.0
  0
LINE
  5
A9
330
9A
100
AcDbEntity
  8
0
100
AcDbLine
 10
70.99999625813416
 20
26.97381135062869
 30
0.0
 11
29.99999625813416
 21
26.97381135062869
 31
0.0
  0
LINE
  5
AA
330
9A
100
AcDbEntity
  8
0
100
AcDbLine
 10
19.99999625813416
 20
120.9738113506287
 30
0.0
 11
71.99999625813416
 21
120.9738113506287
 31
0.0
  0
LINE
  5
AB
330
9A
100
AcDbEntity
  8
0
100
AcDbLine
 10
29.99999625813416
 20
103.9738113506285
 30
0.0
 11
71.99999625813416
 21
103.9738113506285
 31
0.0
  0
LINE
  5
AC
330
9A
100
AcDbEntity
  8
0
100
AcDbLine
 10
-0.0000037418658394
 20
-0.0000027278023111
 30
0.0
 11
71.99999625813416
 21
-0.0000027278023254
 31
0.0
  0
LINE
  5
AD
330
9A
100
AcDbEntity
  8
0
100
AcDbLine
 10
-0.0000037418658394
 20
78.99999727219769
 30
0.0
 11
-0.0000037418658394
 21
53.99999727219768
 31
0.0
  0
LINE
  5
AE
330
9A
100
AcDbEntity
  8
0
100
AcDbLine
 10
48.49999625813413
 20
49.99999727219669
 30
0.0
 11
48.49999625813413
 21
91.99999727219669
 31
0.0
  0
LINE
  5
AF
330
9A
100
AcDbEntity
  8
0
100
AcDbLine
 10
18.99999625813416
 20
70.99999727219767
 30
0.0
 11
18.99999625813416
 21
32.99999727219766
 31
0.0
  0
LINE
  5
B0
330
9A
100
AcDbEntity
  8
0
100
AcDbLine
 10
19.99999625813416
 20
32.97381135062966
 30
0.0
 11
19.99999625813416
 21
70.97381135062869
 31
0.0
  0
LINE
  5
B1
330
9A
100
AcDbEntity
  8
0
100
AcDbLine
 10
29.99999625813416
 20
103.9738113506285
 30
0.0
 11
29.99999625813416
 21
21.97381135062868
 31
0.0
  0
ARC
  5
B2
330
9A
100
AcDbEntity
  8
0
100
AcDbCircle
 10
0.9999962581341604
 20
56.05153804514964
 30
0.0
 40
1.0
100
AcDbArc
 50
93.03047684586102
 51
180.0
  0
LINE
  5
B3
330
9A
100
AcDbEntity
  8
0
100
AcDbLine
 10
17.99999625813416
 20
4.999997272197671
 30
0.0
 11
-0.0000037418658394
 21
4.52865068395171
 31
0.0
  0
LINE
  5
B4
330
9A
100
AcDbEntity
  8
0
100
AcDbLine
 10
-0.0000037418658394
 20
21.17551498883972
 30
0.0
 11
-0.0000037418658394
 21
-0.0000027278023111
 31
0.0
  0
LINE
  5
B5
330
9A
100
AcDbEntity
  8
0
100
AcDbLine
 10
0.1464428675408271
 20
53.64644388160439
 30
0.0
 11
3.99999625813416
 21
51.99999727219767
 31
0.0
  0
LINE
  5
B6
330
9A
100
AcDbEntity
  8
0
100
AcDbLine
 10
0.4738282800130948
 20
21.67482975621773
 30
0.0
 11
11.57850019249917
 21
22.2568009508177
 31
0.0
  0
LINE
  5
B7
330
9A
100
AcDbEntity
  8
0
100
AcDbLine
 10
0.9471291169941196
 20
29.05013960001873
 30
0.0
 11
11.57929696984524
 21
29.61301907458164
 31
0.0
  0
LINE
  5
B8
330
9A
100
AcDbEntity
  8
0
100
AcDbLine
 10
0.9471291169941196
 20
26.94985494437573
 30
0.0
 11
11.57929696984524
 21
26.38697546981267
 31
0.0
  0
LINE
  5
B9
330
9A
100
AcDbEntity
  8
0
100
AcDbLine
 10
0.9471291169941196
 20
54.94985494437571
 30
0.0
 11
11.57929696984524
 21
54.38697546981268
 31
0.0
  0
LINE
  5
BA
330
9A
100
AcDbEntity
  8
0
100
AcDbLine
 10
0.9471291169941196
 20
50.05013960001871
 30
0.0
 11
11.57929696984524
 21
50.61301907458164
 31
0.0
  0
LINE
  5
BB
330
9A
100
AcDbEntity
  8
0
100
AcDbLine
 10
0.9471291169941196
 20
47.94985494437571
 30
0.0
 11
11.57929696984524
 21
47.38697546981268
 31
0.0
  0
LINE
  5
BC
330
9A
100
AcDbEntity
  8
0
100
AcDbLine
 10
0.9471291169941196
 20
43.05013960001871
 30
0.0
 11
11.57929696984524
 21
43.61301907458164
 31
0.0
  0
LINE
  5
BD
330
9A
100
AcDbEntity
  8
0
100
AcDbLine
 10
0.9471291169941196
 20
40.94985494437572
 30
0.0
 11
11.57929696984524
 21
40.38697546981268
 31
0.0
  0
LINE
  5
BE
330
9A
100
AcDbEntity
  8
0
100
AcDbLine
 10
0.9471291169941196
 20
36.05013960001871
 30
0.0
 11
11.57929696984524
 21
36.61301907458164
 31
0.0
  0
LINE
  5
BF
330
9A
100
AcDbEntity
  8
0
100
AcDbLine
 10
0.9471291169941196
 20
33.94985494437573
 30
0.0
 11
11.57929696984524
 21
33.38697546981268
 31
0.0
  0
POINT
  5
C0
330
9A
100
AcDbEntity
  8
0
100
AcDbPoint
 10
-0.0000037418658394
 20
21.64999727219766
 30
0.0
  0
ARC
  5
C1
330
9A
100
AcDbEntity
  8
0
100
AcDbCircle
 10
0.4999962581341606
 20
21.17551498883972
 30
0.0
 40
0.5
100
AcDbArc
 50
92.9999999999991
 51
180.0
  0
LINE
  5
C2
330
9A
100
AcDbEntity
  8
0
100
AcDbLine
 10
-0.0000037418658394
 20
28.05153804514965
 30
0.0
 11
-0.0000037418658394
 21
27.9484564992447
 31
0.0
  0
ARC
  5
C3
330
9A
100
AcDbEntity
  8
0
100
AcDbCircle
 10
0.9999962581341604
 20
28.05153804514965
 30
0.0
 40
1.0
100
AcDbArc
 50
93.03047684586102
 51
180.0
  0
ARC
  5
C4
330
9A
100
AcDbEntity
  8
0
100
AcDbCircle
 10
0.9999962581341604
 20
27.9484564992447
 30
0.0
 40
1.0
100
AcDbArc
 50
180.0
 51
266.9695231541389
  0
LINE
  5
C5
330
9A
100
AcDbEntity
  8
0
100
AcDbLine
 10
-0.0000037418658394
 20
35.05153804514964
 30
0.0
 11
-0.0000037418658394
 21
34.94845649924467
 31
0.0
  0
ARC
  5
C6
330
9A
100
AcDbEntity
  8
0
100
AcDbCircle
 10
0.9999962581341604
 20
35.05153804514964
 30
0.0
 40
1.0
100
AcDbArc
 50
93.03047684586102
 51
180.0
  0
ARC
  5
C7
330
9A
100
AcDbEntity
  8
0
100
AcDbCircle
 10
0.9999962581341604
 20
34.94845649924469
 30
0.0
 40
1.0
100
AcDbArc
 50
180.0
 51
266.9695231541389
  0
ARC
  5
C8
330
9A
100
AcDbEntity
  8
0
100
AcDbCircle
 10
0.4999962581341606
 20
53.99999727219768
 30
0.0
 40
0.5
100
AcDbArc
 50
180.0
 51
224.9999999999904
  0
LINE
  5
C9
330
9A
100
AcDbEntity
  8
0
100
AcDbLine
 10
-0.0000037418658394
 20
42.05153804514964
 30
0.0
 11
-0.0000037418658394
 21
41.94845649924467
 31
0.0
  0
ARC
  5
CA
330
9A
100
AcDbEntity
  8
0
100
AcDbCircle
 10
0.9999962581341604
 20
42.05153804514964
 30
0.0
 40
1.0
100
AcDbArc
 50
93.03047684586102
 51
180.0
  0
ARC
  5
CB
330
9A
100
AcDbEntity
  8
0
100
AcDbCircle
 10
0.9999962581341604
 20
41.94845649924467
 30
0.0
 40
1.0
100
AcDbArc
 50
180.0
 51
266.9695231541389
  0
LINE
  5
CC
330
9A
100
AcDbEntity
  8
0
100
AcDbLine
 10
-0.0000037418658394
 20
56.05153804514964
 30
0.0
 11
-0.0000037418658394
 21
55.94845649924469
 31
0.0
  0
ARC
  5
CD
330
9A
100
AcDbEntity
  8
0
100
AcDbCircle
 10
0.9999962581341604
 20
55.94845649924469
 30
0.0
 40
1.0
100
AcDbArc
 50
180.0
 51
266.9695231541389
  0
LINE
  5
CE
330
9A
100
AcDbEntity
  8
0
100
AcDbLine
 10
-0.0000037418658394
 20
49.05153804514964
 30
0.0
 11
-0.0000037418658394
 21
48.94845649924469
 31
0.0
  0
ARC
  5
CF
330
9A
100
AcDbEntity
  8
0
100
AcDbCircle
 10
0.9999962581341604
 20
49.05153804514964
 30
0.0
 40
1.0
100
AcDbArc
 50
93.03047684586102
 51
180.0
  0
ARC
  5
D0
330
9A
100
AcDbEntity
  8
0
100
AcDbCircle
 10
0.9999962581341604
 20
48.94845649924469
 30
0.0
 40
1.0
100
AcDbArc
 50
180.0
 51
266.9695231541389
  0
ARC
  5
D1
330
9A
100
AcDbEntity
  8
0
100
AcDbCircle
 10
11.49999625813416
 20
38.11092140688574
 30
0.0
 40
1.5
100
AcDbArc
 50
273.030476845861
 51
0.0
  0
LINE
  5
D2
330
9A
100
AcDbEntity
  8
0
100
AcDbLine
 10
12.99999625813416
 20
31.88907313750871
 30
0.0
 11
12.99999625813416
 21
31.11092140688572
 31
0.0
  0
ARC
  5
D3
330
9A
100
AcDbEntity
  8
0
100
AcDbCircle
 10
11.49999625813416
 20
31.11092140688572
 30
0.0
 40
1.5
100
AcDbArc
 50
273.030476845861
 51
0.0
  0
LINE
  5
D4
330
9A
100
AcDbEntity
  8
0
100
AcDbLine
 10
12.99999625813416
 20
24.88907313750871
 30
0.0
 11
12.99999625813416
 21
23.75474525294964
 31
0.0
  0
ARC
  5
D5
330
9A
100
AcDbEntity
  8
0
100
AcDbCircle
 10
11.49999625813416
 20
24.88907313750873
 30
0.0
 40
1.5
100
AcDbArc
 50
0.0
 51
86.96952315413897
  0
ARC
  5
D6
330
9A
100
AcDbEntity
  8
0
100
AcDbCircle
 10
11.49999625813416
 20
23.75474525294966
 30
0.0
 40
1.5
100
AcDbArc
 50
273.0000000000056
 51
0.0
  0
ARC
  5
D7
330
9A
100
AcDbEntity
  8
0
100
AcDbCircle
 10
11.49999625813416
 20
31.88907313750873
 30
0.0
 40
1.5
100
AcDbArc
 50
0.0
 51
86.96952315413897
  0
LINE
  5
D8
330
9A
100
AcDbEntity
  8
0
  6
CONTINUOUS
100
AcDbLine
 10
5.999996258134157
 20
46.49999727219767
 30
0.0
 11
12.86994943312026
 21
46.49999727219767
 31
0.0
  0
LINE
  5
D9
330
9A
100
AcDbEntity
  8
0
  6
CONTINUOUS
100
AcDbLine
 10
3.999996258134046
 20
54.78823256631528
 30
0.0
 11
3.99999625813416
 21
53.99999727219768
 31
0.0
  0
LINE
  5
DA
330
9A
100
AcDbEntity
  8
0
  6
CONTINUOUS
100
AcDbLine
 10
5.999996258134157
 20
54.68235021337403
 30
0.0
 11
5.999996258134157
 21
50.31764433102035
 31
0.0
  0
LINE
  5
DB
330
9A
100
AcDbEntity
  8
0
100
AcDbLine
 10
1.999996258134158
 20
54.8941149192565
 30
0.0
 11
1.999996258134158
 21
54.85450553640181
 31
0.0
  0
LINE
  5
DC
330
9A
100
AcDbEntity
  8
0
100
AcDbLine
 10
3.99999625813416
 20
47.78823256631528
 30
0.0
 11
3.99999625813416
 21
46.99999727219767
 31
0.0
  0
LINE
  5
DD
330
9A
100
AcDbEntity
  8
0
100
AcDbLine
 10
5.999996258134157
 20
50.31764433102035
 30
0.0
 11
5.999996258134157
 21
53.99999727219768
 31
0.0
  0
LINE
  5
DE
330
9A
100
AcDbEntity
  8
0
  6
CONTINUOUS
100
AcDbLine
 10
5.999996258134157
 20
47.68235021337403
 30
0.0
 11
5.999996258134157
 21
46.49999727219767
 31
0.0
  0
LINE
  5
DF
330
9A
100
AcDbEntity
  8
0
100
AcDbLine
 10
1.999996258134158
 20
52.85450553640176
 30
0.0
 11
1.999996258134158
 21
51.99999727219767
 31
0.0
  0
LINE
  5
E0
330
9A
100
AcDbEntity
  8
0
100
AcDbLine
 10
1.999996258134158
 20
54.85450553640181
 30
0.0
 11
3.99999625813416
 21
53.99999727219768
 31
0.0
  0
LINE
  5
E1
330
9A
100
AcDbEntity
  8
0
100
AcDbLine
 10
1.999996258134158
 20
54.85450553640176
 30
0.0
 11
1.999996258134158
 21
54.8941149192565
 31
0.0
  0
ARC
  5
E2
330
9A
100
AcDbEntity
  8
0
100
AcDbCircle
 10
2.49999625813416
 20
51.99999727219767
 30
0.0
 40
0.5
100
AcDbArc
 50
180.0
 51
270.0
  0
ARC
  5
E3
330
9A
100
AcDbEntity
  8
0
100
AcDbCircle
 10
3.49999625813416
 20
51.99999727219767
 30
0.0
 40
0.5
100
AcDbArc
 50
270.0
 51
0.0
  0
LINE
  5
E4
330
9A
100
AcDbEntity
  8
0
100
AcDbLine
 10
2.49999625813416
 20
51.49999727219768
 30
0.0
 11
3.49999625813416
 21
51.49999727219768
 31
0.0
  0
ARC
  5
E5
330
9A
100
AcDbEntity
  8
0
100
AcDbCircle
 10
4.499996258134159
 20
46.99999727219767
 30
0.0
 40
0.5
100
AcDbArc
 50
180.0
 51
270.0
  0
ARC
  5
E6
330
9A
100
AcDbEntity
  8
0
100
AcDbCircle
 10
5.499996258134386
 20
46.99999727219767
 30
0.0
 40
0.5
100
AcDbArc
 50
270.0
 51
0.0
  0
ARC
  5
E7
330
9A
100
AcDbEntity
  8
0
100
AcDbCircle
 10
5.499996258134157
 20
53.99999727219768
 30
0.0
 40
0.5
100
AcDbArc
 50
0.0
 51
90.0
  0
ARC
  5
E8
330
9A
100
AcDbEntity
  8
0
100
AcDbCircle
 10
4.499996258134159
 20
53.99999727219768
 30
0.0
 40
0.5
100
AcDbArc
 50
90.0
 51
180.0
  0
LINE
  5
E9
330
9A
100
AcDbEntity
  8
0
100
AcDbLine
 10
3.99999625813416
 20
51.9999972721978
 30
0.0
 11
3.99999625813416
 21
50.21176197807914
 31
0.0
  0
LINE
  5
EA
330
9A
100
AcDbEntity
  8
0
100
AcDbLine
 10
5.499996258134157
 20
54.49999727219767
 30
0.0
 11
4.499996258134159
 21
54.49999727219767
 31
0.0
  0
LINE
  5
EB
330
9A
100
AcDbEntity
  8
0
100
AcDbLine
 10
5.999996258134387
 20
46.99999727219767
 30
0.0
 11
5.999996258134387
 21
47.68235021337402
 31
0.0
  0
LINE
  5
EC
330
9A
100
AcDbEntity
  8
0
100
AcDbLine
 10
4.499996258134159
 20
46.49999727219767
 30
0.0
 11
5.499996258134386
 21
46.49999727219767
 31
0.0
  0
LINE
  5
ED
330
9A
100
AcDbEntity
  8
0
100
AcDbLine
 10
12.99999625813416
 20
38.88907313750872
 30
0.0
 11
12.99999625813416
 21
38.11092140688572
 31
0.0
  0
LINE
  5
EE
330
9A
100
AcDbEntity
  8
0
100
AcDbLine
 10
11.99999625813416
 20
43.69670784451272
 30
0.0
 11
11.99999625813416
 21
46.49999727219767
 31
0.0
  0
LINE
  5
EF
330
9A
100
AcDbEntity
  8
0
100
AcDbLine
 10
12.99999625813416
 20
45.88907313750872
 30
0.0
 11
12.99999625813416
 21
45.11092140688572
 31
0.0
  0
ARC
  5
F0
330
9A
100
AcDbEntity
  8
0
100
AcDbCircle
 10
11.49999625813416
 20
45.88907313750872
 30
0.0
 40
1.5
100
AcDbArc
 50
0.0
 51
86.96952315413897
  0
ARC
  5
F1
330
9A
100
AcDbEntity
  8
0
100
AcDbCircle
 10
11.49999625813416
 20
45.11092140688572
 30
0.0
 40
1.5
100
AcDbArc
 50
273.030476845861
 51
0.0
  0
ARC
  5
F2
330
9A
100
AcDbEntity
  8
0
100
AcDbCircle
 10
11.49999625813416
 20
38.88907313750872
 30
0.0
 40
1.5
100
AcDbArc
 50
0.0
 51
86.96952315413897
  0
LINE
  5
F3
330
9A
100
AcDbEntity
  8
0
100
AcDbLine
 10
12.99999625813416
 20
52.88907313750872
 30
0.0
 11
12.99999625813416
 21
52.11092140688572
 31
0.0
  0
ARC
  5
F4
330
9A
100
AcDbEntity
  8
0
100
AcDbCircle
 10
11.49999625813416
 20
52.88907313750872
 30
0.0
 40
1.5
100
AcDbArc
 50
0.0
 51
86.96952315413897
  0
ARC
  5
F5
330
9A
100
AcDbEntity
  8
0
100
AcDbCircle
 10
11.49999625813416
 20
52.11092140688572
 30
0.0
 40
1.5
100
AcDbArc
 50
273.030476845861
 51
0.0
  0
LINE
  5
F6
330
9A
100
AcDbEntity
  8
0
100
AcDbLine
 10
18.99999625813416
 20
20.99999727219767
 30
0.0
 11
18.99999625813416
 21
4.973811350627665
 31
0.0
  0
LINE
  5
F7
330
9A
100
AcDbEntity
  8
0
100
AcDbLine
 10
19.99999625813416
 20
4.921439507490672
 30
0.0
 11
19.99999625813416
 21
20.97381135062869
 31
0.0
  0
LINE
  5
F8
330
9A
100
AcDbEntity
  8
0
100
AcDbLine
 10
45.2912841056111
 20
4.259163827532685
 30
0.0
 11
45.2912841056111
 21
21.97381135062868
 31
0.0
  0
LINE
  5
F9
330
9A
100
AcDbEntity
  8
0
100
AcDbLine
 10
40.70870841065607
 20
4.37916279526564
 30
0.0
 11
40.70870841065607
 21
21.97381135062971
 31
0.0
  0
LINE
  5
FA
330
9A
100
AcDbEntity
  8
0
100
AcDbLine
 10
40.89999625813312
 20
3.799997272196661
 30
0.0
 11
40.89999625813312
 21
-0.0000027278023254
 31
0.0
  0
LINE
  5
FB
330
9A
100
AcDbEntity
  8
0
100
AcDbLine
 10
45.09999625813406
 20
3.799997272196661
 30
0.0
 11
45.09999625813406
 21
-0.0000027278023254
 31
0.0
  0
LINE
  5
FC
330
9A
100
AcDbEntity
  8
0
100
AcDbLine
 10
37.49999625813415
 20
3.799997272196661
 30
0.0
 11
48.49999625813413
 21
3.799997272196661
 31
0.0
  0
LINE
  5
FD
330
9A
100
AcDbEntity
  8
0
100
AcDbLine
 10
37.49999625813415
 20
4.489371801597711
 30
0.0
 11
37.49999625813415
 21
3.799997272196661
 31
0.0
  0
LINE
  5
FE
330
9A
100
AcDbEntity
  8
0
100
AcDbLine
 10
48.49999625813413
 20
4.20132666433767
 30
0.0
 11
48.49999625813413
 21
3.799997272196661
 31
0.0
  0
LINE
  5
FF
330
9A
100
AcDbEntity
  8
0
100
AcDbLine
 10
48.49999625813413
 20
54.9738113506287
 30
0.0
 11
29.99999625813416
 21
54.9738113506287
 31
0.0
  0
LINE
  5
100
330
9A
100
AcDbEntity
  8
0
100
AcDbLine
 10
46.99999625813414
 20
49.9738113506287
 30
0.0
 11
29.99999625813416
 21
49.9738113506287
 31
0.0
  0
LINE
  5
101
330
9A
100
AcDbEntity
  8
0
100
AcDbLine
 10
46.99999625813414
 20
47.97381135062869
 30
0.0
 11
29.99999625813416
 21
47.97381135062869
 31
0.0
  0
LINE
  5
102
330
9A
100
AcDbEntity
  8
0
100
AcDbLine
 10
23.49999625813416
 20
22.99999727219767
 30
0.0
 11
21.99999625813313
 21
22.99999727219767
 31
0.0
  0
LINE
  5
103
330
9A
100
AcDbEntity
  8
0
100
AcDbLine
 10
23.69999625813306
 20
22.47381135062869
 30
0.0
 11
21.99999625813313
 21
22.47381135062869
 31
0.0
  0
LINE
  5
104
330
9A
100
AcDbEntity
  8
0
100
AcDbLine
 10
18.99999625813416
 20
20.99999727219767
 30
0.0
 11
17.6999962581342
 21
20.99999727219767
 31
0.0
  0
LINE
  5
105
330
9A
100
AcDbEntity
  8
0
100
AcDbLine
 10
19.99999625813416
 20
20.97381135062869
 30
0.0
 11
18.99999625813416
 21
20.97381135062869
 31
0.0
  0
LINE
  5
106
330
9A
100
AcDbEntity
  8
0
100
AcDbLine
 10
23.49999625813416
 20
30.99999727219767
 30
0.0
 11
21.99999625813313
 21
30.99999727219767
 31
0.0
  0
LINE
  5
107
330
9A
100
AcDbEntity
  8
0
100
AcDbLine
 10
18.99999625813416
 20
32.99999727219766
 30
0.0
 11
17.6999962581342
 21
32.99999727219766
 31
0.0
  0
LINE
  5
108
330
9A
100
AcDbEntity
  8
0
100
AcDbLine
 10
23.69999625813306
 20
31.47381135062869
 30
0.0
 11
21.99999625813313
 21
31.47381135062869
 31
0.0
  0
LINE
  5
109
330
9A
100
AcDbEntity
  8
0
100
AcDbLine
 10
19.99999625813416
 20
32.97381135062966
 30
0.0
 11
18.99999625813416
 21
32.97381135062966
 31
0.0
  0
LINE
  5
10A
330
9A
100
AcDbEntity
  8
0
100
AcDbLine
 10
22.09999625813407
 20
30.99999727219767
 30
0.0
 11
22.09999625813407
 21
22.99999727219767
 31
0.0
  0
LINE
  5
10B
330
9A
100
AcDbEntity
  8
0
100
AcDbLine
 10
22.6999962581342
 20
30.99999727219767
 30
0.0
 11
22.6999962581342
 21
22.99999727219767
 31
0.0
  0
LINE
  5
10C
330
9A
100
AcDbEntity
  8
0
100
AcDbLine
 10
23.49999625813416
 20
30.99999727219767
 30
0.0
 11
23.49999625813416
 21
22.99999727219767
 31
0.0
  0
LINE
  5
10D
330
9A
100
AcDbEntity
  8
0
100
AcDbLine
 10
17.6999962581342
 20
32.99999727219766
 30
0.0
 11
17.6999962581342
 21
21.09999727219667
 31
0.0
  0
LINE
  5
10E
330
9A
100
AcDbEntity
  8
0
100
AcDbLine
 10
18.49999625813416
 20
32.99999727219766
 30
0.0
 11
18.49999625813416
 21
20.99999727219767
 31
0.0
  0
LINE
  5
10F
330
9A
100
AcDbEntity
  8
0
100
AcDbLine
 10
18.99999625813416
 20
32.99999727219766
 30
0.0
 11
18.99999625813416
 21
20.99999727219663
 31
0.0
  0
LINE
  5
110
330
9A
100
AcDbEntity
  8
0
100
AcDbLine
 10
21.99999625813313
 20
31.47381135062869
 30
0.0
 11
21.99999625813313
 21
22.47381135062869
 31
0.0
  0
LINE
  5
111
330
9A
100
AcDbEntity
  8
0
100
AcDbLine
 10
23.69999625813306
 20
31.47381135062869
 30
0.0
 11
23.69999625813306
 21
22.47381135062869
 31
0.0
  0
LINE
  5
112
330
9A
100
AcDbEntity
  8
0
100
AcDbLine
 10
46.99999625813414
 20
47.97381135062869
 30
0.0
 11
46.99999625813414
 21
49.9738113506287
 31
0.0
  0
LINE
  5
113
330
9A
100
AcDbEntity
  8
0
100
AcDbLine
 10
47.49999625813415
 20
48.97381135062869
 30
0.0
 11
47.49999625813415
 21
54.9738113506287
 31
0.0
  0
LINE
  5
114
330
9A
100
AcDbEntity
  8
0
100
AcDbLine
 10
-0.0000037418658394
 20
120.5286506839515
 30
0.0
 11
17.9999962581371
 21
120.9999972721965
 31
0.0
  0
LINE
  5
115
330
9A
100
AcDbEntity
  8
0
100
AcDbLine
 10
10.79999625813513
 20
96.42823256631473
 30
0.0
 11
10.79999625813513
 21
92.57176197807972
 31
0.0
  0
LINE
  5
116
330
9A
100
AcDbEntity
  8
0
100
AcDbLine
 10
12.99999625813416
 20
94.88907313750871
 30
0.0
 11
12.99999625813416
 21
94.11092140688571
 31
0.0
  0
LINE
  5
117
330
9A
100
AcDbEntity
  8
0
100
AcDbLine
 10
0.1464428675408271
 20
79.35355066279097
 30
0.0
 11
3.99999625813416
 21
80.99999727219769
 31
0.0
  0
LINE
  5
118
330
9A
100
AcDbEntity
  8
0
100
AcDbLine
 10
0.9471291169941196
 20
64.05013960001872
 30
0.0
 11
11.57929696984524
 21
64.61301907458164
 31
0.0
  0
LINE
  5
119
330
9A
100
AcDbEntity
  8
0
100
AcDbLine
 10
0.9471291169941196
 20
61.94985494437571
 30
0.0
 11
11.57929696984524
 21
61.38697546981268
 31
0.0
  0
LINE
  5
11A
330
9A
100
AcDbEntity
  8
0
100
AcDbLine
 10
0.9471291169941196
 20
57.0501396000187
 30
0.0
 11
11.57929696984524
 21
57.61301907458165
 31
0.0
  0
LINE
  5
11B
330
9A
100
AcDbEntity
  8
0
100
AcDbLine
 10
0.9471291169941196
 20
92.0501396000187
 30
0.0
 11
11.57929696984524
 21
92.61301907458165
 31
0.0
  0
LINE
  5
11C
330
9A
100
AcDbEntity
  8
0
100
AcDbLine
 10
0.9471291169941196
 20
89.94985494437569
 30
0.0
 11
11.57929696984524
 21
89.38697546981268
 31
0.0
  0
LINE
  5
11D
330
9A
100
AcDbEntity
  8
0
100
AcDbLine
 10
0.9471291169941196
 20
85.05013960001873
 30
0.0
 11
11.57929696984524
 21
85.61301907458163
 31
0.0
  0
LINE
  5
11E
330
9A
100
AcDbEntity
  8
0
100
AcDbLine
 10
0.9471291169941196
 20
82.94985494437572
 30
0.0
 11
11.57929696984524
 21
82.38697546981269
 31
0.0
  0
LINE
  5
11F
330
9A
100
AcDbEntity
  8
0
100
AcDbLine
 10
0.9471291169941196
 20
78.05013960001872
 30
0.0
 11
11.57929696984524
 21
78.61301907458164
 31
0.0
  0
LINE
  5
120
330
9A
100
AcDbEntity
  8
0
100
AcDbLine
 10
0.9471291169941196
 20
75.94985494437572
 30
0.0
 11
11.57929696984524
 21
75.38697546981268
 31
0.0
  0
LINE
  5
121
330
9A
100
AcDbEntity
  8
0
100
AcDbLine
 10
0.9471291169941196
 20
71.05013960001873
 30
0.0
 11
11.57929696984524
 21
71.61301907458164
 31
0.0
  0
LINE
  5
122
330
9A
100
AcDbEntity
  8
0
100
AcDbLine
 10
0.9471291169941196
 20
68.94985494437571
 30
0.0
 11
11.57929696984524
 21
68.38697546981268
 31
0.0
  0
LINE
  5
123
330
9A
100
AcDbEntity
  8
0
100
AcDbLine
 10
-0.0000037418658394
 20
63.05153804514964
 30
0.0
 11
-0.0000037418658394
 21
62.94845649924468
 31
0.0
  0
ARC
  5
124
330
9A
100
AcDbEntity
  8
0
100
AcDbCircle
 10
0.9999962581341604
 20
63.05153804514964
 30
0.0
 40
1.0
100
AcDbArc
 50
93.03047684586102
 51
180.0
  0
ARC
  5
125
330
9A
100
AcDbEntity
  8
0
100
AcDbCircle
 10
0.9999962581341604
 20
62.94845649924468
 30
0.0
 40
1.0
100
AcDbArc
 50
180.0
 51
266.9695231541389
  0
LINE
  5
126
330
9A
100
AcDbEntity
  8
0
100
AcDbLine
 10
-0.0000037418658394
 20
70.05153804514964
 30
0.0
 11
-0.0000037418658394
 21
69.94845649924468
 31
0.0
  0
ARC
  5
127
330
9A
100
AcDbEntity
  8
0
100
AcDbCircle
 10
0.9999962581341604
 20
70.05153804514964
 30
0.0
 40
1.0
100
AcDbArc
 50
93.03047684586102
 51
180.0
  0
ARC
  5
128
330
9A
100
AcDbEntity
  8
0
100
AcDbCircle
 10
0.9999962581341604
 20
69.94845649924468
 30
0.0
 40
1.0
100
AcDbArc
 50
180.0
 51
266.9695231541389
  0
ARC
  5
129
330
9A
100
AcDbEntity
  8
0
100
AcDbCircle
 10
0.4999962581341606
 20
78.99999727219769
 30
0.0
 40
0.5
100
AcDbArc
 50
134.9999999999726
 51
180.0
  0
LINE
  5
12A
330
9A
100
AcDbEntity
  8
0
100
AcDbLine
 10
-0.0000037418658394
 20
77.05153804514964
 30
0.0
 11
-0.0000037418658394
 21
76.94845649924468
 31
0.0
  0
ARC
  5
12B
330
9A
100
AcDbEntity
  8
0
100
AcDbCircle
 10
0.9999962581341604
 20
77.05153804514964
 30
0.0
 40
1.0
100
AcDbArc
 50
93.03047684586102
 51
180.0
  0
ARC
  5
12C
330
9A
100
AcDbEntity
  8
0
100
AcDbCircle
 10
0.9999962581341604
 20
76.94845649924468
 30
0.0
 40
1.0
100
AcDbArc
 50
180.0
 51
266.9695231541389
  0
LINE
  5
12D
330
9A
100
AcDbEntity
  8
0
100
AcDbLine
 10
-0.0000037418658394
 20
84.05153804514965
 30
0.0
 11
-0.0000037418658394
 21
83.94845649924468
 31
0.0
  0
ARC
  5
12E
330
9A
100
AcDbEntity
  8
0
100
AcDbCircle
 10
0.9999962581341604
 20
84.05153804514965
 30
0.0
 40
1.0
100
AcDbArc
 50
93.03047684586102
 51
180.0
  0
ARC
  5
12F
330
9A
100
AcDbEntity
  8
0
100
AcDbCircle
 10
0.9999962581341604
 20
83.94845649924468
 30
0.0
 40
1.0
100
AcDbArc
 50
180.0
 51
266.9695231541389
  0
LINE
  5
130
330
9A
100
AcDbEntity
  8
0
100
AcDbLine
 10
-0.0000037418658394
 20
91.05153804514962
 30
0.0
 11
-0.0000037418658394
 21
90.94845649924469
 31
0.0
  0
ARC
  5
131
330
9A
100
AcDbEntity
  8
0
100
AcDbCircle
 10
0.9999962581341604
 20
91.05153804514962
 30
0.0
 40
1.0
100
AcDbArc
 50
93.03047684586102
 51
180.0
  0
ARC
  5
132
330
9A
100
AcDbEntity
  8
0
100
AcDbCircle
 10
0.9999962581341604
 20
90.94845649924469
 30
0.0
 40
1.0
100
AcDbArc
 50
180.0
 51
266.9695231541389
  0
LINE
  5
133
330
9A
100
AcDbEntity
  8
0
  6
CONTINUOUS
100
AcDbLine
 10
3.99999625813416
 20
75.78823256631527
 30
0.0
 11
3.99999625813416
 21
71.21176197807912
 31
0.0
  0
LINE
  5
134
330
9A
100
AcDbEntity
  8
0
  6
CONTINUOUS
100
AcDbLine
 10
5.999996258134157
 20
75.68235021337404
 30
0.0
 11
5.999996258134157
 21
71.31764433102034
 31
0.0
  0
LINE
  5
135
330
9A
100
AcDbEntity
  8
0
100
AcDbLine
 10
1.999996258134158
 20
71.10587962513791
 30
0.0
 11
1.999996258134158
 21
75.89411491925651
 31
0.0
  0
LINE
  5
136
330
9A
100
AcDbEntity
  8
0
100
AcDbLine
 10
1.9999962581345
 20
75.89411491925648
 30
0.0
 11
1.999996258134386
 21
71.10587962513794
 31
0.0
  0
ARC
  5
137
330
9A
100
AcDbEntity
  8
0
100
AcDbCircle
 10
11.49999625813416
 20
73.88907313750872
 30
0.0
 40
1.5
100
AcDbArc
 50
0.0
 51
86.96952315413897
  0
LINE
  5
138
330
9A
100
AcDbEntity
  8
0
  6
CONTINUOUS
100
AcDbLine
 10
3.99999625813416
 20
61.78823256631527
 30
0.0
 11
3.99999625813416
 21
57.21176197807913
 31
0.0
  0
LINE
  5
139
330
9A
100
AcDbEntity
  8
0
  6
CONTINUOUS
100
AcDbLine
 10
3.99999625813416
 20
68.78823256631529
 30
0.0
 11
3.99999625813416
 21
64.21176197807914
 31
0.0
  0
LINE
  5
13A
330
9A
100
AcDbEntity
  8
0
  6
CONTINUOUS
100
AcDbLine
 10
5.999996258134157
 20
68.68235021337404
 30
0.0
 11
5.999996258134157
 21
64.31764433102036
 31
0.0
  0
LINE
  5
13B
330
9A
100
AcDbEntity
  8
0
100
AcDbLine
 10
1.999996258134158
 20
61.89411491925651
 30
0.0
 11
1.999996258134158
 21
57.10587962513793
 31
0.0
  0
LINE
  5
13C
330
9A
100
AcDbEntity
  8
0
100
AcDbLine
 10
1.999996258134158
 20
64.10587962513793
 30
0.0
 11
1.999996258134158
 21
68.89411491925651
 31
0.0
  0
LINE
  5
13D
330
9A
100
AcDbEntity
  8
0
  6
CONTINUOUS
100
AcDbLine
 10
5.999996258134157
 20
61.68235021337403
 30
0.0
 11
5.999996258134157
 21
57.31764433102036
 31
0.0
  0
LINE
  5
13E
330
9A
100
AcDbEntity
  8
0
100
AcDbLine
 10
1.999996258134158
 20
57.10587962513793
 30
0.0
 11
1.999996258134158
 21
61.89411491925651
 31
0.0
  0
LINE
  5
13F
330
9A
100
AcDbEntity
  8
0
100
AcDbLine
 10
1.999996258134386
 20
68.89411491925651
 30
0.0
 11
1.999996258134158
 21
64.10587962513793
 31
0.0
  0
LINE
  5
140
330
9A
100
AcDbEntity
  8
0
100
AcDbLine
 10
12.99999625813416
 20
59.88907313750871
 30
0.0
 11
12.99999625813416
 21
59.11092140688572
 31
0.0
  0
ARC
  5
141
330
9A
100
AcDbEntity
  8
0
100
AcDbCircle
 10
11.49999625813416
 20
59.88907313750871
 30
0.0
 40
1.5
100
AcDbArc
 50
0.0
 51
86.96952315413897
  0
ARC
  5
142
330
9A
100
AcDbEntity
  8
0
100
AcDbCircle
 10
11.49999625813416
 20
59.11092140688572
 30
0.0
 40
1.5
100
AcDbArc
 50
273.030476845861
 51
0.0
  0
LINE
  5
143
330
9A
100
AcDbEntity
  8
0
100
AcDbLine
 10
12.99999625813416
 20
66.8890731375087
 30
0.0
 11
12.99999625813416
 21
66.11092140688572
 31
0.0
  0
ARC
  5
144
330
9A
100
AcDbEntity
  8
0
100
AcDbCircle
 10
11.49999625813416
 20
66.8890731375087
 30
0.0
 40
1.5
100
AcDbArc
 50
0.0
 51
86.96952315413897
  0
LINE
  5
145
330
9A
100
AcDbEntity
  8
0
100
AcDbLine
 10
12.99999625813416
 20
73.88907313750872
 30
0.0
 11
12.99999625813416
 21
73.11092140688572
 31
0.0
  0
ARC
  5
146
330
9A
100
AcDbEntity
  8
0
100
AcDbCircle
 10
11.49999625813416
 20
73.11092140688572
 30
0.0
 40
1.5
100
AcDbArc
 50
273.030476845861
 51
0.0
  0
ARC
  5
147
330
9A
100
AcDbEntity
  8
0
100
AcDbCircle
 10
11.49999625813416
 20
66.11092140688572
 30
0.0
 40
1.5
100
AcDbArc
 50
273.030476845861
 51
0.0
  0
LWPOLYLINE
  5
148
330
9A
100
AcDbEntity
  8
0
100
AcDbPolyline
 90
        3
 70
     0
 43
0.0
 10
12.86994943312071
 20
86.49999727219769
 10
5.999996258134157
 20
86.49999727219769
 10
5.999996258134157
 20
85.31764433102036
  0
LINE
  5
149
330
9A
100
AcDbEntity
  8
0
  6
CONTINUOUS
100
AcDbLine
 10
3.99999625813416
 20
78.99999727219769
 30
0.0
 11
3.99999625813416
 21
78.21176197807914
 31
0.0
  0
LINE
  5
14A
330
9A
100
AcDbEntity
  8
0
  6
CONTINUOUS
100
AcDbLine
 10
5.999996258134157
 20
82.68235021337403
 30
0.0
 11
5.999996258134157
 21
78.31764433102034
 31
0.0
  0
LINE
  5
14B
330
9A
100
AcDbEntity
  8
0
100
AcDbLine
 10
1.999996258134158
 20
78.10587962513792
 30
0.0
 11
1.999996258134158
 21
78.14548900799362
 31
0.0
  0
LINE
  5
14C
330
9A
100
AcDbEntity
  8
0
100
AcDbLine
 10
3.99999625813416
 20
82.78823256631527
 30
0.0
 11
3.99999625813416
 21
80.99999727219769
 31
0.0
  0
LINE
  5
14D
330
9A
100
AcDbEntity
  8
0
100
AcDbLine
 10
5.999996258134157
 20
85.31764433102035
 30
0.0
 11
5.999996258134157
 21
85.99999727219769
 31
0.0
  0
LINE
  5
14E
330
9A
100
AcDbEntity
  8
0
100
AcDbLine
 10
1.999996258134615
 20
78.14548900799384
 30
0.0
 11
1.9999962581345
 21
78.10587962513794
 31
0.0
  0
LINE
  5
14F
330
9A
100
AcDbEntity
  8
0
100
AcDbLine
 10
1.999996258134615
 20
78.14548900799384
 30
0.0
 11
3.99999625813416
 21
78.99999727219769
 31
0.0
  0
ARC
  5
150
330
9A
100
AcDbEntity
  8
0
100
AcDbCircle
 10
3.499996258134383
 20
80.99999727219769
 30
0.0
 40
0.5
100
AcDbArc
 50
0.0
 51
90.0
  0
ARC
  5
151
330
9A
100
AcDbEntity
  8
0
100
AcDbCircle
 10
2.499996258134383
 20
80.99999727219769
 30
0.0
 40
0.5
100
AcDbArc
 50
90.0
 51
180.0
  0
LINE
  5
152
330
9A
100
AcDbEntity
  8
0
100
AcDbLine
 10
1.999996258134386
 20
80.99999727219769
 30
0.0
 11
1.999996258134615
 21
80.14548900799384
 31
0.0
  0
LINE
  5
153
330
9A
100
AcDbEntity
  8
0
100
AcDbLine
 10
3.499996258134383
 20
81.49999727219769
 30
0.0
 11
2.499996258134383
 21
81.49999727219769
 31
0.0
  0
ARC
  5
154
330
9A
100
AcDbEntity
  8
0
100
AcDbCircle
 10
4.499996258134159
 20
78.99999727219769
 30
0.0
 40
0.5
100
AcDbArc
 50
180.0
 51
270.0
  0
ARC
  5
155
330
9A
100
AcDbEntity
  8
0
100
AcDbCircle
 10
5.499996258134386
 20
78.99999727219769
 30
0.0
 40
0.5
100
AcDbArc
 50
270.0
 51
0.0
  0
ARC
  5
156
330
9A
100
AcDbEntity
  8
0
100
AcDbCircle
 10
5.499996258134157
 20
85.99999727219769
 30
0.0
 40
0.5
100
AcDbArc
 50
0.0
 51
90.0
  0
ARC
  5
157
330
9A
100
AcDbEntity
  8
0
100
AcDbCircle
 10
4.499996258134159
 20
85.99999727219769
 30
0.0
 40
0.5
100
AcDbArc
 50
90.0
 51
180.0
  0
LINE
  5
158
330
9A
100
AcDbEntity
  8
0
100
AcDbLine
 10
3.99999625813416
 20
85.99999727219769
 30
0.0
 11
3.99999625813416
 21
85.21176197807914
 31
0.0
  0
LINE
  5
159
330
9A
100
AcDbEntity
  8
0
100
AcDbLine
 10
5.499996258134157
 20
86.49999727219769
 30
0.0
 11
4.499996258134159
 21
86.49999727219769
 31
0.0
  0
LINE
  5
15A
330
9A
100
AcDbEntity
  8
0
100
AcDbLine
 10
5.999996258134387
 20
78.99999727219769
 30
0.0
 11
5.999996258134157
 21
82.68235021337401
 31
0.0
  0
LINE
  5
15B
330
9A
100
AcDbEntity
  8
0
100
AcDbLine
 10
4.499996258134159
 20
78.49999727219769
 30
0.0
 11
5.499996258134386
 21
78.49999727219769
 31
0.0
  0
LINE
  5
15C
330
9A
100
AcDbEntity
  8
0
  6
CONTINUOUS
100
AcDbLine
 10
5.999996258134157
 20
86.49999727219769
 30
0.0
 11
5.999996258134157
 21
85.31764433102036
 31
0.0
  0
LINE
  5
15D
330
9A
100
AcDbEntity
  8
0
100
AcDbLine
 10
12.99999625813416
 20
80.88907313750871
 30
0.0
 11
12.99999625813416
 21
80.11092140688573
 31
0.0
  0
ARC
  5
15E
330
9A
100
AcDbEntity
  8
0
100
AcDbCircle
 10
11.49999625813416
 20
80.11092140688573
 30
0.0
 40
1.5
100
AcDbArc
 50
273.030476845861
 51
0.0
  0
LINE
  5
15F
330
9A
100
AcDbEntity
  8
0
100
AcDbLine
 10
11.99999625813416
 20
86.49999727219769
 30
0.0
 11
11.99999625813416
 21
89.3032866998817
 31
0.0
  0
LINE
  5
160
330
9A
100
AcDbEntity
  8
0
100
AcDbLine
 10
10.79999625813513
 20
89.0489597465187
 30
0.0
 11
11.99999625813416
 21
89.01753664063575
 31
0.0
  0
LINE
  5
161
330
9A
100
AcDbEntity
  8
0
100
AcDbLine
 10
12.99999625813416
 20
87.88907313750872
 30
0.0
 11
12.99999625813416
 21
87.11092140688572
 31
0.0
  0
ARC
  5
162
330
9A
100
AcDbEntity
  8
0
100
AcDbCircle
 10
11.49999625813416
 20
87.11092140688572
 30
0.0
 40
1.5
100
AcDbArc
 50
273.030476845861
 51
0.0
  0
ARC
  5
163
330
9A
100
AcDbEntity
  8
0
100
AcDbCircle
 10
11.49999625813416
 20
94.11092140688571
 30
0.0
 40
1.5
100
AcDbArc
 50
273.030476845861
 51
0.0
  0
LINE
  5
164
330
9A
100
AcDbEntity
  8
0
100
AcDbLine
 10
10.79999625813513
 20
89.42823256631468
 30
0.0
 11
10.79999625813513
 21
89.0489597465187
 31
0.0
  0
ARC
  5
165
330
9A
100
AcDbEntity
  8
0
100
AcDbCircle
 10
11.49999625813416
 20
87.88907313750872
 30
0.0
 40
1.5
100
AcDbArc
 50
0.0
 51
86.96952315413897
  0
ARC
  5
166
330
9A
100
AcDbEntity
  8
0
100
AcDbCircle
 10
11.49999625813416
 20
80.88907313750871
 30
0.0
 40
1.5
100
AcDbArc
 50
0.0
 51
86.96952315413897
  0
LINE
  5
167
330
9A
100
AcDbEntity
  8
0
100
AcDbLine
 10
0.9471291169941196
 20
96.94985494437574
 30
0.0
 11
11.57929696984524
 21
96.38697546981269
 31
0.0
  0
LINE
  5
168
330
9A
100
AcDbEntity
  8
0
100
AcDbLine
 10
0.4738282800130948
 20
104.3251647881775
 30
0.0
 11
11.57850019249917
 21
103.7431935935775
 31
0.0
  0
LINE
  5
169
330
9A
100
AcDbEntity
  8
0
100
AcDbLine
 10
0.9471291169941196
 20
99.05013960001872
 30
0.0
 11
11.57929696984524
 21
99.61301907458164
 31
0.0
  0
LINE
  5
16A
330
9A
100
AcDbEntity
  8
0
100
AcDbLine
 10
-0.0000037418658394
 20
104.8244795555546
 30
0.0
 11
-0.0000037418658394
 21
120.5286506839515
 31
0.0
  0
LINE
  5
16B
330
9A
100
AcDbEntity
  8
0
100
AcDbLine
 10
-0.0000037418658394
 20
98.05153804514963
 30
0.0
 11
-0.0000037418658394
 21
97.94845649924468
 31
0.0
  0
POINT
  5
16C
330
9A
100
AcDbEntity
  8
0
100
AcDbPoint
 10
-0.0000037418658394
 20
104.3499972721966
 30
0.0
  0
ARC
  5
16D
330
9A
100
AcDbEntity
  8
0
100
AcDbCircle
 10
0.4999962581341606
 20
104.8244795555546
 30
0.0
 40
0.5
100
AcDbArc
 50
180.0
 51
266.9999999999943
  0
ARC
  5
16E
330
9A
100
AcDbEntity
  8
0
100
AcDbCircle
 10
0.9999962581341604
 20
98.05153804514963
 30
0.0
 40
1.0
100
AcDbArc
 50
93.03047684586102
 51
180.0
  0
ARC
  5
16F
330
9A
100
AcDbEntity
  8
0
100
AcDbCircle
 10
0.9999962581341604
 20
97.94845649924468
 30
0.0
 40
1.0
100
AcDbArc
 50
180.0
 51
266.9695231541389
  0
ARC
  5
170
330
9A
100
AcDbEntity
  8
0
100
AcDbCircle
 10
11.49999625813416
 20
94.88907313750871
 30
0.0
 40
1.5
100
AcDbArc
 50
0.0
 51
86.96952315413897
  0
LINE
  5
171
330
9A
100
AcDbEntity
  8
0
100
AcDbLine
 10
10.79999625813513
 20
103.7839932559404
 30
0.0
 11
10.79999625813513
 21
99.56600128845366
 31
0.0
  0
LINE
  5
172
330
9A
100
AcDbEntity
  8
0
100
AcDbLine
 10
12.99999625813416
 20
102.2452492914456
 30
0.0
 11
12.99999625813416
 21
101.1109214068855
 31
0.0
  0
ARC
  5
173
330
9A
100
AcDbEntity
  8
0
100
AcDbCircle
 10
11.49999625813416
 20
102.2452492914456
 30
0.0
 40
1.5
100
AcDbArc
 50
0.0
 51
87.00000000000093
  0
ARC
  5
174
330
9A
100
AcDbEntity
  8
0
100
AcDbCircle
 10
11.49999625813416
 20
101.1109214068855
 30
0.0
 40
1.5
100
AcDbArc
 50
273.030476845861
 51
0.0
  0
LINE
  5
175
330
9A
100
AcDbEntity
  8
0
100
AcDbLine
 10
48.55277444428816
 20
101.9999972721965
 30
0.0
 11
48.55277444428816
 21
91.99999727219669
 31
0.0
  0
LINE
  5
176
330
9A
100
AcDbEntity
  8
0
100
AcDbLine
 10
18.99999625813416
 20
110.4710163300716
 30
0.0
 11
18.99999625813416
 21
82.99999727219768
 31
0.0
  0
LINE
  5
177
330
9A
100
AcDbEntity
  8
0
100
AcDbLine
 10
19.99999625813416
 20
82.97381135062966
 30
0.0
 11
19.99999625813416
 21
109.6057307773266
 31
0.0
  0
LINE
  5
178
330
9A
100
AcDbEntity
  8
0
100
AcDbLine
 10
47.49999625813415
 20
70.97381135062869
 30
0.0
 11
47.49999625813415
 21
96.97381135062869
 31
0.0
  0
LINE
  5
179
330
9A
100
AcDbEntity
  8
0
100
AcDbLine
 10
48.49999625813413
 20
56.97381135062869
 30
0.0
 11
29.99999625813416
 21
56.97381135062869
 31
0.0
  0
LINE
  5
17A
330
9A
100
AcDbEntity
  8
0
100
AcDbLine
 10
48.49999625813413
 20
61.97381135062869
 30
0.0
 11
29.99999625813416
 21
61.97381135062869
 31
0.0
  0
LINE
  5
17B
330
9A
100
AcDbEntity
  8
0
100
AcDbLine
 10
48.49999625813413
 20
63.97381135062869
 30
0.0
 11
29.99999625813416
 21
63.97381135062869
 31
0.0
  0
LINE
  5
17C
330
9A
100
AcDbEntity
  8
0
100
AcDbLine
 10
48.49999625813413
 20
68.97381135062869
 30
0.0
 11
29.99999625813416
 21
68.97381135062869
 31
0.0
  0
LINE
  5
17D
330
9A
100
AcDbEntity
  8
0
100
AcDbLine
 10
48.49999625813413
 20
70.97381135062869
 30
0.0
 11
29.99999625813416
 21
70.97381135062869
 31
0.0
  0
LINE
  5
17E
330
9A
100
AcDbEntity
  8
0
100
AcDbLine
 10
46.99999625813414
 20
84.9738113506287
 30
0.0
 11
29.99999625813416
 21
84.9738113506287
 31
0.0
  0
LINE
  5
17F
330
9A
100
AcDbEntity
  8
0
100
AcDbLine
 10
46.99999625813414
 20
82.97381135062869
 30
0.0
 11
29.99999625813416
 21
82.97381135062869
 31
0.0
  0
LINE
  5
180
330
9A
100
AcDbEntity
  8
0
100
AcDbLine
 10
46.99999625813414
 20
77.97381135062869
 30
0.0
 11
29.99999625813416
 21
77.97381135062869
 31
0.0
  0
LINE
  5
181
330
9A
100
AcDbEntity
  8
0
100
AcDbLine
 10
46.99999625813414
 20
75.97381135062869
 30
0.0
 11
29.99999625813416
 21
75.97381135062869
 31
0.0
  0
LINE
  5
182
330
9A
100
AcDbEntity
  8
0
100
AcDbLine
 10
46.99999625813414
 20
91.97381135062867
 30
0.0
 11
29.99999625813416
 21
91.97381135062867
 31
0.0
  0
LINE
  5
183
330
9A
100
AcDbEntity
  8
0
100
AcDbLine
 10
46.99999625813414
 20
89.9738113506287
 30
0.0
 11
29.99999625813416
 21
89.9738113506287
 31
0.0
  0
LINE
  5
184
330
9A
100
AcDbEntity
  8
0
100
AcDbLine
 10
22.09999625813407
 20
80.99999727219767
 30
0.0
 11
22.09999625813407
 21
72.99999727219767
 31
0.0
  0
LINE
  5
185
330
9A
100
AcDbEntity
  8
0
100
AcDbLine
 10
22.6999962581342
 20
80.99999727219767
 30
0.0
 11
22.6999962581342
 21
72.99999727219767
 31
0.0
  0
LINE
  5
186
330
9A
100
AcDbEntity
  8
0
100
AcDbLine
 10
23.49999625813416
 20
80.99999727219767
 30
0.0
 11
23.49999625813416
 21
72.99999727219767
 31
0.0
  0
LINE
  5
187
330
9A
100
AcDbEntity
  8
0
100
AcDbLine
 10
21.99999625813313
 20
81.4738113506287
 30
0.0
 11
21.99999625813313
 21
72.4738113506287
 31
0.0
  0
LINE
  5
188
330
9A
100
AcDbEntity
  8
0
100
AcDbLine
 10
23.69999625813306
 20
81.4738113506287
 30
0.0
 11
23.69999625813306
 21
72.4738113506287
 31
0.0
  0
LINE
  5
189
330
9A
100
AcDbEntity
  8
0
100
AcDbLine
 10
17.6999962581342
 20
82.99999727219768
 30
0.0
 11
17.6999962581342
 21
71.09999727219667
 31
0.0
  0
LINE
  5
18A
330
9A
100
AcDbEntity
  8
0
100
AcDbLine
 10
18.49999625813416
 20
82.99999727219768
 30
0.0
 11
18.49999625813416
 21
70.99999727219767
 31
0.0
  0
LINE
  5
18B
330
9A
100
AcDbEntity
  8
0
100
AcDbLine
 10
18.99999625813416
 20
70.99999727219665
 30
0.0
 11
18.99999625813416
 21
82.99999727219768
 31
0.0
  0
LINE
  5
18C
330
9A
100
AcDbEntity
  8
0
100
AcDbLine
 10
18.99999625813416
 20
70.99999727219767
 30
0.0
 11
17.6999962581342
 21
70.99999727219767
 31
0.0
  0
LINE
  5
18D
330
9A
100
AcDbEntity
  8
0
100
AcDbLine
 10
19.99999625813416
 20
70.97381135062869
 30
0.0
 11
18.99999625813416
 21
70.97381135062869
 31
0.0
  0
LINE
  5
18E
330
9A
100
AcDbEntity
  8
0
100
AcDbLine
 10
23.49999625813416
 20
72.99999727219767
 30
0.0
 11
21.99999625813313
 21
72.99999727219767
 31
0.0
  0
LINE
  5
18F
330
9A
100
AcDbEntity
  8
0
100
AcDbLine
 10
23.69999625813306
 20
72.4738113506287
 30
0.0
 11
21.99999625813313
 21
72.4738113506287
 31
0.0
  0
LINE
  5
190
330
9A
100
AcDbEntity
  8
0
100
AcDbLine
 10
23.49999625813416
 20
80.99999727219767
 30
0.0
 11
21.99999625813313
 21
80.99999727219767
 31
0.0
  0
LINE
  5
191
330
9A
100
AcDbEntity
  8
0
100
AcDbLine
 10
18.99999625813416
 20
82.99999727219768
 30
0.0
 11
17.6999962581342
 21
82.99999727219768
 31
0.0
  0
LINE
  5
192
330
9A
100
AcDbEntity
  8
0
100
AcDbLine
 10
23.69999625813306
 20
81.4738113506287
 30
0.0
 11
21.99999625813313
 21
81.4738113506287
 31
0.0
  0
LINE
  5
193
330
9A
100
AcDbEntity
  8
0
100
AcDbLine
 10
19.99999625813416
 20
82.97381135062966
 30
0.0
 11
18.99999625813416
 21
82.97381135062966
 31
0.0
  0
LINE
  5
194
330
9A
100
AcDbEntity
  8
0
100
AcDbLine
 10
47.49999625813415
 20
56.97381135062869
 30
0.0
 11
47.49999625813415
 21
61.97381135062869
 31
0.0
  0
LINE
  5
195
330
9A
100
AcDbEntity
  8
0
100
AcDbLine
 10
47.49999625813415
 20
63.97381135062869
 30
0.0
 11
47.49999625813415
 21
68.97381135062869
 31
0.0
  0
ARC
  5
196
330
9A
100
AcDbEntity
  8
0
100
AcDbCircle
 10
49.29999625813412
 20
81.99999727219667
 30
0.0
 40
1.05
100
AcDbArc
 50
139.6324064558195
 51
220.3675935441804
  0
LINE
  5
197
330
9A
100
AcDbEntity
  8
0
100
AcDbLine
 10
46.99999625813414
 20
75.97381135062869
 30
0.0
 11
46.99999625813414
 21
77.97381135062869
 31
0.0
  0
LINE
  5
198
330
9A
100
AcDbEntity
  8
0
100
AcDbLine
 10
46.99999625813414
 20
82.97381135062869
 30
0.0
 11
46.99999625813414
 21
84.9738113506287
 31
0.0
  0
LINE
  5
199
330
9A
100
AcDbEntity
  8
0
100
AcDbLine
 10
46.99999625813414
 20
89.9738113506287
 30
0.0
 11
46.99999625813414
 21
91.97381135062867
 31
0.0
  0
LINE
  5
19A
330
9A
100
AcDbEntity
  8
0
100
AcDbLine
 10
48.55277444428816
 20
96.97381135062869
 30
0.0
 11
29.99999625813416
 21
96.97381135062869
 31
0.0
  0
LINE
  5
19B
330
9A
100
AcDbEntity
  8
0
100
AcDbLine
 10
48.55277444428816
 20
98.9738113506287
 30
0.0
 11
29.99999625813416
 21
98.9738113506287
 31
0.0
  0
LINE
  5
19C
330
9A
100
AcDbEntity
  8
0
100
AcDbLine
 10
28.09999625813407
 20
121.9738113506287
 30
0.0
 11
36.69999625813328
 21
121.9738113506287
 31
0.0
  0
LINE
  5
19D
330
9A
100
AcDbEntity
  8
0
100
AcDbLine
 10
29.19999625813318
 20
126.2738113506287
 30
0.0
 11
35.09999625813316
 21
126.2738113506287
 31
0.0
  0
LINE
  5
19E
330
9A
100
AcDbEntity
  8
0
100
AcDbLine
 10
29.59999625813316
 20
127.5738113506285
 30
0.0
 11
38.94499625813319
 21
127.5738113506285
 31
0.0
  0
LINE
  5
19F
330
9A
100
AcDbEntity
  8
0
100
AcDbLine
 10
21.99999625813416
 20
110.9999972721974
 30
0.0
 11
21.99999625813416
 21
120.8952535859205
 31
0.0
  0
LINE
  5
1A0
330
9A
100
AcDbEntity
  8
0
100
AcDbLine
 10
22.99999625813416
 20
120.9738113506287
 30
0.0
 11
22.99999625813416
 21
110.1347117194515
 31
0.0
  0
LINE
  5
1A1
330
9A
100
AcDbEntity
  8
0
100
AcDbLine
 10
21.99999625813416
 20
120.4738113506285
 30
0.0
 11
21.99999625813416
 21
110.9738113506296
 31
0.0
  0
LINE
  5
1A2
330
9A
100
AcDbEntity
  8
0
100
AcDbLine
 10
21.99999625813416
 20
110.9999972721974
 30
0.0
 11
18.99999625813416
 21
110.4710163300716
 31
0.0
  0
LINE
  5
1A3
330
9A
100
AcDbEntity
  8
0
100
AcDbLine
 10
22.99999625813416
 20
110.1347117194515
 30
0.0
 11
19.99999625813416
 21
109.6057307773266
 31
0.0
  0
LINE
  5
1A4
330
9A
100
AcDbEntity
  8
0
100
AcDbLine
 10
18.99999625813416
 20
110.4448304085035
 30
0.0
 11
21.99999625813416
 21
110.9738113506296
 31
0.0
  0
LINE
  5
1A5
330
9A
100
AcDbEntity
  8
0
100
AcDbLine
 10
17.99999625813416
 20
120.9999972721975
 30
0.0
 11
21.99999625813416
 21
120.8952535859205
 31
0.0
  0
LINE
  5
1A6
330
9A
100
AcDbEntity
  8
0
100
AcDbLine
 10
21.99999625813416
 20
120.4738113506285
 30
0.0
 11
22.99999625813416
 21
120.4738113506285
 31
0.0
  0
LINE
  5
1A7
330
9A
100
AcDbEntity
  8
0
100
AcDbLine
 10
19.99999625813416
 20
120.9738113506287
 30
0.0
 11
19.99999625813416
 21
120.9476254290595
 31
0.0
  0
LINE
  5
1A8
330
9A
100
AcDbEntity
  8
0
100
AcDbLine
 10
19.99999625813416
 20
120.9738113506287
 30
0.0
 11
19.99999625813416
 21
120.9476254290589
 31
0.0
  0
LINE
  5
1A9
330
9A
100
AcDbEntity
  8
0
100
AcDbLine
 10
28.09999625813407
 20
120.9738113506287
 30
0.0
 11
28.09999625813407
 21
121.9738113506287
 31
0.0
  0
LINE
  5
1AA
330
9A
100
AcDbEntity
  8
0
100
AcDbLine
 10
29.19999625813318
 20
121.9738113506287
 30
0.0
 11
29.19999625813318
 21
126.2738113506287
 31
0.0
  0
LINE
  5
1AB
330
9A
100
AcDbEntity
  8
0
100
AcDbLine
 10
29.59999625813316
 20
126.2738113506285
 30
0.0
 11
29.59999625813316
 21
127.5738113506285
 31
0.0
  0
LINE
  5
1AC
330
9A
100
AcDbEntity
  8
0
100
AcDbLine
 10
39.1999962581342
 20
107.4738113506287
 30
0.0
 11
39.1999962581342
 21
115.4738113506285
 31
0.0
  0
LINE
  5
1AD
330
9A
100
AcDbEntity
  8
0
100
AcDbLine
 10
42.19999625813421
 20
105.4738113506285
 30
0.0
 11
42.19999625813421
 21
117.4738113506285
 31
0.0
  0
LINE
  5
1AE
330
9A
100
AcDbEntity
  8
0
100
AcDbLine
 10
42.19999625813421
 20
105.4738113506285
 30
0.0
 11
33.99999625813416
 21
105.4738113506285
 31
0.0
  0
LINE
  5
1AF
330
9A
100
AcDbEntity
  8
0
100
AcDbLine
 10
37.1999962581342
 20
109.4738113506287
 30
0.0
 11
37.1999962581342
 21
107.4738113506287
 31
0.0
  0
LINE
  5
1B0
330
9A
100
AcDbEntity
  8
0
100
AcDbLine
 10
37.1999962581342
 20
107.4738113506287
 30
0.0
 11
39.1999962581342
 21
107.4738113506287
 31
0.0
  0
LINE
  5
1B1
330
9A
100
AcDbEntity
  8
0
100
AcDbLine
 10
33.99999625813416
 20
109.4738113506287
 30
0.0
 11
33.99999625813416
 21
105.4738113506285
 31
0.0
  0
LINE
  5
1B2
330
9A
100
AcDbEntity
  8
0
100
AcDbLine
 10
33.99999625813416
 20
109.4738113506287
 30
0.0
 11
37.1999962581342
 21
109.4738113506287
 31
0.0
  0
LINE
  5
1B3
330
9A
100
AcDbEntity
  8
0
100
AcDbLine
 10
47.49999625813415
 20
98.9738113506287
 30
0.0
 11
47.49999625813415
 21
103.9738113506285
 31
0.0
  0
LINE
  5
1B4
330
9A
100
AcDbEntity
  8
0
100
AcDbLine
 10
33.99999625813416
 20
117.4738113506285
 30
0.0
 11
42.19999625813421
 21
117.4738113506285
 31
0.0
  0
LINE
  5
1B5
330
9A
100
AcDbEntity
  8
0
100
AcDbLine
 10
36.69999625813328
 20
121.9738113506287
 30
0.0
 11
36.69999625813328
 21
120.9738113506287
 31
0.0
  0
LINE
  5
1B6
330
9A
100
AcDbEntity
  8
0
100
AcDbLine
 10
35.09999625813316
 20
126.2738113506287
 30
0.0
 11
35.09999625813316
 21
121.9738113506287
 31
0.0
  0
LINE
  5
1B7
330
9A
100
AcDbEntity
  8
0
100
AcDbLine
 10
38.94499625813319
 20
127.5738113506285
 30
0.0
 11
38.94499625813319
 21
120.9738113506287
 31
0.0
  0
LINE
  5
1B8
330
9A
100
AcDbEntity
  8
0
100
AcDbLine
 10
37.1999962581342
 20
113.4738113506287
 30
0.0
 11
37.1999962581342
 21
115.4738113506285
 31
0.0
  0
LINE
  5
1B9
330
9A
100
AcDbEntity
  8
0
100
AcDbLine
 10
37.1999962581342
 20
115.4738113506285
 30
0.0
 11
39.1999962581342
 21
115.4738113506285
 31
0.0
  0
LINE
  5
1BA
330
9A
100
AcDbEntity
  8
0
100
AcDbLine
 10
33.99999625813416
 20
113.4738113506287
 30
0.0
 11
33.99999625813416
 21
117.4738113506285
 31
0.0
  0
LINE
  5
1BB
330
9A
100
AcDbEntity
  8
0
100
AcDbLine
 10
33.99999625813416
 20
113.4738113506287
 30
0.0
 11
37.1999962581342
 21
113.4738113506287
 31
0.0
  0
LINE
  5
1BC
330
9A
100
AcDbEntity
  8
0
100
AcDbLine
 10
67.49999625813416
 20
91.99999727219664
 30
0.0
 11
67.49999625813416
 21
49.99999727219666
 31
0.0
  0
LINE
  5
1BD
330
9A
100
AcDbEntity
  8
0
100
AcDbLine
 10
68.99999625813416
 20
54.9738113506287
 30
0.0
 11
68.99999625813416
 21
56.97381135062869
 31
0.0
  0
LINE
  5
1BE
330
9A
100
AcDbEntity
  8
0
100
AcDbLine
 10
69.99999625813416
 20
54.9738113506287
 30
0.0
 11
69.99999625813416
 21
56.97381135062869
 31
0.0
  0
LINE
  5
1BF
330
9A
100
AcDbEntity
  8
0
100
AcDbLine
 10
70.99999625813416
 20
21.97381135062868
 30
0.0
 11
70.99999625813416
 21
103.9738113506285
 31
0.0
  0
LINE
  5
1C0
330
9A
100
AcDbEntity
  8
0
100
AcDbLine
 10
71.99999625813416
 20
3.585957507460647
 30
0.0
 11
71.99999625813416
 21
120.9738113506287
 31
0.0
  0
LINE
  5
1C1
330
9A
100
AcDbEntity
  8
0
100
AcDbLine
 10
71.99999625813416
 20
-0.0000027278023254
 30
0.0
 11
71.99999625813416
 21
3.585957507460647
 31
0.0
  0
LINE
  5
1C2
330
9A
100
AcDbEntity
  8
0
100
AcDbLine
 10
62.99999625813414
 20
49.99999727219666
 30
0.0
 11
67.49999625813416
 21
49.99999727219666
 31
0.0
  0
LINE
  5
1C3
330
9A
100
AcDbEntity
  8
0
100
AcDbLine
 10
62.99999625813414
 20
49.99999727219666
 30
0.0
 11
52.99999625813414
 21
49.99999727219669
 31
0.0
  0
LINE
  5
1C4
330
9A
100
AcDbEntity
  8
0
100
AcDbLine
 10
52.99999625813414
 20
49.9738113506287
 30
0.0
 11
62.99999625813414
 21
49.9738113506287
 31
0.0
  0
LINE
  5
1C5
330
9A
100
AcDbEntity
  8
0
100
AcDbLine
 10
52.99999625813414
 20
51.99999727219664
 30
0.0
 11
52.99999625813414
 21
49.9738113506287
 31
0.0
  0
ARC
  5
1C6
330
9A
100
AcDbEntity
  8
0
100
AcDbCircle
 10
52.99999625813414
 20
50.47381135062869
 30
0.0
 40
0.5
100
AcDbArc
 50
251.374822272642
 51
270.0
  0
LINE
  5
1C7
330
9A
100
AcDbEntity
  8
0
100
AcDbLine
 10
62.99999625813414
 20
49.9738113506287
 30
0.0
 11
62.99999625813414
 21
51.99999727219664
 31
0.0
  0
ARC
  5
1C8
330
9A
100
AcDbEntity
  8
0
100
AcDbCircle
 10
62.99999625813414
 20
50.47381135062869
 30
0.0
 40
0.5
100
AcDbArc
 50
270.0
 51
288.6251777273578
  0
LINE
  5
1C9
330
9A
100
AcDbEntity
  8
0
100
AcDbLine
 10
68.99999625813416
 20
33.97381135062869
 30
0.0
 11
68.99999625813416
 21
35.97381135062867
 31
0.0
  0
LINE
  5
1CA
330
9A
100
AcDbEntity
  8
0
100
AcDbLine
 10
69.99999625813416
 20
33.97381135062869
 30
0.0
 11
69.99999625813416
 21
35.97381135062867
 31
0.0
  0
LINE
  5
1CB
330
9A
100
AcDbEntity
  8
0
100
AcDbLine
 10
68.99999625813416
 20
26.97381135062869
 30
0.0
 11
68.99999625813416
 21
28.97381135062869
 31
0.0
  0
LINE
  5
1CC
330
9A
100
AcDbEntity
  8
0
100
AcDbLine
 10
69.99999625813416
 20
26.97381135062869
 30
0.0
 11
69.99999625813416
 21
28.97381135062869
 31
0.0
  0
LINE
  5
1CD
330
9A
100
AcDbEntity
  8
0
100
AcDbLine
 10
67.49999625813416
 20
49.99999727219666
 30
0.0
 11
67.49999625813416
 21
49.99999727219666
 31
0.0
  0
LINE
  5
1CE
330
9A
100
AcDbEntity
  8
0
100
AcDbLine
 10
68.99999625813416
 20
40.97381135062867
 30
0.0
 11
68.99999625813416
 21
42.97381135062869
 31
0.0
  0
LINE
  5
1CF
330
9A
100
AcDbEntity
  8
0
100
AcDbLine
 10
69.99999625813416
 20
40.97381135062867
 30
0.0
 11
69.99999625813416
 21
42.97381135062869
 31
0.0
  0
LINE
  5
1D0
330
9A
100
AcDbEntity
  8
0
100
AcDbLine
 10
70.99999625813416
 20
49.9738113506287
 30
0.0
 11
68.99999625813416
 21
49.9738113506287
 31
0.0
  0
LINE
  5
1D1
330
9A
100
AcDbEntity
  8
0
100
AcDbLine
 10
70.99999625813416
 20
47.97381135062869
 30
0.0
 11
68.99999625813416
 21
47.97381135062869
 31
0.0
  0
LINE
  5
1D2
330
9A
100
AcDbEntity
  8
0
100
AcDbLine
 10
68.99999625813416
 20
47.97381135062869
 30
0.0
 11
68.99999625813416
 21
49.9738113506287
 31
0.0
  0
LINE
  5
1D3
330
9A
100
AcDbEntity
  8
0
100
AcDbLine
 10
69.99999625813416
 20
47.97381135062869
 30
0.0
 11
69.99999625813416
 21
49.9738113506287
 31
0.0
  0
LINE
  5
1D4
330
9A
100
AcDbEntity
  8
0
100
AcDbLine
 10
68.49999625813416
 20
54.9738113506287
 30
0.0
 11
68.49999625813416
 21
48.97381135062869
 31
0.0
  0
LINE
  5
1D5
330
9A
100
AcDbEntity
  8
0
100
AcDbLine
 10
70.99999625813416
 20
54.9738113506287
 30
0.0
 11
67.49999625813416
 21
54.9738113506287
 31
0.0
  0
LINE
  5
1D6
330
9A
100
AcDbEntity
  8
0
100
AcDbLine
 10
67.44721807197925
 20
101.9999972721965
 30
0.0
 11
67.44721807197925
 21
91.99999727219664
 31
0.0
  0
LINE
  5
1D7
330
9A
100
AcDbEntity
  8
0
100
AcDbLine
 10
68.49999625813416
 20
96.97381135062869
 30
0.0
 11
68.49999625813416
 21
70.97381135062869
 31
0.0
  0
LINE
  5
1D8
330
9A
100
AcDbEntity
  8
0
100
AcDbLine
 10
68.49999625813416
 20
61.97381135062869
 30
0.0
 11
68.49999625813416
 21
56.97381135062869
 31
0.0
  0
LINE
  5
1D9
330
9A
100
AcDbEntity
  8
0
100
AcDbLine
 10
68.99999625813416
 20
68.97381135062869
 30
0.0
 11
68.99999625813416
 21
70.97381135062869
 31
0.0
  0
LINE
  5
1DA
330
9A
100
AcDbEntity
  8
0
100
AcDbLine
 10
69.99999625813416
 20
68.97381135062869
 30
0.0
 11
69.99999625813416
 21
70.97381135062869
 31
0.0
  0
LINE
  5
1DB
330
9A
100
AcDbEntity
  8
0
100
AcDbLine
 10
68.49999625813416
 20
68.97381135062869
 30
0.0
 11
68.49999625813416
 21
63.97381135062869
 31
0.0
  0
LINE
  5
1DC
330
9A
100
AcDbEntity
  8
0
100
AcDbLine
 10
68.99999625813416
 20
61.97381135062869
 30
0.0
 11
68.99999625813416
 21
63.97381135062869
 31
0.0
  0
LINE
  5
1DD
330
9A
100
AcDbEntity
  8
0
100
AcDbLine
 10
69.99999625813416
 20
61.97381135062869
 30
0.0
 11
69.99999625813416
 21
63.97381135062869
 31
0.0
  0
LINE
  5
1DE
330
9A
100
AcDbEntity
  8
0
100
AcDbLine
 10
70.99999625813416
 20
70.97381135062869
 30
0.0
 11
67.49999625813416
 21
70.97381135062869
 31
0.0
  0
LINE
  5
1DF
330
9A
100
AcDbEntity
  8
0
100
AcDbLine
 10
70.99999625813416
 20
68.97381135062869
 30
0.0
 11
67.49999625813416
 21
68.97381135062869
 31
0.0
  0
LINE
  5
1E0
330
9A
100
AcDbEntity
  8
0
100
AcDbLine
 10
70.99999625813416
 20
63.97381135062869
 30
0.0
 11
67.49999625813416
 21
63.97381135062869
 31
0.0
  0
LINE
  5
1E1
330
9A
100
AcDbEntity
  8
0
100
AcDbLine
 10
70.99999625813416
 20
61.97381135062869
 30
0.0
 11
67.49999625813416
 21
61.97381135062869
 31
0.0
  0
LINE
  5
1E2
330
9A
100
AcDbEntity
  8
0
100
AcDbLine
 10
70.99999625813416
 20
56.97381135062869
 30
0.0
 11
67.49999625813416
 21
56.97381135062869
 31
0.0
  0
LINE
  5
1E3
330
9A
100
AcDbEntity
  8
0
100
AcDbLine
 10
70.99999625813416
 20
77.97381135062869
 30
0.0
 11
68.99999625813416
 21
77.97381135062869
 31
0.0
  0
LINE
  5
1E4
330
9A
100
AcDbEntity
  8
0
100
AcDbLine
 10
70.99999625813416
 20
75.97381135062869
 30
0.0
 11
68.99999625813416
 21
75.97381135062869
 31
0.0
  0
LINE
  5
1E5
330
9A
100
AcDbEntity
  8
0
100
AcDbLine
 10
68.99999625813416
 20
75.97381135062869
 30
0.0
 11
68.99999625813416
 21
77.97381135062869
 31
0.0
  0
LINE
  5
1E6
330
9A
100
AcDbEntity
  8
0
100
AcDbLine
 10
69.99999625813416
 20
75.97381135062869
 30
0.0
 11
69.99999625813416
 21
77.97381135062869
 31
0.0
  0
LINE
  5
1E7
330
9A
100
AcDbEntity
  8
0
100
AcDbLine
 10
70.99999625813416
 20
84.9738113506287
 30
0.0
 11
68.99999625813416
 21
84.9738113506287
 31
0.0
  0
LINE
  5
1E8
330
9A
100
AcDbEntity
  8
0
100
AcDbLine
 10
70.99999625813416
 20
82.97381135062869
 30
0.0
 11
68.99999625813416
 21
82.97381135062869
 31
0.0
  0
LINE
  5
1E9
330
9A
100
AcDbEntity
  8
0
100
AcDbLine
 10
68.99999625813416
 20
82.97381135062869
 30
0.0
 11
68.99999625813416
 21
84.9738113506287
 31
0.0
  0
LINE
  5
1EA
330
9A
100
AcDbEntity
  8
0
100
AcDbLine
 10
69.99999625813416
 20
82.97381135062869
 30
0.0
 11
69.99999625813416
 21
84.9738113506287
 31
0.0
  0
LINE
  5
1EB
330
9A
100
AcDbEntity
  8
0
100
AcDbLine
 10
70.99999625813416
 20
91.97381135062867
 30
0.0
 11
68.99999625813416
 21
91.97381135062867
 31
0.0
  0
LINE
  5
1EC
330
9A
100
AcDbEntity
  8
0
100
AcDbLine
 10
70.99999625813416
 20
89.9738113506287
 30
0.0
 11
68.99999625813416
 21
89.9738113506287
 31
0.0
  0
LINE
  5
1ED
330
9A
100
AcDbEntity
  8
0
100
AcDbLine
 10
68.99999625813416
 20
89.9738113506287
 30
0.0
 11
68.99999625813416
 21
91.97381135062867
 31
0.0
  0
LINE
  5
1EE
330
9A
100
AcDbEntity
  8
0
100
AcDbLine
 10
69.99999625813416
 20
89.9738113506287
 30
0.0
 11
69.99999625813416
 21
91.97381135062867
 31
0.0
  0
ARC
  5
1EF
330
9A
100
AcDbEntity
  8
0
100
AcDbCircle
 10
66.99999625813416
 20
91.97381135062867
 30
0.0
 40
0.5
100
AcDbArc
 50
0.0
 51
26.56294527600511
  0
LINE
  5
1F0
330
9A
100
AcDbEntity
  8
0
100
AcDbLine
 10
67.49999625813416
 20
86.97381135062867
 30
0.0
 11
67.49999625813416
 21
91.97381135062867
 31
0.0
  0
LINE
  5
1F1
330
9A
100
AcDbEntity
  8
0
100
AcDbLine
 10
65.49999625813416
 20
101.9999972721965
 30
0.0
 11
63.99999625813414
 21
101.9999972721965
 31
0.0
  0
LINE
  5
1F2
330
9A
100
AcDbEntity
  8
0
100
AcDbLine
 10
55.14999625813425
 20
124.3738113506287
 30
0.0
 11
61.4499962581342
 21
124.3738113506287
 31
0.0
  0
LINE
  5
1F3
330
9A
100
AcDbEntity
  8
0
100
AcDbLine
 10
55.14999625813425
 20
120.9738113506287
 30
0.0
 11
55.14999625813425
 21
124.3738113506287
 31
0.0
  0
LINE
  5
1F4
330
9A
100
AcDbEntity
  8
0
100
AcDbLine
 10
61.4499962581342
 20
124.3738113506287
 30
0.0
 11
61.4499962581342
 21
120.9738113506287
 31
0.0
  0
LINE
  5
1F5
330
9A
100
AcDbEntity
  8
0
100
AcDbLine
 10
68.49999625813416
 20
103.9738113506285
 30
0.0
 11
68.49999625813416
 21
98.9738113506287
 31
0.0
  0
LINE
  5
1F6
330
9A
100
AcDbEntity
  8
0
100
AcDbLine
 10
68.99999625813416
 20
96.97381135062869
 30
0.0
 11
68.99999625813416
 21
98.9738113506287
 31
0.0
  0
LINE
  5
1F7
330
9A
100
AcDbEntity
  8
0
100
AcDbLine
 10
69.99999625813416
 20
96.97381135062869
 30
0.0
 11
69.99999625813416
 21
98.9738113506287
 31
0.0
  0
LINE
  5
1F8
330
9A
100
AcDbEntity
  8
0
100
AcDbLine
 10
70.99999625813416
 20
98.9738113506287
 30
0.0
 11
67.44721807197925
 21
98.9738113506287
 31
0.0
  0
LINE
  5
1F9
330
9A
100
AcDbEntity
  8
0
100
AcDbLine
 10
70.99999625813416
 20
96.97381135062869
 30
0.0
 11
67.44721807197925
 21
96.97381135062869
 31
0.0
  0
LINE
  5
1FA
330
9A
100
AcDbEntity
  8
0
100
AcDbLine
 10
19.99999625813416
 20
120.9738113506287
 30
0.0
 11
71.99999625813416
 21
120.9738113506287
 31
0.0
  0
LINE
  5
1FB
330
9A
100
AcDbEntity
  8
0
100
AcDbLine
 10
55.14999625813425
 20
120.9738113506287
 30
0.0
 11
55.14999625813425
 21
124.3738113506287
 31
0.0
  0
LINE
  5
1FC
330
9A
100
AcDbEntity
  8
0
100
AcDbLine
 10
55.14999625813425
 20
124.3738113506287
 30
0.0
 11
61.4499962581342
 21
124.3738113506287
 31
0.0
  0
LINE
  5
1FD
330
9A
100
AcDbEntity
  8
0
100
AcDbLine
 10
61.4499962581342
 20
124.3738113506287
 30
0.0
 11
61.4499962581342
 21
120.9738113506287
 31
0.0
  0
ENDBLK
  5
1FF
330
9A
100
AcDbEntity
  8
0
100
AcDbBlockEnd
  0
BLOCK
  5
2D0
330
200
100
AcDbEntity
  8
0
100
AcDbBlockBegin
  2
A$C413B70EE
 70
     0
 10
0.0
 20
0.0
 30
0.0
  3
A$C413B70EE
  1

  0
LINE
  5
201
330
200
100
AcDbEntity
  8
0
100
AcDbLine
 10
127.5999998339284
 20
200.3690727306389
 30
0.0
 11
127.5999998339284
 21
6.63093194633106
 31
0.0
  0
LINE
  5
202
330
200
100
AcDbEntity
  8
0
100
AcDbLine
 10
122.5999998339284
 20
6.500002338485045
 30
0.0
 11
122.5999998339284
 21
16.50000233848504
 31
0.0
  0
LINE
  5
203
330
200
100
AcDbEntity
  8
0
100
AcDbLine
 10
6.599999833929357
 20
16.50000233848504
 30
0.0
 11
6.599999833929357
 21
190.5000023384846
 31
0.0
  0
LINE
  5
204
330
200
100
AcDbEntity
  8
0
100
AcDbLine
 10
6.599999833929357
 20
190.5000023384846
 30
0.0
 11
122.5999998339284
 21
190.5000023384846
 31
0.0
  0
LINE
  5
205
330
200
100
AcDbEntity
  8
0
100
AcDbLine
 10
6.599999833929357
 20
16.50000233848504
 30
0.0
 11
122.5999998339284
 21
16.50000233848504
 31
0.0
  0
LINE
  5
206
330
200
100
AcDbEntity
  8
0
100
AcDbLine
 10
122.5999998339284
 20
200.5000023384849
 30
0.0
 11
127.5999998339284
 21
200.3690727306389
 31
0.0
  0
LINE
  5
207
330
200
100
AcDbEntity
  8
0
100
AcDbLine
 10
124.014039598665
 20
200.4629744041099
 30
0.0
 11
124.0140395986643
 21
6.537030272860023
 31
0.0
  0
LINE
  5
208
330
200
100
AcDbEntity
  8
0
100
AcDbLine
 10
122.5999998339284
 20
6.500002338485045
 30
0.0
 11
127.5999998339284
 21
6.63093194633106
 31
0.0
  0
LINE
  5
209
330
200
100
AcDbEntity
  8
0
100
AcDbLine
 10
6.599999833929357
 20
16.50000233848504
 30
0.0
 11
6.599999833929357
 21
190.5000023384846
 31
0.0
  0
LINE
  5
20A
330
200
100
AcDbEntity
  8
0
100
AcDbLine
 10
6.599999833929357
 20
190.5000023384846
 30
0.0
 11
123.9878536770973
 21
190.5000023384846
 31
0.0
  0
LINE
  5
20B
330
200
100
AcDbEntity
  8
0
100
AcDbLine
 10
23.59999983392935
 20
16.50000233848504
 30
0.0
 11
23.59999983392935
 21
190.5000023384846
 31
0.0
  0
LINE
  5
20C
330
200
100
AcDbEntity
  8
0
100
AcDbLine
 10
105.5999998339291
 20
16.50000233848504
 30
0.0
 11
105.5999998339291
 21
190.5000023384846
 31
0.0
  0
LINE
  5
20D
330
200
100
AcDbEntity
  8
0
100
AcDbLine
 10
23.59999983392935
 20
189.5000023384849
 30
0.0
 11
105.5999998339291
 21
189.5000023384849
 31
0.0
  0
LINE
  5
20E
330
200
100
AcDbEntity
  8
0
100
AcDbLine
 10
28.59999983392935
 20
187.5000023384849
 30
0.0
 11
30.59999983392935
 21
187.5000023384849
 31
0.0
  0
LINE
  5
20F
330
200
100
AcDbEntity
  8
0
100
AcDbLine
 10
28.59999983392935
 20
17.50000233848504
 30
0.0
 11
28.59999983392935
 21
70.75000233848505
 31
0.0
  0
LINE
  5
210
330
200
100
AcDbEntity
  8
0
100
AcDbLine
 10
30.59999983392935
 20
17.50000233848504
 30
0.0
 11
30.59999983392935
 21
70.75000233848505
 31
0.0
  0
LINE
  5
211
330
200
100
AcDbEntity
  8
0
100
AcDbLine
 10
28.59999983392935
 20
136.2500023384845
 30
0.0
 11
30.59999983392935
 21
136.2500023384845
 31
0.0
  0
LINE
  5
212
330
200
100
AcDbEntity
  8
0
100
AcDbLine
 10
28.59999983392935
 20
70.75000233848505
 30
0.0
 11
30.59999983392935
 21
70.75000233848505
 31
0.0
  0
LINE
  5
213
330
200
100
AcDbEntity
  8
0
100
AcDbLine
 10
23.59999983392935
 20
17.50000233848504
 30
0.0
 11
105.5999998339291
 21
17.50000233848504
 31
0.0
  0
LINE
  5
214
330
200
100
AcDbEntity
  8
0
100
AcDbLine
 10
28.59999983392935
 20
19.50000233848504
 30
0.0
 11
30.59999983392935
 21
19.50000233848504
 31
0.0
  0
LINE
  5
215
330
200
100
AcDbEntity
  8
0
100
AcDbLine
 10
28.59999983392935
 20
136.2500023384845
 30
0.0
 11
28.59999983392935
 21
189.5000023384849
 31
0.0
  0
LINE
  5
216
330
200
100
AcDbEntity
  8
0
100
AcDbLine
 10
30.59999983392935
 20
136.2500023384845
 30
0.0
 11
30.59999983392935
 21
189.5000023384849
 31
0.0
  0
LINE
  5
217
330
200
100
AcDbEntity
  8
0
100
AcDbLine
 10
35.59999983392936
 20
187.5000023384849
 30
0.0
 11
37.59999983392936
 21
187.5000023384849
 31
0.0
  0
LINE
  5
218
330
200
100
AcDbEntity
  8
0
100
AcDbLine
 10
35.59999983392936
 20
17.50000233848504
 30
0.0
 11
35.59999983392936
 21
70.75000233848505
 31
0.0
  0
LINE
  5
219
330
200
100
AcDbEntity
  8
0
100
AcDbLine
 10
37.59999983392936
 20
17.50000233848504
 30
0.0
 11
37.59999983392936
 21
70.75000233848505
 31
0.0
  0
LINE
  5
21A
330
200
100
AcDbEntity
  8
0
100
AcDbLine
 10
35.59999983392936
 20
136.2500023384845
 30
0.0
 11
37.59999983392936
 21
136.2500023384845
 31
0.0
  0
LINE
  5
21B
330
200
100
AcDbEntity
  8
0
100
AcDbLine
 10
35.59999983392936
 20
70.75000233848505
 30
0.0
 11
37.59999983392936
 21
70.75000233848505
 31
0.0
  0
LINE
  5
21C
330
200
100
AcDbEntity
  8
0
100
AcDbLine
 10
35.59999983392936
 20
19.50000233848504
 30
0.0
 11
37.59999983392936
 21
19.50000233848504
 31
0.0
  0
LINE
  5
21D
330
200
100
AcDbEntity
  8
0
100
AcDbLine
 10
35.59999983392936
 20
136.2500023384845
 30
0.0
 11
35.59999983392936
 21
189.5000023384849
 31
0.0
  0
LINE
  5
21E
330
200
100
AcDbEntity
  8
0
100
AcDbLine
 10
37.59999983392936
 20
136.2500023384845
 30
0.0
 11
37.59999983392936
 21
189.5000023384849
 31
0.0
  0
LINE
  5
21F
330
200
100
AcDbEntity
  8
0
100
AcDbLine
 10
42.59999983392936
 20
187.5000023384849
 30
0.0
 11
44.59999983392934
 21
187.5000023384849
 31
0.0
  0
LINE
  5
220
330
200
100
AcDbEntity
  8
0
100
AcDbLine
 10
42.59999983392936
 20
17.50000233848504
 30
0.0
 11
42.59999983392936
 21
70.75000233848505
 31
0.0
  0
LINE
  5
221
330
200
100
AcDbEntity
  8
0
100
AcDbLine
 10
44.59999983392934
 20
17.50000233848504
 30
0.0
 11
44.59999983392934
 21
70.75000233848505
 31
0.0
  0
LINE
  5
222
330
200
100
AcDbEntity
  8
0
100
AcDbLine
 10
42.59999983392936
 20
136.2500023384845
 30
0.0
 11
44.59999983392934
 21
136.2500023384845
 31
0.0
  0
LINE
  5
223
330
200
100
AcDbEntity
  8
0
100
AcDbLine
 10
42.59999983392936
 20
70.75000233848505
 30
0.0
 11
44.59999983392934
 21
70.75000233848505
 31
0.0
  0
LINE
  5
224
330
200
100
AcDbEntity
  8
0
100
AcDbLine
 10
42.59999983392936
 20
19.50000233848504
 30
0.0
 11
44.59999983392934
 21
19.50000233848504
 31
0.0
  0
LINE
  5
225
330
200
100
AcDbEntity
  8
0
100
AcDbLine
 10
42.59999983392936
 20
136.2500023384845
 30
0.0
 11
42.59999983392936
 21
189.5000023384849
 31
0.0
  0
LINE
  5
226
330
200
100
AcDbEntity
  8
0
100
AcDbLine
 10
44.59999983392934
 20
136.2500023384845
 30
0.0
 11
44.59999983392934
 21
189.5000023384849
 31
0.0
  0
LINE
  5
227
330
200
100
AcDbEntity
  8
0
100
AcDbLine
 10
49.59999983392936
 20
17.50000233848504
 30
0.0
 11
49.59999983392936
 21
70.75000233848505
 31
0.0
  0
LINE
  5
228
330
200
100
AcDbEntity
  8
0
100
AcDbLine
 10
51.59999983392935
 20
17.50000233848504
 30
0.0
 11
51.59999983392935
 21
70.75000233848505
 31
0.0
  0
LINE
  5
229
330
200
100
AcDbEntity
  8
0
100
AcDbLine
 10
49.59999983392936
 20
136.2500023384845
 30
0.0
 11
51.59999983392935
 21
136.2500023384845
 31
0.0
  0
LINE
  5
22A
330
200
100
AcDbEntity
  8
0
100
AcDbLine
 10
49.59999983392936
 20
70.75000233848505
 30
0.0
 11
51.59999983392935
 21
70.75000233848505
 31
0.0
  0
LINE
  5
22B
330
200
100
AcDbEntity
  8
0
100
AcDbLine
 10
49.59999983392936
 20
19.50000233848504
 30
0.0
 11
51.59999983392935
 21
19.50000233848504
 31
0.0
  0
LINE
  5
22C
330
200
100
AcDbEntity
  8
0
100
AcDbLine
 10
49.59999983392936
 20
136.2500023384845
 30
0.0
 11
49.59999983392936
 21
189.5000023384849
 31
0.0
  0
LINE
  5
22D
330
200
100
AcDbEntity
  8
0
100
AcDbLine
 10
51.59999983392935
 20
136.2500023384845
 30
0.0
 11
51.59999983392935
 21
189.5000023384849
 31
0.0
  0
LINE
  5
22E
330
200
100
AcDbEntity
  8
0
100
AcDbLine
 10
56.59999983392935
 20
187.5000023384849
 30
0.0
 11
58.59999983392936
 21
187.5000023384849
 31
0.0
  0
LINE
  5
22F
330
200
100
AcDbEntity
  8
0
100
AcDbLine
 10
56.59999983392935
 20
17.50000233848504
 30
0.0
 11
56.59999983392935
 21
70.75000233848505
 31
0.0
  0
LINE
  5
230
330
200
100
AcDbEntity
  8
0
100
AcDbLine
 10
58.59999983392936
 20
17.50000233848504
 30
0.0
 11
58.59999983392936
 21
70.75000233848505
 31
0.0
  0
LINE
  5
231
330
200
100
AcDbEntity
  8
0
100
AcDbLine
 10
56.59999983392935
 20
136.2500023384845
 30
0.0
 11
58.59999983392936
 21
136.2500023384845
 31
0.0
  0
LINE
  5
232
330
200
100
AcDbEntity
  8
0
100
AcDbLine
 10
56.59999983392935
 20
70.75000233848505
 30
0.0
 11
58.59999983392936
 21
70.75000233848505
 31
0.0
  0
LINE
  5
233
330
200
100
AcDbEntity
  8
0
100
AcDbLine
 10
56.59999983392935
 20
19.50000233848504
 30
0.0
 11
58.59999983392936
 21
19.50000233848504
 31
0.0
  0
LINE
  5
234
330
200
100
AcDbEntity
  8
0
100
AcDbLine
 10
56.59999983392935
 20
136.2500023384845
 30
0.0
 11
56.59999983392935
 21
189.5000023384849
 31
0.0
  0
LINE
  5
235
330
200
100
AcDbEntity
  8
0
100
AcDbLine
 10
58.59999983392936
 20
136.2500023384845
 30
0.0
 11
58.59999983392936
 21
189.5000023384849
 31
0.0
  0
LINE
  5
236
330
200
100
AcDbEntity
  8
0
100
AcDbLine
 10
63.59999983392936
 20
187.5000023384849
 30
0.0
 11
65.59999983392936
 21
187.5000023384849
 31
0.0
  0
LINE
  5
237
330
200
100
AcDbEntity
  8
0
100
AcDbLine
 10
63.59999983392936
 20
17.50000233848504
 30
0.0
 11
63.59999983392936
 21
70.75000233848505
 31
0.0
  0
LINE
  5
238
330
200
100
AcDbEntity
  8
0
100
AcDbLine
 10
65.59999983392936
 20
17.50000233848504
 30
0.0
 11
65.59999983392936
 21
70.75000233848505
 31
0.0
  0
LINE
  5
239
330
200
100
AcDbEntity
  8
0
100
AcDbLine
 10
63.59999983392936
 20
136.2500023384845
 30
0.0
 11
65.59999983392936
 21
136.2500023384845
 31
0.0
  0
LINE
  5
23A
330
200
100
AcDbEntity
  8
0
100
AcDbLine
 10
63.59999983392936
 20
70.75000233848505
 30
0.0
 11
65.59999983392936
 21
70.75000233848505
 31
0.0
  0
LINE
  5
23B
330
200
100
AcDbEntity
  8
0
100
AcDbLine
 10
63.59999983392936
 20
19.50000233848504
 30
0.0
 11
65.59999983392936
 21
19.50000233848504
 31
0.0
  0
LINE
  5
23C
330
200
100
AcDbEntity
  8
0
100
AcDbLine
 10
63.59999983392936
 20
136.2500023384845
 30
0.0
 11
63.59999983392936
 21
189.5000023384849
 31
0.0
  0
LINE
  5
23D
330
200
100
AcDbEntity
  8
0
100
AcDbLine
 10
65.59999983392936
 20
136.2500023384845
 30
0.0
 11
65.59999983392936
 21
189.5000023384849
 31
0.0
  0
LINE
  5
23E
330
200
100
AcDbEntity
  8
0
100
AcDbLine
 10
70.59999983392936
 20
187.5000023384849
 30
0.0
 11
72.59999983392936
 21
187.5000023384849
 31
0.0
  0
LINE
  5
23F
330
200
100
AcDbEntity
  8
0
100
AcDbLine
 10
70.59999983392936
 20
17.50000233848504
 30
0.0
 11
70.59999983392936
 21
70.75000233848505
 31
0.0
  0
LINE
  5
240
330
200
100
AcDbEntity
  8
0
100
AcDbLine
 10
72.59999983392936
 20
17.50000233848504
 30
0.0
 11
72.59999983392936
 21
70.75000233848505
 31
0.0
  0
LINE
  5
241
330
200
100
AcDbEntity
  8
0
100
AcDbLine
 10
70.59999983392936
 20
136.2500023384845
 30
0.0
 11
72.59999983392936
 21
136.2500023384845
 31
0.0
  0
LINE
  5
242
330
200
100
AcDbEntity
  8
0
100
AcDbLine
 10
70.59999983392936
 20
70.75000233848505
 30
0.0
 11
72.59999983392936
 21
70.75000233848505
 31
0.0
  0
LINE
  5
243
330
200
100
AcDbEntity
  8
0
100
AcDbLine
 10
70.59999983392936
 20
19.50000233848504
 30
0.0
 11
72.59999983392936
 21
19.50000233848504
 31
0.0
  0
LINE
  5
244
330
200
100
AcDbEntity
  8
0
100
AcDbLine
 10
70.59999983392936
 20
136.2500023384845
 30
0.0
 11
70.59999983392936
 21
189.5000023384849
 31
0.0
  0
LINE
  5
245
330
200
100
AcDbEntity
  8
0
100
AcDbLine
 10
72.59999983392936
 20
136.2500023384845
 30
0.0
 11
72.59999983392936
 21
189.5000023384849
 31
0.0
  0
LINE
  5
246
330
200
100
AcDbEntity
  8
0
100
AcDbLine
 10
77.59999983392936
 20
187.5000023384849
 30
0.0
 11
79.59999983392936
 21
187.5000023384849
 31
0.0
  0
LINE
  5
247
330
200
100
AcDbEntity
  8
0
100
AcDbLine
 10
77.59999983392936
 20
17.50000233848504
 30
0.0
 11
77.59999983392936
 21
70.75000233848505
 31
0.0
  0
LINE
  5
248
330
200
100
AcDbEntity
  8
0
100
AcDbLine
 10
79.59999983392936
 20
17.50000233848504
 30
0.0
 11
79.59999983392936
 21
70.75000233848505
 31
0.0
  0
LINE
  5
249
330
200
100
AcDbEntity
  8
0
100
AcDbLine
 10
77.59999983392936
 20
136.2500023384845
 30
0.0
 11
79.59999983392936
 21
136.2500023384845
 31
0.0
  0
LINE
  5
24A
330
200
100
AcDbEntity
  8
0
100
AcDbLine
 10
77.59999983392936
 20
70.75000233848505
 30
0.0
 11
79.59999983392936
 21
70.75000233848505
 31
0.0
  0
LINE
  5
24B
330
200
100
AcDbEntity
  8
0
100
AcDbLine
 10
77.59999983392936
 20
19.50000233848504
 30
0.0
 11
79.59999983392936
 21
19.50000233848504
 31
0.0
  0
LINE
  5
24C
330
200
100
AcDbEntity
  8
0
100
AcDbLine
 10
77.59999983392936
 20
136.2500023384845
 30
0.0
 11
77.59999983392936
 21
189.5000023384849
 31
0.0
  0
LINE
  5
24D
330
200
100
AcDbEntity
  8
0
100
AcDbLine
 10
79.59999983392936
 20
136.2500023384845
 30
0.0
 11
79.59999983392936
 21
189.5000023384849
 31
0.0
  0
LINE
  5
24E
330
200
100
AcDbEntity
  8
0
100
AcDbLine
 10
84.59999983392936
 20
187.5000023384849
 30
0.0
 11
86.59999983392934
 21
187.5000023384849
 31
0.0
  0
LINE
  5
24F
330
200
100
AcDbEntity
  8
0
100
AcDbLine
 10
84.59999983392936
 20
17.50000233848504
 30
0.0
 11
84.59999983392936
 21
70.75000233848505
 31
0.0
  0
LINE
  5
250
330
200
100
AcDbEntity
  8
0
100
AcDbLine
 10
86.59999983392934
 20
17.50000233848504
 30
0.0
 11
86.59999983392934
 21
70.75000233848505
 31
0.0
  0
LINE
  5
251
330
200
100
AcDbEntity
  8
0
100
AcDbLine
 10
84.59999983392936
 20
136.2500023384845
 30
0.0
 11
86.59999983392934
 21
136.2500023384845
 31
0.0
  0
LINE
  5
252
330
200
100
AcDbEntity
  8
0
100
AcDbLine
 10
84.59999983392936
 20
70.75000233848505
 30
0.0
 11
86.59999983392934
 21
70.75000233848505
 31
0.0
  0
LINE
  5
253
330
200
100
AcDbEntity
  8
0
100
AcDbLine
 10
84.59999983392936
 20
19.50000233848504
 30
0.0
 11
86.59999983392934
 21
19.50000233848504
 31
0.0
  0
LINE
  5
254
330
200
100
AcDbEntity
  8
0
100
AcDbLine
 10
84.59999983392936
 20
136.2500023384845
 30
0.0
 11
84.59999983392936
 21
189.5000023384849
 31
0.0
  0
LINE
  5
255
330
200
100
AcDbEntity
  8
0
100
AcDbLine
 10
86.59999983392934
 20
136.2500023384845
 30
0.0
 11
86.59999983392934
 21
189.5000023384849
 31
0.0
  0
LINE
  5
256
330
200
100
AcDbEntity
  8
0
100
AcDbLine
 10
91.59999983392937
 20
187.5000023384849
 30
0.0
 11
93.59999983392937
 21
187.5000023384849
 31
0.0
  0
LINE
  5
257
330
200
100
AcDbEntity
  8
0
100
AcDbLine
 10
91.59999983392937
 20
17.50000233848504
 30
0.0
 11
91.59999983392937
 21
70.75000233848505
 31
0.0
  0
LINE
  5
258
330
200
100
AcDbEntity
  8
0
100
AcDbLine
 10
93.59999983392937
 20
17.50000233848504
 30
0.0
 11
93.59999983392937
 21
70.75000233848505
 31
0.0
  0
LINE
  5
259
330
200
100
AcDbEntity
  8
0
100
AcDbLine
 10
91.59999983392937
 20
136.2500023384845
 30
0.0
 11
93.59999983392937
 21
136.2500023384845
 31
0.0
  0
LINE
  5
25A
330
200
100
AcDbEntity
  8
0
100
AcDbLine
 10
91.59999983392937
 20
70.75000233848505
 30
0.0
 11
93.59999983392937
 21
70.75000233848505
 31
0.0
  0
LINE
  5
25B
330
200
100
AcDbEntity
  8
0
100
AcDbLine
 10
91.59999983392937
 20
19.50000233848504
 30
0.0
 11
93.59999983392937
 21
19.50000233848504
 31
0.0
  0
LINE
  5
25C
330
200
100
AcDbEntity
  8
0
100
AcDbLine
 10
91.59999983392937
 20
136.2500023384845
 30
0.0
 11
91.59999983392937
 21
189.5000023384849
 31
0.0
  0
LINE
  5
25D
330
200
100
AcDbEntity
  8
0
100
AcDbLine
 10
93.59999983392937
 20
136.2500023384845
 30
0.0
 11
93.59999983392937
 21
189.5000023384849
 31
0.0
  0
LINE
  5
25E
330
200
100
AcDbEntity
  8
0
100
AcDbLine
 10
98.59999983392938
 20
187.5000023384849
 30
0.0
 11
100.5999998339291
 21
187.5000023384849
 31
0.0
  0
LINE
  5
25F
330
200
100
AcDbEntity
  8
0
100
AcDbLine
 10
98.59999983392938
 20
17.50000233848504
 30
0.0
 11
98.59999983392938
 21
70.75000233848505
 31
0.0
  0
LINE
  5
260
330
200
100
AcDbEntity
  8
0
100
AcDbLine
 10
100.5999998339291
 20
17.50000233848504
 30
0.0
 11
100.5999998339291
 21
70.75000233848505
 31
0.0
  0
LINE
  5
261
330
200
100
AcDbEntity
  8
0
100
AcDbLine
 10
98.59999983392938
 20
136.2500023384845
 30
0.0
 11
100.5999998339291
 21
136.2500023384845
 31
0.0
  0
LINE
  5
262
330
200
100
AcDbEntity
  8
0
100
AcDbLine
 10
98.59999983392938
 20
70.75000233848505
 30
0.0
 11
100.5999998339291
 21
70.75000233848505
 31
0.0
  0
LINE
  5
263
330
200
100
AcDbEntity
  8
0
100
AcDbLine
 10
98.59999983392938
 20
19.50000233848504
 30
0.0
 11
100.5999998339291
 21
19.50000233848504
 31
0.0
  0
LINE
  5
264
330
200
100
AcDbEntity
  8
0
100
AcDbLine
 10
98.59999983392938
 20
136.2500023384845
 30
0.0
 11
98.59999983392938
 21
189.5000023384849
 31
0.0
  0
LINE
  5
265
330
200
100
AcDbEntity
  8
0
100
AcDbLine
 10
100.5999998339291
 20
136.2500023384845
 30
0.0
 11
100.5999998339291
 21
189.5000023384849
 31
0.0
  0
LINE
  5
266
330
200
100
AcDbEntity
  8
0
100
AcDbLine
 10
28.59999983392935
 20
165.0000023384849
 30
0.0
 11
30.59999983392935
 21
165.0000023384849
 31
0.0
  0
LINE
  5
267
330
200
100
AcDbEntity
  8
0
100
AcDbLine
 10
28.59999983392935
 20
162.0000023384849
 30
0.0
 11
30.59999983392935
 21
162.0000023384849
 31
0.0
  0
LINE
  5
268
330
200
100
AcDbEntity
  8
0
100
AcDbLine
 10
28.59999983392935
 20
45.00000233848505
 30
0.0
 11
30.59999983392935
 21
45.00000233848505
 31
0.0
  0
LINE
  5
269
330
200
100
AcDbEntity
  8
0
100
AcDbLine
 10
28.59999983392935
 20
42.00000233848505
 30
0.0
 11
30.59999983392935
 21
42.00000233848505
 31
0.0
  0
LINE
  5
26A
330
200
100
AcDbEntity
  8
0
100
AcDbLine
 10
35.59999983392936
 20
165.0000023384849
 30
0.0
 11
37.59999983392936
 21
165.0000023384849
 31
0.0
  0
LINE
  5
26B
330
200
100
AcDbEntity
  8
0
100
AcDbLine
 10
35.59999983392936
 20
162.0000023384849
 30
0.0
 11
37.59999983392936
 21
162.0000023384849
 31
0.0
  0
LINE
  5
26C
330
200
100
AcDbEntity
  8
0
100
AcDbLine
 10
35.59999983392936
 20
45.00000233848505
 30
0.0
 11
37.59999983392936
 21
45.00000233848505
 31
0.0
  0
LINE
  5
26D
330
200
100
AcDbEntity
  8
0
100
AcDbLine
 10
35.59999983392936
 20
42.00000233848505
 30
0.0
 11
37.59999983392936
 21
42.00000233848505
 31
0.0
  0
LINE
  5
26E
330
200
100
AcDbEntity
  8
0
100
AcDbLine
 10
42.59999983392936
 20
165.0000023384849
 30
0.0
 11
44.59999983392934
 21
165.0000023384849
 31
0.0
  0
LINE
  5
26F
330
200
100
AcDbEntity
  8
0
100
AcDbLine
 10
42.59999983392936
 20
162.0000023384849
 30
0.0
 11
44.59999983392934
 21
162.0000023384849
 31
0.0
  0
LINE
  5
270
330
200
100
AcDbEntity
  8
0
100
AcDbLine
 10
42.59999983392936
 20
45.00000233848505
 30
0.0
 11
44.59999983392934
 21
45.00000233848505
 31
0.0
  0
LINE
  5
271
330
200
100
AcDbEntity
  8
0
100
AcDbLine
 10
42.59999983392936
 20
42.00000233848505
 30
0.0
 11
44.59999983392934
 21
42.00000233848505
 31
0.0
  0
LINE
  5
272
330
200
100
AcDbEntity
  8
0
100
AcDbLine
 10
49.59999983392936
 20
165.0000023384849
 30
0.0
 11
51.59999983392935
 21
165.0000023384849
 31
0.0
  0
LINE
  5
273
330
200
100
AcDbEntity
  8
0
100
AcDbLine
 10
49.59999983392936
 20
162.0000023384849
 30
0.0
 11
51.59999983392935
 21
162.0000023384849
 31
0.0
  0
LINE
  5
274
330
200
100
AcDbEntity
  8
0
100
AcDbLine
 10
49.59999983392936
 20
45.00000233848505
 30
0.0
 11
51.59999983392935
 21
45.00000233848505
 31
0.0
  0
LINE
  5
275
330
200
100
AcDbEntity
  8
0
100
AcDbLine
 10
49.59999983392936
 20
42.00000233848505
 30
0.0
 11
51.59999983392935
 21
42.00000233848505
 31
0.0
  0
LINE
  5
276
330
200
100
AcDbEntity
  8
0
100
AcDbLine
 10
56.59999983392935
 20
165.0000023384849
 30
0.0
 11
58.59999983392936
 21
165.0000023384849
 31
0.0
  0
LINE
  5
277
330
200
100
AcDbEntity
  8
0
100
AcDbLine
 10
56.59999983392935
 20
162.0000023384849
 30
0.0
 11
58.59999983392936
 21
162.0000023384849
 31
0.0
  0
LINE
  5
278
330
200
100
AcDbEntity
  8
0
100
AcDbLine
 10
56.59999983392935
 20
45.00000233848505
 30
0.0
 11
58.59999983392936
 21
45.00000233848505
 31
0.0
  0
LINE
  5
279
330
200
100
AcDbEntity
  8
0
100
AcDbLine
 10
56.59999983392935
 20
42.00000233848505
 30
0.0
 11
58.59999983392936
 21
42.00000233848505
 31
0.0
  0
LINE
  5
27A
330
200
100
AcDbEntity
  8
0
100
AcDbLine
 10
63.59999983392936
 20
165.0000023384849
 30
0.0
 11
65.59999983392936
 21
165.0000023384849
 31
0.0
  0
LINE
  5
27B
330
200
100
AcDbEntity
  8
0
100
AcDbLine
 10
63.59999983392936
 20
162.0000023384849
 30
0.0
 11
65.59999983392936
 21
162.0000023384849
 31
0.0
  0
LINE
  5
27C
330
200
100
AcDbEntity
  8
0
100
AcDbLine
 10
63.59999983392936
 20
45.00000233848505
 30
0.0
 11
65.59999983392936
 21
45.00000233848505
 31
0.0
  0
LINE
  5
27D
330
200
100
AcDbEntity
  8
0
100
AcDbLine
 10
63.59999983392936
 20
42.00000233848505
 30
0.0
 11
65.59999983392936
 21
42.00000233848505
 31
0.0
  0
LINE
  5
27E
330
200
100
AcDbEntity
  8
0
100
AcDbLine
 10
70.59999983392936
 20
165.0000023384849
 30
0.0
 11
72.59999983392936
 21
165.0000023384849
 31
0.0
  0
LINE
  5
27F
330
200
100
AcDbEntity
  8
0
100
AcDbLine
 10
70.59999983392936
 20
162.0000023384849
 30
0.0
 11
72.59999983392936
 21
162.0000023384849
 31
0.0
  0
LINE
  5
280
330
200
100
AcDbEntity
  8
0
100
AcDbLine
 10
70.59999983392936
 20
45.00000233848505
 30
0.0
 11
72.59999983392936
 21
45.00000233848505
 31
0.0
  0
LINE
  5
281
330
200
100
AcDbEntity
  8
0
100
AcDbLine
 10
70.59999983392936
 20
42.00000233848505
 30
0.0
 11
72.59999983392936
 21
42.00000233848505
 31
0.0
  0
LINE
  5
282
330
200
100
AcDbEntity
  8
0
100
AcDbLine
 10
77.59999983392936
 20
165.0000023384849
 30
0.0
 11
79.59999983392936
 21
165.0000023384849
 31
0.0
  0
LINE
  5
283
330
200
100
AcDbEntity
  8
0
100
AcDbLine
 10
77.59999983392936
 20
162.0000023384849
 30
0.0
 11
79.59999983392936
 21
162.0000023384849
 31
0.0
  0
LINE
  5
284
330
200
100
AcDbEntity
  8
0
100
AcDbLine
 10
77.59999983392936
 20
45.00000233848505
 30
0.0
 11
79.59999983392936
 21
45.00000233848505
 31
0.0
  0
LINE
  5
285
330
200
100
AcDbEntity
  8
0
100
AcDbLine
 10
77.59999983392936
 20
42.00000233848505
 30
0.0
 11
79.59999983392936
 21
42.00000233848505
 31
0.0
  0
LINE
  5
286
330
200
100
AcDbEntity
  8
0
100
AcDbLine
 10
84.59999983392936
 20
165.0000023384849
 30
0.0
 11
86.59999983392934
 21
165.0000023384849
 31
0.0
  0
LINE
  5
287
330
200
100
AcDbEntity
  8
0
100
AcDbLine
 10
84.59999983392936
 20
162.0000023384849
 30
0.0
 11
86.59999983392934
 21
162.0000023384849
 31
0.0
  0
LINE
  5
288
330
200
100
AcDbEntity
  8
0
100
AcDbLine
 10
84.59999983392936
 20
45.00000233848505
 30
0.0
 11
86.59999983392934
 21
45.00000233848505
 31
0.0
  0
LINE
  5
289
330
200
100
AcDbEntity
  8
0
100
AcDbLine
 10
84.59999983392936
 20
42.00000233848505
 30
0.0
 11
86.59999983392934
 21
42.00000233848505
 31
0.0
  0
LINE
  5
28A
330
200
100
AcDbEntity
  8
0
100
AcDbLine
 10
91.59999983392937
 20
165.0000023384849
 30
0.0
 11
93.59999983392937
 21
165.0000023384849
 31
0.0
  0
LINE
  5
28B
330
200
100
AcDbEntity
  8
0
100
AcDbLine
 10
91.59999983392937
 20
162.0000023384849
 30
0.0
 11
93.59999983392937
 21
162.0000023384849
 31
0.0
  0
LINE
  5
28C
330
200
100
AcDbEntity
  8
0
100
AcDbLine
 10
91.59999983392937
 20
45.00000233848505
 30
0.0
 11
93.59999983392937
 21
45.00000233848505
 31
0.0
  0
LINE
  5
28D
330
200
100
AcDbEntity
  8
0
100
AcDbLine
 10
91.59999983392937
 20
42.00000233848505
 30
0.0
 11
93.59999983392937
 21
42.00000233848505
 31
0.0
  0
LINE
  5
28E
330
200
100
AcDbEntity
  8
0
100
AcDbLine
 10
98.59999983392938
 20
165.0000023384849
 30
0.0
 11
100.5999998339291
 21
165.0000023384849
 31
0.0
  0
LINE
  5
28F
330
200
100
AcDbEntity
  8
0
100
AcDbLine
 10
98.59999983392938
 20
162.0000023384849
 30
0.0
 11
100.5999998339291
 21
162.0000023384849
 31
0.0
  0
LINE
  5
290
330
200
100
AcDbEntity
  8
0
100
AcDbLine
 10
98.59999983392938
 20
45.00000233848505
 30
0.0
 11
100.5999998339291
 21
45.00000233848505
 31
0.0
  0
LINE
  5
291
330
200
100
AcDbEntity
  8
0
100
AcDbLine
 10
98.59999983392938
 20
42.00000233848505
 30
0.0
 11
100.5999998339291
 21
42.00000233848505
 31
0.0
  0
LINE
  5
292
330
200
100
AcDbEntity
  8
0
100
AcDbLine
 10
78.59999983392936
 20
17.50000233848504
 30
0.0
 11
78.59999983392835
 21
17.00000233848504
 31
0.0
  0
LINE
  5
293
330
200
100
AcDbEntity
  8
0
100
AcDbLine
 10
23.59999983392935
 20
17.00000233848504
 30
0.0
 11
78.59999983392936
 21
17.00000233848504
 31
0.0
  0
LINE
  5
294
330
200
100
AcDbEntity
  8
0
100
AcDbLine
 10
123.9878536770963
 20
16.50000233848504
 30
0.0
 11
123.9878536770973
 21
190.5000023384846
 31
0.0
  0
LINE
  5
295
330
200
100
AcDbEntity
  8
0
100
AcDbLine
 10
3.199999833929495
 20
57.20000307217538
 30
0.0
 11
3.199999833929495
 21
37.00000307217532
 31
0.0
  0
LINE
  5
296
330
200
100
AcDbEntity
  8
0
100
AcDbLine
 10
4.099999833929357
 20
33.50000307217532
 30
0.0
 11
3.599999833929357
 21
34.00000307217532
 31
0.0
  0
LINE
  5
297
330
200
100
AcDbEntity
  8
0
100
AcDbLine
 10
3.599999833929472
 20
34.90000307217542
 30
0.0
 11
3.599999833929357
 21
34.00000307217532
 31
0.0
  0
LINE
  5
298
330
200
100
AcDbEntity
  8
0
100
AcDbLine
 10
4.899999833929538
 20
33.50000307217532
 30
0.0
 11
4.099999833929357
 21
33.50000307217532
 31
0.0
  0
ARC
  5
299
330
200
100
AcDbEntity
  8
0
100
AcDbCircle
 10
4.599999833929471
 20
34.90000307217531
 30
0.0
 40
1.0
100
AcDbArc
 50
90.0
 51
180.0
  0
LINE
  5
29A
330
200
100
AcDbEntity
  8
0
100
AcDbLine
 10
6.599999833929357
 20
35.90000307217538
 30
0.0
 11
4.599999833929471
 21
35.90000307217531
 31
0.0
  0
LINE
  5
29B
330
200
100
AcDbEntity
  8
0
100
AcDbLine
 10
6.599999833929357
 20
34.70000307217537
 30
0.0
 11
4.899999833929655
 21
34.70000307217537
 31
0.0
  0
LINE
  5
29C
330
200
100
AcDbEntity
  8
0
100
AcDbLine
 10
6.599999833929357
 20
37.00000307217528
 30
0.0
 11
3.199999833929495
 21
37.00000307217532
 31
0.0
  0
LINE
  5
29D
330
200
100
AcDbEntity
  8
0
100
AcDbLine
 10
4.899999833929538
 20
33.50000307217532
 30
0.0
 11
4.899999833929538
 21
34.70000307217537
 31
0.0
  0
LINE
  5
29E
330
200
100
AcDbEntity
  8
0
100
AcDbLine
 10
4.099999833929587
 20
60.70000307217537
 30
0.0
 11
3.599999833929587
 21
60.20000307217538
 31
0.0
  0
LINE
  5
29F
330
200
100
AcDbEntity
  8
0
100
AcDbLine
 10
3.599999833929587
 20
60.20000307217538
 30
0.0
 11
3.599999833929587
 21
59.30000307217529
 31
0.0
  0
LINE
  5
2A0
330
200
100
AcDbEntity
  8
0
100
AcDbLine
 10
4.899999833929538
 20
60.70000307217537
 30
0.0
 11
4.099999833929587
 21
60.70000307217537
 31
0.0
  0
ARC
  5
2A1
330
200
100
AcDbEntity
  8
0
100
AcDbCircle
 10
4.599999833929587
 20
59.3000030721754
 30
0.0
 40
1.0
100
AcDbArc
 50
180.0
 51
270.0
  0
LINE
  5
2A2
330
200
100
AcDbEntity
  8
0
100
AcDbLine
 10
6.599999833929357
 20
58.3000030721754
 30
0.0
 11
4.599999833929587
 21
58.3000030721754
 31
0.0
  0
LINE
  5
2A3
330
200
100
AcDbEntity
  8
0
100
AcDbLine
 10
3.199999833929495
 20
57.20000307217538
 30
0.0
 11
6.599999833929357
 21
57.20000307217538
 31
0.0
  0
LINE
  5
2A4
330
200
100
AcDbEntity
  8
0
100
AcDbLine
 10
6.599999833929357
 20
59.50000307217544
 30
0.0
 11
4.899999833929427
 21
59.50000307217544
 31
0.0
  0
LINE
  5
2A5
330
200
100
AcDbEntity
  8
0
100
AcDbLine
 10
4.899999833929538
 20
59.50000307217533
 30
0.0
 11
4.899999833929538
 21
60.70000307217537
 31
0.0
  0
LINE
  5
2A6
330
200
100
AcDbEntity
  8
0
100
AcDbLine
 10
6.599999833929357
 20
21.50000307217532
 30
0.0
 11
4.099999833929246
 21
21.50000307217532
 31
0.0
  0
LINE
  5
2A7
330
200
100
AcDbEntity
  8
0
100
AcDbLine
 10
4.099999833929246
 20
21.50000307217532
 30
0.0
 11
4.099999833929246
 21
27.00000307217532
 31
0.0
  0
LINE
  5
2A8
330
200
100
AcDbEntity
  8
0
100
AcDbLine
 10
4.099999833929246
 20
27.00000307217532
 30
0.0
 11
6.599999833929357
 21
27.00000307217532
 31
0.0
  0
LINE
  5
2A9
330
200
100
AcDbEntity
  8
0
100
AcDbLine
 10
6.599999833929357
 20
62.14000233848515
 30
0.0
 11
5.599999833929358
 21
62.14000233848515
 31
0.0
  0
LINE
  5
2AA
330
200
100
AcDbEntity
  8
0
100
AcDbLine
 10
5.599999833929358
 20
62.14000233848515
 30
0.0
 11
5.599999833929358
 21
59.50000307217544
 31
0.0
  0
LINE
  5
2AB
330
200
100
AcDbEntity
  8
0
100
AcDbLine
 10
-0.000000166070663
 20
112.5000023384849
 30
0.0
 11
6.599999833929357
 21
112.5000023384849
 31
0.0
  0
LINE
  5
2AC
330
200
100
AcDbEntity
  8
0
100
AcDbLine
 10
6.599999833929357
 20
136.6600023384848
 30
0.0
 11
-0.000000166070663
 21
136.6600023384848
 31
0.0
  0
LINE
  5
2AD
330
200
100
AcDbEntity
  8
0
100
AcDbLine
 10
-0.000000166070663
 20
136.6600023384848
 30
0.0
 11
-0.000000166070663
 21
112.5000023384849
 31
0.0
  0
LINE
  5
2AE
330
200
100
AcDbEntity
  8
0
100
AcDbLine
 10
1.299999833929404
 20
71.34000233848508
 30
0.0
 11
1.299999833929404
 21
99.80000233848514
 31
0.0
  0
LINE
  5
2AF
330
200
100
AcDbEntity
  8
0
100
AcDbLine
 10
1.299999833929404
 20
75.45000233848509
 30
0.0
 11
5.599999833929246
 21
75.45000233848509
 31
0.0
  0
LINE
  5
2B0
330
200
100
AcDbEntity
  8
0
100
AcDbLine
 10
5.599999833929358
 20
71.34000233848508
 30
0.0
 11
1.299999833929404
 21
71.34000233848508
 31
0.0
  0
LINE
  5
2B1
330
200
100
AcDbEntity
  8
0
100
AcDbLine
 10
1.299999833929404
 20
95.69000233848512
 30
0.0
 11
6.599999833929357
 21
95.69000233848512
 31
0.0
  0
LINE
  5
2B2
330
200
100
AcDbEntity
  8
0
100
AcDbLine
 10
1.299999833929404
 20
90.69000233848512
 30
0.0
 11
6.599999833929357
 21
90.69000233848512
 31
0.0
  0
LINE
  5
2B3
330
200
100
AcDbEntity
  8
0
100
AcDbLine
 10
1.299999833929404
 20
83.0700023384851
 30
0.0
 11
6.599999833929357
 21
83.0700023384851
 31
0.0
  0
LINE
  5
2B4
330
200
100
AcDbEntity
  8
0
100
AcDbLine
 10
1.299999833929404
 20
88.07000233848507
 30
0.0
 11
6.599999833929357
 21
88.07000233848507
 31
0.0
  0
LINE
  5
2B5
330
200
100
AcDbEntity
  8
0
100
AcDbLine
 10
1.299999833929404
 20
80.4500023384851
 30
0.0
 11
5.799999833929632
 21
80.4500023384851
 31
0.0
  0
LINE
  5
2B6
330
200
100
AcDbEntity
  8
0
100
AcDbLine
 10
5.799999833929632
 20
99.80000233848514
 30
0.0
 11
1.299999833929404
 21
99.80000233848514
 31
0.0
  0
LINE
  5
2B7
330
200
100
AcDbEntity
  8
0
100
AcDbLine
 10
49.59999983392936
 20
187.5000023384849
 30
0.0
 11
51.59999983392935
 21
187.5000023384849
 31
0.0
  0
LINE
  5
2B8
330
200
100
AcDbEntity
  8
0
100
AcDbLine
 10
122.5999998339284
 20
190.5000023384846
 30
0.0
 11
122.5999998339284
 21
200.5000023384849
 31
0.0
  0
LINE
  5
2B9
330
200
100
AcDbEntity
  8
0
100
AcDbLine
 10
6.599999833929357
 20
16.50000233848504
 30
0.0
 11
123.9878536770973
 21
16.50000233848504
 31
0.0
  0
LINE
  5
2BA
330
200
100
AcDbEntity
  8
0
100
AcDbLine
 10
25.59999983392935
 20
0.0000023384850465
 30
0.0
 11
25.59999983392935
 21
8.500002338485044
 31
0.0
  0
LINE
  5
2BB
330
200
100
AcDbEntity
  8
0
100
AcDbLine
 10
77.59999983392835
 20
0.0000023384850465
 30
0.0
 11
77.59999983392835
 21
16.50000233848504
 31
0.0
  0
LINE
  5
2BC
330
200
100
AcDbEntity
  8
0
100
AcDbLine
 10
25.59999983392935
 20
0.0000023384850465
 30
0.0
 11
77.59999983392835
 21
0.0000023384850465
 31
0.0
  0
LINE
  5
2BD
330
200
100
AcDbEntity
  8
0
100
AcDbLine
 10
35.59999983392936
 20
0.0000023384850465
 30
0.0
 11
35.59999983392936
 21
16.50000233848504
 31
0.0
  0
LINE
  5
2BE
330
200
100
AcDbEntity
  8
0
100
AcDbLine
 10
25.59999983392935
 20
8.500002338485044
 30
0.0
 11
35.59999983392936
 21
8.500002338485044
 31
0.0
  0
LINE
  5
2BF
330
200
100
AcDbEntity
  8
0
100
AcDbLine
 10
37.59999983392936
 20
9.500002338485046
 30
0.0
 11
37.59999983392936
 21
0.0000023384850465
 31
0.0
  0
LINE
  5
2C0
330
200
100
AcDbEntity
  8
0
100
AcDbLine
 10
75.59999983392835
 20
9.500002338485046
 30
0.0
 11
75.59999983392835
 21
0.0000023384850465
 31
0.0
  0
LINE
  5
2C1
330
200
100
AcDbEntity
  8
0
100
AcDbLine
 10
5.599999833929358
 20
58.3000030721754
 30
0.0
 11
5.599999833929358
 21
57.20000307217538
 31
0.0
  0
LINE
  5
2C2
330
200
100
AcDbEntity
  8
0
100
AcDbLine
 10
5.599999833929358
 20
37.00000307217532
 30
0.0
 11
5.599999833929358
 21
35.90000307217532
 31
0.0
  0
LINE
  5
2C3
330
200
100
AcDbEntity
  8
0
100
AcDbLine
 10
5.599999833929358
 20
34.70000307217537
 30
0.0
 11
5.599999833929358
 21
27.00000307217532
 31
0.0
  0
LINE
  5
2C4
330
200
100
AcDbEntity
  8
0
100
AcDbLine
 10
6.599999833929357
 20
157.9400023384851
 30
0.0
 11
5.595637893078333
 21
157.9400023384851
 31
0.0
  0
LINE
  5
2C5
330
200
100
AcDbEntity
  8
0
100
AcDbLine
 10
6.599999833929357
 20
68.70000307217536
 30
0.0
 11
5.599999833929358
 21
68.70000307217536
 31
0.0
  0
LINE
  5
2C6
330
200
100
AcDbEntity
  8
0
100
AcDbLine
 10
5.599999833929358
 20
68.70000307217536
 30
0.0
 11
5.599999833929246
 21
77.10000307217547
 31
0.0
  0
LINE
  5
2C7
330
200
100
AcDbEntity
  8
0
100
AcDbLine
 10
5.599999833929246
 20
77.10000307217547
 30
0.0
 11
6.599999833929357
 21
77.10000307217547
 31
0.0
  0
LINE
  5
2C8
330
200
100
AcDbEntity
  8
0
100
AcDbLine
 10
6.599999833929357
 20
78.60000307217545
 30
0.0
 11
5.799999833929632
 21
78.60000307217545
 31
0.0
  0
LINE
  5
2C9
330
200
100
AcDbEntity
  8
0
100
AcDbLine
 10
5.799999833929632
 20
78.60000307217545
 30
0.0
 11
5.799999833929632
 21
81.60000307217547
 31
0.0
  0
LINE
  5
2CA
330
200
100
AcDbEntity
  8
0
100
AcDbLine
 10
5.799999833929632
 20
81.60000307217547
 30
0.0
 11
6.599999833929357
 21
81.60000307217547
 31
0.0
  0
LINE
  5
2CB
330
200
100
AcDbEntity
  8
0
100
AcDbLine
 10
6.599999833929357
 20
98.60000307217545
 30
0.0
 11
5.799999833929632
 21
98.60000307217545
 31
0.0
  0
LINE
  5
2CC
330
200
100
AcDbEntity
  8
0
100
AcDbLine
 10
5.799999833929632
 20
98.60000307217545
 30
0.0
 11
5.799999833929632
 21
101.6000030721754
 31
0.0
  0
LINE
  5
2CD
330
200
100
AcDbEntity
  8
0
100
AcDbLine
 10
5.799999833929632
 20
101.6000030721754
 30
0.0
 11
6.599999833929357
 21
101.6000030721754
 31
0.0
  0
LINE
  5
2CE
330
200
100
AcDbEntity
  8
0
  6
CONTINUOUS
100
AcDbLine
 10
5.595637893078333
 20
157.9400023384851
 30
0.0
 11
5.595637893078333
 21
142.5400023384848
 31
0.0
  0
LINE
  5
2CF
330
200
100
AcDbEntity
  8
0
  6
CONTINUOUS
100
AcDbLine
 10
5.595637893078333
 20
142.5400023384848
 30
0.0
 11
6.599999833929357
 21
142.5400023384848
 31
0.0
  0
ENDBLK
  5
2D1
330
200
100
AcDbEntity
  8
0
100
AcDbBlockEnd
  0
BLOCK
  5
2D4
330
2D2
100
AcDbEntity
  8
0
100
AcDbBlockBegin
  2
A$C40301A48
 70
     0
 10
0.0
 20
0.0
 30
0.0
  3
A$C40301A48
  1

  0
INSERT
  5
2D3
330
2D2
100
AcDbEntity
  8
0
100
AcDbBlockReference
  2
A$C413B70EE
 10
-6.599999833929357
 20
-190.5000023384846
 30
0.0
  0
ENDBLK
  5
2D5
330
2D2
100
AcDbEntity
  8
0
100
AcDbBlockEnd
  0
BLOCK
  5
2DB
330
2D6
100
AcDbEntity
  8
0
 48
5.0
100
AcDbBlockBegin
  2
A$C5CFD6E8C
 70
     0
 10
0.0
 20
0.0
 30
0.0
  3
A$C5CFD6E8C
  1

  0
LINE
  5
2D7
330
2D6
100
AcDbEntity
  8
0
 62
     0
100
AcDbLine
 10
1.599997211020308
 20
2.70000247964549
 30
0.0
 11
1.599997211020308
 21
0.0000024796447633
 31
0.0
  0
LINE
  5
2D8
330
2D6
100
AcDbEntity
  8
0
 62
     0
100
AcDbLine
 10
-0.0000027889800549
 20
0.0000024796447633
 30
0.0
 11
-0.0000027889800549
 21
2.70000247964549
 31
0.0
  0
LINE
  5
2D9
330
2D6
100
AcDbEntity
  8
0
  6
CENTER
 62
     0
100
AcDbLine
 10
1.599997211020308
 20
2.70000247964549
 30
0.0
 11
-0.0000027889800549
 21
2.70000247964549
 31
0.0
  0
LINE
  5
2DA
330
2D6
100
AcDbEntity
  8
0
  6
CENTER
 62
     0
100
AcDbLine
 10
1.599997211020308
 20
0.0000024796447633
 30
0.0
 11
-0.0000027889800549
 21
0.0000024796447633
 31
0.0
  0
ENDBLK
  5
2DC
330
2D6
100
AcDbEntity
  8
0
 48
5.0
100
AcDbBlockEnd
  0
BLOCK
  5
3EE
330
2DD
100
AcDbEntity
  8
0
100
AcDbBlockBegin
  2
A$C3E87127B
 70
     0
 10
0.0
 20
0.0
 30
0.0
  3
A$C3E87127B
  1

  0
LINE
  5
2DE
330
2DD
100
AcDbEntity
  8
0
  6
BYBLOCK
 62
     0
100
AcDbLine
 10
2.100148625096608
 20
-51.67486469529968
 30
0.0
 11
17.0000743125488
 21
-51.67486469529785
 31
0.0
  0
LINE
  5
2DF
330
2DD
100
AcDbEntity
  8
0
  6
BYBLOCK
 62
     0
100
AcDbLine
 10
17.00007431255062
 20
-84.47486829529728
 30
0.0
 11
17.0000743125488
 21
-51.67486469529785
 31
0.0
  0
LINE
  5
2E0
330
2DD
100
AcDbEntity
  8
0
  6
BYBLOCK
 62
     0
100
AcDbLine
 10
2.100148625096608
 20
-84.47486829529728
 30
0.0
 11
17.00007431255062
 21
-84.47486829529728
 31
0.0
  0
INSERT
  5
2E1
330
2DD
100
AcDbEntity
  8
0
  6
BYBLOCK
 62
    40
 48
5.0
100
AcDbBlockReference
  2
A$C5CFD6E8C
 10
18.5000027889796
 20
-44.22500174595461
 30
0.0
  0
INSERT
  5
2E2
330
2DD
100
AcDbEntity
  8
0
  6
BYBLOCK
 62
    40
 48
5.0
100
AcDbBlockReference
  2
A$C5CFD6E8C
 10
18.5000027889796
 20
-49.7250017459546
 30
0.0
  0
LINE
  5
2E3
330
2DD
100
AcDbEntity
  8
0
 62
     0
 48
5.0
100
AcDbLine
 10
2.100148625096608
 20
-51.67486469529968
 30
0.0
 11
2.100148625096608
 21
-84.47486829529728
 31
0.0
  0
LINE
  5
2E4
330
2DD
100
AcDbEntity
  8
0
 62
     0
100
AcDbLine
 10
7.426838695454534
 20
-78.83999999999947
 30
0.0
 11
9.036607142857519
 21
-78.83999999999947
 31
0.0
  0
LINE
  5
2E5
330
2DD
100
AcDbEntity
  8
0
 62
     0
100
AcDbLine
 10
9.036607142857519
 20
-72.54999999999904
 30
0.0
 11
7.426838695454534
 21
-72.54999999999904
 31
0.0
  0
LINE
  5
2E6
330
2DD
100
AcDbEntity
  8
0
 62
     0
100
AcDbLine
 10
7.426838695454534
 20
-63.59999999999923
 30
0.0
 11
9.036607142857519
 21
-63.59999999999923
 31
0.0
  0
LINE
  5
2E7
330
2DD
100
AcDbEntity
  8
0
 62
     0
100
AcDbLine
 10
7.426838695454534
 20
-63.59999999999923
 30
0.0
 11
7.900000000000542
 21
-63.96999999999911
 31
0.0
  0
LINE
  5
2E8
330
2DD
100
AcDbEntity
  8
0
 62
     0
100
AcDbLine
 10
9.036607142857519
 20
-62.38999999999919
 30
0.0
 11
7.426838695454534
 21
-62.38999999999919
 31
0.0
  0
LINE
  5
2E9
330
2DD
100
AcDbEntity
  8
0
 62
     0
100
AcDbLine
 10
7.426838695454534
 20
-58.51999999999929
 30
0.0
 11
7.900000000000542
 21
-58.88999999999919
 31
0.0
  0
LINE
  5
2EA
330
2DD
100
AcDbEntity
  8
0
 62
     0
100
AcDbLine
 10
8.33000000000038
 20
-54.37499999999932
 30
0.0
 11
7.900000000000542
 21
-54.37499999999932
 31
0.0
  0
LINE
  5
2EB
330
2DD
100
AcDbEntity
  8
0
 62
     0
100
AcDbLine
 10
7.900000000000542
 20
-56.93999999999937
 30
0.0
 11
7.900000000000542
 21
-54.37499999999932
 31
0.0
  0
LINE
  5
2EC
330
2DD
100
AcDbEntity
  8
0
 62
     0
100
AcDbLine
 10
16.00000000000043
 20
-66.57499999999959
 30
0.0
 11
16.00000000000043
 21
-67.37499999999932
 31
0.0
  0
LINE
  5
2ED
330
2DD
100
AcDbEntity
  8
0
 62
     0
100
AcDbLine
 10
16.00000000000043
 20
-67.37499999999932
 30
0.0
 11
16.00000000000043
 21
-68.77499999999939
 31
0.0
  0
LINE
  5
2EE
330
2DD
100
AcDbEntity
  8
0
 62
     0
100
AcDbLine
 10
16.00000000000043
 20
-76.73499999999943
 30
0.0
 11
16.00000000000043
 21
-77.53499999999963
 31
0.0
  0
LINE
  5
2EF
330
2DD
100
AcDbEntity
  8
0
 62
     0
100
AcDbLine
 10
16.00000000000043
 20
-77.53499999999963
 30
0.0
 11
16.00000000000043
 21
-78.93499999999926
 31
0.0
  0
LINE
  5
2F0
330
2DD
100
AcDbEntity
  8
0
 62
     0
100
AcDbLine
 10
16.00000000000043
 20
-79.73499999999943
 30
0.0
 11
16.00000000000043
 21
-81.77499999999941
 31
0.0
  0
LINE
  5
2F1
330
2DD
100
AcDbEntity
  8
0
 62
     0
100
AcDbLine
 10
16.00000000000043
 20
-78.93499999999926
 30
0.0
 11
16.00000000000043
 21
-79.73499999999943
 31
0.0
  0
LINE
  5
2F2
330
2DD
100
AcDbEntity
  8
0
 62
     0
100
AcDbLine
 10
16.00000000000043
 20
-72.4549999999997
 30
0.0
 11
16.00000000000043
 21
-73.85499999999933
 31
0.0
  0
LINE
  5
2F3
330
2DD
100
AcDbEntity
  8
0
 62
     0
100
AcDbLine
 10
16.00000000000043
 20
-71.65499999999951
 30
0.0
 11
16.00000000000043
 21
-72.4549999999997
 31
0.0
  0
LINE
  5
2F4
330
2DD
100
AcDbEntity
  8
0
 62
     0
100
AcDbLine
 10
16.00000000000043
 20
-69.57499999999959
 30
0.0
 11
16.00000000000043
 21
-71.65499999999951
 31
0.0
  0
LINE
  5
2F5
330
2DD
100
AcDbEntity
  8
0
 62
     0
100
AcDbLine
 10
16.00000000000043
 20
-68.77499999999939
 30
0.0
 11
16.00000000000043
 21
-69.57499999999959
 31
0.0
  0
LINE
  5
2F6
330
2DD
100
AcDbEntity
  8
0
 62
     0
100
AcDbLine
 10
16.00000000000043
 20
-74.65499999999952
 30
0.0
 11
16.00000000000043
 21
-76.73499999999943
 31
0.0
  0
LINE
  5
2F7
330
2DD
100
AcDbEntity
  8
0
 62
     0
100
AcDbLine
 10
16.00000000000043
 20
-73.85499999999933
 30
0.0
 11
16.00000000000043
 21
-74.65499999999952
 31
0.0
  0
LINE
  5
2F8
330
2DD
100
AcDbEntity
  8
0
 62
     0
100
AcDbLine
 10
16.00000000000043
 20
-56.41499999999928
 30
0.0
 11
16.00000000000043
 21
-57.21499999999945
 31
0.0
  0
LINE
  5
2F9
330
2DD
100
AcDbEntity
  8
0
 62
     0
100
AcDbLine
 10
16.00000000000043
 20
-54.37499999999932
 30
0.0
 11
16.00000000000043
 21
-56.41499999999928
 31
0.0
  0
LINE
  5
2FA
330
2DD
100
AcDbEntity
  8
0
 62
     0
100
AcDbLine
 10
16.00000000000043
 20
-61.49499999999965
 30
0.0
 11
16.00000000000043
 21
-62.29499999999939
 31
0.0
  0
LINE
  5
2FB
330
2DD
100
AcDbEntity
  8
0
 62
     0
100
AcDbLine
 10
16.00000000000043
 20
-57.21499999999945
 30
0.0
 11
16.00000000000043
 21
-58.61499999999954
 31
0.0
  0
LINE
  5
2FC
330
2DD
100
AcDbEntity
  8
0
 62
     0
100
AcDbLine
 10
16.00000000000043
 20
-59.41499999999928
 30
0.0
 11
16.00000000000043
 21
-61.49499999999965
 31
0.0
  0
LINE
  5
2FD
330
2DD
100
AcDbEntity
  8
0
 62
     0
100
AcDbLine
 10
16.00000000000043
 20
-58.61499999999954
 30
0.0
 11
16.00000000000043
 21
-59.41499999999928
 31
0.0
  0
LINE
  5
2FE
330
2DD
100
AcDbEntity
  8
0
 62
     0
100
AcDbLine
 10
16.00000000000043
 20
-62.29499999999939
 30
0.0
 11
16.00000000000043
 21
-63.69499999999947
 31
0.0
  0
LINE
  5
2FF
330
2DD
100
AcDbEntity
  8
0
 62
     0
100
AcDbLine
 10
16.00000000000043
 20
-64.49499999999966
 30
0.0
 11
16.00000000000043
 21
-66.57499999999959
 31
0.0
  0
LINE
  5
300
330
2DD
100
AcDbEntity
  8
0
 62
     0
100
AcDbLine
 10
16.00000000000043
 20
-63.69499999999947
 30
0.0
 11
16.00000000000043
 21
-64.49499999999966
 31
0.0
  0
LINE
  5
301
330
2DD
100
AcDbEntity
  8
0
 62
     0
100
AcDbLine
 10
14.33000000000038
 20
-60.95539219456235
 30
0.0
 11
14.33000000000038
 21
-59.95460780543613
 31
0.0
  0
LINE
  5
302
330
2DD
100
AcDbEntity
  8
0
 62
     0
100
AcDbLine
 10
14.63000000000056
 20
-60.84093407714568
 30
0.0
 11
14.63000000000056
 21
-60.06906592285282
 31
0.0
  0
LINE
  5
303
330
2DD
100
AcDbEntity
  8
0
 62
     0
100
AcDbLine
 10
8.725000000000362
 20
-79.20999999999934
 30
0.0
 11
7.900000000000542
 21
-79.20999999999934
 31
0.0
  0
LINE
  5
304
330
2DD
100
AcDbEntity
  8
0
 62
     0
100
AcDbLine
 10
7.900000000000542
 20
-72.17999999999915
 30
0.0
 11
8.725000000000362
 21
-72.17999999999915
 31
0.0
  0
LINE
  5
305
330
2DD
100
AcDbEntity
  8
0
 62
     0
100
AcDbLine
 10
7.900000000000542
 20
-63.96999999999911
 30
0.0
 11
8.725000000000362
 21
-63.96999999999911
 31
0.0
  0
LINE
  5
306
330
2DD
100
AcDbEntity
  8
0
 62
     0
100
AcDbLine
 10
7.900000000000542
 20
-62.01999999999928
 30
0.0
 11
8.725000000000362
 21
-62.01999999999928
 31
0.0
  0
LINE
  5
307
330
2DD
100
AcDbEntity
  8
0
 62
     0
100
AcDbLine
 10
7.900000000000542
 20
-72.17999999999915
 30
0.0
 11
7.900000000000542
 21
-69.04999999999905
 31
0.0
  0
LINE
  5
308
330
2DD
100
AcDbEntity
  8
0
 62
     0
100
AcDbLine
 10
9.036607142857519
 20
-68.71901118078108
 30
0.0
 11
8.725000000000362
 21
-69.04999999999905
 31
0.0
  0
LINE
  5
309
330
2DD
100
AcDbEntity
  8
0
 62
     0
100
AcDbLine
 10
7.900000000000542
 20
-69.04999999999905
 30
0.0
 11
8.725000000000362
 21
-69.04999999999905
 31
0.0
  0
LINE
  5
30A
330
2DD
100
AcDbEntity
  8
0
 62
     0
100
AcDbLine
 10
7.900000000000542
 20
-77.25999999999908
 30
0.0
 11
7.900000000000542
 21
-74.12999999999944
 31
0.0
  0
LINE
  5
30B
330
2DD
100
AcDbEntity
  8
0
 62
     0
100
AcDbLine
 10
7.900000000000542
 20
-74.12999999999944
 30
0.0
 11
8.725000000000362
 21
-74.12999999999944
 31
0.0
  0
LINE
  5
30C
330
2DD
100
AcDbEntity
  8
0
 62
     0
100
AcDbLine
 10
7.900000000000542
 20
-77.25999999999908
 30
0.0
 11
8.725000000000362
 21
-77.25999999999908
 31
0.0
  0
LINE
  5
30D
330
2DD
100
AcDbEntity
  8
0
 62
     0
100
AcDbLine
 10
9.036607142857519
 20
-63.63901118078114
 30
0.0
 11
8.725000000000362
 21
-63.96999999999911
 31
0.0
  0
LINE
  5
30E
330
2DD
100
AcDbEntity
  8
0
 62
     0
100
AcDbLine
 10
9.036607142857519
 20
-78.87901118078139
 30
0.0
 11
8.725000000000362
 21
-79.20999999999934
 31
0.0
  0
LINE
  5
30F
330
2DD
100
AcDbEntity
  8
0
 62
     0
100
AcDbLine
 10
8.725000000000362
 20
-72.17999999999915
 30
0.0
 11
9.036607142857519
 21
-72.51098881921713
 31
0.0
  0
LINE
  5
310
330
2DD
100
AcDbEntity
  8
0
 62
     0
100
AcDbLine
 10
8.725000000000362
 20
-79.20999999999934
 30
0.0
 11
8.725000000000362
 21
-80.77499999999941
 31
0.0
  0
LINE
  5
311
330
2DD
100
AcDbEntity
  8
0
 62
     0
100
AcDbLine
 10
14.33000000000038
 20
-80.77499999999941
 30
0.0
 11
14.63000000000056
 21
-80.77499999999941
 31
0.0
  0
LINE
  5
312
330
2DD
100
AcDbEntity
  8
0
 62
     0
100
AcDbLine
 10
11.8979491924324
 20
-63.22705080756827
 30
0.0
 11
12.36205080757008
 21
-63.22705080756827
 31
0.0
  0
LINE
  5
313
330
2DD
100
AcDbEntity
  8
0
 62
     0
100
AcDbLine
 10
11.63000000000101
 20
-63.49499999999967
 30
0.0
 11
11.8979491924324
 21
-63.22705080756827
 31
0.0
  0
LINE
  5
314
330
2DD
100
AcDbEntity
  8
0
 62
     0
100
AcDbLine
 10
12.63000000000056
 20
-63.49499999999967
 30
0.0
 11
11.63000000000101
 21
-63.49499999999967
 31
0.0
  0
LINE
  5
315
330
2DD
100
AcDbEntity
  8
0
 62
     0
100
AcDbLine
 10
12.36205080757008
 20
-63.22705080756827
 30
0.0
 11
12.63000000000056
 21
-63.49499999999967
 31
0.0
  0
LINE
  5
316
330
2DD
100
AcDbEntity
  8
0
 62
     0
100
AcDbLine
 10
12.63000000000102
 20
-62.49499999999965
 30
0.0
 11
12.63000000000056
 21
-63.49499999999967
 31
0.0
  0
LINE
  5
317
330
2DD
100
AcDbEntity
  8
0
 62
     0
100
AcDbLine
 10
11.63000000000101
 20
-63.49499999999967
 30
0.0
 11
11.63000000000101
 21
-62.49499999999965
 31
0.0
  0
LINE
  5
318
330
2DD
100
AcDbEntity
  8
0
 62
     0
100
AcDbLine
 10
11.63000000000101
 20
-62.49499999999965
 30
0.0
 11
12.63000000000102
 21
-62.49499999999965
 31
0.0
  0
LINE
  5
319
330
2DD
100
AcDbEntity
  8
0
 62
     0
100
AcDbLine
 10
11.8979491924324
 20
-62.7629491924306
 30
0.0
 11
11.63000000000101
 21
-62.49499999999965
 31
0.0
  0
LINE
  5
31A
330
2DD
100
AcDbEntity
  8
0
 62
     0
100
AcDbLine
 10
11.8979491924324
 20
-62.7629491924306
 30
0.0
 11
11.8979491924324
 21
-63.22705080756827
 31
0.0
  0
LINE
  5
31B
330
2DD
100
AcDbEntity
  8
0
 62
     0
100
AcDbLine
 10
12.36205080757008
 20
-63.22705080756827
 30
0.0
 11
12.36205080757008
 21
-62.7629491924306
 31
0.0
  0
LINE
  5
31C
330
2DD
100
AcDbEntity
  8
0
 62
     0
100
AcDbLine
 10
11.8979491924324
 20
-62.7629491924306
 30
0.0
 11
12.36205080757008
 21
-62.7629491924306
 31
0.0
  0
LINE
  5
31D
330
2DD
100
AcDbEntity
  8
0
 62
     0
100
AcDbLine
 10
12.36205080757008
 20
-62.7629491924306
 30
0.0
 11
12.63000000000102
 21
-62.49499999999965
 31
0.0
  0
LINE
  5
31E
330
2DD
100
AcDbEntity
  8
0
 62
     0
100
AcDbLine
 10
12.88000000000056
 20
-70.41403810567612
 30
0.0
 11
12.88000000000056
 21
-70.81596189432253
 31
0.0
  0
LINE
  5
31F
330
2DD
100
AcDbEntity
  8
0
 62
     0
100
AcDbLine
 10
12.88000000000056
 20
-70.81596189432253
 30
0.0
 11
12.13000000000056
 21
-70.61499999999956
 31
0.0
  0
LINE
  5
320
330
2DD
100
AcDbEntity
  8
0
 62
     0
100
AcDbLine
 10
12.13000000000056
 20
-70.61499999999956
 30
0.0
 11
12.88000000000056
 21
-70.41403810567612
 31
0.0
  0
LINE
  5
321
330
2DD
100
AcDbEntity
  8
0
 62
     0
100
AcDbLine
 10
12.88000000000056
 20
-65.33403810567574
 30
0.0
 11
12.88000000000056
 21
-65.7359618943226
 31
0.0
  0
LINE
  5
322
330
2DD
100
AcDbEntity
  8
0
 62
     0
100
AcDbLine
 10
12.88000000000056
 20
-65.7359618943226
 30
0.0
 11
12.13000000000056
 21
-65.53499999999963
 31
0.0
  0
LINE
  5
323
330
2DD
100
AcDbEntity
  8
0
 62
     0
100
AcDbLine
 10
12.13000000000056
 20
-65.53499999999963
 30
0.0
 11
12.88000000000056
 21
-65.33403810567574
 31
0.0
  0
LINE
  5
324
330
2DD
100
AcDbEntity
  8
0
 62
     0
100
AcDbLine
 10
9.036607142857519
 20
-80.77499999999941
 30
0.0
 11
9.036607142857519
 21
-78.87901118078139
 31
0.0
  0
LINE
  5
325
330
2DD
100
AcDbEntity
  8
0
 62
     0
100
AcDbLine
 10
9.036607142857519
 20
-80.77499999999941
 30
0.0
 11
14.33000000000038
 21
-80.77499999999941
 31
0.0
  0
LINE
  5
326
330
2DD
100
AcDbEntity
  8
0
 62
     0
100
AcDbLine
 10
8.725000000000362
 20
-80.77499999999941
 30
0.0
 11
9.036607142857519
 21
-80.77499999999941
 31
0.0
  0
LINE
  5
327
330
2DD
100
AcDbEntity
  8
0
 62
     0
100
AcDbLine
 10
9.036607142857519
 20
-72.51098881921713
 30
0.0
 11
9.036607142857519
 21
-72.54999999999904
 31
0.0
  0
LINE
  5
328
330
2DD
100
AcDbEntity
  8
0
 62
     0
100
AcDbLine
 10
9.036607142857519
 20
-72.54999999999904
 30
0.0
 11
9.036607142857519
 21
-73.75999999999908
 31
0.0
  0
LINE
  5
329
330
2DD
100
AcDbEntity
  8
0
 62
     0
100
AcDbLine
 10
9.036607142857519
 20
-77.59098881921705
 30
0.0
 11
9.036607142857519
 21
-73.79901118078143
 31
0.0
  0
LINE
  5
32A
330
2DD
100
AcDbEntity
  8
0
 62
     0
100
AcDbLine
 10
9.036607142857519
 20
-73.75999999999908
 30
0.0
 11
9.036607142857519
 21
-73.79901118078143
 31
0.0
  0
LINE
  5
32B
330
2DD
100
AcDbEntity
  8
0
 62
     0
100
AcDbLine
 10
9.036607142857519
 20
-77.59098881921705
 30
0.0
 11
9.036607142857519
 21
-77.62999999999944
 31
0.0
  0
LINE
  5
32C
330
2DD
100
AcDbEntity
  8
0
 62
     0
100
AcDbLine
 10
9.036607142857519
 20
-77.62999999999944
 30
0.0
 11
9.036607142857519
 21
-78.83999999999947
 31
0.0
  0
LINE
  5
32D
330
2DD
100
AcDbEntity
  8
0
 62
     0
100
AcDbLine
 10
9.036607142857519
 20
-78.83999999999947
 30
0.0
 11
9.036607142857519
 21
-78.87901118078139
 31
0.0
  0
LINE
  5
32E
330
2DD
100
AcDbEntity
  8
0
 62
     0
100
AcDbLine
 10
12.88000000000056
 20
-75.49403810567605
 30
0.0
 11
12.88000000000056
 21
-75.89596189432246
 31
0.0
  0
LINE
  5
32F
330
2DD
100
AcDbEntity
  8
0
 62
     0
100
AcDbLine
 10
12.88000000000056
 20
-75.89596189432246
 30
0.0
 11
12.13000000000056
 21
-75.69499999999948
 31
0.0
  0
LINE
  5
330
330
2DD
100
AcDbEntity
  8
0
 62
     0
100
AcDbLine
 10
12.13000000000056
 20
-75.69499999999948
 30
0.0
 11
12.88000000000056
 21
-75.49403810567605
 31
0.0
  0
LINE
  5
331
330
2DD
100
AcDbEntity
  8
0
 62
     0
100
AcDbLine
 10
12.63000000000102
 20
-78.73499999999943
 30
0.0
 11
12.63000000000102
 21
-77.73499999999946
 31
0.0
  0
LINE
  5
332
330
2DD
100
AcDbEntity
  8
0
 62
     0
100
AcDbLine
 10
12.36205080757008
 20
-78.46705080756851
 30
0.0
 11
12.63000000000102
 21
-78.73499999999943
 31
0.0
  0
LINE
  5
333
330
2DD
100
AcDbEntity
  8
0
 62
     0
100
AcDbLine
 10
12.36205080757008
 20
-78.00294919243038
 30
0.0
 11
12.63000000000102
 21
-77.73499999999946
 31
0.0
  0
LINE
  5
334
330
2DD
100
AcDbEntity
  8
0
 62
     0
100
AcDbLine
 10
12.36205080757008
 20
-78.00294919243038
 30
0.0
 11
12.36205080757008
 21
-78.46705080756851
 31
0.0
  0
LINE
  5
335
330
2DD
100
AcDbEntity
  8
0
 62
     0
100
AcDbLine
 10
11.63000000000101
 20
-77.73499999999946
 30
0.0
 11
12.63000000000102
 21
-77.73499999999946
 31
0.0
  0
LINE
  5
336
330
2DD
100
AcDbEntity
  8
0
 62
     0
100
AcDbLine
 10
12.36205080757008
 20
-78.46705080756851
 30
0.0
 11
11.8979491924324
 21
-78.46705080756851
 31
0.0
  0
LINE
  5
337
330
2DD
100
AcDbEntity
  8
0
 62
     0
100
AcDbLine
 10
11.63000000000101
 20
-78.73499999999943
 30
0.0
 11
11.63000000000101
 21
-77.73499999999946
 31
0.0
  0
LINE
  5
338
330
2DD
100
AcDbEntity
  8
0
 62
     0
100
AcDbLine
 10
11.63000000000101
 20
-78.73499999999943
 30
0.0
 11
11.8979491924324
 21
-78.46705080756851
 31
0.0
  0
LINE
  5
339
330
2DD
100
AcDbEntity
  8
0
 62
     0
100
AcDbLine
 10
11.8979491924324
 20
-78.00294919243038
 30
0.0
 11
11.8979491924324
 21
-78.46705080756851
 31
0.0
  0
LINE
  5
33A
330
2DD
100
AcDbEntity
  8
0
 62
     0
100
AcDbLine
 10
11.8979491924324
 20
-78.00294919243038
 30
0.0
 11
11.63000000000101
 21
-77.73499999999946
 31
0.0
  0
LINE
  5
33B
330
2DD
100
AcDbEntity
  8
0
 62
     0
100
AcDbLine
 10
11.8979491924324
 20
-78.00294919243038
 30
0.0
 11
12.36205080757008
 21
-78.00294919243038
 31
0.0
  0
LINE
  5
33C
330
2DD
100
AcDbEntity
  8
0
 62
     0
100
AcDbLine
 10
12.63000000000102
 20
-78.73499999999943
 30
0.0
 11
11.63000000000101
 21
-78.73499999999943
 31
0.0
  0
LINE
  5
33D
330
2DD
100
AcDbEntity
  8
0
 62
     0
100
AcDbLine
 10
10.9175644347024
 20
-78.93499999999926
 30
0.0
 11
13.34243556529872
 21
-78.93499999999926
 31
0.0
  0
LINE
  5
33E
330
2DD
100
AcDbEntity
  8
0
 62
     0
100
AcDbLine
 10
11.63000000000101
 20
-68.57499999999959
 30
0.0
 11
12.63000000000102
 21
-68.57499999999959
 31
0.0
  0
LINE
  5
33F
330
2DD
100
AcDbEntity
  8
0
 62
     0
100
AcDbLine
 10
11.63000000000101
 20
-67.57499999999959
 30
0.0
 11
12.63000000000102
 21
-67.57499999999959
 31
0.0
  0
LINE
  5
340
330
2DD
100
AcDbEntity
  8
0
 62
     0
100
AcDbLine
 10
11.63000000000101
 20
-68.57499999999959
 30
0.0
 11
11.63000000000101
 21
-67.57499999999959
 31
0.0
  0
LINE
  5
341
330
2DD
100
AcDbEntity
  8
0
 62
     0
100
AcDbLine
 10
12.63000000000102
 20
-67.57499999999959
 30
0.0
 11
12.63000000000102
 21
-68.57499999999959
 31
0.0
  0
LINE
  5
342
330
2DD
100
AcDbEntity
  8
0
 62
     0
100
AcDbLine
 10
11.8979491924324
 20
-68.3070508075682
 30
0.0
 11
12.36205080757008
 21
-68.3070508075682
 31
0.0
  0
LINE
  5
343
330
2DD
100
AcDbEntity
  8
0
 62
     0
100
AcDbLine
 10
11.8979491924324
 20
-67.84294919243052
 30
0.0
 11
11.8979491924324
 21
-68.3070508075682
 31
0.0
  0
LINE
  5
344
330
2DD
100
AcDbEntity
  8
0
 62
     0
100
AcDbLine
 10
11.8979491924324
 20
-67.84294919243052
 30
0.0
 11
11.63000000000101
 21
-67.57499999999959
 31
0.0
  0
LINE
  5
345
330
2DD
100
AcDbEntity
  8
0
 62
     0
100
AcDbLine
 10
12.36205080757008
 20
-68.3070508075682
 30
0.0
 11
12.36205080757008
 21
-67.84294919243052
 31
0.0
  0
LINE
  5
346
330
2DD
100
AcDbEntity
  8
0
 62
     0
100
AcDbLine
 10
11.8979491924324
 20
-67.84294919243052
 30
0.0
 11
12.36205080757008
 21
-67.84294919243052
 31
0.0
  0
LINE
  5
347
330
2DD
100
AcDbEntity
  8
0
 62
     0
100
AcDbLine
 10
12.36205080757008
 20
-68.3070508075682
 30
0.0
 11
12.63000000000102
 21
-68.57499999999959
 31
0.0
  0
LINE
  5
348
330
2DD
100
AcDbEntity
  8
0
 62
     0
100
AcDbLine
 10
11.63000000000101
 20
-68.57499999999959
 30
0.0
 11
11.8979491924324
 21
-68.3070508075682
 31
0.0
  0
LINE
  5
349
330
2DD
100
AcDbEntity
  8
0
 62
     0
100
AcDbLine
 10
12.36205080757008
 20
-67.84294919243052
 30
0.0
 11
12.63000000000102
 21
-67.57499999999959
 31
0.0
  0
LINE
  5
34A
330
2DD
100
AcDbEntity
  8
0
 62
     0
100
AcDbLine
 10
14.63000000000056
 20
-80.38906592285345
 30
0.0
 11
14.63000000000056
 21
-80.77499999999941
 31
0.0
  0
LINE
  5
34B
330
2DD
100
AcDbEntity
  8
0
 62
     0
100
AcDbLine
 10
14.63000000000056
 20
-76.08093407714545
 30
0.0
 11
14.63000000000056
 21
-75.30906592285259
 31
0.0
  0
LINE
  5
34C
330
2DD
100
AcDbEntity
  8
0
 62
     0
100
AcDbLine
 10
14.63000000000056
 20
-71.00093407714552
 30
0.0
 11
14.63000000000056
 21
-70.22906592285266
 31
0.0
  0
LINE
  5
34D
330
2DD
100
AcDbEntity
  8
0
 62
     0
100
AcDbLine
 10
14.33000000000038
 20
-66.03539219456229
 30
0.0
 11
14.33000000000038
 21
-65.03460780543605
 31
0.0
  0
LINE
  5
34E
330
2DD
100
AcDbEntity
  8
0
 62
     0
100
AcDbLine
 10
14.63000000000056
 20
-65.9209340771456
 30
0.0
 11
14.63000000000056
 21
-65.14906592285274
 31
0.0
  0
LINE
  5
34F
330
2DD
100
AcDbEntity
  8
0
 62
     0
100
AcDbLine
 10
14.33000000000038
 20
-71.11539219456222
 30
0.0
 11
14.33000000000038
 21
-70.11460780543597
 31
0.0
  0
LINE
  5
350
330
2DD
100
AcDbEntity
  8
0
 62
     0
100
AcDbLine
 10
14.33000000000038
 20
-76.19539219456214
 30
0.0
 11
14.33000000000038
 21
-75.19460780543591
 31
0.0
  0
LINE
  5
351
330
2DD
100
AcDbEntity
  8
0
 62
     0
100
AcDbLine
 10
14.33000000000038
 20
-80.77499999999941
 30
0.0
 11
14.33000000000038
 21
-80.27460780543675
 31
0.0
  0
LINE
  5
352
330
2DD
100
AcDbEntity
  8
0
 62
     0
100
AcDbLine
 10
11.63000000000101
 20
-73.65499999999951
 30
0.0
 11
11.63000000000101
 21
-72.65499999999952
 31
0.0
  0
LINE
  5
353
330
2DD
100
AcDbEntity
  8
0
 62
     0
100
AcDbLine
 10
12.63000000000102
 20
-72.65499999999952
 30
0.0
 11
12.63000000000056
 21
-73.65499999999951
 31
0.0
  0
LINE
  5
354
330
2DD
100
AcDbEntity
  8
0
 62
     0
100
AcDbLine
 10
12.36205080757008
 20
-73.38705080756859
 30
0.0
 11
12.63000000000056
 21
-73.65499999999951
 31
0.0
  0
LINE
  5
355
330
2DD
100
AcDbEntity
  8
0
 62
     0
100
AcDbLine
 10
12.63000000000056
 20
-73.65499999999951
 30
0.0
 11
11.63000000000101
 21
-73.65499999999951
 31
0.0
  0
LINE
  5
356
330
2DD
100
AcDbEntity
  8
0
 62
     0
100
AcDbLine
 10
11.63000000000101
 20
-73.65499999999951
 30
0.0
 11
11.8979491924324
 21
-73.38705080756811
 31
0.0
  0
LINE
  5
357
330
2DD
100
AcDbEntity
  8
0
 62
     0
100
AcDbLine
 10
12.36205080757008
 20
-72.92294919243045
 30
0.0
 11
12.36205080757008
 21
-73.38705080756859
 31
0.0
  0
LINE
  5
358
330
2DD
100
AcDbEntity
  8
0
 62
     0
100
AcDbLine
 10
11.8979491924324
 20
-73.38705080756811
 30
0.0
 11
12.36205080757008
 21
-73.38705080756859
 31
0.0
  0
LINE
  5
359
330
2DD
100
AcDbEntity
  8
0
 62
     0
100
AcDbLine
 10
11.8979491924324
 20
-72.92294919243045
 30
0.0
 11
11.8979491924324
 21
-73.38705080756811
 31
0.0
  0
LINE
  5
35A
330
2DD
100
AcDbEntity
  8
0
 62
     0
100
AcDbLine
 10
11.8979491924324
 20
-72.92294919243045
 30
0.0
 11
12.36205080757008
 21
-72.92294919243045
 31
0.0
  0
LINE
  5
35B
330
2DD
100
AcDbEntity
  8
0
 62
     0
100
AcDbLine
 10
11.8979491924324
 20
-72.92294919243045
 30
0.0
 11
11.63000000000101
 21
-72.65499999999952
 31
0.0
  0
LINE
  5
35C
330
2DD
100
AcDbEntity
  8
0
 62
     0
100
AcDbLine
 10
11.63000000000101
 20
-72.65499999999952
 30
0.0
 11
12.63000000000102
 21
-72.65499999999952
 31
0.0
  0
LINE
  5
35D
330
2DD
100
AcDbEntity
  8
0
 62
     0
100
AcDbLine
 10
12.36205080757008
 20
-72.92294919243045
 30
0.0
 11
12.63000000000102
 21
-72.65499999999952
 31
0.0
  0
LINE
  5
35E
330
2DD
100
AcDbEntity
  8
0
 62
     0
100
AcDbLine
 10
9.036607142857519
 20
-62.38999999999919
 30
0.0
 11
9.036607142857519
 21
-62.35098881921726
 31
0.0
  0
LINE
  5
35F
330
2DD
100
AcDbEntity
  8
0
 62
     0
100
AcDbLine
 10
9.036607142857519
 20
-63.59999999999923
 30
0.0
 11
9.036607142857519
 21
-62.38999999999919
 31
0.0
  0
LINE
  5
360
330
2DD
100
AcDbEntity
  8
0
 62
     0
100
AcDbLine
 10
9.036607142857519
 20
-63.63901118078114
 30
0.0
 11
9.036607142857519
 21
-63.59999999999923
 31
0.0
  0
LINE
  5
361
330
2DD
100
AcDbEntity
  8
0
 62
     0
100
AcDbLine
 10
9.036607142857519
 20
-72.51098881921713
 30
0.0
 11
9.036607142857519
 21
-68.71901118078108
 31
0.0
  0
LINE
  5
362
330
2DD
100
AcDbEntity
  8
0
 62
     0
100
AcDbLine
 10
9.036607142857519
 20
-68.67999999999915
 30
0.0
 11
9.036607142857519
 21
-68.71901118078108
 31
0.0
  0
LINE
  5
363
330
2DD
100
AcDbEntity
  8
0
 62
     0
100
AcDbLine
 10
9.036607142857519
 20
-67.46999999999911
 30
0.0
 11
9.036607142857519
 21
-68.67999999999915
 31
0.0
  0
LINE
  5
364
330
2DD
100
AcDbEntity
  8
0
 62
     0
100
AcDbLine
 10
9.036607142857519
 20
-67.43098881921719
 30
0.0
 11
9.036607142857519
 21
-63.63901118078114
 31
0.0
  0
LINE
  5
365
330
2DD
100
AcDbEntity
  8
0
 62
     0
100
AcDbLine
 10
9.036607142857519
 20
-67.46999999999911
 30
0.0
 11
9.036607142857519
 21
-67.43098881921719
 31
0.0
  0
LINE
  5
366
330
2DD
100
AcDbEntity
  8
0
 62
     0
100
AcDbLine
 10
8.725000000000362
 20
-77.25999999999908
 30
0.0
 11
8.725000000000362
 21
-74.12999999999944
 31
0.0
  0
LINE
  5
367
330
2DD
100
AcDbEntity
  8
0
 62
     0
100
AcDbLine
 10
8.725000000000362
 20
-72.17999999999915
 30
0.0
 11
8.725000000000362
 21
-69.04999999999905
 31
0.0
  0
LINE
  5
368
330
2DD
100
AcDbEntity
  8
0
 62
     0
100
AcDbLine
 10
8.725000000000362
 20
-67.09999999999921
 30
0.0
 11
8.725000000000362
 21
-63.96999999999911
 31
0.0
  0
LINE
  5
369
330
2DD
100
AcDbEntity
  8
0
 62
     0
100
AcDbLine
 10
8.725000000000362
 20
-62.01999999999928
 30
0.0
 11
9.036607142857519
 21
-62.35098881921726
 31
0.0
  0
LINE
  5
36A
330
2DD
100
AcDbEntity
  8
0
 62
     0
100
AcDbLine
 10
9.036607142857519
 20
-73.79901118078143
 30
0.0
 11
8.725000000000362
 21
-74.12999999999944
 31
0.0
  0
LINE
  5
36B
330
2DD
100
AcDbEntity
  8
0
 62
     0
100
AcDbLine
 10
8.725000000000362
 20
-77.25999999999908
 30
0.0
 11
9.036607142857519
 21
-77.59098881921705
 31
0.0
  0
LINE
  5
36C
330
2DD
100
AcDbEntity
  8
0
 62
     0
100
AcDbLine
 10
8.725000000000362
 20
-67.09999999999921
 30
0.0
 11
9.036607142857519
 21
-67.43098881921719
 31
0.0
  0
LINE
  5
36D
330
2DD
100
AcDbEntity
  8
0
 62
     0
100
AcDbLine
 10
7.900000000000542
 20
-67.09999999999921
 30
0.0
 11
8.725000000000362
 21
-67.09999999999921
 31
0.0
  0
LINE
  5
36E
330
2DD
100
AcDbEntity
  8
0
 62
     0
100
AcDbLine
 10
7.900000000000542
 20
-67.09999999999921
 30
0.0
 11
7.900000000000542
 21
-63.96999999999911
 31
0.0
  0
LINE
  5
36F
330
2DD
100
AcDbEntity
  8
0
 62
     0
100
AcDbLine
 10
9.036607142857519
 20
-57.27098881921733
 30
0.0
 11
9.036607142857519
 21
-55.37499999999933
 31
0.0
  0
LINE
  5
370
330
2DD
100
AcDbEntity
  8
0
 62
     0
100
AcDbLine
 10
12.88000000000056
 20
-60.25403810567581
 30
0.0
 11
12.88000000000056
 21
-60.65596189432267
 31
0.0
  0
LINE
  5
371
330
2DD
100
AcDbEntity
  8
0
 62
     0
100
AcDbLine
 10
12.88000000000056
 20
-60.65596189432267
 30
0.0
 11
12.13000000000056
 21
-60.45499999999925
 31
0.0
  0
LINE
  5
372
330
2DD
100
AcDbEntity
  8
0
 62
     0
100
AcDbLine
 10
12.13000000000056
 20
-60.45499999999925
 30
0.0
 11
12.88000000000056
 21
-60.25403810567581
 31
0.0
  0
LINE
  5
373
330
2DD
100
AcDbEntity
  8
0
 62
     0
100
AcDbLine
 10
7.900000000000542
 20
-62.01999999999928
 30
0.0
 11
7.900000000000542
 21
-58.88999999999919
 31
0.0
  0
LINE
  5
374
330
2DD
100
AcDbEntity
  8
0
 62
     0
100
AcDbLine
 10
9.036607142857519
 20
-58.55901118078122
 30
0.0
 11
9.036607142857519
 21
-58.51999999999929
 31
0.0
  0
LINE
  5
375
330
2DD
100
AcDbEntity
  8
0
 62
     0
100
AcDbLine
 10
9.036607142857519
 20
-62.35098881921726
 30
0.0
 11
9.036607142857519
 21
-58.55901118078122
 31
0.0
  0
LINE
  5
376
330
2DD
100
AcDbEntity
  8
0
 62
     0
100
AcDbLine
 10
8.725000000000362
 20
-62.01999999999928
 30
0.0
 11
8.725000000000362
 21
-58.88999999999919
 31
0.0
  0
LINE
  5
377
330
2DD
100
AcDbEntity
  8
0
 62
     0
100
AcDbLine
 10
9.036607142857519
 20
-55.37499999999933
 30
0.0
 11
8.725000000000362
 21
-55.37499999999933
 31
0.0
  0
LINE
  5
378
330
2DD
100
AcDbEntity
  8
0
 62
     0
100
AcDbLine
 10
8.725000000000362
 20
-55.37499999999933
 30
0.0
 11
8.725000000000362
 21
-56.93999999999937
 31
0.0
  0
LINE
  5
379
330
2DD
100
AcDbEntity
  8
0
 62
     0
100
AcDbLine
 10
7.900000000000542
 20
-56.93999999999937
 30
0.0
 11
8.725000000000362
 21
-56.93999999999937
 31
0.0
  0
LINE
  5
37A
330
2DD
100
AcDbEntity
  8
0
 62
     0
100
AcDbLine
 10
14.63000000000056
 20
-55.37499999999933
 30
0.0
 11
14.63000000000056
 21
-55.76093407714575
 31
0.0
  0
LINE
  5
37B
330
2DD
100
AcDbEntity
  8
0
 62
     0
100
AcDbLine
 10
14.33000000000038
 20
-55.87539219456242
 30
0.0
 11
14.33000000000038
 21
-55.37499999999933
 31
0.0
  0
LINE
  5
37C
330
2DD
100
AcDbEntity
  8
0
 62
     0
100
AcDbLine
 10
14.33000000000038
 20
-55.37499999999933
 30
0.0
 11
9.036607142857519
 21
-55.37499999999933
 31
0.0
  0
LINE
  5
37D
330
2DD
100
AcDbEntity
  8
0
 62
     0
100
AcDbLine
 10
14.63000000000056
 20
-55.37499999999933
 30
0.0
 11
14.33000000000038
 21
-55.37499999999933
 31
0.0
  0
LINE
  5
37E
330
2DD
100
AcDbEntity
  8
0
 62
     0
100
AcDbLine
 10
12.63000000000147
 20
-57.41499999999928
 30
0.0
 11
12.36205080757008
 21
-57.68294919243022
 31
0.0
  0
LINE
  5
37F
330
2DD
100
AcDbEntity
  8
0
 62
     0
100
AcDbLine
 10
12.63000000000102
 20
-58.41499999999928
 30
0.0
 11
12.63000000000147
 21
-57.41499999999928
 31
0.0
  0
LINE
  5
380
330
2DD
100
AcDbEntity
  8
0
 62
     0
100
AcDbLine
 10
12.36205080757008
 20
-58.14705080756835
 30
0.0
 11
12.63000000000102
 21
-58.41499999999928
 31
0.0
  0
LINE
  5
381
330
2DD
100
AcDbEntity
  8
0
 62
     0
100
AcDbLine
 10
12.36205080757008
 20
-58.14705080756835
 30
0.0
 11
12.36205080757008
 21
-57.68294919243022
 31
0.0
  0
LINE
  5
382
330
2DD
100
AcDbEntity
  8
0
 62
     0
100
AcDbLine
 10
11.63000000000147
 20
-57.41499999999928
 30
0.0
 11
12.63000000000147
 21
-57.41499999999928
 31
0.0
  0
LINE
  5
383
330
2DD
100
AcDbEntity
  8
0
 62
     0
100
AcDbLine
 10
11.63000000000101
 20
-58.41499999999928
 30
0.0
 11
11.8979491924324
 21
-58.14705080756835
 31
0.0
  0
LINE
  5
384
330
2DD
100
AcDbEntity
  8
0
 62
     0
100
AcDbLine
 10
11.63000000000147
 20
-57.41499999999928
 30
0.0
 11
11.63000000000101
 21
-58.41499999999928
 31
0.0
  0
LINE
  5
385
330
2DD
100
AcDbEntity
  8
0
 62
     0
100
AcDbLine
 10
11.63000000000147
 20
-57.41499999999928
 30
0.0
 11
11.8979491924324
 21
-57.68294919243022
 31
0.0
  0
LINE
  5
386
330
2DD
100
AcDbEntity
  8
0
 62
     0
100
AcDbLine
 10
11.8979491924324
 20
-58.14705080756835
 30
0.0
 11
12.36205080757008
 21
-58.14705080756835
 31
0.0
  0
LINE
  5
387
330
2DD
100
AcDbEntity
  8
0
 62
     0
100
AcDbLine
 10
11.8979491924324
 20
-57.68294919243022
 30
0.0
 11
11.8979491924324
 21
-58.14705080756835
 31
0.0
  0
LINE
  5
388
330
2DD
100
AcDbEntity
  8
0
 62
     0
100
AcDbLine
 10
11.8979491924324
 20
-57.68294919243022
 30
0.0
 11
12.36205080757008
 21
-57.68294919243022
 31
0.0
  0
LINE
  5
389
330
2DD
100
AcDbEntity
  8
0
 62
     0
100
AcDbLine
 10
11.63000000000101
 20
-58.41499999999928
 30
0.0
 11
12.63000000000102
 21
-58.41499999999928
 31
0.0
  0
LINE
  5
38A
330
2DD
100
AcDbEntity
  8
0
 62
     0
100
AcDbLine
 10
7.900000000000542
 20
-58.88999999999919
 30
0.0
 11
8.725000000000362
 21
-58.88999999999919
 31
0.0
  0
LINE
  5
38B
330
2DD
100
AcDbEntity
  8
0
 62
     0
100
AcDbLine
 10
9.036607142857519
 20
-58.55901118078122
 30
0.0
 11
8.725000000000362
 21
-58.88999999999919
 31
0.0
  0
LINE
  5
38C
330
2DD
100
AcDbEntity
  8
0
 62
     0
100
AcDbLine
 10
8.725000000000362
 20
-56.93999999999937
 30
0.0
 11
9.036607142857519
 21
-57.27098881921733
 31
0.0
  0
LINE
  5
38D
330
2DD
100
AcDbEntity
  8
0
 62
     0
100
AcDbLine
 10
9.036607142857519
 20
-57.30999999999927
 30
0.0
 11
9.036607142857519
 21
-57.27098881921733
 31
0.0
  0
LINE
  5
38E
330
2DD
100
AcDbEntity
  8
0
 62
     0
100
AcDbLine
 10
9.036607142857519
 20
-58.51999999999929
 30
0.0
 11
9.036607142857519
 21
-57.30999999999927
 31
0.0
  0
LINE
  5
38F
330
2DD
100
AcDbEntity
  8
0
 62
     0
100
AcDbLine
 10
11.92903810567709
 20
-81.77499999999941
 30
0.0
 11
12.13000000000056
 21
-81.77499999999941
 31
0.0
  0
LINE
  5
390
330
2DD
100
AcDbEntity
  8
0
 62
     0
100
AcDbLine
 10
12.33096189432399
 20
-81.77499999999941
 30
0.0
 11
16.00000000000043
 21
-81.77499999999941
 31
0.0
  0
LINE
  5
391
330
2DD
100
AcDbEntity
  8
0
 62
     0
100
AcDbLine
 10
12.13000000000056
 20
-81.77499999999941
 30
0.0
 11
12.33096189432399
 21
-81.77499999999941
 31
0.0
  0
LINE
  5
392
330
2DD
100
AcDbEntity
  8
0
 62
     0
100
AcDbLine
 10
8.33000000000038
 20
-81.77499999999941
 30
0.0
 11
11.92903810567709
 21
-81.77499999999941
 31
0.0
  0
LINE
  5
393
330
2DD
100
AcDbEntity
  8
0
 62
     0
100
AcDbLine
 10
7.900000000000542
 20
-81.77499999999941
 30
0.0
 11
8.33000000000038
 21
-81.77499999999941
 31
0.0
  0
LINE
  5
394
330
2DD
100
AcDbEntity
  8
0
 62
     0
100
AcDbLine
 10
7.900000000000542
 20
-79.20999999999934
 30
0.0
 11
7.900000000000542
 21
-81.77499999999941
 31
0.0
  0
LINE
  5
395
330
2DD
100
AcDbEntity
  8
0
 62
     0
100
AcDbLine
 10
12.65000113999986
 20
-54.37499999999932
 30
0.0
 11
8.33000000000038
 21
-54.37499999999932
 31
0.0
  0
LINE
  5
396
330
2DD
100
AcDbEntity
  8
0
 62
     0
100
AcDbLine
 10
12.85025708184684
 20
-54.37499999999932
 30
0.0
 11
12.65000113999986
 21
-54.37499999999932
 31
0.0
  0
LINE
  5
397
330
2DD
100
AcDbEntity
  8
0
 62
     0
100
AcDbLine
 10
12.95875911636858
 20
-54.37499999999932
 30
0.0
 11
12.85025708184684
 21
-54.37499999999932
 31
0.0
  0
LINE
  5
398
330
2DD
100
AcDbEntity
  8
0
 62
     0
100
AcDbLine
 10
13.10895107275337
 20
-54.37499999999932
 30
0.0
 11
12.95875911636858
 21
-54.37499999999932
 31
0.0
  0
LINE
  5
399
330
2DD
100
AcDbEntity
  8
0
 62
     0
100
AcDbLine
 10
13.33690248499715
 20
-54.37499999999932
 30
0.0
 11
13.10895107275337
 21
-54.37499999999932
 31
0.0
  0
LINE
  5
39A
330
2DD
100
AcDbEntity
  8
0
 62
     0
100
AcDbLine
 10
15.50000000000044
 20
-54.37499999999932
 30
0.0
 11
15.29974405815392
 21
-54.37499999999932
 31
0.0
  0
LINE
  5
39B
330
2DD
100
AcDbEntity
  8
0
 62
     0
100
AcDbLine
 10
16.00000000000043
 20
-54.37499999999932
 30
0.0
 11
15.50000000000044
 21
-54.37499999999932
 31
0.0
  0
LINE
  5
39C
330
2DD
100
AcDbEntity
  8
0
 62
     0
100
AcDbLine
 10
13.47202608463658
 20
-54.37499999999932
 30
0.0
 11
13.33690248499715
 21
-54.37499999999932
 31
0.0
  0
LINE
  5
39D
330
2DD
100
AcDbEntity
  8
0
 62
     0
100
AcDbLine
 10
14.38786381552608
 20
-54.37499999999932
 30
0.0
 11
14.25274021588711
 21
-54.37499999999932
 31
0.0
  0
LINE
  5
39E
330
2DD
100
AcDbEntity
  8
0
 62
     0
100
AcDbLine
 10
14.61581522776985
 20
-54.37499999999932
 30
0.0
 11
14.38786381552608
 21
-54.37499999999932
 31
0.0
  0
LINE
  5
39F
330
2DD
100
AcDbEntity
  8
0
 62
     0
100
AcDbLine
 10
15.19124202362444
 20
-54.37499999999932
 30
0.0
 11
15.04105006723966
 21
-54.37499999999932
 31
0.0
  0
LINE
  5
3A0
330
2DD
100
AcDbEntity
  8
0
 62
     0
100
AcDbLine
 10
15.29974405815392
 20
-54.37499999999932
 30
0.0
 11
15.19124202362444
 21
-54.37499999999932
 31
0.0
  0
LINE
  5
3A1
330
2DD
100
AcDbEntity
  8
0
 62
     0
100
AcDbLine
 10
14.7660071841551
 20
-54.37499999999932
 30
0.0
 11
14.61581522776985
 21
-54.37499999999932
 31
0.0
  0
LINE
  5
3A2
330
2DD
100
AcDbEntity
  8
0
 62
     0
100
AcDbLine
 10
15.04105006723966
 20
-54.37499999999932
 30
0.0
 11
14.7660071841551
 21
-54.37499999999932
 31
0.0
  0
LINE
  5
3A3
330
2DD
100
AcDbEntity
  8
0
 62
     0
100
AcDbLine
 10
13.64543921326093
 20
-54.37499999999932
 30
0.0
 11
13.47202608463658
 21
-54.37499999999932
 31
0.0
  0
LINE
  5
3A4
330
2DD
100
AcDbEntity
  8
0
 62
     0
100
AcDbLine
 10
14.0793270872623
 20
-54.37499999999932
 30
0.0
 11
13.64543921326093
 21
-54.37499999999932
 31
0.0
  0
LINE
  5
3A5
330
2DD
100
AcDbEntity
  8
0
 62
     0
100
AcDbLine
 10
14.25274021588711
 20
-54.37499999999932
 30
0.0
 11
14.0793270872623
 21
-54.37499999999932
 31
0.0
  0
LINE
  5
3A6
330
2DD
100
AcDbEntity
  8
0
 62
     0
100
AcDbLine
 10
7.426838695454534
 20
-62.38999999999919
 30
0.0
 11
7.900000000000542
 21
-62.01999999999928
 31
0.0
  0
LINE
  5
3A7
330
2DD
100
AcDbEntity
  8
0
 62
     0
100
AcDbLine
 10
7.426838695454534
 20
-62.38999999999919
 30
0.0
 11
7.426838695454534
 21
-63.59999999999923
 31
0.0
  0
LINE
  5
3A8
330
2DD
100
AcDbEntity
  8
0
 62
     0
100
AcDbLine
 10
7.426838695454534
 20
-68.67999999999915
 30
0.0
 11
7.900000000000542
 21
-69.04999999999905
 31
0.0
  0
LINE
  5
3A9
330
2DD
100
AcDbEntity
  8
0
 62
     0
100
AcDbLine
 10
7.426838695454534
 20
-68.67999999999915
 30
0.0
 11
9.036607142857519
 21
-68.67999999999915
 31
0.0
  0
LINE
  5
3AA
330
2DD
100
AcDbEntity
  8
0
 62
     0
100
AcDbLine
 10
7.426838695454534
 20
-72.54999999999904
 30
0.0
 11
7.900000000000542
 21
-72.17999999999915
 31
0.0
  0
LINE
  5
3AB
330
2DD
100
AcDbEntity
  8
0
 62
     0
100
AcDbLine
 10
7.426838695454534
 20
-73.75999999999908
 30
0.0
 11
7.426838695454534
 21
-72.54999999999904
 31
0.0
  0
LINE
  5
3AC
330
2DD
100
AcDbEntity
  8
0
 62
     0
100
AcDbLine
 10
7.426838695454534
 20
-73.75999999999908
 30
0.0
 11
7.900000000000542
 21
-74.12999999999944
 31
0.0
  0
LINE
  5
3AD
330
2DD
100
AcDbEntity
  8
0
 62
     0
100
AcDbLine
 10
7.426838695454534
 20
-68.67999999999915
 30
0.0
 11
7.426838695454534
 21
-67.46999999999911
 31
0.0
  0
LINE
  5
3AE
330
2DD
100
AcDbEntity
  8
0
 62
     0
100
AcDbLine
 10
7.426838695454534
 20
-77.62999999999944
 30
0.0
 11
7.900000000000542
 21
-77.25999999999908
 31
0.0
  0
LINE
  5
3AF
330
2DD
100
AcDbEntity
  8
0
 62
     0
100
AcDbLine
 10
7.426838695454534
 20
-78.83999999999947
 30
0.0
 11
7.426838695454534
 21
-77.62999999999944
 31
0.0
  0
LINE
  5
3B0
330
2DD
100
AcDbEntity
  8
0
 62
     0
100
AcDbLine
 10
9.036607142857519
 20
-77.62999999999944
 30
0.0
 11
7.426838695454534
 21
-77.62999999999944
 31
0.0
  0
LINE
  5
3B1
330
2DD
100
AcDbEntity
  8
0
 62
     0
100
AcDbLine
 10
7.900000000000542
 20
-79.20999999999934
 30
0.0
 11
7.426838695454534
 21
-78.83999999999947
 31
0.0
  0
LINE
  5
3B2
330
2DD
100
AcDbEntity
  8
0
 62
     0
100
AcDbLine
 10
7.426838695454534
 20
-73.75999999999908
 30
0.0
 11
9.036607142857519
 21
-73.75999999999908
 31
0.0
  0
LINE
  5
3B3
330
2DD
100
AcDbEntity
  8
0
 62
     0
100
AcDbLine
 10
7.426838695454534
 20
-67.46999999999911
 30
0.0
 11
7.900000000000542
 21
-67.09999999999921
 31
0.0
  0
LINE
  5
3B4
330
2DD
100
AcDbEntity
  8
0
 62
     0
100
AcDbLine
 10
9.036607142857519
 20
-67.46999999999911
 30
0.0
 11
7.426838695454534
 21
-67.46999999999911
 31
0.0
  0
LINE
  5
3B5
330
2DD
100
AcDbEntity
  8
0
 62
     0
100
AcDbLine
 10
7.426838695454534
 20
-58.51999999999929
 30
0.0
 11
9.036607142857519
 21
-58.51999999999929
 31
0.0
  0
LINE
  5
3B6
330
2DD
100
AcDbEntity
  8
0
 62
     0
100
AcDbLine
 10
7.426838695454534
 20
-58.51999999999929
 30
0.0
 11
7.426838695454534
 21
-57.30999999999927
 31
0.0
  0
LINE
  5
3B7
330
2DD
100
AcDbEntity
  8
0
 62
     0
100
AcDbLine
 10
9.036607142857519
 20
-57.30999999999927
 30
0.0
 11
7.426838695454534
 21
-57.30999999999927
 31
0.0
  0
LINE
  5
3B8
330
2DD
100
AcDbEntity
  8
0
 62
     0
100
AcDbLine
 10
7.426838695454534
 20
-57.30999999999927
 30
0.0
 11
7.900000000000542
 21
-56.93999999999937
 31
0.0
  0
LINE
  5
3B9
330
2DD
100
AcDbEntity
  8
0
 62
     0
100
AcDbLine
 10
7.400000000000542
 20
-81.77499999999941
 30
0.0
 11
7.900000000000542
 21
-81.77499999999941
 31
0.0
  0
LINE
  5
3BA
330
2DD
100
AcDbEntity
  8
0
 62
     0
100
AcDbLine
 10
7.400000000000542
 20
-81.77499999999941
 30
0.0
 11
7.400000000000542
 21
-54.37499999999932
 31
0.0
  0
LINE
  5
3BB
330
2DD
100
AcDbEntity
  8
0
 62
     0
100
AcDbLine
 10
7.900000000000542
 20
-54.37499999999932
 30
0.0
 11
7.400000000000542
 21
-54.37499999999932
 31
0.0
  0
ARC
  5
3BC
330
2DD
100
AcDbEntity
  8
0
 62
     0
100
AcDbCircle
 10
12.13000000000101
 20
-57.91499999999928
 30
0.0
 40
3.299999999999346
100
AcDbArc
 50
319.2509456225096
 51
40.74905437749029
  0
ARC
  5
3BD
330
2DD
100
AcDbEntity
  8
0
 62
     0
100
AcDbCircle
 10
12.13000000000101
 20
-57.91499999999928
 30
0.0
 40
2.999999999999346
100
AcDbArc
 50
317.1665719339526
 51
42.83342806604736
  0
ARC
  5
3BE
330
2DD
100
AcDbEntity
  8
0
 62
     0
100
AcDbCircle
 10
12.13000000000056
 20
-78.23499999999945
 30
0.0
 40
1.400000000000003
100
AcDbArc
 50
330.0000000000038
 51
209.9999999999961
  0
ARC
  5
3BF
330
2DD
100
AcDbEntity
  8
0
 62
     0
100
AcDbCircle
 10
12.13000000000056
 20
-73.15499999999952
 30
0.0
 40
2.999999999999798
100
AcDbArc
 50
317.1665719339526
 51
42.83342806604736
  0
ARC
  5
3C0
330
2DD
100
AcDbEntity
  8
0
 62
     0
100
AcDbCircle
 10
12.13000000000056
 20
-78.23499999999945
 30
0.0
 40
3.299999999999986
100
AcDbArc
 50
319.2509456225466
 51
40.74905437745336
  0
ARC
  5
3C1
330
2DD
100
AcDbEntity
  8
0
 62
     0
100
AcDbCircle
 10
12.13000000000056
 20
-73.15499999999952
 30
0.0
 40
3.299999999999825
100
AcDbArc
 50
319.2509456225466
 51
40.74905437745336
  0
ARC
  5
3C2
330
2DD
100
AcDbEntity
  8
0
 62
     0
100
AcDbCircle
 10
12.13000000000056
 20
-68.07499999999959
 30
0.0
 40
3.299999999999825
100
AcDbArc
 50
319.2509456225466
 51
40.74905437745336
  0
ARC
  5
3C3
330
2DD
100
AcDbEntity
  8
0
 62
     0
100
AcDbCircle
 10
12.13000000000056
 20
-62.99499999999966
 30
0.0
 40
3.299999999999816
100
AcDbArc
 50
319.2509456225466
 51
40.74905437745336
  0
ARC
  5
3C4
330
2DD
100
AcDbEntity
  8
0
 62
     0
100
AcDbCircle
 10
12.13000000000056
 20
-68.07499999999959
 30
0.0
 40
2.999999999999798
100
AcDbArc
 50
317.1665719339526
 51
42.83342806604736
  0
ARC
  5
3C5
330
2DD
100
AcDbEntity
  8
0
 62
     0
100
AcDbCircle
 10
12.13000000000056
 20
-62.99499999999966
 30
0.0
 40
2.999999999999796
100
AcDbArc
 50
317.1665719339526
 51
42.83342806604736
  0
ARC
  5
3C6
330
2DD
100
AcDbEntity
  8
0
 62
     0
100
AcDbCircle
 10
12.13000000000056
 20
-78.23499999999945
 30
0.0
 40
2.99999999999996
100
AcDbArc
 50
317.1665719339526
 51
42.83342806604736
  0
CIRCLE
  5
3C7
330
2DD
100
AcDbEntity
  8
0
 62
     0
100
AcDbCircle
 10
12.13000000000056
 20
-62.99499999999966
 30
0.0
 40
1.399999999998762
  0
CIRCLE
  5
3C8
330
2DD
100
AcDbEntity
  8
0
 62
     0
100
AcDbCircle
 10
12.13000000000056
 20
-68.07499999999959
 30
0.0
 40
1.399999999998762
  0
CIRCLE
  5
3C9
330
2DD
100
AcDbEntity
  8
0
 62
     0
100
AcDbCircle
 10
12.13000000000056
 20
-73.15499999999952
 30
0.0
 40
1.399999999999999
  0
CIRCLE
  5
3CA
330
2DD
100
AcDbEntity
  8
0
 62
     0
100
AcDbCircle
 10
12.13000000000101
 20
-57.91499999999928
 30
0.0
 40
1.399999999999379
  0
ARC
  5
3CB
330
2DD
100
AcDbEntity
  8
0
 62
     0
100
AcDbCircle
 10
21.04147722073548
 20
-93.34568831880257
 30
6.483974233579615E+99
 40
18.41680697560812
100
AcDbArc
 50
110.3730936678164
 51
110.8717620092503
  0
LINE
  5
3CC
330
2DD
100
AcDbEntity
  8
0
 62
     0
100
AcDbLine
 10
14.4799825891846
 20
-76.13738894388075
 30
6.483974233579615E+99
 11
14.40446560960572
 21
-76.16639056957295
 31
6.483974233579615E+99
  0
LINE
  5
3CD
330
2DD
100
AcDbEntity
  8
0
 62
     0
100
AcDbLine
 10
14.40446560960572
 20
-76.16639056957295
 30
6.483974233579615E+99
 11
14.33000000000038
 21
-76.19539219456214
 31
6.483974233579615E+99
  0
ARC
  5
3CE
330
2DD
100
AcDbEntity
  8
0
 62
     0
100
AcDbCircle
 10
20.51641922486167
 20
-64.50091261943157
 30
6.483974233579615E+99
 40
16.94347197733493
100
AcDbArc
 50
248.5849640485465
 51
249.1287512867559
  0
LINE
  5
3CF
330
2DD
100
AcDbEntity
  8
0
 62
     0
100
AcDbLine
 10
14.4799825891846
 20
-80.33261105611812
 30
6.483974233579615E+99
 11
14.55478560110896
 21
-80.360948485212
 31
6.483974233579615E+99
  0
LINE
  5
3D0
330
2DD
100
AcDbEntity
  8
0
 62
     0
100
AcDbLine
 10
14.55478560110896
 20
-80.360948485212
 30
6.483974233579615E+99
 11
14.63000000000056
 21
-80.38906592285345
 31
6.483974233579615E+99
  0
ARC
  5
3D1
330
2DD
100
AcDbEntity
  8
0
 62
     0
100
AcDbCircle
 10
20.49616678119173
 20
-59.47328061446455
 30
6.483974233579615E+99
 40
16.88732487456338
100
AcDbArc
 50
248.5840600477166
 51
249.1296552877335
  0
LINE
  5
3D2
330
2DD
100
AcDbEntity
  8
0
 62
     0
100
AcDbLine
 10
14.47998258927325
 20
-75.25261105615186
 30
6.483974233579615E+99
 11
14.55449330351028
 21
-75.280838490012
 31
6.483974233579615E+99
  0
LINE
  5
3D3
330
2DD
100
AcDbEntity
  8
0
 62
     0
100
AcDbLine
 10
14.55449330351028
 20
-75.280838490012
 30
6.483974233579615E+99
 11
14.63000000000056
 21
-75.30906592285259
 31
6.483974233579615E+99
  0
ARC
  5
3D4
330
2DD
100
AcDbEntity
  8
0
 62
     0
100
AcDbCircle
 10
21.04147722065544
 20
-88.26568831851977
 30
6.483974233579615E+99
 40
18.41680697531573
100
AcDbArc
 50
110.3730936678999
 51
110.8717620093339
  0
LINE
  5
3D5
330
2DD
100
AcDbEntity
  8
0
 62
     0
100
AcDbLine
 10
14.4799825891846
 20
-71.05738894388081
 30
6.483974233579615E+99
 11
14.40421771715773
 21
-71.08648644004073
 31
6.483974233579615E+99
  0
LINE
  5
3D6
330
2DD
100
AcDbEntity
  8
0
 62
     0
100
AcDbLine
 10
14.40421771715773
 20
-71.08648644004073
 30
6.483974233579615E+99
 11
14.33000000000038
 21
-71.11539219456222
 31
6.483974233579615E+99
  0
ARC
  5
3D7
330
2DD
100
AcDbEntity
  8
0
 62
     0
100
AcDbCircle
 10
20.51641922551652
 20
-54.34091261775598
 30
6.483974233579615E+99
 40
16.94347197913375
100
AcDbArc
 50
248.5849640485708
 51
249.1287512870346
  0
LINE
  5
3D8
330
2DD
100
AcDbEntity
  8
0
 62
     0
100
AcDbLine
 10
14.47998258927325
 20
-70.17261105615194
 30
6.483974233579615E+99
 11
14.55449330350939
 21
-70.20083849001162
 31
6.483974233579615E+99
  0
LINE
  5
3D9
330
2DD
100
AcDbEntity
  8
0
 62
     0
100
AcDbLine
 10
14.55449330350939
 20
-70.20083849001162
 30
6.483974233579615E+99
 11
14.63000000000056
 21
-70.22906592285266
 31
6.483974233579615E+99
  0
ARC
  5
3DA
330
2DD
100
AcDbEntity
  8
0
 62
     0
100
AcDbCircle
 10
20.49616556162664
 20
-49.31328376790748
 30
6.483974233579615E+99
 40
16.8873214935453
100
AcDbArc
 50
248.5840599931657
 51
249.1296553424187
  0
LINE
  5
3DB
330
2DD
100
AcDbEntity
  8
0
 62
     0
100
AcDbLine
 10
14.47998258927325
 20
-65.09261105615201
 30
6.483974233579615E+99
 11
14.55449330350847
 21
-65.12083849001124
 31
6.483974233579615E+99
  0
LINE
  5
3DC
330
2DD
100
AcDbEntity
  8
0
 62
     0
100
AcDbLine
 10
14.55449330350847
 20
-65.12083849001124
 30
6.483974233579615E+99
 11
14.63000000000056
 21
-65.14906592285274
 31
6.483974233579615E+99
  0
ARC
  5
3DD
330
2DD
100
AcDbEntity
  8
0
 62
     0
100
AcDbCircle
 10
21.01643747155776
 20
-83.1191502405734
 30
6.483974233579615E+99
 40
18.34571401668807
100
AcDbArc
 50
110.372127446696
 51
110.8727282303854
  0
LINE
  5
3DE
330
2DD
100
AcDbEntity
  8
0
 62
     0
100
AcDbLine
 10
14.4799825891846
 20
-65.97738894388043
 30
6.483974233579615E+99
 11
14.40421771044293
 21
-66.00648644263833
 31
6.483974233579615E+99
  0
LINE
  5
3DF
330
2DD
100
AcDbEntity
  8
0
 62
     0
100
AcDbLine
 10
14.40421771044293
 20
-66.00648644263833
 30
6.483974233579615E+99
 11
14.33000000000038
 21
-66.03539219456229
 31
6.483974233579615E+99
  0
ARC
  5
3E0
330
2DD
100
AcDbEntity
  8
0
 62
     0
100
AcDbCircle
 10
21.04147722068228
 20
-73.02568831859185
 30
6.483974233579615E+99
 40
18.41680697539202
100
AcDbArc
 50
110.3730936678999
 51
110.8717620093339
  0
LINE
  5
3E1
330
2DD
100
AcDbEntity
  8
0
 62
     0
100
AcDbLine
 10
14.4799825891846
 20
-55.81738894388061
 30
6.483974233579615E+99
 11
14.40421777271103
 21
-55.84648641855596
 31
6.483974233579615E+99
  0
LINE
  5
3E2
330
2DD
100
AcDbEntity
  8
0
 62
     0
100
AcDbLine
 10
14.40421777271103
 20
-55.84648641855596
 30
6.483974233579615E+99
 11
14.33000000000038
 21
-55.87539219456242
 31
6.483974233579615E+99
  0
ARC
  5
3E3
330
2DD
100
AcDbEntity
  8
0
 62
     0
100
AcDbCircle
 10
20.4961667514458
 20
-44.23328069137983
 30
6.483974233579615E+99
 40
16.8873247920978
100
AcDbArc
 50
248.5840600463733
 51
249.1296552890684
  0
LINE
  5
3E4
330
2DD
100
AcDbEntity
  8
0
 62
     0
100
AcDbLine
 10
14.47998258927325
 20
-60.01261105615206
 30
6.483974233579615E+99
 11
14.55449330350984
 21
-60.04083849001176
 31
6.483974233579615E+99
  0
LINE
  5
3E5
330
2DD
100
AcDbEntity
  8
0
 62
     0
100
AcDbLine
 10
14.55449330350984
 20
-60.04083849001176
 30
6.483974233579615E+99
 11
14.63000000000056
 21
-60.06906592285282
 31
6.483974233579615E+99
  0
ARC
  5
3E6
330
2DD
100
AcDbEntity
  8
0
 62
     0
100
AcDbCircle
 10
21.04147722066318
 20
-78.10568831860904
 30
0.0
 40
18.41680697540189
100
AcDbArc
 50
110.3730936678164
 51
110.8717620092503
  0
LINE
  5
3E7
330
2DD
100
AcDbEntity
  8
0
 62
     0
100
AcDbLine
 10
14.4799825891846
 20
-60.89738894388052
 30
0.0
 11
14.40446560960572
 21
-60.92639056957318
 31
0.0
  0
LINE
  5
3E8
330
2DD
100
AcDbEntity
  8
0
 62
     0
100
AcDbLine
 10
14.40446560960572
 20
-60.92639056957318
 30
0.0
 11
14.33000000000038
 21
-60.95539219456235
 31
0.0
  0
LINE
  5
3E9
330
2DD
100
AcDbEntity
  8
0
 62
     0
100
AcDbLine
 10
16.00000000000043
 20
-51.7749999999998
 30
0.0
 11
16.00000000000043
 21
-84.37499999999969
 31
0.0
  0
LWPOLYLINE
  5
3EA
330
2DD
100
AcDbEntity
  8
0
100
AcDbPolyline
 90
        4
 70
     1
 43
0.0
 10
18.49999999999953
 20
-41.52499926630912
 10
20.0999999999999
 20
-41.52499926630912
 10
20.0999999999999
 20
-44.22499926630985
 10
18.49999999999953
 20
-44.22499926630985
  0
LWPOLYLINE
  5
3EB
330
2DD
100
AcDbEntity
  8
0
100
AcDbPolyline
 90
        4
 70
     1
 43
0.0
 10
18.49999999999953
 20
-47.02499926630911
 10
20.0999999999999
 20
-47.02499926630911
 10
20.0999999999999
 20
-49.72499926630985
 10
18.49999999999953
 20
-49.72499926630985
  0
LINE
  5
3EC
330
2DD
100
AcDbEntity
  8
0
100
AcDbLine
 10
16.00000000000039
 20
-51.7749999999998
 30
0.0
 11
17.00007431254885
 21
-51.7749999999998
 31
0.0
  0
LINE
  5
3ED
330
2DD
100
AcDbEntity
  8
0
100
AcDbLine
 10
16.00000000000043
 20
-84.37499999999969
 30
0.0
 11
17.00007431255062
 21
-84.37499999999969
 31
0.0
  0
ENDBLK
  5
3EF
330
2DD
100
AcDbEntity
  8
0
100
AcDbBlockEnd
  0
ENDSEC
  0
SECTION
  2
ENTITIES
  0
LINE
  5
5A2
330
1F
100
AcDbEntity
  8
1
100
AcDbLine
 10
72.68454962301518
 20
175.9738178928943
 30
0.0
 11
87.6845496230152
 21
175.9738178928943
 31
0.0
  0
LINE
  5
5A3
330
1F
100
AcDbEntity
  8
1
100
AcDbLine
 10
80.18454962301518
 20
168.4738178928943
 30
0.0
 11
80.18454962301518
 21
183.4738178928943
 31
0.0
  0
LINE
  5
5A4
330
1F
100
AcDbEntity
  8
1
100
AcDbLine
 10
80.18454962301484
 20
352.4738178928942
 30
0.0
 11
80.18454962301484
 21
367.4738178928941
 31
0.0
  0
LINE
  5
5A5
330
1F
100
AcDbEntity
  8
1
100
AcDbLine
 10
72.68454962301518
 20
359.9738178928942
 30
0.0
 11
87.6845496230152
 21
359.9738178928942
 31
0.0
  0
INSERT
  5
5B2
330
1F
100
AcDbEntity
  8
0
100
AcDbBlockReference
  2
A$C7A762DB8
 10
37.18455336488114
 20
0.0000065422657372
 30
0.0
  0
INSERT
  5
5B3
330
1F
100
AcDbEntity
  8
0
100
AcDbBlockReference
  2
A$C40301A48
 10
209.1845496230153
 20
354.9738178928941
 30
0.0
  0
LINE
  5
5B4
330
1F
100
AcDbEntity
  8
0
100
AcDbLine
 10
98.63454962301524
 20
204.0901010354859
 30
0.0
 11
98.63454962301524
 21
219.057534750303
 31
0.0
  0
LINE
  5
5B5
330
1F
100
AcDbEntity
  8
0
100
AcDbLine
 10
92.33454962301513
 20
219.6738178928941
 30
0.0
 11
92.33454962301513
 21
203.4738178928943
 31
0.0
  0
LINE
  5
5B6
330
1F
100
AcDbEntity
  8
0
100
AcDbLine
 10
93.88454962301523
 20
220.1738178928941
 30
0.0
 11
93.88454962301523
 21
202.9738178928943
 31
0.0
  0
LINE
  5
5B7
330
1F
100
AcDbEntity
  8
0
100
AcDbLine
 10
97.08454962301516
 20
202.9738178928943
 30
0.0
 11
97.08454962301516
 21
220.1738178928941
 31
0.0
  0
LINE
  5
5B8
330
1F
100
AcDbEntity
  8
0
100
AcDbLine
 10
90.88454962301524
 20
229.1738178928941
 30
0.0
 11
90.88454962301524
 21
193.9738178928943
 31
0.0
  0
LINE
  5
5B9
330
1F
100
AcDbEntity
  8
0
100
AcDbLine
 10
99.98454962301515
 20
192.9738178928943
 30
0.0
 11
99.98454962301515
 21
230.1738178928941
 31
0.0
  0
LINE
  5
5BA
330
1F
100
AcDbEntity
  8
0
100
AcDbLine
 10
101.184549744933
 20
230.6738177335501
 30
0.0
 11
101.184549744933
 21
185.1738177335503
 31
0.0
  0
LINE
  5
5BB
330
1F
100
AcDbEntity
  8
0
100
AcDbLine
 10
89.7845497449323
 20
230.6738177335501
 30
0.0
 11
89.7845497449323
 21
185.1738177335503
 31
0.0
  0
LINE
  5
5BC
330
1F
100
AcDbEntity
  8
0
100
AcDbLine
 10
100.284549623015
 20
230.6738177335501
 30
0.0
 11
100.284549623015
 21
185.1738177335503
 31
0.0
  0
LINE
  5
5BD
330
1F
100
AcDbEntity
  8
0
100
AcDbLine
 10
74.78454974493229
 20
239.5738177335501
 30
0.0
 11
74.78454974493229
 21
185.1738177335503
 31
0.0
  0
LINE
  5
5BE
330
1F
100
AcDbEntity
  8
0
100
AcDbLine
 10
73.88454962301421
 20
185.9738178928943
 30
0.0
 11
73.88454962301421
 21
226.6138178928938
 31
0.0
  0
LINE
  5
5BF
330
1F
100
AcDbEntity
  8
0
100
AcDbLine
 10
65.28454962301418
 20
226.6138178928938
 30
0.0
 11
65.28454962301418
 21
185.9738178928943
 31
0.0
  0
LINE
  5
5C0
330
1F
100
AcDbEntity
  8
0
100
AcDbLine
 10
64.18454974493204
 20
271.4738177335504
 30
0.0
 11
64.18454974493204
 21
185.1738177335503
 31
0.0
  0
LINE
  5
5C1
330
1F
100
AcDbEntity
  8
0
100
AcDbLine
 10
65.28454962301509
 20
185.1738177335503
 30
0.0
 11
65.28454962301509
 21
271.4738177335504
 31
0.0
  0
LINE
  5
5C2
330
1F
100
AcDbEntity
  8
0
100
AcDbLine
 10
56.18454962301519
 20
201.6069983178072
 30
0.0
 11
56.18454962301519
 21
354.9476319713251
 31
0.0
  0
LINE
  5
5C3
330
1F
100
AcDbEntity
  8
0
100
AcDbLine
 10
57.18454962301507
 20
354.9738178928941
 30
0.0
 11
57.18454962301414
 21
202.3555983529322
 31
0.0
  0
LINE
  5
5C4
330
1F
100
AcDbEntity
  8
0
100
AcDbLine
 10
59.18454962301519
 20
352.9738178928941
 30
0.0
 11
59.18454962301405
 21
203.5595139103983
 31
0.0
  0
LINE
  5
5C5
330
1F
100
AcDbEntity
  8
0
100
AcDbLine
 10
56.18454962301519
 20
201.606998317808
 30
0.0
 11
56.18454962301519
 21
354.4738178928942
 31
0.0
  0
LINE
  5
5C6
330
1F
100
AcDbEntity
  8
0
100
AcDbLine
 10
59.28454962301419
 20
352.7738178928942
 30
0.0
 11
59.28454962301419
 21
203.6659176811931
 31
0.0
  0
LINE
  5
5C7
330
1F
100
AcDbEntity
  8
0
100
AcDbLine
 10
109.1845496230151
 20
363.9738178928942
 30
0.0
 11
109.1845496230151
 21
171.9738178928943
 31
0.0
  0
LINE
  5
5C8
330
1F
100
AcDbEntity
  8
0
100
AcDbLine
 10
107.184549623015
 20
182.9738178928939
 30
0.0
 11
107.184549623015
 21
352.9738178928941
 31
0.0
  0
LINE
  5
5C9
330
1F
100
AcDbEntity
  8
0
100
AcDbLine
 10
109.1845496230151
 20
180.9738178928943
 30
0.0
 11
109.1845496230151
 21
354.9738178928941
 31
0.0
  0
LINE
  5
5CA
330
1F
100
AcDbEntity
  8
0
100
AcDbLine
 10
106.8845496230142
 20
352.7738178928942
 30
0.0
 11
106.8845496230142
 21
183.1738178928939
 31
0.0
  0
LINE
  5
5CB
330
1F
100
AcDbEntity
  8
0
100
AcDbLine
 10
37.18454962301517
 20
363.5283144337273
 30
0.0
 11
37.18454962301517
 21
172.419321352061
 31
0.0
  0
ARC
  5
5CC
330
1F
100
AcDbEntity
  8
0
100
AcDbCircle
 10
80.18454962301518
 20
175.9738178928943
 30
0.0
 40
5.5
100
AcDbArc
 50
0.0
 51
65.38002267134327
  0
LINE
  5
5CD
330
1F
100
AcDbEntity
  8
0
100
AcDbLine
 10
82.2845496230151
 20
170.9738178928943
 30
0.0
 11
85.68454962301414
 21
170.9738178928943
 31
0.0
  0
LINE
  5
5CE
330
1F
100
AcDbEntity
  8
0
100
AcDbLine
 10
57.18454962301414
 20
180.9738178928943
 30
0.0
 11
109.1845496230151
 21
180.9738178928943
 31
0.0
  0
LINE
  5
5CF
330
1F
100
AcDbEntity
  8
0
100
AcDbLine
 10
107.184549623015
 20
182.9738178928939
 30
0.0
 11
62.1845496230103
 21
182.9738178928939
 31
0.0
  0
LINE
  5
5D0
330
1F
100
AcDbEntity
  8
0
100
AcDbLine
 10
62.28454962301009
 20
183.1738178928939
 30
0.0
 11
106.8845496230142
 21
183.1738178928939
 31
0.0
  0
LINE
  5
5D1
330
1F
100
AcDbEntity
  8
0
100
AcDbLine
 10
37.6714611488611
 20
181.432414254113
 30
0.0
 11
55.18454962301518
 21
180.9738178928943
 31
0.0
  0
LINE
  5
5D2
330
1F
100
AcDbEntity
  8
0
100
AcDbLine
 10
55.18454962301518
 20
170.9738178928943
 30
0.0
 11
38.15837267470692
 21
171.4196640270859
 31
0.0
  0
ARC
  5
5D3
330
1F
100
AcDbEntity
  8
0
100
AcDbCircle
 10
38.18454962301519
 20
172.419321352061
 30
0.0
 40
1.0
100
AcDbArc
 50
180.0
 51
268.5000000000038
  0
ARC
  5
5D4
330
1F
100
AcDbEntity
  8
0
100
AcDbCircle
 10
37.68454962301518
 20
181.9322429166009
 30
0.0
 40
0.5
100
AcDbArc
 50
180.0
 51
268.5000000000038
  0
LINE
  5
5D5
330
1F
100
AcDbEntity
  8
0
100
AcDbLine
 10
78.08454962301515
 20
175.9738178928943
 30
0.0
 11
78.08454962301515
 21
170.9738178928943
 31
0.0
  0
LINE
  5
5D6
330
1F
100
AcDbEntity
  8
0
100
AcDbLine
 10
82.2845496230151
 20
175.9738178928943
 30
0.0
 11
82.2845496230151
 21
170.9738178928943
 31
0.0
  0
LINE
  5
5D7
330
1F
100
AcDbEntity
  8
0
100
AcDbLine
 10
74.68454962301518
 20
175.9738178928943
 30
0.0
 11
74.68454962301518
 21
170.9738178928943
 31
0.0
  0
LINE
  5
5D8
330
1F
100
AcDbEntity
  8
0
100
AcDbLine
 10
55.18454962301518
 20
170.9738178928943
 30
0.0
 11
78.08454962301515
 21
170.9738178928943
 31
0.0
  0
LINE
  5
5D9
330
1F
100
AcDbEntity
  8
0
100
AcDbLine
 10
55.18454962301518
 20
170.9738178928943
 30
0.0
 11
77.93454962301519
 21
170.9738178928943
 31
0.0
  0
LINE
  5
5DA
330
1F
100
AcDbEntity
  8
0
100
AcDbLine
 10
74.78454974493229
 20
185.1738177335503
 30
0.0
 11
64.18454974493204
 21
185.1738177335503
 31
0.0
  0
LINE
  5
5DB
330
1F
100
AcDbEntity
  8
0
100
AcDbLine
 10
65.28454962301418
 20
185.9738178928943
 30
0.0
 11
73.88454962301421
 21
185.9738178928943
 31
0.0
  0
LINE
  5
5DC
330
1F
100
AcDbEntity
  8
0
100
AcDbLine
 10
59.18454962301109
 20
197.9738178928943
 30
0.0
 11
59.1845496230103
 21
181.0785615791711
 31
0.0
  0
LINE
  5
5DD
330
1F
100
AcDbEntity
  8
0
100
AcDbLine
 10
60.1845496230111
 20
197.9738178928943
 30
0.0
 11
60.1845496230103
 21
180.9738178928943
 31
0.0
  0
LINE
  5
5DE
330
1F
100
AcDbEntity
  8
0
100
AcDbLine
 10
62.18454962301098
 20
197.9738178928943
 30
0.0
 11
62.1845496230103
 21
182.9738178928939
 31
0.0
  0
LINE
  5
5DF
330
1F
100
AcDbEntity
  8
0
100
AcDbLine
 10
59.18454962301109
 20
197.9738178928943
 30
0.0
 11
59.1845496230103
 21
181.4738178928943
 31
0.0
  0
LINE
  5
5E0
330
1F
100
AcDbEntity
  8
0
100
AcDbLine
 10
62.2845496230111
 20
197.9738178928943
 30
0.0
 11
62.28454962301009
 21
183.1738178928939
 31
0.0
  0
LINE
  5
5E1
330
1F
100
AcDbEntity
  8
0
100
AcDbLine
 10
55.18454962301518
 20
180.9738178928943
 30
0.0
 11
59.1845496230103
 21
181.0785615791711
 31
0.0
  0
LINE
  5
5E2
330
1F
100
AcDbEntity
  8
0
100
AcDbLine
 10
55.18454962301518
 20
180.9738178928943
 30
0.0
 11
59.18454962301109
 21
181.0785615791711
 31
0.0
  0
CIRCLE
  5
5E3
330
1F
100
AcDbEntity
  8
0
100
AcDbCircle
 10
55.18454962301518
 20
185.9738178928943
 30
0.0
 40
1.6
  0
CIRCLE
  5
5E4
330
1F
100
AcDbEntity
  8
0
100
AcDbCircle
 10
55.18454962301518
 20
185.9738178928943
 30
0.0
 40
2.0
  0
LINE
  5
5E5
330
1F
100
AcDbEntity
  8
0
100
AcDbLine
 10
57.18454962301269
 20
181.0261897360324
 30
0.0
 11
57.18454962301414
 21
180.9738178928943
 31
0.0
  0
LINE
  5
5E6
330
1F
100
AcDbEntity
  8
0
100
AcDbLine
 10
60.1845496230103
 20
181.4738178928943
 30
0.0
 11
59.1845496230103
 21
181.4738178928939
 31
0.0
  0
ARC
  5
5E7
330
1F
100
AcDbEntity
  8
0
100
AcDbCircle
 10
55.48454962301513
 20
197.9738178928943
 30
0.0
 40
3.699999999995998
100
AcDbArc
 50
0.0
 51
79.09453000325759
  0
ARC
  5
5E8
330
1F
100
AcDbEntity
  8
0
100
AcDbCircle
 10
55.48454962301513
 20
197.9738178928943
 30
0.0
 40
4.699999999995998
100
AcDbArc
 50
0.0
 51
68.79523363710852
  0
ARC
  5
5E9
330
1F
100
AcDbEntity
  8
0
100
AcDbCircle
 10
55.48454962301513
 20
197.9738178928943
 30
0.0
 40
3.699999999995998
100
AcDbArc
 50
0.0
 51
79.09453000325759
  0
LINE
  5
5EA
330
1F
100
AcDbEntity
  8
0
100
AcDbLine
 10
53.53454962301508
 20
203.9738178928943
 30
0.0
 11
53.53454962301508
 21
205.3238178928939
 31
0.0
  0
LINE
  5
5EB
330
1F
100
AcDbEntity
  8
0
100
AcDbLine
 10
53.83454962301424
 20
203.9738178928943
 30
0.0
 11
53.83454962301424
 21
205.3238178928939
 31
0.0
  0
ARC
  5
5EC
330
1F
100
AcDbEntity
  8
0
100
AcDbCircle
 10
53.68454962301519
 20
205.3238178928939
 30
0.0
 40
0.15
100
AcDbArc
 50
0.0
 51
180.0
  0
ARC
  5
5ED
330
1F
100
AcDbEntity
  8
0
100
AcDbCircle
 10
55.0345496230151
 20
203.8238178928938
 30
0.0
 40
0.15
100
AcDbArc
 50
270.0
 51
90.0
  0
LINE
  5
5EE
330
1F
100
AcDbEntity
  8
0
100
AcDbLine
 10
53.83454962301424
 20
203.9738178928943
 30
0.0
 11
55.0345496230151
 21
203.9738178928943
 31
0.0
  0
LINE
  5
5EF
330
1F
100
AcDbEntity
  8
0
100
AcDbLine
 10
52.73454962301514
 20
203.3238178928939
 30
0.0
 11
54.63454962301421
 21
203.3238178928939
 31
0.0
  0
LINE
  5
5F0
330
1F
100
AcDbEntity
  8
0
100
AcDbLine
 10
52.73454962301514
 20
203.0238178928941
 30
0.0
 11
54.63454962301421
 21
203.0238178928941
 31
0.0
  0
LINE
  5
5F1
330
1F
100
AcDbEntity
  8
0
100
AcDbLine
 10
53.13454962301523
 20
202.673817892894
 30
0.0
 11
54.23454962301423
 21
202.673817892894
 31
0.0
  0
LINE
  5
5F2
330
1F
100
AcDbEntity
  8
0
100
AcDbLine
 10
53.13454962301523
 20
202.3738178928939
 30
0.0
 11
54.23454962301423
 21
202.3738178928939
 31
0.0
  0
ARC
  5
5F3
330
1F
100
AcDbEntity
  8
0
100
AcDbCircle
 10
53.13454962301523
 20
202.5238178928939
 30
0.0
 40
0.15
100
AcDbArc
 50
90.0
 51
270.0
  0
ARC
  5
5F4
330
1F
100
AcDbEntity
  8
0
100
AcDbCircle
 10
54.23454962301423
 20
202.5238178928939
 30
0.0
 40
0.15
100
AcDbArc
 50
270.0
 51
90.0
  0
ARC
  5
5F5
330
1F
100
AcDbEntity
  8
0
100
AcDbCircle
 10
52.73454962301514
 20
203.1738178928941
 30
0.0
 40
0.15
100
AcDbArc
 50
90.0
 51
270.0
  0
ARC
  5
5F6
330
1F
100
AcDbEntity
  8
0
100
AcDbCircle
 10
54.63454962301421
 20
203.1738178928941
 30
0.0
 40
0.15
100
AcDbArc
 50
270.0
 51
90.0
  0
ARC
  5
5F7
330
1F
100
AcDbEntity
  8
0
100
AcDbCircle
 10
52.33454962301514
 20
203.8238178928938
 30
0.0
 40
0.15
100
AcDbArc
 50
90.0
 51
270.0
  0
CIRCLE
  5
5F8
330
1F
100
AcDbEntity
  8
0
100
AcDbCircle
 10
53.68454962301519
 20
203.9738178928943
 30
0.0
 40
2.149999999999999
  0
CIRCLE
  5
5F9
330
1F
100
AcDbEntity
  8
0
100
AcDbCircle
 10
53.68454962301519
 20
203.9738178928943
 30
0.0
 40
1.85
  0
LINE
  5
5FA
330
1F
100
AcDbEntity
  8
0
100
AcDbLine
 10
52.33454962301514
 20
203.6738178928941
 30
0.0
 11
55.0345496230151
 21
203.6738178928941
 31
0.0
  0
LINE
  5
5FB
330
1F
100
AcDbEntity
  8
0
100
AcDbLine
 10
52.33454962301514
 20
203.9738178928943
 30
0.0
 11
53.53454962301508
 21
203.9738178928943
 31
0.0
  0
CIRCLE
  5
5FC
330
1F
100
AcDbEntity
  8
0
100
AcDbCircle
 10
55.18454962301518
 20
195.9738178928943
 30
0.0
 40
2.0
  0
CIRCLE
  5
5FD
330
1F
100
AcDbEntity
  8
0
100
AcDbCircle
 10
55.18454962301518
 20
195.9738178928943
 30
0.0
 40
1.6
  0
ARC
  5
5FE
330
1F
100
AcDbEntity
  8
0
100
AcDbCircle
 10
55.48454962301513
 20
197.9738178928943
 30
0.0
 40
6.699999999996
100
AcDbArc
 50
0.0
 51
56.47925960398385
  0
ARC
  5
5FF
330
1F
100
AcDbEntity
  8
0
100
AcDbCircle
 10
55.38454962301421
 20
197.9738178928943
 30
0.0
 40
6.899999999996
100
AcDbArc
 50
0.0
 51
55.58261128953329
  0
CIRCLE
  5
600
330
1F
100
AcDbEntity
  8
0
100
AcDbCircle
 10
69.28454962301419
 20
193.5938178928939
 30
0.0
 40
2.0
  0
ARC
  5
601
330
1F
100
AcDbEntity
  8
0
100
AcDbCircle
 10
80.18454962301518
 20
175.9738178928943
 30
0.0
 40
5.5
100
AcDbArc
 50
114.6199773286567
 51
179.9999999999934
  0
CIRCLE
  5
602
330
1F
100
AcDbEntity
  8
0
100
AcDbCircle
 10
69.28454962301419
 20
188.8438178928941
 30
0.0
 40
1.0
  0
CIRCLE
  5
603
330
1F
100
AcDbEntity
  8
0
100
AcDbCircle
 10
69.28454962301419
 20
188.8438178928941
 30
0.0
 40
1.5
  0
ARC
  5
604
330
1F
100
AcDbEntity
  8
0
100
AcDbCircle
 10
80.18454962301518
 20
175.9738178928943
 30
0.0
 40
2.1
100
AcDbArc
 50
0.0
 51
180.0
  0
CIRCLE
  5
605
330
1F
100
AcDbEntity
  8
0
100
AcDbCircle
 10
69.28454962301419
 20
203.7538178928949
 30
0.0
 40
2.0
  0
CIRCLE
  5
606
330
1F
100
AcDbEntity
  8
0
100
AcDbCircle
 10
69.28454962301419
 20
203.7538178928949
 30
0.0
 40
2.0
  0
CIRCLE
  5
607
330
1F
100
AcDbEntity
  8
0
100
AcDbCircle
 10
69.28454962301419
 20
198.6738178928941
 30
0.0
 40
2.0
  0
CIRCLE
  5
608
330
1F
100
AcDbEntity
  8
0
100
AcDbCircle
 10
69.28454962301419
 20
198.6738178928941
 30
0.0
 40
2.0
  0
CIRCLE
  5
609
330
1F
100
AcDbEntity
  8
0
100
AcDbCircle
 10
69.28454962301419
 20
208.8338178928941
 30
0.0
 40
2.0
  0
LINE
  5
60A
330
1F
100
AcDbEntity
  8
0
100
AcDbLine
 10
104.6845496230139
 20
164.4738178928943
 30
0.0
 11
104.6845496230139
 21
180.9738178928943
 31
0.0
  0
LINE
  5
60B
330
1F
100
AcDbEntity
  8
0
100
AcDbLine
 10
85.68454962301519
 20
175.9738178928943
 30
0.0
 11
85.68454962301519
 21
170.9738178928943
 31
0.0
  0
LINE
  5
60C
330
1F
100
AcDbEntity
  8
0
100
AcDbLine
 10
85.68454962301414
 20
164.4738178928943
 30
0.0
 11
85.68454962301414
 21
180.9738178928943
 31
0.0
  0
ARC
  5
60D
330
1F
100
AcDbEntity
  8
0
100
AcDbCircle
 10
95.18454962301417
 20
173.9738178928943
 30
0.0
 40
7.5
100
AcDbArc
 50
180.0
 51
0.0
  0
LINE
  5
60E
330
1F
100
AcDbEntity
  8
0
100
AcDbLine
 10
104.6845496230139
 20
164.4738178928943
 30
0.0
 11
85.68454962301414
 21
164.4738178928943
 31
0.0
  0
ARC
  5
60F
330
1F
100
AcDbEntity
  8
0
100
AcDbCircle
 10
95.18454962301417
 20
173.9738178928943
 30
0.0
 40
9.5
100
AcDbArc
 50
186.0423284190578
 51
353.9576715809421
  0
LINE
  5
610
330
1F
100
AcDbEntity
  8
0
100
AcDbLine
 10
87.75151524935507
 20
172.9738178928943
 30
0.0
 11
85.73732780916918
 21
172.9738178928943
 31
0.0
  0
LINE
  5
611
330
1F
100
AcDbEntity
  8
0
100
AcDbLine
 10
104.6845496230139
 20
170.9738178928943
 30
0.0
 11
108.1845496230151
 21
170.9738178928943
 31
0.0
  0
LINE
  5
612
330
1F
100
AcDbEntity
  8
0
100
AcDbLine
 10
104.6317714368599
 20
172.9738178928943
 30
0.0
 11
102.6175839966739
 21
172.9738178928943
 31
0.0
  0
ARC
  5
613
330
1F
100
AcDbEntity
  8
0
100
AcDbCircle
 10
108.1845496230151
 20
171.9738178928943
 30
0.0
 40
1.0
100
AcDbArc
 50
270.0
 51
0.0
  0
LINE
  5
614
330
1F
100
AcDbEntity
  8
0
100
AcDbLine
 10
100.2845496230138
 20
191.4738178928943
 30
0.0
 11
93.78454962301418
 21
191.4738178928943
 31
0.0
  0
LINE
  5
615
330
1F
100
AcDbEntity
  8
0
100
AcDbLine
 10
91.6845496230152
 20
192.9738178928943
 30
0.0
 11
99.98454962301515
 21
192.9738178928943
 31
0.0
  0
LINE
  5
616
330
1F
100
AcDbEntity
  8
0
100
AcDbLine
 10
90.88454962301524
 20
193.9738178928943
 30
0.0
 11
99.98454962301515
 21
193.9738178928943
 31
0.0
  0
LINE
  5
617
330
1F
100
AcDbEntity
  8
0
100
AcDbLine
 10
93.78454962301418
 20
185.9738178928943
 30
0.0
 11
100.2845496230138
 21
185.9738178928943
 31
0.0
  0
LINE
  5
618
330
1F
100
AcDbEntity
  8
0
100
AcDbLine
 10
101.184549744933
 20
185.1738177335503
 30
0.0
 11
89.7845497449323
 21
185.1738177335503
 31
0.0
  0
LINE
  5
619
330
1F
100
AcDbEntity
  8
0
100
AcDbLine
 10
87.68454962301404
 20
180.9738178928943
 30
0.0
 11
87.68454962301404
 21
173.9738178928943
 31
0.0
  0
CIRCLE
  5
61A
330
1F
100
AcDbEntity
  8
0
100
AcDbCircle
 10
96.85454962301399
 20
189.9738178928943
 30
0.0
 40
0.32
  0
LINE
  5
61B
330
1F
100
AcDbEntity
  8
0
100
AcDbLine
 10
94.78454962301418
 20
189.4738178928943
 30
0.0
 11
93.78454962301418
 21
189.4738178928943
 31
0.0
  0
CIRCLE
  5
61C
330
1F
100
AcDbEntity
  8
0
100
AcDbCircle
 10
96.85454962301399
 20
187.4738178928939
 30
0.0
 40
0.32
  0
LINE
  5
61D
330
1F
100
AcDbEntity
  8
0
100
AcDbLine
 10
93.78454962301418
 20
187.9738178928943
 30
0.0
 11
94.78454962301418
 21
187.9738178928943
 31
0.0
  0
LINE
  5
61E
330
1F
100
AcDbEntity
  8
0
100
AcDbLine
 10
93.78454962301418
 20
185.9738178928943
 30
0.0
 11
94.78454962301418
 21
185.9738178928943
 31
0.0
  0
LINE
  5
61F
330
1F
100
AcDbEntity
  8
0
100
AcDbLine
 10
94.78454962301418
 20
187.9738178928943
 30
0.0
 11
94.78454962301418
 21
189.4738178928943
 31
0.0
  0
LINE
  5
620
330
1F
100
AcDbEntity
  8
0
100
AcDbLine
 10
93.78454962301418
 20
189.4738178928943
 30
0.0
 11
93.78454962301418
 21
187.9738178928943
 31
0.0
  0
LINE
  5
621
330
1F
100
AcDbEntity
  8
0
100
AcDbLine
 10
94.78454962301418
 20
185.9738178928943
 30
0.0
 11
94.78454962301418
 21
191.4738178928943
 31
0.0
  0
LINE
  5
622
330
1F
100
AcDbEntity
  8
0
100
AcDbLine
 10
93.78454962301418
 20
191.4738178928943
 30
0.0
 11
93.78454962301418
 21
185.9738178928943
 31
0.0
  0
ARC
  5
623
330
1F
100
AcDbEntity
  8
0
100
AcDbCircle
 10
91.6845496230152
 20
193.4738178928943
 30
0.0
 40
0.5
100
AcDbArc
 50
180.0
 51
270.0
  0
LINE
  5
624
330
1F
100
AcDbEntity
  8
0
100
AcDbLine
 10
91.1845496230152
 20
193.9738178928943
 30
0.0
 11
91.1845496230152
 21
193.4738178928943
 31
0.0
  0
ARC
  5
625
330
1F
100
AcDbEntity
  8
0
100
AcDbCircle
 10
96.63454962301523
 20
204.0901010354859
 30
0.0
 40
2.0
100
AcDbArc
 50
285.0000000000006
 51
0.0
  0
LINE
  5
626
330
1F
100
AcDbEntity
  8
0
100
AcDbLine
 10
98.63454962301524
 20
197.9738178928943
 30
0.0
 11
98.63454962301524
 21
200.3738178928939
 31
0.0
  0
ARC
  5
627
330
1F
100
AcDbEntity
  8
0
100
AcDbCircle
 10
94.33454962301516
 20
203.4738178928943
 30
0.0
 40
2.0
100
AcDbArc
 50
180.0
 51
285.0000000000006
  0
LINE
  5
628
330
1F
100
AcDbEntity
  8
0
100
AcDbLine
 10
92.33454962301513
 20
200.3738178928939
 30
0.0
 11
92.33454962301513
 21
197.9738178928943
 31
0.0
  0
LINE
  5
629
330
1F
100
AcDbEntity
  8
0
100
AcDbLine
 10
94.85218771322022
 20
201.5419662403163
 30
0.0
 11
97.15218771322021
 21
202.1582493829071
 31
0.0
  0
LINE
  5
62A
330
1F
100
AcDbEntity
  8
0
100
AcDbLine
 10
93.88454962301523
 20
202.9738178928943
 30
0.0
 11
97.08454962301516
 21
202.9738178928943
 31
0.0
  0
LINE
  5
62B
330
1F
100
AcDbEntity
  8
0
100
AcDbLine
 10
92.33454962301513
 20
200.3738178928939
 30
0.0
 11
98.63454962301524
 21
200.3738178928939
 31
0.0
  0
LINE
  5
62C
330
1F
100
AcDbEntity
  8
0
100
AcDbLine
 10
92.33454962301513
 20
198.4738178928943
 30
0.0
 11
98.63454962301524
 21
198.4738178928943
 31
0.0
  0
LINE
  5
62D
330
1F
100
AcDbEntity
  8
0
100
AcDbLine
 10
92.33454962301513
 20
197.9738178928943
 30
0.0
 11
98.63454962301524
 21
197.9738178928943
 31
0.0
  0
CIRCLE
  5
62E
330
1F
100
AcDbEntity
  8
0
100
AcDbCircle
 10
95.48454962301523
 20
195.9438178928943
 30
0.0
 40
1.399999999999999
  0
LINE
  5
62F
330
1F
100
AcDbEntity
  8
0
100
AcDbLine
 10
102.6845496230138
 20
180.9738178928943
 30
0.0
 11
102.6845496230138
 21
173.9738178928943
 31
0.0
  0
LINE
  5
630
330
1F
100
AcDbEntity
  8
0
100
AcDbLine
 10
100.2845496230138
 20
185.9738178928943
 30
0.0
 11
100.2845496230138
 21
191.4738178928943
 31
0.0
  0
LINE
  5
631
330
1F
100
AcDbEntity
  8
0
100
AcDbLine
 10
99.98454962301515
 20
210.3038178928954
 30
0.0
 11
100.284549623015
 21
210.3038178928954
 31
0.0
  0
LINE
  5
632
330
1F
100
AcDbEntity
  8
0
100
AcDbLine
 10
99.98454962301515
 20
209.0338178928953
 30
0.0
 11
100.284549623015
 21
209.0338178928953
 31
0.0
  0
LINE
  5
633
330
1F
100
AcDbEntity
  8
0
100
AcDbLine
 10
99.98454962301515
 20
207.763817892895
 30
0.0
 11
100.284549623015
 21
207.763817892895
 31
0.0
  0
LINE
  5
634
330
1F
100
AcDbEntity
  8
0
100
AcDbLine
 10
99.98454962301515
 20
207.763817892895
 30
0.0
 11
100.284549623015
 21
207.763817892895
 31
0.0
  0
LINE
  5
635
330
1F
100
AcDbEntity
  8
0
100
AcDbLine
 10
99.98454962301515
 20
206.493817892895
 30
0.0
 11
100.284549623015
 21
206.493817892895
 31
0.0
  0
LINE
  5
636
330
1F
100
AcDbEntity
  8
0
100
AcDbLine
 10
99.98454962301515
 20
205.2238178928948
 30
0.0
 11
100.284549623015
 21
205.2238178928948
 31
0.0
  0
LINE
  5
637
330
1F
100
AcDbEntity
  8
0
100
AcDbLine
 10
99.98454962301515
 20
203.9538178928952
 30
0.0
 11
100.284549623015
 21
203.9538178928952
 31
0.0
  0
LINE
  5
638
330
1F
100
AcDbEntity
  8
0
100
AcDbLine
 10
99.98454962301515
 20
200.3738178928939
 30
0.0
 11
100.284549623015
 21
200.3738178928939
 31
0.0
  0
ARC
  5
639
330
1F
100
AcDbEntity
  8
0
100
AcDbCircle
 10
99.98454962301515
 20
193.2738178928941
 30
0.0
 40
0.3
100
AcDbArc
 50
270.0
 51
0.0
  0
LINE
  5
63A
330
1F
100
AcDbEntity
  8
0
100
AcDbLine
 10
100.284549623015
 20
200.3738178928939
 30
0.0
 11
100.284549623015
 21
193.2738178928941
 31
0.0
  0
ARC
  5
63B
330
1F
100
AcDbEntity
  8
0
100
AcDbCircle
 10
80.18454962301518
 20
359.9738178928942
 30
0.0
 40
5.5
100
AcDbArc
 50
294.6199773286567
 51
0.0
  0
LINE
  5
63C
330
1F
100
AcDbEntity
  8
0
100
AcDbLine
 10
55.18454962301518
 20
364.9738178928942
 30
0.0
 11
108.1845496230151
 21
364.9738178928942
 31
0.0
  0
LINE
  5
63D
330
1F
100
AcDbEntity
  8
0
100
AcDbLine
 10
57.18454962301507
 20
354.9738178928941
 30
0.0
 11
109.1845496230151
 21
354.9738178928941
 31
0.0
  0
LINE
  5
63E
330
1F
100
AcDbEntity
  8
0
100
AcDbLine
 10
107.184549623015
 20
352.9738178928941
 30
0.0
 11
59.18454962301519
 21
352.9738178928941
 31
0.0
  0
LINE
  5
63F
330
1F
100
AcDbEntity
  8
0
100
AcDbLine
 10
106.8845496230142
 20
352.7738178928942
 30
0.0
 11
59.28454962301419
 21
352.7738178928942
 31
0.0
  0
LINE
  5
640
330
1F
100
AcDbEntity
  8
0
100
AcDbLine
 10
55.18454962301518
 20
364.9738178928942
 30
0.0
 11
108.1845496230151
 21
364.9738178928942
 31
0.0
  0
CIRCLE
  5
641
330
1F
100
AcDbEntity
  8
0
100
AcDbCircle
 10
80.18454962301518
 20
359.9738178928942
 30
0.0
 40
2.1
  0
LINE
  5
642
330
1F
100
AcDbEntity
  8
0
100
AcDbLine
 10
74.68454962301518
 20
359.9738178928942
 30
0.0
 11
74.68454962301518
 21
364.9738178928942
 31
0.0
  0
LINE
  5
643
330
1F
100
AcDbEntity
  8
0
100
AcDbLine
 10
76.1295496230142
 20
301.1338178928941
 30
0.0
 11
76.1295496230142
 21
276.9738178928943
 31
0.0
  0
LINE
  5
644
330
1F
100
AcDbEntity
  8
0
100
AcDbLine
 10
76.58454974493213
 20
302.17381773355
 30
0.0
 11
76.58454974493213
 21
275.9738177335504
 31
0.0
  0
LINE
  5
645
330
1F
100
AcDbEntity
  8
0
100
AcDbLine
 10
67.78454962301418
 20
301.1338178928941
 30
0.0
 11
67.78454962301418
 21
276.9738178928943
 31
0.0
  0
LINE
  5
646
330
1F
100
AcDbEntity
  8
0
100
AcDbLine
 10
74.76954962301419
 20
301.1338178928941
 30
0.0
 11
74.76954962301419
 21
276.9738178928943
 31
0.0
  0
LINE
  5
647
330
1F
100
AcDbEntity
  8
0
100
AcDbLine
 10
66.78454962301419
 20
301.1338178928941
 30
0.0
 11
66.78454962301419
 21
276.9738178928943
 31
0.0
  0
LINE
  5
648
330
1F
100
AcDbEntity
  8
0
100
AcDbLine
 10
64.18454974493204
 20
302.17381773355
 30
0.0
 11
64.18454974493204
 21
275.9738177335504
 31
0.0
  0
LINE
  5
649
330
1F
100
AcDbEntity
  8
0
100
AcDbLine
 10
65.28454962301509
 20
275.9738177335504
 30
0.0
 11
65.28454962301509
 21
302.17381773355
 31
0.0
  0
LINE
  5
64A
330
1F
100
AcDbEntity
  8
0
100
AcDbLine
 10
72.28454962301419
 20
252.5438178928939
 30
0.0
 11
72.28454962301419
 21
247.5438178928941
 31
0.0
  0
LINE
  5
64B
330
1F
100
AcDbEntity
  8
0
100
AcDbLine
 10
67.28454962301419
 20
251.7538178928941
 30
0.0
 11
67.28454962301419
 21
248.3338178928941
 31
0.0
  0
LINE
  5
64C
330
1F
100
AcDbEntity
  8
0
100
AcDbLine
 10
74.78454974493229
 20
256.5738177335503
 30
0.0
 11
74.78454974493229
 21
243.1738177335501
 31
0.0
  0
LINE
  5
64D
330
1F
100
AcDbEntity
  8
0
100
AcDbLine
 10
73.78454962301418
 20
234.6138178928939
 30
0.0
 11
73.78454962301418
 21
265.1138178928939
 31
0.0
  0
LINE
  5
64E
330
1F
100
AcDbEntity
  8
0
100
AcDbLine
 10
65.28454962301418
 20
270.4738178928943
 30
0.0
 11
65.28454962301418
 21
229.6138178928941
 31
0.0
  0
ARC
  5
64F
330
1F
100
AcDbEntity
  8
0
100
AcDbCircle
 10
69.28454962301419
 20
238.6138178928939
 30
0.0
 40
2.9
100
AcDbArc
 50
133.6028189726986
 51
226.3971810273013
  0
LINE
  5
650
330
1F
100
AcDbEntity
  8
0
100
AcDbLine
 10
65.28454962301418
 20
229.6138178928941
 30
0.0
 11
72.28454962301419
 21
229.6138178928941
 31
0.0
  0
LINE
  5
651
330
1F
100
AcDbEntity
  8
0
100
AcDbLine
 10
65.28454962301418
 20
229.6138178928941
 30
0.0
 11
72.28454962301419
 21
229.6138178928941
 31
0.0
  0
LINE
  5
652
330
1F
100
AcDbEntity
  8
0
100
AcDbLine
 10
73.88454962301421
 20
226.6138178928938
 30
0.0
 11
65.28454962301418
 21
226.6138178928938
 31
0.0
  0
ARC
  5
653
330
1F
100
AcDbEntity
  8
0
100
AcDbCircle
 10
69.28454962301419
 20
246.2338178928943
 30
0.0
 40
2.9
100
AcDbArc
 50
133.6028189726986
 51
226.3971810273013
  0
LINE
  5
654
330
1F
100
AcDbEntity
  8
0
100
AcDbLine
 10
65.28454962301418
 20
234.8538178928941
 30
0.0
 11
65.28454962301418
 21
229.6138178928941
 31
0.0
  0
LINE
  5
655
330
1F
100
AcDbEntity
  8
0
100
AcDbLine
 10
72.28454962301419
 20
229.6138178928941
 30
0.0
 11
72.28454962301419
 21
234.6138178928939
 31
0.0
  0
LINE
  5
656
330
1F
100
AcDbEntity
  8
0
100
AcDbLine
 10
72.28454962301419
 20
229.6138178928941
 30
0.0
 11
72.28454962301419
 21
234.8538178928941
 31
0.0
  0
CIRCLE
  5
657
330
1F
100
AcDbEntity
  8
0
100
AcDbCircle
 10
69.28454962301419
 20
223.743817892895
 30
0.0
 40
1.0
  0
CIRCLE
  5
658
330
1F
100
AcDbEntity
  8
0
100
AcDbCircle
 10
69.28454962301419
 20
223.743817892895
 30
0.0
 40
1.5
  0
CIRCLE
  5
659
330
1F
100
AcDbEntity
  8
0
100
AcDbCircle
 10
69.28454962301419
 20
213.9138178928939
 30
0.0
 40
2.0
  0
CIRCLE
  5
65A
330
1F
100
AcDbEntity
  8
0
100
AcDbCircle
 10
69.28454962301419
 20
213.9138178928939
 30
0.0
 40
2.0
  0
CIRCLE
  5
65B
330
1F
100
AcDbEntity
  8
0
100
AcDbCircle
 10
69.28454962301419
 20
218.993817892895
 30
0.0
 40
2.0
  0
LINE
  5
65C
330
1F
100
AcDbEntity
  8
0
100
AcDbLine
 10
74.78454974493229
 20
243.1738177335501
 30
0.0
 11
76.38454974493196
 21
243.1738177335501
 31
0.0
  0
LINE
  5
65D
330
1F
100
AcDbEntity
  8
0
100
AcDbLine
 10
73.78454962301418
 20
242.1638178928939
 30
0.0
 11
75.48454962301423
 21
242.1638178928939
 31
0.0
  0
LINE
  5
65E
330
1F
100
AcDbEntity
  8
0
100
AcDbLine
 10
75.48454962301423
 20
240.5638178928941
 30
0.0
 11
73.78454962301418
 21
240.5638178928941
 31
0.0
  0
LINE
  5
65F
330
1F
100
AcDbEntity
  8
0
100
AcDbLine
 10
74.78454974493229
 20
239.5738177335501
 30
0.0
 11
76.38454974493196
 21
239.5738177335501
 31
0.0
  0
LINE
  5
660
330
1F
100
AcDbEntity
  8
0
100
AcDbLine
 10
71.48454962301423
 20
247.5438178928941
 30
0.0
 11
72.28454962301419
 21
247.5438178928941
 31
0.0
  0
LINE
  5
661
330
1F
100
AcDbEntity
  8
0
100
AcDbLine
 10
71.48454962301423
 20
244.9238178928941
 30
0.0
 11
72.28454962301419
 21
244.9238178928941
 31
0.0
  0
LINE
  5
662
330
1F
100
AcDbEntity
  8
0
100
AcDbLine
 10
71.48454962301423
 20
247.5438178928941
 30
0.0
 11
71.48454962301423
 21
244.9238178928941
 31
0.0
  0
CIRCLE
  5
663
330
1F
100
AcDbEntity
  8
0
100
AcDbCircle
 10
69.28454962301419
 20
246.2338178928943
 30
0.0
 40
0.75
  0
LINE
  5
664
330
1F
100
AcDbEntity
  8
0
100
AcDbLine
 10
71.48454962301423
 20
239.923817892894
 30
0.0
 11
72.28454962301419
 21
239.923817892894
 31
0.0
  0
LINE
  5
665
330
1F
100
AcDbEntity
  8
0
100
AcDbLine
 10
72.28454962301419
 20
234.6138178928939
 30
0.0
 11
73.78454962301418
 21
234.6138178928939
 31
0.0
  0
LINE
  5
666
330
1F
100
AcDbEntity
  8
0
100
AcDbLine
 10
71.48454962301423
 20
237.3038178928943
 30
0.0
 11
72.28454962301419
 21
237.3038178928943
 31
0.0
  0
LINE
  5
667
330
1F
100
AcDbEntity
  8
0
100
AcDbLine
 10
72.28454962301419
 20
237.3038178928943
 30
0.0
 11
72.28454962301419
 21
235.6138178928941
 31
0.0
  0
LINE
  5
668
330
1F
100
AcDbEntity
  8
0
100
AcDbLine
 10
71.48454962301423
 20
239.923817892894
 30
0.0
 11
71.48454962301423
 21
237.3038178928943
 31
0.0
  0
LINE
  5
669
330
1F
100
AcDbEntity
  8
0
100
AcDbLine
 10
67.28454962301419
 20
244.1338178928941
 30
0.0
 11
67.28454962301419
 21
240.7138178928943
 31
0.0
  0
LINE
  5
66A
330
1F
100
AcDbEntity
  8
0
100
AcDbLine
 10
67.28454962301419
 20
236.5138178928939
 30
0.0
 11
67.28454962301419
 21
235.6138178928941
 31
0.0
  0
CIRCLE
  5
66B
330
1F
100
AcDbEntity
  8
0
100
AcDbCircle
 10
69.28454962301419
 20
238.6138178928939
 30
0.0
 40
0.75
  0
CIRCLE
  5
66C
330
1F
100
AcDbEntity
  8
0
100
AcDbCircle
 10
69.24816356261111
 20
232.5138178928941
 30
0.0
 40
0.9
  0
LINE
  5
66D
330
1F
100
AcDbEntity
  8
0
100
AcDbLine
 10
67.28454962301419
 20
235.6138178928941
 30
0.0
 11
72.28454962301419
 21
235.6138178928941
 31
0.0
  0
CIRCLE
  5
66E
330
1F
100
AcDbEntity
  8
0
100
AcDbCircle
 10
69.28454962301419
 20
238.6138178928939
 30
0.0
 40
1.5
  0
CIRCLE
  5
66F
330
1F
100
AcDbEntity
  8
0
100
AcDbCircle
 10
69.24816356261111
 20
232.5138178928941
 30
0.0
 40
2.0
  0
LINE
  5
670
330
1F
100
AcDbEntity
  8
0
100
AcDbLine
 10
72.28454962301419
 20
244.9238178928941
 30
0.0
 11
72.28454962301419
 21
239.923817892894
 31
0.0
  0
CIRCLE
  5
671
330
1F
100
AcDbEntity
  8
0
100
AcDbCircle
 10
69.28454962301419
 20
246.2338178928943
 30
0.0
 40
1.5
  0
LINE
  5
672
330
1F
100
AcDbEntity
  8
0
100
AcDbLine
 10
75.48454962301423
 20
242.1638178928939
 30
0.0
 11
75.48454962301423
 21
240.5638178928941
 31
0.0
  0
LINE
  5
673
330
1F
100
AcDbEntity
  8
0
100
AcDbLine
 10
76.38454974493196
 20
243.1738177335501
 30
0.0
 11
76.38454974493196
 21
239.5738177335501
 31
0.0
  0
LINE
  5
674
330
1F
100
AcDbEntity
  8
0
100
AcDbLine
 10
66.78454962301419
 20
276.9738178928943
 30
0.0
 11
76.1295496230142
 21
276.9738178928943
 31
0.0
  0
LINE
  5
675
330
1F
100
AcDbEntity
  8
0
100
AcDbLine
 10
64.18454974493204
 20
271.4738177335504
 30
0.0
 11
74.78454974493229
 21
271.4738177335504
 31
0.0
  0
LINE
  5
676
330
1F
100
AcDbEntity
  8
0
100
AcDbLine
 10
65.28454962301418
 20
270.4738178928943
 30
0.0
 11
72.28454962301419
 21
270.4738178928943
 31
0.0
  0
LINE
  5
677
330
1F
100
AcDbEntity
  8
0
100
AcDbLine
 10
65.28454962301418
 20
270.4738178928943
 30
0.0
 11
72.28454962301419
 21
270.4738178928943
 31
0.0
  0
ARC
  5
678
330
1F
100
AcDbEntity
  8
0
100
AcDbCircle
 10
69.28454962301419
 20
253.8538178928939
 30
0.0
 40
2.9
100
AcDbArc
 50
133.6028189726986
 51
226.3971810273013
  0
ARC
  5
679
330
1F
100
AcDbEntity
  8
0
100
AcDbCircle
 10
69.28454962301419
 20
261.4738178928943
 30
0.0
 40
2.9
100
AcDbArc
 50
133.6028189726986
 51
226.3971810273013
  0
LINE
  5
67A
330
1F
100
AcDbEntity
  8
0
100
AcDbLine
 10
64.18454974493204
 20
275.9738177335504
 30
0.0
 11
76.58454974493213
 21
275.9738177335504
 31
0.0
  0
LINE
  5
67B
330
1F
100
AcDbEntity
  8
0
100
AcDbLine
 10
65.28454962301418
 20
265.2338178928943
 30
0.0
 11
65.28454962301418
 21
270.4738178928943
 31
0.0
  0
LINE
  5
67C
330
1F
100
AcDbEntity
  8
0
100
AcDbLine
 10
66.78454962301419
 20
284.4738178928943
 30
0.0
 11
65.28454962301509
 21
284.4738178928943
 31
0.0
  0
LINE
  5
67D
330
1F
100
AcDbEntity
  8
0
100
AcDbLine
 10
65.28454962301509
 20
283.4738178928943
 30
0.0
 11
66.78454962301419
 21
283.4738178928943
 31
0.0
  0
LINE
  5
67E
330
1F
100
AcDbEntity
  8
0
100
AcDbLine
 10
66.78454962301419
 20
283.4738178928943
 30
0.0
 11
66.78454962301419
 21
284.4738178928943
 31
0.0
  0
LINE
  5
67F
330
1F
100
AcDbEntity
  8
0
100
AcDbLine
 10
66.78454962301419
 20
279.9738178928943
 30
0.0
 11
65.28454962301418
 21
279.9738178928943
 31
0.0
  0
LINE
  5
680
330
1F
100
AcDbEntity
  8
0
100
AcDbLine
 10
65.28454962301418
 20
276.9738178928943
 30
0.0
 11
66.78454962301419
 21
276.9738178928943
 31
0.0
  0
LINE
  5
681
330
1F
100
AcDbEntity
  8
0
100
AcDbLine
 10
66.78454962301419
 20
276.9738178928943
 30
0.0
 11
66.78454962301419
 21
277.9738178928943
 31
0.0
  0
LINE
  5
682
330
1F
100
AcDbEntity
  8
0
100
AcDbLine
 10
66.78454962301419
 20
276.9738178928943
 30
0.0
 11
66.78454962301419
 21
279.9738178928943
 31
0.0
  0
LINE
  5
683
330
1F
100
AcDbEntity
  8
0
100
AcDbLine
 10
65.28454962301418
 20
279.9738178928943
 30
0.0
 11
65.28454962301418
 21
276.9738178928943
 31
0.0
  0
LINE
  5
684
330
1F
100
AcDbEntity
  8
0
100
AcDbLine
 10
72.28454962301419
 20
265.4738178928943
 30
0.0
 11
72.28454962301419
 21
270.4738178928943
 31
0.0
  0
LINE
  5
685
330
1F
100
AcDbEntity
  8
0
100
AcDbLine
 10
72.28454962301419
 20
270.4738178928943
 30
0.0
 11
72.28454962301419
 21
265.2338178928943
 31
0.0
  0
CIRCLE
  5
686
330
1F
100
AcDbEntity
  8
0
100
AcDbCircle
 10
69.28454962301419
 20
267.5738178928941
 30
0.0
 40
0.9
  0
CIRCLE
  5
687
330
1F
100
AcDbEntity
  8
0
100
AcDbCircle
 10
69.28454962301419
 20
267.5738178928941
 30
0.0
 40
2.0
  0
LINE
  5
688
330
1F
100
AcDbEntity
  8
0
100
AcDbLine
 10
74.78454974493229
 20
271.4738177335504
 30
0.0
 11
74.78454974493229
 21
260.1738177335501
 31
0.0
  0
LINE
  5
689
330
1F
100
AcDbEntity
  8
0
100
AcDbLine
 10
74.78454974493229
 20
260.1738177335501
 30
0.0
 11
76.38454974493196
 21
260.1738177335501
 31
0.0
  0
LINE
  5
68A
330
1F
100
AcDbEntity
  8
0
100
AcDbLine
 10
75.48454962301423
 20
259.1638178928941
 30
0.0
 11
73.78454962301418
 21
259.1638178928941
 31
0.0
  0
LINE
  5
68B
330
1F
100
AcDbEntity
  8
0
100
AcDbLine
 10
74.78454974493229
 20
256.5738177335503
 30
0.0
 11
76.38454974493196
 21
256.5738177335503
 31
0.0
  0
LINE
  5
68C
330
1F
100
AcDbEntity
  8
0
100
AcDbLine
 10
75.48454962301423
 20
257.5638178928941
 30
0.0
 11
73.78454962301418
 21
257.5638178928941
 31
0.0
  0
LINE
  5
68D
330
1F
100
AcDbEntity
  8
0
100
AcDbLine
 10
72.28454962301419
 20
265.4738178928943
 30
0.0
 11
73.78454962301418
 21
265.4738178928943
 31
0.0
  0
LINE
  5
68E
330
1F
100
AcDbEntity
  8
0
100
AcDbLine
 10
73.78454962301418
 20
265.4738178928943
 30
0.0
 11
73.78454962301418
 21
265.1138178928939
 31
0.0
  0
LINE
  5
68F
330
1F
100
AcDbEntity
  8
0
100
AcDbLine
 10
67.28454962301419
 20
264.1138178928938
 30
0.0
 11
67.28454962301419
 21
263.5738178928941
 31
0.0
  0
LINE
  5
690
330
1F
100
AcDbEntity
  8
0
100
AcDbLine
 10
72.28454962301419
 20
264.1138178928938
 30
0.0
 11
67.28454962301419
 21
264.1138178928938
 31
0.0
  0
LINE
  5
691
330
1F
100
AcDbEntity
  8
0
100
AcDbLine
 10
71.48454962301423
 20
262.7838178928941
 30
0.0
 11
72.28454962301419
 21
262.7838178928941
 31
0.0
  0
LINE
  5
692
330
1F
100
AcDbEntity
  8
0
100
AcDbLine
 10
71.48454962301423
 20
260.163817892894
 30
0.0
 11
72.28454962301419
 21
260.163817892894
 31
0.0
  0
LINE
  5
693
330
1F
100
AcDbEntity
  8
0
100
AcDbLine
 10
71.48454962301423
 20
262.7838178928941
 30
0.0
 11
71.48454962301423
 21
260.163817892894
 31
0.0
  0
LINE
  5
694
330
1F
100
AcDbEntity
  8
0
100
AcDbLine
 10
71.48454962301423
 20
255.1638178928941
 30
0.0
 11
72.28454962301419
 21
255.1638178928941
 31
0.0
  0
LINE
  5
695
330
1F
100
AcDbEntity
  8
0
100
AcDbLine
 10
71.48454962301423
 20
252.5438178928939
 30
0.0
 11
72.28454962301419
 21
252.5438178928939
 31
0.0
  0
LINE
  5
696
330
1F
100
AcDbEntity
  8
0
100
AcDbLine
 10
71.48454962301423
 20
255.1638178928941
 30
0.0
 11
71.48454962301423
 21
252.5438178928939
 31
0.0
  0
LINE
  5
697
330
1F
100
AcDbEntity
  8
0
100
AcDbLine
 10
72.28454962301419
 20
260.163817892894
 30
0.0
 11
72.28454962301419
 21
255.1638178928941
 31
0.0
  0
CIRCLE
  5
698
330
1F
100
AcDbEntity
  8
0
100
AcDbCircle
 10
69.28454962301419
 20
261.4738178928943
 30
0.0
 40
0.75
  0
CIRCLE
  5
699
330
1F
100
AcDbEntity
  8
0
100
AcDbCircle
 10
69.28454962301419
 20
253.8538178928939
 30
0.0
 40
0.75
  0
LINE
  5
69A
330
1F
100
AcDbEntity
  8
0
100
AcDbLine
 10
67.28454962301419
 20
259.3738178928941
 30
0.0
 11
67.28454962301419
 21
255.9538178928943
 31
0.0
  0
CIRCLE
  5
69B
330
1F
100
AcDbEntity
  8
0
100
AcDbCircle
 10
69.28454962301419
 20
261.4738178928943
 30
0.0
 40
1.5
  0
CIRCLE
  5
69C
330
1F
100
AcDbEntity
  8
0
100
AcDbCircle
 10
69.28454962301419
 20
253.8538178928939
 30
0.0
 40
1.5
  0
LINE
  5
69D
330
1F
100
AcDbEntity
  8
0
100
AcDbLine
 10
72.28454962301419
 20
264.1138178928938
 30
0.0
 11
72.28454962301419
 21
262.7838178928941
 31
0.0
  0
LINE
  5
69E
330
1F
100
AcDbEntity
  8
0
100
AcDbLine
 10
76.38454974493196
 20
260.1738177335501
 30
0.0
 11
76.38454974493196
 21
256.5738177335503
 31
0.0
  0
LINE
  5
69F
330
1F
100
AcDbEntity
  8
0
100
AcDbLine
 10
75.48454962301423
 20
259.1638178928941
 30
0.0
 11
75.48454962301423
 21
257.5638178928941
 31
0.0
  0
LINE
  5
6A0
330
1F
100
AcDbEntity
  8
0
100
AcDbLine
 10
71.78454962301419
 20
284.9738178928943
 30
0.0
 11
70.78454962301418
 21
284.9738178928943
 31
0.0
  0
LINE
  5
6A1
330
1F
100
AcDbEntity
  8
0
100
AcDbLine
 10
70.78454962301418
 20
282.9738178928943
 30
0.0
 11
71.78454962301419
 21
282.9738178928943
 31
0.0
  0
LINE
  5
6A2
330
1F
100
AcDbEntity
  8
0
100
AcDbLine
 10
71.78454962301419
 20
282.9738178928943
 30
0.0
 11
71.78454962301419
 21
284.9738178928943
 31
0.0
  0
LINE
  5
6A3
330
1F
100
AcDbEntity
  8
0
100
AcDbLine
 10
70.78454962301418
 20
284.9738178928943
 30
0.0
 11
70.78454962301418
 21
282.9738178928943
 31
0.0
  0
LINE
  5
6A4
330
1F
100
AcDbEntity
  8
0
100
AcDbLine
 10
67.78454962301418
 20
277.9738178928943
 30
0.0
 11
74.76954962301419
 21
277.9738178928943
 31
0.0
  0
LINE
  5
6A5
330
1F
100
AcDbEntity
  8
0
100
AcDbLine
 10
37.6714611488611
 20
354.5152215316761
 30
0.0
 11
55.18454962301518
 21
354.9738178928941
 31
0.0
  0
ARC
  5
6A6
330
1F
100
AcDbEntity
  8
0
100
AcDbCircle
 10
37.68454962301518
 20
354.0153928691883
 30
0.0
 40
0.5
100
AcDbArc
 50
91.49999999999613
 51
180.0
  0
LINE
  5
6A7
330
1F
100
AcDbEntity
  8
0
100
AcDbLine
 10
77.08454974493213
 20
331.0738177335502
 30
0.0
 11
77.08454974493213
 21
322.8738177335498
 31
0.0
  0
LINE
  5
6A8
330
1F
100
AcDbEntity
  8
0
100
AcDbLine
 10
75.48454962301514
 20
323.4138178928943
 30
0.0
 11
75.48454962301514
 21
330.0538178928941
 31
0.0
  0
LINE
  5
6A9
330
1F
100
AcDbEntity
  8
0
100
AcDbLine
 10
65.28454962301509
 20
323.4138178928943
 30
0.0
 11
65.28454962301509
 21
330.0538178928941
 31
0.0
  0
LINE
  5
6AA
330
1F
100
AcDbEntity
  8
0
100
AcDbLine
 10
64.18454974493204
 20
339.0738177335502
 30
0.0
 11
64.18454974493204
 21
306.0738177335502
 31
0.0
  0
LINE
  5
6AB
330
1F
100
AcDbEntity
  8
0
100
AcDbLine
 10
65.28454962301521
 20
306.0738177335502
 30
0.0
 11
65.28454962301509
 21
339.0738177335502
 31
0.0
  0
LINE
  5
6AC
330
1F
100
AcDbEntity
  8
0
100
AcDbLine
 10
72.5345496230151
 20
322.4138178928941
 30
0.0
 11
65.28454962301418
 21
322.4138178928941
 31
0.0
  0
LINE
  5
6AD
330
1F
100
AcDbEntity
  8
0
100
AcDbLine
 10
75.48454962301514
 20
323.4138178928943
 30
0.0
 11
65.28454962301509
 21
323.4138178928943
 31
0.0
  0
LINE
  5
6AE
330
1F
100
AcDbEntity
  8
0
100
AcDbLine
 10
66.78454962301419
 20
301.1338178928941
 30
0.0
 11
67.78454962301418
 21
301.1338178928941
 31
0.0
  0
LINE
  5
6AF
330
1F
100
AcDbEntity
  8
0
100
AcDbLine
 10
65.28454962301418
 20
307.0138178928941
 30
0.0
 11
72.5345496230151
 21
307.0138178928941
 31
0.0
  0
LINE
  5
6B0
330
1F
100
AcDbEntity
  8
0
100
AcDbLine
 10
64.18454974493204
 20
306.0738177335502
 30
0.0
 11
73.48454974493222
 21
306.0738177335502
 31
0.0
  0
LINE
  5
6B1
330
1F
100
AcDbEntity
  8
0
100
AcDbLine
 10
76.1295496230142
 20
301.1338178928941
 30
0.0
 11
66.78454962301419
 21
301.1338178928941
 31
0.0
  0
LINE
  5
6B2
330
1F
100
AcDbEntity
  8
0
100
AcDbLine
 10
64.18454974493204
 20
302.17381773355
 30
0.0
 11
76.58454974493213
 21
302.17381773355
 31
0.0
  0
LINE
  5
6B3
330
1F
100
AcDbEntity
  8
0
100
AcDbLine
 10
66.78454962301419
 20
301.1338178928941
 30
0.0
 11
65.28454962301418
 21
301.1338178928941
 31
0.0
  0
LINE
  5
6B4
330
1F
100
AcDbEntity
  8
0
100
AcDbLine
 10
65.28454962301418
 20
298.1338178928941
 30
0.0
 11
66.78454962301419
 21
298.1338178928941
 31
0.0
  0
LINE
  5
6B5
330
1F
100
AcDbEntity
  8
0
100
AcDbLine
 10
66.78454962301419
 20
293.6338178928941
 30
0.0
 11
66.78454962301419
 21
294.6338178928941
 31
0.0
  0
LINE
  5
6B6
330
1F
100
AcDbEntity
  8
0
100
AcDbLine
 10
65.28454962301509
 20
293.6338178928941
 30
0.0
 11
66.78454962301419
 21
293.6338178928941
 31
0.0
  0
LINE
  5
6B7
330
1F
100
AcDbEntity
  8
0
100
AcDbLine
 10
66.78454962301419
 20
294.6338178928941
 30
0.0
 11
65.28454962301509
 21
294.6338178928941
 31
0.0
  0
LINE
  5
6B8
330
1F
100
AcDbEntity
  8
0
100
AcDbLine
 10
66.78454962301419
 20
288.5538178928941
 30
0.0
 11
66.78454962301419
 21
289.5538178928942
 31
0.0
  0
LINE
  5
6B9
330
1F
100
AcDbEntity
  8
0
100
AcDbLine
 10
65.28454962301509
 20
288.5538178928941
 30
0.0
 11
66.78454962301419
 21
288.5538178928941
 31
0.0
  0
LINE
  5
6BA
330
1F
100
AcDbEntity
  8
0
100
AcDbLine
 10
66.78454962301419
 20
289.5538178928942
 30
0.0
 11
65.28454962301509
 21
289.5538178928942
 31
0.0
  0
LINE
  5
6BB
330
1F
100
AcDbEntity
  8
0
100
AcDbLine
 10
66.78454962301419
 20
301.1338178928941
 30
0.0
 11
66.78454962301419
 21
300.1338178928938
 31
0.0
  0
LINE
  5
6BC
330
1F
100
AcDbEntity
  8
0
100
AcDbLine
 10
66.78454962301419
 20
298.1338178928941
 30
0.0
 11
66.78454962301419
 21
301.1338178928941
 31
0.0
  0
LINE
  5
6BD
330
1F
100
AcDbEntity
  8
0
100
AcDbLine
 10
65.28454962301418
 20
301.1338178928941
 30
0.0
 11
65.28454962301418
 21
298.1338178928941
 31
0.0
  0
LINE
  5
6BE
330
1F
100
AcDbEntity
  8
0
100
AcDbLine
 10
65.28454962301418
 20
322.4138178928941
 30
0.0
 11
65.28454962301418
 21
307.0138178928941
 31
0.0
  0
LINE
  5
6BF
330
1F
100
AcDbEntity
  8
0
100
AcDbLine
 10
75.2695496230142
 20
301.1338178928941
 30
0.0
 11
74.76954962301419
 21
301.1338178928941
 31
0.0
  0
LINE
  5
6C0
330
1F
100
AcDbEntity
  8
0
100
AcDbLine
 10
70.78454962301418
 20
293.1338178928941
 30
0.0
 11
71.78454962301419
 21
293.1338178928941
 31
0.0
  0
LINE
  5
6C1
330
1F
100
AcDbEntity
  8
0
100
AcDbLine
 10
71.78454962301419
 20
293.1338178928941
 30
0.0
 11
71.78454962301419
 21
295.1338178928939
 31
0.0
  0
LINE
  5
6C2
330
1F
100
AcDbEntity
  8
0
100
AcDbLine
 10
71.78454962301419
 20
295.1338178928939
 30
0.0
 11
70.78454962301418
 21
295.1338178928939
 31
0.0
  0
LINE
  5
6C3
330
1F
100
AcDbEntity
  8
0
100
AcDbLine
 10
70.78454962301418
 20
295.1338178928939
 30
0.0
 11
70.78454962301418
 21
293.1338178928941
 31
0.0
  0
LINE
  5
6C4
330
1F
100
AcDbEntity
  8
0
100
AcDbLine
 10
71.78454962301419
 20
290.0538178928943
 30
0.0
 11
70.78454962301418
 21
290.0538178928943
 31
0.0
  0
LINE
  5
6C5
330
1F
100
AcDbEntity
  8
0
100
AcDbLine
 10
70.78454962301418
 20
288.0538178928941
 30
0.0
 11
71.78454962301419
 21
288.0538178928941
 31
0.0
  0
LINE
  5
6C6
330
1F
100
AcDbEntity
  8
0
100
AcDbLine
 10
71.78454962301419
 20
288.0538178928941
 30
0.0
 11
71.78454962301419
 21
290.0538178928943
 31
0.0
  0
LINE
  5
6C7
330
1F
100
AcDbEntity
  8
0
100
AcDbLine
 10
70.78454962301418
 20
290.0538178928943
 30
0.0
 11
70.78454962301418
 21
288.0538178928941
 31
0.0
  0
LINE
  5
6C8
330
1F
100
AcDbEntity
  8
0
100
AcDbLine
 10
67.78454962301418
 20
300.1338178928938
 30
0.0
 11
74.76954962301419
 21
300.1338178928938
 31
0.0
  0
LINE
  5
6C9
330
1F
100
AcDbEntity
  8
0
100
AcDbLine
 10
73.48454974493222
 20
322.8738177335498
 30
0.0
 11
77.08454974493213
 21
322.8738177335498
 31
0.0
  0
CIRCLE
  5
6CA
330
1F
100
AcDbEntity
  8
0
100
AcDbCircle
 10
68.78454962301418
 20
312.9638178928943
 30
0.0
 40
1.0
  0
CIRCLE
  5
6CB
330
1F
100
AcDbEntity
  8
0
100
AcDbCircle
 10
68.78454962301418
 20
316.4638178928941
 30
0.0
 40
1.0
  0
CIRCLE
  5
6CC
330
1F
100
AcDbEntity
  8
0
100
AcDbCircle
 10
68.78454962301418
 20
309.4638178928943
 30
0.0
 40
1.0
  0
CIRCLE
  5
6CD
330
1F
100
AcDbEntity
  8
0
100
AcDbCircle
 10
68.78454962301418
 20
319.9638178928943
 30
0.0
 40
1.0
  0
LINE
  5
6CE
330
1F
100
AcDbEntity
  8
0
100
AcDbLine
 10
72.5345496230151
 20
307.0138178928941
 30
0.0
 11
72.5345496230151
 21
322.4138178928941
 31
0.0
  0
LINE
  5
6CF
330
1F
100
AcDbEntity
  8
0
100
AcDbLine
 10
73.48454974493222
 20
322.8738177335498
 30
0.0
 11
73.48454974493222
 21
306.0738177335502
 31
0.0
  0
CIRCLE
  5
6D0
330
1F
100
AcDbEntity
  8
0
100
AcDbCircle
 10
67.78454974493229
 20
347.7738177335503
 30
0.0
 40
1.399999999999999
  0
CIRCLE
  5
6D1
330
1F
100
AcDbEntity
  8
0
100
AcDbCircle
 10
67.78454974493229
 20
342.9738177335504
 30
0.0
 40
1.399999999999999
  0
LINE
  5
6D2
330
1F
100
AcDbEntity
  8
0
100
AcDbLine
 10
74.08454974493223
 20
339.0738177335502
 30
0.0
 11
64.18454974493204
 21
339.0738177335502
 31
0.0
  0
LINE
  5
6D3
330
1F
100
AcDbEntity
  8
0
100
AcDbLine
 10
73.18454962301415
 20
338.5538178928941
 30
0.0
 11
65.28454962301418
 21
338.5538178928941
 31
0.0
  0
LINE
  5
6D4
330
1F
100
AcDbEntity
  8
0
100
AcDbLine
 10
73.18454962301415
 20
331.0538178928952
 30
0.0
 11
65.28454962301418
 21
331.0538178928952
 31
0.0
  0
LINE
  5
6D5
330
1F
100
AcDbEntity
  8
0
100
AcDbLine
 10
75.48454962301514
 20
330.0538178928941
 30
0.0
 11
65.28454962301509
 21
330.0538178928941
 31
0.0
  0
LINE
  5
6D6
330
1F
100
AcDbEntity
  8
0
100
AcDbLine
 10
65.28454962301509
 20
337.6438178928951
 30
0.0
 11
65.68454962301415
 21
337.6438178928951
 31
0.0
  0
LINE
  5
6D7
330
1F
100
AcDbEntity
  8
0
100
AcDbLine
 10
65.28454962301509
 20
337.0438178928949
 30
0.0
 11
65.68454962301415
 21
337.0438178928949
 31
0.0
  0
LINE
  5
6D8
330
1F
100
AcDbEntity
  8
0
100
AcDbLine
 10
65.28454962301509
 20
335.1038178928952
 30
0.0
 11
65.68454962301415
 21
335.1038178928952
 31
0.0
  0
LINE
  5
6D9
330
1F
100
AcDbEntity
  8
0
100
AcDbLine
 10
65.28454962301509
 20
334.5038178928952
 30
0.0
 11
65.68454962301415
 21
334.5038178928952
 31
0.0
  0
LINE
  5
6DA
330
1F
100
AcDbEntity
  8
0
100
AcDbLine
 10
65.28454962301509
 20
331.9638178928951
 30
0.0
 11
65.68454962301415
 21
331.9638178928951
 31
0.0
  0
LINE
  5
6DB
330
1F
100
AcDbEntity
  8
0
100
AcDbLine
 10
65.28454962301509
 20
332.5638178928953
 30
0.0
 11
65.68454962301415
 21
332.5638178928953
 31
0.0
  0
LINE
  5
6DC
330
1F
100
AcDbEntity
  8
0
100
AcDbLine
 10
65.28454962301418
 20
331.0538178928952
 30
0.0
 11
65.28454962301418
 21
331.9638178928951
 31
0.0
  0
LINE
  5
6DD
330
1F
100
AcDbEntity
  8
0
100
AcDbLine
 10
65.28454962301418
 20
337.6438178928943
 30
0.0
 11
65.28454962301418
 21
338.5538178928941
 31
0.0
  0
LINE
  5
6DE
330
1F
100
AcDbEntity
  8
0
100
AcDbLine
 10
65.68454962301415
 20
331.0538178928952
 30
0.0
 11
65.68454962301415
 21
338.5538178928941
 31
0.0
  0
LINE
  5
6DF
330
1F
100
AcDbEntity
  8
0
100
AcDbLine
 10
55.18454962301518
 20
354.9738178928941
 30
0.0
 11
56.18454962301519
 21
354.9476319713251
 31
0.0
  0
LINE
  5
6E0
330
1F
100
AcDbEntity
  8
0
100
AcDbLine
 10
56.18454962301519
 20
350.9738178928941
 30
0.0
 11
56.19763809716812
 21
350.974160626652
 31
0.0
  0
LINE
  5
6E1
330
1F
100
AcDbEntity
  8
0
100
AcDbLine
 10
57.18454962301507
 20
354.4738178928942
 30
0.0
 11
56.18454962301519
 21
354.4738178928942
 31
0.0
  0
CIRCLE
  5
6E2
330
1F
100
AcDbEntity
  8
0
100
AcDbCircle
 10
72.8845497449321
 20
342.9738177335504
 30
0.0
 40
1.399999999999999
  0
LINE
  5
6E3
330
1F
100
AcDbEntity
  8
0
100
AcDbLine
 10
75.48454962301514
 20
324.8638178928938
 30
0.0
 11
70.70905469402316
 21
324.8638178928938
 31
0.0
  0
LINE
  5
6E4
330
1F
100
AcDbEntity
  8
0
100
AcDbLine
 10
75.48454962301514
 20
328.6038178928941
 30
0.0
 11
70.70905469402316
 21
328.6038178928941
 31
0.0
  0
LINE
  5
6E5
330
1F
100
AcDbEntity
  8
0
100
AcDbLine
 10
75.48454962301514
 20
327.4038178928941
 30
0.0
 11
72.48454962301514
 21
327.4038178928941
 31
0.0
  0
LINE
  5
6E6
330
1F
100
AcDbEntity
  8
0
100
AcDbLine
 10
75.48454962301514
 20
326.0638178928942
 30
0.0
 11
72.48454962301514
 21
326.0638178928942
 31
0.0
  0
LINE
  5
6E7
330
1F
100
AcDbEntity
  8
0
100
AcDbLine
 10
75.48454962301514
 20
324.8638178928938
 30
0.0
 11
72.48454962301514
 21
324.8638178928938
 31
0.0
  0
LINE
  5
6E8
330
1F
100
AcDbEntity
  8
0
100
AcDbLine
 10
74.08454974493223
 20
331.0738177335502
 30
0.0
 11
77.08454974493213
 21
331.0738177335502
 31
0.0
  0
LINE
  5
6E9
330
1F
100
AcDbEntity
  8
0
100
AcDbLine
 10
72.48454962301514
 20
327.4038178928941
 30
0.0
 11
72.48454962301514
 21
328.6038178928941
 31
0.0
  0
LINE
  5
6EA
330
1F
100
AcDbEntity
  8
0
100
AcDbLine
 10
72.48454962301514
 20
324.8638178928938
 30
0.0
 11
72.48454962301514
 21
326.0638178928942
 31
0.0
  0
LINE
  5
6EB
330
1F
100
AcDbEntity
  8
0
100
AcDbLine
 10
73.98454962301525
 20
326.0638178928942
 30
0.0
 11
73.98454962301525
 21
327.4038178928941
 31
0.0
  0
LINE
  5
6EC
330
1F
100
AcDbEntity
  8
0
100
AcDbLine
 10
74.48454962301525
 20
327.4038178928941
 30
0.0
 11
74.48454962301525
 21
328.6038178928941
 31
0.0
  0
LINE
  5
6ED
330
1F
100
AcDbEntity
  8
0
100
AcDbLine
 10
74.48454962301525
 20
324.8638178928938
 30
0.0
 11
74.48454962301525
 21
326.0638178928942
 31
0.0
  0
LINE
  5
6EE
330
1F
100
AcDbEntity
  8
0
100
AcDbLine
 10
70.70905469402316
 20
328.6038178928941
 30
0.0
 11
70.70905469402316
 21
324.8638178928938
 31
0.0
  0
CIRCLE
  5
6EF
330
1F
100
AcDbEntity
  8
0
100
AcDbCircle
 10
69.43454962301405
 20
334.8038178928941
 30
0.0
 40
1.290290050200999
  0
LINE
  5
6F0
330
1F
100
AcDbEntity
  8
0
100
AcDbLine
 10
74.08454974493223
 20
339.0738177335502
 30
0.0
 11
74.08454974493223
 21
331.0738177335502
 31
0.0
  0
LINE
  5
6F1
330
1F
100
AcDbEntity
  8
0
100
AcDbLine
 10
73.18454962301415
 20
331.0538178928952
 30
0.0
 11
73.18454962301415
 21
338.5538178928941
 31
0.0
  0
ARC
  5
6F2
330
1F
100
AcDbEntity
  8
0
100
AcDbCircle
 10
80.18454962301518
 20
359.9738178928942
 30
0.0
 40
5.5
100
AcDbArc
 50
180.0
 51
245.3800226713432
  0
CIRCLE
  5
6F3
330
1F
100
AcDbEntity
  8
0
100
AcDbCircle
 10
72.8845497449321
 20
347.7738177335503
 30
0.0
 40
1.399999999999999
  0
LINE
  5
6F4
330
1F
100
AcDbEntity
  8
0
100
AcDbLine
 10
55.18454962301518
 20
364.9738178928942
 30
0.0
 11
38.15837267470692
 21
364.5279717587033
 31
0.0
  0
ARC
  5
6F5
330
1F
100
AcDbEntity
  8
0
100
AcDbCircle
 10
38.18454962301519
 20
363.5283144337273
 30
0.0
 40
1.0
100
AcDbArc
 50
91.49999999999613
 51
180.0
  0
LINE
  5
6F6
330
1F
100
AcDbEntity
  8
0
100
AcDbLine
 10
85.68454962301519
 20
359.9738178928942
 30
0.0
 11
85.68454962301519
 21
364.9738178928942
 31
0.0
  0
LINE
  5
6F7
330
1F
100
AcDbEntity
  8
0
100
AcDbLine
 10
100.284549623015
 20
247.5738178928938
 30
0.0
 11
100.284549623015
 21
253.4738178928943
 31
0.0
  0
LINE
  5
6F8
330
1F
100
AcDbEntity
  8
0
100
AcDbLine
 10
101.184549744933
 20
267.5738177335503
 30
0.0
 11
101.184549744933
 21
232.6738177335501
 31
0.0
  0
LINE
  5
6F9
330
1F
100
AcDbEntity
  8
0
100
AcDbLine
 10
100.284549623015
 20
267.5738177335503
 30
0.0
 11
100.284549623015
 21
232.6738177335501
 31
0.0
  0
LINE
  5
6FA
330
1F
100
AcDbEntity
  8
0
100
AcDbLine
 10
86.3845497449321
 20
263.07381773355
 30
0.0
 11
86.3845497449321
 21
247.0738177335503
 31
0.0
  0
LINE
  5
6FB
330
1F
100
AcDbEntity
  8
0
100
AcDbLine
 10
87.48454962301424
 20
247.5738178928938
 30
0.0
 11
87.48454962301424
 21
261.5738178928941
 31
0.0
  0
LINE
  5
6FC
330
1F
100
AcDbEntity
  8
0
100
AcDbLine
 10
100.2845496230138
 20
247.0738178928939
 30
0.0
 11
92.38454962301421
 21
247.0738178928939
 31
0.0
  0
LINE
  5
6FD
330
1F
100
AcDbEntity
  8
0
100
AcDbLine
 10
100.2845496230138
 20
241.5738178928939
 30
0.0
 11
93.03454962301421
 21
241.5738178928939
 31
0.0
  0
LINE
  5
6FE
330
1F
100
AcDbEntity
  8
0
100
AcDbLine
 10
92.38454962301421
 20
242.0738178928943
 30
0.0
 11
100.2845496230138
 21
242.0738178928943
 31
0.0
  0
LINE
  5
6FF
330
1F
100
AcDbEntity
  8
0
100
AcDbLine
 10
93.03454962301421
 20
233.1738178928941
 30
0.0
 11
100.2845496230138
 21
233.1738178928941
 31
0.0
  0
LINE
  5
700
330
1F
100
AcDbEntity
  8
0
100
AcDbLine
 10
101.184549744933
 20
232.6738177335501
 30
0.0
 11
89.7845497449323
 21
232.6738177335501
 31
0.0
  0
LINE
  5
701
330
1F
100
AcDbEntity
  8
0
100
AcDbLine
 10
101.184549744933
 20
230.6738177335501
 30
0.0
 11
89.7845497449323
 21
230.6738177335501
 31
0.0
  0
LINE
  5
702
330
1F
100
AcDbEntity
  8
0
100
AcDbLine
 10
91.6845496230152
 20
230.1738178928941
 30
0.0
 11
99.98454962301515
 21
230.1738178928952
 31
0.0
  0
LINE
  5
703
330
1F
100
AcDbEntity
  8
0
100
AcDbLine
 10
90.88454962301524
 20
229.1738178928941
 30
0.0
 11
99.98454962301515
 21
229.1738178928941
 31
0.0
  0
LINE
  5
704
330
1F
100
AcDbEntity
  8
0
100
AcDbLine
 10
100.284549623015
 20
247.5738178928938
 30
0.0
 11
87.48454962301424
 21
247.5738178928938
 31
0.0
  0
ARC
  5
705
330
1F
100
AcDbEntity
  8
0
100
AcDbCircle
 10
91.6845496230152
 20
229.673817892894
 30
0.0
 40
0.5
100
AcDbArc
 50
90.0
 51
180.0
  0
LINE
  5
706
330
1F
100
AcDbEntity
  8
0
100
AcDbLine
 10
91.1845496230152
 20
229.673817892894
 30
0.0
 11
91.1845496230152
 21
229.1738178928941
 31
0.0
  0
LINE
  5
707
330
1F
100
AcDbEntity
  8
0
100
AcDbLine
 10
98.63454962301524
 20
222.773817892894
 30
0.0
 11
98.63454962301524
 21
225.1738178928952
 31
0.0
  0
ARC
  5
708
330
1F
100
AcDbEntity
  8
0
100
AcDbCircle
 10
96.63454962301523
 20
219.057534750303
 30
0.0
 40
2.0
100
AcDbArc
 50
0.0
 51
74.99999999999926
  0
LINE
  5
709
330
1F
100
AcDbEntity
  8
0
100
AcDbLine
 10
92.33454962301513
 20
225.1738178928952
 30
0.0
 11
92.33454962301513
 21
222.773817892894
 31
0.0
  0
ARC
  5
70A
330
1F
100
AcDbEntity
  8
0
100
AcDbCircle
 10
94.33454962301516
 20
219.6738178928941
 30
0.0
 40
2.0
100
AcDbArc
 50
74.99999999999926
 51
180.0
  0
LINE
  5
70B
330
1F
100
AcDbEntity
  8
0
100
AcDbLine
 10
94.85218771322022
 20
221.6056695454723
 30
0.0
 11
97.15218771322021
 21
220.9893864028812
 31
0.0
  0
LINE
  5
70C
330
1F
100
AcDbEntity
  8
0
100
AcDbLine
 10
92.33454962301513
 20
222.773817892894
 30
0.0
 11
98.63454962301524
 21
222.773817892894
 31
0.0
  0
LINE
  5
70D
330
1F
100
AcDbEntity
  8
0
100
AcDbLine
 10
92.33454962301513
 20
224.6738178928941
 30
0.0
 11
98.63454962301524
 21
224.6738178928941
 31
0.0
  0
LINE
  5
70E
330
1F
100
AcDbEntity
  8
0
100
AcDbLine
 10
92.33454962301513
 20
225.1738178928941
 30
0.0
 11
98.63454962301524
 21
225.1738178928941
 31
0.0
  0
LINE
  5
70F
330
1F
100
AcDbEntity
  8
0
100
AcDbLine
 10
97.08454962301516
 20
220.1738178928941
 30
0.0
 11
93.88454962301523
 21
220.1738178928952
 31
0.0
  0
CIRCLE
  5
710
330
1F
100
AcDbEntity
  8
0
100
AcDbCircle
 10
95.48454962301523
 20
227.2038178928943
 30
0.0
 40
1.399999999999999
  0
LINE
  5
711
330
1F
100
AcDbEntity
  8
0
100
AcDbLine
 10
89.7845497449323
 20
247.0738177335503
 30
0.0
 11
89.7845497449323
 21
232.6738177335501
 31
0.0
  0
LINE
  5
712
330
1F
100
AcDbEntity
  8
0
100
AcDbLine
 10
89.7845497449323
 20
247.0738177335503
 30
0.0
 11
86.3845497449321
 21
247.0738177335503
 31
0.0
  0
LINE
  5
713
330
1F
100
AcDbEntity
  8
0
100
AcDbLine
 10
95.33454962301425
 20
246.0738178928943
 30
0.0
 11
94.33454962301402
 21
246.0738178928943
 31
0.0
  0
LINE
  5
714
330
1F
100
AcDbEntity
  8
0
100
AcDbLine
 10
99.33454962301425
 20
246.0738178928943
 30
0.0
 11
93.334549623014
 21
246.0738178928943
 31
0.0
  0
CIRCLE
  5
715
330
1F
100
AcDbEntity
  8
0
100
AcDbCircle
 10
96.78454962301421
 20
235.6238178928939
 30
0.0
 40
1.0
  0
CIRCLE
  5
716
330
1F
100
AcDbEntity
  8
0
100
AcDbCircle
 10
96.78454962301421
 20
239.123817892894
 30
0.0
 40
1.0
  0
LINE
  5
717
330
1F
100
AcDbEntity
  8
0
100
AcDbLine
 10
94.33454962301402
 20
243.0738178928939
 30
0.0
 11
95.33454962301425
 21
243.0738178928939
 31
0.0
  0
LINE
  5
718
330
1F
100
AcDbEntity
  8
0
100
AcDbLine
 10
93.03454962301421
 20
241.5738178928939
 30
0.0
 11
93.03454962301421
 21
233.1738178928941
 31
0.0
  0
LINE
  5
719
330
1F
100
AcDbEntity
  8
0
100
AcDbLine
 10
93.334549623014
 20
243.0738178928939
 30
0.0
 11
99.33454962301425
 21
243.0738178928939
 31
0.0
  0
LINE
  5
71A
330
1F
100
AcDbEntity
  8
0
100
AcDbLine
 10
96.13454962301421
 20
243.0738178928939
 30
0.0
 11
96.13454962301421
 21
246.0738178928943
 31
0.0
  0
LINE
  5
71B
330
1F
100
AcDbEntity
  8
0
100
AcDbLine
 10
99.33454962301425
 20
243.0738178928939
 30
0.0
 11
99.33454962301425
 21
246.0738178928943
 31
0.0
  0
LINE
  5
71C
330
1F
100
AcDbEntity
  8
0
100
AcDbLine
 10
93.334549623014
 20
246.0738178928943
 30
0.0
 11
93.334549623014
 21
243.0738178928939
 31
0.0
  0
LINE
  5
71D
330
1F
100
AcDbEntity
  8
0
100
AcDbLine
 10
95.33454962301425
 20
243.0738178928939
 30
0.0
 11
95.33454962301425
 21
246.0738178928943
 31
0.0
  0
LINE
  5
71E
330
1F
100
AcDbEntity
  8
0
100
AcDbLine
 10
94.33454962301402
 20
246.0738178928943
 30
0.0
 11
94.33454962301402
 21
243.0738178928939
 31
0.0
  0
LINE
  5
71F
330
1F
100
AcDbEntity
  8
0
100
AcDbLine
 10
92.38454962301421
 20
247.0738178928939
 30
0.0
 11
92.38454962301421
 21
242.0738178928943
 31
0.0
  0
LINE
  5
720
330
1F
100
AcDbEntity
  8
0
100
AcDbLine
 10
100.284549623015
 20
229.8738178928952
 30
0.0
 11
100.284549623015
 21
222.773817892894
 31
0.0
  0
LINE
  5
721
330
1F
100
AcDbEntity
  8
0
100
AcDbLine
 10
99.98454962301515
 20
222.773817892894
 30
0.0
 11
100.284549623015
 21
222.773817892894
 31
0.0
  0
LINE
  5
722
330
1F
100
AcDbEntity
  8
0
100
AcDbLine
 10
99.98454962301515
 20
215.3838178928952
 30
0.0
 11
100.284549623015
 21
215.3838178928952
 31
0.0
  0
LINE
  5
723
330
1F
100
AcDbEntity
  8
0
100
AcDbLine
 10
99.98454962301515
 20
214.1138178928952
 30
0.0
 11
100.284549623015
 21
214.1138178928952
 31
0.0
  0
LINE
  5
724
330
1F
100
AcDbEntity
  8
0
100
AcDbLine
 10
99.98454962301515
 20
217.9238178928952
 30
0.0
 11
100.284549623015
 21
217.9238178928952
 31
0.0
  0
LINE
  5
725
330
1F
100
AcDbEntity
  8
0
100
AcDbLine
 10
99.98454962301515
 20
216.6538178928949
 30
0.0
 11
100.284549623015
 21
216.6538178928949
 31
0.0
  0
LINE
  5
726
330
1F
100
AcDbEntity
  8
0
100
AcDbLine
 10
99.98454962301515
 20
215.3838178928952
 30
0.0
 11
100.284549623015
 21
215.3838178928952
 31
0.0
  0
LINE
  5
727
330
1F
100
AcDbEntity
  8
0
100
AcDbLine
 10
99.98454962301515
 20
219.1938178928943
 30
0.0
 11
100.284549623015
 21
219.1938178928943
 31
0.0
  0
LINE
  5
728
330
1F
100
AcDbEntity
  8
0
100
AcDbLine
 10
99.98454962301515
 20
217.9238178928952
 30
0.0
 11
100.284549623015
 21
217.9238178928952
 31
0.0
  0
LINE
  5
729
330
1F
100
AcDbEntity
  8
0
100
AcDbLine
 10
99.98454962301515
 20
212.8438178928952
 30
0.0
 11
100.284549623015
 21
212.8438178928952
 31
0.0
  0
LINE
  5
72A
330
1F
100
AcDbEntity
  8
0
100
AcDbLine
 10
99.98454962301515
 20
211.573817892895
 30
0.0
 11
100.284549623015
 21
211.573817892895
 31
0.0
  0
ARC
  5
72B
330
1F
100
AcDbEntity
  8
0
100
AcDbCircle
 10
99.98454962301515
 20
229.8738178928952
 30
0.0
 40
0.3
100
AcDbArc
 50
0.0
 51
90.0
  0
LINE
  5
72C
330
1F
100
AcDbEntity
  8
0
100
AcDbLine
 10
100.2845496230138
 20
233.1738178928941
 30
0.0
 11
100.2845496230138
 21
241.5738178928939
 31
0.0
  0
LINE
  5
72D
330
1F
100
AcDbEntity
  8
0
100
AcDbLine
 10
100.2845496230138
 20
242.0738178928943
 30
0.0
 11
100.2845496230138
 21
247.0738178928939
 31
0.0
  0
LINE
  5
72E
330
1F
100
AcDbEntity
  8
0
100
AcDbLine
 10
101.184549744933
 20
267.5738177335503
 30
0.0
 11
89.7845497449323
 21
267.5738177335503
 31
0.0
  0
LINE
  5
72F
330
1F
100
AcDbEntity
  8
0
100
AcDbLine
 10
100.2845496230138
 20
267.0738178928943
 30
0.0
 11
92.38454962301421
 21
267.0738178928943
 31
0.0
  0
LINE
  5
730
330
1F
100
AcDbEntity
  8
0
100
AcDbLine
 10
92.38454962301421
 20
262.0738178928941
 30
0.0
 11
100.2845496230138
 21
262.0738178928941
 31
0.0
  0
LINE
  5
731
330
1F
100
AcDbEntity
  8
0
100
AcDbLine
 10
100.284549623015
 20
261.5738178928941
 30
0.0
 11
87.48454962301424
 21
261.5738178928941
 31
0.0
  0
LINE
  5
732
330
1F
100
AcDbEntity
  8
0
100
AcDbLine
 10
89.7845497449323
 20
263.07381773355
 30
0.0
 11
89.7845497449323
 21
267.5738177335503
 31
0.0
  0
CIRCLE
  5
733
330
1F
100
AcDbEntity
  8
0
100
AcDbCircle
 10
93.78454962301509
 20
254.5738178928943
 30
0.0
 40
5.5
  0
LINE
  5
734
330
1F
100
AcDbEntity
  8
0
100
AcDbLine
 10
89.7845497449323
 20
263.07381773355
 30
0.0
 11
86.3845497449321
 21
263.07381773355
 31
0.0
  0
LINE
  5
735
330
1F
100
AcDbEntity
  8
0
100
AcDbLine
 10
95.33454962301425
 20
266.0738178928941
 30
0.0
 11
94.33454962301402
 21
266.0738178928941
 31
0.0
  0
LINE
  5
736
330
1F
100
AcDbEntity
  8
0
100
AcDbLine
 10
99.33454962301425
 20
266.0738178928941
 30
0.0
 11
93.334549623014
 21
266.0738178928941
 31
0.0
  0
LINE
  5
737
330
1F
100
AcDbEntity
  8
0
100
AcDbLine
 10
94.33454962301402
 20
263.0738178928943
 30
0.0
 11
95.33454962301425
 21
263.0738178928943
 31
0.0
  0
LINE
  5
738
330
1F
100
AcDbEntity
  8
0
100
AcDbLine
 10
93.334549623014
 20
263.0738178928943
 30
0.0
 11
99.33454962301425
 21
263.0738178928943
 31
0.0
  0
LINE
  5
739
330
1F
100
AcDbEntity
  8
0
100
AcDbLine
 10
99.33454962301425
 20
263.0738178928943
 30
0.0
 11
99.33454962301425
 21
266.0738178928941
 31
0.0
  0
LINE
  5
73A
330
1F
100
AcDbEntity
  8
0
100
AcDbLine
 10
96.13454962301421
 20
263.0738178928943
 30
0.0
 11
96.13454962301421
 21
266.0738178928941
 31
0.0
  0
LINE
  5
73B
330
1F
100
AcDbEntity
  8
0
100
AcDbLine
 10
95.33454962301425
 20
263.0738178928943
 30
0.0
 11
95.33454962301425
 21
266.0738178928941
 31
0.0
  0
LINE
  5
73C
330
1F
100
AcDbEntity
  8
0
100
AcDbLine
 10
94.33454962301402
 20
266.0738178928941
 30
0.0
 11
94.33454962301402
 21
263.0738178928943
 31
0.0
  0
LINE
  5
73D
330
1F
100
AcDbEntity
  8
0
100
AcDbLine
 10
93.334549623014
 20
266.0738178928941
 30
0.0
 11
93.334549623014
 21
263.0738178928943
 31
0.0
  0
LINE
  5
73E
330
1F
100
AcDbEntity
  8
0
100
AcDbLine
 10
92.38454962301421
 20
267.0738178928943
 30
0.0
 11
92.38454962301421
 21
262.0738178928941
 31
0.0
  0
LINE
  5
73F
330
1F
100
AcDbEntity
  8
0
100
AcDbLine
 10
100.284549623015
 20
255.6738178928941
 30
0.0
 11
100.284549623015
 21
261.5738178928941
 31
0.0
  0
LINE
  5
740
330
1F
100
AcDbEntity
  8
0
100
AcDbLine
 10
100.2845496230138
 20
262.0738178928941
 30
0.0
 11
100.2845496230138
 21
267.0738178928943
 31
0.0
  0
ARC
  5
741
330
1F
100
AcDbEntity
  8
0
100
AcDbCircle
 10
108.1845496230151
 20
363.9738178928942
 30
0.0
 40
1.0
100
AcDbArc
 50
0.0
 51
90.0
  0
ARC
  5
742
330
1F
100
AcDbEntity
  8
0
100
AcDbCircle
 10
108.1845496230151
 20
363.9738178928942
 30
0.0
 40
1.0
100
AcDbArc
 50
0.0
 51
90.0
  0
LINE
  5
743
330
1F
100
AcDbEntity
  8
0
100
AcDbLine
 10
101.184549744933
 20
267.5738177335503
 30
0.0
 11
89.78454974493308
 21
267.5738177335503
 31
0.0
  0
INSERT
  5
744
330
1F
100
AcDbEntity
  8
0
100
AcDbBlockReference
  2
A$C3E87127B
 10
80.18454962301484
 20
359.9738178928942
 30
0.0
  0
MTEXT
  5
86C
330
1F
100
AcDbEntity
  8
0
100
AcDbMText
 10
37.8213008601424
 20
407.563357511654
 30
0.0
 40
10.0
 41
0.0
 71
     1
 72
     5
  1
SCON-C-400A~750A-DV-*-1/2\PSCON-C-100SA~750SA-DV-*-1/2
1001
ACAD
1000
MTEXTBEGIN
1070
    73
1070
     1
1070
    44
1040
1.0
1070
    74
1070
     0
1000
MTEXTEND
1000
MTEXTBEGIN
1070
    73
1070
     1
1070
    44
1040
1.0
1070
    74
1070
     0
1000
MTEXTEND
1000
MTEXTBEGIN
1070
    73
1070
     1
1070
    44
1040
1.0
1070
    74
1070
     0
1000
MTEXTEND
  0
ENDSEC
  0
SECTION
  2
OBJECTS
  0
DICTIONARY
  5
C
330
0
100
AcDbDictionary
  3
ACAD_GROUP
350
D
  3
ACAD_LAYOUT
350
1A
  3
ACAD_MLINESTYLE
350
17
  3
ACAD_PLOTSETTINGS
350
19
  3
ACAD_PLOTSTYLENAME
350
E
  3
ACDBHEADERROUNDTRIPXREC
350
8C0
  3
ACDBVARIABLEDICTIONARY
350
80E
  0
DICTIONARY
  5
3F6
330
2
100
AcDbDictionary
280
     1
  3
ACAD_LAYERSTATES
360
3F7
  0
DICTIONARY
  5
834
330
1F
100
AcDbDictionary
280
     1
  3
ACAD_LAYOUTSELFREF
360
8E1
  0
DICTIONARY
  5
832
330
1B
100
AcDbDictionary
280
     1
  3
ACAD_LAYOUTSELFREF
360
8E0
  0
DICTIONARY
  5
D
102
{ACAD_REACTORS
330
C
102
}
330
C
100
AcDbDictionary
  0
DICTIONARY
  5
1A
102
{ACAD_REACTORS
330
C
102
}
330
C
100
AcDbDictionary
  0
DICTIONARY
  5
17
102
{ACAD_REACTORS
330
C
102
}
330
C
100
AcDbDictionary
  3
STANDARD
350
18
  0
DICTIONARY
  5
19
102
{ACAD_REACTORS
330
C
102
}
330
C
100
AcDbDictionary
  0
ACDBDICTIONARYWDFLT
  5
E
102
{ACAD_REACTORS
330
C
102
}
330
C
100
AcDbDictionary
281
     1
  3
Normal
350
F
100
AcDbDictionaryWithDefault
340
F
  0
DICTIONARY
  5
8C0
102
{ACAD_REACTORS
330
C
102
}
330
C
100
AcDbDictionary
  3
CEPSNTYPE
350
8CA
  3
FINGERPRINTGUID
350
8CB
  3
HYPERLINKBASE
350
8C3
  3
INSUNITS
350
8C9
  3
LAYOUTDICT
350
8C5
  3
LWETCUNION
350
8C8
  3
PLOTSETDICT
350
8C6
  3
PLOTSTYLNAMDICT
350
8C7
  3
PSVPSCALE
350
8CD
  3
PUCSBASE
350
8D0
  3
PUCSORGBACK
350
8D6
  3
PUCSORGBOTTOM
350
8D2
  3
PUCSORGFRONT
350
8D5
  3
PUCSORGLEFT
350
8D3
  3
PUCSORGRIGHT
350
8D4
  3
PUCSORGTOP
350
8D1
  3
PUCSORTHOREF
350
8CE
  3
PUCSORTHOVIEW
350
8CF
  3
STYLESHEET
350
8C4
  3
TSTACKALIGN
350
8C1
  3
TSTACKSIZE
350
8C2
  3
UCSBASE
350
8D9
  3
UCSORGBACK
350
8DF
  3
UCSORGBOTTOM
350
8DB
  3
UCSORGFRONT
350
8DE
  3
UCSORGLEFT
350
8DC
  3
UCSORGRIGHT
350
8DD
  3
UCSORGTOP
350
8DA
  3
UCSORTHOREF
350
8D7
  3
UCSORTHOVIEW
350
8D8
  3
VERSIONGUID
350
8CC
  0
DICTIONARY
  5
80E
102
{ACAD_REACTORS
330
C
102
}
330
C
100
AcDbDictionary
  3
DIMASSOC
350
810
  3
HIDETEXT
350
80F
  0
DICTIONARY
  5
3F7
102
{ACAD_REACTORS
330
3F6
102
}
330
3F6
100
AcDbDictionary
  0
XRECORD
  5
8E1
102
{ACAD_REACTORS
330
834
102
}
330
834
100
AcDbXrecord
340
1F
  0
XRECORD
  5
8E0
102
{ACAD_REACTORS
330
832
102
}
330
832
100
AcDbXrecord
340
1B
  0
MLINESTYLE
  5
18
102
{ACAD_REACTORS
330
17
102
}
330
17
100
AcDbMlineStyle
  2
STANDARD
 70
     0
  3

 62
   256
 51
90.0
 52
90.0
 71
     2
 49
0.5
 62
   256
  6
BYLAYER
 49
-0.5
 62
   256
  6
BYLAYER
  0
ACDBPLACEHOLDER
  5
F
102
{ACAD_REACTORS
330
E
102
}
330
E
100
AcDbPlaceHolder
280
     0
  0
XRECORD
  5
8CA
102
{ACAD_REACTORS
330
8C0
102
}
330
8C0
100
AcDbXrecord
 90
        0
  0
XRECORD
  5
8CB
102
{ACAD_REACTORS
330
8C0
102
}
330
8C0
100
AcDbXrecord
  1
{242CEDB5-D773-4B7A-895C-FCAB5051D926}
  0
XRECORD
  5
8C3
102
{ACAD_REACTORS
330
8C0
102
}
330
8C0
100
AcDbXrecord
  1

  0
XRECORD
  5
8C9
102
{ACAD_REACTORS
330
8C0
102
}
330
8C0
100
AcDbXrecord
 90
        4
  0
XRECORD
  5
8C5
102
{ACAD_REACTORS
330
8C0
102
}
330
8C0
100
AcDbXrecord
340
1A
  0
XRECORD
  5
8C8
102
{ACAD_REACTORS
330
8C0
102
}
330
8C0
100
AcDbXrecord
 90
    10781
  0
XRECORD
  5
8C6
102
{ACAD_REACTORS
330
8C0
102
}
330
8C0
100
AcDbXrecord
340
19
  0
XRECORD
  5
8C7
102
{ACAD_REACTORS
330
8C0
102
}
330
8C0
100
AcDbXrecord
340
E
  0
XRECORD
  5
8CD
102
{ACAD_REACTORS
330
8C0
102
}
330
8C0
100
AcDbXrecord
 40
0.0
  0
XRECORD
  5
8D0
102
{ACAD_REACTORS
330
8C0
102
}
330
8C0
100
AcDbXrecord
340
0
  0
XRECORD
  5
8D6
102
{ACAD_REACTORS
330
8C0
102
}
330
8C0
100
AcDbXrecord
 10
0.0
 20
0.0
 30
0.0
  0
XRECORD
  5
8D2
102
{ACAD_REACTORS
330
8C0
102
}
330
8C0
100
AcDbXrecord
 10
0.0
 20
0.0
 30
0.0
  0
XRECORD
  5
8D5
102
{ACAD_REACTORS
330
8C0
102
}
330
8C0
100
AcDbXrecord
 10
0.0
 20
0.0
 30
0.0
  0
XRECORD
  5
8D3
102
{ACAD_REACTORS
330
8C0
102
}
330
8C0
100
AcDbXrecord
 10
0.0
 20
0.0
 30
0.0
  0
XRECORD
  5
8D4
102
{ACAD_REACTORS
330
8C0
102
}
330
8C0
100
AcDbXrecord
 10
0.0
 20
0.0
 30
0.0
  0
XRECORD
  5
8D1
102
{ACAD_REACTORS
330
8C0
102
}
330
8C0
100
AcDbXrecord
 10
0.0
 20
0.0
 30
0.0
  0
XRECORD
  5
8CE
102
{ACAD_REACTORS
330
8C0
102
}
330
8C0
100
AcDbXrecord
340
0
  0
XRECORD
  5
8CF
102
{ACAD_REACTORS
330
8C0
102
}
330
8C0
100
AcDbXrecord
 70
     0
  0
XRECORD
  5
8C4
102
{ACAD_REACTORS
330
8C0
102
}
330
8C0
100
AcDbXrecord
  1

  0
XRECORD
  5
8C1
102
{ACAD_REACTORS
330
8C0
102
}
330
8C0
100
AcDbXrecord
 90
        1
  0
XRECORD
  5
8C2
102
{ACAD_REACTORS
330
8C0
102
}
330
8C0
100
AcDbXrecord
 90
       70
  0
XRECORD
  5
8D9
102
{ACAD_REACTORS
330
8C0
102
}
330
8C0
100
AcDbXrecord
340
0
  0
XRECORD
  5
8DF
102
{ACAD_REACTORS
330
8C0
102
}
330
8C0
100
AcDbXrecord
 10
0.0
 20
0.0
 30
0.0
  0
XRECORD
  5
8DB
102
{ACAD_REACTORS
330
8C0
102
}
330
8C0
100
AcDbXrecord
 10
0.0
 20
0.0
 30
0.0
  0
XRECORD
  5
8DE
102
{ACAD_REACTORS
330
8C0
102
}
330
8C0
100
AcDbXrecord
 10
0.0
 20
0.0
 30
0.0
  0
XRECORD
  5
8DC
102
{ACAD_REACTORS
330
8C0
102
}
330
8C0
100
AcDbXrecord
 10
0.0
 20
0.0
 30
0.0
  0
XRECORD
  5
8DD
102
{ACAD_REACTORS
330
8C0
102
}
330
8C0
100
AcDbXrecord
 10
0.0
 20
0.0
 30
0.0
  0
XRECORD
  5
8DA
102
{ACAD_REACTORS
330
8C0
102
}
330
8C0
100
AcDbXrecord
 10
0.0
 20
0.0
 30
0.0
  0
XRECORD
  5
8D7
102
{ACAD_REACTORS
330
8C0
102
}
330
8C0
100
AcDbXrecord
340
0
  0
XRECORD
  5
8D8
102
{ACAD_REACTORS
330
8C0
102
}
330
8C0
100
AcDbXrecord
 70
     0
  0
XRECORD
  5
8CC
102
{ACAD_REACTORS
330
8C0
102
}
330
8C0
100
AcDbXrecord
  1
{11B8557E-9151-4543-9B05-E9ECC453CCDF}
  0
DICTIONARYVAR
  5
810
102
{ACAD_REACTORS
330
80E
102
}
330
80E
100
DictionaryVariables
280
     0
  1
2
  0
DICTIONARYVAR
  5
80F
102
{ACAD_REACTORS
330
80E
102
}
330
80E
100
DictionaryVariables
280
     0
  1
1
  0
ENDSEC
  0
EOF
