  0
SECTION
  2
HEADER
  9
$ACADVER
  1
AC1014
  9
$ACADMAINTVER
 70
     9
  9
$DWGCODEPAGE
  3
ANSI_932
  9
$INSBASE
 10
0.0
 20
0.0
 30
0.0
  9
$EXTMIN
 10
-4.509860270041038
 20
-0.0000003347043958
 30
0.0
  9
$EXTMAX
 10
283.8234730632922
 20
437.075389437366
 30
0.0
  9
$LIMMIN
 10
0.0
 20
0.0
  9
$LIMMAX
 10
420.0
 20
297.0
  9
$ORTHOMODE
 70
     0
  9
$REGENMODE
 70
     1
  9
$FILLMODE
 70
     1
  9
$QTEXTMODE
 70
     0
  9
$MIRRTEXT
 70
     1
  9
$DRAGMODE
 70
     2
  9
$LTSCALE
 40
1.0
  9
$OSMODE
 70
    55
  9
$ATTMODE
 70
     1
  9
$TEXTSIZE
 40
2.5
  9
$TRACEWID
 40
1.0
  9
$TEXTSTYLE
  7
STANDARD
  9
$CLAYER
  8
0
  9
$CELTYPE
  6
BYLAYER
  9
$CECOLOR
 62
   256
  9
$CELTSCALE
 40
1.0
  9
$DELOBJ
 70
     1
  9
$DISPSILH
 70
     0
  9
$DIMSCALE
 40
1.0
  9
$DIMASZ
 40
2.5
  9
$DIMEXO
 40
0.625
  9
$DIMDLI
 40
3.75
  9
$DIMRND
 40
0.0
  9
$DIMDLE
 40
0.0
  9
$DIMEXE
 40
1.25
  9
$DIMTP
 40
0.0
  9
$DIMTM
 40
0.0
  9
$DIMTXT
 40
2.5
  9
$DIMCEN
 40
2.5
  9
$DIMTSZ
 40
0.0
  9
$DIMTOL
 70
     0
  9
$DIMLIM
 70
     0
  9
$DIMTIH
 70
     0
  9
$DIMTOH
 70
     0
  9
$DIMSE1
 70
     0
  9
$DIMSE2
 70
     0
  9
$DIMTAD
 70
     1
  9
$DIMZIN
 70
     8
  9
$DIMBLK
  1

  9
$DIMASO
 70
     1
  9
$DIMSHO
 70
     1
  9
$DIMPOST
  1

  9
$DIMAPOST
  1

  9
$DIMALT
 70
     0
  9
$DIMALTD
 70
     3
  9
$DIMALTF
 40
0.03937007874016
  9
$DIMLFAC
 40
1.0
  9
$DIMTOFL
 70
     1
  9
$DIMTVP
 40
0.0
  9
$DIMTIX
 70
     0
  9
$DIMSOXD
 70
     0
  9
$DIMSAH
 70
     0
  9
$DIMBLK1
  1

  9
$DIMBLK2
  1

  9
$DIMSTYLE
  2
ISO-25
  9
$DIMCLRD
 70
     0
  9
$DIMCLRE
 70
     0
  9
$DIMCLRT
 70
     0
  9
$DIMTFAC
 40
1.0
  9
$DIMGAP
 40
0.625
  9
$DIMJUST
 70
     0
  9
$DIMSD1
 70
     0
  9
$DIMSD2
 70
     0
  9
$DIMTOLJ
 70
     0
  9
$DIMTZIN
 70
     8
  9
$DIMALTZ
 70
     0
  9
$DIMALTTZ
 70
     0
  9
$DIMFIT
 70
     3
  9
$DIMUPT
 70
     0
  9
$DIMUNIT
 70
     2
  9
$DIMDEC
 70
     2
  9
$DIMTDEC
 70
     2
  9
$DIMALTU
 70
     2
  9
$DIMALTTD
 70
     3
  9
$DIMTXSTY
  7
STANDARD
  9
$DIMAUNIT
 70
     0
  9
$LUNITS
 70
     2
  9
$LUPREC
 70
     4
  9
$SKETCHINC
 40
1.0
  9
$FILLETRAD
 40
10.0
  9
$AUNITS
 70
     0
  9
$AUPREC
 70
     0
  9
$MENU
  1
.
  9
$ELEVATION
 40
0.0
  9
$PELEVATION
 40
0.0
  9
$THICKNESS
 40
0.0
  9
$LIMCHECK
 70
     0
  9
$BLIPMODE
 70
     0
  9
$CHAMFERA
 40
10.0
  9
$CHAMFERB
 40
10.0
  9
$CHAMFERC
 40
20.0
  9
$CHAMFERD
 40
0.0
  9
$SKPOLY
 70
     0
  9
$TDCREATE
 40
2455874.696578947
  9
$TDUPDATE
 40
2455874.825416979
  9
$TDINDWG
 40
0.0070842245
  9
$TDUSRTIMER
 40
0.0070840394
  9
$USRTIMER
 70
     1
  9
$ANGBASE
 50
0.0
  9
$ANGDIR
 70
     0
  9
$PDMODE
 70
     0
  9
$PDSIZE
 40
0.0
  9
$PLINEWID
 40
0.0
  9
$COORDS
 70
     1
  9
$SPLFRAME
 70
     0
  9
$SPLINETYPE
 70
     6
  9
$SPLINESEGS
 70
     8
  9
$ATTDIA
 70
     0
  9
$ATTREQ
 70
     1
  9
$HANDLING
 70
 22529
  9
$HANDSEED
  5
64A
  9
$SURFTAB1
 70
     6
  9
$SURFTAB2
 70
     6
  9
$SURFTYPE
 70
     6
  9
$SURFU
 70
     6
  9
$SURFV
 70
     6
  9
$UCSNAME
  2

  9
$UCSORG
 10
0.0
 20
0.0
 30
0.0
  9
$UCSXDIR
 10
1.0
 20
0.0
 30
0.0
  9
$UCSYDIR
 10
0.0
 20
1.0
 30
0.0
  9
$PUCSNAME
  2

  9
$PUCSORG
 10
0.0
 20
0.0
 30
0.0
  9
$PUCSXDIR
 10
1.0
 20
0.0
 30
0.0
  9
$PUCSYDIR
 10
0.0
 20
1.0
 30
0.0
  9
$USERI1
 70
     0
  9
$USERI2
 70
     0
  9
$USERI3
 70
     0
  9
$USERI4
 70
     0
  9
$USERI5
 70
     0
  9
$USERR1
 40
0.0
  9
$USERR2
 40
0.0
  9
$USERR3
 40
0.0
  9
$USERR4
 40
0.0
  9
$USERR5
 40
0.0
  9
$WORLDVIEW
 70
     1
  9
$SHADEDGE
 70
     3
  9
$SHADEDIF
 70
    70
  9
$TILEMODE
 70
     1
  9
$MAXACTVP
 70
    64
  9
$PINSBASE
 10
0.0
 20
0.0
 30
0.0
  9
$PLIMCHECK
 70
     0
  9
$PEXTMIN
 10
1.000000000000000E+20
 20
1.000000000000000E+20
 30
1.000000000000000E+20
  9
$PEXTMAX
 10
-1.000000000000000E+20
 20
-1.000000000000000E+20
 30
-1.000000000000000E+20
  9
$PLIMMIN
 10
0.0
 20
0.0
  9
$PLIMMAX
 10
420.0
 20
297.0
  9
$UNITMODE
 70
     0
  9
$VISRETAIN
 70
     1
  9
$PLINEGEN
 70
     0
  9
$PSLTSCALE
 70
     1
  9
$TREEDEPTH
 70
  3020
  9
$PICKSTYLE
 70
     1
  9
$CMLSTYLE
  2
STANDARD
  9
$CMLJUST
 70
     0
  9
$CMLSCALE
 40
20.0
  9
$PROXYGRAPHICS
 70
     1
  9
$MEASUREMENT
 70
     1
  0
ENDSEC
  0
SECTION
  2
CLASSES
  0
CLASS
  1
ACDBDICTIONARYWDFLT
  2
AcDbDictionaryWithDefault
  3
AutoCAD 2000
 90
        0
280
     0
281
     0
  0
CLASS
  1
ACDBPLACEHOLDER
  2
AcDbPlaceHolder
  3
AutoCAD 2000
 90
        0
280
     0
281
     0
  0
CLASS
  1
LAYOUT
  2
AcDbLayout
  3
AutoCAD 2000
 90
        0
280
     0
281
     0
  0
CLASS
  1
DICTIONARYVAR
  2
AcDbDictionaryVar
  3
AutoCAD 2000
 90
        0
280
     0
281
     0
  0
CLASS
  1
LONG_TRANSACTION
  2
AcDbLongTransaction
  3
AutoCAD 2000
 90
        0
280
     0
281
     0
  0
CLASS
  1
LWPOLYLINE
  2
AcDbPolyline
  3
AutoCAD 2000
 90
        0
280
     0
281
     1
  0
CLASS
  1
HATCH
  2
AcDbHatch
  3
AutoCAD 2000
 90
        0
280
     0
281
     1
  0
CLASS
  1
XRECORD
  2
AcDbXrecord
  3
AutoCAD 2000
 90
        0
280
     0
281
     0
  0
CLASS
  1
LONG_TRANSACTION
  2
AcDbLongTransaction
  3
AutoCAD 2000
 90
        0
280
     0
281
     0
  0
CLASS
  1
LWPOLYLINE
  2
AcDbPolyline
  3
AutoCAD 2000
 90
        0
280
     0
281
     1
  0
CLASS
  1
HATCH
  2
AcDbHatch
  3
AutoCAD 2000
 90
        0
280
     0
281
     1
  0
CLASS
  1
XRECORD
  2
AcDbXrecord
  3
AutoCAD 2000
 90
        0
280
     0
281
     0
  0
ENDSEC
  0
SECTION
  2
TABLES
  0
TABLE
  2
VPORT
  5
8
330
0
100
AcDbSymbolTable
 70
     2
  0
VPORT
  5
627
330
8
100
AcDbSymbolTableRecord
100
AcDbViewportTableRecord
  2
*ACTIVE
 70
     0
 10
0.0
 20
0.0
 11
1.0
 21
1.0
 12
137.2453317037381
 22
218.5399025064426
 13
0.0
 23
0.0
 14
10.0
 24
10.0
 15
10.0
 25
10.0
 16
0.0
 26
0.0
 36
1.0
 17
0.0
 27
0.0
 37
0.0
 40
440.280682996575
 41
1.46415552855407
 42
50.0
 43
0.0
 44
0.0
 50
0.0
 51
0.0
 71
     0
 72
   100
 73
     1
 74
     3
 75
     0
 76
     0
 77
     0
 78
     0
  0
ENDTAB
  0
TABLE
  2
LTYPE
  5
5
330
0
100
AcDbSymbolTable
 70
     1
  0
LTYPE
  5
14
330
5
100
AcDbSymbolTableRecord
100
AcDbLinetypeTableRecord
  2
BYBLOCK
 70
     0
  3

 72
    65
 73
     0
 40
0.0
  0
LTYPE
  5
15
330
5
100
AcDbSymbolTableRecord
100
AcDbLinetypeTableRecord
  2
BYLAYER
 70
     0
  3

 72
    65
 73
     0
 40
0.0
  0
LTYPE
  5
16
330
5
100
AcDbSymbolTableRecord
100
AcDbLinetypeTableRecord
  2
CONTINUOUS
 70
     0
  3
Solid line
 72
    65
 73
     0
 40
0.0
  0
ENDTAB
  0
TABLE
  2
LAYER
  5
2
102
{ACAD_XDICTIONARY
360
4F6
102
}
330
0
100
AcDbSymbolTable
 70
     3
  0
LAYER
  5
10
330
2
100
AcDbSymbolTableRecord
100
AcDbLayerTableRecord
  2
0
 70
     0
 62
     7
  6
CONTINUOUS
  0
LAYER
  5
4F2
330
2
100
AcDbSymbolTableRecord
100
AcDbLayerTableRecord
  2
DEFPOINTS
 70
     0
 62
    -7
  6
CONTINUOUS
  0
LAYER
  5
4F3
330
2
100
AcDbSymbolTableRecord
100
AcDbLayerTableRecord
  2
1
 70
     0
 62
     3
  6
CONTINUOUS
  0
ENDTAB
  0
TABLE
  2
STYLE
  5
3
330
0
100
AcDbSymbolTable
 70
     1
  0
STYLE
  5
11
330
3
100
AcDbSymbolTableRecord
100
AcDbTextStyleTableRecord
  2
STANDARD
 70
     0
 40
0.0
 41
1.0
 50
0.0
 71
     0
 42
2.5
  3
txt
  4

  0
ENDTAB
  0
TABLE
  2
VIEW
  5
6
330
0
100
AcDbSymbolTable
 70
     0
  0
ENDTAB
  0
TABLE
  2
UCS
  5
7
330
0
100
AcDbSymbolTable
 70
     0
  0
ENDTAB
  0
TABLE
  2
APPID
  5
9
330
0
100
AcDbSymbolTable
 70
     1
  0
APPID
  5
12
330
9
100
AcDbSymbolTableRecord
100
AcDbRegAppTableRecord
  2
ACAD
 70
     0
  0
ENDTAB
  0
TABLE
  2
DIMSTYLE
  5
A
330
0
100
AcDbSymbolTable
 70
     2
  0
DIMSTYLE
105
27
330
A
100
AcDbSymbolTableRecord
100
AcDbDimStyleTableRecord
  2
ISO-25
 70
     0
  3

  4

  5

  6

  7

 40
1.0
 41
2.5
 42
0.625
 43
3.75
 44
1.25
 45
0.0
 46
0.0
 47
0.0
 48
0.0
140
2.5
141
2.5
142
0.0
143
0.03937007874016
144
1.0
145
0.0
146
1.0
147
0.625
 71
     0
 72
     0
 73
     0
 74
     0
 75
     0
 76
     0
 77
     1
 78
     8
170
     0
171
     3
172
     1
173
     0
174
     0
175
     0
176
     0
177
     0
178
     0
270
     2
271
     2
272
     2
273
     2
274
     3
340
11
275
     0
280
     0
281
     0
282
     0
283
     0
284
     8
285
     0
286
     0
287
     3
288
     0
  0
DIMSTYLE
105
4F5
330
A
100
AcDbSymbolTableRecord
100
AcDbDimStyleTableRecord
  2
STANDARD
 70
     0
  3

  4

  5

  6

  7

 40
1.0
 41
2.5
 42
0.625
 43
3.75
 44
1.25
 45
0.0
 46
0.0
 47
0.0
 48
0.0
140
2.5
141
2.5
142
0.0
143
0.0394
144
1.0
145
0.0
146
1.0
147
0.625
 71
     0
 72
     0
 73
     0
 74
     0
 75
     0
 76
     0
 77
     1
 78
     8
170
     0
171
     4
172
     1
173
     0
174
     0
175
     0
176
     0
177
     0
178
     0
270
     2
271
     4
272
     4
273
     8
274
     4
340
11
275
     0
280
     0
281
     0
282
     0
283
     1
284
     0
285
     0
286
     0
287
     3
288
     0
  0
ENDTAB
  0
TABLE
  2
BLOCK_RECORD
  5
1
330
0
100
AcDbSymbolTable
 70
     3
  0
BLOCK_RECORD
  5
1F
102
{ACAD_XDICTIONARY
360
61D
102
}
330
1
100
AcDbSymbolTableRecord
100
AcDbBlockTableRecord
  2
*MODEL_SPACE
  0
BLOCK_RECORD
  5
1B
102
{ACAD_XDICTIONARY
360
61B
102
}
330
1
100
AcDbSymbolTableRecord
100
AcDbBlockTableRecord
  2
*PAPER_SPACE
  0
BLOCK_RECORD
  5
2B
330
1
100
AcDbSymbolTableRecord
100
AcDbBlockTableRecord
  2
A$C3EE73540
  0
BLOCK_RECORD
  5
251
330
1
100
AcDbSymbolTableRecord
100
AcDbBlockTableRecord
  2
A$C009F64F1
  0
BLOCK_RECORD
  5
38F
330
1
100
AcDbSymbolTableRecord
100
AcDbBlockTableRecord
  2
A$C6BA86731
  0
ENDTAB
  0
ENDSEC
  0
SECTION
  2
BLOCKS
  0
BLOCK
  5
20
330
1F
100
AcDbEntity
  8
0
100
AcDbBlockBegin
  2
*MODEL_SPACE
 70
     0
 10
0.0
 20
0.0
 30
0.0
  3
*MODEL_SPACE
  1

  0
ENDBLK
  5
21
330
1F
100
AcDbEntity
  8
0
100
AcDbBlockEnd
  0
BLOCK
  5
1C
330
1B
100
AcDbEntity
 67
     1
  8
0
100
AcDbBlockBegin
  2
*PAPER_SPACE
 70
     0
 10
0.0
 20
0.0
 30
0.0
  3
*PAPER_SPACE
  1

  0
ENDBLK
  5
1D
330
1B
100
AcDbEntity
 67
     1
  8
0
100
AcDbBlockEnd
  0
BLOCK
  5
24F
330
2B
100
AcDbEntity
  8
0
100
AcDbBlockBegin
  2
A$C3EE73540
 70
     0
 10
0.0
 20
0.0
 30
0.0
  3
A$C3EE73540
  1

  0
LINE
  5
2C
330
2B
100
AcDbEntity
  8
0
100
AcDbLine
 10
55.69999923964445
 20
188.3000002703284
 30
0.0
 11
55.69999923964445
 21
18.70000027032858
 31
0.0
  0
LINE
  5
2D
330
2B
100
AcDbEntity
  8
0
100
AcDbLine
 10
49.09999923964539
 20
163.4000002703285
 30
0.0
 11
49.09999923964539
 21
156.2800002703285
 31
0.0
  0
LINE
  5
2E
330
2B
100
AcDbEntity
  8
0
100
AcDbLine
 10
49.09999923964539
 20
186.3000001109844
 30
0.0
 11
49.09999923964539
 21
155.0000001109845
 31
0.0
  0
LINE
  5
2F
330
2B
100
AcDbEntity
  8
0
100
AcDbLine
 10
49.99999936156337
 20
155.0000001109845
 30
0.0
 11
49.99999936156337
 21
186.3000001109844
 31
0.0
  0
LINE
  5
30
330
2B
100
AcDbEntity
  8
0
100
AcDbLine
 10
48.79999923964543
 20
156.0000002703286
 30
0.0
 11
48.79999923964543
 21
185.5000002703295
 31
0.0
  0
LINE
  5
31
330
2B
100
AcDbEntity
  8
0
100
AcDbLine
 10
25.89999936156238
 20
166.6000001109845
 30
0.0
 11
25.89999936156238
 21
158.4000001109846
 31
0.0
  0
LINE
  5
32
330
2B
100
AcDbEntity
  8
0
100
AcDbLine
 10
38.59999936156237
 20
155.0000001109845
 30
0.0
 11
38.59999936156237
 21
186.3000001109844
 31
0.0
  0
LINE
  5
33
330
2B
100
AcDbEntity
  8
0
100
AcDbLine
 10
39.69999923964542
 20
184.5200002703286
 30
0.0
 11
39.69999923964542
 21
157.0000002703286
 31
0.0
  0
CIRCLE
  5
34
330
2B
100
AcDbEntity
  8
0
100
AcDbCircle
 10
44.29999923964543
 20
158.9300002703294
 30
0.0
 40
1.399999999999999
  0
LINE
  5
35
330
2B
100
AcDbEntity
  8
0
100
AcDbLine
 10
12.9999993615624
 20
174.6000001109846
 30
0.0
 11
12.9999993615624
 21
141.6000001109845
 31
0.0
  0
LINE
  5
36
330
2B
100
AcDbEntity
  8
0
100
AcDbLine
 10
14.09999923964545
 20
141.6000001109845
 30
0.0
 11
14.09999923964539
 21
174.6000001109846
 31
0.0
  0
LINE
  5
37
330
2B
100
AcDbEntity
  8
0
100
AcDbLine
 10
8.099999239644432
 20
188.3000002703284
 30
0.0
 11
8.099999239644432
 21
39.1921000586276
 31
0.0
  0
LINE
  5
38
330
2B
100
AcDbEntity
  8
0
100
AcDbLine
 10
4.999999239645433
 20
37.13318069524257
 30
0.0
 11
4.999999239645433
 21
190.0000002703284
 31
0.0
  0
LINE
  5
39
330
2B
100
AcDbEntity
  8
0
100
AcDbLine
 10
57.99999923964543
 20
16.50000027032859
 30
0.0
 11
57.99999923964543
 21
190.5000002703286
 31
0.0
  0
LINE
  5
3A
330
2B
100
AcDbEntity
  8
0
100
AcDbLine
 10
7.999999239645432
 20
188.5000002703286
 30
0.0
 11
7.999999239644409
 21
39.0856962878326
 31
0.0
  0
LINE
  5
3B
330
2B
100
AcDbEntity
  8
0
100
AcDbLine
 10
55.99999923964543
 20
18.5000002703286
 30
0.0
 11
55.99999923964543
 21
188.5000002703286
 31
0.0
  0
LINE
  5
3C
330
2B
100
AcDbEntity
  8
0
100
AcDbLine
 10
5.999999239645432
 20
190.5000002703286
 30
0.0
 11
5.999999239644409
 21
37.88178073036657
 31
0.0
  0
LINE
  5
3D
330
2B
100
AcDbEntity
  8
0
100
AcDbLine
 10
4.999999239645433
 20
37.1331806952416
 30
0.0
 11
4.999999239645433
 21
190.4738143487595
 31
0.0
  0
LINE
  5
3E
330
2B
100
AcDbEntity
  8
0
100
AcDbLine
 10
57.99999923964543
 20
199.5000002703284
 30
0.0
 11
57.99999923964543
 21
7.500000270328597
 31
0.0
  0
LINE
  5
3F
330
2B
100
AcDbEntity
  8
0
100
AcDbLine
 10
-0.0000007603545669
 20
199.4210997131306
 30
0.0
 11
-0.0000007603545669
 21
7.578900827527602
 31
0.0
  0
LINE
  5
40
330
2B
100
AcDbEntity
  8
0
100
AcDbLine
 10
21.3499992396454
 20
157.9400002703285
 30
0.0
 11
14.09999923964442
 21
157.9400002703285
 31
0.0
  0
LINE
  5
41
330
2B
100
AcDbEntity
  8
0
100
AcDbLine
 10
24.94499923964446
 20
136.6600002703285
 30
0.0
 11
15.59999923964443
 21
136.6600002703285
 31
0.0
  0
LINE
  5
42
330
2B
100
AcDbEntity
  8
0
100
AcDbLine
 10
16.59999923964441
 20
135.6600002703285
 30
0.0
 11
23.58499923964444
 21
135.6600002703285
 31
0.0
  0
LINE
  5
43
330
2B
100
AcDbEntity
  8
0
100
AcDbLine
 10
14.09999923964442
 20
142.5400002703285
 30
0.0
 11
21.3499992396454
 21
142.5400002703285
 31
0.0
  0
LINE
  5
44
330
2B
100
AcDbEntity
  8
0
100
AcDbLine
 10
12.9999993615624
 20
137.7000001109843
 30
0.0
 11
25.39999936156238
 21
137.7000001109843
 31
0.0
  0
LINE
  5
45
330
2B
100
AcDbEntity
  8
0
100
AcDbLine
 10
12.9999993615624
 20
141.6000001109845
 30
0.0
 11
22.29999936156241
 21
141.6000001109845
 31
0.0
  0
LINE
  5
46
330
2B
100
AcDbEntity
  8
0
100
AcDbLine
 10
20.59999923964443
 20
130.6600002703285
 30
0.0
 11
19.59999923964442
 21
130.6600002703285
 31
0.0
  0
LINE
  5
47
330
2B
100
AcDbEntity
  8
0
100
AcDbLine
 10
19.59999923964442
 20
128.6600002703286
 30
0.0
 11
20.59999923964443
 21
128.6600002703286
 31
0.0
  0
LINE
  5
48
330
2B
100
AcDbEntity
  8
0
100
AcDbLine
 10
20.59999923964443
 20
120.5000002703286
 30
0.0
 11
19.59999923964442
 21
120.5000002703286
 31
0.0
  0
LINE
  5
49
330
2B
100
AcDbEntity
  8
0
100
AcDbLine
 10
20.59999923964443
 20
125.5800002703284
 30
0.0
 11
19.59999923964442
 21
125.5800002703284
 31
0.0
  0
LINE
  5
4A
330
2B
100
AcDbEntity
  8
0
100
AcDbLine
 10
19.59999923964442
 20
123.5800002703284
 30
0.0
 11
20.59999923964443
 21
123.5800002703284
 31
0.0
  0
LINE
  5
4B
330
2B
100
AcDbEntity
  8
0
100
AcDbLine
 10
19.59999923964442
 20
118.5000002703286
 30
0.0
 11
20.59999923964443
 21
118.5000002703286
 31
0.0
  0
LINE
  5
4C
330
2B
100
AcDbEntity
  8
0
100
AcDbLine
 10
15.59999923964443
 20
112.5000002703286
 30
0.0
 11
24.94499923964446
 21
112.5000002703286
 31
0.0
  0
LINE
  5
4D
330
2B
100
AcDbEntity
  8
0
100
AcDbLine
 10
16.59999923964441
 20
113.5000002703286
 30
0.0
 11
23.58499923964444
 21
113.5000002703286
 31
0.0
  0
LINE
  5
4E
330
2B
100
AcDbEntity
  8
0
100
AcDbLine
 10
12.9999993615624
 20
111.5000001109845
 30
0.0
 11
25.39999936156238
 21
111.5000001109845
 31
0.0
  0
CIRCLE
  5
4F
330
2B
100
AcDbEntity
  8
0
100
AcDbCircle
 10
18.09999923964443
 20
103.1000002703285
 30
0.0
 40
2.0
  0
LINE
  5
50
330
2B
100
AcDbEntity
  8
0
100
AcDbLine
 10
21.09999923964442
 20
99.64000027032859
 30
0.0
 11
16.09999923964442
 21
99.64000027032859
 31
0.0
  0
LINE
  5
51
330
2B
100
AcDbEntity
  8
0
100
AcDbLine
 10
12.9999993615624
 20
107.0000001109844
 30
0.0
 11
23.59999936156236
 21
107.0000001109844
 31
0.0
  0
LINE
  5
52
330
2B
100
AcDbEntity
  8
0
100
AcDbLine
 10
14.09999923964442
 20
106.0000002703286
 30
0.0
 11
21.09999923964442
 21
106.0000002703286
 31
0.0
  0
LINE
  5
53
330
2B
100
AcDbEntity
  8
0
100
AcDbLine
 10
14.09999923964442
 20
106.0000002703286
 30
0.0
 11
21.09999923964442
 21
106.0000002703286
 31
0.0
  0
LINE
  5
54
330
2B
100
AcDbEntity
  8
0
100
AcDbLine
 10
16.09999923964442
 20
71.14000027032858
 30
0.0
 11
21.09999923964442
 21
71.14000027032858
 31
0.0
  0
LINE
  5
55
330
2B
100
AcDbEntity
  8
0
100
AcDbLine
 10
22.69999923964445
 20
62.14000027032859
 30
0.0
 11
14.09999923964442
 21
62.14000027032859
 31
0.0
  0
LINE
  5
56
330
2B
100
AcDbEntity
  8
0
100
AcDbLine
 10
14.09999923964442
 20
65.14000027032858
 30
0.0
 11
21.09999923964442
 21
65.14000027032858
 31
0.0
  0
LINE
  5
57
330
2B
100
AcDbEntity
  8
0
100
AcDbLine
 10
14.09999923964442
 20
65.14000027032858
 30
0.0
 11
21.09999923964442
 21
65.14000027032858
 31
0.0
  0
CIRCLE
  5
58
330
2B
100
AcDbEntity
  8
0
100
AcDbCircle
 10
18.06361317924137
 20
68.04000027032862
 30
0.0
 40
2.0
  0
CIRCLE
  5
59
330
2B
100
AcDbEntity
  8
0
100
AcDbCircle
 10
18.09999923964443
 20
49.4400002703286
 30
0.0
 40
2.0
  0
CIRCLE
  5
5A
330
2B
100
AcDbEntity
  8
0
100
AcDbCircle
 10
18.09999923964443
 20
49.4400002703286
 30
0.0
 40
2.0
  0
CIRCLE
  5
5B
330
2B
100
AcDbEntity
  8
0
100
AcDbCircle
 10
18.09999923964443
 20
39.28000027032959
 30
0.0
 40
2.0
  0
CIRCLE
  5
5C
330
2B
100
AcDbEntity
  8
0
100
AcDbCircle
 10
18.09999923964443
 20
39.28000027032959
 30
0.0
 40
2.0
  0
CIRCLE
  5
5D
330
2B
100
AcDbEntity
  8
0
100
AcDbCircle
 10
18.09999923964443
 20
34.20000027032858
 30
0.0
 40
2.0
  0
CIRCLE
  5
5E
330
2B
100
AcDbEntity
  8
0
100
AcDbCircle
 10
18.09999923964443
 20
34.20000027032858
 30
0.0
 40
2.0
  0
CIRCLE
  5
5F
330
2B
100
AcDbEntity
  8
0
100
AcDbCircle
 10
18.09999923964443
 20
44.36000027032855
 30
0.0
 40
2.0
  0
CIRCLE
  5
60
330
2B
100
AcDbEntity
  8
0
100
AcDbCircle
 10
18.09999923964443
 20
54.52000027032954
 30
0.0
 40
2.0
  0
LINE
  5
61
330
2B
100
AcDbEntity
  8
0
100
AcDbLine
 10
14.09999923964442
 20
21.50000027032857
 30
0.0
 11
22.69999923964445
 21
21.50000027032857
 31
0.0
  0
LINE
  5
62
330
2B
100
AcDbEntity
  8
0
100
AcDbLine
 10
23.59999936156236
 20
20.7000001109846
 30
0.0
 11
12.9999993615624
 21
20.7000001109846
 31
0.0
  0
LINE
  5
63
330
2B
100
AcDbEntity
  8
0
100
AcDbLine
 10
11.09999923964039
 20
18.70000027032858
 30
0.0
 11
55.69999923964445
 21
18.70000027032858
 31
0.0
  0
LINE
  5
64
330
2B
100
AcDbEntity
  8
0
100
AcDbLine
 10
55.99999923964543
 20
18.5000002703286
 30
0.0
 11
10.99999923964037
 21
18.5000002703286
 31
0.0
  0
LINE
  5
65
330
2B
100
AcDbEntity
  8
0
100
AcDbLine
 10
5.999999239644409
 20
16.50000027032859
 30
0.0
 11
57.99999923964543
 21
16.50000027032859
 31
0.0
  0
LINE
  5
66
330
2B
100
AcDbEntity
  8
0
100
AcDbLine
 10
3.999999239645431
 20
6.500000270328597
 30
0.0
 11
26.89999923964541
 21
6.500000270328597
 31
0.0
  0
CIRCLE
  5
67
330
2B
100
AcDbEntity
  8
0
100
AcDbCircle
 10
18.09999923964443
 20
29.12000027032854
 30
0.0
 40
2.0
  0
CIRCLE
  5
68
330
2B
100
AcDbEntity
  8
0
100
AcDbCircle
 10
18.09999923964443
 20
59.27000027032954
 30
0.0
 40
1.5
  0
CIRCLE
  5
69
330
2B
100
AcDbEntity
  8
0
100
AcDbCircle
 10
18.09999923964443
 20
59.27000027032954
 30
0.0
 40
1.0
  0
LINE
  5
6A
330
2B
100
AcDbEntity
  8
0
100
AcDbLine
 10
14.09999923964442
 20
62.14000027032859
 30
0.0
 11
14.09999923964442
 21
21.50000027032857
 31
0.0
  0
LINE
  5
6B
330
2B
100
AcDbEntity
  8
0
100
AcDbLine
 10
14.09999923964539
 20
20.7000001109846
 30
0.0
 11
14.09999923964534
 21
107.0000001109844
 31
0.0
  0
LINE
  5
6C
330
2B
100
AcDbEntity
  8
0
100
AcDbLine
 10
12.9999993615624
 20
107.0000001109844
 30
0.0
 11
12.9999993615624
 21
20.7000001109846
 31
0.0
  0
LINE
  5
6D
330
2B
100
AcDbEntity
  8
0
100
AcDbLine
 10
0.9738222913373988
 20
6.579243502551546
 30
0.0
 11
3.999999239645431
 21
6.500000270328597
 31
0.0
  0
ARC
  5
6E
330
2B
100
AcDbEntity
  8
0
100
AcDbCircle
 10
0.9999992396454333
 20
7.578900827527602
 30
0.0
 40
1.0
100
AcDbArc
 50
180.0
 51
268.5000000000005
  0
ARC
  5
6F
330
2B
100
AcDbEntity
  8
0
100
AcDbCircle
 10
4.199999239644455
 20
33.5000002703286
 30
0.0
 40
6.899999999996
100
AcDbArc
 50
0.0
 51
55.58261128953784
  0
ARC
  5
70
330
2B
100
AcDbEntity
  8
0
100
AcDbCircle
 10
4.299999239645443
 20
33.5000002703286
 30
0.0
 40
6.699999999996
100
AcDbArc
 50
0.0
 51
56.47925960398207
  0
ARC
  5
71
330
2B
100
AcDbEntity
  8
0
100
AcDbCircle
 10
4.299999239645443
 20
33.5000002703286
 30
0.0
 40
3.699999999995998
100
AcDbArc
 50
0.0
 51
79.09453000326083
  0
ARC
  5
72
330
2B
100
AcDbEntity
  8
0
100
AcDbCircle
 10
4.299999239645443
 20
33.5000002703286
 30
0.0
 40
4.699999999995998
100
AcDbArc
 50
0.0
 51
68.79523363710432
  0
ARC
  5
73
330
2B
100
AcDbEntity
  8
0
100
AcDbCircle
 10
4.299999239645443
 20
33.5000002703286
 30
0.0
 40
3.699999999995998
100
AcDbArc
 50
0.0
 51
79.09453000326083
  0
LINE
  5
74
330
2B
100
AcDbEntity
  8
0
100
AcDbLine
 10
3.999999239645431
 20
16.50000027032859
 30
0.0
 11
7.999999239640374
 21
16.6047439566056
 31
0.0
  0
CIRCLE
  5
75
330
2B
100
AcDbEntity
  8
0
100
AcDbCircle
 10
3.999999239645431
 20
21.50000027032857
 30
0.0
 40
1.6
  0
CIRCLE
  5
76
330
2B
100
AcDbEntity
  8
0
100
AcDbCircle
 10
3.999999239645431
 20
21.50000027032857
 30
0.0
 40
2.0
  0
LINE
  5
77
330
2B
100
AcDbEntity
  8
0
100
AcDbLine
 10
0.4869107654913594
 20
16.59199372957857
 30
0.0
 11
3.999999239645431
 21
16.50000027032859
 31
0.0
  0
ARC
  5
78
330
2B
100
AcDbEntity
  8
0
100
AcDbCircle
 10
0.4999992396454334
 20
17.0918223920666
 30
0.0
 40
0.5
100
AcDbArc
 50
180.0
 51
268.5000000000005
  0
LINE
  5
79
330
2B
100
AcDbEntity
  8
0
100
AcDbLine
 10
5.999999239642875
 20
16.55237211346707
 30
0.0
 11
5.999999239644409
 21
16.50000027032859
 31
0.0
  0
CIRCLE
  5
7A
330
2B
100
AcDbEntity
  8
0
100
AcDbCircle
 10
3.999999239645431
 20
31.50000027032858
 30
0.0
 40
1.6
  0
CIRCLE
  5
7B
330
2B
100
AcDbEntity
  8
0
100
AcDbCircle
 10
3.999999239645431
 20
31.50000027032858
 30
0.0
 40
2.0
  0
LINE
  5
7C
330
2B
100
AcDbEntity
  8
0
100
AcDbLine
 10
11.09999923964136
 20
33.5000002703286
 30
0.0
 11
11.09999923964039
 21
18.70000027032858
 31
0.0
  0
LINE
  5
7D
330
2B
100
AcDbEntity
  8
0
100
AcDbLine
 10
7.999999239641397
 20
33.5000002703286
 30
0.0
 11
7.999999239640374
 21
17.00000027032859
 31
0.0
  0
LINE
  5
7E
330
2B
100
AcDbEntity
  8
0
100
AcDbLine
 10
10.99999923964139
 20
33.5000002703286
 30
0.0
 11
10.99999923964037
 21
18.5000002703286
 31
0.0
  0
LINE
  5
7F
330
2B
100
AcDbEntity
  8
0
100
AcDbLine
 10
8.999999239641399
 20
33.5000002703286
 30
0.0
 11
8.999999239640372
 21
16.50000027032859
 31
0.0
  0
LINE
  5
80
330
2B
100
AcDbEntity
  8
0
100
AcDbLine
 10
7.999999239641397
 20
33.5000002703286
 30
0.0
 11
7.999999239640374
 21
16.6047439566056
 31
0.0
  0
LINE
  5
81
330
2B
100
AcDbEntity
  8
0
100
AcDbLine
 10
8.999999239640372
 20
17.00000027032859
 30
0.0
 11
7.999999239640374
 21
17.00000027032842
 31
0.0
  0
CIRCLE
  5
82
330
2B
100
AcDbEntity
  8
0
100
AcDbCircle
 10
18.09999923964443
 20
24.37000027032854
 30
0.0
 40
1.5
  0
CIRCLE
  5
83
330
2B
100
AcDbEntity
  8
0
100
AcDbCircle
 10
18.09999923964443
 20
24.37000027032854
 30
0.0
 40
1.0
  0
ARC
  5
84
330
2B
100
AcDbEntity
  8
0
100
AcDbCircle
 10
1.149999239645409
 20
39.35000027032856
 30
0.0
 40
0.15
100
AcDbArc
 50
90.0
 51
270.0
  0
CIRCLE
  5
85
330
2B
100
AcDbEntity
  8
0
100
AcDbCircle
 10
2.499999239645433
 20
39.5000002703286
 30
0.0
 40
1.85
  0
CIRCLE
  5
86
330
2B
100
AcDbEntity
  8
0
100
AcDbCircle
 10
2.499999239645433
 20
39.5000002703286
 30
0.0
 40
2.149999999999999
  0
ARC
  5
87
330
2B
100
AcDbEntity
  8
0
100
AcDbCircle
 10
3.449999239644455
 20
38.70000027032858
 30
0.0
 40
0.15
100
AcDbArc
 50
270.0
 51
90.0
  0
ARC
  5
88
330
2B
100
AcDbEntity
  8
0
100
AcDbCircle
 10
1.549999239645444
 20
38.70000027032858
 30
0.0
 40
0.15
100
AcDbArc
 50
90.0
 51
270.0
  0
ARC
  5
89
330
2B
100
AcDbEntity
  8
0
100
AcDbCircle
 10
3.049999239644421
 20
38.0500002703286
 30
0.0
 40
0.15
100
AcDbArc
 50
270.0
 51
90.0
  0
ARC
  5
8A
330
2B
100
AcDbEntity
  8
0
100
AcDbCircle
 10
1.949999239645419
 20
38.0500002703286
 30
0.0
 40
0.15
100
AcDbArc
 50
90.0
 51
270.0
  0
LINE
  5
8B
330
2B
100
AcDbEntity
  8
0
100
AcDbLine
 10
1.949999239645419
 20
37.90000027032856
 30
0.0
 11
3.049999239644421
 21
37.90000027032856
 31
0.0
  0
LINE
  5
8C
330
2B
100
AcDbEntity
  8
0
100
AcDbLine
 10
1.949999239645419
 20
38.20000027032858
 30
0.0
 11
3.049999239644421
 21
38.20000027032858
 31
0.0
  0
LINE
  5
8D
330
2B
100
AcDbEntity
  8
0
100
AcDbLine
 10
1.549999239645444
 20
38.55000027032861
 30
0.0
 11
3.449999239644455
 21
38.55000027032861
 31
0.0
  0
LINE
  5
8E
330
2B
100
AcDbEntity
  8
0
100
AcDbLine
 10
1.549999239645444
 20
38.85000027032856
 30
0.0
 11
3.449999239644455
 21
38.85000027032856
 31
0.0
  0
LINE
  5
8F
330
2B
100
AcDbEntity
  8
0
100
AcDbLine
 10
2.649999239644444
 20
39.5000002703286
 30
0.0
 11
3.849999239645399
 21
39.5000002703286
 31
0.0
  0
LINE
  5
90
330
2B
100
AcDbEntity
  8
0
100
AcDbLine
 10
1.149999239645409
 20
39.5000002703286
 30
0.0
 11
2.349999239645399
 21
39.5000002703286
 31
0.0
  0
ARC
  5
91
330
2B
100
AcDbEntity
  8
0
100
AcDbCircle
 10
3.849999239645399
 20
39.35000027032856
 30
0.0
 40
0.15
100
AcDbArc
 50
270.0
 51
90.0
  0
ARC
  5
92
330
2B
100
AcDbEntity
  8
0
100
AcDbCircle
 10
2.499999239645433
 20
40.85000027032856
 30
0.0
 40
0.15
100
AcDbArc
 50
0.0
 51
180.0
  0
LINE
  5
93
330
2B
100
AcDbEntity
  8
0
100
AcDbLine
 10
2.649999239644444
 20
39.5000002703286
 30
0.0
 11
2.649999239644444
 21
40.85000027032856
 31
0.0
  0
LINE
  5
94
330
2B
100
AcDbEntity
  8
0
100
AcDbLine
 10
2.349999239645399
 20
39.5000002703286
 30
0.0
 11
2.349999239645399
 21
40.85000027032856
 31
0.0
  0
LINE
  5
95
330
2B
100
AcDbEntity
  8
0
100
AcDbLine
 10
1.149999239645409
 20
39.20000027032859
 30
0.0
 11
3.849999239645399
 21
39.20000027032859
 31
0.0
  0
LINE
  5
96
330
2B
100
AcDbEntity
  8
0
100
AcDbLine
 10
16.09999923964442
 20
87.28000027032861
 30
0.0
 11
16.09999923964442
 21
83.86000027032855
 31
0.0
  0
LINE
  5
97
330
2B
100
AcDbEntity
  8
0
100
AcDbLine
 10
14.09999923964442
 20
106.0000002703286
 30
0.0
 11
14.09999923964442
 21
65.14000027032858
 31
0.0
  0
LINE
  5
98
330
2B
100
AcDbEntity
  8
0
100
AcDbLine
 10
16.09999923964442
 20
72.04000027032861
 30
0.0
 11
16.09999923964442
 21
71.14000027032858
 31
0.0
  0
LINE
  5
99
330
2B
100
AcDbEntity
  8
0
100
AcDbLine
 10
14.09999923964442
 20
70.38000027032859
 30
0.0
 11
14.09999923964442
 21
65.14000027032858
 31
0.0
  0
CIRCLE
  5
9A
330
2B
100
AcDbEntity
  8
0
100
AcDbCircle
 10
18.06361317924137
 20
68.04000027032862
 30
0.0
 40
0.9
  0
LINE
  5
9B
330
2B
100
AcDbEntity
  8
0
100
AcDbLine
 10
16.09999923964442
 20
79.66000027032862
 30
0.0
 11
16.09999923964442
 21
76.24000027032855
 31
0.0
  0
CIRCLE
  5
9C
330
2B
100
AcDbEntity
  8
0
100
AcDbCircle
 10
18.09999923964443
 20
81.76000027032861
 30
0.0
 40
0.75
  0
CIRCLE
  5
9D
330
2B
100
AcDbEntity
  8
0
100
AcDbCircle
 10
18.09999923964443
 20
81.76000027032861
 30
0.0
 40
1.5
  0
ARC
  5
9E
330
2B
100
AcDbEntity
  8
0
100
AcDbCircle
 10
18.09999923964443
 20
81.76000027032861
 30
0.0
 40
2.9
100
AcDbArc
 50
133.6028189726986
 51
226.3971810273013
  0
CIRCLE
  5
9F
330
2B
100
AcDbEntity
  8
0
100
AcDbCircle
 10
18.09999923964443
 20
74.1400002703286
 30
0.0
 40
0.75
  0
CIRCLE
  5
A0
330
2B
100
AcDbEntity
  8
0
100
AcDbCircle
 10
18.09999923964443
 20
74.1400002703286
 30
0.0
 40
1.5
  0
ARC
  5
A1
330
2B
100
AcDbEntity
  8
0
100
AcDbCircle
 10
18.09999923964443
 20
74.1400002703286
 30
0.0
 40
2.9
100
AcDbArc
 50
133.6028189726986
 51
226.3971810273013
  0
CIRCLE
  5
A2
330
2B
100
AcDbEntity
  8
0
100
AcDbCircle
 10
18.09999923964443
 20
97.0000002703286
 30
0.0
 40
1.5
  0
CIRCLE
  5
A3
330
2B
100
AcDbEntity
  8
0
100
AcDbCircle
 10
18.09999923964443
 20
97.0000002703286
 30
0.0
 40
0.75
  0
ARC
  5
A4
330
2B
100
AcDbEntity
  8
0
100
AcDbCircle
 10
18.09999923964443
 20
97.0000002703286
 30
0.0
 40
2.9
100
AcDbArc
 50
133.6028189726986
 51
226.3971810273013
  0
CIRCLE
  5
A5
330
2B
100
AcDbEntity
  8
0
100
AcDbCircle
 10
18.09999923964443
 20
89.3800002703286
 30
0.0
 40
0.75
  0
CIRCLE
  5
A6
330
2B
100
AcDbEntity
  8
0
100
AcDbCircle
 10
18.09999923964443
 20
89.3800002703286
 30
0.0
 40
1.5
  0
LINE
  5
A7
330
2B
100
AcDbEntity
  8
0
100
AcDbLine
 10
16.09999923964442
 20
94.90000027032856
 30
0.0
 11
16.09999923964442
 21
91.48000027032855
 31
0.0
  0
ARC
  5
A8
330
2B
100
AcDbEntity
  8
0
100
AcDbCircle
 10
18.09999923964443
 20
89.3800002703286
 30
0.0
 40
2.9
100
AcDbArc
 50
133.6028189726986
 51
226.3971810273013
  0
CIRCLE
  5
A9
330
2B
100
AcDbEntity
  8
0
100
AcDbCircle
 10
18.09999923964443
 20
103.1000002703285
 30
0.0
 40
0.9
  0
LINE
  5
AA
330
2B
100
AcDbEntity
  8
0
100
AcDbLine
 10
14.09999923964442
 20
100.7600002703284
 30
0.0
 11
14.09999923964442
 21
106.0000002703286
 31
0.0
  0
LINE
  5
AB
330
2B
100
AcDbEntity
  8
0
100
AcDbLine
 10
16.09999923964442
 20
99.64000027032859
 30
0.0
 11
16.09999923964442
 21
99.10000027032857
 31
0.0
  0
LINE
  5
AC
330
2B
100
AcDbEntity
  8
0
100
AcDbLine
 10
15.59999923964443
 20
133.6600002703285
 30
0.0
 11
15.59999923964443
 21
136.6600002703285
 31
0.0
  0
LINE
  5
AD
330
2B
100
AcDbEntity
  8
0
100
AcDbLine
 10
14.09999923964442
 20
136.6600002703285
 30
0.0
 11
14.09999923964442
 21
133.6600002703285
 31
0.0
  0
LINE
  5
AE
330
2B
100
AcDbEntity
  8
0
100
AcDbLine
 10
15.59999923964443
 20
136.6600002703285
 30
0.0
 11
15.59999923964443
 21
112.5000002703286
 31
0.0
  0
LINE
  5
AF
330
2B
100
AcDbEntity
  8
0
100
AcDbLine
 10
16.59999923964441
 20
136.6600002703285
 30
0.0
 11
16.59999923964441
 21
112.5000002703286
 31
0.0
  0
LINE
  5
B0
330
2B
100
AcDbEntity
  8
0
100
AcDbLine
 10
12.9999993615624
 20
137.7000001109843
 30
0.0
 11
12.9999993615624
 21
111.5000001109845
 31
0.0
  0
LINE
  5
B1
330
2B
100
AcDbEntity
  8
0
100
AcDbLine
 10
14.09999923964539
 20
111.5000001109845
 30
0.0
 11
14.09999923964539
 21
137.7000001109843
 31
0.0
  0
LINE
  5
B2
330
2B
100
AcDbEntity
  8
0
100
AcDbLine
 10
15.59999923964443
 20
119.0000002703285
 30
0.0
 11
15.59999923964443
 21
120.0000002703285
 31
0.0
  0
LINE
  5
B3
330
2B
100
AcDbEntity
  8
0
100
AcDbLine
 10
15.59999923964443
 20
120.0000002703285
 30
0.0
 11
14.09999923964539
 21
120.0000002703285
 31
0.0
  0
LINE
  5
B4
330
2B
100
AcDbEntity
  8
0
100
AcDbLine
 10
15.59999923964443
 20
115.5000002703286
 30
0.0
 11
14.09999923964442
 21
115.5000002703286
 31
0.0
  0
LINE
  5
B5
330
2B
100
AcDbEntity
  8
0
100
AcDbLine
 10
14.09999923964539
 20
119.0000002703285
 30
0.0
 11
15.59999923964443
 21
119.0000002703285
 31
0.0
  0
LINE
  5
B6
330
2B
100
AcDbEntity
  8
0
100
AcDbLine
 10
19.59999923964442
 20
120.5000002703286
 30
0.0
 11
19.59999923964442
 21
118.5000002703286
 31
0.0
  0
LINE
  5
B7
330
2B
100
AcDbEntity
  8
0
100
AcDbLine
 10
15.59999923964443
 20
112.5000002703286
 30
0.0
 11
15.59999923964443
 21
113.5000002703286
 31
0.0
  0
LINE
  5
B8
330
2B
100
AcDbEntity
  8
0
100
AcDbLine
 10
14.09999923964442
 20
112.5000002703286
 30
0.0
 11
15.59999923964443
 21
112.5000002703286
 31
0.0
  0
LINE
  5
B9
330
2B
100
AcDbEntity
  8
0
100
AcDbLine
 10
15.59999923964443
 20
112.5000002703286
 30
0.0
 11
15.59999923964443
 21
115.5000002703286
 31
0.0
  0
LINE
  5
BA
330
2B
100
AcDbEntity
  8
0
100
AcDbLine
 10
14.09999923964442
 20
115.5000002703286
 30
0.0
 11
14.09999923964442
 21
112.5000002703286
 31
0.0
  0
LINE
  5
BB
330
2B
100
AcDbEntity
  8
0
100
AcDbLine
 10
14.09999923964442
 20
133.6600002703285
 30
0.0
 11
15.59999923964443
 21
133.6600002703285
 31
0.0
  0
LINE
  5
BC
330
2B
100
AcDbEntity
  8
0
100
AcDbLine
 10
15.59999923964443
 20
129.1600002703285
 30
0.0
 11
15.59999923964443
 21
130.1600002703285
 31
0.0
  0
LINE
  5
BD
330
2B
100
AcDbEntity
  8
0
100
AcDbLine
 10
19.59999923964442
 20
130.6600002703285
 30
0.0
 11
19.59999923964442
 21
128.6600002703286
 31
0.0
  0
LINE
  5
BE
330
2B
100
AcDbEntity
  8
0
100
AcDbLine
 10
15.59999923964443
 20
130.1600002703285
 30
0.0
 11
14.09999923964539
 21
130.1600002703285
 31
0.0
  0
LINE
  5
BF
330
2B
100
AcDbEntity
  8
0
100
AcDbLine
 10
14.09999923964539
 20
129.1600002703285
 30
0.0
 11
15.59999923964443
 21
129.1600002703285
 31
0.0
  0
LINE
  5
C0
330
2B
100
AcDbEntity
  8
0
100
AcDbLine
 10
15.59999923964443
 20
124.0800002703285
 30
0.0
 11
15.59999923964443
 21
125.0800002703285
 31
0.0
  0
LINE
  5
C1
330
2B
100
AcDbEntity
  8
0
100
AcDbLine
 10
19.59999923964442
 20
125.5800002703284
 30
0.0
 11
19.59999923964442
 21
123.5800002703284
 31
0.0
  0
LINE
  5
C2
330
2B
100
AcDbEntity
  8
0
100
AcDbLine
 10
15.59999923964443
 20
125.0800002703285
 30
0.0
 11
14.09999923964539
 21
125.0800002703285
 31
0.0
  0
LINE
  5
C3
330
2B
100
AcDbEntity
  8
0
100
AcDbLine
 10
14.09999923964539
 20
124.0800002703285
 30
0.0
 11
15.59999923964443
 21
124.0800002703285
 31
0.0
  0
LINE
  5
C4
330
2B
100
AcDbEntity
  8
0
100
AcDbLine
 10
14.09999923964442
 20
157.9400002703285
 30
0.0
 11
14.09999923964442
 21
142.5400002703285
 31
0.0
  0
CIRCLE
  5
C5
330
2B
100
AcDbEntity
  8
0
100
AcDbCircle
 10
17.59999923964443
 20
144.9900002703286
 30
0.0
 40
1.0
  0
LINE
  5
C6
330
2B
100
AcDbEntity
  8
0
100
AcDbLine
 10
15.59999923964443
 20
136.6600002703285
 30
0.0
 11
15.59999923964443
 21
135.6600002703285
 31
0.0
  0
LINE
  5
C7
330
2B
100
AcDbEntity
  8
0
100
AcDbLine
 10
15.59999923964443
 20
136.6600002703285
 30
0.0
 11
16.59999923964441
 21
136.6600002703285
 31
0.0
  0
LINE
  5
C8
330
2B
100
AcDbEntity
  8
0
100
AcDbLine
 10
15.59999923964443
 20
136.6600002703285
 30
0.0
 11
14.09999923964442
 21
136.6600002703285
 31
0.0
  0
CIRCLE
  5
C9
330
2B
100
AcDbEntity
  8
0
100
AcDbCircle
 10
17.59999923964443
 20
155.4900002703286
 30
0.0
 40
1.0
  0
CIRCLE
  5
CA
330
2B
100
AcDbEntity
  8
0
100
AcDbCircle
 10
17.59999923964443
 20
148.4900002703286
 30
0.0
 40
1.0
  0
CIRCLE
  5
CB
330
2B
100
AcDbEntity
  8
0
100
AcDbCircle
 10
17.59999923964443
 20
151.9900002703286
 30
0.0
 40
1.0
  0
LINE
  5
CC
330
2B
100
AcDbEntity
  8
0
100
AcDbLine
 10
47.44999923964542
 20
58.30000027032861
 30
0.0
 11
47.44999923964542
 21
60.70000027032961
 31
0.0
  0
LINE
  5
CD
330
2B
100
AcDbEntity
  8
0
100
AcDbLine
 10
49.09999923964539
 20
65.40000027032954
 30
0.0
 11
49.09999923964539
 21
58.30000027032861
 31
0.0
  0
LINE
  5
CE
330
2B
100
AcDbEntity
  8
0
100
AcDbLine
 10
41.1499992396454
 20
60.70000027032961
 30
0.0
 11
41.1499992396454
 21
58.30000027032861
 31
0.0
  0
LINE
  5
CF
330
2B
100
AcDbEntity
  8
0
100
AcDbLine
 10
48.79999923964543
 20
28.5000002703286
 30
0.0
 11
48.79999923964543
 21
65.70000027032858
 31
0.0
  0
LINE
  5
D0
330
2B
100
AcDbEntity
  8
0
100
AcDbLine
 10
39.69999923964542
 20
64.7000002703286
 30
0.0
 11
39.69999923964542
 21
29.5000002703286
 31
0.0
  0
LINE
  5
D1
330
2B
100
AcDbEntity
  8
0
100
AcDbLine
 10
22.69999923964445
 20
21.50000027032857
 30
0.0
 11
22.69999923964445
 21
62.14000027032859
 31
0.0
  0
LINE
  5
D2
330
2B
100
AcDbEntity
  8
0
100
AcDbLine
 10
38.59999936156237
 20
66.2000001109846
 30
0.0
 11
38.59999936156237
 21
20.7000001109846
 31
0.0
  0
LINE
  5
D3
330
2B
100
AcDbEntity
  8
0
100
AcDbLine
 10
49.99999936156337
 20
66.2000001109846
 30
0.0
 11
49.99999936156337
 21
20.7000001109846
 31
0.0
  0
LINE
  5
D4
330
2B
100
AcDbEntity
  8
0
100
AcDbLine
 10
23.59999936156236
 20
75.10000011098464
 30
0.0
 11
23.59999936156236
 21
20.7000001109846
 31
0.0
  0
LINE
  5
D5
330
2B
100
AcDbEntity
  8
0
100
AcDbLine
 10
49.09999923964539
 20
66.20000011098453
 30
0.0
 11
49.09999923964539
 21
20.7000001109846
 31
0.0
  0
LINE
  5
D6
330
2B
100
AcDbEntity
  8
0
100
AcDbLine
 10
53.49999923964439
 20
0.0000002703285986
 30
0.0
 11
53.49999923964439
 21
16.50000027032859
 31
0.0
  0
LINE
  5
D7
330
2B
100
AcDbEntity
  8
0
100
AcDbLine
 10
34.49999923964542
 20
11.50000027032859
 30
0.0
 11
34.49999923964542
 21
6.500000270328597
 31
0.0
  0
LINE
  5
D8
330
2B
100
AcDbEntity
  8
0
100
AcDbLine
 10
34.49999923964439
 20
0.0000002703285986
 30
0.0
 11
34.49999923964439
 21
16.50000027032859
 31
0.0
  0
LINE
  5
D9
330
2B
100
AcDbEntity
  8
0
100
AcDbLine
 10
31.0999992396454
 20
11.50000027032859
 30
0.0
 11
31.0999992396454
 21
6.500000270328597
 31
0.0
  0
LINE
  5
DA
330
2B
100
AcDbEntity
  8
0
100
AcDbLine
 10
26.89999923964541
 20
11.50000027032859
 30
0.0
 11
26.89999923964541
 21
6.500000270328597
 31
0.0
  0
LINE
  5
DB
330
2B
100
AcDbEntity
  8
0
100
AcDbLine
 10
23.49999923964543
 20
11.50000027032859
 30
0.0
 11
23.49999923964543
 21
6.500000270328597
 31
0.0
  0
ARC
  5
DC
330
2B
100
AcDbEntity
  8
0
100
AcDbCircle
 10
43.99999923964439
 20
9.500000270328598
 30
0.0
 40
7.5
100
AcDbArc
 50
180.0
 51
0.0
  0
LINE
  5
DD
330
2B
100
AcDbEntity
  8
0
100
AcDbLine
 10
53.49999923964439
 20
0.0000002703285986
 30
0.0
 11
34.49999923964439
 21
0.0000002703285986
 31
0.0
  0
ARC
  5
DE
330
2B
100
AcDbEntity
  8
0
100
AcDbCircle
 10
43.99999923964439
 20
9.500000270328598
 30
0.0
 40
9.5
100
AcDbArc
 50
186.0423284190541
 51
353.9576715809455
  0
LINE
  5
DF
330
2B
100
AcDbEntity
  8
0
100
AcDbLine
 10
31.0999992396454
 20
6.500000270328597
 30
0.0
 11
34.49999923964439
 21
6.500000270328597
 31
0.0
  0
LINE
  5
E0
330
2B
100
AcDbEntity
  8
0
100
AcDbLine
 10
36.56696486598536
 20
8.500000270328598
 30
0.0
 11
34.55277742579937
 21
8.500000270328598
 31
0.0
  0
ARC
  5
E1
330
2B
100
AcDbEntity
  8
0
100
AcDbCircle
 10
56.99999923964544
 20
7.500000270328597
 30
0.0
 40
1.0
100
AcDbArc
 50
270.0
 51
0.0
  0
LINE
  5
E2
330
2B
100
AcDbEntity
  8
0
100
AcDbLine
 10
53.44722105349041
 20
8.500000270328598
 30
0.0
 11
51.43303361330442
 21
8.500000270328598
 31
0.0
  0
LINE
  5
E3
330
2B
100
AcDbEntity
  8
0
100
AcDbLine
 10
53.49999923964436
 20
6.500000270328597
 30
0.0
 11
56.99999923964544
 21
6.500000270328597
 31
0.0
  0
LINE
  5
E4
330
2B
100
AcDbEntity
  8
0
100
AcDbLine
 10
43.66763732985043
 20
57.1318519229066
 30
0.0
 11
45.96763732985045
 21
56.51556878031556
 31
0.0
  0
LINE
  5
E5
330
2B
100
AcDbEntity
  8
0
100
AcDbLine
 10
41.1499992396454
 20
58.30000027032861
 30
0.0
 11
47.44999923964542
 21
58.30000027032861
 31
0.0
  0
LINE
  5
E6
330
2B
100
AcDbEntity
  8
0
100
AcDbLine
 10
45.8999992396454
 20
55.70000027032858
 30
0.0
 11
42.69999923964542
 21
55.70000027032961
 31
0.0
  0
LINE
  5
E7
330
2B
100
AcDbEntity
  8
0
100
AcDbLine
 10
43.66763732985043
 20
37.06814861775058
 30
0.0
 11
45.96763732985045
 21
37.68443176034157
 31
0.0
  0
LINE
  5
E8
330
2B
100
AcDbEntity
  8
0
100
AcDbLine
 10
42.69999923964542
 20
38.5000002703286
 30
0.0
 11
45.8999992396454
 21
38.5000002703286
 31
0.0
  0
LINE
  5
E9
330
2B
100
AcDbEntity
  8
0
100
AcDbLine
 10
41.1499992396454
 20
33.5000002703286
 30
0.0
 11
47.44999923964542
 21
33.5000002703286
 31
0.0
  0
LINE
  5
EA
330
2B
100
AcDbEntity
  8
0
100
AcDbLine
 10
41.1499992396454
 20
34.00000027032859
 30
0.0
 11
47.44999923964542
 21
34.00000027032859
 31
0.0
  0
LINE
  5
EB
330
2B
100
AcDbEntity
  8
0
100
AcDbLine
 10
41.1499992396454
 20
35.90000027032857
 30
0.0
 11
47.44999923964542
 21
35.90000027032857
 31
0.0
  0
LINE
  5
EC
330
2B
100
AcDbEntity
  8
0
100
AcDbLine
 10
39.69999923964542
 20
29.5000002703286
 30
0.0
 11
48.79999923964543
 21
29.5000002703286
 31
0.0
  0
LINE
  5
ED
330
2B
100
AcDbEntity
  8
0
100
AcDbLine
 10
40.49999923964542
 20
28.5000002703286
 30
0.0
 11
48.79999923964543
 21
28.5000002703286
 31
0.0
  0
LINE
  5
EE
330
2B
100
AcDbEntity
  8
0
100
AcDbLine
 10
42.59999923964443
 20
21.50000027032857
 30
0.0
 11
49.09999923964443
 21
21.50000027032857
 31
0.0
  0
LINE
  5
EF
330
2B
100
AcDbEntity
  8
0
100
AcDbLine
 10
49.09999923964443
 20
27.0000002703286
 30
0.0
 11
42.59999923964443
 21
27.0000002703286
 31
0.0
  0
LINE
  5
F0
330
2B
100
AcDbEntity
  8
0
100
AcDbLine
 10
49.99999936156337
 20
20.7000001109846
 30
0.0
 11
38.59999936156237
 21
20.7000001109846
 31
0.0
  0
CIRCLE
  5
F1
330
2B
100
AcDbEntity
  8
0
100
AcDbCircle
 10
44.29999923964543
 20
31.47000027032857
 30
0.0
 40
1.399999999999999
  0
LINE
  5
F2
330
2B
100
AcDbEntity
  8
0
100
AcDbLine
 10
41.1499992396454
 20
35.90000027032857
 30
0.0
 11
41.1499992396454
 21
33.5000002703286
 31
0.0
  0
ARC
  5
F3
330
2B
100
AcDbEntity
  8
0
100
AcDbCircle
 10
28.99999923964543
 20
11.50000027032859
 30
0.0
 40
5.5
100
AcDbArc
 50
0.0
 51
65.38002267134462
  0
ARC
  5
F4
330
2B
100
AcDbEntity
  8
0
100
AcDbCircle
 10
28.99999923964543
 20
11.50000027032859
 30
0.0
 40
5.5
100
AcDbArc
 50
114.6199773286552
 51
180.0
  0
ARC
  5
F5
330
2B
100
AcDbEntity
  8
0
100
AcDbCircle
 10
28.99999923964543
 20
11.50000027032859
 30
0.0
 40
2.1
100
AcDbArc
 50
0.0
 51
180.0
  0
LINE
  5
F6
330
2B
100
AcDbEntity
  8
0
100
AcDbLine
 10
42.59999923964443
 20
27.0000002703286
 30
0.0
 11
42.59999923964443
 21
21.50000027032857
 31
0.0
  0
LINE
  5
F7
330
2B
100
AcDbEntity
  8
0
100
AcDbLine
 10
43.59999923964443
 20
21.50000027032857
 30
0.0
 11
43.59999923964443
 21
27.0000002703286
 31
0.0
  0
LINE
  5
F8
330
2B
100
AcDbEntity
  8
0
100
AcDbLine
 10
36.49999923964435
 20
16.50000027032859
 30
0.0
 11
36.49999923964441
 21
9.500000270328598
 31
0.0
  0
LINE
  5
F9
330
2B
100
AcDbEntity
  8
0
100
AcDbLine
 10
42.59999923964443
 20
21.50000027032857
 30
0.0
 11
43.59999923964443
 21
21.50000027032857
 31
0.0
  0
LINE
  5
FA
330
2B
100
AcDbEntity
  8
0
100
AcDbLine
 10
39.99999923964542
 20
29.5000002703286
 30
0.0
 11
39.99999923964542
 21
29.00000027032858
 31
0.0
  0
ARC
  5
FB
330
2B
100
AcDbEntity
  8
0
100
AcDbCircle
 10
40.49999923964542
 20
29.00000027032858
 30
0.0
 40
0.5
100
AcDbArc
 50
180.0
 51
270.0
  0
LINE
  5
FC
330
2B
100
AcDbEntity
  8
0
100
AcDbLine
 10
43.59999923964443
 20
25.00000027032859
 30
0.0
 11
42.59999923964443
 21
25.00000027032859
 31
0.0
  0
LINE
  5
FD
330
2B
100
AcDbEntity
  8
0
100
AcDbLine
 10
42.59999923964443
 20
23.5000002703286
 30
0.0
 11
43.59999923964443
 21
23.5000002703286
 31
0.0
  0
LINE
  5
FE
330
2B
100
AcDbEntity
  8
0
100
AcDbLine
 10
42.59999923964443
 20
25.00000027032859
 30
0.0
 11
42.59999923964443
 21
23.5000002703286
 31
0.0
  0
LINE
  5
FF
330
2B
100
AcDbEntity
  8
0
100
AcDbLine
 10
43.59999923964443
 20
23.5000002703286
 30
0.0
 11
43.59999923964443
 21
25.00000027032859
 31
0.0
  0
LINE
  5
100
330
2B
100
AcDbEntity
  8
0
100
AcDbLine
 10
42.69999923964542
 20
55.70000027032858
 30
0.0
 11
42.69999923964542
 21
38.5000002703286
 31
0.0
  0
LINE
  5
101
330
2B
100
AcDbEntity
  8
0
100
AcDbLine
 10
41.1499992396454
 20
55.2000002703286
 30
0.0
 11
41.1499992396454
 21
39.00000027032859
 31
0.0
  0
ARC
  5
102
330
2B
100
AcDbEntity
  8
0
100
AcDbCircle
 10
43.14999923964539
 20
39.00000027032859
 30
0.0
 40
2.0
100
AcDbArc
 50
180.0
 51
285.0000000000013
  0
ARC
  5
103
330
2B
100
AcDbEntity
  8
0
100
AcDbCircle
 10
43.14999923964539
 20
55.2000002703286
 30
0.0
 40
2.0
100
AcDbArc
 50
74.99999999999841
 51
180.0
  0
LINE
  5
104
330
2B
100
AcDbEntity
  8
0
100
AcDbLine
 10
47.44999923964542
 20
33.5000002703286
 30
0.0
 11
47.44999923964542
 21
35.90000027032857
 31
0.0
  0
LINE
  5
105
330
2B
100
AcDbEntity
  8
0
100
AcDbLine
 10
49.09999923964539
 20
35.90000027032857
 30
0.0
 11
49.09999923964539
 21
28.8000002703286
 31
0.0
  0
LINE
  5
106
330
2B
100
AcDbEntity
  8
0
100
AcDbLine
 10
49.09999923964443
 20
21.50000027032857
 30
0.0
 11
49.09999923964443
 21
27.0000002703286
 31
0.0
  0
LINE
  5
107
330
2B
100
AcDbEntity
  8
0
100
AcDbLine
 10
51.49999923964435
 20
16.50000027032859
 30
0.0
 11
51.4999992396444
 21
9.500000270328598
 31
0.0
  0
CIRCLE
  5
108
330
2B
100
AcDbEntity
  8
0
100
AcDbCircle
 10
45.66999923964442
 20
25.5000002703286
 30
0.0
 40
0.32
  0
CIRCLE
  5
109
330
2B
100
AcDbEntity
  8
0
100
AcDbCircle
 10
45.66999923964442
 20
23.00000027032857
 30
0.0
 40
0.32
  0
ARC
  5
10A
330
2B
100
AcDbEntity
  8
0
100
AcDbCircle
 10
48.79999923964543
 20
28.8000002703286
 30
0.0
 40
0.3
100
AcDbArc
 50
270.0
 51
0.0
  0
LINE
  5
10B
330
2B
100
AcDbEntity
  8
0
100
AcDbLine
 10
45.8999992396454
 20
38.5000002703286
 30
0.0
 11
45.8999992396454
 21
55.70000027032858
 31
0.0
  0
LINE
  5
10C
330
2B
100
AcDbEntity
  8
0
100
AcDbLine
 10
47.44999923964542
 20
39.6162834129206
 30
0.0
 11
47.44999923964542
 21
54.5837171277376
 31
0.0
  0
ARC
  5
10D
330
2B
100
AcDbEntity
  8
0
100
AcDbCircle
 10
45.44999923964541
 20
39.6162834129206
 30
0.0
 40
2.0
100
AcDbArc
 50
285.0000000000013
 51
0.0
  0
LINE
  5
10E
330
2B
100
AcDbEntity
  8
0
100
AcDbLine
 10
48.79999923964543
 20
39.48000027032958
 30
0.0
 11
49.09999923964539
 21
39.48000027032958
 31
0.0
  0
LINE
  5
10F
330
2B
100
AcDbEntity
  8
0
100
AcDbLine
 10
48.79999923964543
 20
40.75000027032954
 30
0.0
 11
49.09999923964539
 21
40.75000027032954
 31
0.0
  0
LINE
  5
110
330
2B
100
AcDbEntity
  8
0
100
AcDbLine
 10
48.79999923964543
 20
42.02000027032959
 30
0.0
 11
49.09999923964539
 21
42.02000027032959
 31
0.0
  0
LINE
  5
111
330
2B
100
AcDbEntity
  8
0
100
AcDbLine
 10
48.79999923964543
 20
43.29000027032956
 30
0.0
 11
49.09999923964539
 21
43.29000027032956
 31
0.0
  0
LINE
  5
112
330
2B
100
AcDbEntity
  8
0
100
AcDbLine
 10
48.79999923964543
 20
43.29000027032956
 30
0.0
 11
49.09999923964539
 21
43.29000027032956
 31
0.0
  0
LINE
  5
113
330
2B
100
AcDbEntity
  8
0
100
AcDbLine
 10
48.79999923964543
 20
44.56000027032962
 30
0.0
 11
49.09999923964539
 21
44.56000027032962
 31
0.0
  0
LINE
  5
114
330
2B
100
AcDbEntity
  8
0
100
AcDbLine
 10
48.79999923964543
 20
45.8300002703296
 30
0.0
 11
49.09999923964539
 21
45.8300002703296
 31
0.0
  0
LINE
  5
115
330
2B
100
AcDbEntity
  8
0
100
AcDbLine
 10
48.79999923964543
 20
35.90000027032857
 30
0.0
 11
49.09999923964539
 21
35.90000027032857
 31
0.0
  0
LINE
  5
116
330
2B
100
AcDbEntity
  8
0
100
AcDbLine
 10
48.79999923964543
 20
58.30000027032861
 30
0.0
 11
49.09999923964539
 21
58.30000027032861
 31
0.0
  0
LINE
  5
117
330
2B
100
AcDbEntity
  8
0
100
AcDbLine
 10
48.79999923964543
 20
53.45000027032961
 30
0.0
 11
49.09999923964539
 21
53.45000027032961
 31
0.0
  0
LINE
  5
118
330
2B
100
AcDbEntity
  8
0
100
AcDbLine
 10
48.79999923964543
 20
54.72000027032857
 30
0.0
 11
49.09999923964539
 21
54.72000027032857
 31
0.0
  0
LINE
  5
119
330
2B
100
AcDbEntity
  8
0
100
AcDbLine
 10
48.79999923964543
 20
50.91000027032959
 30
0.0
 11
49.09999923964539
 21
50.91000027032959
 31
0.0
  0
LINE
  5
11A
330
2B
100
AcDbEntity
  8
0
100
AcDbLine
 10
48.79999923964543
 20
52.18000027032957
 30
0.0
 11
49.09999923964539
 21
52.18000027032964
 31
0.0
  0
LINE
  5
11B
330
2B
100
AcDbEntity
  8
0
100
AcDbLine
 10
48.79999923964543
 20
53.45000027032961
 30
0.0
 11
49.09999923964539
 21
53.45000027032961
 31
0.0
  0
LINE
  5
11C
330
2B
100
AcDbEntity
  8
0
100
AcDbLine
 10
48.79999923964543
 20
48.37000027032956
 30
0.0
 11
49.09999923964539
 21
48.37000027032956
 31
0.0
  0
LINE
  5
11D
330
2B
100
AcDbEntity
  8
0
100
AcDbLine
 10
48.79999923964543
 20
49.64000027032954
 30
0.0
 11
49.09999923964539
 21
49.64000027032954
 31
0.0
  0
LINE
  5
11E
330
2B
100
AcDbEntity
  8
0
100
AcDbLine
 10
48.79999923964543
 20
50.91000027032959
 30
0.0
 11
49.09999923964539
 21
50.91000027032959
 31
0.0
  0
ARC
  5
11F
330
2B
100
AcDbEntity
  8
0
100
AcDbCircle
 10
45.44999923964541
 20
54.5837171277376
 30
0.0
 40
2.0
100
AcDbArc
 50
0.0
 51
74.99999999999841
  0
LINE
  5
120
330
2B
100
AcDbEntity
  8
0
100
AcDbLine
 10
48.79999923964543
 20
47.10000027032958
 30
0.0
 11
49.09999923964539
 21
47.10000027032958
 31
0.0
  0
LINE
  5
121
330
2B
100
AcDbEntity
  8
0
100
AcDbLine
 10
46.59999923964443
 20
108.7999995366379
 30
0.0
 11
46.59999923964443
 21
110.7999995366379
 31
0.0
  0
LINE
  5
122
330
2B
100
AcDbEntity
  8
0
100
AcDbLine
 10
49.09999923964443
 20
105.6000002703285
 30
0.0
 11
49.09999923964443
 21
111.7000002703285
 31
0.0
  0
LINE
  5
123
330
2B
100
AcDbEntity
  8
0
100
AcDbLine
 10
46.59999923964443
 20
108.7999995366379
 30
0.0
 11
46.59999923964443
 21
113.7399878855117
 31
0.0
  0
LINE
  5
124
330
2B
100
AcDbEntity
  8
0
100
AcDbLine
 10
48.84999923964443
 20
105.6000002703285
 30
0.0
 11
48.84999923964443
 21
149.2500002703286
 31
0.0
  0
LINE
  5
125
330
2B
100
AcDbEntity
  8
0
100
AcDbLine
 10
49.99999936156337
 20
151.2000001109846
 30
0.0
 11
49.99999936156337
 21
105.1000001109845
 31
0.0
  0
LINE
  5
126
330
2B
100
AcDbEntity
  8
0
100
AcDbLine
 10
49.09999923964539
 20
151.2000001109844
 30
0.0
 11
49.09999923964535
 21
105.1000001109845
 31
0.0
  0
LINE
  5
127
330
2B
100
AcDbEntity
  8
0
100
AcDbLine
 10
42.59999923964443
 20
113.7399878855117
 30
0.0
 11
42.59999923964443
 21
108.7999995366379
 31
0.0
  0
LINE
  5
128
330
2B
100
AcDbEntity
  8
0
100
AcDbLine
 10
40.34999923964443
 20
149.2500002703286
 30
0.0
 11
40.34999923964443
 21
105.6000002703285
 31
0.0
  0
LINE
  5
129
330
2B
100
AcDbEntity
  8
0
100
AcDbLine
 10
38.59999936156237
 20
105.1000001109845
 30
0.0
 11
38.59999936156237
 21
151.2000001109846
 31
0.0
  0
LINE
  5
12A
330
2B
100
AcDbEntity
  8
0
100
AcDbLine
 10
42.59999923964443
 20
108.7999995366379
 30
0.0
 11
46.59999923964443
 21
108.7999995366379
 31
0.0
  0
LINE
  5
12B
330
2B
100
AcDbEntity
  8
0
100
AcDbLine
 10
46.59999923964443
 20
108.7999995366379
 30
0.0
 11
42.59999923964443
 21
108.7999995366379
 31
0.0
  0
LINE
  5
12C
330
2B
100
AcDbEntity
  8
0
100
AcDbLine
 10
40.34999923964443
 20
105.6000002703285
 30
0.0
 11
48.84999923964443
 21
105.6000002703285
 31
0.0
  0
LINE
  5
12D
330
2B
100
AcDbEntity
  8
0
100
AcDbLine
 10
42.59999923964443
 20
105.6000002703285
 30
0.0
 11
46.59999923964443
 21
105.6000002703285
 31
0.0
  0
LINE
  5
12E
330
2B
100
AcDbEntity
  8
0
100
AcDbLine
 10
48.14999923964444
 20
101.6000002703285
 30
0.0
 11
42.14999923964444
 21
101.6000002703285
 31
0.0
  0
LINE
  5
12F
330
2B
100
AcDbEntity
  8
0
100
AcDbLine
 10
49.99999936156337
 20
105.1000001109845
 30
0.0
 11
38.59999936156237
 21
105.1000001109845
 31
0.0
  0
LINE
  5
130
330
2B
100
AcDbEntity
  8
0
100
AcDbLine
 10
49.99999936156337
 20
103.1000001109845
 30
0.0
 11
38.59999936156237
 21
103.1000001109845
 31
0.0
  0
LINE
  5
131
330
2B
100
AcDbEntity
  8
0
100
AcDbLine
 10
49.09999923964443
 20
102.6000002703285
 30
0.0
 11
41.19999923964445
 21
102.6000002703285
 31
0.0
  0
LINE
  5
132
330
2B
100
AcDbEntity
  8
0
100
AcDbLine
 10
42.14999923964444
 20
98.60000027032857
 30
0.0
 11
48.14999923964444
 21
98.60000027032857
 31
0.0
  0
CIRCLE
  5
133
330
2B
100
AcDbEntity
  8
0
100
AcDbCircle
 10
42.5999992396454
 20
90.10000027032857
 30
0.0
 40
5.5
  0
LINE
  5
134
330
2B
100
AcDbEntity
  8
0
100
AcDbLine
 10
49.09999923964539
 20
97.10000027032856
 30
0.0
 11
36.29999923964442
 21
97.10000027032856
 31
0.0
  0
LINE
  5
135
330
2B
100
AcDbEntity
  8
0
100
AcDbLine
 10
49.09999923964539
 20
83.10000027032856
 30
0.0
 11
36.29999923964442
 21
83.10000027032856
 31
0.0
  0
LINE
  5
136
330
2B
100
AcDbEntity
  8
0
100
AcDbLine
 10
41.19999923964445
 20
97.60000027032857
 30
0.0
 11
49.09999923964443
 21
97.60000027032857
 31
0.0
  0
LINE
  5
137
330
2B
100
AcDbEntity
  8
0
100
AcDbLine
 10
49.09999923964443
 20
82.60000027032857
 30
0.0
 11
41.19999923964445
 21
82.60000027032857
 31
0.0
  0
LINE
  5
138
330
2B
100
AcDbEntity
  8
0
100
AcDbLine
 10
48.14999923964444
 20
81.60000027032856
 30
0.0
 11
42.14999923964444
 21
81.60000027032856
 31
0.0
  0
LINE
  5
139
330
2B
100
AcDbEntity
  8
0
100
AcDbLine
 10
42.14999923964444
 20
78.60000027032857
 30
0.0
 11
48.14999923964444
 21
78.60000027032857
 31
0.0
  0
CIRCLE
  5
13A
330
2B
100
AcDbEntity
  8
0
100
AcDbCircle
 10
45.59999923964443
 20
71.15000027032856
 30
0.0
 40
1.0
  0
CIRCLE
  5
13B
330
2B
100
AcDbEntity
  8
0
100
AcDbCircle
 10
45.59999923964443
 20
74.65000027032856
 30
0.0
 40
1.0
  0
LINE
  5
13C
330
2B
100
AcDbEntity
  8
0
100
AcDbLine
 10
39.69999923964542
 20
64.7000002703286
 30
0.0
 11
48.79999923964543
 21
64.7000002703286
 31
0.0
  0
LINE
  5
13D
330
2B
100
AcDbEntity
  8
0
100
AcDbLine
 10
40.49999923964542
 20
65.70000027032858
 30
0.0
 11
48.79999923964543
 21
65.70000027032961
 31
0.0
  0
LINE
  5
13E
330
2B
100
AcDbEntity
  8
0
100
AcDbLine
 10
41.1499992396454
 20
60.70000027032858
 30
0.0
 11
47.44999923964542
 21
60.70000027032858
 31
0.0
  0
LINE
  5
13F
330
2B
100
AcDbEntity
  8
0
100
AcDbLine
 10
41.1499992396454
 20
60.2000002703286
 30
0.0
 11
47.44999923964542
 21
60.2000002703286
 31
0.0
  0
CIRCLE
  5
140
330
2B
100
AcDbEntity
  8
0
100
AcDbCircle
 10
44.29999923964543
 20
62.73000027032856
 30
0.0
 40
1.399999999999999
  0
LINE
  5
141
330
2B
100
AcDbEntity
  8
0
100
AcDbLine
 10
49.99999936156337
 20
68.20000011098461
 30
0.0
 11
38.59999936156237
 21
68.20000011098461
 31
0.0
  0
LINE
  5
142
330
2B
100
AcDbEntity
  8
0
100
AcDbLine
 10
49.99999936156337
 20
66.2000001109846
 30
0.0
 11
38.59999936156237
 21
66.2000001109846
 31
0.0
  0
LINE
  5
143
330
2B
100
AcDbEntity
  8
0
100
AcDbLine
 10
41.84999923964443
 20
68.70000027032857
 30
0.0
 11
49.09999923964443
 21
68.70000027032857
 31
0.0
  0
LINE
  5
144
330
2B
100
AcDbEntity
  8
0
100
AcDbLine
 10
49.09999923964443
 20
77.10000027032856
 30
0.0
 11
41.84999923964443
 21
77.10000027032856
 31
0.0
  0
LINE
  5
145
330
2B
100
AcDbEntity
  8
0
100
AcDbLine
 10
41.19999923964445
 20
77.60000027032856
 30
0.0
 11
49.09999923964443
 21
77.60000027032856
 31
0.0
  0
LINE
  5
146
330
2B
100
AcDbEntity
  8
0
100
AcDbLine
 10
35.19999936156239
 20
98.60000011098465
 30
0.0
 11
35.19999936156239
 21
82.60000011098464
 31
0.0
  0
LINE
  5
147
330
2B
100
AcDbEntity
  8
0
100
AcDbLine
 10
36.29999923964442
 20
83.10000027032856
 30
0.0
 11
36.29999923964442
 21
97.10000027032856
 31
0.0
  0
LINE
  5
148
330
2B
100
AcDbEntity
  8
0
100
AcDbLine
 10
21.09999923964442
 20
88.07000027032859
 30
0.0
 11
21.09999923964442
 21
83.07000027032859
 31
0.0
  0
LINE
  5
149
330
2B
100
AcDbEntity
  8
0
100
AcDbLine
 10
23.59999936156236
 20
92.10000011098465
 30
0.0
 11
23.59999936156236
 21
78.70000011098459
 31
0.0
  0
LINE
  5
14A
330
2B
100
AcDbEntity
  8
0
100
AcDbLine
 10
22.59999923964443
 20
70.14000027032858
 30
0.0
 11
22.59999923964443
 21
100.6400002703285
 31
0.0
  0
LINE
  5
14B
330
2B
100
AcDbEntity
  8
0
100
AcDbLine
 10
21.09999923964442
 20
72.83000027032858
 30
0.0
 11
21.09999923964442
 21
71.14000027032858
 31
0.0
  0
LINE
  5
14C
330
2B
100
AcDbEntity
  8
0
100
AcDbLine
 10
21.09999923964442
 20
70.14000027032858
 30
0.0
 11
22.59999923964443
 21
70.14000027032858
 31
0.0
  0
LINE
  5
14D
330
2B
100
AcDbEntity
  8
0
100
AcDbLine
 10
21.09999923964442
 20
65.14000027032858
 30
0.0
 11
21.09999923964442
 21
70.38000027032859
 31
0.0
  0
LINE
  5
14E
330
2B
100
AcDbEntity
  8
0
100
AcDbLine
 10
21.09999923964442
 20
65.14000027032858
 30
0.0
 11
21.09999923964442
 21
70.14000027032858
 31
0.0
  0
LINE
  5
14F
330
2B
100
AcDbEntity
  8
0
100
AcDbLine
 10
20.29999923964442
 20
83.07000027032859
 30
0.0
 11
21.09999923964442
 21
83.07000027032859
 31
0.0
  0
LINE
  5
150
330
2B
100
AcDbEntity
  8
0
100
AcDbLine
 10
23.59999936156236
 20
78.70000011098459
 30
0.0
 11
25.19999936156239
 21
78.70000011098459
 31
0.0
  0
LINE
  5
151
330
2B
100
AcDbEntity
  8
0
100
AcDbLine
 10
24.29999923964442
 20
77.69000027032859
 30
0.0
 11
24.29999923964442
 21
76.09000027032855
 31
0.0
  0
LINE
  5
152
330
2B
100
AcDbEntity
  8
0
100
AcDbLine
 10
24.29999923964442
 20
76.09000027032855
 30
0.0
 11
22.59999923964443
 21
76.09000027032855
 31
0.0
  0
LINE
  5
153
330
2B
100
AcDbEntity
  8
0
100
AcDbLine
 10
22.59999923964443
 20
77.69000027032859
 30
0.0
 11
24.29999923964442
 21
77.69000027032859
 31
0.0
  0
LINE
  5
154
330
2B
100
AcDbEntity
  8
0
100
AcDbLine
 10
21.09999923964442
 20
80.45000027032861
 30
0.0
 11
21.09999923964442
 21
75.4500002703286
 31
0.0
  0
LINE
  5
155
330
2B
100
AcDbEntity
  8
0
100
AcDbLine
 10
20.29999923964442
 20
80.45000027032861
 30
0.0
 11
21.09999923964442
 21
80.45000027032861
 31
0.0
  0
LINE
  5
156
330
2B
100
AcDbEntity
  8
0
100
AcDbLine
 10
20.29999923964442
 20
75.4500002703286
 30
0.0
 11
21.09999923964442
 21
75.4500002703286
 31
0.0
  0
LINE
  5
157
330
2B
100
AcDbEntity
  8
0
100
AcDbLine
 10
23.59999936156236
 20
75.10000011098464
 30
0.0
 11
25.19999936156239
 21
75.10000011098464
 31
0.0
  0
LINE
  5
158
330
2B
100
AcDbEntity
  8
0
100
AcDbLine
 10
25.19999936156239
 20
78.70000011098459
 30
0.0
 11
25.19999936156239
 21
75.10000011098464
 31
0.0
  0
LINE
  5
159
330
2B
100
AcDbEntity
  8
0
100
AcDbLine
 10
20.29999923964442
 20
83.07000027032859
 30
0.0
 11
20.29999923964442
 21
80.45000027032861
 31
0.0
  0
LINE
  5
15A
330
2B
100
AcDbEntity
  8
0
100
AcDbLine
 10
20.29999923964442
 20
72.83000027032858
 30
0.0
 11
21.09999923964442
 21
72.83000027032858
 31
0.0
  0
LINE
  5
15B
330
2B
100
AcDbEntity
  8
0
100
AcDbLine
 10
20.29999923964442
 20
75.4500002703286
 30
0.0
 11
20.29999923964442
 21
72.83000027032858
 31
0.0
  0
LINE
  5
15C
330
2B
100
AcDbEntity
  8
0
100
AcDbLine
 10
41.84999923964443
 20
77.10000027032856
 30
0.0
 11
41.84999923964443
 21
68.70000027032857
 31
0.0
  0
LINE
  5
15D
330
2B
100
AcDbEntity
  8
0
100
AcDbLine
 10
38.59999936156237
 20
82.60000011098464
 30
0.0
 11
38.59999936156237
 21
68.20000011098461
 31
0.0
  0
LINE
  5
15E
330
2B
100
AcDbEntity
  8
0
100
AcDbLine
 10
39.99999923964542
 20
65.2000002703286
 30
0.0
 11
39.99999923964542
 21
64.7000002703286
 31
0.0
  0
ARC
  5
15F
330
2B
100
AcDbEntity
  8
0
100
AcDbCircle
 10
40.49999923964542
 20
65.2000002703286
 30
0.0
 40
0.5
100
AcDbArc
 50
90.0
 51
180.0
  0
LINE
  5
160
330
2B
100
AcDbEntity
  8
0
100
AcDbLine
 10
38.59999936156237
 20
82.60000011098464
 30
0.0
 11
35.19999936156239
 21
82.60000011098464
 31
0.0
  0
LINE
  5
161
330
2B
100
AcDbEntity
  8
0
100
AcDbLine
 10
44.14999923964444
 20
78.60000027032857
 30
0.0
 11
44.14999923964444
 21
81.60000027032856
 31
0.0
  0
LINE
  5
162
330
2B
100
AcDbEntity
  8
0
100
AcDbLine
 10
44.94999923964445
 20
78.60000027032857
 30
0.0
 11
44.94999923964445
 21
81.60000027032856
 31
0.0
  0
LINE
  5
163
330
2B
100
AcDbEntity
  8
0
100
AcDbLine
 10
43.14999923964444
 20
81.60000027032856
 30
0.0
 11
43.14999923964444
 21
78.60000027032857
 31
0.0
  0
LINE
  5
164
330
2B
100
AcDbEntity
  8
0
100
AcDbLine
 10
42.14999923964444
 20
81.60000027032856
 30
0.0
 11
42.14999923964444
 21
78.60000027032857
 31
0.0
  0
LINE
  5
165
330
2B
100
AcDbEntity
  8
0
100
AcDbLine
 10
44.14999923964444
 20
81.60000027032856
 30
0.0
 11
43.14999923964444
 21
81.60000027032856
 31
0.0
  0
LINE
  5
166
330
2B
100
AcDbEntity
  8
0
100
AcDbLine
 10
43.14999923964444
 20
78.60000027032857
 30
0.0
 11
44.14999923964444
 21
78.60000027032857
 31
0.0
  0
LINE
  5
167
330
2B
100
AcDbEntity
  8
0
100
AcDbLine
 10
41.19999923964445
 20
82.60000027032857
 30
0.0
 11
41.19999923964445
 21
77.60000027032856
 31
0.0
  0
LINE
  5
168
330
2B
100
AcDbEntity
  8
0
100
AcDbLine
 10
20.29999923964442
 20
98.3100002703286
 30
0.0
 11
20.29999923964442
 21
95.6900002703286
 31
0.0
  0
LINE
  5
169
330
2B
100
AcDbEntity
  8
0
100
AcDbLine
 10
23.59999936156236
 20
107.0000001109844
 30
0.0
 11
23.59999936156236
 21
95.70000011098459
 31
0.0
  0
LINE
  5
16A
330
2B
100
AcDbEntity
  8
0
100
AcDbLine
 10
23.59999936156236
 20
95.70000011098459
 30
0.0
 11
25.19999936156239
 21
95.70000011098459
 31
0.0
  0
LINE
  5
16B
330
2B
100
AcDbEntity
  8
0
100
AcDbLine
 10
24.29999923964442
 20
94.6900002703286
 30
0.0
 11
22.59999923964443
 21
94.6900002703286
 31
0.0
  0
LINE
  5
16C
330
2B
100
AcDbEntity
  8
0
100
AcDbLine
 10
20.29999923964442
 20
95.6900002703286
 30
0.0
 11
21.09999923964442
 21
95.6900002703286
 31
0.0
  0
LINE
  5
16D
330
2B
100
AcDbEntity
  8
0
100
AcDbLine
 10
23.59999936156236
 20
92.10000011098465
 30
0.0
 11
25.19999936156239
 21
92.10000011098465
 31
0.0
  0
LINE
  5
16E
330
2B
100
AcDbEntity
  8
0
100
AcDbLine
 10
24.29999923964442
 20
93.09000027032857
 30
0.0
 11
22.59999923964443
 21
93.09000027032857
 31
0.0
  0
LINE
  5
16F
330
2B
100
AcDbEntity
  8
0
100
AcDbLine
 10
20.29999923964442
 20
90.6900002703286
 30
0.0
 11
21.09999923964442
 21
90.6900002703286
 31
0.0
  0
LINE
  5
170
330
2B
100
AcDbEntity
  8
0
100
AcDbLine
 10
20.29999923964442
 20
88.07000027032859
 30
0.0
 11
21.09999923964442
 21
88.07000027032859
 31
0.0
  0
LINE
  5
171
330
2B
100
AcDbEntity
  8
0
100
AcDbLine
 10
20.29999923964442
 20
90.6900002703286
 30
0.0
 11
20.29999923964442
 21
88.07000027032859
 31
0.0
  0
LINE
  5
172
330
2B
100
AcDbEntity
  8
0
100
AcDbLine
 10
25.19999936156239
 20
95.70000011098459
 30
0.0
 11
25.19999936156239
 21
92.10000011098465
 31
0.0
  0
LINE
  5
173
330
2B
100
AcDbEntity
  8
0
100
AcDbLine
 10
24.29999923964442
 20
94.6900002703286
 30
0.0
 11
24.29999923964442
 21
93.09000027032857
 31
0.0
  0
LINE
  5
174
330
2B
100
AcDbEntity
  8
0
100
AcDbLine
 10
21.09999923964442
 20
95.6900002703286
 30
0.0
 11
21.09999923964442
 21
90.6900002703286
 31
0.0
  0
LINE
  5
175
330
2B
100
AcDbEntity
  8
0
100
AcDbLine
 10
21.09999923964442
 20
101.0000002703286
 30
0.0
 11
22.59999923964443
 21
101.0000002703286
 31
0.0
  0
LINE
  5
176
330
2B
100
AcDbEntity
  8
0
100
AcDbLine
 10
21.09999923964442
 20
101.0000002703286
 30
0.0
 11
21.09999923964442
 21
106.0000002703286
 31
0.0
  0
LINE
  5
177
330
2B
100
AcDbEntity
  8
0
100
AcDbLine
 10
21.09999923964442
 20
106.0000002703286
 30
0.0
 11
21.09999923964442
 21
100.7600002703284
 31
0.0
  0
LINE
  5
178
330
2B
100
AcDbEntity
  8
0
100
AcDbLine
 10
22.59999923964443
 20
101.0000002703286
 30
0.0
 11
22.59999923964443
 21
100.6400002703285
 31
0.0
  0
LINE
  5
179
330
2B
100
AcDbEntity
  8
0
100
AcDbLine
 10
21.09999923964442
 20
99.64000027032859
 30
0.0
 11
21.09999923964442
 21
98.3100002703286
 31
0.0
  0
LINE
  5
17A
330
2B
100
AcDbEntity
  8
0
100
AcDbLine
 10
20.29999923964442
 20
98.3100002703286
 30
0.0
 11
21.09999923964442
 21
98.3100002703286
 31
0.0
  0
LINE
  5
17B
330
2B
100
AcDbEntity
  8
0
100
AcDbLine
 10
38.59999936156237
 20
98.60000011098465
 30
0.0
 11
35.19999936156239
 21
98.60000011098465
 31
0.0
  0
LINE
  5
17C
330
2B
100
AcDbEntity
  8
0
100
AcDbLine
 10
38.59999936156237
 20
98.60000011098465
 30
0.0
 11
38.59999936156237
 21
103.1000001109845
 31
0.0
  0
LINE
  5
17D
330
2B
100
AcDbEntity
  8
0
100
AcDbLine
 10
44.14999923964444
 20
101.6000002703285
 30
0.0
 11
43.14999923964444
 21
101.6000002703285
 31
0.0
  0
LINE
  5
17E
330
2B
100
AcDbEntity
  8
0
100
AcDbLine
 10
42.59999923964443
 20
108.7999995366379
 30
0.0
 11
42.59999923964443
 21
105.6000002703285
 31
0.0
  0
LINE
  5
17F
330
2B
100
AcDbEntity
  8
0
100
AcDbLine
 10
43.14999923964444
 20
98.60000027032857
 30
0.0
 11
44.14999923964444
 21
98.60000027032857
 31
0.0
  0
LINE
  5
180
330
2B
100
AcDbEntity
  8
0
100
AcDbLine
 10
42.14999923964444
 20
101.6000002703285
 30
0.0
 11
42.14999923964444
 21
98.60000027032857
 31
0.0
  0
LINE
  5
181
330
2B
100
AcDbEntity
  8
0
100
AcDbLine
 10
43.14999923964444
 20
101.6000002703285
 30
0.0
 11
43.14999923964444
 21
98.60000027032857
 31
0.0
  0
LINE
  5
182
330
2B
100
AcDbEntity
  8
0
100
AcDbLine
 10
44.14999923964444
 20
98.60000027032857
 30
0.0
 11
44.14999923964444
 21
101.6000002703285
 31
0.0
  0
LINE
  5
183
330
2B
100
AcDbEntity
  8
0
100
AcDbLine
 10
41.19999923964445
 20
102.6000002703285
 30
0.0
 11
41.19999923964445
 21
97.60000027032857
 31
0.0
  0
LINE
  5
184
330
2B
100
AcDbEntity
  8
0
100
AcDbLine
 10
44.94999923964445
 20
98.60000027032857
 30
0.0
 11
44.94999923964445
 21
101.6000002703285
 31
0.0
  0
LINE
  5
185
330
2B
100
AcDbEntity
  8
0
100
AcDbLine
 10
49.09999923964539
 20
83.10000027032856
 30
0.0
 11
49.09999923964539
 21
89.00000027032859
 31
0.0
  0
LINE
  5
186
330
2B
100
AcDbEntity
  8
0
100
AcDbLine
 10
49.99999936156337
 20
103.1000001109845
 30
0.0
 11
49.99999936156337
 21
68.20000011098461
 31
0.0
  0
LINE
  5
187
330
2B
100
AcDbEntity
  8
0
100
AcDbLine
 10
49.09999923964535
 20
103.1000001109845
 30
0.0
 11
49.09999923964539
 21
68.20000011098461
 31
0.0
  0
LINE
  5
188
330
2B
100
AcDbEntity
  8
0
100
AcDbLine
 10
49.09999923964443
 20
68.70000027032857
 30
0.0
 11
49.09999923964443
 21
77.10000027032856
 31
0.0
  0
ARC
  5
189
330
2B
100
AcDbEntity
  8
0
100
AcDbCircle
 10
48.79999923964543
 20
65.40000027032954
 30
0.0
 40
0.3
100
AcDbArc
 50
0.0
 51
90.0
  0
LINE
  5
18A
330
2B
100
AcDbEntity
  8
0
100
AcDbLine
 10
48.14999923964444
 20
78.60000027032857
 30
0.0
 11
48.14999923964444
 21
81.60000027032856
 31
0.0
  0
LINE
  5
18B
330
2B
100
AcDbEntity
  8
0
100
AcDbLine
 10
49.09999923964443
 20
77.60000027032856
 30
0.0
 11
49.09999923964443
 21
82.60000027032857
 31
0.0
  0
LINE
  5
18C
330
2B
100
AcDbEntity
  8
0
100
AcDbLine
 10
49.09999923964539
 20
91.20000027032856
 30
0.0
 11
49.09999923964539
 21
97.10000027032856
 31
0.0
  0
LINE
  5
18D
330
2B
100
AcDbEntity
  8
0
100
AcDbLine
 10
48.84999923964443
 20
105.6000002703285
 30
0.0
 11
49.09999923964443
 21
105.6000002703285
 31
0.0
  0
LINE
  5
18E
330
2B
100
AcDbEntity
  8
0
100
AcDbLine
 10
46.59999923964443
 20
105.6000002703285
 30
0.0
 11
46.59999923964443
 21
108.7999995366379
 31
0.0
  0
LINE
  5
18F
330
2B
100
AcDbEntity
  8
0
100
AcDbLine
 10
49.09999923964443
 20
97.60000027032857
 30
0.0
 11
49.09999923964443
 21
102.6000002703285
 31
0.0
  0
LINE
  5
190
330
2B
100
AcDbEntity
  8
0
100
AcDbLine
 10
48.14999923964444
 20
98.60000027032857
 30
0.0
 11
48.14999923964444
 21
101.6000002703285
 31
0.0
  0
LINE
  5
191
330
2B
100
AcDbEntity
  8
0
100
AcDbLine
 10
39.69999923964542
 20
157.0000002703286
 30
0.0
 11
48.79999923964543
 21
157.0000002703286
 31
0.0
  0
LINE
  5
192
330
2B
100
AcDbEntity
  8
0
100
AcDbLine
 10
40.49999923964542
 20
156.0000002703286
 30
0.0
 11
48.79999923964543
 21
156.0000002703286
 31
0.0
  0
LINE
  5
193
330
2B
100
AcDbEntity
  8
0
100
AcDbLine
 10
49.99999936156337
 20
155.0000001109845
 30
0.0
 11
38.59999936156237
 21
155.0000001109845
 31
0.0
  0
LINE
  5
194
330
2B
100
AcDbEntity
  8
0
100
AcDbLine
 10
46.72499923964443
 20
149.2500002703286
 30
0.0
 11
42.72499923964443
 21
149.2500002703286
 31
0.0
  0
LINE
  5
195
330
2B
100
AcDbEntity
  8
0
100
AcDbLine
 10
42.72499923964443
 20
146.0500010040188
 30
0.0
 11
46.72499923964443
 21
146.0500010040188
 31
0.0
  0
LINE
  5
196
330
2B
100
AcDbEntity
  8
0
100
AcDbLine
 10
46.72499923964443
 20
146.0500010040188
 30
0.0
 11
42.72499923964443
 21
146.0500010040188
 31
0.0
  0
LINE
  5
197
330
2B
100
AcDbEntity
  8
0
100
AcDbLine
 10
42.72499923964443
 20
141.1100126551454
 30
0.0
 11
46.72499923964443
 21
141.1100126551454
 31
0.0
  0
LINE
  5
198
330
2B
100
AcDbEntity
  8
0
100
AcDbLine
 10
42.72499923964443
 20
143.0500010040189
 30
0.0
 11
46.72499923964443
 21
143.0500010040189
 31
0.0
  0
LINE
  5
199
330
2B
100
AcDbEntity
  8
0
100
AcDbLine
 10
42.72499923964443
 20
143.5500010040188
 30
0.0
 11
46.72499923964443
 21
143.5500010040188
 31
0.0
  0
LINE
  5
19A
330
2B
100
AcDbEntity
  8
0
100
AcDbLine
 10
42.72499923964443
 20
142.5500010040188
 30
0.0
 11
46.72499923964443
 21
142.5500010040188
 31
0.0
  0
LINE
  5
19B
330
2B
100
AcDbEntity
  8
0
100
AcDbLine
 10
42.72499923964443
 20
145.0500010040189
 30
0.0
 11
46.72499923964443
 21
145.0500010040189
 31
0.0
  0
LINE
  5
19C
330
2B
100
AcDbEntity
  8
0
100
AcDbLine
 10
42.72499923964443
 20
143.5500010040188
 30
0.0
 11
46.72499923964443
 21
143.5500010040188
 31
0.0
  0
LINE
  5
19D
330
2B
100
AcDbEntity
  8
0
100
AcDbLine
 10
42.72499923964443
 20
144.5500010040188
 30
0.0
 11
46.72499923964443
 21
144.5500010040188
 31
0.0
  0
LINE
  5
19E
330
2B
100
AcDbEntity
  8
0
100
AcDbLine
 10
42.72499923964443
 20
144.0500010040189
 30
0.0
 11
46.72499923964443
 21
144.0500010040189
 31
0.0
  0
LINE
  5
19F
330
2B
100
AcDbEntity
  8
0
100
AcDbLine
 10
49.09999923964443
 20
149.2500002703286
 30
0.0
 11
40.34999923964443
 21
149.2500002703286
 31
0.0
  0
LINE
  5
1A0
330
2B
100
AcDbEntity
  8
0
100
AcDbLine
 10
49.99999936156337
 20
151.2000001109846
 30
0.0
 11
38.59999936156237
 21
151.2000001109846
 31
0.0
  0
LINE
  5
1A1
330
2B
100
AcDbEntity
  8
0
100
AcDbLine
 10
46.59999923964443
 20
113.7399878855117
 30
0.0
 11
42.59999923964443
 21
113.7399878855117
 31
0.0
  0
LINE
  5
1A2
330
2B
100
AcDbEntity
  8
0
100
AcDbLine
 10
46.59999923964443
 20
110.7999995366379
 30
0.0
 11
42.59999923964443
 21
110.7999995366379
 31
0.0
  0
LINE
  5
1A3
330
2B
100
AcDbEntity
  8
0
100
AcDbLine
 10
46.59999923964443
 20
110.299999536638
 30
0.0
 11
42.59999923964443
 21
110.299999536638
 31
0.0
  0
LINE
  5
1A4
330
2B
100
AcDbEntity
  8
0
100
AcDbLine
 10
46.59999923964443
 20
111.299999536638
 30
0.0
 11
42.59999923964443
 21
111.299999536638
 31
0.0
  0
LINE
  5
1A5
330
2B
100
AcDbEntity
  8
0
100
AcDbLine
 10
46.59999923964443
 20
109.7999995366379
 30
0.0
 11
42.59999923964443
 21
109.7999995366379
 31
0.0
  0
LINE
  5
1A6
330
2B
100
AcDbEntity
  8
0
100
AcDbLine
 10
46.59999923964443
 20
112.299999536638
 30
0.0
 11
42.59999923964443
 21
112.299999536638
 31
0.0
  0
LINE
  5
1A7
330
2B
100
AcDbEntity
  8
0
100
AcDbLine
 10
46.59999923964443
 20
111.299999536638
 30
0.0
 11
42.59999923964443
 21
111.299999536638
 31
0.0
  0
LINE
  5
1A8
330
2B
100
AcDbEntity
  8
0
100
AcDbLine
 10
46.59999923964443
 20
111.7999995366379
 30
0.0
 11
42.59999923964443
 21
111.7999995366379
 31
0.0
  0
LINE
  5
1A9
330
2B
100
AcDbEntity
  8
0
100
AcDbLine
 10
24.94499923964446
 20
136.6600002703285
 30
0.0
 11
24.94499923964446
 21
112.5000002703286
 31
0.0
  0
LINE
  5
1AA
330
2B
100
AcDbEntity
  8
0
100
AcDbLine
 10
23.58499923964444
 20
136.6600002703285
 30
0.0
 11
23.58499923964444
 21
112.5000002703286
 31
0.0
  0
LINE
  5
1AB
330
2B
100
AcDbEntity
  8
0
100
AcDbLine
 10
25.39999936156238
 20
137.7000001109843
 30
0.0
 11
25.39999936156238
 21
111.5000001109845
 31
0.0
  0
LINE
  5
1AC
330
2B
100
AcDbEntity
  8
0
100
AcDbLine
 10
41.44999923964443
 20
143.1500002703284
 30
0.0
 11
41.44999923964443
 21
111.7000002703285
 31
0.0
  0
LINE
  5
1AD
330
2B
100
AcDbEntity
  8
0
100
AcDbLine
 10
20.59999923964443
 20
118.5000002703286
 30
0.0
 11
20.59999923964443
 21
120.5000002703286
 31
0.0
  0
LINE
  5
1AE
330
2B
100
AcDbEntity
  8
0
100
AcDbLine
 10
20.59999923964443
 20
128.6600002703286
 30
0.0
 11
20.59999923964443
 21
130.6600002703285
 31
0.0
  0
LINE
  5
1AF
330
2B
100
AcDbEntity
  8
0
100
AcDbLine
 10
20.59999923964443
 20
123.5800002703284
 30
0.0
 11
20.59999923964443
 21
125.5800002703284
 31
0.0
  0
LINE
  5
1B0
330
2B
100
AcDbEntity
  8
0
100
AcDbLine
 10
41.44999923964443
 20
111.7000002703285
 30
0.0
 11
42.59999923964443
 21
111.7000002703285
 31
0.0
  0
LINE
  5
1B1
330
2B
100
AcDbEntity
  8
0
100
AcDbLine
 10
21.3499992396454
 20
142.5400002703285
 30
0.0
 11
21.3499992396454
 21
157.9400002703285
 31
0.0
  0
LINE
  5
1B2
330
2B
100
AcDbEntity
  8
0
100
AcDbLine
 10
22.29999936156241
 20
158.4000001109846
 30
0.0
 11
22.29999936156241
 21
141.6000001109845
 31
0.0
  0
LINE
  5
1B3
330
2B
100
AcDbEntity
  8
0
100
AcDbLine
 10
24.08499923964444
 20
136.6600002703285
 30
0.0
 11
23.58499923964444
 21
136.6600002703285
 31
0.0
  0
LINE
  5
1B4
330
2B
100
AcDbEntity
  8
0
100
AcDbLine
 10
22.29999936156241
 20
158.4000001109846
 30
0.0
 11
25.89999936156238
 21
158.4000001109846
 31
0.0
  0
LINE
  5
1B5
330
2B
100
AcDbEntity
  8
0
100
AcDbLine
 10
42.72499923964443
 20
149.2500002703286
 30
0.0
 11
42.72499923964443
 21
146.0500010040188
 31
0.0
  0
LINE
  5
1B6
330
2B
100
AcDbEntity
  8
0
100
AcDbLine
 10
42.72499923964443
 20
143.1500002703284
 30
0.0
 11
41.44999923964443
 21
143.1500002703284
 31
0.0
  0
LINE
  5
1B7
330
2B
100
AcDbEntity
  8
0
100
AcDbLine
 10
42.72499923964443
 20
146.0500010040188
 30
0.0
 11
42.72499923964443
 21
141.1100126551454
 31
0.0
  0
LINE
  5
1B8
330
2B
100
AcDbEntity
  8
0
100
AcDbLine
 10
42.72499923964443
 20
146.0500010040188
 30
0.0
 11
42.72499923964443
 21
144.0500010040189
 31
0.0
  0
LINE
  5
1B9
330
2B
100
AcDbEntity
  8
0
100
AcDbLine
 10
39.99999923964542
 20
157.0000002703286
 30
0.0
 11
39.99999923964542
 21
156.4800002703285
 31
0.0
  0
ARC
  5
1BA
330
2B
100
AcDbEntity
  8
0
100
AcDbCircle
 10
40.49999923964542
 20
156.5000002703285
 30
0.0
 40
0.5
100
AcDbArc
 50
180.0
 51
270.0
  0
LINE
  5
1BB
330
2B
100
AcDbEntity
  8
0
100
AcDbLine
 10
47.74999923964439
 20
111.7000002703285
 30
0.0
 11
47.74999923964439
 21
143.1500002703284
 31
0.0
  0
LINE
  5
1BC
330
2B
100
AcDbEntity
  8
0
100
AcDbLine
 10
49.09999923964539
 20
120.6900002703295
 30
0.0
 11
48.84999923964443
 21
120.6900002703295
 31
0.0
  0
LINE
  5
1BD
330
2B
100
AcDbEntity
  8
0
100
AcDbLine
 10
49.09999923964539
 20
116.8800002703294
 30
0.0
 11
48.84999923964443
 21
116.8800002703294
 31
0.0
  0
LINE
  5
1BE
330
2B
100
AcDbEntity
  8
0
100
AcDbLine
 10
49.09999923964539
 20
116.3800002703293
 30
0.0
 11
48.84999923964443
 21
116.3800002703293
 31
0.0
  0
LINE
  5
1BF
330
2B
100
AcDbEntity
  8
0
100
AcDbLine
 10
49.09999923964539
 20
117.6500002703295
 30
0.0
 11
48.84999923964443
 21
117.6500002703295
 31
0.0
  0
LINE
  5
1C0
330
2B
100
AcDbEntity
  8
0
100
AcDbLine
 10
49.09999923964539
 20
118.1500002703286
 30
0.0
 11
48.84999923964443
 21
118.1500002703285
 31
0.0
  0
LINE
  5
1C1
330
2B
100
AcDbEntity
  8
0
100
AcDbLine
 10
49.09999923964539
 20
118.9200002703296
 30
0.0
 11
48.84999923964443
 21
118.9200002703294
 31
0.0
  0
LINE
  5
1C2
330
2B
100
AcDbEntity
  8
0
100
AcDbLine
 10
49.09999923964539
 20
119.4200002703295
 30
0.0
 11
48.84999923964443
 21
119.4200002703295
 31
0.0
  0
LINE
  5
1C3
330
2B
100
AcDbEntity
  8
0
100
AcDbLine
 10
49.09999923964539
 20
120.1900002703294
 30
0.0
 11
48.84999923964443
 21
120.1900002703294
 31
0.0
  0
LINE
  5
1C4
330
2B
100
AcDbEntity
  8
0
100
AcDbLine
 10
49.09999923964539
 20
115.6100002703306
 30
0.0
 11
48.84999923964443
 21
115.6100002703306
 31
0.0
  0
LINE
  5
1C5
330
2B
100
AcDbEntity
  8
0
100
AcDbLine
 10
49.09999923964539
 20
115.1100002703306
 30
0.0
 11
48.84999923964443
 21
115.1100002703306
 31
0.0
  0
LINE
  5
1C6
330
2B
100
AcDbEntity
  8
0
100
AcDbLine
 10
49.09999923964539
 20
116.3800002703304
 30
0.0
 11
48.84999923964443
 21
116.3800002703305
 31
0.0
  0
LINE
  5
1C7
330
2B
100
AcDbEntity
  8
0
100
AcDbLine
 10
49.09999923964539
 20
116.8800002703294
 30
0.0
 11
48.84999923964443
 21
116.8800002703294
 31
0.0
  0
LINE
  5
1C8
330
2B
100
AcDbEntity
  8
0
100
AcDbLine
 10
46.59999923964443
 20
111.7000002703285
 30
0.0
 11
47.74999923964439
 21
111.7000002703285
 31
0.0
  0
LINE
  5
1C9
330
2B
100
AcDbEntity
  8
0
100
AcDbLine
 10
48.84999923964443
 20
111.7000002703285
 30
0.0
 11
49.09999923964443
 21
111.7000002703285
 31
0.0
  0
LINE
  5
1CA
330
2B
100
AcDbEntity
  8
0
100
AcDbLine
 10
49.09999923964539
 20
133.3900002703285
 30
0.0
 11
48.84999923964443
 21
133.3900002703285
 31
0.0
  0
LINE
  5
1CB
330
2B
100
AcDbEntity
  8
0
100
AcDbLine
 10
49.09999923964539
 20
127.0400002703286
 30
0.0
 11
48.84999923964443
 21
127.0400002703286
 31
0.0
  0
LINE
  5
1CC
330
2B
100
AcDbEntity
  8
0
100
AcDbLine
 10
49.09999923964539
 20
127.8100002703286
 30
0.0
 11
48.84999923964443
 21
127.8100002703286
 31
0.0
  0
LINE
  5
1CD
330
2B
100
AcDbEntity
  8
0
100
AcDbLine
 10
49.09999923964539
 20
128.3100002703293
 30
0.0
 11
48.84999923964443
 21
128.3100002703293
 31
0.0
  0
LINE
  5
1CE
330
2B
100
AcDbEntity
  8
0
100
AcDbLine
 10
49.09999923964539
 20
132.1200002703293
 30
0.0
 11
48.84999923964443
 21
132.1200002703293
 31
0.0
  0
LINE
  5
1CF
330
2B
100
AcDbEntity
  8
0
100
AcDbLine
 10
49.09999923964539
 20
132.8900002703294
 30
0.0
 11
48.84999923964443
 21
132.8900002703294
 31
0.0
  0
LINE
  5
1D0
330
2B
100
AcDbEntity
  8
0
100
AcDbLine
 10
49.09999923964539
 20
128.3100002703293
 30
0.0
 11
48.84999923964443
 21
128.3100002703293
 31
0.0
  0
LINE
  5
1D1
330
2B
100
AcDbEntity
  8
0
100
AcDbLine
 10
49.09999923964539
 20
127.8100002703294
 30
0.0
 11
48.84999923964443
 21
127.8100002703294
 31
0.0
  0
LINE
  5
1D2
330
2B
100
AcDbEntity
  8
0
100
AcDbLine
 10
49.09999923964539
 20
129.0800002703294
 30
0.0
 11
48.84999923964443
 21
129.0800002703294
 31
0.0
  0
LINE
  5
1D3
330
2B
100
AcDbEntity
  8
0
100
AcDbLine
 10
49.09999923964539
 20
129.5800002703284
 30
0.0
 11
48.84999923964443
 21
129.5800002703284
 31
0.0
  0
LINE
  5
1D4
330
2B
100
AcDbEntity
  8
0
100
AcDbLine
 10
49.09999923964539
 20
130.3500002703285
 30
0.0
 11
48.84999923964443
 21
130.3500002703285
 31
0.0
  0
LINE
  5
1D5
330
2B
100
AcDbEntity
  8
0
100
AcDbLine
 10
49.09999923964539
 20
130.8500002703293
 30
0.0
 11
48.84999923964443
 21
130.8500002703295
 31
0.0
  0
LINE
  5
1D6
330
2B
100
AcDbEntity
  8
0
100
AcDbLine
 10
49.09999923964539
 20
131.6200002703294
 30
0.0
 11
48.84999923964443
 21
131.6200002703294
 31
0.0
  0
LINE
  5
1D7
330
2B
100
AcDbEntity
  8
0
100
AcDbLine
 10
49.09999923964539
 20
126.5400002703295
 30
0.0
 11
48.84999923964443
 21
126.5400002703295
 31
0.0
  0
LINE
  5
1D8
330
2B
100
AcDbEntity
  8
0
100
AcDbLine
 10
49.09999923964539
 20
122.7300002703286
 30
0.0
 11
48.84999923964443
 21
122.7300002703284
 31
0.0
  0
LINE
  5
1D9
330
2B
100
AcDbEntity
  8
0
100
AcDbLine
 10
49.09999923964539
 20
123.2300002703295
 30
0.0
 11
48.84999923964443
 21
123.2300002703295
 31
0.0
  0
LINE
  5
1DA
330
2B
100
AcDbEntity
  8
0
100
AcDbLine
 10
49.09999923964539
 20
124.0000002703294
 30
0.0
 11
48.84999923964443
 21
124.0000002703294
 31
0.0
  0
LINE
  5
1DB
330
2B
100
AcDbEntity
  8
0
100
AcDbLine
 10
49.09999923964539
 20
121.4600002703294
 30
0.0
 11
48.84999923964443
 21
121.4600002703294
 31
0.0
  0
LINE
  5
1DC
330
2B
100
AcDbEntity
  8
0
100
AcDbLine
 10
49.09999923964539
 20
121.9600002703294
 30
0.0
 11
48.84999923964443
 21
121.9600002703294
 31
0.0
  0
LINE
  5
1DD
330
2B
100
AcDbEntity
  8
0
100
AcDbLine
 10
49.09999923964539
 20
124.5000002703295
 30
0.0
 11
48.84999923964443
 21
124.5000002703295
 31
0.0
  0
LINE
  5
1DE
330
2B
100
AcDbEntity
  8
0
100
AcDbLine
 10
49.09999923964539
 20
125.2700002703294
 30
0.0
 11
48.84999923964443
 21
125.2700002703294
 31
0.0
  0
LINE
  5
1DF
330
2B
100
AcDbEntity
  8
0
100
AcDbLine
 10
49.09999923964539
 20
125.7700002703294
 30
0.0
 11
48.84999923964443
 21
125.7700002703294
 31
0.0
  0
LINE
  5
1E0
330
2B
100
AcDbEntity
  8
0
100
AcDbLine
 10
49.09999923964443
 20
143.1500002703284
 30
0.0
 11
49.09999923964443
 21
149.2500002703286
 31
0.0
  0
LINE
  5
1E1
330
2B
100
AcDbEntity
  8
0
100
AcDbLine
 10
46.72499923964443
 20
146.0500010040188
 30
0.0
 11
46.72499923964443
 21
149.2500002703286
 31
0.0
  0
LINE
  5
1E2
330
2B
100
AcDbEntity
  8
0
100
AcDbLine
 10
47.74999923964439
 20
143.1500002703284
 30
0.0
 11
46.72499923964443
 21
143.1500002703284
 31
0.0
  0
LINE
  5
1E3
330
2B
100
AcDbEntity
  8
0
100
AcDbLine
 10
46.72499923964443
 20
141.1100126551454
 30
0.0
 11
46.72499923964443
 21
146.0500010040188
 31
0.0
  0
LINE
  5
1E4
330
2B
100
AcDbEntity
  8
0
100
AcDbLine
 10
49.09999923964443
 20
143.1500002703284
 30
0.0
 11
48.84999923964443
 21
143.1500002703284
 31
0.0
  0
LINE
  5
1E5
330
2B
100
AcDbEntity
  8
0
100
AcDbLine
 10
49.09999923964539
 20
139.7400002703286
 30
0.0
 11
48.84999923964443
 21
139.7400002703286
 31
0.0
  0
LINE
  5
1E6
330
2B
100
AcDbEntity
  8
0
100
AcDbLine
 10
49.09999923964539
 20
135.9300002703293
 30
0.0
 11
48.84999923964443
 21
135.9300002703293
 31
0.0
  0
LINE
  5
1E7
330
2B
100
AcDbEntity
  8
0
100
AcDbLine
 10
49.09999923964539
 20
136.7000002703294
 30
0.0
 11
48.84999923964443
 21
136.7000002703294
 31
0.0
  0
LINE
  5
1E8
330
2B
100
AcDbEntity
  8
0
100
AcDbLine
 10
49.09999923964539
 20
137.2000002703295
 30
0.0
 11
48.84999923964443
 21
137.2000002703295
 31
0.0
  0
LINE
  5
1E9
330
2B
100
AcDbEntity
  8
0
100
AcDbLine
 10
49.09999923964539
 20
137.9700002703285
 30
0.0
 11
48.84999923964443
 21
137.9700002703285
 31
0.0
  0
LINE
  5
1EA
330
2B
100
AcDbEntity
  8
0
100
AcDbLine
 10
49.09999923964539
 20
138.4700002703285
 30
0.0
 11
48.84999923964443
 21
138.4700002703285
 31
0.0
  0
LINE
  5
1EB
330
2B
100
AcDbEntity
  8
0
100
AcDbLine
 10
49.09999923964539
 20
139.2400002703286
 30
0.0
 11
48.84999923964443
 21
139.2400002703286
 31
0.0
  0
LINE
  5
1EC
330
2B
100
AcDbEntity
  8
0
100
AcDbLine
 10
49.09999923964539
 20
134.1600002703285
 30
0.0
 11
48.84999923964443
 21
134.1600002703285
 31
0.0
  0
LINE
  5
1ED
330
2B
100
AcDbEntity
  8
0
100
AcDbLine
 10
49.09999923964539
 20
134.6600002703285
 30
0.0
 11
48.84999923964443
 21
134.6600002703285
 31
0.0
  0
LINE
  5
1EE
330
2B
100
AcDbEntity
  8
0
100
AcDbLine
 10
49.09999923964539
 20
135.4300002703286
 30
0.0
 11
48.84999923964443
 21
135.4300002703286
 31
0.0
  0
ARC
  5
1EF
330
2B
100
AcDbEntity
  8
0
100
AcDbCircle
 10
48.79999923964543
 20
156.3000002703286
 30
0.0
 40
0.3
100
AcDbArc
 50
270.0
 51
0.0
  0
LINE
  5
1F0
330
2B
100
AcDbEntity
  8
0
100
AcDbLine
 10
55.69999923964445
 20
188.3000002703284
 30
0.0
 11
8.099999239644432
 21
188.3000002703284
 31
0.0
  0
LINE
  5
1F1
330
2B
100
AcDbEntity
  8
0
100
AcDbLine
 10
55.99999923964543
 20
188.5000002703286
 30
0.0
 11
7.999999239645432
 21
188.5000002703286
 31
0.0
  0
LINE
  5
1F2
330
2B
100
AcDbEntity
  8
0
100
AcDbLine
 10
5.999999239645432
 20
190.5000002703286
 30
0.0
 11
57.99999923964543
 21
190.5000002703286
 31
0.0
  0
LINE
  5
1F3
330
2B
100
AcDbEntity
  8
0
100
AcDbLine
 10
3.999999239645431
 20
200.5000002703285
 30
0.0
 11
56.99999923964544
 21
200.5000002703285
 31
0.0
  0
LINE
  5
1F4
330
2B
100
AcDbEntity
  8
0
100
AcDbLine
 10
21.9999992396444
 20
174.0800002703285
 30
0.0
 11
14.09999923964442
 21
174.0800002703285
 31
0.0
  0
LINE
  5
1F5
330
2B
100
AcDbEntity
  8
0
100
AcDbLine
 10
22.89999936156238
 20
174.6000001109846
 30
0.0
 11
12.9999993615624
 21
174.6000001109846
 31
0.0
  0
LINE
  5
1F6
330
2B
100
AcDbEntity
  8
0
100
AcDbLine
 10
24.29999923964544
 20
164.1300002703285
 30
0.0
 11
19.52450431065339
 21
164.1300002703285
 31
0.0
  0
LINE
  5
1F7
330
2B
100
AcDbEntity
  8
0
100
AcDbLine
 10
24.29999923964544
 20
160.3900002703285
 30
0.0
 11
19.52450431065339
 21
160.3900002703285
 31
0.0
  0
LINE
  5
1F8
330
2B
100
AcDbEntity
  8
0
100
AcDbLine
 10
24.29999923964544
 20
165.5800002703285
 30
0.0
 11
14.09999923964539
 21
165.5800002703285
 31
0.0
  0
LINE
  5
1F9
330
2B
100
AcDbEntity
  8
0
100
AcDbLine
 10
24.29999923964544
 20
158.9400002703285
 30
0.0
 11
14.09999923964539
 21
158.9400002703285
 31
0.0
  0
LINE
  5
1FA
330
2B
100
AcDbEntity
  8
0
100
AcDbLine
 10
21.9999992396444
 20
166.5800002703294
 30
0.0
 11
14.09999923964442
 21
166.5800002703294
 31
0.0
  0
CIRCLE
  5
1FB
330
2B
100
AcDbEntity
  8
0
100
AcDbCircle
 10
16.59999936156236
 20
183.3000001109844
 30
0.0
 40
1.399999999999999
  0
LINE
  5
1FC
330
2B
100
AcDbEntity
  8
0
100
AcDbLine
 10
14.4999992396444
 20
166.5800002703294
 30
0.0
 11
14.4999992396444
 21
174.0800002703285
 31
0.0
  0
CIRCLE
  5
1FD
330
2B
100
AcDbEntity
  8
0
100
AcDbCircle
 10
18.2499992396444
 20
170.3300002703285
 30
0.0
 40
1.290290050200999
  0
LINE
  5
1FE
330
2B
100
AcDbEntity
  8
0
100
AcDbLine
 10
14.09999923964442
 20
166.5800002703294
 30
0.0
 11
14.09999923964442
 21
167.4900002703294
 31
0.0
  0
LINE
  5
1FF
330
2B
100
AcDbEntity
  8
0
100
AcDbLine
 10
14.09999923964539
 20
170.0300002703293
 30
0.0
 11
14.4999992396444
 21
170.0300002703293
 31
0.0
  0
LINE
  5
200
330
2B
100
AcDbEntity
  8
0
100
AcDbLine
 10
14.09999923964539
 20
170.6300002703295
 30
0.0
 11
14.4999992396444
 21
170.6300002703295
 31
0.0
  0
LINE
  5
201
330
2B
100
AcDbEntity
  8
0
100
AcDbLine
 10
14.09999923964539
 20
168.0900002703296
 30
0.0
 11
14.4999992396444
 21
168.0900002703296
 31
0.0
  0
LINE
  5
202
330
2B
100
AcDbEntity
  8
0
100
AcDbLine
 10
14.09999923964539
 20
167.4900002703294
 30
0.0
 11
14.4999992396444
 21
167.4900002703294
 31
0.0
  0
LINE
  5
203
330
2B
100
AcDbEntity
  8
0
100
AcDbLine
 10
19.52450431065339
 20
164.1300002703285
 30
0.0
 11
19.52450431065339
 21
160.3900002703285
 31
0.0
  0
LINE
  5
204
330
2B
100
AcDbEntity
  8
0
100
AcDbLine
 10
14.09999923964539
 20
158.9400002703285
 30
0.0
 11
14.09999923964539
 21
165.5800002703285
 31
0.0
  0
LINE
  5
205
330
2B
100
AcDbEntity
  8
0
100
AcDbLine
 10
14.09999923964539
 20
172.5700002703295
 30
0.0
 11
14.4999992396444
 21
172.5700002703295
 31
0.0
  0
LINE
  5
206
330
2B
100
AcDbEntity
  8
0
100
AcDbLine
 10
14.09999923964539
 20
173.1700002703295
 30
0.0
 11
14.4999992396444
 21
173.1700002703295
 31
0.0
  0
LINE
  5
207
330
2B
100
AcDbEntity
  8
0
100
AcDbLine
 10
14.09999923964442
 20
173.1700002703284
 30
0.0
 11
14.09999923964442
 21
174.0800002703285
 31
0.0
  0
CIRCLE
  5
208
330
2B
100
AcDbEntity
  8
0
100
AcDbCircle
 10
16.59999936156236
 20
178.5000001109846
 30
0.0
 40
1.399999999999999
  0
LINE
  5
209
330
2B
100
AcDbEntity
  8
0
100
AcDbLine
 10
0.4869107654913594
 20
190.4080068110784
 30
0.0
 11
3.999999239645431
 21
190.5000002703286
 31
0.0
  0
ARC
  5
20A
330
2B
100
AcDbEntity
  8
0
100
AcDbCircle
 10
0.4999992396454334
 20
189.9081781485915
 30
0.0
 40
0.5
100
AcDbArc
 50
91.49999999999948
 51
180.0
  0
LINE
  5
20B
330
2B
100
AcDbEntity
  8
0
100
AcDbLine
 10
5.999999239645432
 20
190.0000002703284
 30
0.0
 11
4.999999239645433
 21
190.0000002703284
 31
0.0
  0
LINE
  5
20C
330
2B
100
AcDbEntity
  8
0
100
AcDbLine
 10
4.999999239645433
 20
186.5000002703284
 30
0.0
 11
5.013087713798427
 21
186.5003430040864
 31
0.0
  0
LINE
  5
20D
330
2B
100
AcDbEntity
  8
0
100
AcDbLine
 10
3.999999239645431
 20
190.5000002703286
 30
0.0
 11
4.999999239645433
 21
190.4738143487595
 31
0.0
  0
LINE
  5
20E
330
2B
100
AcDbEntity
  8
0
100
AcDbLine
 10
0.9738222913373988
 20
200.4207570381054
 30
0.0
 11
3.999999239645431
 21
200.5000002703285
 31
0.0
  0
ARC
  5
20F
330
2B
100
AcDbEntity
  8
0
100
AcDbCircle
 10
0.9999992396454333
 20
199.4210997131306
 30
0.0
 40
1.0
100
AcDbArc
 50
91.49999999999948
 51
180.0
  0
LINE
  5
210
330
2B
100
AcDbEntity
  8
0
100
AcDbLine
 10
39.69999923964542
 20
184.5000002703286
 30
0.0
 11
48.79999923964543
 21
184.5000002703286
 31
0.0
  0
LINE
  5
211
330
2B
100
AcDbEntity
  8
0
100
AcDbLine
 10
40.49999923964542
 20
185.5000002703295
 30
0.0
 11
48.79999923964543
 21
185.5000002703295
 31
0.0
  0
LINE
  5
212
330
2B
100
AcDbEntity
  8
0
100
AcDbLine
 10
49.99999936156337
 20
186.3000001109844
 30
0.0
 11
38.59999936156237
 21
186.3000001109844
 31
0.0
  0
CIRCLE
  5
213
330
2B
100
AcDbEntity
  8
0
100
AcDbCircle
 10
44.29999923964543
 20
182.5700002703284
 30
0.0
 40
1.399999999999999
  0
LINE
  5
214
330
2B
100
AcDbEntity
  8
0
100
AcDbLine
 10
41.1499992396454
 20
180.4800002703295
 30
0.0
 11
47.44999923964542
 21
180.4800002703295
 31
0.0
  0
LINE
  5
215
330
2B
100
AcDbEntity
  8
0
100
AcDbLine
 10
41.1499992396454
 20
180.0000002703286
 30
0.0
 11
47.44999923964542
 21
180.0000002703286
 31
0.0
  0
LINE
  5
216
330
2B
100
AcDbEntity
  8
0
100
AcDbLine
 10
41.1499992396454
 20
178.1000002703295
 30
0.0
 11
47.44999923964542
 21
178.1000002703295
 31
0.0
  0
LINE
  5
217
330
2B
100
AcDbEntity
  8
0
100
AcDbLine
 10
43.66763732985043
 20
176.9818878272575
 30
0.0
 11
45.96763732985045
 21
176.3656046846656
 31
0.0
  0
LINE
  5
218
330
2B
100
AcDbEntity
  8
0
100
AcDbLine
 10
45.8999992396454
 20
175.5200002703286
 30
0.0
 11
42.69999923964542
 21
175.5200002703286
 31
0.0
  0
LINE
  5
219
330
2B
100
AcDbEntity
  8
0
100
AcDbLine
 10
42.69999923964542
 20
165.9800002703285
 30
0.0
 11
45.8999992396454
 21
165.9800002703285
 31
0.0
  0
LINE
  5
21A
330
2B
100
AcDbEntity
  8
0
100
AcDbLine
 10
41.1499992396454
 20
161.0000002703285
 30
0.0
 11
47.44999923964542
 21
161.0000002703285
 31
0.0
  0
LINE
  5
21B
330
2B
100
AcDbEntity
  8
0
100
AcDbLine
 10
41.1499992396454
 20
161.5000002703285
 30
0.0
 11
47.44999923964542
 21
161.5000002703285
 31
0.0
  0
LINE
  5
21C
330
2B
100
AcDbEntity
  8
0
100
AcDbLine
 10
41.1499992396454
 20
163.4000002703285
 30
0.0
 11
47.44999923964542
 21
163.4000002703285
 31
0.0
  0
LINE
  5
21D
330
2B
100
AcDbEntity
  8
0
100
AcDbLine
 10
43.66763732985043
 20
164.5170998717454
 30
0.0
 11
45.96763732985045
 21
165.1333830143375
 31
0.0
  0
CIRCLE
  5
21E
330
2B
100
AcDbEntity
  8
0
100
AcDbCircle
 10
21.69999936156238
 20
183.3000001109844
 30
0.0
 40
1.399999999999999
  0
LINE
  5
21F
330
2B
100
AcDbEntity
  8
0
100
AcDbLine
 10
21.9999992396444
 20
166.5800002703294
 30
0.0
 11
21.9999992396444
 21
174.0800002703285
 31
0.0
  0
LINE
  5
220
330
2B
100
AcDbEntity
  8
0
100
AcDbLine
 10
22.89999936156238
 20
174.6000001109846
 30
0.0
 11
22.89999936156238
 21
166.6000001109845
 31
0.0
  0
LINE
  5
221
330
2B
100
AcDbEntity
  8
0
100
AcDbLine
 10
22.89999936156238
 20
166.6000001109845
 30
0.0
 11
25.89999936156238
 21
166.6000001109845
 31
0.0
  0
LINE
  5
222
330
2B
100
AcDbEntity
  8
0
100
AcDbLine
 10
23.29999923964544
 20
160.3900002703285
 30
0.0
 11
23.29999923964544
 21
161.5900002703285
 31
0.0
  0
LINE
  5
223
330
2B
100
AcDbEntity
  8
0
100
AcDbLine
 10
23.29999923964544
 20
162.9300002703286
 30
0.0
 11
23.29999923964544
 21
164.1300002703285
 31
0.0
  0
LINE
  5
224
330
2B
100
AcDbEntity
  8
0
100
AcDbLine
 10
22.79999923964544
 20
161.5900002703285
 30
0.0
 11
22.79999923964544
 21
162.9300002703286
 31
0.0
  0
LINE
  5
225
330
2B
100
AcDbEntity
  8
0
100
AcDbLine
 10
21.29999923964544
 20
160.3900002703285
 30
0.0
 11
21.29999923964544
 21
161.5900002703285
 31
0.0
  0
LINE
  5
226
330
2B
100
AcDbEntity
  8
0
100
AcDbLine
 10
21.29999923964544
 20
162.9300002703286
 30
0.0
 11
21.29999923964544
 21
164.1300002703285
 31
0.0
  0
LINE
  5
227
330
2B
100
AcDbEntity
  8
0
100
AcDbLine
 10
24.29999923964544
 20
160.3900002703285
 30
0.0
 11
21.29999923964544
 21
160.3900002703285
 31
0.0
  0
LINE
  5
228
330
2B
100
AcDbEntity
  8
0
100
AcDbLine
 10
24.29999923964544
 20
161.5900002703285
 30
0.0
 11
21.29999923964544
 21
161.5900002703285
 31
0.0
  0
LINE
  5
229
330
2B
100
AcDbEntity
  8
0
100
AcDbLine
 10
24.29999923964544
 20
162.9300002703286
 30
0.0
 11
21.29999923964544
 21
162.9300002703286
 31
0.0
  0
LINE
  5
22A
330
2B
100
AcDbEntity
  8
0
100
AcDbLine
 10
24.29999923964544
 20
158.9400002703285
 30
0.0
 11
24.29999923964544
 21
165.5800002703285
 31
0.0
  0
CIRCLE
  5
22B
330
2B
100
AcDbEntity
  8
0
100
AcDbCircle
 10
21.69999936156238
 20
178.5000001109846
 30
0.0
 40
1.399999999999999
  0
LINE
  5
22C
330
2B
100
AcDbEntity
  8
0
100
AcDbLine
 10
42.69999923964542
 20
175.5200002703286
 30
0.0
 11
42.69999923964542
 21
165.9800002703285
 31
0.0
  0
LINE
  5
22D
330
2B
100
AcDbEntity
  8
0
100
AcDbLine
 10
41.1499992396454
 20
175.0500361746794
 30
0.0
 11
41.1499992396454
 21
166.4489515243243
 31
0.0
  0
LINE
  5
22E
330
2B
100
AcDbEntity
  8
0
100
AcDbLine
 10
41.1499992396454
 20
163.4000002703285
 30
0.0
 11
41.1499992396454
 21
161.0000002703285
 31
0.0
  0
ARC
  5
22F
330
2B
100
AcDbEntity
  8
0
100
AcDbCircle
 10
43.14999923964539
 20
166.4489515243243
 30
0.0
 40
2.0
100
AcDbArc
 50
180.0
 51
285.0000000000013
  0
ARC
  5
230
330
2B
100
AcDbEntity
  8
0
100
AcDbCircle
 10
43.14999923964539
 20
175.0500361746794
 30
0.0
 40
2.0
100
AcDbArc
 50
74.99999999999841
 51
180.0
  0
LINE
  5
231
330
2B
100
AcDbEntity
  8
0
100
AcDbLine
 10
41.1499992396454
 20
180.5000002703295
 30
0.0
 11
41.1499992396454
 21
178.1000002703295
 31
0.0
  0
ARC
  5
232
330
2B
100
AcDbEntity
  8
0
100
AcDbCircle
 10
28.99999923964543
 20
195.5000002703286
 30
0.0
 40
5.5
100
AcDbArc
 50
294.6199773286553
 51
0.0
  0
CIRCLE
  5
233
330
2B
100
AcDbEntity
  8
0
100
AcDbCircle
 10
28.99999923964543
 20
195.5000002703286
 30
0.0
 40
2.1
  0
LINE
  5
234
330
2B
100
AcDbEntity
  8
0
100
AcDbLine
 10
23.49999923964543
 20
195.5000002703286
 30
0.0
 11
23.49999923964543
 21
200.5000002703285
 31
0.0
  0
ARC
  5
235
330
2B
100
AcDbEntity
  8
0
100
AcDbCircle
 10
28.99999923964543
 20
195.5000002703286
 30
0.0
 40
5.5
100
AcDbArc
 50
180.0
 51
245.3800226713445
  0
LINE
  5
236
330
2B
100
AcDbEntity
  8
0
100
AcDbLine
 10
34.49999923964542
 20
195.5000002703286
 30
0.0
 11
34.49999923964542
 21
200.5000002703285
 31
0.0
  0
LINE
  5
237
330
2B
100
AcDbEntity
  8
0
100
AcDbLine
 10
39.99999923964542
 20
185.0200002703286
 30
0.0
 11
39.99999923964542
 21
184.5200002703286
 31
0.0
  0
ARC
  5
238
330
2B
100
AcDbEntity
  8
0
100
AcDbCircle
 10
40.49999923964542
 20
185.0000002703295
 30
0.0
 40
0.5
100
AcDbArc
 50
90.0
 51
180.0
  0
LINE
  5
239
330
2B
100
AcDbEntity
  8
0
100
AcDbLine
 10
49.09999923964539
 20
185.2200002703284
 30
0.0
 11
49.09999923964539
 21
178.1000002703283
 31
0.0
  0
LINE
  5
23A
330
2B
100
AcDbEntity
  8
0
100
AcDbLine
 10
45.8999992396454
 20
165.9800002703285
 30
0.0
 11
45.8999992396454
 21
175.5200002703286
 31
0.0
  0
LINE
  5
23B
330
2B
100
AcDbEntity
  8
0
100
AcDbLine
 10
47.44999923964542
 20
167.0652346669155
 30
0.0
 11
47.44999923964542
 21
174.4337530320875
 31
0.0
  0
LINE
  5
23C
330
2B
100
AcDbEntity
  8
0
100
AcDbLine
 10
48.79999923964543
 20
166.9400002703295
 30
0.0
 11
49.09999923964539
 21
166.9400002703295
 31
0.0
  0
LINE
  5
23D
330
2B
100
AcDbEntity
  8
0
100
AcDbLine
 10
48.79999923964543
 20
168.2100002703293
 30
0.0
 11
49.09999923964539
 21
168.2100002703293
 31
0.0
  0
LINE
  5
23E
330
2B
100
AcDbEntity
  8
0
100
AcDbLine
 10
48.79999923964543
 20
169.4800002703285
 30
0.0
 11
49.09999923964539
 21
169.4800002703285
 31
0.0
  0
LINE
  5
23F
330
2B
100
AcDbEntity
  8
0
100
AcDbLine
 10
48.79999923964543
 20
169.4800002703285
 30
0.0
 11
49.09999923964539
 21
169.4800002703285
 31
0.0
  0
LINE
  5
240
330
2B
100
AcDbEntity
  8
0
100
AcDbLine
 10
48.79999923964543
 20
170.7500002703286
 30
0.0
 11
49.09999923964539
 21
170.7500002703286
 31
0.0
  0
LINE
  5
241
330
2B
100
AcDbEntity
  8
0
100
AcDbLine
 10
48.79999923964543
 20
170.7500002703286
 30
0.0
 11
49.09999923964539
 21
170.7500002703286
 31
0.0
  0
LINE
  5
242
330
2B
100
AcDbEntity
  8
0
100
AcDbLine
 10
47.44999923964542
 20
161.0000002703285
 30
0.0
 11
47.44999923964542
 21
163.4000002703285
 31
0.0
  0
LINE
  5
243
330
2B
100
AcDbEntity
  8
0
100
AcDbLine
 10
48.79999923964543
 20
163.4000002703285
 30
0.0
 11
49.09999923964539
 21
163.4000002703285
 31
0.0
  0
ARC
  5
244
330
2B
100
AcDbEntity
  8
0
100
AcDbCircle
 10
45.44999923964541
 20
167.0652346669155
 30
0.0
 40
2.0
100
AcDbArc
 50
285.0000000000013
 51
0.0
  0
ARC
  5
245
330
2B
100
AcDbEntity
  8
0
100
AcDbCircle
 10
45.44999923964541
 20
174.4337530320875
 30
0.0
 40
2.0
100
AcDbArc
 50
0.0
 51
74.99999999999841
  0
LINE
  5
246
330
2B
100
AcDbEntity
  8
0
100
AcDbLine
 10
48.79999923964543
 20
172.0200002703286
 30
0.0
 11
49.09999923964539
 21
172.0200002703286
 31
0.0
  0
LINE
  5
247
330
2B
100
AcDbEntity
  8
0
100
AcDbLine
 10
48.79999923964543
 20
172.0200002703286
 30
0.0
 11
49.09999923964539
 21
172.0200002703286
 31
0.0
  0
LINE
  5
248
330
2B
100
AcDbEntity
  8
0
100
AcDbLine
 10
48.79999923964543
 20
173.2900002703284
 30
0.0
 11
49.09999923964539
 21
173.2900002703284
 31
0.0
  0
LINE
  5
249
330
2B
100
AcDbEntity
  8
0
100
AcDbLine
 10
48.79999923964543
 20
173.2900002703284
 30
0.0
 11
49.09999923964539
 21
173.2900002703284
 31
0.0
  0
LINE
  5
24A
330
2B
100
AcDbEntity
  8
0
100
AcDbLine
 10
48.79999923964543
 20
174.5600002703286
 30
0.0
 11
49.09999923964539
 21
174.5600002703286
 31
0.0
  0
LINE
  5
24B
330
2B
100
AcDbEntity
  8
0
100
AcDbLine
 10
48.79999923964543
 20
178.1000002703283
 30
0.0
 11
49.09999923964539
 21
178.1000002703283
 31
0.0
  0
LINE
  5
24C
330
2B
100
AcDbEntity
  8
0
100
AcDbLine
 10
47.44999923964542
 20
178.1000002703295
 30
0.0
 11
47.44999923964542
 21
180.5000002703295
 31
0.0
  0
ARC
  5
24D
330
2B
100
AcDbEntity
  8
0
100
AcDbCircle
 10
56.99999923964544
 20
199.5000002703284
 30
0.0
 40
1.0
100
AcDbArc
 50
0.0
 51
90.0
  0
ARC
  5
24E
330
2B
100
AcDbEntity
  8
0
100
AcDbCircle
 10
48.79999923964543
 20
185.2000002703295
 30
0.0
 40
0.3
100
AcDbArc
 50
0.0
 51
90.0
  0
ENDBLK
  5
250
330
2B
100
AcDbEntity
  8
0
100
AcDbBlockEnd
  0
BLOCK
  5
38D
330
251
100
AcDbEntity
  8
0
100
AcDbBlockBegin
  2
A$C009F64F1
 70
     0
 10
0.0
 20
0.0
 30
0.0
  3
A$C009F64F1
  1

  0
LINE
  5
252
330
251
100
AcDbEntity
  8
0
100
AcDbLine
 10
57.99999965020173
 20
3.585959210790178
 30
0.0
 11
57.99999965020173
 21
120.9738130539582
 31
0.0
  0
LINE
  5
253
330
251
100
AcDbEntity
  8
0
100
AcDbLine
 10
15.59999965020074
 20
127.5738130539582
 30
0.0
 11
24.94499965020082
 21
127.5738130539582
 31
0.0
  0
LINE
  5
254
330
251
100
AcDbEntity
  8
0
100
AcDbLine
 10
14.09999965020171
 20
121.9738130539582
 30
0.0
 11
22.69999965020081
 21
121.9738130539582
 31
0.0
  0
LINE
  5
255
330
251
100
AcDbEntity
  8
0
100
AcDbLine
 10
15.19999965020076
 20
126.2738130539582
 30
0.0
 11
21.0999996502008
 21
126.2738130539582
 31
0.0
  0
LINE
  5
256
330
251
100
AcDbEntity
  8
0
100
AcDbLine
 10
5.999999650201742
 20
120.9738130539582
 30
0.0
 11
57.99999965020173
 21
120.9738130539582
 31
0.0
  0
LINE
  5
257
330
251
100
AcDbEntity
  8
0
100
AcDbLine
 10
32.99999965020173
 20
84.97381305395824
 30
0.0
 11
15.99999965020174
 21
84.97381305395824
 31
0.0
  0
LINE
  5
258
330
251
100
AcDbEntity
  8
0
100
AcDbLine
 10
32.99999965020173
 20
82.97381305395822
 30
0.0
 11
15.99999965020174
 21
82.97381305395822
 31
0.0
  0
LINE
  5
259
330
251
100
AcDbEntity
  8
0
100
AcDbLine
 10
32.99999965020173
 20
77.97381305395821
 30
0.0
 11
15.99999965020174
 21
77.97381305395821
 31
0.0
  0
LINE
  5
25A
330
251
100
AcDbEntity
  8
0
100
AcDbLine
 10
32.99999965020173
 20
75.97381305395821
 30
0.0
 11
15.99999965020174
 21
75.97381305395821
 31
0.0
  0
LINE
  5
25B
330
251
100
AcDbEntity
  8
0
100
AcDbLine
 10
15.99999965020174
 20
103.9738130539582
 30
0.0
 11
57.99999965020173
 21
103.9738130539582
 31
0.0
  0
LINE
  5
25C
330
251
100
AcDbEntity
  8
0
100
AcDbLine
 10
32.99999965020173
 20
91.97381305395822
 30
0.0
 11
15.99999965020174
 21
91.97381305395822
 31
0.0
  0
LINE
  5
25D
330
251
100
AcDbEntity
  8
0
100
AcDbLine
 10
32.99999965020173
 20
89.97381305395823
 30
0.0
 11
15.99999965020174
 21
89.97381305395823
 31
0.0
  0
LINE
  5
25E
330
251
100
AcDbEntity
  8
0
100
AcDbLine
 10
34.49999965020168
 20
68.97381305395821
 30
0.0
 11
15.99999965020174
 21
68.97381305395821
 31
0.0
  0
LINE
  5
25F
330
251
100
AcDbEntity
  8
0
100
AcDbLine
 10
34.49999965020168
 20
70.97381305395821
 30
0.0
 11
15.99999965020174
 21
70.97381305395821
 31
0.0
  0
LINE
  5
260
330
251
100
AcDbEntity
  8
0
100
AcDbLine
 10
34.55277783635573
 20
96.97381305395822
 30
0.0
 11
15.99999965020174
 21
96.97381305395822
 31
0.0
  0
LINE
  5
261
330
251
100
AcDbEntity
  8
0
100
AcDbLine
 10
34.55277783635573
 20
98.97381305395823
 30
0.0
 11
15.99999965020174
 21
98.97381305395823
 31
0.0
  0
LINE
  5
262
330
251
100
AcDbEntity
  8
0
100
AcDbLine
 10
15.99999965020174
 20
21.97381305395821
 30
0.0
 11
57.99999965020173
 21
21.97381305395821
 31
0.0
  0
LINE
  5
263
330
251
100
AcDbEntity
  8
0
100
AcDbLine
 10
56.99999965020174
 20
42.97381305395822
 30
0.0
 11
15.99999965020174
 21
42.97381305395822
 31
0.0
  0
LINE
  5
264
330
251
100
AcDbEntity
  8
0
100
AcDbLine
 10
56.99999965020174
 20
40.97381305395821
 30
0.0
 11
15.99999965020174
 21
40.97381305395821
 31
0.0
  0
LINE
  5
265
330
251
100
AcDbEntity
  8
0
100
AcDbLine
 10
56.99999965020174
 20
35.97381305395821
 30
0.0
 11
15.99999965020174
 21
35.97381305395821
 31
0.0
  0
LINE
  5
266
330
251
100
AcDbEntity
  8
0
100
AcDbLine
 10
56.99999965020174
 20
33.97381305395821
 30
0.0
 11
15.99999965020174
 21
33.97381305395821
 31
0.0
  0
LINE
  5
267
330
251
100
AcDbEntity
  8
0
100
AcDbLine
 10
56.99999965020174
 20
28.97381305395822
 30
0.0
 11
15.99999965020174
 21
28.97381305395822
 31
0.0
  0
LINE
  5
268
330
251
100
AcDbEntity
  8
0
100
AcDbLine
 10
56.99999965020174
 20
26.97381305395822
 30
0.0
 11
15.99999965020174
 21
26.97381305395822
 31
0.0
  0
LINE
  5
269
330
251
100
AcDbEntity
  8
0
100
AcDbLine
 10
32.99999965020173
 20
49.97381305395823
 30
0.0
 11
15.99999965020174
 21
49.97381305395823
 31
0.0
  0
LINE
  5
26A
330
251
100
AcDbEntity
  8
0
100
AcDbLine
 10
32.99999965020173
 20
47.97381305395822
 30
0.0
 11
15.99999965020174
 21
47.97381305395822
 31
0.0
  0
LINE
  5
26B
330
251
100
AcDbEntity
  8
0
100
AcDbLine
 10
34.49999965020168
 20
54.97381305395823
 30
0.0
 11
15.99999965020174
 21
54.97381305395823
 31
0.0
  0
LINE
  5
26C
330
251
100
AcDbEntity
  8
0
100
AcDbLine
 10
34.49999965020168
 20
56.97381305395822
 30
0.0
 11
15.99999965020174
 21
56.97381305395822
 31
0.0
  0
LINE
  5
26D
330
251
100
AcDbEntity
  8
0
100
AcDbLine
 10
34.49999965020168
 20
61.97381305395822
 30
0.0
 11
15.99999965020174
 21
61.97381305395822
 31
0.0
  0
LINE
  5
26E
330
251
100
AcDbEntity
  8
0
100
AcDbLine
 10
34.49999965020168
 20
63.9738130539582
 30
0.0
 11
15.99999965020174
 21
63.9738130539582
 31
0.0
  0
LINE
  5
26F
330
251
100
AcDbEntity
  8
0
100
AcDbLine
 10
-0.0000003497982561
 20
-0.0000010244727946
 30
0.0
 11
57.99999965020173
 21
-0.0000010244727946
 31
0.0
  0
LINE
  5
270
330
251
100
AcDbEntity
  8
0
100
AcDbLine
 10
3.999999650201743
 20
4.999998975527204
 30
0.0
 11
57.99999965020173
 21
3.585959210790178
 31
0.0
  0
LINE
  5
271
330
251
100
AcDbEntity
  8
0
100
AcDbLine
 10
57.99999965020173
 20
3.585959210790178
 30
0.0
 11
4.999999650201742
 21
4.973813053958222
 31
0.0
  0
LINE
  5
272
330
251
100
AcDbEntity
  8
0
100
AcDbLine
 10
2.999999650201743
 20
54.3196657347342
 30
0.0
 11
2.999999650201743
 21
50.68033221631822
 31
0.0
  0
LINE
  5
273
330
251
100
AcDbEntity
  8
0
100
AcDbLine
 10
4.999999650201742
 20
70.9999989755272
 30
0.0
 11
4.999999650201742
 21
32.99999897552719
 31
0.0
  0
LINE
  5
274
330
251
100
AcDbEntity
  8
0
100
AcDbLine
 10
5.999999650201742
 20
32.97381305395919
 30
0.0
 11
5.999999650201742
 21
70.97381305395821
 31
0.0
  0
LINE
  5
275
330
251
100
AcDbEntity
  8
0
100
AcDbLine
 10
15.99999965020174
 20
103.9738130539582
 30
0.0
 11
15.99999965020174
 21
21.97381305395821
 31
0.0
  0
LINE
  5
276
330
251
100
AcDbEntity
  8
0
100
AcDbLine
 10
-0.0000003497982561
 20
21.41966573473415
 30
0.0
 11
-0.0000003497982561
 21
-0.0000010244727946
 31
0.0
  0
LINE
  5
277
330
251
100
AcDbEntity
  8
0
100
AcDbLine
 10
8.099999650201709
 20
30.9999989755272
 30
0.0
 11
8.099999650201709
 21
22.9999989755272
 31
0.0
  0
LINE
  5
278
330
251
100
AcDbEntity
  8
0
100
AcDbLine
 10
8.699999650201732
 20
30.9999989755272
 30
0.0
 11
8.699999650201732
 21
22.9999989755272
 31
0.0
  0
LINE
  5
279
330
251
100
AcDbEntity
  8
0
100
AcDbLine
 10
9.499999650201743
 20
30.9999989755272
 30
0.0
 11
9.499999650201743
 21
22.9999989755272
 31
0.0
  0
ARC
  5
27A
330
251
100
AcDbEntity
  8
0
100
AcDbCircle
 10
2.39999965020172
 20
26.3196657347342
 30
0.0
 40
0.6
100
AcDbArc
 50
0.0
 51
88.0908475670027
  0
LINE
  5
27B
330
251
100
AcDbEntity
  8
0
100
AcDbLine
 10
4.499999650201742
 20
32.99999897552719
 30
0.0
 11
4.499999650201742
 21
20.9999989755272
 31
0.0
  0
LINE
  5
27C
330
251
100
AcDbEntity
  8
0
100
AcDbLine
 10
4.999999650201742
 20
32.99999897552719
 30
0.0
 11
4.999999650201742
 21
20.99999897552617
 31
0.0
  0
LINE
  5
27D
330
251
100
AcDbEntity
  8
0
100
AcDbLine
 10
7.999999650200718
 20
31.47381305395822
 30
0.0
 11
7.999999650200718
 21
22.47381305395822
 31
0.0
  0
LINE
  5
27E
330
251
100
AcDbEntity
  8
0
100
AcDbLine
 10
9.699999650200707
 20
31.47381305395822
 30
0.0
 11
9.699999650200707
 21
22.47381305395822
 31
0.0
  0
LINE
  5
27F
330
251
100
AcDbEntity
  8
0
100
AcDbLine
 10
3.699999650201732
 20
32.99999897552719
 30
0.0
 11
3.699999650201732
 21
21.09999897552619
 31
0.0
  0
LINE
  5
280
330
251
100
AcDbEntity
  8
0
100
AcDbLine
 10
4.999999650201742
 20
20.9999989755272
 30
0.0
 11
4.999999650201742
 21
4.973813053957201
 31
0.0
  0
LINE
  5
281
330
251
100
AcDbEntity
  8
0
100
AcDbLine
 10
5.999999650201742
 20
4.921441210820205
 30
0.0
 11
5.999999650201742
 21
20.97381305395821
 31
0.0
  0
LINE
  5
282
330
251
100
AcDbEntity
  8
0
100
AcDbLine
 10
3.999999650201743
 20
4.999998975527204
 30
0.0
 11
-0.0000003497982561
 21
4.895255289250201
 31
0.0
  0
LINE
  5
283
330
251
100
AcDbEntity
  8
0
100
AcDbLine
 10
2.516657065317758
 20
22.08388755603022
 30
0.0
 11
0.580010752061753
 21
22.01933267892218
 31
0.0
  0
ARC
  5
284
330
251
100
AcDbEntity
  8
0
100
AcDbCircle
 10
0.5999996502017098
 20
21.41966573473415
 30
0.0
 40
0.6
100
AcDbArc
 50
91.90915243299405
 51
180.0
  0
POINT
  5
285
330
251
100
AcDbEntity
  8
0
100
AcDbPoint
 10
-0.0000003497982561
 20
21.99999897552618
 30
0.0
  0
LINE
  5
286
330
251
100
AcDbEntity
  8
0
100
AcDbLine
 10
5.999999650201742
 20
20.97381305395821
 30
0.0
 11
4.999999650201742
 21
20.97381305395821
 31
0.0
  0
ARC
  5
287
330
251
100
AcDbEntity
  8
0
100
AcDbCircle
 10
2.499999650201743
 20
22.58361000952019
 30
0.0
 40
0.5
100
AcDbArc
 50
271.909152432994
 51
0.0
  0
LINE
  5
288
330
251
100
AcDbEntity
  8
0
100
AcDbLine
 10
2.999999650201743
 20
26.3196657347342
 30
0.0
 11
2.999999650201743
 21
22.58361000952019
 31
0.0
  0
LINE
  5
289
330
251
100
AcDbEntity
  8
0
100
AcDbLine
 10
4.999999650201742
 20
20.9999989755272
 30
0.0
 11
3.699999650201732
 21
20.9999989755272
 31
0.0
  0
LINE
  5
28A
330
251
100
AcDbEntity
  8
0
100
AcDbLine
 10
9.699999650200707
 20
22.47381305395822
 30
0.0
 11
7.999999650200718
 21
22.47381305395822
 31
0.0
  0
LINE
  5
28B
330
251
100
AcDbEntity
  8
0
100
AcDbLine
 10
9.499999650201743
 20
22.9999989755272
 30
0.0
 11
7.999999650200718
 21
22.9999989755272
 31
0.0
  0
LINE
  5
28C
330
251
100
AcDbEntity
  8
0
100
AcDbLine
 10
2.999999650201743
 20
40.3196657347342
 30
0.0
 11
2.999999650201743
 21
36.68033221631822
 31
0.0
  0
LINE
  5
28D
330
251
100
AcDbEntity
  8
0
100
AcDbLine
 10
2.419988548340711
 20
36.08066527213122
 30
0.0
 11
0.580010752061753
 21
36.01933267892218
 31
0.0
  0
LINE
  5
28E
330
251
100
AcDbEntity
  8
0
100
AcDbLine
 10
0.580010752061753
 20
33.98066527213119
 30
0.0
 11
2.419988548340711
 21
33.91933267892222
 31
0.0
  0
LINE
  5
28F
330
251
100
AcDbEntity
  8
0
100
AcDbLine
 10
2.419988548340711
 20
29.08066527213122
 30
0.0
 11
0.580010752061753
 21
29.01933267892218
 31
0.0
  0
LINE
  5
290
330
251
100
AcDbEntity
  8
0
100
AcDbLine
 10
0.580010752061753
 20
26.9806652721312
 30
0.0
 11
2.419988548340711
 21
26.9193326789222
 31
0.0
  0
LINE
  5
291
330
251
100
AcDbEntity
  8
0
100
AcDbLine
 10
-0.0000003497982561
 20
35.41966573473422
 30
0.0
 11
-0.0000003497982561
 21
34.58033221631922
 31
0.0
  0
ARC
  5
292
330
251
100
AcDbEntity
  8
0
100
AcDbCircle
 10
0.5999996502017098
 20
34.58033221631922
 30
0.0
 40
0.6
100
AcDbArc
 50
180.0
 51
268.0908475670026
  0
POINT
  5
293
330
251
100
AcDbEntity
  8
0
100
AcDbPoint
 10
-0.0000003497982561
 20
33.99999897552719
 30
0.0
  0
ARC
  5
294
330
251
100
AcDbEntity
  8
0
100
AcDbCircle
 10
0.5999996502007435
 20
35.41966573473422
 30
0.0
 40
0.6
100
AcDbArc
 50
91.90915243299405
 51
180.0
  0
LINE
  5
295
330
251
100
AcDbEntity
  8
0
100
AcDbLine
 10
-0.0000003497982561
 20
28.41966573473417
 30
0.0
 11
-0.0000003497982561
 21
27.58033221631921
 31
0.0
  0
ARC
  5
296
330
251
100
AcDbEntity
  8
0
100
AcDbCircle
 10
0.5999996502017098
 20
28.41966573473417
 30
0.0
 40
0.6
100
AcDbArc
 50
91.90915243299405
 51
180.0
  0
ARC
  5
297
330
251
100
AcDbEntity
  8
0
100
AcDbCircle
 10
0.5999996502007435
 20
27.58033221631921
 30
0.0
 40
0.6
100
AcDbArc
 50
180.0
 51
268.0908475670026
  0
POINT
  5
298
330
251
100
AcDbEntity
  8
0
100
AcDbPoint
 10
-0.0000003497982561
 20
26.99999897552618
 30
0.0
  0
LINE
  5
299
330
251
100
AcDbEntity
  8
0
100
AcDbLine
 10
5.999999650201742
 20
32.97381305395919
 30
0.0
 11
4.999999650201742
 21
32.97381305395919
 31
0.0
  0
ARC
  5
29A
330
251
100
AcDbEntity
  8
0
100
AcDbCircle
 10
2.39999965020172
 20
33.3196657347342
 30
0.0
 40
0.6
100
AcDbArc
 50
0.0
 51
88.0908475670027
  0
ARC
  5
29B
330
251
100
AcDbEntity
  8
0
100
AcDbCircle
 10
2.39999965020172
 20
36.68033221631822
 30
0.0
 40
0.6
100
AcDbArc
 50
271.9091524329972
 51
0.0
  0
LINE
  5
29C
330
251
100
AcDbEntity
  8
0
100
AcDbLine
 10
4.999999650201742
 20
32.99999897552719
 30
0.0
 11
3.699999650201732
 21
32.99999897552719
 31
0.0
  0
ARC
  5
29D
330
251
100
AcDbEntity
  8
0
100
AcDbCircle
 10
2.39999965020172
 20
29.68033221631822
 30
0.0
 40
0.6
100
AcDbArc
 50
271.9091524329972
 51
0.0
  0
LINE
  5
29E
330
251
100
AcDbEntity
  8
0
100
AcDbLine
 10
2.999999650201743
 20
33.3196657347342
 30
0.0
 11
2.999999650201743
 21
29.68033221631822
 31
0.0
  0
LINE
  5
29F
330
251
100
AcDbEntity
  8
0
100
AcDbLine
 10
2.419988548340711
 20
50.08066527213121
 30
0.0
 11
0.580010752061753
 21
50.01933267892217
 31
0.0
  0
LINE
  5
2A0
330
251
100
AcDbEntity
  8
0
100
AcDbLine
 10
0.580010752061753
 20
47.9806652721312
 30
0.0
 11
2.419988548340711
 21
47.91933267892221
 31
0.0
  0
LINE
  5
2A1
330
251
100
AcDbEntity
  8
0
100
AcDbLine
 10
2.419988548340711
 20
43.08066527213121
 30
0.0
 11
0.580010752061753
 21
43.01933267892217
 31
0.0
  0
LINE
  5
2A2
330
251
100
AcDbEntity
  8
0
100
AcDbLine
 10
0.580010752061753
 20
40.9806652721312
 30
0.0
 11
2.419988548340711
 21
40.91933267892222
 31
0.0
  0
ARC
  5
2A3
330
251
100
AcDbEntity
  8
0
100
AcDbCircle
 10
0.5999996502007435
 20
49.41966573473422
 30
0.0
 40
0.6
100
AcDbArc
 50
91.90915243299405
 51
180.0
  0
ARC
  5
2A4
330
251
100
AcDbEntity
  8
0
100
AcDbCircle
 10
0.5999996502017098
 20
48.58033221631922
 30
0.0
 40
0.6
100
AcDbArc
 50
180.0
 51
268.0908475670026
  0
POINT
  5
2A5
330
251
100
AcDbEntity
  8
0
100
AcDbPoint
 10
-0.0000003497982561
 20
47.99999897552718
 30
0.0
  0
LINE
  5
2A6
330
251
100
AcDbEntity
  8
0
100
AcDbLine
 10
-0.0000003497982561
 20
49.41966573473422
 30
0.0
 11
-0.0000003497982561
 21
48.58033221631922
 31
0.0
  0
ARC
  5
2A7
330
251
100
AcDbEntity
  8
0
100
AcDbCircle
 10
0.5999996502007435
 20
42.41966573473422
 30
0.0
 40
0.6
100
AcDbArc
 50
91.90915243299405
 51
180.0
  0
ARC
  5
2A8
330
251
100
AcDbEntity
  8
0
100
AcDbCircle
 10
0.5999996502007435
 20
41.58033221631922
 30
0.0
 40
0.6
100
AcDbArc
 50
180.0
 51
268.0908475670026
  0
POINT
  5
2A9
330
251
100
AcDbEntity
  8
0
100
AcDbPoint
 10
-0.0000003497982561
 20
40.99999897552618
 30
0.0
  0
LINE
  5
2AA
330
251
100
AcDbEntity
  8
0
100
AcDbLine
 10
-0.0000003497982561
 20
42.41966573473422
 30
0.0
 11
-0.0000003497982561
 21
41.58033221631922
 31
0.0
  0
ARC
  5
2AB
330
251
100
AcDbEntity
  8
0
100
AcDbCircle
 10
2.39999965020172
 20
50.68033221631822
 30
0.0
 40
0.6
100
AcDbArc
 50
271.9091524329972
 51
0.0
  0
ARC
  5
2AC
330
251
100
AcDbEntity
  8
0
100
AcDbCircle
 10
2.39999965020172
 20
47.3196657347342
 30
0.0
 40
0.6
100
AcDbArc
 50
0.0
 51
88.0908475670027
  0
ARC
  5
2AD
330
251
100
AcDbEntity
  8
0
100
AcDbCircle
 10
2.39999965020172
 20
43.6803322163182
 30
0.0
 40
0.6
100
AcDbArc
 50
271.9091524329972
 51
0.0
  0
ARC
  5
2AE
330
251
100
AcDbEntity
  8
0
100
AcDbCircle
 10
2.39999965020172
 20
40.3196657347342
 30
0.0
 40
0.6
100
AcDbArc
 50
0.0
 51
88.0908475670027
  0
LINE
  5
2AF
330
251
100
AcDbEntity
  8
0
100
AcDbLine
 10
2.999999650201743
 20
47.3196657347342
 30
0.0
 11
2.999999650201743
 21
43.6803322163182
 31
0.0
  0
LINE
  5
2B0
330
251
100
AcDbEntity
  8
0
100
AcDbLine
 10
9.699999650200707
 20
31.47381305395822
 30
0.0
 11
7.999999650200718
 21
31.47381305395822
 31
0.0
  0
LINE
  5
2B1
330
251
100
AcDbEntity
  8
0
100
AcDbLine
 10
9.499999650201743
 20
30.9999989755272
 30
0.0
 11
7.999999650200718
 21
30.9999989755272
 31
0.0
  0
LINE
  5
2B2
330
251
100
AcDbEntity
  8
0
100
AcDbLine
 10
2.999999650201743
 20
103.3196657347342
 30
0.0
 11
2.999999650201743
 21
99.68033221631822
 31
0.0
  0
LINE
  5
2B3
330
251
100
AcDbEntity
  8
0
100
AcDbLine
 10
-0.0000003497982561
 20
90.58033221631919
 30
0.0
 11
-0.0000003497982561
 21
120.8952552892502
 31
0.0
  0
LINE
  5
2B4
330
251
100
AcDbEntity
  8
0
100
AcDbLine
 10
4.999999650201742
 20
110.4710180334012
 30
0.0
 11
4.999999650201742
 21
82.99999897552721
 31
0.0
  0
LINE
  5
2B5
330
251
100
AcDbEntity
  8
0
100
AcDbLine
 10
5.999999650201742
 20
82.97381305395919
 30
0.0
 11
5.999999650201742
 21
109.605732480656
 31
0.0
  0
LINE
  5
2B6
330
251
100
AcDbEntity
  8
0
100
AcDbLine
 10
8.099999650201709
 20
80.9999989755272
 30
0.0
 11
8.099999650201709
 21
72.9999989755272
 31
0.0
  0
LINE
  5
2B7
330
251
100
AcDbEntity
  8
0
100
AcDbLine
 10
8.699999650201732
 20
80.9999989755272
 30
0.0
 11
8.699999650201732
 21
72.9999989755272
 31
0.0
  0
LINE
  5
2B8
330
251
100
AcDbEntity
  8
0
100
AcDbLine
 10
9.499999650201743
 20
80.9999989755272
 30
0.0
 11
9.499999650201743
 21
72.9999989755272
 31
0.0
  0
LINE
  5
2B9
330
251
100
AcDbEntity
  8
0
100
AcDbLine
 10
7.999999650200718
 20
81.47381305395823
 30
0.0
 11
7.999999650200718
 21
72.47381305395824
 31
0.0
  0
LINE
  5
2BA
330
251
100
AcDbEntity
  8
0
100
AcDbLine
 10
9.699999650200707
 20
81.47381305395823
 30
0.0
 11
9.699999650200707
 21
72.47381305395824
 31
0.0
  0
LINE
  5
2BB
330
251
100
AcDbEntity
  8
0
100
AcDbLine
 10
4.499999650201742
 20
82.99999897552721
 30
0.0
 11
4.499999650201742
 21
70.9999989755272
 31
0.0
  0
LINE
  5
2BC
330
251
100
AcDbEntity
  8
0
100
AcDbLine
 10
4.999999650201742
 20
70.9999989755262
 30
0.0
 11
4.999999650201742
 21
82.99999897552721
 31
0.0
  0
LINE
  5
2BD
330
251
100
AcDbEntity
  8
0
100
AcDbLine
 10
3.699999650201732
 20
82.99999897552721
 30
0.0
 11
3.699999650201732
 21
71.0999989755262
 31
0.0
  0
ARC
  5
2BE
330
251
100
AcDbEntity
  8
0
100
AcDbCircle
 10
0.5999996502017098
 20
76.58033221631922
 30
0.0
 40
0.6
100
AcDbArc
 50
180.0
 51
268.0908475670026
  0
ARC
  5
2BF
330
251
100
AcDbEntity
  8
0
100
AcDbCircle
 10
2.39999965020172
 20
64.68033221631822
 30
0.0
 40
0.6
100
AcDbArc
 50
271.9091524329907
 51
0.0
  0
ARC
  5
2C0
330
251
100
AcDbEntity
  8
0
100
AcDbCircle
 10
0.5999996502017098
 20
63.41966573473422
 30
0.0
 40
0.6
100
AcDbArc
 50
91.9091524329973
 51
180.0
  0
LINE
  5
2C1
330
251
100
AcDbEntity
  8
0
100
AcDbLine
 10
-0.0000003497982561
 20
64.61966573473524
 30
0.0
 11
-0.0000003497982561
 21
59.58033221631819
 31
0.0
  0
LINE
  5
2C2
330
251
100
AcDbEntity
  8
0
100
AcDbLine
 10
0.580010752061753
 20
61.98066527213121
 30
0.0
 11
2.419988548340711
 21
61.91933267892221
 31
0.0
  0
LINE
  5
2C3
330
251
100
AcDbEntity
  8
0
100
AcDbLine
 10
0.580010752061753
 20
58.98066527213121
 30
0.0
 11
2.99999965020072
 21
58.89999897552621
 31
0.0
  0
LINE
  5
2C4
330
251
100
AcDbEntity
  8
0
100
AcDbLine
 10
2.419988548340711
 20
57.08066527213121
 30
0.0
 11
0.580010752061753
 21
57.01933267892218
 31
0.0
  0
LINE
  5
2C5
330
251
100
AcDbEntity
  8
0
100
AcDbLine
 10
0.580010752061753
 20
54.9806652721312
 30
0.0
 11
2.419988548340711
 21
54.91933267892221
 31
0.0
  0
ARC
  5
2C6
330
251
100
AcDbEntity
  8
0
100
AcDbCircle
 10
0.5999996502017098
 20
62.58033221631922
 30
0.0
 40
0.6
100
AcDbArc
 50
180.0
 51
268.0908475670026
  0
POINT
  5
2C7
330
251
100
AcDbEntity
  8
0
100
AcDbPoint
 10
-0.0000003497982561
 20
61.99999897552618
 30
0.0
  0
ARC
  5
2C8
330
251
100
AcDbEntity
  8
0
100
AcDbCircle
 10
0.5999996502007435
 20
59.58033221631819
 30
0.0
 40
0.6
100
AcDbArc
 50
180.0
 51
268.0908475670059
  0
LINE
  5
2C9
330
251
100
AcDbEntity
  8
0
100
AcDbLine
 10
-0.0000003497982561
 20
56.41966573473422
 30
0.0
 11
-0.0000003497982561
 21
55.58033221631922
 31
0.0
  0
POINT
  5
2CA
330
251
100
AcDbEntity
  8
0
100
AcDbPoint
 10
-0.0000003497982561
 20
54.99999897552618
 30
0.0
  0
ARC
  5
2CB
330
251
100
AcDbEntity
  8
0
100
AcDbCircle
 10
0.5999996502017098
 20
55.58033221631922
 30
0.0
 40
0.6
100
AcDbArc
 50
180.0
 51
268.0908475670026
  0
ARC
  5
2CC
330
251
100
AcDbEntity
  8
0
100
AcDbCircle
 10
0.5999996502017098
 20
56.41966573473422
 30
0.0
 40
0.6
100
AcDbArc
 50
91.90915243299405
 51
180.0
  0
LINE
  5
2CD
330
251
100
AcDbEntity
  8
0
100
AcDbLine
 10
2.999999650201743
 20
61.3196657347342
 30
0.0
 11
2.999999650201743
 21
57.68033221631821
 31
0.0
  0
ARC
  5
2CE
330
251
100
AcDbEntity
  8
0
100
AcDbCircle
 10
2.39999965020172
 20
61.3196657347342
 30
0.0
 40
0.6
100
AcDbArc
 50
0.0
 51
88.0908475670027
  0
ARC
  5
2CF
330
251
100
AcDbEntity
  8
0
100
AcDbCircle
 10
2.39999965020172
 20
54.3196657347342
 30
0.0
 40
0.6
100
AcDbArc
 50
0.0
 51
88.09084756699943
  0
ARC
  5
2D0
330
251
100
AcDbEntity
  8
0
100
AcDbCircle
 10
2.39999965020172
 20
57.68033221631821
 30
0.0
 40
0.6
100
AcDbArc
 50
271.9091524329972
 51
0.0
  0
LINE
  5
2D1
330
251
100
AcDbEntity
  8
0
100
AcDbLine
 10
0.580010752061753
 20
75.9806652721312
 30
0.0
 11
2.419988548340711
 21
75.91933267892222
 31
0.0
  0
LINE
  5
2D2
330
251
100
AcDbEntity
  8
0
100
AcDbLine
 10
2.419988548340711
 20
71.08066527213122
 30
0.0
 11
0.580010752061753
 21
71.01933267892218
 31
0.0
  0
LINE
  5
2D3
330
251
100
AcDbEntity
  8
0
100
AcDbLine
 10
0.580010752061753
 20
68.98066527213122
 30
0.0
 11
2.419988548340711
 21
68.91933267892222
 31
0.0
  0
LINE
  5
2D4
330
251
100
AcDbEntity
  8
0
100
AcDbLine
 10
2.419988548340711
 20
64.08066527213121
 30
0.0
 11
0.580010752061753
 21
64.01933267892218
 31
0.0
  0
LINE
  5
2D5
330
251
100
AcDbEntity
  8
0
100
AcDbLine
 10
0.580010752061753
 20
65.21933267892221
 30
0.0
 11
2.99999965020072
 21
65.29999897552722
 31
0.0
  0
LINE
  5
2D6
330
251
100
AcDbEntity
  8
0
100
AcDbLine
 10
0.580010752061753
 20
65.01933267892218
 30
0.0
 11
2.99999965020072
 21
65.09999897552621
 31
0.0
  0
POINT
  5
2D7
330
251
100
AcDbEntity
  8
0
100
AcDbPoint
 10
-0.0000003497982561
 20
75.9999989755272
 30
0.0
  0
ARC
  5
2D8
330
251
100
AcDbEntity
  8
0
100
AcDbCircle
 10
0.5999996502007435
 20
70.41966573473422
 30
0.0
 40
0.6
100
AcDbArc
 50
91.9091524329973
 51
180.0
  0
ARC
  5
2D9
330
251
100
AcDbEntity
  8
0
100
AcDbCircle
 10
0.5999996502017098
 20
69.58033221631922
 30
0.0
 40
0.6
100
AcDbArc
 50
180.0
 51
268.0908475670026
  0
POINT
  5
2DA
330
251
100
AcDbEntity
  8
0
100
AcDbPoint
 10
-0.0000003497982561
 20
68.99999897552721
 30
0.0
  0
ARC
  5
2DB
330
251
100
AcDbEntity
  8
0
100
AcDbCircle
 10
0.5999996502007435
 20
64.61966573473524
 30
0.0
 40
0.6
100
AcDbArc
 50
91.90915243299405
 51
180.0
  0
ARC
  5
2DC
330
251
100
AcDbEntity
  8
0
100
AcDbCircle
 10
0.5999996502007435
 20
64.41966573473422
 30
0.0
 40
0.6
100
AcDbArc
 50
91.90915243299405
 51
180.0
  0
LINE
  5
2DD
330
251
100
AcDbEntity
  8
0
100
AcDbLine
 10
-0.0000003497982561
 20
70.41966573473422
 30
0.0
 11
-0.0000003497982561
 21
69.58033221631922
 31
0.0
  0
LINE
  5
2DE
330
251
100
AcDbEntity
  8
0
100
AcDbLine
 10
5.999999650201742
 20
70.97381305395821
 30
0.0
 11
4.999999650201742
 21
70.97381305395821
 31
0.0
  0
ARC
  5
2DF
330
251
100
AcDbEntity
  8
0
100
AcDbCircle
 10
2.39999965020172
 20
75.3196657347342
 30
0.0
 40
0.6
100
AcDbArc
 50
0.0
 51
88.0908475670027
  0
ARC
  5
2E0
330
251
100
AcDbEntity
  8
0
100
AcDbCircle
 10
2.39999965020172
 20
71.68033221631822
 30
0.0
 40
0.6
100
AcDbArc
 50
271.909152432994
 51
0.0
  0
LINE
  5
2E1
330
251
100
AcDbEntity
  8
0
100
AcDbLine
 10
2.999999650201743
 20
75.3196657347342
 30
0.0
 11
2.999999650201743
 21
71.68033221631822
 31
0.0
  0
LINE
  5
2E2
330
251
100
AcDbEntity
  8
0
100
AcDbLine
 10
4.999999650201742
 20
70.9999989755272
 30
0.0
 11
3.699999650201732
 21
70.9999989755272
 31
0.0
  0
ARC
  5
2E3
330
251
100
AcDbEntity
  8
0
100
AcDbCircle
 10
2.39999965020172
 20
68.3196657347342
 30
0.0
 40
0.6
100
AcDbArc
 50
0.0
 51
88.0908475670027
  0
LINE
  5
2E4
330
251
100
AcDbEntity
  8
0
100
AcDbLine
 10
2.999999650201743
 20
68.3196657347342
 30
0.0
 11
2.999999650201743
 21
64.68033221631822
 31
0.0
  0
LINE
  5
2E5
330
251
100
AcDbEntity
  8
0
100
AcDbLine
 10
9.499999650201743
 20
72.9999989755272
 30
0.0
 11
7.999999650200718
 21
72.9999989755272
 31
0.0
  0
LINE
  5
2E6
330
251
100
AcDbEntity
  8
0
100
AcDbLine
 10
9.699999650200707
 20
72.47381305395824
 30
0.0
 11
7.999999650200718
 21
72.47381305395824
 31
0.0
  0
LINE
  5
2E7
330
251
100
AcDbEntity
  8
0
100
AcDbLine
 10
2.999999650201743
 20
89.31966573473422
 30
0.0
 11
2.999999650201743
 21
85.68033221631822
 31
0.0
  0
LINE
  5
2E8
330
251
100
AcDbEntity
  8
0
100
AcDbLine
 10
2.419988548340711
 20
85.08066527213122
 30
0.0
 11
0.580010752061753
 21
85.01933267892217
 31
0.0
  0
LINE
  5
2E9
330
251
100
AcDbEntity
  8
0
100
AcDbLine
 10
0.580010752061753
 20
82.98066527213121
 30
0.0
 11
2.419988548340711
 21
82.91933267892222
 31
0.0
  0
LINE
  5
2EA
330
251
100
AcDbEntity
  8
0
100
AcDbLine
 10
2.419988548340711
 20
78.08066527213123
 30
0.0
 11
0.580010752061753
 21
78.01933267892218
 31
0.0
  0
LINE
  5
2EB
330
251
100
AcDbEntity
  8
0
100
AcDbLine
 10
-0.0000003497982561
 20
84.41966573473422
 30
0.0
 11
-0.0000003497982561
 21
83.58033221631922
 31
0.0
  0
ARC
  5
2EC
330
251
100
AcDbEntity
  8
0
100
AcDbCircle
 10
0.5999996502017098
 20
84.41966573473422
 30
0.0
 40
0.6
100
AcDbArc
 50
91.9091524329973
 51
180.0
  0
POINT
  5
2ED
330
251
100
AcDbEntity
  8
0
100
AcDbPoint
 10
-0.0000003497982561
 20
82.99999897552721
 30
0.0
  0
LINE
  5
2EE
330
251
100
AcDbEntity
  8
0
100
AcDbLine
 10
-0.0000003497982561
 20
77.41966573473423
 30
0.0
 11
-0.0000003497982561
 21
76.58033221631922
 31
0.0
  0
ARC
  5
2EF
330
251
100
AcDbEntity
  8
0
100
AcDbCircle
 10
0.5999996502017098
 20
77.41966573473423
 30
0.0
 40
0.6
100
AcDbArc
 50
91.90915243299405
 51
180.0
  0
ARC
  5
2F0
330
251
100
AcDbEntity
  8
0
100
AcDbCircle
 10
0.5999996502017098
 20
83.58033221631922
 30
0.0
 40
0.6
100
AcDbArc
 50
180.0
 51
268.0908475670026
  0
ARC
  5
2F1
330
251
100
AcDbEntity
  8
0
100
AcDbCircle
 10
2.39999965020172
 20
85.68033221631822
 30
0.0
 40
0.6
100
AcDbArc
 50
271.9091524329972
 51
0.0
  0
LINE
  5
2F2
330
251
100
AcDbEntity
  8
0
100
AcDbLine
 10
5.999999650201742
 20
82.97381305395919
 30
0.0
 11
4.999999650201742
 21
82.97381305395919
 31
0.0
  0
ARC
  5
2F3
330
251
100
AcDbEntity
  8
0
100
AcDbCircle
 10
2.39999965020172
 20
82.31966573473419
 30
0.0
 40
0.6
100
AcDbArc
 50
0.0
 51
88.09084756699943
  0
ARC
  5
2F4
330
251
100
AcDbEntity
  8
0
100
AcDbCircle
 10
2.39999965020172
 20
78.68033221631822
 30
0.0
 40
0.6
100
AcDbArc
 50
271.9091524329972
 51
0.0
  0
LINE
  5
2F5
330
251
100
AcDbEntity
  8
0
100
AcDbLine
 10
2.999999650201743
 20
82.31966573473419
 30
0.0
 11
2.999999650201743
 21
78.68033221631822
 31
0.0
  0
LINE
  5
2F6
330
251
100
AcDbEntity
  8
0
100
AcDbLine
 10
4.999999650201742
 20
82.99999897552721
 30
0.0
 11
3.699999650201732
 21
82.99999897552721
 31
0.0
  0
LINE
  5
2F7
330
251
100
AcDbEntity
  8
0
100
AcDbLine
 10
0.580010752061753
 20
96.9806652721312
 30
0.0
 11
2.419988548340711
 21
96.91933267892222
 31
0.0
  0
LINE
  5
2F8
330
251
100
AcDbEntity
  8
0
100
AcDbLine
 10
2.419988548340711
 20
99.08066527213122
 30
0.0
 11
0.580010752061753
 21
99.0193326789222
 31
0.0
  0
LINE
  5
2F9
330
251
100
AcDbEntity
  8
0
100
AcDbLine
 10
2.419988548340711
 20
92.08066527213123
 30
0.0
 11
0.580010752061753
 21
92.0193326789222
 31
0.0
  0
LINE
  5
2FA
330
251
100
AcDbEntity
  8
0
100
AcDbLine
 10
0.580010752061753
 20
89.98066527213119
 30
0.0
 11
2.419988548340711
 21
89.91933267892219
 31
0.0
  0
ARC
  5
2FB
330
251
100
AcDbEntity
  8
0
100
AcDbCircle
 10
0.5999996502017098
 20
97.58033221631922
 30
0.0
 40
0.6
100
AcDbArc
 50
180.0
 51
268.0908475670026
  0
POINT
  5
2FC
330
251
100
AcDbEntity
  8
0
100
AcDbPoint
 10
-0.0000003497982561
 20
96.99999897552618
 30
0.0
  0
ARC
  5
2FD
330
251
100
AcDbEntity
  8
0
100
AcDbCircle
 10
0.5999996502017098
 20
98.4196657347342
 30
0.0
 40
0.6
100
AcDbArc
 50
91.9091524329973
 51
180.0
  0
POINT
  5
2FE
330
251
100
AcDbEntity
  8
0
100
AcDbPoint
 10
-0.0000003497982561
 20
98.99999897552618
 30
0.0
  0
LINE
  5
2FF
330
251
100
AcDbEntity
  8
0
100
AcDbLine
 10
-0.0000003497982561
 20
98.4196657347342
 30
0.0
 11
-0.0000003497982561
 21
97.58033221631922
 31
0.0
  0
LINE
  5
300
330
251
100
AcDbEntity
  8
0
100
AcDbLine
 10
-0.0000003497982561
 20
91.41966573473423
 30
0.0
 11
-0.0000003497982561
 21
90.58033221631919
 31
0.0
  0
ARC
  5
301
330
251
100
AcDbEntity
  8
0
100
AcDbCircle
 10
0.5999996502007435
 20
90.58033221631919
 30
0.0
 40
0.6
100
AcDbArc
 50
180.0
 51
268.0908475670026
  0
ARC
  5
302
330
251
100
AcDbEntity
  8
0
100
AcDbCircle
 10
0.5999996502017098
 20
91.41966573473423
 30
0.0
 40
0.6
100
AcDbArc
 50
91.9091524329973
 51
180.0
  0
POINT
  5
303
330
251
100
AcDbEntity
  8
0
100
AcDbPoint
 10
-0.0000003497982561
 20
89.9999989755272
 30
0.0
  0
ARC
  5
304
330
251
100
AcDbEntity
  8
0
100
AcDbCircle
 10
2.39999965020172
 20
96.31966573473421
 30
0.0
 40
0.6
100
AcDbArc
 50
0.0
 51
88.0908475670027
  0
POINT
  5
305
330
251
100
AcDbEntity
  8
0
100
AcDbPoint
 10
2.999999650201743
 20
96.89999897552617
 30
0.0
  0
ARC
  5
306
330
251
100
AcDbEntity
  8
0
100
AcDbCircle
 10
2.39999965020172
 20
99.68033221631822
 30
0.0
 40
0.6
100
AcDbArc
 50
271.909152432994
 51
0.0
  0
POINT
  5
307
330
251
100
AcDbEntity
  8
0
100
AcDbPoint
 10
2.999999650201743
 20
99.09999897552621
 30
0.0
  0
ARC
  5
308
330
251
100
AcDbEntity
  8
0
100
AcDbCircle
 10
2.39999965020172
 20
92.68033221631823
 30
0.0
 40
0.6
100
AcDbArc
 50
271.9091524329972
 51
0.0
  0
ARC
  5
309
330
251
100
AcDbEntity
  8
0
100
AcDbCircle
 10
2.39999965020172
 20
89.31966573473422
 30
0.0
 40
0.6
100
AcDbArc
 50
0.0
 51
88.0908475670027
  0
LINE
  5
30A
330
251
100
AcDbEntity
  8
0
100
AcDbLine
 10
2.999999650201743
 20
96.31966573473421
 30
0.0
 11
2.999999650201743
 21
92.68033221631823
 31
0.0
  0
LINE
  5
30B
330
251
100
AcDbEntity
  8
0
100
AcDbLine
 10
9.499999650201743
 20
80.9999989755272
 30
0.0
 11
7.999999650200718
 21
80.9999989755272
 31
0.0
  0
LINE
  5
30C
330
251
100
AcDbEntity
  8
0
100
AcDbLine
 10
9.699999650200707
 20
81.47381305395823
 30
0.0
 11
7.999999650200718
 21
81.47381305395823
 31
0.0
  0
LINE
  5
30D
330
251
100
AcDbEntity
  8
0
100
AcDbLine
 10
15.19999965020076
 20
121.9738130539582
 30
0.0
 11
15.19999965020076
 21
126.2738130539582
 31
0.0
  0
LINE
  5
30E
330
251
100
AcDbEntity
  8
0
100
AcDbLine
 10
3.999999650201743
 20
120.9999989755272
 30
0.0
 11
7.999999650201742
 21
120.8952552892502
 31
0.0
  0
LINE
  5
30F
330
251
100
AcDbEntity
  8
0
100
AcDbLine
 10
7.999999650201742
 20
110.9999989755272
 30
0.0
 11
4.999999650201742
 21
110.4710180334012
 31
0.0
  0
LINE
  5
310
330
251
100
AcDbEntity
  8
0
100
AcDbLine
 10
8.999999650201742
 20
110.1347134227812
 30
0.0
 11
5.999999650201742
 21
109.605732480656
 31
0.0
  0
LINE
  5
311
330
251
100
AcDbEntity
  8
0
100
AcDbLine
 10
4.999999650201742
 20
110.4448321118332
 30
0.0
 11
7.999999650201742
 21
110.9738130539591
 31
0.0
  0
LINE
  5
312
330
251
100
AcDbEntity
  8
0
100
AcDbLine
 10
0.580010752061753
 20
103.9806652721311
 30
0.0
 11
2.419988548340711
 21
103.9193326789221
 31
0.0
  0
ARC
  5
313
330
251
100
AcDbEntity
  8
0
100
AcDbCircle
 10
0.5999996502017098
 20
104.5803322163191
 30
0.0
 40
0.6
100
AcDbArc
 50
180.0
 51
268.0908475670026
  0
ARC
  5
314
330
251
100
AcDbEntity
  8
0
100
AcDbCircle
 10
2.39999965020172
 20
103.3196657347342
 30
0.0
 40
0.6
100
AcDbArc
 50
0.0
 51
88.0908475670027
  0
POINT
  5
315
330
251
100
AcDbEntity
  8
0
100
AcDbPoint
 10
2.999999650201743
 20
103.8999989755259
 30
0.0
  0
LINE
  5
316
330
251
100
AcDbEntity
  8
0
100
AcDbLine
 10
-0.0000003497982561
 20
120.8952552892502
 30
0.0
 11
3.999999650201743
 21
120.9999989755272
 31
0.0
  0
LINE
  5
317
330
251
100
AcDbEntity
  8
0
100
AcDbLine
 10
5.999999650201742
 20
120.9738130539582
 30
0.0
 11
5.999999650201742
 21
120.9476271323892
 31
0.0
  0
LINE
  5
318
330
251
100
AcDbEntity
  8
0
100
AcDbLine
 10
5.999999650201742
 20
120.9738130539582
 30
0.0
 11
5.999999650201742
 21
120.9476271323886
 31
0.0
  0
LINE
  5
319
330
251
100
AcDbEntity
  8
0
100
AcDbLine
 10
7.999999650201742
 20
110.9999989755272
 30
0.0
 11
7.999999650201742
 21
120.8952552892502
 31
0.0
  0
LINE
  5
31A
330
251
100
AcDbEntity
  8
0
100
AcDbLine
 10
8.999999650201742
 20
120.9738130539582
 30
0.0
 11
8.999999650201742
 21
110.1347134227812
 31
0.0
  0
LINE
  5
31B
330
251
100
AcDbEntity
  8
0
100
AcDbLine
 10
7.999999650201742
 20
120.4738130539582
 30
0.0
 11
7.999999650201742
 21
110.9738130539591
 31
0.0
  0
LINE
  5
31C
330
251
100
AcDbEntity
  8
0
100
AcDbLine
 10
7.999999650201742
 20
120.4738130539582
 30
0.0
 11
8.999999650201742
 21
120.4738130539582
 31
0.0
  0
LINE
  5
31D
330
251
100
AcDbEntity
  8
0
100
AcDbLine
 10
14.09999965020171
 20
120.9738130539582
 30
0.0
 11
14.09999965020171
 21
121.9738130539582
 31
0.0
  0
LINE
  5
31E
330
251
100
AcDbEntity
  8
0
100
AcDbLine
 10
15.59999965020074
 20
126.2738130539581
 30
0.0
 11
15.59999965020074
 21
127.5738130539582
 31
0.0
  0
LINE
  5
31F
330
251
100
AcDbEntity
  8
0
100
AcDbLine
 10
54.49999965020174
 20
54.97381305395823
 30
0.0
 11
54.49999965020174
 21
48.9738130539582
 31
0.0
  0
LINE
  5
320
330
251
100
AcDbEntity
  8
0
100
AcDbLine
 10
48.99999965020175
 20
49.97381305395823
 30
0.0
 11
48.99999965020175
 21
51.99999897552618
 31
0.0
  0
LINE
  5
321
330
251
100
AcDbEntity
  8
0
100
AcDbLine
 10
38.99999965020172
 20
51.99999897552618
 30
0.0
 11
38.99999965020172
 21
49.97381305395823
 31
0.0
  0
LINE
  5
322
330
251
100
AcDbEntity
  8
0
100
AcDbLine
 10
33.49999965020173
 20
48.9738130539582
 30
0.0
 11
33.49999965020173
 21
54.97381305395823
 31
0.0
  0
LINE
  5
323
330
251
100
AcDbEntity
  8
0
100
AcDbLine
 10
34.49999965020174
 20
49.99999897552621
 30
0.0
 11
34.49999965020174
 21
91.99999897552618
 31
0.0
  0
LINE
  5
324
330
251
100
AcDbEntity
  8
0
100
AcDbLine
 10
53.49999965020174
 20
91.99999897552618
 30
0.0
 11
53.49999965020174
 21
49.99999897552618
 31
0.0
  0
LINE
  5
325
330
251
100
AcDbEntity
  8
0
100
AcDbLine
 10
56.99999965020174
 20
21.97381305395821
 30
0.0
 11
56.99999965020174
 21
103.9738130539582
 31
0.0
  0
LINE
  5
326
330
251
100
AcDbEntity
  8
0
100
AcDbLine
 10
57.99999965020173
 20
-0.0000010244727946
 30
0.0
 11
57.99999965020173
 21
3.585959210790178
 31
0.0
  0
LINE
  5
327
330
251
100
AcDbEntity
  8
0
100
AcDbLine
 10
26.89999965020074
 20
3.799998975526193
 30
0.0
 11
26.89999965020074
 21
-0.0000010244727946
 31
0.0
  0
LINE
  5
328
330
251
100
AcDbEntity
  8
0
100
AcDbLine
 10
31.09999965020171
 20
3.799998975526193
 30
0.0
 11
31.09999965020171
 21
-0.0000010244727946
 31
0.0
  0
LINE
  5
329
330
251
100
AcDbEntity
  8
0
100
AcDbLine
 10
48.99999965020175
 20
49.99999897552618
 30
0.0
 11
38.99999965020172
 21
49.99999897552621
 31
0.0
  0
LINE
  5
32A
330
251
100
AcDbEntity
  8
0
100
AcDbLine
 10
38.99999965020172
 20
49.97381305395823
 30
0.0
 11
48.99999965020175
 21
49.97381305395823
 31
0.0
  0
LINE
  5
32B
330
251
100
AcDbEntity
  8
0
100
AcDbLine
 10
53.49999965020174
 20
49.99999897552618
 30
0.0
 11
34.49999965020174
 21
49.99999897552621
 31
0.0
  0
LINE
  5
32C
330
251
100
AcDbEntity
  8
0
100
AcDbLine
 10
54.49999965020174
 20
48.9738130539582
 30
0.0
 11
33.49999965020173
 21
48.9738130539582
 31
0.0
  0
LINE
  5
32D
330
251
100
AcDbEntity
  8
0
100
AcDbLine
 10
23.49999965020173
 20
3.799998975526193
 30
0.0
 11
34.49999965020174
 21
3.799998975526193
 31
0.0
  0
LINE
  5
32E
330
251
100
AcDbEntity
  8
0
100
AcDbLine
 10
31.29128749767875
 20
4.259165530862218
 30
0.0
 11
31.29128749767875
 21
21.97381305395821
 31
0.0
  0
LINE
  5
32F
330
251
100
AcDbEntity
  8
0
100
AcDbLine
 10
26.70871180272371
 20
4.379164498595173
 30
0.0
 11
26.70871180272371
 21
21.97381305395925
 31
0.0
  0
LINE
  5
330
330
251
100
AcDbEntity
  8
0
100
AcDbLine
 10
23.49999965020173
 20
4.489373504927242
 30
0.0
 11
23.49999965020173
 21
3.799998975526193
 31
0.0
  0
LINE
  5
331
330
251
100
AcDbEntity
  8
0
100
AcDbLine
 10
34.49999965020174
 20
4.201328367667199
 30
0.0
 11
34.49999965020174
 21
3.799998975526193
 31
0.0
  0
LINE
  5
332
330
251
100
AcDbEntity
  8
0
100
AcDbLine
 10
32.99999965020173
 20
47.97381305395822
 30
0.0
 11
32.99999965020173
 21
49.97381305395823
 31
0.0
  0
ARC
  5
333
330
251
100
AcDbEntity
  8
0
100
AcDbCircle
 10
38.99999965020172
 20
50.47381305395822
 30
0.0
 40
0.5
100
AcDbArc
 50
251.3748222726422
 51
270.0
  0
LINE
  5
334
330
251
100
AcDbEntity
  8
0
100
AcDbLine
 10
54.99999965020172
 20
33.97381305395821
 30
0.0
 11
54.99999965020172
 21
35.97381305395821
 31
0.0
  0
LINE
  5
335
330
251
100
AcDbEntity
  8
0
100
AcDbLine
 10
55.99999965020174
 20
33.97381305395821
 30
0.0
 11
55.99999965020174
 21
35.97381305395821
 31
0.0
  0
LINE
  5
336
330
251
100
AcDbEntity
  8
0
100
AcDbLine
 10
54.99999965020172
 20
26.97381305395822
 30
0.0
 11
54.99999965020172
 21
28.97381305395822
 31
0.0
  0
LINE
  5
337
330
251
100
AcDbEntity
  8
0
100
AcDbLine
 10
55.99999965020174
 20
26.97381305395822
 30
0.0
 11
55.99999965020174
 21
28.97381305395822
 31
0.0
  0
LINE
  5
338
330
251
100
AcDbEntity
  8
0
100
AcDbLine
 10
48.99999965020175
 20
49.99999897552618
 30
0.0
 11
53.49999965020174
 21
49.99999897552618
 31
0.0
  0
ARC
  5
339
330
251
100
AcDbEntity
  8
0
100
AcDbCircle
 10
48.99999965020175
 20
50.47381305395822
 30
0.0
 40
0.5
100
AcDbArc
 50
270.0
 51
288.6251777273576
  0
LINE
  5
33A
330
251
100
AcDbEntity
  8
0
100
AcDbLine
 10
56.99999965020174
 20
49.97381305395823
 30
0.0
 11
54.99999965020172
 21
49.97381305395823
 31
0.0
  0
LINE
  5
33B
330
251
100
AcDbEntity
  8
0
100
AcDbLine
 10
53.49999965020174
 20
49.99999897552618
 30
0.0
 11
53.49999965020174
 21
49.99999897552618
 31
0.0
  0
LINE
  5
33C
330
251
100
AcDbEntity
  8
0
100
AcDbLine
 10
56.99999965020174
 20
47.97381305395822
 30
0.0
 11
54.99999965020172
 21
47.97381305395822
 31
0.0
  0
LINE
  5
33D
330
251
100
AcDbEntity
  8
0
100
AcDbLine
 10
54.99999965020172
 20
47.97381305395822
 30
0.0
 11
54.99999965020172
 21
49.97381305395823
 31
0.0
  0
LINE
  5
33E
330
251
100
AcDbEntity
  8
0
100
AcDbLine
 10
55.99999965020174
 20
47.97381305395822
 30
0.0
 11
55.99999965020174
 21
49.97381305395823
 31
0.0
  0
LINE
  5
33F
330
251
100
AcDbEntity
  8
0
100
AcDbLine
 10
54.99999965020172
 20
40.97381305395821
 30
0.0
 11
54.99999965020172
 21
42.97381305395822
 31
0.0
  0
LINE
  5
340
330
251
100
AcDbEntity
  8
0
100
AcDbLine
 10
55.99999965020174
 20
40.97381305395821
 30
0.0
 11
55.99999965020174
 21
42.97381305395822
 31
0.0
  0
LINE
  5
341
330
251
100
AcDbEntity
  8
0
100
AcDbLine
 10
54.49999965020174
 20
103.9738130539582
 30
0.0
 11
54.49999965020174
 21
98.97381305395823
 31
0.0
  0
LINE
  5
342
330
251
100
AcDbEntity
  8
0
100
AcDbLine
 10
53.44722146404677
 20
101.999998975526
 30
0.0
 11
53.44722146404677
 21
91.99999897552618
 31
0.0
  0
LINE
  5
343
330
251
100
AcDbEntity
  8
0
100
AcDbLine
 10
33.49999965020173
 20
98.97381305395823
 30
0.0
 11
33.49999965020173
 21
103.9738130539582
 31
0.0
  0
LINE
  5
344
330
251
100
AcDbEntity
  8
0
100
AcDbLine
 10
34.55277783635573
 20
101.999998975526
 30
0.0
 11
34.55277783635573
 21
91.99999897552618
 31
0.0
  0
LINE
  5
345
330
251
100
AcDbEntity
  8
0
100
AcDbLine
 10
34.49999965020174
 20
91.99999897552618
 30
0.0
 11
53.49999965020174
 21
91.99999897552618
 31
0.0
  0
LINE
  5
346
330
251
100
AcDbEntity
  8
0
100
AcDbLine
 10
34.49999965020174
 20
89.99999897552617
 30
0.0
 11
53.49999965020174
 21
89.99999897552617
 31
0.0
  0
LINE
  5
347
330
251
100
AcDbEntity
  8
0
100
AcDbLine
 10
53.49999965020174
 20
51.99999897552618
 30
0.0
 11
34.49999965020174
 21
51.99999897552618
 31
0.0
  0
LINE
  5
348
330
251
100
AcDbEntity
  8
0
100
AcDbLine
 10
32.99999965020173
 20
75.97381305395821
 30
0.0
 11
32.99999965020173
 21
77.97381305395821
 31
0.0
  0
LINE
  5
349
330
251
100
AcDbEntity
  8
0
100
AcDbLine
 10
33.49999965020173
 20
70.97381305395821
 30
0.0
 11
33.49999965020173
 21
96.97381305395822
 31
0.0
  0
LINE
  5
34A
330
251
100
AcDbEntity
  8
0
100
AcDbLine
 10
33.49999965020173
 20
56.97381305395822
 30
0.0
 11
33.49999965020173
 21
61.97381305395822
 31
0.0
  0
LINE
  5
34B
330
251
100
AcDbEntity
  8
0
100
AcDbLine
 10
33.49999965020173
 20
63.9738130539582
 30
0.0
 11
33.49999965020173
 21
68.97381305395821
 31
0.0
  0
ARC
  5
34C
330
251
100
AcDbEntity
  8
0
100
AcDbCircle
 10
35.29999965020174
 20
81.9999989755262
 30
0.0
 40
1.05
100
AcDbArc
 50
139.6324064558198
 51
220.36759354418
  0
LINE
  5
34D
330
251
100
AcDbEntity
  8
0
100
AcDbLine
 10
32.99999965020173
 20
82.97381305395822
 30
0.0
 11
32.99999965020173
 21
84.97381305395824
 31
0.0
  0
LINE
  5
34E
330
251
100
AcDbEntity
  8
0
100
AcDbLine
 10
32.99999965020173
 20
89.97381305395823
 30
0.0
 11
32.99999965020173
 21
91.97381305395822
 31
0.0
  0
LINE
  5
34F
330
251
100
AcDbEntity
  8
0
100
AcDbLine
 10
54.99999965020172
 20
75.97381305395821
 30
0.0
 11
54.99999965020172
 21
77.97381305395821
 31
0.0
  0
LINE
  5
350
330
251
100
AcDbEntity
  8
0
100
AcDbLine
 10
55.99999965020174
 20
75.97381305395821
 30
0.0
 11
55.99999965020174
 21
77.97381305395821
 31
0.0
  0
LINE
  5
351
330
251
100
AcDbEntity
  8
0
100
AcDbLine
 10
54.49999965020174
 20
96.97381305395822
 30
0.0
 11
54.49999965020174
 21
70.97381305395821
 31
0.0
  0
LINE
  5
352
330
251
100
AcDbEntity
  8
0
100
AcDbLine
 10
54.99999965020172
 20
61.97381305395822
 30
0.0
 11
54.99999965020172
 21
63.9738130539582
 31
0.0
  0
LINE
  5
353
330
251
100
AcDbEntity
  8
0
100
AcDbLine
 10
55.99999965020174
 20
61.97381305395822
 30
0.0
 11
55.99999965020174
 21
63.9738130539582
 31
0.0
  0
LINE
  5
354
330
251
100
AcDbEntity
  8
0
100
AcDbLine
 10
56.99999965020174
 20
61.97381305395822
 30
0.0
 11
53.49999965020168
 21
61.97381305395822
 31
0.0
  0
LINE
  5
355
330
251
100
AcDbEntity
  8
0
100
AcDbLine
 10
56.99999965020174
 20
56.97381305395822
 30
0.0
 11
53.49999965020168
 21
56.97381305395822
 31
0.0
  0
LINE
  5
356
330
251
100
AcDbEntity
  8
0
100
AcDbLine
 10
56.99999965020174
 20
54.97381305395823
 30
0.0
 11
53.49999965020168
 21
54.97381305395823
 31
0.0
  0
LINE
  5
357
330
251
100
AcDbEntity
  8
0
100
AcDbLine
 10
54.99999965020172
 20
54.97381305395823
 30
0.0
 11
54.99999965020172
 21
56.97381305395822
 31
0.0
  0
LINE
  5
358
330
251
100
AcDbEntity
  8
0
100
AcDbLine
 10
55.99999965020174
 20
54.97381305395823
 30
0.0
 11
55.99999965020174
 21
56.97381305395822
 31
0.0
  0
LINE
  5
359
330
251
100
AcDbEntity
  8
0
100
AcDbLine
 10
54.49999965020174
 20
61.97381305395822
 30
0.0
 11
54.49999965020174
 21
56.97381305395822
 31
0.0
  0
LINE
  5
35A
330
251
100
AcDbEntity
  8
0
100
AcDbLine
 10
56.99999965020174
 20
75.97381305395821
 30
0.0
 11
54.99999965020172
 21
75.97381305395821
 31
0.0
  0
LINE
  5
35B
330
251
100
AcDbEntity
  8
0
100
AcDbLine
 10
56.99999965020174
 20
70.97381305395821
 30
0.0
 11
53.49999965020168
 21
70.97381305395821
 31
0.0
  0
LINE
  5
35C
330
251
100
AcDbEntity
  8
0
100
AcDbLine
 10
56.99999965020174
 20
68.97381305395821
 30
0.0
 11
53.49999965020168
 21
68.97381305395821
 31
0.0
  0
LINE
  5
35D
330
251
100
AcDbEntity
  8
0
100
AcDbLine
 10
56.99999965020174
 20
63.9738130539582
 30
0.0
 11
53.49999965020168
 21
63.9738130539582
 31
0.0
  0
LINE
  5
35E
330
251
100
AcDbEntity
  8
0
100
AcDbLine
 10
54.49999965020174
 20
68.97381305395821
 30
0.0
 11
54.49999965020174
 21
63.9738130539582
 31
0.0
  0
LINE
  5
35F
330
251
100
AcDbEntity
  8
0
100
AcDbLine
 10
54.99999965020172
 20
68.97381305395821
 30
0.0
 11
54.99999965020172
 21
70.97381305395821
 31
0.0
  0
LINE
  5
360
330
251
100
AcDbEntity
  8
0
100
AcDbLine
 10
55.99999965020174
 20
68.97381305395821
 30
0.0
 11
55.99999965020174
 21
70.97381305395821
 31
0.0
  0
LINE
  5
361
330
251
100
AcDbEntity
  8
0
100
AcDbLine
 10
53.49999965020174
 20
86.97381305395822
 30
0.0
 11
53.49999965020174
 21
91.97381305395822
 31
0.0
  0
LINE
  5
362
330
251
100
AcDbEntity
  8
0
100
AcDbLine
 10
56.99999965020174
 20
84.97381305395824
 30
0.0
 11
54.99999965020172
 21
84.97381305395824
 31
0.0
  0
LINE
  5
363
330
251
100
AcDbEntity
  8
0
100
AcDbLine
 10
56.99999965020174
 20
82.97381305395822
 30
0.0
 11
54.99999965020172
 21
82.97381305395822
 31
0.0
  0
LINE
  5
364
330
251
100
AcDbEntity
  8
0
100
AcDbLine
 10
56.99999965020174
 20
77.97381305395821
 30
0.0
 11
54.99999965020172
 21
77.97381305395821
 31
0.0
  0
LINE
  5
365
330
251
100
AcDbEntity
  8
0
100
AcDbLine
 10
54.99999965020172
 20
82.97381305395822
 30
0.0
 11
54.99999965020172
 21
84.97381305395824
 31
0.0
  0
LINE
  5
366
330
251
100
AcDbEntity
  8
0
100
AcDbLine
 10
55.99999965020174
 20
82.97381305395822
 30
0.0
 11
55.99999965020174
 21
84.97381305395824
 31
0.0
  0
LINE
  5
367
330
251
100
AcDbEntity
  8
0
100
AcDbLine
 10
54.99999965020172
 20
96.97381305395822
 30
0.0
 11
54.99999965020172
 21
98.97381305395823
 31
0.0
  0
LINE
  5
368
330
251
100
AcDbEntity
  8
0
100
AcDbLine
 10
55.99999965020174
 20
96.97381305395822
 30
0.0
 11
55.99999965020174
 21
98.97381305395823
 31
0.0
  0
LINE
  5
369
330
251
100
AcDbEntity
  8
0
100
AcDbLine
 10
56.99999965020174
 20
98.97381305395823
 30
0.0
 11
53.44722146404677
 21
98.97381305395823
 31
0.0
  0
LINE
  5
36A
330
251
100
AcDbEntity
  8
0
100
AcDbLine
 10
56.99999965020174
 20
96.97381305395822
 30
0.0
 11
53.44722146404677
 21
96.97381305395822
 31
0.0
  0
LINE
  5
36B
330
251
100
AcDbEntity
  8
0
100
AcDbLine
 10
56.99999965020174
 20
91.97381305395822
 30
0.0
 11
54.99999965020172
 21
91.97381305395822
 31
0.0
  0
LINE
  5
36C
330
251
100
AcDbEntity
  8
0
100
AcDbLine
 10
56.99999965020174
 20
89.97381305395823
 30
0.0
 11
54.99999965020172
 21
89.97381305395823
 31
0.0
  0
LINE
  5
36D
330
251
100
AcDbEntity
  8
0
100
AcDbLine
 10
54.99999965020172
 20
89.97381305395823
 30
0.0
 11
54.99999965020172
 21
91.97381305395822
 31
0.0
  0
LINE
  5
36E
330
251
100
AcDbEntity
  8
0
100
AcDbLine
 10
55.99999965020174
 20
89.97381305395823
 30
0.0
 11
55.99999965020174
 21
91.97381305395822
 31
0.0
  0
ARC
  5
36F
330
251
100
AcDbEntity
  8
0
100
AcDbCircle
 10
52.99999965020173
 20
91.97381305395822
 30
0.0
 40
0.5
100
AcDbArc
 50
0.0
 51
26.56294527600439
  0
LINE
  5
370
330
251
100
AcDbEntity
  8
0
100
AcDbLine
 10
46.59999965020078
 20
135.6738130539582
 30
0.0
 11
42.59999965020079
 21
135.6738130539582
 31
0.0
  0
LINE
  5
371
330
251
100
AcDbEntity
  8
0
100
AcDbLine
 10
42.59999965020079
 20
135.6738130539582
 30
0.0
 11
46.59999965020078
 21
135.6738130539582
 31
0.0
  0
LINE
  5
372
330
251
100
AcDbEntity
  8
0
100
AcDbLine
 10
41.14999965020177
 20
124.3738130539582
 30
0.0
 11
47.44999965020179
 21
124.3738130539582
 31
0.0
  0
LINE
  5
373
330
251
100
AcDbEntity
  8
0
100
AcDbLine
 10
34.55277783635573
 20
101.999998975526
 30
0.0
 11
53.44722146404677
 21
101.999998975526
 31
0.0
  0
LINE
  5
374
330
251
100
AcDbEntity
  8
0
100
AcDbLine
 10
40.34999965020079
 20
120.9738130539582
 30
0.0
 11
40.34999965020079
 21
130.1738130539582
 31
0.0
  0
LINE
  5
375
330
251
100
AcDbEntity
  8
0
100
AcDbLine
 10
40.34999965020079
 20
120.9738130539582
 30
0.0
 11
40.34999965020086
 21
130.1738130539582
 31
0.0
  0
LINE
  5
376
330
251
100
AcDbEntity
  8
0
100
AcDbLine
 10
21.0999996502008
 20
126.2738130539582
 30
0.0
 11
21.0999996502008
 21
121.9738130539582
 31
0.0
  0
LINE
  5
377
330
251
100
AcDbEntity
  8
0
100
AcDbLine
 10
24.94499965020082
 20
127.5738130539582
 30
0.0
 11
24.94499965020082
 21
120.9738130539582
 31
0.0
  0
LINE
  5
378
330
251
100
AcDbEntity
  8
0
100
AcDbLine
 10
42.59999965020079
 20
135.6738130539582
 30
0.0
 11
42.59999965020079
 21
124.3738130539582
 31
0.0
  0
LINE
  5
379
330
251
100
AcDbEntity
  8
0
100
AcDbLine
 10
23.19999965020173
 20
113.4738130539582
 30
0.0
 11
23.19999965020173
 21
115.4738130539582
 31
0.0
  0
LINE
  5
37A
330
251
100
AcDbEntity
  8
0
100
AcDbLine
 10
19.99999965020172
 20
113.4738130539582
 30
0.0
 11
19.99999965020172
 21
117.4738130539582
 31
0.0
  0
LINE
  5
37B
330
251
100
AcDbEntity
  8
0
100
AcDbLine
 10
28.19999965020173
 20
105.4738130539582
 30
0.0
 11
28.19999965020173
 21
117.4738130539582
 31
0.0
  0
LINE
  5
37C
330
251
100
AcDbEntity
  8
0
100
AcDbLine
 10
25.19999965020173
 20
107.4738130539582
 30
0.0
 11
25.19999965020173
 21
115.4738130539582
 31
0.0
  0
LINE
  5
37D
330
251
100
AcDbEntity
  8
0
100
AcDbLine
 10
28.19999965020173
 20
105.4738130539582
 30
0.0
 11
19.99999965020172
 21
105.4738130539582
 31
0.0
  0
LINE
  5
37E
330
251
100
AcDbEntity
  8
0
100
AcDbLine
 10
19.99999965020172
 20
113.4738130539582
 30
0.0
 11
23.19999965020173
 21
113.4738130539582
 31
0.0
  0
LINE
  5
37F
330
251
100
AcDbEntity
  8
0
100
AcDbLine
 10
19.99999965020172
 20
109.4738130539582
 30
0.0
 11
23.19999965020173
 21
109.4738130539582
 31
0.0
  0
LINE
  5
380
330
251
100
AcDbEntity
  8
0
100
AcDbLine
 10
23.19999965020173
 20
107.4738130539582
 30
0.0
 11
25.19999965020173
 21
107.4738130539582
 31
0.0
  0
LINE
  5
381
330
251
100
AcDbEntity
  8
0
100
AcDbLine
 10
23.19999965020173
 20
109.4738130539582
 30
0.0
 11
23.19999965020173
 21
107.4738130539582
 31
0.0
  0
LINE
  5
382
330
251
100
AcDbEntity
  8
0
100
AcDbLine
 10
19.99999965020172
 20
109.4738130539582
 30
0.0
 11
19.99999965020172
 21
105.4738130539582
 31
0.0
  0
LINE
  5
383
330
251
100
AcDbEntity
  8
0
100
AcDbLine
 10
19.99999965020172
 20
117.4738130539582
 30
0.0
 11
28.19999965020173
 21
117.4738130539582
 31
0.0
  0
LINE
  5
384
330
251
100
AcDbEntity
  8
0
100
AcDbLine
 10
22.69999965020081
 20
121.9738130539582
 30
0.0
 11
22.69999965020081
 21
120.9738130539582
 31
0.0
  0
LINE
  5
385
330
251
100
AcDbEntity
  8
0
100
AcDbLine
 10
23.19999965020173
 20
115.4738130539582
 30
0.0
 11
25.19999965020173
 21
115.4738130539582
 31
0.0
  0
LINE
  5
386
330
251
100
AcDbEntity
  8
0
100
AcDbLine
 10
41.14999965020177
 20
120.9738130539582
 30
0.0
 11
41.14999965020177
 21
124.3738130539582
 31
0.0
  0
LINE
  5
387
330
251
100
AcDbEntity
  8
0
100
AcDbLine
 10
40.34999965020079
 20
130.1738130539582
 30
0.0
 11
42.59999965020079
 21
130.1738130539582
 31
0.0
  0
LINE
  5
388
330
251
100
AcDbEntity
  8
0
100
AcDbLine
 10
48.84999965020075
 20
130.1738130539582
 30
0.0
 11
48.84999965020078
 21
120.9738130539582
 31
0.0
  0
LINE
  5
389
330
251
100
AcDbEntity
  8
0
100
AcDbLine
 10
46.59999965020078
 20
124.3738130539582
 30
0.0
 11
46.59999965020078
 21
135.6738130539582
 31
0.0
  0
LINE
  5
38A
330
251
100
AcDbEntity
  8
0
100
AcDbLine
 10
51.49999965020175
 20
101.999998975526
 30
0.0
 11
49.99999965020172
 21
101.999998975526
 31
0.0
  0
LINE
  5
38B
330
251
100
AcDbEntity
  8
0
100
AcDbLine
 10
47.44999965020179
 20
124.3738130539582
 30
0.0
 11
47.44999965020179
 21
120.9738130539582
 31
0.0
  0
LINE
  5
38C
330
251
100
AcDbEntity
  8
0
100
AcDbLine
 10
46.59999965020072
 20
130.1738130539582
 30
0.0
 11
48.84999965020078
 21
130.1738130539582
 31
0.0
  0
ENDBLK
  5
38E
330
251
100
AcDbEntity
  8
0
100
AcDbBlockEnd
  0
BLOCK
  5
480
330
38F
100
AcDbEntity
  8
0
100
AcDbBlockBegin
  2
A$C6BA86731
 70
     0
 10
0.0
 20
0.0
 30
0.0
  3
A$C6BA86731
  1

  0
LINE
  5
390
330
38F
100
AcDbEntity
  8
0
100
AcDbLine
 10
85.70000127271965
 20
187.4999990514379
 30
0.0
 11
87.70000127271963
 21
187.4999990514379
 31
0.0
  0
LINE
  5
391
330
38F
100
AcDbEntity
  8
0
100
AcDbLine
 10
85.70000127271965
 20
161.9999990514379
 30
0.0
 11
87.70000127271963
 21
161.9999990514379
 31
0.0
  0
LINE
  5
392
330
38F
100
AcDbEntity
  8
0
100
AcDbLine
 10
85.70000127271965
 20
164.9999990514379
 30
0.0
 11
87.70000127271963
 21
164.9999990514379
 31
0.0
  0
LINE
  5
393
330
38F
100
AcDbEntity
  8
0
100
AcDbLine
 10
85.70000127271965
 20
136.2499990514379
 30
0.0
 11
87.70000127271963
 21
136.2499990514379
 31
0.0
  0
LINE
  5
394
330
38F
100
AcDbEntity
  8
0
100
AcDbLine
 10
85.70000127271965
 20
70.7499990514379
 30
0.0
 11
87.70000127271963
 21
70.7499990514379
 31
0.0
  0
LINE
  5
395
330
38F
100
AcDbEntity
  8
0
100
AcDbLine
 10
85.70000127271965
 20
44.9999990514379
 30
0.0
 11
87.70000127271963
 21
44.9999990514379
 31
0.0
  0
LINE
  5
396
330
38F
100
AcDbEntity
  8
0
100
AcDbLine
 10
85.70000127271965
 20
41.9999990514379
 30
0.0
 11
87.70000127271963
 21
41.9999990514379
 31
0.0
  0
LINE
  5
397
330
38F
100
AcDbEntity
  8
0
100
AcDbLine
 10
85.70000127271965
 20
19.49999905143789
 30
0.0
 11
87.70000127271963
 21
19.49999905143789
 31
0.0
  0
LINE
  5
398
330
38F
100
AcDbEntity
  8
0
100
AcDbLine
 10
31.70000127271964
 20
17.49999905143789
 30
0.0
 11
113.7000012727195
 21
17.49999905143789
 31
0.0
  0
LINE
  5
399
330
38F
100
AcDbEntity
  8
0
100
AcDbLine
 10
31.70000127271964
 20
189.4999990514379
 30
0.0
 11
113.7000012727195
 21
189.4999990514379
 31
0.0
  0
LINE
  5
39A
330
38F
100
AcDbEntity
  8
0
100
AcDbLine
 10
14.7000012727196
 20
190.4999990514379
 30
0.0
 11
132.0878551158875
 21
190.4999990514379
 31
0.0
  0
LINE
  5
39B
330
38F
100
AcDbEntity
  8
0
100
AcDbLine
 10
14.7000012727196
 20
16.49999905143789
 30
0.0
 11
130.7000012727185
 21
16.49999905143789
 31
0.0
  0
LINE
  5
39C
330
38F
100
AcDbEntity
  8
0
100
AcDbLine
 10
14.7000012727196
 20
190.4999990514379
 30
0.0
 11
130.7000012727185
 21
190.4999990514379
 31
0.0
  0
LINE
  5
39D
330
38F
100
AcDbEntity
  8
0
100
AcDbLine
 10
14.70000127271958
 20
16.49999905143789
 30
0.0
 11
132.0878551158875
 21
16.49999905143789
 31
0.0
  0
LINE
  5
39E
330
38F
100
AcDbEntity
  8
0
100
AcDbLine
 10
13.19009712833755
 20
141.8059674969203
 30
0.0
 11
13.19009712833755
 21
113.0440320733363
 31
0.0
  0
LINE
  5
39F
330
38F
100
AcDbEntity
  8
0
100
AcDbLine
 10
8.100001272719621
 20
136.6599990514379
 30
0.0
 11
8.100001272719621
 21
112.4999990514379
 31
0.0
  0
LINE
  5
3A0
330
38F
100
AcDbEntity
  8
0
100
AcDbLine
 10
31.70000127271964
 20
16.49999905143789
 30
0.0
 11
31.70000127271964
 21
190.4999990514379
 31
0.0
  0
LINE
  5
3A1
330
38F
100
AcDbEntity
  8
0
100
AcDbLine
 10
14.7000012727196
 20
16.49999905143789
 30
0.0
 11
14.7000012727196
 21
190.4999990514379
 31
0.0
  0
LINE
  5
3A2
330
38F
100
AcDbEntity
  8
0
100
AcDbLine
 10
14.7000012727196
 20
16.49999905143789
 30
0.0
 11
14.7000012727196
 21
190.4999990514379
 31
0.0
  0
LINE
  5
3A3
330
38F
100
AcDbEntity
  8
0
100
AcDbLine
 10
33.70000127271964
 20
8.499999051437896
 30
0.0
 11
43.70000127271963
 21
8.499999051437896
 31
0.0
  0
LINE
  5
3A4
330
38F
100
AcDbEntity
  8
0
100
AcDbLine
 10
31.70000127271964
 20
16.99999905143789
 30
0.0
 11
86.70000127271965
 21
16.99999905143789
 31
0.0
  0
LINE
  5
3A5
330
38F
100
AcDbEntity
  8
0
100
AcDbLine
 10
33.70000127271964
 20
-0.0000009485621035
 30
0.0
 11
85.70000127271862
 21
-0.0000009485621035
 31
0.0
  0
LINE
  5
3A6
330
38F
100
AcDbEntity
  8
0
100
AcDbLine
 10
11.30000127271975
 20
57.19999978512824
 30
0.0
 11
11.30000127271975
 21
36.99999978512818
 31
0.0
  0
LINE
  5
3A7
330
38F
100
AcDbEntity
  8
0
100
AcDbLine
 10
14.7000012727196
 20
36.99999978512812
 30
0.0
 11
11.30000127271975
 21
36.99999978512818
 31
0.0
  0
LINE
  5
3A8
330
38F
100
AcDbEntity
  8
0
100
AcDbLine
 10
33.70000127271964
 20
-0.0000009485621035
 30
0.0
 11
33.70000127271964
 21
8.499999051437896
 31
0.0
  0
LINE
  5
3A9
330
38F
100
AcDbEntity
  8
0
100
AcDbLine
 10
12.20000127271956
 20
21.49999978512818
 30
0.0
 11
12.20000127271956
 21
26.99999978512817
 31
0.0
  0
LINE
  5
3AA
330
38F
100
AcDbEntity
  8
0
100
AcDbLine
 10
14.7000012727196
 20
21.49999978512818
 30
0.0
 11
12.20000127271956
 21
21.49999978512818
 31
0.0
  0
LINE
  5
3AB
330
38F
100
AcDbEntity
  8
0
100
AcDbLine
 10
14.7000012727196
 20
35.89999978512821
 30
0.0
 11
12.70000127271973
 21
35.89999978512815
 31
0.0
  0
LINE
  5
3AC
330
38F
100
AcDbEntity
  8
0
100
AcDbLine
 10
13.70000127271961
 20
36.99999978512818
 30
0.0
 11
13.70000127271961
 21
35.89999978512821
 31
0.0
  0
LINE
  5
3AD
330
38F
100
AcDbEntity
  8
0
100
AcDbLine
 10
14.7000012727196
 20
34.69999978512822
 30
0.0
 11
13.0000012727199
 21
34.69999978512822
 31
0.0
  0
LINE
  5
3AE
330
38F
100
AcDbEntity
  8
0
100
AcDbLine
 10
13.0000012727198
 20
33.49999978512818
 30
0.0
 11
12.2000012727196
 21
33.49999978512818
 31
0.0
  0
LINE
  5
3AF
330
38F
100
AcDbEntity
  8
0
100
AcDbLine
 10
12.2000012727196
 20
33.49999978512818
 30
0.0
 11
11.7000012727196
 21
33.99999978512818
 31
0.0
  0
LINE
  5
3B0
330
38F
100
AcDbEntity
  8
0
100
AcDbLine
 10
12.20000127271956
 20
26.99999978512817
 30
0.0
 11
14.7000012727196
 21
26.99999978512817
 31
0.0
  0
LINE
  5
3B1
330
38F
100
AcDbEntity
  8
0
100
AcDbLine
 10
13.0000012727198
 20
33.49999978512818
 30
0.0
 11
13.0000012727198
 21
34.69999978512822
 31
0.0
  0
LINE
  5
3B2
330
38F
100
AcDbEntity
  8
0
100
AcDbLine
 10
11.70000127271973
 20
34.89999978512825
 30
0.0
 11
11.7000012727196
 21
33.99999978512818
 31
0.0
  0
LINE
  5
3B3
330
38F
100
AcDbEntity
  8
0
100
AcDbLine
 10
13.70000127271959
 20
34.69999978512822
 30
0.0
 11
13.70000127271964
 21
26.99999978512817
 31
0.0
  0
ARC
  5
3B4
330
38F
100
AcDbEntity
  8
0
100
AcDbCircle
 10
12.70000127271973
 20
34.89999978512816
 30
0.0
 40
1.0
100
AcDbArc
 50
90.0
 51
180.0
  0
LINE
  5
3B5
330
38F
100
AcDbEntity
  8
0
100
AcDbLine
 10
8.100001272719621
 20
112.4999990514379
 30
0.0
 11
11.57499909457661
 21
112.4999990514377
 31
0.0
  0
LINE
  5
3B6
330
38F
100
AcDbEntity
  8
0
100
AcDbLine
 10
9.200001272720072
 20
111.6999997851282
 30
0.0
 11
13.19009712833755
 21
113.0440320733363
 31
0.0
  0
LINE
  5
3B7
330
38F
100
AcDbEntity
  8
0
100
AcDbLine
 10
9.200001272720072
 20
108.7999997851282
 30
0.0
 11
14.7000012727196
 21
106.947368206181
 31
0.0
  0
LINE
  5
3B8
330
38F
100
AcDbEntity
  8
0
100
AcDbLine
 10
13.90000127271989
 20
99.79999905143795
 30
0.0
 11
9.400001272719633
 21
99.79999905143795
 31
0.0
  0
LINE
  5
3B9
330
38F
100
AcDbEntity
  8
0
100
AcDbLine
 10
9.400001272719633
 20
95.68999905143796
 30
0.0
 11
14.70000127271964
 21
95.68999905143796
 31
0.0
  0
LINE
  5
3BA
330
38F
100
AcDbEntity
  8
0
100
AcDbLine
 10
9.400001272719633
 20
90.68999905143796
 30
0.0
 11
14.70000127271964
 21
90.68999905143789
 31
0.0
  0
LINE
  5
3BB
330
38F
100
AcDbEntity
  8
0
100
AcDbLine
 10
9.400001272719633
 20
88.06999905143795
 30
0.0
 11
14.70000127271964
 21
88.06999905143788
 31
0.0
  0
LINE
  5
3BC
330
38F
100
AcDbEntity
  8
0
100
AcDbLine
 10
9.400001272719633
 20
83.06999905143795
 30
0.0
 11
14.70000127271964
 21
83.06999905143795
 31
0.0
  0
LINE
  5
3BD
330
38F
100
AcDbEntity
  8
0
100
AcDbLine
 10
9.400001272719633
 20
80.44999905143795
 30
0.0
 11
13.90000127271989
 21
80.44999905143795
 31
0.0
  0
LINE
  5
3BE
330
38F
100
AcDbEntity
  8
0
100
AcDbLine
 10
9.400001272719633
 20
75.44999905143794
 30
0.0
 11
13.70000127271953
 21
75.44999905143794
 31
0.0
  0
LINE
  5
3BF
330
38F
100
AcDbEntity
  8
0
100
AcDbLine
 10
13.70000127271959
 20
71.33999905143794
 30
0.0
 11
9.400001272719633
 21
71.33999905143794
 31
0.0
  0
LINE
  5
3C0
330
38F
100
AcDbEntity
  8
0
100
AcDbLine
 10
11.30000127271975
 20
57.19999978512824
 30
0.0
 11
14.7000012727196
 21
57.19999978512817
 31
0.0
  0
LINE
  5
3C1
330
38F
100
AcDbEntity
  8
0
100
AcDbLine
 10
9.400001272719633
 20
71.33999905143794
 30
0.0
 11
9.400001272719633
 21
99.79999905143795
 31
0.0
  0
LINE
  5
3C2
330
38F
100
AcDbEntity
  8
0
100
AcDbLine
 10
9.200001272720072
 20
111.6999997851282
 30
0.0
 11
4.8302557434682
 21
111.6999997851282
 31
0.0
  0
LINE
  5
3C3
330
38F
100
AcDbEntity
  8
0
100
AcDbLine
 10
0.0000012727201408
 20
108.7999997851282
 30
0.0
 11
9.200001272720072
 21
108.7999997851282
 31
0.0
  0
LINE
  5
3C4
330
38F
100
AcDbEntity
  8
0
100
AcDbLine
 10
4.8302557434682
 20
113.7399881340019
 30
0.0
 11
3.702477265358623
 21
113.7399881340019
 31
0.0
  0
LINE
  5
3C5
330
38F
100
AcDbEntity
  8
0
100
AcDbLine
 10
4.8302557434682
 20
111.6999997851282
 30
0.0
 11
4.8302557434682
 21
113.7399881340019
 31
0.0
  0
LINE
  5
3C6
330
38F
100
AcDbEntity
  8
0
100
AcDbLine
 10
0.0000012727201408
 20
108.7999997851282
 30
0.0
 11
3.702477265358623
 21
113.7399881340019
 31
0.0
  0
LINE
  5
3C7
330
38F
100
AcDbEntity
  8
0
100
AcDbLine
 10
9.200001272720072
 20
108.7999997851282
 30
0.0
 11
9.200001272720072
 21
111.6999997851282
 31
0.0
  0
LINE
  5
3C8
330
38F
100
AcDbEntity
  8
0
100
AcDbLine
 10
14.70000127271964
 20
62.139999051438
 30
0.0
 11
13.70000127271961
 21
62.139999051438
 31
0.0
  0
LINE
  5
3C9
330
38F
100
AcDbEntity
  8
0
100
AcDbLine
 10
13.0000012727198
 20
59.49999978512818
 30
0.0
 11
13.0000012727198
 21
60.69999978512822
 31
0.0
  0
LINE
  5
3CA
330
38F
100
AcDbEntity
  8
0
100
AcDbLine
 10
14.7000012727196
 20
59.49999978512829
 30
0.0
 11
13.00000127271967
 21
59.49999978512829
 31
0.0
  0
LINE
  5
3CB
330
38F
100
AcDbEntity
  8
0
100
AcDbLine
 10
13.0000012727198
 20
60.69999978512822
 30
0.0
 11
12.20000127271984
 21
60.69999978512822
 31
0.0
  0
LINE
  5
3CC
330
38F
100
AcDbEntity
  8
0
100
AcDbLine
 10
11.70000127271984
 20
60.19999978512823
 30
0.0
 11
11.70000127271984
 21
59.29999978512814
 31
0.0
  0
LINE
  5
3CD
330
38F
100
AcDbEntity
  8
0
100
AcDbLine
 10
12.20000127271984
 20
60.69999978512822
 30
0.0
 11
11.70000127271984
 21
60.19999978512823
 31
0.0
  0
LINE
  5
3CE
330
38F
100
AcDbEntity
  8
0
100
AcDbLine
 10
13.70000127271961
 20
62.139999051438
 30
0.0
 11
13.70000127271961
 21
59.49999978512835
 31
0.0
  0
LINE
  5
3CF
330
38F
100
AcDbEntity
  8
0
100
AcDbLine
 10
13.70000127271961
 20
58.29999978512825
 30
0.0
 11
13.70000127271961
 21
57.19999978512817
 31
0.0
  0
LINE
  5
3D0
330
38F
100
AcDbEntity
  8
0
100
AcDbLine
 10
14.7000012727196
 20
58.29999978512825
 30
0.0
 11
12.70000127271984
 21
58.29999978512825
 31
0.0
  0
ARC
  5
3D1
330
38F
100
AcDbEntity
  8
0
100
AcDbCircle
 10
12.70000127271984
 20
59.29999978512825
 30
0.0
 40
1.0
100
AcDbArc
 50
180.0
 51
270.0
  0
LINE
  5
3D2
330
38F
100
AcDbEntity
  8
0
100
AcDbLine
 10
13.90000127271989
 20
81.59999978512832
 30
0.0
 11
14.7000012727196
 21
81.59999978512832
 31
0.0
  0
LINE
  5
3D3
330
38F
100
AcDbEntity
  8
0
100
AcDbLine
 10
13.90000127271989
 20
78.59999978512831
 30
0.0
 11
13.90000127271989
 21
81.59999978512832
 31
0.0
  0
LINE
  5
3D4
330
38F
100
AcDbEntity
  8
0
100
AcDbLine
 10
14.7000012727196
 20
78.59999978512831
 30
0.0
 11
13.90000127271989
 21
78.59999978512831
 31
0.0
  0
LINE
  5
3D5
330
38F
100
AcDbEntity
  8
0
100
AcDbLine
 10
13.7000012727195
 20
77.09999978512832
 30
0.0
 11
14.7000012727196
 21
77.09999978512832
 31
0.0
  0
LINE
  5
3D6
330
38F
100
AcDbEntity
  8
0
100
AcDbLine
 10
14.7000012727196
 20
68.69999978512822
 30
0.0
 11
13.70000127271961
 21
68.69999978512822
 31
0.0
  0
LINE
  5
3D7
330
38F
100
AcDbEntity
  8
0
100
AcDbLine
 10
13.70000127271961
 20
68.69999978512822
 30
0.0
 11
13.7000012727195
 21
77.09999978512832
 31
0.0
  0
LINE
  5
3D8
330
38F
100
AcDbEntity
  8
0
100
AcDbLine
 10
13.90000127271989
 20
98.59999978512831
 30
0.0
 11
13.90000127271989
 21
101.5999997851282
 31
0.0
  0
LINE
  5
3D9
330
38F
100
AcDbEntity
  8
0
100
AcDbLine
 10
14.7000012727196
 20
98.59999978512831
 30
0.0
 11
13.90000127271989
 21
98.59999978512831
 31
0.0
  0
LINE
  5
3DA
330
38F
100
AcDbEntity
  8
0
100
AcDbLine
 10
13.90000127271989
 20
101.5999997851282
 30
0.0
 11
14.7000012727196
 21
101.5999997851282
 31
0.0
  0
LINE
  5
3DB
330
38F
100
AcDbEntity
  8
0
100
AcDbLine
 10
85.70000127271965
 20
17.49999905143789
 30
0.0
 11
85.70000127271965
 21
70.7499990514379
 31
0.0
  0
LINE
  5
3DC
330
38F
100
AcDbEntity
  8
0
100
AcDbLine
 10
80.70000127271965
 20
17.49999905143789
 30
0.0
 11
80.70000127271965
 21
70.7499990514379
 31
0.0
  0
LINE
  5
3DD
330
38F
100
AcDbEntity
  8
0
100
AcDbLine
 10
78.70000127271964
 20
17.49999905143789
 30
0.0
 11
78.70000127271964
 21
70.7499990514379
 31
0.0
  0
LINE
  5
3DE
330
38F
100
AcDbEntity
  8
0
100
AcDbLine
 10
73.70000127271964
 20
17.49999905143789
 30
0.0
 11
73.70000127271964
 21
70.7499990514379
 31
0.0
  0
LINE
  5
3DF
330
38F
100
AcDbEntity
  8
0
100
AcDbLine
 10
71.70000127271966
 20
17.49999905143789
 30
0.0
 11
71.70000127271966
 21
70.7499990514379
 31
0.0
  0
LINE
  5
3E0
330
38F
100
AcDbEntity
  8
0
100
AcDbLine
 10
66.70000127271965
 20
17.49999905143789
 30
0.0
 11
66.70000127271965
 21
70.7499990514379
 31
0.0
  0
LINE
  5
3E1
330
38F
100
AcDbEntity
  8
0
100
AcDbLine
 10
64.70000127271965
 20
17.49999905143789
 30
0.0
 11
64.70000127271965
 21
70.7499990514379
 31
0.0
  0
LINE
  5
3E2
330
38F
100
AcDbEntity
  8
0
100
AcDbLine
 10
59.70000127271966
 20
17.49999905143789
 30
0.0
 11
59.70000127271966
 21
70.7499990514379
 31
0.0
  0
LINE
  5
3E3
330
38F
100
AcDbEntity
  8
0
100
AcDbLine
 10
57.70000127271964
 20
17.49999905143789
 30
0.0
 11
57.70000127271964
 21
70.7499990514379
 31
0.0
  0
LINE
  5
3E4
330
38F
100
AcDbEntity
  8
0
100
AcDbLine
 10
52.70000127271964
 20
17.49999905143789
 30
0.0
 11
52.70000127271964
 21
70.7499990514379
 31
0.0
  0
LINE
  5
3E5
330
38F
100
AcDbEntity
  8
0
100
AcDbLine
 10
50.70000127271963
 20
17.49999905143789
 30
0.0
 11
50.70000127271963
 21
70.7499990514379
 31
0.0
  0
LINE
  5
3E6
330
38F
100
AcDbEntity
  8
0
100
AcDbLine
 10
45.70000127271963
 20
17.49999905143789
 30
0.0
 11
45.70000127271963
 21
70.7499990514379
 31
0.0
  0
LINE
  5
3E7
330
38F
100
AcDbEntity
  8
0
100
AcDbLine
 10
43.70000127271963
 20
17.49999905143789
 30
0.0
 11
43.70000127271963
 21
70.7499990514379
 31
0.0
  0
LINE
  5
3E8
330
38F
100
AcDbEntity
  8
0
100
AcDbLine
 10
38.70000127271964
 20
17.49999905143789
 30
0.0
 11
38.70000127271964
 21
70.7499990514379
 31
0.0
  0
LINE
  5
3E9
330
38F
100
AcDbEntity
  8
0
100
AcDbLine
 10
36.70000127271964
 20
17.49999905143789
 30
0.0
 11
36.70000127271964
 21
70.7499990514379
 31
0.0
  0
LINE
  5
3EA
330
38F
100
AcDbEntity
  8
0
100
AcDbLine
 10
45.70000127271963
 20
9.499999051437896
 30
0.0
 11
45.70000127271963
 21
-0.0000009485621035
 31
0.0
  0
LINE
  5
3EB
330
38F
100
AcDbEntity
  8
0
100
AcDbLine
 10
43.70000127271963
 20
-0.0000009485621035
 30
0.0
 11
43.70000127271963
 21
16.49999905143789
 31
0.0
  0
LINE
  5
3EC
330
38F
100
AcDbEntity
  8
0
100
AcDbLine
 10
36.70000127271964
 20
19.49999905143789
 30
0.0
 11
38.70000127271964
 21
19.49999905143789
 31
0.0
  0
LINE
  5
3ED
330
38F
100
AcDbEntity
  8
0
100
AcDbLine
 10
43.70000127271963
 20
19.49999905143789
 30
0.0
 11
45.70000127271963
 21
19.49999905143789
 31
0.0
  0
LINE
  5
3EE
330
38F
100
AcDbEntity
  8
0
100
AcDbLine
 10
36.70000127271964
 20
41.9999990514379
 30
0.0
 11
38.70000127271964
 21
41.9999990514379
 31
0.0
  0
LINE
  5
3EF
330
38F
100
AcDbEntity
  8
0
100
AcDbLine
 10
36.70000127271964
 20
44.9999990514379
 30
0.0
 11
38.70000127271964
 21
44.9999990514379
 31
0.0
  0
LINE
  5
3F0
330
38F
100
AcDbEntity
  8
0
100
AcDbLine
 10
43.70000127271963
 20
44.9999990514379
 30
0.0
 11
45.70000127271963
 21
44.9999990514379
 31
0.0
  0
LINE
  5
3F1
330
38F
100
AcDbEntity
  8
0
100
AcDbLine
 10
43.70000127271963
 20
41.9999990514379
 30
0.0
 11
45.70000127271963
 21
41.9999990514379
 31
0.0
  0
LINE
  5
3F2
330
38F
100
AcDbEntity
  8
0
100
AcDbLine
 10
50.70000127271963
 20
19.49999905143789
 30
0.0
 11
52.70000127271964
 21
19.49999905143789
 31
0.0
  0
LINE
  5
3F3
330
38F
100
AcDbEntity
  8
0
100
AcDbLine
 10
57.70000127271964
 20
19.49999905143789
 30
0.0
 11
59.70000127271966
 21
19.49999905143789
 31
0.0
  0
LINE
  5
3F4
330
38F
100
AcDbEntity
  8
0
100
AcDbLine
 10
50.70000127271963
 20
44.9999990514379
 30
0.0
 11
52.70000127271964
 21
44.9999990514379
 31
0.0
  0
LINE
  5
3F5
330
38F
100
AcDbEntity
  8
0
100
AcDbLine
 10
50.70000127271963
 20
41.9999990514379
 30
0.0
 11
52.70000127271964
 21
41.9999990514379
 31
0.0
  0
LINE
  5
3F6
330
38F
100
AcDbEntity
  8
0
100
AcDbLine
 10
57.70000127271964
 20
44.9999990514379
 30
0.0
 11
59.70000127271966
 21
44.9999990514379
 31
0.0
  0
LINE
  5
3F7
330
38F
100
AcDbEntity
  8
0
100
AcDbLine
 10
57.70000127271964
 20
41.9999990514379
 30
0.0
 11
59.70000127271966
 21
41.9999990514379
 31
0.0
  0
LINE
  5
3F8
330
38F
100
AcDbEntity
  8
0
100
AcDbLine
 10
83.70000127271863
 20
9.499999051437896
 30
0.0
 11
83.70000127271863
 21
-0.0000009485621035
 31
0.0
  0
LINE
  5
3F9
330
38F
100
AcDbEntity
  8
0
100
AcDbLine
 10
85.70000127271862
 20
-0.0000009485621035
 30
0.0
 11
85.70000127271862
 21
16.49999905143789
 31
0.0
  0
LINE
  5
3FA
330
38F
100
AcDbEntity
  8
0
100
AcDbLine
 10
64.70000127271965
 20
19.49999905143789
 30
0.0
 11
66.70000127271965
 21
19.49999905143789
 31
0.0
  0
LINE
  5
3FB
330
38F
100
AcDbEntity
  8
0
100
AcDbLine
 10
71.70000127271966
 20
19.49999905143789
 30
0.0
 11
73.70000127271964
 21
19.49999905143789
 31
0.0
  0
LINE
  5
3FC
330
38F
100
AcDbEntity
  8
0
100
AcDbLine
 10
64.70000127271965
 20
44.9999990514379
 30
0.0
 11
66.70000127271965
 21
44.9999990514379
 31
0.0
  0
LINE
  5
3FD
330
38F
100
AcDbEntity
  8
0
100
AcDbLine
 10
64.70000127271965
 20
41.9999990514379
 30
0.0
 11
66.70000127271965
 21
41.9999990514379
 31
0.0
  0
LINE
  5
3FE
330
38F
100
AcDbEntity
  8
0
100
AcDbLine
 10
71.70000127271966
 20
44.9999990514379
 30
0.0
 11
73.70000127271964
 21
44.9999990514379
 31
0.0
  0
LINE
  5
3FF
330
38F
100
AcDbEntity
  8
0
100
AcDbLine
 10
71.70000127271966
 20
41.9999990514379
 30
0.0
 11
73.70000127271964
 21
41.9999990514379
 31
0.0
  0
LINE
  5
400
330
38F
100
AcDbEntity
  8
0
100
AcDbLine
 10
78.70000127271964
 20
19.49999905143789
 30
0.0
 11
80.70000127271965
 21
19.49999905143789
 31
0.0
  0
LINE
  5
401
330
38F
100
AcDbEntity
  8
0
100
AcDbLine
 10
86.70000127271965
 20
17.49999905143789
 30
0.0
 11
86.70000127271862
 21
16.99999905143789
 31
0.0
  0
LINE
  5
402
330
38F
100
AcDbEntity
  8
0
100
AcDbLine
 10
78.70000127271964
 20
44.9999990514379
 30
0.0
 11
80.70000127271965
 21
44.9999990514379
 31
0.0
  0
LINE
  5
403
330
38F
100
AcDbEntity
  8
0
100
AcDbLine
 10
78.70000127271964
 20
41.9999990514379
 30
0.0
 11
80.70000127271965
 21
41.9999990514379
 31
0.0
  0
LINE
  5
404
330
38F
100
AcDbEntity
  8
0
100
AcDbLine
 10
36.70000127271964
 20
70.7499990514379
 30
0.0
 11
38.70000127271964
 21
70.7499990514379
 31
0.0
  0
LINE
  5
405
330
38F
100
AcDbEntity
  8
0
100
AcDbLine
 10
43.70000127271963
 20
70.7499990514379
 30
0.0
 11
45.70000127271963
 21
70.7499990514379
 31
0.0
  0
LINE
  5
406
330
38F
100
AcDbEntity
  8
0
100
AcDbLine
 10
50.70000127271963
 20
70.7499990514379
 30
0.0
 11
52.70000127271964
 21
70.7499990514379
 31
0.0
  0
LINE
  5
407
330
38F
100
AcDbEntity
  8
0
100
AcDbLine
 10
57.70000127271964
 20
70.7499990514379
 30
0.0
 11
59.70000127271966
 21
70.7499990514379
 31
0.0
  0
LINE
  5
408
330
38F
100
AcDbEntity
  8
0
100
AcDbLine
 10
64.70000127271965
 20
70.7499990514379
 30
0.0
 11
66.70000127271965
 21
70.7499990514379
 31
0.0
  0
LINE
  5
409
330
38F
100
AcDbEntity
  8
0
100
AcDbLine
 10
71.70000127271966
 20
70.7499990514379
 30
0.0
 11
73.70000127271964
 21
70.7499990514379
 31
0.0
  0
LINE
  5
40A
330
38F
100
AcDbEntity
  8
0
100
AcDbLine
 10
78.70000127271964
 20
70.7499990514379
 30
0.0
 11
80.70000127271965
 21
70.7499990514379
 31
0.0
  0
LINE
  5
40B
330
38F
100
AcDbEntity
  8
0
100
AcDbLine
 10
11.30000127271975
 20
177.0499997851279
 30
0.0
 11
14.7000012727196
 21
177.0499997851279
 31
0.0
  0
LINE
  5
40C
330
38F
100
AcDbEntity
  8
0
100
AcDbLine
 10
14.7000012727196
 20
164.4499997851279
 30
0.0
 11
11.30000127271975
 21
164.4499997851279
 31
0.0
  0
LINE
  5
40D
330
38F
100
AcDbEntity
  8
0
100
AcDbLine
 10
9.200001272720072
 20
146.0499997851283
 30
0.0
 11
14.7000012727196
 21
147.9026313640755
 31
0.0
  0
LINE
  5
40E
330
38F
100
AcDbEntity
  8
0
100
AcDbLine
 10
9.200001272720072
 20
143.1499997851281
 30
0.0
 11
13.19009712833755
 21
141.8059674969203
 31
0.0
  0
LINE
  5
40F
330
38F
100
AcDbEntity
  8
0
100
AcDbLine
 10
13.19009712833755
 20
136.6599990514379
 30
0.0
 11
8.100001272719621
 21
136.6599990514379
 31
0.0
  0
LINE
  5
410
330
38F
100
AcDbEntity
  8
0
100
AcDbLine
 10
0.0000012727201408
 20
146.0499997851283
 30
0.0
 11
9.200001272720072
 21
146.0499997851283
 31
0.0
  0
LINE
  5
411
330
38F
100
AcDbEntity
  8
0
100
AcDbLine
 10
9.200001272720072
 20
143.1499997851281
 30
0.0
 11
4.8302557434682
 21
143.1499997851281
 31
0.0
  0
LINE
  5
412
330
38F
100
AcDbEntity
  8
0
100
AcDbLine
 10
4.8302557434682
 20
143.1499997851281
 30
0.0
 11
4.8302557434682
 21
141.1100114362547
 31
0.0
  0
LINE
  5
413
330
38F
100
AcDbEntity
  8
0
100
AcDbLine
 10
4.8302557434682
 20
141.1100114362547
 30
0.0
 11
3.702477265358623
 21
141.1100114362547
 31
0.0
  0
LINE
  5
414
330
38F
100
AcDbEntity
  8
0
100
AcDbLine
 10
0.0000012727201408
 20
146.0499997851283
 30
0.0
 11
3.702477265358623
 21
141.1100114362547
 31
0.0
  0
LINE
  5
415
330
38F
100
AcDbEntity
  8
0
100
AcDbLine
 10
9.190097128337555
 20
146.0499997851283
 30
0.0
 11
9.190097128337555
 21
143.1499997851281
 31
0.0
  0
LINE
  5
416
330
38F
100
AcDbEntity
  8
0
100
AcDbLine
 10
11.30000127271975
 20
164.4499997851279
 30
0.0
 11
11.30000127271975
 21
177.0499997851279
 31
0.0
  0
LINE
  5
417
330
38F
100
AcDbEntity
  8
0
100
AcDbLine
 10
13.69563933186862
 20
157.939999051438
 30
0.0
 11
13.69563933186862
 21
147.564319973473
 31
0.0
  0
LINE
  5
418
330
38F
100
AcDbEntity
  8
0
100
AcDbLine
 10
13.0000012727199
 20
160.999999785128
 30
0.0
 11
13.0000012727199
 21
162.199999785128
 31
0.0
  0
LINE
  5
419
330
38F
100
AcDbEntity
  8
0
100
AcDbLine
 10
14.7000012727196
 20
162.199999785128
 30
0.0
 11
13.00000127272002
 21
162.199999785128
 31
0.0
  0
LINE
  5
41A
330
38F
100
AcDbEntity
  8
0
100
AcDbLine
 10
14.7000012727196
 20
163.3999997851281
 30
0.0
 11
12.70000127271984
 21
163.3999997851281
 31
0.0
  0
LINE
  5
41B
330
38F
100
AcDbEntity
  8
0
100
AcDbLine
 10
13.0000012727199
 20
160.999999785128
 30
0.0
 11
12.20000127271973
 21
160.999999785128
 31
0.0
  0
LINE
  5
41C
330
38F
100
AcDbEntity
  8
0
100
AcDbLine
 10
11.70000127271984
 20
162.3999997851281
 30
0.0
 11
11.70000127271973
 21
161.499999785128
 31
0.0
  0
LINE
  5
41D
330
38F
100
AcDbEntity
  8
0
100
AcDbLine
 10
12.20000127271973
 20
160.999999785128
 30
0.0
 11
11.70000127271973
 21
161.499999785128
 31
0.0
  0
ARC
  5
41E
330
38F
100
AcDbEntity
  8
0
100
AcDbCircle
 10
12.70000127271984
 20
162.3999997851281
 30
0.0
 40
1.0
100
AcDbArc
 50
90.0
 51
180.0
  0
LINE
  5
41F
330
38F
100
AcDbEntity
  8
0
100
AcDbLine
 10
14.7000012727196
 20
157.939999051438
 30
0.0
 11
13.69563933186862
 21
157.939999051438
 31
0.0
  0
LINE
  5
420
330
38F
100
AcDbEntity
  8
0
100
AcDbLine
 10
13.0000012727199
 20
179.2999997851281
 30
0.0
 11
13.0000012727199
 21
180.4999997851281
 31
0.0
  0
LINE
  5
421
330
38F
100
AcDbEntity
  8
0
100
AcDbLine
 10
14.7000012727196
 20
179.2999997851281
 30
0.0
 11
13.0000012727198
 21
179.2999997851281
 31
0.0
  0
LINE
  5
422
330
38F
100
AcDbEntity
  8
0
100
AcDbLine
 10
13.0000012727199
 20
180.4999997851281
 30
0.0
 11
12.20000127271996
 21
180.4999997851281
 31
0.0
  0
LINE
  5
423
330
38F
100
AcDbEntity
  8
0
100
AcDbLine
 10
11.70000127271993
 20
179.9999997851281
 30
0.0
 11
11.70000127271993
 21
179.0999997851279
 31
0.0
  0
LINE
  5
424
330
38F
100
AcDbEntity
  8
0
100
AcDbLine
 10
12.20000127271996
 20
180.4999997851281
 30
0.0
 11
11.70000127271993
 21
179.9999997851281
 31
0.0
  0
LINE
  5
425
330
38F
100
AcDbEntity
  8
0
100
AcDbLine
 10
14.7000012727196
 20
178.099999785128
 30
0.0
 11
12.70000127271996
 21
178.0999997851279
 31
0.0
  0
ARC
  5
426
330
38F
100
AcDbEntity
  8
0
100
AcDbCircle
 10
12.70000127271996
 20
179.0999997851279
 30
0.0
 40
1.0
100
AcDbArc
 50
180.0
 51
270.0
  0
LINE
  5
427
330
38F
100
AcDbEntity
  8
0
100
AcDbLine
 10
59.70000127271966
 20
136.2499990514379
 30
0.0
 11
59.70000127271966
 21
189.4999990514379
 31
0.0
  0
LINE
  5
428
330
38F
100
AcDbEntity
  8
0
100
AcDbLine
 10
57.70000127271964
 20
136.2499990514379
 30
0.0
 11
57.70000127271964
 21
189.4999990514379
 31
0.0
  0
LINE
  5
429
330
38F
100
AcDbEntity
  8
0
100
AcDbLine
 10
52.70000127271964
 20
136.2499990514379
 30
0.0
 11
52.70000127271964
 21
189.4999990514379
 31
0.0
  0
LINE
  5
42A
330
38F
100
AcDbEntity
  8
0
100
AcDbLine
 10
50.70000127271963
 20
136.2499990514379
 30
0.0
 11
50.70000127271963
 21
189.4999990514379
 31
0.0
  0
LINE
  5
42B
330
38F
100
AcDbEntity
  8
0
100
AcDbLine
 10
45.70000127271963
 20
136.2499990514379
 30
0.0
 11
45.70000127271963
 21
189.4999990514379
 31
0.0
  0
LINE
  5
42C
330
38F
100
AcDbEntity
  8
0
100
AcDbLine
 10
43.70000127271963
 20
136.2499990514379
 30
0.0
 11
43.70000127271963
 21
189.4999990514379
 31
0.0
  0
LINE
  5
42D
330
38F
100
AcDbEntity
  8
0
100
AcDbLine
 10
38.70000127271964
 20
136.2499990514379
 30
0.0
 11
38.70000127271964
 21
189.4999990514379
 31
0.0
  0
LINE
  5
42E
330
38F
100
AcDbEntity
  8
0
100
AcDbLine
 10
36.70000127271964
 20
136.2499990514379
 30
0.0
 11
36.70000127271964
 21
189.4999990514379
 31
0.0
  0
LINE
  5
42F
330
38F
100
AcDbEntity
  8
0
100
AcDbLine
 10
36.70000127271964
 20
136.2499990514379
 30
0.0
 11
38.70000127271964
 21
136.2499990514379
 31
0.0
  0
LINE
  5
430
330
38F
100
AcDbEntity
  8
0
100
AcDbLine
 10
43.70000127271963
 20
136.2499990514379
 30
0.0
 11
45.70000127271963
 21
136.2499990514379
 31
0.0
  0
LINE
  5
431
330
38F
100
AcDbEntity
  8
0
100
AcDbLine
 10
50.70000127271963
 20
136.2499990514379
 30
0.0
 11
52.70000127271964
 21
136.2499990514379
 31
0.0
  0
LINE
  5
432
330
38F
100
AcDbEntity
  8
0
100
AcDbLine
 10
57.70000127271964
 20
136.2499990514379
 30
0.0
 11
59.70000127271966
 21
136.2499990514379
 31
0.0
  0
LINE
  5
433
330
38F
100
AcDbEntity
  8
0
100
AcDbLine
 10
36.70000127271964
 20
161.9999990514379
 30
0.0
 11
38.70000127271964
 21
161.9999990514379
 31
0.0
  0
LINE
  5
434
330
38F
100
AcDbEntity
  8
0
100
AcDbLine
 10
36.70000127271964
 20
164.9999990514379
 30
0.0
 11
38.70000127271964
 21
164.9999990514379
 31
0.0
  0
LINE
  5
435
330
38F
100
AcDbEntity
  8
0
100
AcDbLine
 10
43.70000127271963
 20
161.9999990514379
 30
0.0
 11
45.70000127271963
 21
161.9999990514379
 31
0.0
  0
LINE
  5
436
330
38F
100
AcDbEntity
  8
0
100
AcDbLine
 10
43.70000127271963
 20
164.9999990514379
 30
0.0
 11
45.70000127271963
 21
164.9999990514379
 31
0.0
  0
LINE
  5
437
330
38F
100
AcDbEntity
  8
0
100
AcDbLine
 10
36.70000127271964
 20
187.4999990514379
 30
0.0
 11
38.70000127271964
 21
187.4999990514379
 31
0.0
  0
LINE
  5
438
330
38F
100
AcDbEntity
  8
0
100
AcDbLine
 10
43.70000127271963
 20
187.4999990514379
 30
0.0
 11
45.70000127271963
 21
187.4999990514379
 31
0.0
  0
LINE
  5
439
330
38F
100
AcDbEntity
  8
0
100
AcDbLine
 10
50.70000127271963
 20
161.9999990514379
 30
0.0
 11
52.70000127271964
 21
161.9999990514379
 31
0.0
  0
LINE
  5
43A
330
38F
100
AcDbEntity
  8
0
100
AcDbLine
 10
50.70000127271963
 20
164.9999990514379
 30
0.0
 11
52.70000127271964
 21
164.9999990514379
 31
0.0
  0
LINE
  5
43B
330
38F
100
AcDbEntity
  8
0
100
AcDbLine
 10
57.70000127271964
 20
161.9999990514379
 30
0.0
 11
59.70000127271966
 21
161.9999990514379
 31
0.0
  0
LINE
  5
43C
330
38F
100
AcDbEntity
  8
0
100
AcDbLine
 10
57.70000127271964
 20
164.9999990514379
 30
0.0
 11
59.70000127271966
 21
164.9999990514379
 31
0.0
  0
LINE
  5
43D
330
38F
100
AcDbEntity
  8
0
100
AcDbLine
 10
50.70000127271963
 20
187.4999990514379
 30
0.0
 11
52.70000127271964
 21
187.4999990514379
 31
0.0
  0
LINE
  5
43E
330
38F
100
AcDbEntity
  8
0
100
AcDbLine
 10
57.70000127271964
 20
187.4999990514379
 30
0.0
 11
59.70000127271966
 21
187.4999990514379
 31
0.0
  0
LINE
  5
43F
330
38F
100
AcDbEntity
  8
0
100
AcDbLine
 10
85.70000127271965
 20
136.2499990514379
 30
0.0
 11
85.70000127271965
 21
189.4999990514379
 31
0.0
  0
LINE
  5
440
330
38F
100
AcDbEntity
  8
0
100
AcDbLine
 10
80.70000127271965
 20
136.2499990514379
 30
0.0
 11
80.70000127271965
 21
189.4999990514379
 31
0.0
  0
LINE
  5
441
330
38F
100
AcDbEntity
  8
0
100
AcDbLine
 10
78.70000127271964
 20
136.2499990514379
 30
0.0
 11
78.70000127271964
 21
189.4999990514379
 31
0.0
  0
LINE
  5
442
330
38F
100
AcDbEntity
  8
0
100
AcDbLine
 10
73.70000127271964
 20
136.2499990514379
 30
0.0
 11
73.70000127271964
 21
189.4999990514379
 31
0.0
  0
LINE
  5
443
330
38F
100
AcDbEntity
  8
0
100
AcDbLine
 10
71.70000127271966
 20
136.2499990514379
 30
0.0
 11
71.70000127271966
 21
189.4999990514379
 31
0.0
  0
LINE
  5
444
330
38F
100
AcDbEntity
  8
0
100
AcDbLine
 10
66.70000127271965
 20
136.2499990514379
 30
0.0
 11
66.70000127271965
 21
189.4999990514379
 31
0.0
  0
LINE
  5
445
330
38F
100
AcDbEntity
  8
0
100
AcDbLine
 10
64.70000127271965
 20
136.2499990514379
 30
0.0
 11
64.70000127271965
 21
189.4999990514379
 31
0.0
  0
LINE
  5
446
330
38F
100
AcDbEntity
  8
0
100
AcDbLine
 10
64.70000127271965
 20
136.2499990514379
 30
0.0
 11
66.70000127271965
 21
136.2499990514379
 31
0.0
  0
LINE
  5
447
330
38F
100
AcDbEntity
  8
0
100
AcDbLine
 10
71.70000127271966
 20
136.2499990514379
 30
0.0
 11
73.70000127271964
 21
136.2499990514379
 31
0.0
  0
LINE
  5
448
330
38F
100
AcDbEntity
  8
0
100
AcDbLine
 10
78.70000127271964
 20
136.2499990514379
 30
0.0
 11
80.70000127271965
 21
136.2499990514379
 31
0.0
  0
LINE
  5
449
330
38F
100
AcDbEntity
  8
0
100
AcDbLine
 10
64.70000127271965
 20
161.9999990514379
 30
0.0
 11
66.70000127271965
 21
161.9999990514379
 31
0.0
  0
LINE
  5
44A
330
38F
100
AcDbEntity
  8
0
100
AcDbLine
 10
64.70000127271965
 20
164.9999990514379
 30
0.0
 11
66.70000127271965
 21
164.9999990514379
 31
0.0
  0
LINE
  5
44B
330
38F
100
AcDbEntity
  8
0
100
AcDbLine
 10
71.70000127271966
 20
161.9999990514379
 30
0.0
 11
73.70000127271964
 21
161.9999990514379
 31
0.0
  0
LINE
  5
44C
330
38F
100
AcDbEntity
  8
0
100
AcDbLine
 10
71.70000127271966
 20
164.9999990514379
 30
0.0
 11
73.70000127271964
 21
164.9999990514379
 31
0.0
  0
LINE
  5
44D
330
38F
100
AcDbEntity
  8
0
100
AcDbLine
 10
64.70000127271965
 20
187.4999990514379
 30
0.0
 11
66.70000127271965
 21
187.4999990514379
 31
0.0
  0
LINE
  5
44E
330
38F
100
AcDbEntity
  8
0
100
AcDbLine
 10
71.70000127271966
 20
187.4999990514379
 30
0.0
 11
73.70000127271964
 21
187.4999990514379
 31
0.0
  0
LINE
  5
44F
330
38F
100
AcDbEntity
  8
0
100
AcDbLine
 10
78.70000127271964
 20
161.9999990514379
 30
0.0
 11
80.70000127271965
 21
161.9999990514379
 31
0.0
  0
LINE
  5
450
330
38F
100
AcDbEntity
  8
0
100
AcDbLine
 10
78.70000127271964
 20
164.9999990514379
 30
0.0
 11
80.70000127271965
 21
164.9999990514379
 31
0.0
  0
LINE
  5
451
330
38F
100
AcDbEntity
  8
0
100
AcDbLine
 10
78.70000127271964
 20
187.4999990514379
 30
0.0
 11
80.70000127271965
 21
187.4999990514379
 31
0.0
  0
LINE
  5
452
330
38F
100
AcDbEntity
  8
0
100
AcDbLine
 10
132.0878551158864
 20
16.49999905143789
 30
0.0
 11
132.0878551158875
 21
190.4999990514379
 31
0.0
  0
LINE
  5
453
330
38F
100
AcDbEntity
  8
0
100
AcDbLine
 10
113.7000012727195
 20
16.49999905143789
 30
0.0
 11
113.7000012727195
 21
190.4999990514379
 31
0.0
  0
LINE
  5
454
330
38F
100
AcDbEntity
  8
0
100
AcDbLine
 10
132.1140410374555
 20
200.4629711170628
 30
0.0
 11
132.1140410374546
 21
6.537026985812872
 31
0.0
  0
LINE
  5
455
330
38F
100
AcDbEntity
  8
0
100
AcDbLine
 10
135.7000012727185
 20
200.3690694435919
 30
0.0
 11
135.7000012727185
 21
6.630928659283879
 31
0.0
  0
LINE
  5
456
330
38F
100
AcDbEntity
  8
0
100
AcDbLine
 10
108.7000012727195
 20
17.49999905143789
 30
0.0
 11
108.7000012727195
 21
70.7499990514379
 31
0.0
  0
LINE
  5
457
330
38F
100
AcDbEntity
  8
0
100
AcDbLine
 10
106.7000012727195
 20
17.49999905143789
 30
0.0
 11
106.7000012727195
 21
70.7499990514379
 31
0.0
  0
LINE
  5
458
330
38F
100
AcDbEntity
  8
0
100
AcDbLine
 10
101.7000012727194
 20
17.49999905143789
 30
0.0
 11
101.7000012727194
 21
70.7499990514379
 31
0.0
  0
LINE
  5
459
330
38F
100
AcDbEntity
  8
0
100
AcDbLine
 10
99.70000127271966
 20
17.49999905143789
 30
0.0
 11
99.70000127271966
 21
70.7499990514379
 31
0.0
  0
LINE
  5
45A
330
38F
100
AcDbEntity
  8
0
100
AcDbLine
 10
94.70000127271964
 20
17.49999905143789
 30
0.0
 11
94.70000127271964
 21
70.7499990514379
 31
0.0
  0
LINE
  5
45B
330
38F
100
AcDbEntity
  8
0
100
AcDbLine
 10
92.70000127271963
 20
17.49999905143789
 30
0.0
 11
92.70000127271963
 21
70.7499990514379
 31
0.0
  0
LINE
  5
45C
330
38F
100
AcDbEntity
  8
0
100
AcDbLine
 10
87.70000127271963
 20
17.49999905143789
 30
0.0
 11
87.70000127271963
 21
70.7499990514379
 31
0.0
  0
LINE
  5
45D
330
38F
100
AcDbEntity
  8
0
100
AcDbLine
 10
92.70000127271963
 20
19.49999905143789
 30
0.0
 11
94.70000127271964
 21
19.49999905143789
 31
0.0
  0
LINE
  5
45E
330
38F
100
AcDbEntity
  8
0
100
AcDbLine
 10
92.70000127271963
 20
44.9999990514379
 30
0.0
 11
94.70000127271964
 21
44.9999990514379
 31
0.0
  0
LINE
  5
45F
330
38F
100
AcDbEntity
  8
0
100
AcDbLine
 10
92.70000127271963
 20
41.9999990514379
 30
0.0
 11
94.70000127271964
 21
41.9999990514379
 31
0.0
  0
LINE
  5
460
330
38F
100
AcDbEntity
  8
0
100
AcDbLine
 10
99.70000127271966
 20
19.49999905143789
 30
0.0
 11
101.7000012727194
 21
19.49999905143789
 31
0.0
  0
LINE
  5
461
330
38F
100
AcDbEntity
  8
0
100
AcDbLine
 10
106.7000012727195
 20
19.49999905143789
 30
0.0
 11
108.7000012727195
 21
19.49999905143789
 31
0.0
  0
LINE
  5
462
330
38F
100
AcDbEntity
  8
0
100
AcDbLine
 10
99.70000127271966
 20
44.9999990514379
 30
0.0
 11
101.7000012727194
 21
44.9999990514379
 31
0.0
  0
LINE
  5
463
330
38F
100
AcDbEntity
  8
0
100
AcDbLine
 10
99.70000127271966
 20
41.9999990514379
 30
0.0
 11
101.7000012727194
 21
41.9999990514379
 31
0.0
  0
LINE
  5
464
330
38F
100
AcDbEntity
  8
0
100
AcDbLine
 10
106.7000012727195
 20
44.9999990514379
 30
0.0
 11
108.7000012727195
 21
44.9999990514379
 31
0.0
  0
LINE
  5
465
330
38F
100
AcDbEntity
  8
0
100
AcDbLine
 10
106.7000012727195
 20
41.9999990514379
 30
0.0
 11
108.7000012727195
 21
41.9999990514379
 31
0.0
  0
LINE
  5
466
330
38F
100
AcDbEntity
  8
0
100
AcDbLine
 10
130.7000012727185
 20
6.499999051437896
 30
0.0
 11
130.7000012727185
 21
16.49999905143789
 31
0.0
  0
LINE
  5
467
330
38F
100
AcDbEntity
  8
0
100
AcDbLine
 10
130.7000012727185
 20
6.499999051437896
 30
0.0
 11
135.7000012727185
 21
6.630928659283879
 31
0.0
  0
LINE
  5
468
330
38F
100
AcDbEntity
  8
0
100
AcDbLine
 10
92.70000127271963
 20
70.7499990514379
 30
0.0
 11
94.70000127271964
 21
70.7499990514379
 31
0.0
  0
LINE
  5
469
330
38F
100
AcDbEntity
  8
0
100
AcDbLine
 10
99.70000127271966
 20
70.7499990514379
 30
0.0
 11
101.7000012727194
 21
70.7499990514379
 31
0.0
  0
LINE
  5
46A
330
38F
100
AcDbEntity
  8
0
100
AcDbLine
 10
106.7000012727195
 20
70.7499990514379
 30
0.0
 11
108.7000012727195
 21
70.7499990514379
 31
0.0
  0
LINE
  5
46B
330
38F
100
AcDbEntity
  8
0
100
AcDbLine
 10
130.7000012727185
 20
190.4999990514379
 30
0.0
 11
130.7000012727185
 21
200.4999990514379
 31
0.0
  0
LINE
  5
46C
330
38F
100
AcDbEntity
  8
0
100
AcDbLine
 10
108.7000012727195
 20
136.2499990514379
 30
0.0
 11
108.7000012727195
 21
189.4999990514379
 31
0.0
  0
LINE
  5
46D
330
38F
100
AcDbEntity
  8
0
100
AcDbLine
 10
106.7000012727195
 20
136.2499990514379
 30
0.0
 11
106.7000012727195
 21
189.4999990514379
 31
0.0
  0
LINE
  5
46E
330
38F
100
AcDbEntity
  8
0
100
AcDbLine
 10
101.7000012727194
 20
136.2499990514379
 30
0.0
 11
101.7000012727194
 21
189.4999990514379
 31
0.0
  0
LINE
  5
46F
330
38F
100
AcDbEntity
  8
0
100
AcDbLine
 10
99.70000127271966
 20
136.2499990514379
 30
0.0
 11
99.70000127271966
 21
189.4999990514379
 31
0.0
  0
LINE
  5
470
330
38F
100
AcDbEntity
  8
0
100
AcDbLine
 10
94.70000127271964
 20
136.2499990514379
 30
0.0
 11
94.70000127271964
 21
189.4999990514379
 31
0.0
  0
LINE
  5
471
330
38F
100
AcDbEntity
  8
0
100
AcDbLine
 10
92.70000127271963
 20
136.2499990514379
 30
0.0
 11
92.70000127271963
 21
189.4999990514379
 31
0.0
  0
LINE
  5
472
330
38F
100
AcDbEntity
  8
0
100
AcDbLine
 10
87.70000127271963
 20
136.2499990514379
 30
0.0
 11
87.70000127271963
 21
189.4999990514379
 31
0.0
  0
LINE
  5
473
330
38F
100
AcDbEntity
  8
0
100
AcDbLine
 10
92.70000127271963
 20
136.2499990514379
 30
0.0
 11
94.70000127271964
 21
136.2499990514379
 31
0.0
  0
LINE
  5
474
330
38F
100
AcDbEntity
  8
0
100
AcDbLine
 10
99.70000127271966
 20
136.2499990514379
 30
0.0
 11
101.7000012727194
 21
136.2499990514379
 31
0.0
  0
LINE
  5
475
330
38F
100
AcDbEntity
  8
0
100
AcDbLine
 10
106.7000012727195
 20
136.2499990514379
 30
0.0
 11
108.7000012727195
 21
136.2499990514379
 31
0.0
  0
LINE
  5
476
330
38F
100
AcDbEntity
  8
0
100
AcDbLine
 10
92.70000127271963
 20
161.9999990514379
 30
0.0
 11
94.70000127271964
 21
161.9999990514379
 31
0.0
  0
LINE
  5
477
330
38F
100
AcDbEntity
  8
0
100
AcDbLine
 10
92.70000127271963
 20
164.9999990514379
 30
0.0
 11
94.70000127271964
 21
164.9999990514379
 31
0.0
  0
LINE
  5
478
330
38F
100
AcDbEntity
  8
0
100
AcDbLine
 10
92.70000127271963
 20
187.4999990514379
 30
0.0
 11
94.70000127271964
 21
187.4999990514379
 31
0.0
  0
LINE
  5
479
330
38F
100
AcDbEntity
  8
0
100
AcDbLine
 10
99.70000127271966
 20
161.9999990514379
 30
0.0
 11
101.7000012727194
 21
161.9999990514379
 31
0.0
  0
LINE
  5
47A
330
38F
100
AcDbEntity
  8
0
100
AcDbLine
 10
99.70000127271966
 20
164.9999990514379
 30
0.0
 11
101.7000012727194
 21
164.9999990514379
 31
0.0
  0
LINE
  5
47B
330
38F
100
AcDbEntity
  8
0
100
AcDbLine
 10
106.7000012727195
 20
161.9999990514379
 30
0.0
 11
108.7000012727195
 21
161.9999990514379
 31
0.0
  0
LINE
  5
47C
330
38F
100
AcDbEntity
  8
0
100
AcDbLine
 10
106.7000012727195
 20
164.9999990514379
 30
0.0
 11
108.7000012727195
 21
164.9999990514379
 31
0.0
  0
LINE
  5
47D
330
38F
100
AcDbEntity
  8
0
100
AcDbLine
 10
99.70000127271966
 20
187.4999990514379
 30
0.0
 11
101.7000012727194
 21
187.4999990514379
 31
0.0
  0
LINE
  5
47E
330
38F
100
AcDbEntity
  8
0
100
AcDbLine
 10
106.7000012727195
 20
187.4999990514379
 30
0.0
 11
108.7000012727195
 21
187.4999990514379
 31
0.0
  0
LINE
  5
47F
330
38F
100
AcDbEntity
  8
0
100
AcDbLine
 10
130.7000012727185
 20
200.4999990514379
 30
0.0
 11
135.7000012727185
 21
200.3690694435919
 31
0.0
  0
ENDBLK
  5
481
330
38F
100
AcDbEntity
  8
0
100
AcDbBlockEnd
  0
ENDSEC
  0
SECTION
  2
ENTITIES
  0
INSERT
  5
50F
330
1F
100
AcDbEntity
  8
0
100
AcDbBlockReference
  2
A$C3EE73540
 10
-0.0000014315460248
 20
164.4738134733978
 30
0.0
  0
LINE
  5
510
330
1F
100
AcDbEntity
  8
1
100
AcDbLine
 10
21.49999780809888
 20
359.9738137437261
 30
0.0
 11
36.49999780809888
 21
359.9738137437261
 31
0.0
  0
LINE
  5
511
330
1F
100
AcDbEntity
  8
1
100
AcDbLine
 10
21.49999780809888
 20
175.9738137437262
 30
0.0
 11
36.49999780809888
 21
175.9738137437262
 31
0.0
  0
INSERT
  5
512
330
1F
100
AcDbEntity
  8
0
100
AcDbBlockReference
  2
A$C009F64F1
 10
-0.000001842102165
 20
0.0000006897683988
 30
0.0
  0
INSERT
  5
513
330
1F
100
AcDbEntity
  8
0
100
AcDbBlockReference
  2
A$C6BA86731
 10
143.2999965353797
 20
164.4738146922883
 30
0.0
  0
LINE
  5
514
330
1F
100
AcDbEntity
  8
1
100
AcDbLine
 10
28.99999780809888
 20
352.4738137437263
 30
0.0
 11
28.99999780809888
 21
367.4738137437261
 31
0.0
  0
LINE
  5
515
330
1F
100
AcDbEntity
  8
1
100
AcDbLine
 10
28.99999780809888
 20
168.4738137437262
 30
0.0
 11
28.99999780809888
 21
183.4738137437265
 31
0.0
  0
TEXT
  5
5F6
330
1F
100
AcDbEntity
  8
0
100
AcDbText
 10
-4.509860270041038
 20
427.0753894373657
 30
0.0
 40
10.0
  1
SCON-C/CA-20~300SA-NP/PN-*-1/2
100
AcDbText
  0
ENDSEC
  0
SECTION
  2
OBJECTS
  0
DICTIONARY
  5
C
330
0
100
AcDbDictionary
  3
ACAD_GROUP
350
D
  3
ACAD_LAYOUT
350
1A
  3
ACAD_MLINESTYLE
350
17
  3
ACAD_PLOTSETTINGS
350
19
  3
ACAD_PLOTSTYLENAME
350
E
  3
ACDBHEADERROUNDTRIPXREC
350
628
  3
ACDBVARIABLEDICTIONARY
350
5F7
  0
DICTIONARY
  5
4F6
330
2
100
AcDbDictionary
280
     1
  3
ACAD_LAYERSTATES
360
4F7
  0
DICTIONARY
  5
61D
330
1F
100
AcDbDictionary
280
     1
  3
ACAD_LAYOUTSELFREF
360
649
  0
DICTIONARY
  5
61B
330
1B
100
AcDbDictionary
280
     1
  3
ACAD_LAYOUTSELFREF
360
648
  0
DICTIONARY
  5
D
102
{ACAD_REACTORS
330
C
102
}
330
C
100
AcDbDictionary
  0
DICTIONARY
  5
1A
102
{ACAD_REACTORS
330
C
102
}
330
C
100
AcDbDictionary
  0
DICTIONARY
  5
17
102
{ACAD_REACTORS
330
C
102
}
330
C
100
AcDbDictionary
  3
STANDARD
350
18
  0
DICTIONARY
  5
19
102
{ACAD_REACTORS
330
C
102
}
330
C
100
AcDbDictionary
  0
ACDBDICTIONARYWDFLT
  5
E
102
{ACAD_REACTORS
330
C
102
}
330
C
100
AcDbDictionary
281
     1
  3
Normal
350
F
100
AcDbDictionaryWithDefault
340
F
  0
DICTIONARY
  5
628
102
{ACAD_REACTORS
330
C
102
}
330
C
100
AcDbDictionary
  3
CEPSNTYPE
350
632
  3
FINGERPRINTGUID
350
633
  3
HYPERLINKBASE
350
62B
  3
INSUNITS
350
631
  3
LAYOUTDICT
350
62D
  3
LWETCUNION
350
630
  3
PLOTSETDICT
350
62E
  3
PLOTSTYLNAMDICT
350
62F
  3
PSVPSCALE
350
635
  3
PUCSBASE
350
638
  3
PUCSORGBACK
350
63E
  3
PUCSORGBOTTOM
350
63A
  3
PUCSORGFRONT
350
63D
  3
PUCSORGLEFT
350
63B
  3
PUCSORGRIGHT
350
63C
  3
PUCSORGTOP
350
639
  3
PUCSORTHOREF
350
636
  3
PUCSORTHOVIEW
350
637
  3
STYLESHEET
350
62C
  3
TSTACKALIGN
350
629
  3
TSTACKSIZE
350
62A
  3
UCSBASE
350
641
  3
UCSORGBACK
350
647
  3
UCSORGBOTTOM
350
643
  3
UCSORGFRONT
350
646
  3
UCSORGLEFT
350
644
  3
UCSORGRIGHT
350
645
  3
UCSORGTOP
350
642
  3
UCSORTHOREF
350
63F
  3
UCSORTHOVIEW
350
640
  3
VERSIONGUID
350
634
  0
DICTIONARY
  5
5F7
102
{ACAD_REACTORS
330
C
102
}
330
C
100
AcDbDictionary
  3
DIMASSOC
350
5F9
  3
HIDETEXT
350
5F8
  0
DICTIONARY
  5
4F7
102
{ACAD_REACTORS
330
4F6
102
}
330
4F6
100
AcDbDictionary
  0
XRECORD
  5
649
102
{ACAD_REACTORS
330
61D
102
}
330
61D
100
AcDbXrecord
340
1F
  0
XRECORD
  5
648
102
{ACAD_REACTORS
330
61B
102
}
330
61B
100
AcDbXrecord
340
1B
  0
MLINESTYLE
  5
18
102
{ACAD_REACTORS
330
17
102
}
330
17
100
AcDbMlineStyle
  2
STANDARD
 70
     0
  3

 62
   256
 51
90.0
 52
90.0
 71
     2
 49
0.5
 62
   256
  6
BYLAYER
 49
-0.5
 62
   256
  6
BYLAYER
  0
ACDBPLACEHOLDER
  5
F
102
{ACAD_REACTORS
330
E
102
}
330
E
100
AcDbPlaceHolder
280
     0
  0
XRECORD
  5
632
102
{ACAD_REACTORS
330
628
102
}
330
628
100
AcDbXrecord
 90
        0
  0
XRECORD
  5
633
102
{ACAD_REACTORS
330
628
102
}
330
628
100
AcDbXrecord
  1
{08A00A2B-70FA-4947-AD53-B76125A4E8FC}
  0
XRECORD
  5
62B
102
{ACAD_REACTORS
330
628
102
}
330
628
100
AcDbXrecord
  1

  0
XRECORD
  5
631
102
{ACAD_REACTORS
330
628
102
}
330
628
100
AcDbXrecord
 90
        4
  0
XRECORD
  5
62D
102
{ACAD_REACTORS
330
628
102
}
330
628
100
AcDbXrecord
340
1A
  0
XRECORD
  5
630
102
{ACAD_REACTORS
330
628
102
}
330
628
100
AcDbXrecord
 90
    10781
  0
XRECORD
  5
62E
102
{ACAD_REACTORS
330
628
102
}
330
628
100
AcDbXrecord
340
19
  0
XRECORD
  5
62F
102
{ACAD_REACTORS
330
628
102
}
330
628
100
AcDbXrecord
340
E
  0
XRECORD
  5
635
102
{ACAD_REACTORS
330
628
102
}
330
628
100
AcDbXrecord
 40
0.0
  0
XRECORD
  5
638
102
{ACAD_REACTORS
330
628
102
}
330
628
100
AcDbXrecord
340
0
  0
XRECORD
  5
63E
102
{ACAD_REACTORS
330
628
102
}
330
628
100
AcDbXrecord
 10
0.0
 20
0.0
 30
0.0
  0
XRECORD
  5
63A
102
{ACAD_REACTORS
330
628
102
}
330
628
100
AcDbXrecord
 10
0.0
 20
0.0
 30
0.0
  0
XRECORD
  5
63D
102
{ACAD_REACTORS
330
628
102
}
330
628
100
AcDbXrecord
 10
0.0
 20
0.0
 30
0.0
  0
XRECORD
  5
63B
102
{ACAD_REACTORS
330
628
102
}
330
628
100
AcDbXrecord
 10
0.0
 20
0.0
 30
0.0
  0
XRECORD
  5
63C
102
{ACAD_REACTORS
330
628
102
}
330
628
100
AcDbXrecord
 10
0.0
 20
0.0
 30
0.0
  0
XRECORD
  5
639
102
{ACAD_REACTORS
330
628
102
}
330
628
100
AcDbXrecord
 10
0.0
 20
0.0
 30
0.0
  0
XRECORD
  5
636
102
{ACAD_REACTORS
330
628
102
}
330
628
100
AcDbXrecord
340
0
  0
XRECORD
  5
637
102
{ACAD_REACTORS
330
628
102
}
330
628
100
AcDbXrecord
 70
     0
  0
XRECORD
  5
62C
102
{ACAD_REACTORS
330
628
102
}
330
628
100
AcDbXrecord
  1

  0
XRECORD
  5
629
102
{ACAD_REACTORS
330
628
102
}
330
628
100
AcDbXrecord
 90
        1
  0
XRECORD
  5
62A
102
{ACAD_REACTORS
330
628
102
}
330
628
100
AcDbXrecord
 90
       70
  0
XRECORD
  5
641
102
{ACAD_REACTORS
330
628
102
}
330
628
100
AcDbXrecord
340
0
  0
XRECORD
  5
647
102
{ACAD_REACTORS
330
628
102
}
330
628
100
AcDbXrecord
 10
0.0
 20
0.0
 30
0.0
  0
XRECORD
  5
643
102
{ACAD_REACTORS
330
628
102
}
330
628
100
AcDbXrecord
 10
0.0
 20
0.0
 30
0.0
  0
XRECORD
  5
646
102
{ACAD_REACTORS
330
628
102
}
330
628
100
AcDbXrecord
 10
0.0
 20
0.0
 30
0.0
  0
XRECORD
  5
644
102
{ACAD_REACTORS
330
628
102
}
330
628
100
AcDbXrecord
 10
0.0
 20
0.0
 30
0.0
  0
XRECORD
  5
645
102
{ACAD_REACTORS
330
628
102
}
330
628
100
AcDbXrecord
 10
0.0
 20
0.0
 30
0.0
  0
XRECORD
  5
642
102
{ACAD_REACTORS
330
628
102
}
330
628
100
AcDbXrecord
 10
0.0
 20
0.0
 30
0.0
  0
XRECORD
  5
63F
102
{ACAD_REACTORS
330
628
102
}
330
628
100
AcDbXrecord
340
0
  0
XRECORD
  5
640
102
{ACAD_REACTORS
330
628
102
}
330
628
100
AcDbXrecord
 70
     0
  0
XRECORD
  5
634
102
{ACAD_REACTORS
330
628
102
}
330
628
100
AcDbXrecord
  1
{73C6DF13-0D1D-4CF3-9A82-3EE89C587A2D}
  0
DICTIONARYVAR
  5
5F9
102
{ACAD_REACTORS
330
5F7
102
}
330
5F7
100
DictionaryVariables
280
     0
  1
2
  0
DICTIONARYVAR
  5
5F8
102
{ACAD_REACTORS
330
5F7
102
}
330
5F7
100
DictionaryVariables
280
     0
  1
1
  0
ENDSEC
  0
EOF
