  0
SECTION
  2
HEADER
  9
$ACADVER
  1
AC1014
  9
$ACADMAINTVER
 70
     9
  9
$DWGCODEPAGE
  3
ANSI_932
  9
$INSBASE
 10
0.0
 20
0.0
 30
0.0
  9
$EXTMIN
 10
36.79770661004567
 20
0.0000038144634118
 30
0.0
  9
$EXTMAX
 10
330.1845496230141
 20
406.0285596540835
 30
6.483974233579615E+99
  9
$LIMMIN
 10
0.0
 20
0.0
  9
$LIMMAX
 10
420.0
 20
297.0
  9
$ORTHOMODE
 70
     0
  9
$REGENMODE
 70
     1
  9
$FILLMODE
 70
     1
  9
$QTEXTMODE
 70
     0
  9
$MIRRTEXT
 70
     1
  9
$DRAGMODE
 70
     2
  9
$LTSCALE
 40
1.0
  9
$OSMODE
 70
    55
  9
$ATTMODE
 70
     1
  9
$TEXTSIZE
 40
2.5
  9
$TRACEWID
 40
1.0
  9
$TEXTSTYLE
  7
STANDARD
  9
$CLAYER
  8
0
  9
$CELTYPE
  6
BYLAYER
  9
$CECOLOR
 62
   256
  9
$CELTSCALE
 40
1.0
  9
$DELOBJ
 70
     1
  9
$DISPSILH
 70
     0
  9
$DIMSCALE
 40
1.0
  9
$DIMASZ
 40
2.5
  9
$DIMEXO
 40
0.625
  9
$DIMDLI
 40
3.75
  9
$DIMRND
 40
0.0
  9
$DIMDLE
 40
0.0
  9
$DIMEXE
 40
1.25
  9
$DIMTP
 40
0.0
  9
$DIMTM
 40
0.0
  9
$DIMTXT
 40
2.5
  9
$DIMCEN
 40
2.5
  9
$DIMTSZ
 40
0.0
  9
$DIMTOL
 70
     0
  9
$DIMLIM
 70
     0
  9
$DIMTIH
 70
     0
  9
$DIMTOH
 70
     0
  9
$DIMSE1
 70
     0
  9
$DIMSE2
 70
     0
  9
$DIMTAD
 70
     1
  9
$DIMZIN
 70
     8
  9
$DIMBLK
  1

  9
$DIMASO
 70
     1
  9
$DIMSHO
 70
     1
  9
$DIMPOST
  1

  9
$DIMAPOST
  1

  9
$DIMALT
 70
     0
  9
$DIMALTD
 70
     3
  9
$DIMALTF
 40
0.03937007874016
  9
$DIMLFAC
 40
1.0
  9
$DIMTOFL
 70
     1
  9
$DIMTVP
 40
0.0
  9
$DIMTIX
 70
     0
  9
$DIMSOXD
 70
     0
  9
$DIMSAH
 70
     0
  9
$DIMBLK1
  1

  9
$DIMBLK2
  1

  9
$DIMSTYLE
  2
ISO-25
  9
$DIMCLRD
 70
     0
  9
$DIMCLRE
 70
     0
  9
$DIMCLRT
 70
     0
  9
$DIMTFAC
 40
1.0
  9
$DIMGAP
 40
0.625
  9
$DIMJUST
 70
     0
  9
$DIMSD1
 70
     0
  9
$DIMSD2
 70
     0
  9
$DIMTOLJ
 70
     0
  9
$DIMTZIN
 70
     8
  9
$DIMALTZ
 70
     0
  9
$DIMALTTZ
 70
     0
  9
$DIMFIT
 70
     3
  9
$DIMUPT
 70
     0
  9
$DIMUNIT
 70
     2
  9
$DIMDEC
 70
     2
  9
$DIMTDEC
 70
     2
  9
$DIMALTU
 70
     2
  9
$DIMALTTD
 70
     3
  9
$DIMTXSTY
  7
STANDARD
  9
$DIMAUNIT
 70
     0
  9
$LUNITS
 70
     2
  9
$LUPREC
 70
     4
  9
$SKETCHINC
 40
1.0
  9
$FILLETRAD
 40
10.0
  9
$AUNITS
 70
     0
  9
$AUPREC
 70
     0
  9
$MENU
  1
.
  9
$ELEVATION
 40
0.0
  9
$PELEVATION
 40
0.0
  9
$THICKNESS
 40
0.0
  9
$LIMCHECK
 70
     0
  9
$BLIPMODE
 70
     0
  9
$CHAMFERA
 40
10.0
  9
$CHAMFERB
 40
10.0
  9
$CHAMFERC
 40
20.0
  9
$CHAMFERD
 40
0.0
  9
$SKPOLY
 70
     0
  9
$TDCREATE
 40
2455874.710634120
  9
$TDUPDATE
 40
2456013.753297245
  9
$TDINDWG
 40
0.0070599884
  9
$TDUSRTIMER
 40
0.0070599884
  9
$USRTIMER
 70
     1
  9
$ANGBASE
 50
0.0
  9
$ANGDIR
 70
     0
  9
$PDMODE
 70
     0
  9
$PDSIZE
 40
0.0
  9
$PLINEWID
 40
0.0
  9
$COORDS
 70
     1
  9
$SPLFRAME
 70
     0
  9
$SPLINETYPE
 70
     6
  9
$SPLINESEGS
 70
     8
  9
$ATTDIA
 70
     0
  9
$ATTREQ
 70
     1
  9
$HANDLING
 70
 22529
  9
$HANDSEED
  5
BDC
  9
$SURFTAB1
 70
     6
  9
$SURFTAB2
 70
     6
  9
$SURFTYPE
 70
     6
  9
$SURFU
 70
     6
  9
$SURFV
 70
     6
  9
$UCSNAME
  2

  9
$UCSORG
 10
0.0
 20
0.0
 30
0.0
  9
$UCSXDIR
 10
1.0
 20
0.0
 30
0.0
  9
$UCSYDIR
 10
0.0
 20
1.0
 30
0.0
  9
$PUCSNAME
  2

  9
$PUCSORG
 10
0.0
 20
0.0
 30
0.0
  9
$PUCSXDIR
 10
1.0
 20
0.0
 30
0.0
  9
$PUCSYDIR
 10
0.0
 20
1.0
 30
0.0
  9
$USERI1
 70
     0
  9
$USERI2
 70
     0
  9
$USERI3
 70
     0
  9
$USERI4
 70
     0
  9
$USERI5
 70
     0
  9
$USERR1
 40
0.0
  9
$USERR2
 40
0.0
  9
$USERR3
 40
0.0
  9
$USERR4
 40
0.0
  9
$USERR5
 40
0.0
  9
$WORLDVIEW
 70
     1
  9
$SHADEDGE
 70
     3
  9
$SHADEDIF
 70
    70
  9
$TILEMODE
 70
     1
  9
$MAXACTVP
 70
    64
  9
$PINSBASE
 10
0.0
 20
0.0
 30
0.0
  9
$PLIMCHECK
 70
     0
  9
$PEXTMIN
 10
1.000000000000000E+20
 20
1.000000000000000E+20
 30
1.000000000000000E+20
  9
$PEXTMAX
 10
-1.000000000000000E+20
 20
-1.000000000000000E+20
 30
-1.000000000000000E+20
  9
$PLIMMIN
 10
0.0
 20
0.0
  9
$PLIMMAX
 10
420.0
 20
297.0
  9
$UNITMODE
 70
     0
  9
$VISRETAIN
 70
     1
  9
$PLINEGEN
 70
     0
  9
$PSLTSCALE
 70
     1
  9
$TREEDEPTH
 70
  3020
  9
$PICKSTYLE
 70
     1
  9
$CMLSTYLE
  2
STANDARD
  9
$CMLJUST
 70
     0
  9
$CMLSCALE
 40
20.0
  9
$PROXYGRAPHICS
 70
     1
  9
$MEASUREMENT
 70
     1
  0
ENDSEC
  0
SECTION
  2
CLASSES
  0
CLASS
  1
ACDBDICTIONARYWDFLT
  2
AcDbDictionaryWithDefault
  3
AutoCAD 2000
 90
        0
280
     0
281
     0
  0
CLASS
  1
ACDBPLACEHOLDER
  2
AcDbPlaceHolder
  3
AutoCAD 2000
 90
        0
280
     0
281
     0
  0
CLASS
  1
LAYOUT
  2
AcDbLayout
  3
AutoCAD 2000
 90
        0
280
     0
281
     0
  0
CLASS
  1
DICTIONARYVAR
  2
AcDbDictionaryVar
  3
AutoCAD 2000
 90
        0
280
     0
281
     0
  0
CLASS
  1
LONG_TRANSACTION
  2
AcDbLongTransaction
  3
AutoCAD 2000
 90
        0
280
     0
281
     0
  0
CLASS
  1
LWPOLYLINE
  2
AcDbPolyline
  3
AutoCAD 2000
 90
        0
280
     0
281
     1
  0
CLASS
  1
HATCH
  2
AcDbHatch
  3
AutoCAD 2000
 90
        0
280
     0
281
     1
  0
CLASS
  1
XRECORD
  2
AcDbXrecord
  3
AutoCAD 2000
 90
        0
280
     0
281
     0
  0
CLASS
  1
LONG_TRANSACTION
  2
AcDbLongTransaction
  3
AutoCAD 2000
 90
        0
280
     0
281
     0
  0
CLASS
  1
LWPOLYLINE
  2
AcDbPolyline
  3
AutoCAD 2000
 90
        0
280
     0
281
     1
  0
CLASS
  1
HATCH
  2
AcDbHatch
  3
AutoCAD 2000
 90
        0
280
     0
281
     1
  0
CLASS
  1
XRECORD
  2
AcDbXrecord
  3
AutoCAD 2000
 90
        0
280
     0
281
     0
  0
CLASS
  1
LONG_TRANSACTION
  2
AcDbLongTransaction
  3
AutoCAD 2000
 90
        0
280
     0
281
     0
  0
CLASS
  1
LWPOLYLINE
  2
AcDbPolyline
  3
AutoCAD 2000
 90
        0
280
     0
281
     1
  0
CLASS
  1
HATCH
  2
AcDbHatch
  3
AutoCAD 2000
 90
        0
280
     0
281
     1
  0
CLASS
  1
XRECORD
  2
AcDbXrecord
  3
AutoCAD 2000
 90
        0
280
     0
281
     0
  0
CLASS
  1
LONG_TRANSACTION
  2
AcDbLongTransaction
  3
AutoCAD 2000
 90
        0
280
     0
281
     0
  0
CLASS
  1
LWPOLYLINE
  2
AcDbPolyline
  3
AutoCAD 2000
 90
        0
280
     0
281
     1
  0
CLASS
  1
HATCH
  2
AcDbHatch
  3
AutoCAD 2000
 90
        0
280
     0
281
     1
  0
CLASS
  1
XRECORD
  2
AcDbXrecord
  3
AutoCAD 2000
 90
        0
280
     0
281
     0
  0
CLASS
  1
LONG_TRANSACTION
  2
AcDbLongTransaction
  3
AutoCAD 2000
 90
        0
280
     0
281
     0
  0
CLASS
  1
LWPOLYLINE
  2
AcDbPolyline
  3
AutoCAD 2000
 90
        0
280
     0
281
     1
  0
CLASS
  1
HATCH
  2
AcDbHatch
  3
AutoCAD 2000
 90
        0
280
     0
281
     1
  0
CLASS
  1
XRECORD
  2
AcDbXrecord
  3
AutoCAD 2000
 90
        0
280
     0
281
     0
  0
CLASS
  1
LONG_TRANSACTION
  2
AcDbLongTransaction
  3
AutoCAD 2000
 90
        0
280
     0
281
     0
  0
CLASS
  1
LWPOLYLINE
  2
AcDbPolyline
  3
AutoCAD 2000
 90
        0
280
     0
281
     1
  0
CLASS
  1
HATCH
  2
AcDbHatch
  3
AutoCAD 2000
 90
        0
280
     0
281
     1
  0
CLASS
  1
XRECORD
  2
AcDbXrecord
  3
AutoCAD 2000
 90
        0
280
     0
281
     0
  0
ENDSEC
  0
SECTION
  2
TABLES
  0
TABLE
  2
VPORT
  5
8
330
0
100
AcDbSymbolTable
 70
     2
  0
VPORT
  5
BB9
330
8
100
AcDbSymbolTableRecord
100
AcDbViewportTableRecord
  2
*ACTIVE
 70
     0
 10
0.0
 20
0.0
 11
1.0
 21
1.0
 12
178.82112046
 22
209.2551643643528
 13
0.0
 23
0.0
 14
10.0
 24
10.0
 15
10.0
 25
10.0
 16
0.0
 26
0.0
 36
1.0
 17
0.0
 27
0.0
 37
0.0
 40
421.5577263505059
 41
1.46415552855407
 42
50.0
 43
0.0
 44
0.0
 50
0.0
 51
0.0
 71
     0
 72
   100
 73
     1
 74
     3
 75
     0
 76
     0
 77
     0
 78
     0
  0
ENDTAB
  0
TABLE
  2
LTYPE
  5
5
330
0
100
AcDbSymbolTable
 70
     3
  0
LTYPE
  5
14
330
5
100
AcDbSymbolTableRecord
100
AcDbLinetypeTableRecord
  2
BYBLOCK
 70
     0
  3

 72
    65
 73
     0
 40
0.0
  0
LTYPE
  5
15
330
5
100
AcDbSymbolTableRecord
100
AcDbLinetypeTableRecord
  2
BYLAYER
 70
     0
  3

 72
    65
 73
     0
 40
0.0
  0
LTYPE
  5
16
330
5
100
AcDbSymbolTableRecord
100
AcDbLinetypeTableRecord
  2
CONTINUOUS
 70
     0
  3
Solid line
 72
    65
 73
     0
 40
0.0
  0
LTYPE
  5
3F0
330
5
100
AcDbSymbolTableRecord
100
AcDbLinetypeTableRecord
  2
CENTER
 70
     0
  3
__ . __ . __ . __ . __ . __ . __ . __ . __ . __
 72
    65
 73
     4
 40
1.0
 49
0.5
 74
     0
 49
-0.25
 74
     0
 49
0.0
 74
     0
 49
-0.25
 74
     0
  0
LTYPE
  5
9A1
330
5
100
AcDbSymbolTableRecord
100
AcDbLinetypeTableRecord
  2
DASHDOT
 70
     0
  3
__ . __ . __ . __ . __ . __ . __ . __ . __ . __
 72
    65
 73
     4
 40
7.5
 49
6.0
 74
     0
 49
-0.5
 74
     0
 49
0.5
 74
     0
 49
-0.5
 74
     0
  0
ENDTAB
  0
TABLE
  2
LAYER
  5
2
102
{ACAD_XDICTIONARY
360
3F6
102
}
330
0
100
AcDbSymbolTable
 70
     4
  0
LAYER
  5
10
330
2
100
AcDbSymbolTableRecord
100
AcDbLayerTableRecord
  2
0
 70
     0
 62
     7
  6
CONTINUOUS
  0
LAYER
  5
3F2
330
2
100
AcDbSymbolTableRecord
100
AcDbLayerTableRecord
  2
DEFPOINTS
 70
     0
 62
    -7
  6
CONTINUOUS
  0
LAYER
  5
3F3
330
2
100
AcDbSymbolTableRecord
100
AcDbLayerTableRecord
  2
1
 70
     0
 62
     3
  6
CONTINUOUS
  0
LAYER
  5
9A2
330
2
100
AcDbSymbolTableRecord
100
AcDbLayerTableRecord
  2
2_カバ_
 70
     0
 62
     7
  6
CONTINUOUS
  0
ENDTAB
  0
TABLE
  2
STYLE
  5
3
330
0
100
AcDbSymbolTable
 70
     1
  0
STYLE
  5
11
330
3
100
AcDbSymbolTableRecord
100
AcDbTextStyleTableRecord
  2
STANDARD
 70
     0
 40
0.0
 41
1.0
 50
0.0
 71
     0
 42
2.5
  3
txt
  4

  0
ENDTAB
  0
TABLE
  2
VIEW
  5
6
330
0
100
AcDbSymbolTable
 70
     0
  0
ENDTAB
  0
TABLE
  2
UCS
  5
7
330
0
100
AcDbSymbolTable
 70
     0
  0
ENDTAB
  0
TABLE
  2
APPID
  5
9
330
0
100
AcDbSymbolTable
 70
     1
  0
APPID
  5
12
330
9
100
AcDbSymbolTableRecord
100
AcDbRegAppTableRecord
  2
ACAD
 70
     0
  0
ENDTAB
  0
TABLE
  2
DIMSTYLE
  5
A
330
0
100
AcDbSymbolTable
 70
     2
  0
DIMSTYLE
105
27
330
A
100
AcDbSymbolTableRecord
100
AcDbDimStyleTableRecord
  2
ISO-25
 70
     0
  3

  4

  5

  6

  7

 40
1.0
 41
2.5
 42
0.625
 43
3.75
 44
1.25
 45
0.0
 46
0.0
 47
0.0
 48
0.0
140
2.5
141
2.5
142
0.0
143
0.03937007874016
144
1.0
145
0.0
146
1.0
147
0.625
 71
     0
 72
     0
 73
     0
 74
     0
 75
     0
 76
     0
 77
     1
 78
     8
170
     0
171
     3
172
     1
173
     0
174
     0
175
     0
176
     0
177
     0
178
     0
270
     2
271
     2
272
     2
273
     2
274
     3
340
11
275
     0
280
     0
281
     0
282
     0
283
     0
284
     8
285
     0
286
     0
287
     3
288
     0
  0
DIMSTYLE
105
3F5
330
A
100
AcDbSymbolTableRecord
100
AcDbDimStyleTableRecord
  2
STANDARD
 70
     0
  3

  4

  5

  6

  7

 40
1.0
 41
2.5
 42
0.625
 43
3.75
 44
1.25
 45
0.0
 46
0.0
 47
0.0
 48
0.0
140
2.5
141
2.5
142
0.0
143
0.0394
144
1.0
145
0.0
146
1.0
147
0.625
 71
     0
 72
     0
 73
     0
 74
     0
 75
     0
 76
     0
 77
     1
 78
     8
170
     0
171
     4
172
     1
173
     0
174
     0
175
     0
176
     0
177
     0
178
     0
270
     2
271
     4
272
     4
273
     8
274
     4
340
11
275
     0
280
     0
281
     0
282
     0
283
     1
284
     0
285
     0
286
     0
287
     3
288
     0
  0
ENDTAB
  0
TABLE
  2
BLOCK_RECORD
  5
1
330
0
100
AcDbSymbolTable
 70
     2
  0
BLOCK_RECORD
  5
1F
102
{ACAD_XDICTIONARY
360
834
102
}
330
1
100
AcDbSymbolTableRecord
100
AcDbBlockTableRecord
  2
*MODEL_SPACE
  0
BLOCK_RECORD
  5
1B
102
{ACAD_XDICTIONARY
360
832
102
}
330
1
100
AcDbSymbolTableRecord
100
AcDbBlockTableRecord
  2
*PAPER_SPACE
  0
BLOCK_RECORD
  5
2D6
330
1
100
AcDbSymbolTableRecord
100
AcDbBlockTableRecord
  2
A$C5CFD6E8C
  0
BLOCK_RECORD
  5
2DD
330
1
100
AcDbSymbolTableRecord
100
AcDbBlockTableRecord
  2
A$C3E87127B
  0
ENDTAB
  0
ENDSEC
  0
SECTION
  2
BLOCKS
  0
BLOCK
  5
20
330
1F
100
AcDbEntity
  8
0
100
AcDbBlockBegin
  2
*MODEL_SPACE
 70
     0
 10
0.0
 20
0.0
 30
0.0
  3
*MODEL_SPACE
  1

  0
ENDBLK
  5
21
330
1F
100
AcDbEntity
  8
0
100
AcDbBlockEnd
  0
BLOCK
  5
1C
330
1B
100
AcDbEntity
 67
     1
  8
0
100
AcDbBlockBegin
  2
*PAPER_SPACE
 70
     0
 10
0.0
 20
0.0
 30
0.0
  3
*PAPER_SPACE
  1

  0
ENDBLK
  5
1D
330
1B
100
AcDbEntity
 67
     1
  8
0
100
AcDbBlockEnd
  0
BLOCK
  5
2DB
330
2D6
100
AcDbEntity
  8
0
 48
5.0
100
AcDbBlockBegin
  2
A$C5CFD6E8C
 70
     0
 10
0.0
 20
0.0
 30
0.0
  3
A$C5CFD6E8C
  1

  0
LINE
  5
2D7
330
2D6
100
AcDbEntity
  8
0
 62
     0
100
AcDbLine
 10
1.599997211020308
 20
2.70000247964549
 30
0.0
 11
1.599997211020308
 21
0.0000024796447633
 31
0.0
  0
LINE
  5
2D8
330
2D6
100
AcDbEntity
  8
0
 62
     0
100
AcDbLine
 10
-0.0000027889800549
 20
0.0000024796447633
 30
0.0
 11
-0.0000027889800549
 21
2.70000247964549
 31
0.0
  0
LINE
  5
2D9
330
2D6
100
AcDbEntity
  8
0
  6
CENTER
 62
     0
100
AcDbLine
 10
1.599997211020308
 20
2.70000247964549
 30
0.0
 11
-0.0000027889800549
 21
2.70000247964549
 31
0.0
  0
LINE
  5
2DA
330
2D6
100
AcDbEntity
  8
0
  6
CENTER
 62
     0
100
AcDbLine
 10
1.599997211020308
 20
0.0000024796447633
 30
0.0
 11
-0.0000027889800549
 21
0.0000024796447633
 31
0.0
  0
ENDBLK
  5
2DC
330
2D6
100
AcDbEntity
  8
0
 48
5.0
100
AcDbBlockEnd
  0
BLOCK
  5
3EE
330
2DD
100
AcDbEntity
  8
0
100
AcDbBlockBegin
  2
A$C3E87127B
 70
     0
 10
0.0
 20
0.0
 30
0.0
  3
A$C3E87127B
  1

  0
LINE
  5
2DE
330
2DD
100
AcDbEntity
  8
0
  6
BYBLOCK
 62
     0
100
AcDbLine
 10
2.100148625096608
 20
-51.67486469529968
 30
0.0
 11
17.0000743125488
 21
-51.67486469529785
 31
0.0
  0
LINE
  5
2DF
330
2DD
100
AcDbEntity
  8
0
  6
BYBLOCK
 62
     0
100
AcDbLine
 10
17.00007431255062
 20
-84.47486829529728
 30
0.0
 11
17.0000743125488
 21
-51.67486469529785
 31
0.0
  0
LINE
  5
2E0
330
2DD
100
AcDbEntity
  8
0
  6
BYBLOCK
 62
     0
100
AcDbLine
 10
2.100148625096608
 20
-84.47486829529728
 30
0.0
 11
17.00007431255062
 21
-84.47486829529728
 31
0.0
  0
INSERT
  5
2E1
330
2DD
100
AcDbEntity
  8
0
  6
BYBLOCK
 62
    40
 48
5.0
100
AcDbBlockReference
  2
A$C5CFD6E8C
 10
18.5000027889796
 20
-44.22500174595461
 30
0.0
  0
INSERT
  5
2E2
330
2DD
100
AcDbEntity
  8
0
  6
BYBLOCK
 62
    40
 48
5.0
100
AcDbBlockReference
  2
A$C5CFD6E8C
 10
18.5000027889796
 20
-49.7250017459546
 30
0.0
  0
LINE
  5
2E3
330
2DD
100
AcDbEntity
  8
0
 62
     0
 48
5.0
100
AcDbLine
 10
2.100148625096608
 20
-51.67486469529968
 30
0.0
 11
2.100148625096608
 21
-84.47486829529728
 31
0.0
  0
LINE
  5
2E4
330
2DD
100
AcDbEntity
  8
0
 62
     0
100
AcDbLine
 10
7.426838695454534
 20
-78.83999999999947
 30
0.0
 11
9.036607142857519
 21
-78.83999999999947
 31
0.0
  0
LINE
  5
2E5
330
2DD
100
AcDbEntity
  8
0
 62
     0
100
AcDbLine
 10
9.036607142857519
 20
-72.54999999999904
 30
0.0
 11
7.426838695454534
 21
-72.54999999999904
 31
0.0
  0
LINE
  5
2E6
330
2DD
100
AcDbEntity
  8
0
 62
     0
100
AcDbLine
 10
7.426838695454534
 20
-63.59999999999923
 30
0.0
 11
9.036607142857519
 21
-63.59999999999923
 31
0.0
  0
LINE
  5
2E7
330
2DD
100
AcDbEntity
  8
0
 62
     0
100
AcDbLine
 10
7.426838695454534
 20
-63.59999999999923
 30
0.0
 11
7.900000000000542
 21
-63.96999999999911
 31
0.0
  0
LINE
  5
2E8
330
2DD
100
AcDbEntity
  8
0
 62
     0
100
AcDbLine
 10
9.036607142857519
 20
-62.38999999999919
 30
0.0
 11
7.426838695454534
 21
-62.38999999999919
 31
0.0
  0
LINE
  5
2E9
330
2DD
100
AcDbEntity
  8
0
 62
     0
100
AcDbLine
 10
7.426838695454534
 20
-58.51999999999929
 30
0.0
 11
7.900000000000542
 21
-58.88999999999919
 31
0.0
  0
LINE
  5
2EA
330
2DD
100
AcDbEntity
  8
0
 62
     0
100
AcDbLine
 10
8.33000000000038
 20
-54.37499999999932
 30
0.0
 11
7.900000000000542
 21
-54.37499999999932
 31
0.0
  0
LINE
  5
2EB
330
2DD
100
AcDbEntity
  8
0
 62
     0
100
AcDbLine
 10
7.900000000000542
 20
-56.93999999999937
 30
0.0
 11
7.900000000000542
 21
-54.37499999999932
 31
0.0
  0
LINE
  5
2EC
330
2DD
100
AcDbEntity
  8
0
 62
     0
100
AcDbLine
 10
16.00000000000043
 20
-66.57499999999959
 30
0.0
 11
16.00000000000043
 21
-67.37499999999932
 31
0.0
  0
LINE
  5
2ED
330
2DD
100
AcDbEntity
  8
0
 62
     0
100
AcDbLine
 10
16.00000000000043
 20
-67.37499999999932
 30
0.0
 11
16.00000000000043
 21
-68.77499999999939
 31
0.0
  0
LINE
  5
2EE
330
2DD
100
AcDbEntity
  8
0
 62
     0
100
AcDbLine
 10
16.00000000000043
 20
-76.73499999999943
 30
0.0
 11
16.00000000000043
 21
-77.53499999999963
 31
0.0
  0
LINE
  5
2EF
330
2DD
100
AcDbEntity
  8
0
 62
     0
100
AcDbLine
 10
16.00000000000043
 20
-77.53499999999963
 30
0.0
 11
16.00000000000043
 21
-78.93499999999926
 31
0.0
  0
LINE
  5
2F0
330
2DD
100
AcDbEntity
  8
0
 62
     0
100
AcDbLine
 10
16.00000000000043
 20
-79.73499999999943
 30
0.0
 11
16.00000000000043
 21
-81.77499999999941
 31
0.0
  0
LINE
  5
2F1
330
2DD
100
AcDbEntity
  8
0
 62
     0
100
AcDbLine
 10
16.00000000000043
 20
-78.93499999999926
 30
0.0
 11
16.00000000000043
 21
-79.73499999999943
 31
0.0
  0
LINE
  5
2F2
330
2DD
100
AcDbEntity
  8
0
 62
     0
100
AcDbLine
 10
16.00000000000043
 20
-72.4549999999997
 30
0.0
 11
16.00000000000043
 21
-73.85499999999933
 31
0.0
  0
LINE
  5
2F3
330
2DD
100
AcDbEntity
  8
0
 62
     0
100
AcDbLine
 10
16.00000000000043
 20
-71.65499999999951
 30
0.0
 11
16.00000000000043
 21
-72.4549999999997
 31
0.0
  0
LINE
  5
2F4
330
2DD
100
AcDbEntity
  8
0
 62
     0
100
AcDbLine
 10
16.00000000000043
 20
-69.57499999999959
 30
0.0
 11
16.00000000000043
 21
-71.65499999999951
 31
0.0
  0
LINE
  5
2F5
330
2DD
100
AcDbEntity
  8
0
 62
     0
100
AcDbLine
 10
16.00000000000043
 20
-68.77499999999939
 30
0.0
 11
16.00000000000043
 21
-69.57499999999959
 31
0.0
  0
LINE
  5
2F6
330
2DD
100
AcDbEntity
  8
0
 62
     0
100
AcDbLine
 10
16.00000000000043
 20
-74.65499999999952
 30
0.0
 11
16.00000000000043
 21
-76.73499999999943
 31
0.0
  0
LINE
  5
2F7
330
2DD
100
AcDbEntity
  8
0
 62
     0
100
AcDbLine
 10
16.00000000000043
 20
-73.85499999999933
 30
0.0
 11
16.00000000000043
 21
-74.65499999999952
 31
0.0
  0
LINE
  5
2F8
330
2DD
100
AcDbEntity
  8
0
 62
     0
100
AcDbLine
 10
16.00000000000043
 20
-56.41499999999928
 30
0.0
 11
16.00000000000043
 21
-57.21499999999945
 31
0.0
  0
LINE
  5
2F9
330
2DD
100
AcDbEntity
  8
0
 62
     0
100
AcDbLine
 10
16.00000000000043
 20
-54.37499999999932
 30
0.0
 11
16.00000000000043
 21
-56.41499999999928
 31
0.0
  0
LINE
  5
2FA
330
2DD
100
AcDbEntity
  8
0
 62
     0
100
AcDbLine
 10
16.00000000000043
 20
-61.49499999999965
 30
0.0
 11
16.00000000000043
 21
-62.29499999999939
 31
0.0
  0
LINE
  5
2FB
330
2DD
100
AcDbEntity
  8
0
 62
     0
100
AcDbLine
 10
16.00000000000043
 20
-57.21499999999945
 30
0.0
 11
16.00000000000043
 21
-58.61499999999954
 31
0.0
  0
LINE
  5
2FC
330
2DD
100
AcDbEntity
  8
0
 62
     0
100
AcDbLine
 10
16.00000000000043
 20
-59.41499999999928
 30
0.0
 11
16.00000000000043
 21
-61.49499999999965
 31
0.0
  0
LINE
  5
2FD
330
2DD
100
AcDbEntity
  8
0
 62
     0
100
AcDbLine
 10
16.00000000000043
 20
-58.61499999999954
 30
0.0
 11
16.00000000000043
 21
-59.41499999999928
 31
0.0
  0
LINE
  5
2FE
330
2DD
100
AcDbEntity
  8
0
 62
     0
100
AcDbLine
 10
16.00000000000043
 20
-62.29499999999939
 30
0.0
 11
16.00000000000043
 21
-63.69499999999947
 31
0.0
  0
LINE
  5
2FF
330
2DD
100
AcDbEntity
  8
0
 62
     0
100
AcDbLine
 10
16.00000000000043
 20
-64.49499999999966
 30
0.0
 11
16.00000000000043
 21
-66.57499999999959
 31
0.0
  0
LINE
  5
300
330
2DD
100
AcDbEntity
  8
0
 62
     0
100
AcDbLine
 10
16.00000000000043
 20
-63.69499999999947
 30
0.0
 11
16.00000000000043
 21
-64.49499999999966
 31
0.0
  0
LINE
  5
301
330
2DD
100
AcDbEntity
  8
0
 62
     0
100
AcDbLine
 10
14.33000000000038
 20
-60.95539219456235
 30
0.0
 11
14.33000000000038
 21
-59.95460780543613
 31
0.0
  0
LINE
  5
302
330
2DD
100
AcDbEntity
  8
0
 62
     0
100
AcDbLine
 10
14.63000000000056
 20
-60.84093407714568
 30
0.0
 11
14.63000000000056
 21
-60.06906592285282
 31
0.0
  0
LINE
  5
303
330
2DD
100
AcDbEntity
  8
0
 62
     0
100
AcDbLine
 10
8.725000000000362
 20
-79.20999999999934
 30
0.0
 11
7.900000000000542
 21
-79.20999999999934
 31
0.0
  0
LINE
  5
304
330
2DD
100
AcDbEntity
  8
0
 62
     0
100
AcDbLine
 10
7.900000000000542
 20
-72.17999999999915
 30
0.0
 11
8.725000000000362
 21
-72.17999999999915
 31
0.0
  0
LINE
  5
305
330
2DD
100
AcDbEntity
  8
0
 62
     0
100
AcDbLine
 10
7.900000000000542
 20
-63.96999999999911
 30
0.0
 11
8.725000000000362
 21
-63.96999999999911
 31
0.0
  0
LINE
  5
306
330
2DD
100
AcDbEntity
  8
0
 62
     0
100
AcDbLine
 10
7.900000000000542
 20
-62.01999999999928
 30
0.0
 11
8.725000000000362
 21
-62.01999999999928
 31
0.0
  0
LINE
  5
307
330
2DD
100
AcDbEntity
  8
0
 62
     0
100
AcDbLine
 10
7.900000000000542
 20
-72.17999999999915
 30
0.0
 11
7.900000000000542
 21
-69.04999999999905
 31
0.0
  0
LINE
  5
308
330
2DD
100
AcDbEntity
  8
0
 62
     0
100
AcDbLine
 10
9.036607142857519
 20
-68.71901118078108
 30
0.0
 11
8.725000000000362
 21
-69.04999999999905
 31
0.0
  0
LINE
  5
309
330
2DD
100
AcDbEntity
  8
0
 62
     0
100
AcDbLine
 10
7.900000000000542
 20
-69.04999999999905
 30
0.0
 11
8.725000000000362
 21
-69.04999999999905
 31
0.0
  0
LINE
  5
30A
330
2DD
100
AcDbEntity
  8
0
 62
     0
100
AcDbLine
 10
7.900000000000542
 20
-77.25999999999908
 30
0.0
 11
7.900000000000542
 21
-74.12999999999944
 31
0.0
  0
LINE
  5
30B
330
2DD
100
AcDbEntity
  8
0
 62
     0
100
AcDbLine
 10
7.900000000000542
 20
-74.12999999999944
 30
0.0
 11
8.725000000000362
 21
-74.12999999999944
 31
0.0
  0
LINE
  5
30C
330
2DD
100
AcDbEntity
  8
0
 62
     0
100
AcDbLine
 10
7.900000000000542
 20
-77.25999999999908
 30
0.0
 11
8.725000000000362
 21
-77.25999999999908
 31
0.0
  0
LINE
  5
30D
330
2DD
100
AcDbEntity
  8
0
 62
     0
100
AcDbLine
 10
9.036607142857519
 20
-63.63901118078114
 30
0.0
 11
8.725000000000362
 21
-63.96999999999911
 31
0.0
  0
LINE
  5
30E
330
2DD
100
AcDbEntity
  8
0
 62
     0
100
AcDbLine
 10
9.036607142857519
 20
-78.87901118078139
 30
0.0
 11
8.725000000000362
 21
-79.20999999999934
 31
0.0
  0
LINE
  5
30F
330
2DD
100
AcDbEntity
  8
0
 62
     0
100
AcDbLine
 10
8.725000000000362
 20
-72.17999999999915
 30
0.0
 11
9.036607142857519
 21
-72.51098881921713
 31
0.0
  0
LINE
  5
310
330
2DD
100
AcDbEntity
  8
0
 62
     0
100
AcDbLine
 10
8.725000000000362
 20
-79.20999999999934
 30
0.0
 11
8.725000000000362
 21
-80.77499999999941
 31
0.0
  0
LINE
  5
311
330
2DD
100
AcDbEntity
  8
0
 62
     0
100
AcDbLine
 10
14.33000000000038
 20
-80.77499999999941
 30
0.0
 11
14.63000000000056
 21
-80.77499999999941
 31
0.0
  0
LINE
  5
312
330
2DD
100
AcDbEntity
  8
0
 62
     0
100
AcDbLine
 10
11.8979491924324
 20
-63.22705080756827
 30
0.0
 11
12.36205080757008
 21
-63.22705080756827
 31
0.0
  0
LINE
  5
313
330
2DD
100
AcDbEntity
  8
0
 62
     0
100
AcDbLine
 10
11.63000000000101
 20
-63.49499999999967
 30
0.0
 11
11.8979491924324
 21
-63.22705080756827
 31
0.0
  0
LINE
  5
314
330
2DD
100
AcDbEntity
  8
0
 62
     0
100
AcDbLine
 10
12.63000000000056
 20
-63.49499999999967
 30
0.0
 11
11.63000000000101
 21
-63.49499999999967
 31
0.0
  0
LINE
  5
315
330
2DD
100
AcDbEntity
  8
0
 62
     0
100
AcDbLine
 10
12.36205080757008
 20
-63.22705080756827
 30
0.0
 11
12.63000000000056
 21
-63.49499999999967
 31
0.0
  0
LINE
  5
316
330
2DD
100
AcDbEntity
  8
0
 62
     0
100
AcDbLine
 10
12.63000000000102
 20
-62.49499999999965
 30
0.0
 11
12.63000000000056
 21
-63.49499999999967
 31
0.0
  0
LINE
  5
317
330
2DD
100
AcDbEntity
  8
0
 62
     0
100
AcDbLine
 10
11.63000000000101
 20
-63.49499999999967
 30
0.0
 11
11.63000000000101
 21
-62.49499999999965
 31
0.0
  0
LINE
  5
318
330
2DD
100
AcDbEntity
  8
0
 62
     0
100
AcDbLine
 10
11.63000000000101
 20
-62.49499999999965
 30
0.0
 11
12.63000000000102
 21
-62.49499999999965
 31
0.0
  0
LINE
  5
319
330
2DD
100
AcDbEntity
  8
0
 62
     0
100
AcDbLine
 10
11.8979491924324
 20
-62.7629491924306
 30
0.0
 11
11.63000000000101
 21
-62.49499999999965
 31
0.0
  0
LINE
  5
31A
330
2DD
100
AcDbEntity
  8
0
 62
     0
100
AcDbLine
 10
11.8979491924324
 20
-62.7629491924306
 30
0.0
 11
11.8979491924324
 21
-63.22705080756827
 31
0.0
  0
LINE
  5
31B
330
2DD
100
AcDbEntity
  8
0
 62
     0
100
AcDbLine
 10
12.36205080757008
 20
-63.22705080756827
 30
0.0
 11
12.36205080757008
 21
-62.7629491924306
 31
0.0
  0
LINE
  5
31C
330
2DD
100
AcDbEntity
  8
0
 62
     0
100
AcDbLine
 10
11.8979491924324
 20
-62.7629491924306
 30
0.0
 11
12.36205080757008
 21
-62.7629491924306
 31
0.0
  0
LINE
  5
31D
330
2DD
100
AcDbEntity
  8
0
 62
     0
100
AcDbLine
 10
12.36205080757008
 20
-62.7629491924306
 30
0.0
 11
12.63000000000102
 21
-62.49499999999965
 31
0.0
  0
LINE
  5
31E
330
2DD
100
AcDbEntity
  8
0
 62
     0
100
AcDbLine
 10
12.88000000000056
 20
-70.41403810567612
 30
0.0
 11
12.88000000000056
 21
-70.81596189432253
 31
0.0
  0
LINE
  5
31F
330
2DD
100
AcDbEntity
  8
0
 62
     0
100
AcDbLine
 10
12.88000000000056
 20
-70.81596189432253
 30
0.0
 11
12.13000000000056
 21
-70.61499999999956
 31
0.0
  0
LINE
  5
320
330
2DD
100
AcDbEntity
  8
0
 62
     0
100
AcDbLine
 10
12.13000000000056
 20
-70.61499999999956
 30
0.0
 11
12.88000000000056
 21
-70.41403810567612
 31
0.0
  0
LINE
  5
321
330
2DD
100
AcDbEntity
  8
0
 62
     0
100
AcDbLine
 10
12.88000000000056
 20
-65.33403810567574
 30
0.0
 11
12.88000000000056
 21
-65.7359618943226
 31
0.0
  0
LINE
  5
322
330
2DD
100
AcDbEntity
  8
0
 62
     0
100
AcDbLine
 10
12.88000000000056
 20
-65.7359618943226
 30
0.0
 11
12.13000000000056
 21
-65.53499999999963
 31
0.0
  0
LINE
  5
323
330
2DD
100
AcDbEntity
  8
0
 62
     0
100
AcDbLine
 10
12.13000000000056
 20
-65.53499999999963
 30
0.0
 11
12.88000000000056
 21
-65.33403810567574
 31
0.0
  0
LINE
  5
324
330
2DD
100
AcDbEntity
  8
0
 62
     0
100
AcDbLine
 10
9.036607142857519
 20
-80.77499999999941
 30
0.0
 11
9.036607142857519
 21
-78.87901118078139
 31
0.0
  0
LINE
  5
325
330
2DD
100
AcDbEntity
  8
0
 62
     0
100
AcDbLine
 10
9.036607142857519
 20
-80.77499999999941
 30
0.0
 11
14.33000000000038
 21
-80.77499999999941
 31
0.0
  0
LINE
  5
326
330
2DD
100
AcDbEntity
  8
0
 62
     0
100
AcDbLine
 10
8.725000000000362
 20
-80.77499999999941
 30
0.0
 11
9.036607142857519
 21
-80.77499999999941
 31
0.0
  0
LINE
  5
327
330
2DD
100
AcDbEntity
  8
0
 62
     0
100
AcDbLine
 10
9.036607142857519
 20
-72.51098881921713
 30
0.0
 11
9.036607142857519
 21
-72.54999999999904
 31
0.0
  0
LINE
  5
328
330
2DD
100
AcDbEntity
  8
0
 62
     0
100
AcDbLine
 10
9.036607142857519
 20
-72.54999999999904
 30
0.0
 11
9.036607142857519
 21
-73.75999999999908
 31
0.0
  0
LINE
  5
329
330
2DD
100
AcDbEntity
  8
0
 62
     0
100
AcDbLine
 10
9.036607142857519
 20
-77.59098881921705
 30
0.0
 11
9.036607142857519
 21
-73.79901118078143
 31
0.0
  0
LINE
  5
32A
330
2DD
100
AcDbEntity
  8
0
 62
     0
100
AcDbLine
 10
9.036607142857519
 20
-73.75999999999908
 30
0.0
 11
9.036607142857519
 21
-73.79901118078143
 31
0.0
  0
LINE
  5
32B
330
2DD
100
AcDbEntity
  8
0
 62
     0
100
AcDbLine
 10
9.036607142857519
 20
-77.59098881921705
 30
0.0
 11
9.036607142857519
 21
-77.62999999999944
 31
0.0
  0
LINE
  5
32C
330
2DD
100
AcDbEntity
  8
0
 62
     0
100
AcDbLine
 10
9.036607142857519
 20
-77.62999999999944
 30
0.0
 11
9.036607142857519
 21
-78.83999999999947
 31
0.0
  0
LINE
  5
32D
330
2DD
100
AcDbEntity
  8
0
 62
     0
100
AcDbLine
 10
9.036607142857519
 20
-78.83999999999947
 30
0.0
 11
9.036607142857519
 21
-78.87901118078139
 31
0.0
  0
LINE
  5
32E
330
2DD
100
AcDbEntity
  8
0
 62
     0
100
AcDbLine
 10
12.88000000000056
 20
-75.49403810567605
 30
0.0
 11
12.88000000000056
 21
-75.89596189432246
 31
0.0
  0
LINE
  5
32F
330
2DD
100
AcDbEntity
  8
0
 62
     0
100
AcDbLine
 10
12.88000000000056
 20
-75.89596189432246
 30
0.0
 11
12.13000000000056
 21
-75.69499999999948
 31
0.0
  0
LINE
  5
330
330
2DD
100
AcDbEntity
  8
0
 62
     0
100
AcDbLine
 10
12.13000000000056
 20
-75.69499999999948
 30
0.0
 11
12.88000000000056
 21
-75.49403810567605
 31
0.0
  0
LINE
  5
331
330
2DD
100
AcDbEntity
  8
0
 62
     0
100
AcDbLine
 10
12.63000000000102
 20
-78.73499999999943
 30
0.0
 11
12.63000000000102
 21
-77.73499999999946
 31
0.0
  0
LINE
  5
332
330
2DD
100
AcDbEntity
  8
0
 62
     0
100
AcDbLine
 10
12.36205080757008
 20
-78.46705080756851
 30
0.0
 11
12.63000000000102
 21
-78.73499999999943
 31
0.0
  0
LINE
  5
333
330
2DD
100
AcDbEntity
  8
0
 62
     0
100
AcDbLine
 10
12.36205080757008
 20
-78.00294919243038
 30
0.0
 11
12.63000000000102
 21
-77.73499999999946
 31
0.0
  0
LINE
  5
334
330
2DD
100
AcDbEntity
  8
0
 62
     0
100
AcDbLine
 10
12.36205080757008
 20
-78.00294919243038
 30
0.0
 11
12.36205080757008
 21
-78.46705080756851
 31
0.0
  0
LINE
  5
335
330
2DD
100
AcDbEntity
  8
0
 62
     0
100
AcDbLine
 10
11.63000000000101
 20
-77.73499999999946
 30
0.0
 11
12.63000000000102
 21
-77.73499999999946
 31
0.0
  0
LINE
  5
336
330
2DD
100
AcDbEntity
  8
0
 62
     0
100
AcDbLine
 10
12.36205080757008
 20
-78.46705080756851
 30
0.0
 11
11.8979491924324
 21
-78.46705080756851
 31
0.0
  0
LINE
  5
337
330
2DD
100
AcDbEntity
  8
0
 62
     0
100
AcDbLine
 10
11.63000000000101
 20
-78.73499999999943
 30
0.0
 11
11.63000000000101
 21
-77.73499999999946
 31
0.0
  0
LINE
  5
338
330
2DD
100
AcDbEntity
  8
0
 62
     0
100
AcDbLine
 10
11.63000000000101
 20
-78.73499999999943
 30
0.0
 11
11.8979491924324
 21
-78.46705080756851
 31
0.0
  0
LINE
  5
339
330
2DD
100
AcDbEntity
  8
0
 62
     0
100
AcDbLine
 10
11.8979491924324
 20
-78.00294919243038
 30
0.0
 11
11.8979491924324
 21
-78.46705080756851
 31
0.0
  0
LINE
  5
33A
330
2DD
100
AcDbEntity
  8
0
 62
     0
100
AcDbLine
 10
11.8979491924324
 20
-78.00294919243038
 30
0.0
 11
11.63000000000101
 21
-77.73499999999946
 31
0.0
  0
LINE
  5
33B
330
2DD
100
AcDbEntity
  8
0
 62
     0
100
AcDbLine
 10
11.8979491924324
 20
-78.00294919243038
 30
0.0
 11
12.36205080757008
 21
-78.00294919243038
 31
0.0
  0
LINE
  5
33C
330
2DD
100
AcDbEntity
  8
0
 62
     0
100
AcDbLine
 10
12.63000000000102
 20
-78.73499999999943
 30
0.0
 11
11.63000000000101
 21
-78.73499999999943
 31
0.0
  0
LINE
  5
33D
330
2DD
100
AcDbEntity
  8
0
 62
     0
100
AcDbLine
 10
10.9175644347024
 20
-78.93499999999926
 30
0.0
 11
13.34243556529872
 21
-78.93499999999926
 31
0.0
  0
LINE
  5
33E
330
2DD
100
AcDbEntity
  8
0
 62
     0
100
AcDbLine
 10
11.63000000000101
 20
-68.57499999999959
 30
0.0
 11
12.63000000000102
 21
-68.57499999999959
 31
0.0
  0
LINE
  5
33F
330
2DD
100
AcDbEntity
  8
0
 62
     0
100
AcDbLine
 10
11.63000000000101
 20
-67.57499999999959
 30
0.0
 11
12.63000000000102
 21
-67.57499999999959
 31
0.0
  0
LINE
  5
340
330
2DD
100
AcDbEntity
  8
0
 62
     0
100
AcDbLine
 10
11.63000000000101
 20
-68.57499999999959
 30
0.0
 11
11.63000000000101
 21
-67.57499999999959
 31
0.0
  0
LINE
  5
341
330
2DD
100
AcDbEntity
  8
0
 62
     0
100
AcDbLine
 10
12.63000000000102
 20
-67.57499999999959
 30
0.0
 11
12.63000000000102
 21
-68.57499999999959
 31
0.0
  0
LINE
  5
342
330
2DD
100
AcDbEntity
  8
0
 62
     0
100
AcDbLine
 10
11.8979491924324
 20
-68.3070508075682
 30
0.0
 11
12.36205080757008
 21
-68.3070508075682
 31
0.0
  0
LINE
  5
343
330
2DD
100
AcDbEntity
  8
0
 62
     0
100
AcDbLine
 10
11.8979491924324
 20
-67.84294919243052
 30
0.0
 11
11.8979491924324
 21
-68.3070508075682
 31
0.0
  0
LINE
  5
344
330
2DD
100
AcDbEntity
  8
0
 62
     0
100
AcDbLine
 10
11.8979491924324
 20
-67.84294919243052
 30
0.0
 11
11.63000000000101
 21
-67.57499999999959
 31
0.0
  0
LINE
  5
345
330
2DD
100
AcDbEntity
  8
0
 62
     0
100
AcDbLine
 10
12.36205080757008
 20
-68.3070508075682
 30
0.0
 11
12.36205080757008
 21
-67.84294919243052
 31
0.0
  0
LINE
  5
346
330
2DD
100
AcDbEntity
  8
0
 62
     0
100
AcDbLine
 10
11.8979491924324
 20
-67.84294919243052
 30
0.0
 11
12.36205080757008
 21
-67.84294919243052
 31
0.0
  0
LINE
  5
347
330
2DD
100
AcDbEntity
  8
0
 62
     0
100
AcDbLine
 10
12.36205080757008
 20
-68.3070508075682
 30
0.0
 11
12.63000000000102
 21
-68.57499999999959
 31
0.0
  0
LINE
  5
348
330
2DD
100
AcDbEntity
  8
0
 62
     0
100
AcDbLine
 10
11.63000000000101
 20
-68.57499999999959
 30
0.0
 11
11.8979491924324
 21
-68.3070508075682
 31
0.0
  0
LINE
  5
349
330
2DD
100
AcDbEntity
  8
0
 62
     0
100
AcDbLine
 10
12.36205080757008
 20
-67.84294919243052
 30
0.0
 11
12.63000000000102
 21
-67.57499999999959
 31
0.0
  0
LINE
  5
34A
330
2DD
100
AcDbEntity
  8
0
 62
     0
100
AcDbLine
 10
14.63000000000056
 20
-80.38906592285345
 30
0.0
 11
14.63000000000056
 21
-80.77499999999941
 31
0.0
  0
LINE
  5
34B
330
2DD
100
AcDbEntity
  8
0
 62
     0
100
AcDbLine
 10
14.63000000000056
 20
-76.08093407714545
 30
0.0
 11
14.63000000000056
 21
-75.30906592285259
 31
0.0
  0
LINE
  5
34C
330
2DD
100
AcDbEntity
  8
0
 62
     0
100
AcDbLine
 10
14.63000000000056
 20
-71.00093407714552
 30
0.0
 11
14.63000000000056
 21
-70.22906592285266
 31
0.0
  0
LINE
  5
34D
330
2DD
100
AcDbEntity
  8
0
 62
     0
100
AcDbLine
 10
14.33000000000038
 20
-66.03539219456229
 30
0.0
 11
14.33000000000038
 21
-65.03460780543605
 31
0.0
  0
LINE
  5
34E
330
2DD
100
AcDbEntity
  8
0
 62
     0
100
AcDbLine
 10
14.63000000000056
 20
-65.9209340771456
 30
0.0
 11
14.63000000000056
 21
-65.14906592285274
 31
0.0
  0
LINE
  5
34F
330
2DD
100
AcDbEntity
  8
0
 62
     0
100
AcDbLine
 10
14.33000000000038
 20
-71.11539219456222
 30
0.0
 11
14.33000000000038
 21
-70.11460780543597
 31
0.0
  0
LINE
  5
350
330
2DD
100
AcDbEntity
  8
0
 62
     0
100
AcDbLine
 10
14.33000000000038
 20
-76.19539219456214
 30
0.0
 11
14.33000000000038
 21
-75.19460780543591
 31
0.0
  0
LINE
  5
351
330
2DD
100
AcDbEntity
  8
0
 62
     0
100
AcDbLine
 10
14.33000000000038
 20
-80.77499999999941
 30
0.0
 11
14.33000000000038
 21
-80.27460780543675
 31
0.0
  0
LINE
  5
352
330
2DD
100
AcDbEntity
  8
0
 62
     0
100
AcDbLine
 10
11.63000000000101
 20
-73.65499999999951
 30
0.0
 11
11.63000000000101
 21
-72.65499999999952
 31
0.0
  0
LINE
  5
353
330
2DD
100
AcDbEntity
  8
0
 62
     0
100
AcDbLine
 10
12.63000000000102
 20
-72.65499999999952
 30
0.0
 11
12.63000000000056
 21
-73.65499999999951
 31
0.0
  0
LINE
  5
354
330
2DD
100
AcDbEntity
  8
0
 62
     0
100
AcDbLine
 10
12.36205080757008
 20
-73.38705080756859
 30
0.0
 11
12.63000000000056
 21
-73.65499999999951
 31
0.0
  0
LINE
  5
355
330
2DD
100
AcDbEntity
  8
0
 62
     0
100
AcDbLine
 10
12.63000000000056
 20
-73.65499999999951
 30
0.0
 11
11.63000000000101
 21
-73.65499999999951
 31
0.0
  0
LINE
  5
356
330
2DD
100
AcDbEntity
  8
0
 62
     0
100
AcDbLine
 10
11.63000000000101
 20
-73.65499999999951
 30
0.0
 11
11.8979491924324
 21
-73.38705080756811
 31
0.0
  0
LINE
  5
357
330
2DD
100
AcDbEntity
  8
0
 62
     0
100
AcDbLine
 10
12.36205080757008
 20
-72.92294919243045
 30
0.0
 11
12.36205080757008
 21
-73.38705080756859
 31
0.0
  0
LINE
  5
358
330
2DD
100
AcDbEntity
  8
0
 62
     0
100
AcDbLine
 10
11.8979491924324
 20
-73.38705080756811
 30
0.0
 11
12.36205080757008
 21
-73.38705080756859
 31
0.0
  0
LINE
  5
359
330
2DD
100
AcDbEntity
  8
0
 62
     0
100
AcDbLine
 10
11.8979491924324
 20
-72.92294919243045
 30
0.0
 11
11.8979491924324
 21
-73.38705080756811
 31
0.0
  0
LINE
  5
35A
330
2DD
100
AcDbEntity
  8
0
 62
     0
100
AcDbLine
 10
11.8979491924324
 20
-72.92294919243045
 30
0.0
 11
12.36205080757008
 21
-72.92294919243045
 31
0.0
  0
LINE
  5
35B
330
2DD
100
AcDbEntity
  8
0
 62
     0
100
AcDbLine
 10
11.8979491924324
 20
-72.92294919243045
 30
0.0
 11
11.63000000000101
 21
-72.65499999999952
 31
0.0
  0
LINE
  5
35C
330
2DD
100
AcDbEntity
  8
0
 62
     0
100
AcDbLine
 10
11.63000000000101
 20
-72.65499999999952
 30
0.0
 11
12.63000000000102
 21
-72.65499999999952
 31
0.0
  0
LINE
  5
35D
330
2DD
100
AcDbEntity
  8
0
 62
     0
100
AcDbLine
 10
12.36205080757008
 20
-72.92294919243045
 30
0.0
 11
12.63000000000102
 21
-72.65499999999952
 31
0.0
  0
LINE
  5
35E
330
2DD
100
AcDbEntity
  8
0
 62
     0
100
AcDbLine
 10
9.036607142857519
 20
-62.38999999999919
 30
0.0
 11
9.036607142857519
 21
-62.35098881921726
 31
0.0
  0
LINE
  5
35F
330
2DD
100
AcDbEntity
  8
0
 62
     0
100
AcDbLine
 10
9.036607142857519
 20
-63.59999999999923
 30
0.0
 11
9.036607142857519
 21
-62.38999999999919
 31
0.0
  0
LINE
  5
360
330
2DD
100
AcDbEntity
  8
0
 62
     0
100
AcDbLine
 10
9.036607142857519
 20
-63.63901118078114
 30
0.0
 11
9.036607142857519
 21
-63.59999999999923
 31
0.0
  0
LINE
  5
361
330
2DD
100
AcDbEntity
  8
0
 62
     0
100
AcDbLine
 10
9.036607142857519
 20
-72.51098881921713
 30
0.0
 11
9.036607142857519
 21
-68.71901118078108
 31
0.0
  0
LINE
  5
362
330
2DD
100
AcDbEntity
  8
0
 62
     0
100
AcDbLine
 10
9.036607142857519
 20
-68.67999999999915
 30
0.0
 11
9.036607142857519
 21
-68.71901118078108
 31
0.0
  0
LINE
  5
363
330
2DD
100
AcDbEntity
  8
0
 62
     0
100
AcDbLine
 10
9.036607142857519
 20
-67.46999999999911
 30
0.0
 11
9.036607142857519
 21
-68.67999999999915
 31
0.0
  0
LINE
  5
364
330
2DD
100
AcDbEntity
  8
0
 62
     0
100
AcDbLine
 10
9.036607142857519
 20
-67.43098881921719
 30
0.0
 11
9.036607142857519
 21
-63.63901118078114
 31
0.0
  0
LINE
  5
365
330
2DD
100
AcDbEntity
  8
0
 62
     0
100
AcDbLine
 10
9.036607142857519
 20
-67.46999999999911
 30
0.0
 11
9.036607142857519
 21
-67.43098881921719
 31
0.0
  0
LINE
  5
366
330
2DD
100
AcDbEntity
  8
0
 62
     0
100
AcDbLine
 10
8.725000000000362
 20
-77.25999999999908
 30
0.0
 11
8.725000000000362
 21
-74.12999999999944
 31
0.0
  0
LINE
  5
367
330
2DD
100
AcDbEntity
  8
0
 62
     0
100
AcDbLine
 10
8.725000000000362
 20
-72.17999999999915
 30
0.0
 11
8.725000000000362
 21
-69.04999999999905
 31
0.0
  0
LINE
  5
368
330
2DD
100
AcDbEntity
  8
0
 62
     0
100
AcDbLine
 10
8.725000000000362
 20
-67.09999999999921
 30
0.0
 11
8.725000000000362
 21
-63.96999999999911
 31
0.0
  0
LINE
  5
369
330
2DD
100
AcDbEntity
  8
0
 62
     0
100
AcDbLine
 10
8.725000000000362
 20
-62.01999999999928
 30
0.0
 11
9.036607142857519
 21
-62.35098881921726
 31
0.0
  0
LINE
  5
36A
330
2DD
100
AcDbEntity
  8
0
 62
     0
100
AcDbLine
 10
9.036607142857519
 20
-73.79901118078143
 30
0.0
 11
8.725000000000362
 21
-74.12999999999944
 31
0.0
  0
LINE
  5
36B
330
2DD
100
AcDbEntity
  8
0
 62
     0
100
AcDbLine
 10
8.725000000000362
 20
-77.25999999999908
 30
0.0
 11
9.036607142857519
 21
-77.59098881921705
 31
0.0
  0
LINE
  5
36C
330
2DD
100
AcDbEntity
  8
0
 62
     0
100
AcDbLine
 10
8.725000000000362
 20
-67.09999999999921
 30
0.0
 11
9.036607142857519
 21
-67.43098881921719
 31
0.0
  0
LINE
  5
36D
330
2DD
100
AcDbEntity
  8
0
 62
     0
100
AcDbLine
 10
7.900000000000542
 20
-67.09999999999921
 30
0.0
 11
8.725000000000362
 21
-67.09999999999921
 31
0.0
  0
LINE
  5
36E
330
2DD
100
AcDbEntity
  8
0
 62
     0
100
AcDbLine
 10
7.900000000000542
 20
-67.09999999999921
 30
0.0
 11
7.900000000000542
 21
-63.96999999999911
 31
0.0
  0
LINE
  5
36F
330
2DD
100
AcDbEntity
  8
0
 62
     0
100
AcDbLine
 10
9.036607142857519
 20
-57.27098881921733
 30
0.0
 11
9.036607142857519
 21
-55.37499999999933
 31
0.0
  0
LINE
  5
370
330
2DD
100
AcDbEntity
  8
0
 62
     0
100
AcDbLine
 10
12.88000000000056
 20
-60.25403810567581
 30
0.0
 11
12.88000000000056
 21
-60.65596189432267
 31
0.0
  0
LINE
  5
371
330
2DD
100
AcDbEntity
  8
0
 62
     0
100
AcDbLine
 10
12.88000000000056
 20
-60.65596189432267
 30
0.0
 11
12.13000000000056
 21
-60.45499999999925
 31
0.0
  0
LINE
  5
372
330
2DD
100
AcDbEntity
  8
0
 62
     0
100
AcDbLine
 10
12.13000000000056
 20
-60.45499999999925
 30
0.0
 11
12.88000000000056
 21
-60.25403810567581
 31
0.0
  0
LINE
  5
373
330
2DD
100
AcDbEntity
  8
0
 62
     0
100
AcDbLine
 10
7.900000000000542
 20
-62.01999999999928
 30
0.0
 11
7.900000000000542
 21
-58.88999999999919
 31
0.0
  0
LINE
  5
374
330
2DD
100
AcDbEntity
  8
0
 62
     0
100
AcDbLine
 10
9.036607142857519
 20
-58.55901118078122
 30
0.0
 11
9.036607142857519
 21
-58.51999999999929
 31
0.0
  0
LINE
  5
375
330
2DD
100
AcDbEntity
  8
0
 62
     0
100
AcDbLine
 10
9.036607142857519
 20
-62.35098881921726
 30
0.0
 11
9.036607142857519
 21
-58.55901118078122
 31
0.0
  0
LINE
  5
376
330
2DD
100
AcDbEntity
  8
0
 62
     0
100
AcDbLine
 10
8.725000000000362
 20
-62.01999999999928
 30
0.0
 11
8.725000000000362
 21
-58.88999999999919
 31
0.0
  0
LINE
  5
377
330
2DD
100
AcDbEntity
  8
0
 62
     0
100
AcDbLine
 10
9.036607142857519
 20
-55.37499999999933
 30
0.0
 11
8.725000000000362
 21
-55.37499999999933
 31
0.0
  0
LINE
  5
378
330
2DD
100
AcDbEntity
  8
0
 62
     0
100
AcDbLine
 10
8.725000000000362
 20
-55.37499999999933
 30
0.0
 11
8.725000000000362
 21
-56.93999999999937
 31
0.0
  0
LINE
  5
379
330
2DD
100
AcDbEntity
  8
0
 62
     0
100
AcDbLine
 10
7.900000000000542
 20
-56.93999999999937
 30
0.0
 11
8.725000000000362
 21
-56.93999999999937
 31
0.0
  0
LINE
  5
37A
330
2DD
100
AcDbEntity
  8
0
 62
     0
100
AcDbLine
 10
14.63000000000056
 20
-55.37499999999933
 30
0.0
 11
14.63000000000056
 21
-55.76093407714575
 31
0.0
  0
LINE
  5
37B
330
2DD
100
AcDbEntity
  8
0
 62
     0
100
AcDbLine
 10
14.33000000000038
 20
-55.87539219456242
 30
0.0
 11
14.33000000000038
 21
-55.37499999999933
 31
0.0
  0
LINE
  5
37C
330
2DD
100
AcDbEntity
  8
0
 62
     0
100
AcDbLine
 10
14.33000000000038
 20
-55.37499999999933
 30
0.0
 11
9.036607142857519
 21
-55.37499999999933
 31
0.0
  0
LINE
  5
37D
330
2DD
100
AcDbEntity
  8
0
 62
     0
100
AcDbLine
 10
14.63000000000056
 20
-55.37499999999933
 30
0.0
 11
14.33000000000038
 21
-55.37499999999933
 31
0.0
  0
LINE
  5
37E
330
2DD
100
AcDbEntity
  8
0
 62
     0
100
AcDbLine
 10
12.63000000000147
 20
-57.41499999999928
 30
0.0
 11
12.36205080757008
 21
-57.68294919243022
 31
0.0
  0
LINE
  5
37F
330
2DD
100
AcDbEntity
  8
0
 62
     0
100
AcDbLine
 10
12.63000000000102
 20
-58.41499999999928
 30
0.0
 11
12.63000000000147
 21
-57.41499999999928
 31
0.0
  0
LINE
  5
380
330
2DD
100
AcDbEntity
  8
0
 62
     0
100
AcDbLine
 10
12.36205080757008
 20
-58.14705080756835
 30
0.0
 11
12.63000000000102
 21
-58.41499999999928
 31
0.0
  0
LINE
  5
381
330
2DD
100
AcDbEntity
  8
0
 62
     0
100
AcDbLine
 10
12.36205080757008
 20
-58.14705080756835
 30
0.0
 11
12.36205080757008
 21
-57.68294919243022
 31
0.0
  0
LINE
  5
382
330
2DD
100
AcDbEntity
  8
0
 62
     0
100
AcDbLine
 10
11.63000000000147
 20
-57.41499999999928
 30
0.0
 11
12.63000000000147
 21
-57.41499999999928
 31
0.0
  0
LINE
  5
383
330
2DD
100
AcDbEntity
  8
0
 62
     0
100
AcDbLine
 10
11.63000000000101
 20
-58.41499999999928
 30
0.0
 11
11.8979491924324
 21
-58.14705080756835
 31
0.0
  0
LINE
  5
384
330
2DD
100
AcDbEntity
  8
0
 62
     0
100
AcDbLine
 10
11.63000000000147
 20
-57.41499999999928
 30
0.0
 11
11.63000000000101
 21
-58.41499999999928
 31
0.0
  0
LINE
  5
385
330
2DD
100
AcDbEntity
  8
0
 62
     0
100
AcDbLine
 10
11.63000000000147
 20
-57.41499999999928
 30
0.0
 11
11.8979491924324
 21
-57.68294919243022
 31
0.0
  0
LINE
  5
386
330
2DD
100
AcDbEntity
  8
0
 62
     0
100
AcDbLine
 10
11.8979491924324
 20
-58.14705080756835
 30
0.0
 11
12.36205080757008
 21
-58.14705080756835
 31
0.0
  0
LINE
  5
387
330
2DD
100
AcDbEntity
  8
0
 62
     0
100
AcDbLine
 10
11.8979491924324
 20
-57.68294919243022
 30
0.0
 11
11.8979491924324
 21
-58.14705080756835
 31
0.0
  0
LINE
  5
388
330
2DD
100
AcDbEntity
  8
0
 62
     0
100
AcDbLine
 10
11.8979491924324
 20
-57.68294919243022
 30
0.0
 11
12.36205080757008
 21
-57.68294919243022
 31
0.0
  0
LINE
  5
389
330
2DD
100
AcDbEntity
  8
0
 62
     0
100
AcDbLine
 10
11.63000000000101
 20
-58.41499999999928
 30
0.0
 11
12.63000000000102
 21
-58.41499999999928
 31
0.0
  0
LINE
  5
38A
330
2DD
100
AcDbEntity
  8
0
 62
     0
100
AcDbLine
 10
7.900000000000542
 20
-58.88999999999919
 30
0.0
 11
8.725000000000362
 21
-58.88999999999919
 31
0.0
  0
LINE
  5
38B
330
2DD
100
AcDbEntity
  8
0
 62
     0
100
AcDbLine
 10
9.036607142857519
 20
-58.55901118078122
 30
0.0
 11
8.725000000000362
 21
-58.88999999999919
 31
0.0
  0
LINE
  5
38C
330
2DD
100
AcDbEntity
  8
0
 62
     0
100
AcDbLine
 10
8.725000000000362
 20
-56.93999999999937
 30
0.0
 11
9.036607142857519
 21
-57.27098881921733
 31
0.0
  0
LINE
  5
38D
330
2DD
100
AcDbEntity
  8
0
 62
     0
100
AcDbLine
 10
9.036607142857519
 20
-57.30999999999927
 30
0.0
 11
9.036607142857519
 21
-57.27098881921733
 31
0.0
  0
LINE
  5
38E
330
2DD
100
AcDbEntity
  8
0
 62
     0
100
AcDbLine
 10
9.036607142857519
 20
-58.51999999999929
 30
0.0
 11
9.036607142857519
 21
-57.30999999999927
 31
0.0
  0
LINE
  5
38F
330
2DD
100
AcDbEntity
  8
0
 62
     0
100
AcDbLine
 10
11.92903810567709
 20
-81.77499999999941
 30
0.0
 11
12.13000000000056
 21
-81.77499999999941
 31
0.0
  0
LINE
  5
390
330
2DD
100
AcDbEntity
  8
0
 62
     0
100
AcDbLine
 10
12.33096189432399
 20
-81.77499999999941
 30
0.0
 11
16.00000000000043
 21
-81.77499999999941
 31
0.0
  0
LINE
  5
391
330
2DD
100
AcDbEntity
  8
0
 62
     0
100
AcDbLine
 10
12.13000000000056
 20
-81.77499999999941
 30
0.0
 11
12.33096189432399
 21
-81.77499999999941
 31
0.0
  0
LINE
  5
392
330
2DD
100
AcDbEntity
  8
0
 62
     0
100
AcDbLine
 10
8.33000000000038
 20
-81.77499999999941
 30
0.0
 11
11.92903810567709
 21
-81.77499999999941
 31
0.0
  0
LINE
  5
393
330
2DD
100
AcDbEntity
  8
0
 62
     0
100
AcDbLine
 10
7.900000000000542
 20
-81.77499999999941
 30
0.0
 11
8.33000000000038
 21
-81.77499999999941
 31
0.0
  0
LINE
  5
394
330
2DD
100
AcDbEntity
  8
0
 62
     0
100
AcDbLine
 10
7.900000000000542
 20
-79.20999999999934
 30
0.0
 11
7.900000000000542
 21
-81.77499999999941
 31
0.0
  0
LINE
  5
395
330
2DD
100
AcDbEntity
  8
0
 62
     0
100
AcDbLine
 10
12.65000113999986
 20
-54.37499999999932
 30
0.0
 11
8.33000000000038
 21
-54.37499999999932
 31
0.0
  0
LINE
  5
396
330
2DD
100
AcDbEntity
  8
0
 62
     0
100
AcDbLine
 10
12.85025708184684
 20
-54.37499999999932
 30
0.0
 11
12.65000113999986
 21
-54.37499999999932
 31
0.0
  0
LINE
  5
397
330
2DD
100
AcDbEntity
  8
0
 62
     0
100
AcDbLine
 10
12.95875911636858
 20
-54.37499999999932
 30
0.0
 11
12.85025708184684
 21
-54.37499999999932
 31
0.0
  0
LINE
  5
398
330
2DD
100
AcDbEntity
  8
0
 62
     0
100
AcDbLine
 10
13.10895107275337
 20
-54.37499999999932
 30
0.0
 11
12.95875911636858
 21
-54.37499999999932
 31
0.0
  0
LINE
  5
399
330
2DD
100
AcDbEntity
  8
0
 62
     0
100
AcDbLine
 10
13.33690248499715
 20
-54.37499999999932
 30
0.0
 11
13.10895107275337
 21
-54.37499999999932
 31
0.0
  0
LINE
  5
39A
330
2DD
100
AcDbEntity
  8
0
 62
     0
100
AcDbLine
 10
15.50000000000044
 20
-54.37499999999932
 30
0.0
 11
15.29974405815392
 21
-54.37499999999932
 31
0.0
  0
LINE
  5
39B
330
2DD
100
AcDbEntity
  8
0
 62
     0
100
AcDbLine
 10
16.00000000000043
 20
-54.37499999999932
 30
0.0
 11
15.50000000000044
 21
-54.37499999999932
 31
0.0
  0
LINE
  5
39C
330
2DD
100
AcDbEntity
  8
0
 62
     0
100
AcDbLine
 10
13.47202608463658
 20
-54.37499999999932
 30
0.0
 11
13.33690248499715
 21
-54.37499999999932
 31
0.0
  0
LINE
  5
39D
330
2DD
100
AcDbEntity
  8
0
 62
     0
100
AcDbLine
 10
14.38786381552608
 20
-54.37499999999932
 30
0.0
 11
14.25274021588711
 21
-54.37499999999932
 31
0.0
  0
LINE
  5
39E
330
2DD
100
AcDbEntity
  8
0
 62
     0
100
AcDbLine
 10
14.61581522776985
 20
-54.37499999999932
 30
0.0
 11
14.38786381552608
 21
-54.37499999999932
 31
0.0
  0
LINE
  5
39F
330
2DD
100
AcDbEntity
  8
0
 62
     0
100
AcDbLine
 10
15.19124202362444
 20
-54.37499999999932
 30
0.0
 11
15.04105006723966
 21
-54.37499999999932
 31
0.0
  0
LINE
  5
3A0
330
2DD
100
AcDbEntity
  8
0
 62
     0
100
AcDbLine
 10
15.29974405815392
 20
-54.37499999999932
 30
0.0
 11
15.19124202362444
 21
-54.37499999999932
 31
0.0
  0
LINE
  5
3A1
330
2DD
100
AcDbEntity
  8
0
 62
     0
100
AcDbLine
 10
14.7660071841551
 20
-54.37499999999932
 30
0.0
 11
14.61581522776985
 21
-54.37499999999932
 31
0.0
  0
LINE
  5
3A2
330
2DD
100
AcDbEntity
  8
0
 62
     0
100
AcDbLine
 10
15.04105006723966
 20
-54.37499999999932
 30
0.0
 11
14.7660071841551
 21
-54.37499999999932
 31
0.0
  0
LINE
  5
3A3
330
2DD
100
AcDbEntity
  8
0
 62
     0
100
AcDbLine
 10
13.64543921326093
 20
-54.37499999999932
 30
0.0
 11
13.47202608463658
 21
-54.37499999999932
 31
0.0
  0
LINE
  5
3A4
330
2DD
100
AcDbEntity
  8
0
 62
     0
100
AcDbLine
 10
14.0793270872623
 20
-54.37499999999932
 30
0.0
 11
13.64543921326093
 21
-54.37499999999932
 31
0.0
  0
LINE
  5
3A5
330
2DD
100
AcDbEntity
  8
0
 62
     0
100
AcDbLine
 10
14.25274021588711
 20
-54.37499999999932
 30
0.0
 11
14.0793270872623
 21
-54.37499999999932
 31
0.0
  0
LINE
  5
3A6
330
2DD
100
AcDbEntity
  8
0
 62
     0
100
AcDbLine
 10
7.426838695454534
 20
-62.38999999999919
 30
0.0
 11
7.900000000000542
 21
-62.01999999999928
 31
0.0
  0
LINE
  5
3A7
330
2DD
100
AcDbEntity
  8
0
 62
     0
100
AcDbLine
 10
7.426838695454534
 20
-62.38999999999919
 30
0.0
 11
7.426838695454534
 21
-63.59999999999923
 31
0.0
  0
LINE
  5
3A8
330
2DD
100
AcDbEntity
  8
0
 62
     0
100
AcDbLine
 10
7.426838695454534
 20
-68.67999999999915
 30
0.0
 11
7.900000000000542
 21
-69.04999999999905
 31
0.0
  0
LINE
  5
3A9
330
2DD
100
AcDbEntity
  8
0
 62
     0
100
AcDbLine
 10
7.426838695454534
 20
-68.67999999999915
 30
0.0
 11
9.036607142857519
 21
-68.67999999999915
 31
0.0
  0
LINE
  5
3AA
330
2DD
100
AcDbEntity
  8
0
 62
     0
100
AcDbLine
 10
7.426838695454534
 20
-72.54999999999904
 30
0.0
 11
7.900000000000542
 21
-72.17999999999915
 31
0.0
  0
LINE
  5
3AB
330
2DD
100
AcDbEntity
  8
0
 62
     0
100
AcDbLine
 10
7.426838695454534
 20
-73.75999999999908
 30
0.0
 11
7.426838695454534
 21
-72.54999999999904
 31
0.0
  0
LINE
  5
3AC
330
2DD
100
AcDbEntity
  8
0
 62
     0
100
AcDbLine
 10
7.426838695454534
 20
-73.75999999999908
 30
0.0
 11
7.900000000000542
 21
-74.12999999999944
 31
0.0
  0
LINE
  5
3AD
330
2DD
100
AcDbEntity
  8
0
 62
     0
100
AcDbLine
 10
7.426838695454534
 20
-68.67999999999915
 30
0.0
 11
7.426838695454534
 21
-67.46999999999911
 31
0.0
  0
LINE
  5
3AE
330
2DD
100
AcDbEntity
  8
0
 62
     0
100
AcDbLine
 10
7.426838695454534
 20
-77.62999999999944
 30
0.0
 11
7.900000000000542
 21
-77.25999999999908
 31
0.0
  0
LINE
  5
3AF
330
2DD
100
AcDbEntity
  8
0
 62
     0
100
AcDbLine
 10
7.426838695454534
 20
-78.83999999999947
 30
0.0
 11
7.426838695454534
 21
-77.62999999999944
 31
0.0
  0
LINE
  5
3B0
330
2DD
100
AcDbEntity
  8
0
 62
     0
100
AcDbLine
 10
9.036607142857519
 20
-77.62999999999944
 30
0.0
 11
7.426838695454534
 21
-77.62999999999944
 31
0.0
  0
LINE
  5
3B1
330
2DD
100
AcDbEntity
  8
0
 62
     0
100
AcDbLine
 10
7.900000000000542
 20
-79.20999999999934
 30
0.0
 11
7.426838695454534
 21
-78.83999999999947
 31
0.0
  0
LINE
  5
3B2
330
2DD
100
AcDbEntity
  8
0
 62
     0
100
AcDbLine
 10
7.426838695454534
 20
-73.75999999999908
 30
0.0
 11
9.036607142857519
 21
-73.75999999999908
 31
0.0
  0
LINE
  5
3B3
330
2DD
100
AcDbEntity
  8
0
 62
     0
100
AcDbLine
 10
7.426838695454534
 20
-67.46999999999911
 30
0.0
 11
7.900000000000542
 21
-67.09999999999921
 31
0.0
  0
LINE
  5
3B4
330
2DD
100
AcDbEntity
  8
0
 62
     0
100
AcDbLine
 10
9.036607142857519
 20
-67.46999999999911
 30
0.0
 11
7.426838695454534
 21
-67.46999999999911
 31
0.0
  0
LINE
  5
3B5
330
2DD
100
AcDbEntity
  8
0
 62
     0
100
AcDbLine
 10
7.426838695454534
 20
-58.51999999999929
 30
0.0
 11
9.036607142857519
 21
-58.51999999999929
 31
0.0
  0
LINE
  5
3B6
330
2DD
100
AcDbEntity
  8
0
 62
     0
100
AcDbLine
 10
7.426838695454534
 20
-58.51999999999929
 30
0.0
 11
7.426838695454534
 21
-57.30999999999927
 31
0.0
  0
LINE
  5
3B7
330
2DD
100
AcDbEntity
  8
0
 62
     0
100
AcDbLine
 10
9.036607142857519
 20
-57.30999999999927
 30
0.0
 11
7.426838695454534
 21
-57.30999999999927
 31
0.0
  0
LINE
  5
3B8
330
2DD
100
AcDbEntity
  8
0
 62
     0
100
AcDbLine
 10
7.426838695454534
 20
-57.30999999999927
 30
0.0
 11
7.900000000000542
 21
-56.93999999999937
 31
0.0
  0
LINE
  5
3B9
330
2DD
100
AcDbEntity
  8
0
 62
     0
100
AcDbLine
 10
7.400000000000542
 20
-81.77499999999941
 30
0.0
 11
7.900000000000542
 21
-81.77499999999941
 31
0.0
  0
LINE
  5
3BA
330
2DD
100
AcDbEntity
  8
0
 62
     0
100
AcDbLine
 10
7.400000000000542
 20
-81.77499999999941
 30
0.0
 11
7.400000000000542
 21
-54.37499999999932
 31
0.0
  0
LINE
  5
3BB
330
2DD
100
AcDbEntity
  8
0
 62
     0
100
AcDbLine
 10
7.900000000000542
 20
-54.37499999999932
 30
0.0
 11
7.400000000000542
 21
-54.37499999999932
 31
0.0
  0
ARC
  5
3BC
330
2DD
100
AcDbEntity
  8
0
 62
     0
100
AcDbCircle
 10
12.13000000000101
 20
-57.91499999999928
 30
0.0
 40
3.299999999999346
100
AcDbArc
 50
319.2509456225096
 51
40.74905437749029
  0
ARC
  5
3BD
330
2DD
100
AcDbEntity
  8
0
 62
     0
100
AcDbCircle
 10
12.13000000000101
 20
-57.91499999999928
 30
0.0
 40
2.999999999999346
100
AcDbArc
 50
317.1665719339526
 51
42.83342806604736
  0
ARC
  5
3BE
330
2DD
100
AcDbEntity
  8
0
 62
     0
100
AcDbCircle
 10
12.13000000000056
 20
-78.23499999999945
 30
0.0
 40
1.400000000000003
100
AcDbArc
 50
330.0000000000038
 51
209.9999999999961
  0
ARC
  5
3BF
330
2DD
100
AcDbEntity
  8
0
 62
     0
100
AcDbCircle
 10
12.13000000000056
 20
-73.15499999999952
 30
0.0
 40
2.999999999999798
100
AcDbArc
 50
317.1665719339526
 51
42.83342806604736
  0
ARC
  5
3C0
330
2DD
100
AcDbEntity
  8
0
 62
     0
100
AcDbCircle
 10
12.13000000000056
 20
-78.23499999999945
 30
0.0
 40
3.299999999999986
100
AcDbArc
 50
319.2509456225466
 51
40.74905437745336
  0
ARC
  5
3C1
330
2DD
100
AcDbEntity
  8
0
 62
     0
100
AcDbCircle
 10
12.13000000000056
 20
-73.15499999999952
 30
0.0
 40
3.299999999999825
100
AcDbArc
 50
319.2509456225466
 51
40.74905437745336
  0
ARC
  5
3C2
330
2DD
100
AcDbEntity
  8
0
 62
     0
100
AcDbCircle
 10
12.13000000000056
 20
-68.07499999999959
 30
0.0
 40
3.299999999999825
100
AcDbArc
 50
319.2509456225466
 51
40.74905437745336
  0
ARC
  5
3C3
330
2DD
100
AcDbEntity
  8
0
 62
     0
100
AcDbCircle
 10
12.13000000000056
 20
-62.99499999999966
 30
0.0
 40
3.299999999999816
100
AcDbArc
 50
319.2509456225466
 51
40.74905437745336
  0
ARC
  5
3C4
330
2DD
100
AcDbEntity
  8
0
 62
     0
100
AcDbCircle
 10
12.13000000000056
 20
-68.07499999999959
 30
0.0
 40
2.999999999999798
100
AcDbArc
 50
317.1665719339526
 51
42.83342806604736
  0
ARC
  5
3C5
330
2DD
100
AcDbEntity
  8
0
 62
     0
100
AcDbCircle
 10
12.13000000000056
 20
-62.99499999999966
 30
0.0
 40
2.999999999999796
100
AcDbArc
 50
317.1665719339526
 51
42.83342806604736
  0
ARC
  5
3C6
330
2DD
100
AcDbEntity
  8
0
 62
     0
100
AcDbCircle
 10
12.13000000000056
 20
-78.23499999999945
 30
0.0
 40
2.99999999999996
100
AcDbArc
 50
317.1665719339526
 51
42.83342806604736
  0
CIRCLE
  5
3C7
330
2DD
100
AcDbEntity
  8
0
 62
     0
100
AcDbCircle
 10
12.13000000000056
 20
-62.99499999999966
 30
0.0
 40
1.399999999998762
  0
CIRCLE
  5
3C8
330
2DD
100
AcDbEntity
  8
0
 62
     0
100
AcDbCircle
 10
12.13000000000056
 20
-68.07499999999959
 30
0.0
 40
1.399999999998762
  0
CIRCLE
  5
3C9
330
2DD
100
AcDbEntity
  8
0
 62
     0
100
AcDbCircle
 10
12.13000000000056
 20
-73.15499999999952
 30
0.0
 40
1.399999999999999
  0
CIRCLE
  5
3CA
330
2DD
100
AcDbEntity
  8
0
 62
     0
100
AcDbCircle
 10
12.13000000000101
 20
-57.91499999999928
 30
0.0
 40
1.399999999999379
  0
ARC
  5
3CB
330
2DD
100
AcDbEntity
  8
0
 62
     0
100
AcDbCircle
 10
21.04147722073548
 20
-93.34568831880257
 30
6.483974233579615E+99
 40
18.41680697560812
100
AcDbArc
 50
110.3730936678164
 51
110.8717620092503
  0
LINE
  5
3CC
330
2DD
100
AcDbEntity
  8
0
 62
     0
100
AcDbLine
 10
14.4799825891846
 20
-76.13738894388075
 30
6.483974233579615E+99
 11
14.40446560960572
 21
-76.16639056957295
 31
6.483974233579615E+99
  0
LINE
  5
3CD
330
2DD
100
AcDbEntity
  8
0
 62
     0
100
AcDbLine
 10
14.40446560960572
 20
-76.16639056957295
 30
6.483974233579615E+99
 11
14.33000000000038
 21
-76.19539219456214
 31
6.483974233579615E+99
  0
ARC
  5
3CE
330
2DD
100
AcDbEntity
  8
0
 62
     0
100
AcDbCircle
 10
20.51641922486167
 20
-64.50091261943157
 30
6.483974233579615E+99
 40
16.94347197733493
100
AcDbArc
 50
248.5849640485465
 51
249.1287512867559
  0
LINE
  5
3CF
330
2DD
100
AcDbEntity
  8
0
 62
     0
100
AcDbLine
 10
14.4799825891846
 20
-80.33261105611812
 30
6.483974233579615E+99
 11
14.55478560110896
 21
-80.360948485212
 31
6.483974233579615E+99
  0
LINE
  5
3D0
330
2DD
100
AcDbEntity
  8
0
 62
     0
100
AcDbLine
 10
14.55478560110896
 20
-80.360948485212
 30
6.483974233579615E+99
 11
14.63000000000056
 21
-80.38906592285345
 31
6.483974233579615E+99
  0
ARC
  5
3D1
330
2DD
100
AcDbEntity
  8
0
 62
     0
100
AcDbCircle
 10
20.49616678119173
 20
-59.47328061446455
 30
6.483974233579615E+99
 40
16.88732487456338
100
AcDbArc
 50
248.5840600477166
 51
249.1296552877335
  0
LINE
  5
3D2
330
2DD
100
AcDbEntity
  8
0
 62
     0
100
AcDbLine
 10
14.47998258927325
 20
-75.25261105615186
 30
6.483974233579615E+99
 11
14.55449330351028
 21
-75.280838490012
 31
6.483974233579615E+99
  0
LINE
  5
3D3
330
2DD
100
AcDbEntity
  8
0
 62
     0
100
AcDbLine
 10
14.55449330351028
 20
-75.280838490012
 30
6.483974233579615E+99
 11
14.63000000000056
 21
-75.30906592285259
 31
6.483974233579615E+99
  0
ARC
  5
3D4
330
2DD
100
AcDbEntity
  8
0
 62
     0
100
AcDbCircle
 10
21.04147722065544
 20
-88.26568831851977
 30
6.483974233579615E+99
 40
18.41680697531573
100
AcDbArc
 50
110.3730936678999
 51
110.8717620093339
  0
LINE
  5
3D5
330
2DD
100
AcDbEntity
  8
0
 62
     0
100
AcDbLine
 10
14.4799825891846
 20
-71.05738894388081
 30
6.483974233579615E+99
 11
14.40421771715773
 21
-71.08648644004073
 31
6.483974233579615E+99
  0
LINE
  5
3D6
330
2DD
100
AcDbEntity
  8
0
 62
     0
100
AcDbLine
 10
14.40421771715773
 20
-71.08648644004073
 30
6.483974233579615E+99
 11
14.33000000000038
 21
-71.11539219456222
 31
6.483974233579615E+99
  0
ARC
  5
3D7
330
2DD
100
AcDbEntity
  8
0
 62
     0
100
AcDbCircle
 10
20.51641922551652
 20
-54.34091261775598
 30
6.483974233579615E+99
 40
16.94347197913375
100
AcDbArc
 50
248.5849640485708
 51
249.1287512870346
  0
LINE
  5
3D8
330
2DD
100
AcDbEntity
  8
0
 62
     0
100
AcDbLine
 10
14.47998258927325
 20
-70.17261105615194
 30
6.483974233579615E+99
 11
14.55449330350939
 21
-70.20083849001162
 31
6.483974233579615E+99
  0
LINE
  5
3D9
330
2DD
100
AcDbEntity
  8
0
 62
     0
100
AcDbLine
 10
14.55449330350939
 20
-70.20083849001162
 30
6.483974233579615E+99
 11
14.63000000000056
 21
-70.22906592285266
 31
6.483974233579615E+99
  0
ARC
  5
3DA
330
2DD
100
AcDbEntity
  8
0
 62
     0
100
AcDbCircle
 10
20.49616556162664
 20
-49.31328376790748
 30
6.483974233579615E+99
 40
16.8873214935453
100
AcDbArc
 50
248.5840599931657
 51
249.1296553424187
  0
LINE
  5
3DB
330
2DD
100
AcDbEntity
  8
0
 62
     0
100
AcDbLine
 10
14.47998258927325
 20
-65.09261105615201
 30
6.483974233579615E+99
 11
14.55449330350847
 21
-65.12083849001124
 31
6.483974233579615E+99
  0
LINE
  5
3DC
330
2DD
100
AcDbEntity
  8
0
 62
     0
100
AcDbLine
 10
14.55449330350847
 20
-65.12083849001124
 30
6.483974233579615E+99
 11
14.63000000000056
 21
-65.14906592285274
 31
6.483974233579615E+99
  0
ARC
  5
3DD
330
2DD
100
AcDbEntity
  8
0
 62
     0
100
AcDbCircle
 10
21.01643747155776
 20
-83.1191502405734
 30
6.483974233579615E+99
 40
18.34571401668807
100
AcDbArc
 50
110.372127446696
 51
110.8727282303854
  0
LINE
  5
3DE
330
2DD
100
AcDbEntity
  8
0
 62
     0
100
AcDbLine
 10
14.4799825891846
 20
-65.97738894388043
 30
6.483974233579615E+99
 11
14.40421771044293
 21
-66.00648644263833
 31
6.483974233579615E+99
  0
LINE
  5
3DF
330
2DD
100
AcDbEntity
  8
0
 62
     0
100
AcDbLine
 10
14.40421771044293
 20
-66.00648644263833
 30
6.483974233579615E+99
 11
14.33000000000038
 21
-66.03539219456229
 31
6.483974233579615E+99
  0
ARC
  5
3E0
330
2DD
100
AcDbEntity
  8
0
 62
     0
100
AcDbCircle
 10
21.04147722068228
 20
-73.02568831859185
 30
6.483974233579615E+99
 40
18.41680697539202
100
AcDbArc
 50
110.3730936678999
 51
110.8717620093339
  0
LINE
  5
3E1
330
2DD
100
AcDbEntity
  8
0
 62
     0
100
AcDbLine
 10
14.4799825891846
 20
-55.81738894388061
 30
6.483974233579615E+99
 11
14.40421777271103
 21
-55.84648641855596
 31
6.483974233579615E+99
  0
LINE
  5
3E2
330
2DD
100
AcDbEntity
  8
0
 62
     0
100
AcDbLine
 10
14.40421777271103
 20
-55.84648641855596
 30
6.483974233579615E+99
 11
14.33000000000038
 21
-55.87539219456242
 31
6.483974233579615E+99
  0
ARC
  5
3E3
330
2DD
100
AcDbEntity
  8
0
 62
     0
100
AcDbCircle
 10
20.4961667514458
 20
-44.23328069137983
 30
6.483974233579615E+99
 40
16.8873247920978
100
AcDbArc
 50
248.5840600463733
 51
249.1296552890684
  0
LINE
  5
3E4
330
2DD
100
AcDbEntity
  8
0
 62
     0
100
AcDbLine
 10
14.47998258927325
 20
-60.01261105615206
 30
6.483974233579615E+99
 11
14.55449330350984
 21
-60.04083849001176
 31
6.483974233579615E+99
  0
LINE
  5
3E5
330
2DD
100
AcDbEntity
  8
0
 62
     0
100
AcDbLine
 10
14.55449330350984
 20
-60.04083849001176
 30
6.483974233579615E+99
 11
14.63000000000056
 21
-60.06906592285282
 31
6.483974233579615E+99
  0
ARC
  5
3E6
330
2DD
100
AcDbEntity
  8
0
 62
     0
100
AcDbCircle
 10
21.04147722066318
 20
-78.10568831860904
 30
0.0
 40
18.41680697540189
100
AcDbArc
 50
110.3730936678164
 51
110.8717620092503
  0
LINE
  5
3E7
330
2DD
100
AcDbEntity
  8
0
 62
     0
100
AcDbLine
 10
14.4799825891846
 20
-60.89738894388052
 30
0.0
 11
14.40446560960572
 21
-60.92639056957318
 31
0.0
  0
LINE
  5
3E8
330
2DD
100
AcDbEntity
  8
0
 62
     0
100
AcDbLine
 10
14.40446560960572
 20
-60.92639056957318
 30
0.0
 11
14.33000000000038
 21
-60.95539219456235
 31
0.0
  0
LINE
  5
3E9
330
2DD
100
AcDbEntity
  8
0
 62
     0
100
AcDbLine
 10
16.00000000000043
 20
-51.7749999999998
 30
0.0
 11
16.00000000000043
 21
-84.37499999999969
 31
0.0
  0
LWPOLYLINE
  5
3EA
330
2DD
100
AcDbEntity
  8
0
100
AcDbPolyline
 90
        4
 70
     1
 43
0.0
 10
18.49999999999953
 20
-41.52499926630912
 10
20.0999999999999
 20
-41.52499926630912
 10
20.0999999999999
 20
-44.22499926630985
 10
18.49999999999953
 20
-44.22499926630985
  0
LWPOLYLINE
  5
3EB
330
2DD
100
AcDbEntity
  8
0
100
AcDbPolyline
 90
        4
 70
     1
 43
0.0
 10
18.49999999999953
 20
-47.02499926630911
 10
20.0999999999999
 20
-47.02499926630911
 10
20.0999999999999
 20
-49.72499926630985
 10
18.49999999999953
 20
-49.72499926630985
  0
LINE
  5
3EC
330
2DD
100
AcDbEntity
  8
0
100
AcDbLine
 10
16.00000000000039
 20
-51.7749999999998
 30
0.0
 11
17.00007431254885
 21
-51.7749999999998
 31
0.0
  0
LINE
  5
3ED
330
2DD
100
AcDbEntity
  8
0
100
AcDbLine
 10
16.00000000000043
 20
-84.37499999999969
 30
0.0
 11
17.00007431255062
 21
-84.37499999999969
 31
0.0
  0
ENDBLK
  5
3EF
330
2DD
100
AcDbEntity
  8
0
100
AcDbBlockEnd
  0
ENDSEC
  0
SECTION
  2
ENTITIES
  0
LINE
  5
5A2
330
1F
100
AcDbEntity
  8
1
100
AcDbLine
 10
72.68454962301518
 20
175.9738178928943
 30
0.0
 11
87.6845496230152
 21
175.9738178928943
 31
0.0
  0
LINE
  5
5A3
330
1F
100
AcDbEntity
  8
1
100
AcDbLine
 10
80.18454962301518
 20
168.4738178928943
 30
0.0
 11
80.18454962301518
 21
183.4738178928943
 31
0.0
  0
LINE
  5
5A4
330
1F
100
AcDbEntity
  8
1
100
AcDbLine
 10
80.18454962301484
 20
352.4738178928942
 30
0.0
 11
80.18454962301484
 21
367.4738178928941
 31
0.0
  0
LINE
  5
5A5
330
1F
100
AcDbEntity
  8
1
100
AcDbLine
 10
72.68454962301518
 20
359.9738178928942
 30
0.0
 11
87.6845496230152
 21
359.9738178928942
 31
0.0
  0
LINE
  5
5B4
330
1F
100
AcDbEntity
  8
0
100
AcDbLine
 10
98.63454962301524
 20
204.0901010354859
 30
0.0
 11
98.63454962301524
 21
219.057534750303
 31
0.0
  0
LINE
  5
5B5
330
1F
100
AcDbEntity
  8
0
100
AcDbLine
 10
92.33454962301513
 20
219.6738178928941
 30
0.0
 11
92.33454962301513
 21
203.4738178928943
 31
0.0
  0
LINE
  5
5B6
330
1F
100
AcDbEntity
  8
0
100
AcDbLine
 10
93.88454962301523
 20
220.1738178928941
 30
0.0
 11
93.88454962301523
 21
202.9738178928943
 31
0.0
  0
LINE
  5
5B7
330
1F
100
AcDbEntity
  8
0
100
AcDbLine
 10
97.08454962301516
 20
202.9738178928943
 30
0.0
 11
97.08454962301516
 21
220.1738178928941
 31
0.0
  0
LINE
  5
5B8
330
1F
100
AcDbEntity
  8
0
100
AcDbLine
 10
90.88454962301524
 20
229.1738178928941
 30
0.0
 11
90.88454962301524
 21
193.9738178928943
 31
0.0
  0
LINE
  5
5B9
330
1F
100
AcDbEntity
  8
0
100
AcDbLine
 10
99.98454962301515
 20
192.9738178928943
 30
0.0
 11
99.98454962301515
 21
230.1738178928941
 31
0.0
  0
LINE
  5
5BA
330
1F
100
AcDbEntity
  8
0
100
AcDbLine
 10
101.184549744933
 20
230.6738177335501
 30
0.0
 11
101.184549744933
 21
185.1738177335503
 31
0.0
  0
LINE
  5
5BB
330
1F
100
AcDbEntity
  8
0
100
AcDbLine
 10
89.7845497449323
 20
230.6738177335501
 30
0.0
 11
89.7845497449323
 21
185.1738177335503
 31
0.0
  0
LINE
  5
5BC
330
1F
100
AcDbEntity
  8
0
100
AcDbLine
 10
100.284549623015
 20
230.6738177335501
 30
0.0
 11
100.284549623015
 21
185.1738177335503
 31
0.0
  0
LINE
  5
5BD
330
1F
100
AcDbEntity
  8
0
100
AcDbLine
 10
74.78454974493229
 20
239.5738177335501
 30
0.0
 11
74.78454974493229
 21
185.1738177335503
 31
0.0
  0
LINE
  5
5BE
330
1F
100
AcDbEntity
  8
0
100
AcDbLine
 10
73.88454962301421
 20
185.9738178928943
 30
0.0
 11
73.88454962301421
 21
226.6138178928938
 31
0.0
  0
LINE
  5
5BF
330
1F
100
AcDbEntity
  8
0
100
AcDbLine
 10
65.28454962301418
 20
226.6138178928938
 30
0.0
 11
65.28454962301418
 21
185.9738178928943
 31
0.0
  0
LINE
  5
5C0
330
1F
100
AcDbEntity
  8
0
100
AcDbLine
 10
64.18454974493204
 20
271.4738177335504
 30
0.0
 11
64.18454974493204
 21
185.1738177335503
 31
0.0
  0
LINE
  5
5C1
330
1F
100
AcDbEntity
  8
0
100
AcDbLine
 10
65.28454962301509
 20
185.1738177335503
 30
0.0
 11
65.28454962301509
 21
271.4738177335504
 31
0.0
  0
LINE
  5
5C2
330
1F
100
AcDbEntity
  8
0
100
AcDbLine
 10
56.18454962301519
 20
201.6069983178072
 30
0.0
 11
56.18454962301519
 21
354.9476319713251
 31
0.0
  0
LINE
  5
5C3
330
1F
100
AcDbEntity
  8
0
100
AcDbLine
 10
57.18454962301507
 20
354.9738178928941
 30
0.0
 11
57.18454962301414
 21
202.3555983529322
 31
0.0
  0
LINE
  5
5C4
330
1F
100
AcDbEntity
  8
0
100
AcDbLine
 10
59.18454962301519
 20
352.9738178928941
 30
0.0
 11
59.18454962301405
 21
203.5595139103983
 31
0.0
  0
LINE
  5
5C5
330
1F
100
AcDbEntity
  8
0
100
AcDbLine
 10
56.18454962301519
 20
201.606998317808
 30
0.0
 11
56.18454962301519
 21
354.4738178928942
 31
0.0
  0
LINE
  5
5C6
330
1F
100
AcDbEntity
  8
0
100
AcDbLine
 10
59.28454962301419
 20
352.7738178928942
 30
0.0
 11
59.28454962301419
 21
203.6659176811931
 31
0.0
  0
LINE
  5
5C7
330
1F
100
AcDbEntity
  8
0
100
AcDbLine
 10
109.1845496230151
 20
363.9738178928942
 30
0.0
 11
109.1845496230151
 21
171.9738178928943
 31
0.0
  0
LINE
  5
5C8
330
1F
100
AcDbEntity
  8
0
100
AcDbLine
 10
107.184549623015
 20
182.9738178928939
 30
0.0
 11
107.184549623015
 21
352.9738178928941
 31
0.0
  0
LINE
  5
5C9
330
1F
100
AcDbEntity
  8
0
100
AcDbLine
 10
109.1845496230151
 20
180.9738178928943
 30
0.0
 11
109.1845496230151
 21
354.9738178928941
 31
0.0
  0
LINE
  5
5CA
330
1F
100
AcDbEntity
  8
0
100
AcDbLine
 10
106.8845496230142
 20
352.7738178928942
 30
0.0
 11
106.8845496230142
 21
183.1738178928939
 31
0.0
  0
LINE
  5
5CB
330
1F
100
AcDbEntity
  8
0
100
AcDbLine
 10
37.18454962301517
 20
363.5283144337273
 30
0.0
 11
37.18454962301517
 21
172.419321352061
 31
0.0
  0
ARC
  5
5CC
330
1F
100
AcDbEntity
  8
0
100
AcDbCircle
 10
80.18454962301518
 20
175.9738178928943
 30
0.0
 40
5.5
100
AcDbArc
 50
0.0
 51
65.38002267134327
  0
LINE
  5
5CE
330
1F
100
AcDbEntity
  8
0
100
AcDbLine
 10
57.18454962301414
 20
180.9738178928943
 30
0.0
 11
109.1845496230151
 21
180.9738178928943
 31
0.0
  0
LINE
  5
5CF
330
1F
100
AcDbEntity
  8
0
100
AcDbLine
 10
107.184549623015
 20
182.9738178928939
 30
0.0
 11
62.1845496230103
 21
182.9738178928939
 31
0.0
  0
LINE
  5
5D0
330
1F
100
AcDbEntity
  8
0
100
AcDbLine
 10
62.28454962301009
 20
183.1738178928939
 30
0.0
 11
106.8845496230142
 21
183.1738178928939
 31
0.0
  0
LINE
  5
5D1
330
1F
100
AcDbEntity
  8
0
100
AcDbLine
 10
37.6714611488611
 20
181.432414254113
 30
0.0
 11
55.18454962301518
 21
180.9738178928943
 31
0.0
  0
LINE
  5
5D2
330
1F
100
AcDbEntity
  8
0
100
AcDbLine
 10
55.18454962301518
 20
170.9738178928943
 30
0.0
 11
38.15837267470692
 21
171.4196640270859
 31
0.0
  0
ARC
  5
5D3
330
1F
100
AcDbEntity
  8
0
100
AcDbCircle
 10
38.18454962301519
 20
172.419321352061
 30
0.0
 40
1.0
100
AcDbArc
 50
180.0
 51
268.5000000000038
  0
ARC
  5
5D4
330
1F
100
AcDbEntity
  8
0
100
AcDbCircle
 10
37.68454962301518
 20
181.9322429166009
 30
0.0
 40
0.5
100
AcDbArc
 50
180.0
 51
268.5000000000038
  0
LINE
  5
5D5
330
1F
100
AcDbEntity
  8
0
100
AcDbLine
 10
78.08454962301515
 20
175.9738178928943
 30
0.0
 11
78.08454962301515
 21
170.9738178928943
 31
0.0
  0
LINE
  5
5D6
330
1F
100
AcDbEntity
  8
0
100
AcDbLine
 10
82.2845496230151
 20
175.9738178928943
 30
0.0
 11
82.2845496230151
 21
170.9738178928943
 31
0.0
  0
LINE
  5
5D7
330
1F
100
AcDbEntity
  8
0
100
AcDbLine
 10
74.68454962301518
 20
175.9738178928943
 30
0.0
 11
74.68454962301518
 21
170.9738178928943
 31
0.0
  0
LINE
  5
5D8
330
1F
100
AcDbEntity
  8
0
100
AcDbLine
 10
55.18454962301518
 20
170.9738178928943
 30
0.0
 11
78.08454962301515
 21
170.9738178928943
 31
0.0
  0
LINE
  5
5D9
330
1F
100
AcDbEntity
  8
0
100
AcDbLine
 10
55.18454962301518
 20
170.9738178928943
 30
0.0
 11
77.93454962301519
 21
170.9738178928943
 31
0.0
  0
LINE
  5
5DA
330
1F
100
AcDbEntity
  8
0
100
AcDbLine
 10
74.78454974493229
 20
185.1738177335503
 30
0.0
 11
64.18454974493204
 21
185.1738177335503
 31
0.0
  0
LINE
  5
5DB
330
1F
100
AcDbEntity
  8
0
100
AcDbLine
 10
65.28454962301418
 20
185.9738178928943
 30
0.0
 11
73.88454962301421
 21
185.9738178928943
 31
0.0
  0
LINE
  5
5DC
330
1F
100
AcDbEntity
  8
0
100
AcDbLine
 10
59.18454962301109
 20
197.9738178928943
 30
0.0
 11
59.1845496230103
 21
181.0785615791711
 31
0.0
  0
LINE
  5
5DD
330
1F
100
AcDbEntity
  8
0
100
AcDbLine
 10
60.1845496230111
 20
197.9738178928943
 30
0.0
 11
60.1845496230103
 21
180.9738178928943
 31
0.0
  0
LINE
  5
5DE
330
1F
100
AcDbEntity
  8
0
100
AcDbLine
 10
62.18454962301098
 20
197.9738178928943
 30
0.0
 11
62.1845496230103
 21
182.9738178928939
 31
0.0
  0
LINE
  5
5DF
330
1F
100
AcDbEntity
  8
0
100
AcDbLine
 10
59.18454962301109
 20
197.9738178928943
 30
0.0
 11
59.1845496230103
 21
181.4738178928943
 31
0.0
  0
LINE
  5
5E0
330
1F
100
AcDbEntity
  8
0
100
AcDbLine
 10
62.2845496230111
 20
197.9738178928943
 30
0.0
 11
62.28454962301009
 21
183.1738178928939
 31
0.0
  0
LINE
  5
5E1
330
1F
100
AcDbEntity
  8
0
100
AcDbLine
 10
55.18454962301518
 20
180.9738178928943
 30
0.0
 11
59.1845496230103
 21
181.0785615791711
 31
0.0
  0
LINE
  5
5E2
330
1F
100
AcDbEntity
  8
0
100
AcDbLine
 10
55.18454962301518
 20
180.9738178928943
 30
0.0
 11
59.18454962301109
 21
181.0785615791711
 31
0.0
  0
CIRCLE
  5
5E3
330
1F
100
AcDbEntity
  8
0
100
AcDbCircle
 10
55.18454962301518
 20
185.9738178928943
 30
0.0
 40
1.6
  0
CIRCLE
  5
5E4
330
1F
100
AcDbEntity
  8
0
100
AcDbCircle
 10
55.18454962301518
 20
185.9738178928943
 30
0.0
 40
2.0
  0
LINE
  5
5E5
330
1F
100
AcDbEntity
  8
0
100
AcDbLine
 10
57.18454962301269
 20
181.0261897360324
 30
0.0
 11
57.18454962301414
 21
180.9738178928943
 31
0.0
  0
LINE
  5
5E6
330
1F
100
AcDbEntity
  8
0
100
AcDbLine
 10
60.1845496230103
 20
181.4738178928943
 30
0.0
 11
59.1845496230103
 21
181.4738178928939
 31
0.0
  0
ARC
  5
5E7
330
1F
100
AcDbEntity
  8
0
100
AcDbCircle
 10
55.48454962301513
 20
197.9738178928943
 30
0.0
 40
3.699999999995998
100
AcDbArc
 50
0.0
 51
79.09453000325759
  0
ARC
  5
5E8
330
1F
100
AcDbEntity
  8
0
100
AcDbCircle
 10
55.48454962301513
 20
197.9738178928943
 30
0.0
 40
4.699999999995998
100
AcDbArc
 50
0.0
 51
68.79523363710852
  0
ARC
  5
5E9
330
1F
100
AcDbEntity
  8
0
100
AcDbCircle
 10
55.48454962301513
 20
197.9738178928943
 30
0.0
 40
3.699999999995998
100
AcDbArc
 50
0.0
 51
79.09453000325759
  0
LINE
  5
5EA
330
1F
100
AcDbEntity
  8
0
100
AcDbLine
 10
53.53454962301508
 20
203.9738178928943
 30
0.0
 11
53.53454962301508
 21
205.3238178928939
 31
0.0
  0
LINE
  5
5EB
330
1F
100
AcDbEntity
  8
0
100
AcDbLine
 10
53.83454962301424
 20
203.9738178928943
 30
0.0
 11
53.83454962301424
 21
205.3238178928939
 31
0.0
  0
ARC
  5
5EC
330
1F
100
AcDbEntity
  8
0
100
AcDbCircle
 10
53.68454962301519
 20
205.3238178928939
 30
0.0
 40
0.15
100
AcDbArc
 50
0.0
 51
180.0
  0
ARC
  5
5ED
330
1F
100
AcDbEntity
  8
0
100
AcDbCircle
 10
55.0345496230151
 20
203.8238178928938
 30
0.0
 40
0.15
100
AcDbArc
 50
270.0
 51
90.0
  0
LINE
  5
5EE
330
1F
100
AcDbEntity
  8
0
100
AcDbLine
 10
53.83454962301424
 20
203.9738178928943
 30
0.0
 11
55.0345496230151
 21
203.9738178928943
 31
0.0
  0
LINE
  5
5EF
330
1F
100
AcDbEntity
  8
0
100
AcDbLine
 10
52.73454962301514
 20
203.3238178928939
 30
0.0
 11
54.63454962301421
 21
203.3238178928939
 31
0.0
  0
LINE
  5
5F0
330
1F
100
AcDbEntity
  8
0
100
AcDbLine
 10
52.73454962301514
 20
203.0238178928941
 30
0.0
 11
54.63454962301421
 21
203.0238178928941
 31
0.0
  0
LINE
  5
5F1
330
1F
100
AcDbEntity
  8
0
100
AcDbLine
 10
53.13454962301523
 20
202.673817892894
 30
0.0
 11
54.23454962301423
 21
202.673817892894
 31
0.0
  0
LINE
  5
5F2
330
1F
100
AcDbEntity
  8
0
100
AcDbLine
 10
53.13454962301523
 20
202.3738178928939
 30
0.0
 11
54.23454962301423
 21
202.3738178928939
 31
0.0
  0
ARC
  5
5F3
330
1F
100
AcDbEntity
  8
0
100
AcDbCircle
 10
53.13454962301523
 20
202.5238178928939
 30
0.0
 40
0.15
100
AcDbArc
 50
90.0
 51
270.0
  0
ARC
  5
5F4
330
1F
100
AcDbEntity
  8
0
100
AcDbCircle
 10
54.23454962301423
 20
202.5238178928939
 30
0.0
 40
0.15
100
AcDbArc
 50
270.0
 51
90.0
  0
ARC
  5
5F5
330
1F
100
AcDbEntity
  8
0
100
AcDbCircle
 10
52.73454962301514
 20
203.1738178928941
 30
0.0
 40
0.15
100
AcDbArc
 50
90.0
 51
270.0
  0
ARC
  5
5F6
330
1F
100
AcDbEntity
  8
0
100
AcDbCircle
 10
54.63454962301421
 20
203.1738178928941
 30
0.0
 40
0.15
100
AcDbArc
 50
270.0
 51
90.0
  0
ARC
  5
5F7
330
1F
100
AcDbEntity
  8
0
100
AcDbCircle
 10
52.33454962301514
 20
203.8238178928938
 30
0.0
 40
0.15
100
AcDbArc
 50
90.0
 51
270.0
  0
CIRCLE
  5
5F8
330
1F
100
AcDbEntity
  8
0
100
AcDbCircle
 10
53.68454962301519
 20
203.9738178928943
 30
0.0
 40
2.149999999999999
  0
CIRCLE
  5
5F9
330
1F
100
AcDbEntity
  8
0
100
AcDbCircle
 10
53.68454962301519
 20
203.9738178928943
 30
0.0
 40
1.85
  0
LINE
  5
5FA
330
1F
100
AcDbEntity
  8
0
100
AcDbLine
 10
52.33454962301514
 20
203.6738178928941
 30
0.0
 11
55.0345496230151
 21
203.6738178928941
 31
0.0
  0
LINE
  5
5FB
330
1F
100
AcDbEntity
  8
0
100
AcDbLine
 10
52.33454962301514
 20
203.9738178928943
 30
0.0
 11
53.53454962301508
 21
203.9738178928943
 31
0.0
  0
CIRCLE
  5
5FC
330
1F
100
AcDbEntity
  8
0
100
AcDbCircle
 10
55.18454962301518
 20
195.9738178928943
 30
0.0
 40
2.0
  0
CIRCLE
  5
5FD
330
1F
100
AcDbEntity
  8
0
100
AcDbCircle
 10
55.18454962301518
 20
195.9738178928943
 30
0.0
 40
1.6
  0
ARC
  5
5FE
330
1F
100
AcDbEntity
  8
0
100
AcDbCircle
 10
55.48454962301513
 20
197.9738178928943
 30
0.0
 40
6.699999999996
100
AcDbArc
 50
0.0
 51
56.47925960398385
  0
ARC
  5
5FF
330
1F
100
AcDbEntity
  8
0
100
AcDbCircle
 10
55.38454962301421
 20
197.9738178928943
 30
0.0
 40
6.899999999996
100
AcDbArc
 50
0.0
 51
55.58261128953329
  0
CIRCLE
  5
600
330
1F
100
AcDbEntity
  8
0
100
AcDbCircle
 10
69.28454962301419
 20
193.5938178928939
 30
0.0
 40
2.0
  0
ARC
  5
601
330
1F
100
AcDbEntity
  8
0
100
AcDbCircle
 10
80.18454962301518
 20
175.9738178928943
 30
0.0
 40
5.5
100
AcDbArc
 50
114.6199773286567
 51
179.9999999999934
  0
CIRCLE
  5
602
330
1F
100
AcDbEntity
  8
0
100
AcDbCircle
 10
69.28454962301419
 20
188.8438178928941
 30
0.0
 40
1.0
  0
CIRCLE
  5
603
330
1F
100
AcDbEntity
  8
0
100
AcDbCircle
 10
69.28454962301419
 20
188.8438178928941
 30
0.0
 40
1.5
  0
ARC
  5
604
330
1F
100
AcDbEntity
  8
0
100
AcDbCircle
 10
80.18454962301518
 20
175.9738178928943
 30
0.0
 40
2.1
100
AcDbArc
 50
0.0
 51
180.0
  0
CIRCLE
  5
605
330
1F
100
AcDbEntity
  8
0
100
AcDbCircle
 10
69.28454962301419
 20
203.7538178928949
 30
0.0
 40
2.0
  0
CIRCLE
  5
606
330
1F
100
AcDbEntity
  8
0
100
AcDbCircle
 10
69.28454962301419
 20
203.7538178928949
 30
0.0
 40
2.0
  0
CIRCLE
  5
607
330
1F
100
AcDbEntity
  8
0
100
AcDbCircle
 10
69.28454962301419
 20
198.6738178928941
 30
0.0
 40
2.0
  0
CIRCLE
  5
608
330
1F
100
AcDbEntity
  8
0
100
AcDbCircle
 10
69.28454962301419
 20
198.6738178928941
 30
0.0
 40
2.0
  0
CIRCLE
  5
609
330
1F
100
AcDbEntity
  8
0
100
AcDbCircle
 10
69.28454962301419
 20
208.8338178928941
 30
0.0
 40
2.0
  0
LINE
  5
60B
330
1F
100
AcDbEntity
  8
0
100
AcDbLine
 10
85.68454962301519
 20
175.9738178928943
 30
0.0
 11
85.68454962301519
 21
170.9738178928943
 31
0.0
  0
LINE
  5
611
330
1F
100
AcDbEntity
  8
0
100
AcDbLine
 10
82.2845496230151
 20
170.9738178928943
 30
0.0
 11
108.1845496230151
 21
170.9738178928943
 31
0.0
  0
ARC
  5
613
330
1F
100
AcDbEntity
  8
0
100
AcDbCircle
 10
108.1845496230151
 20
171.9738178928943
 30
0.0
 40
1.0
100
AcDbArc
 50
270.0
 51
0.0
  0
LINE
  5
614
330
1F
100
AcDbEntity
  8
0
100
AcDbLine
 10
100.2845496230138
 20
191.4738178928943
 30
0.0
 11
93.78454962301418
 21
191.4738178928943
 31
0.0
  0
LINE
  5
615
330
1F
100
AcDbEntity
  8
0
100
AcDbLine
 10
91.6845496230152
 20
192.9738178928943
 30
0.0
 11
99.98454962301515
 21
192.9738178928943
 31
0.0
  0
LINE
  5
616
330
1F
100
AcDbEntity
  8
0
100
AcDbLine
 10
90.88454962301524
 20
193.9738178928943
 30
0.0
 11
99.98454962301515
 21
193.9738178928943
 31
0.0
  0
LINE
  5
617
330
1F
100
AcDbEntity
  8
0
100
AcDbLine
 10
93.78454962301418
 20
185.9738178928943
 30
0.0
 11
100.2845496230138
 21
185.9738178928943
 31
0.0
  0
LINE
  5
618
330
1F
100
AcDbEntity
  8
0
100
AcDbLine
 10
101.184549744933
 20
185.1738177335503
 30
0.0
 11
89.7845497449323
 21
185.1738177335503
 31
0.0
  0
CIRCLE
  5
61A
330
1F
100
AcDbEntity
  8
0
100
AcDbCircle
 10
96.85454962301399
 20
189.9738178928943
 30
0.0
 40
0.32
  0
LINE
  5
61B
330
1F
100
AcDbEntity
  8
0
100
AcDbLine
 10
94.78454962301418
 20
189.4738178928943
 30
0.0
 11
93.78454962301418
 21
189.4738178928943
 31
0.0
  0
CIRCLE
  5
61C
330
1F
100
AcDbEntity
  8
0
100
AcDbCircle
 10
96.85454962301399
 20
187.4738178928939
 30
0.0
 40
0.32
  0
LINE
  5
61D
330
1F
100
AcDbEntity
  8
0
100
AcDbLine
 10
93.78454962301418
 20
187.9738178928943
 30
0.0
 11
94.78454962301418
 21
187.9738178928943
 31
0.0
  0
LINE
  5
61E
330
1F
100
AcDbEntity
  8
0
100
AcDbLine
 10
93.78454962301418
 20
185.9738178928943
 30
0.0
 11
94.78454962301418
 21
185.9738178928943
 31
0.0
  0
LINE
  5
61F
330
1F
100
AcDbEntity
  8
0
100
AcDbLine
 10
94.78454962301418
 20
187.9738178928943
 30
0.0
 11
94.78454962301418
 21
189.4738178928943
 31
0.0
  0
LINE
  5
620
330
1F
100
AcDbEntity
  8
0
100
AcDbLine
 10
93.78454962301418
 20
189.4738178928943
 30
0.0
 11
93.78454962301418
 21
187.9738178928943
 31
0.0
  0
LINE
  5
621
330
1F
100
AcDbEntity
  8
0
100
AcDbLine
 10
94.78454962301418
 20
185.9738178928943
 30
0.0
 11
94.78454962301418
 21
191.4738178928943
 31
0.0
  0
LINE
  5
622
330
1F
100
AcDbEntity
  8
0
100
AcDbLine
 10
93.78454962301418
 20
191.4738178928943
 30
0.0
 11
93.78454962301418
 21
185.9738178928943
 31
0.0
  0
ARC
  5
623
330
1F
100
AcDbEntity
  8
0
100
AcDbCircle
 10
91.6845496230152
 20
193.4738178928943
 30
0.0
 40
0.5
100
AcDbArc
 50
180.0
 51
270.0
  0
LINE
  5
624
330
1F
100
AcDbEntity
  8
0
100
AcDbLine
 10
91.1845496230152
 20
193.9738178928943
 30
0.0
 11
91.1845496230152
 21
193.4738178928943
 31
0.0
  0
ARC
  5
625
330
1F
100
AcDbEntity
  8
0
100
AcDbCircle
 10
96.63454962301523
 20
204.0901010354859
 30
0.0
 40
2.0
100
AcDbArc
 50
285.0000000000006
 51
0.0
  0
LINE
  5
626
330
1F
100
AcDbEntity
  8
0
100
AcDbLine
 10
98.63454962301524
 20
197.9738178928943
 30
0.0
 11
98.63454962301524
 21
200.3738178928939
 31
0.0
  0
ARC
  5
627
330
1F
100
AcDbEntity
  8
0
100
AcDbCircle
 10
94.33454962301516
 20
203.4738178928943
 30
0.0
 40
2.0
100
AcDbArc
 50
180.0
 51
285.0000000000006
  0
LINE
  5
628
330
1F
100
AcDbEntity
  8
0
100
AcDbLine
 10
92.33454962301513
 20
200.3738178928939
 30
0.0
 11
92.33454962301513
 21
197.9738178928943
 31
0.0
  0
LINE
  5
629
330
1F
100
AcDbEntity
  8
0
100
AcDbLine
 10
94.85218771322022
 20
201.5419662403163
 30
0.0
 11
97.15218771322021
 21
202.1582493829071
 31
0.0
  0
LINE
  5
62A
330
1F
100
AcDbEntity
  8
0
100
AcDbLine
 10
93.88454962301523
 20
202.9738178928943
 30
0.0
 11
97.08454962301516
 21
202.9738178928943
 31
0.0
  0
LINE
  5
62B
330
1F
100
AcDbEntity
  8
0
100
AcDbLine
 10
92.33454962301513
 20
200.3738178928939
 30
0.0
 11
98.63454962301524
 21
200.3738178928939
 31
0.0
  0
LINE
  5
62C
330
1F
100
AcDbEntity
  8
0
100
AcDbLine
 10
92.33454962301513
 20
198.4738178928943
 30
0.0
 11
98.63454962301524
 21
198.4738178928943
 31
0.0
  0
LINE
  5
62D
330
1F
100
AcDbEntity
  8
0
100
AcDbLine
 10
92.33454962301513
 20
197.9738178928943
 30
0.0
 11
98.63454962301524
 21
197.9738178928943
 31
0.0
  0
CIRCLE
  5
62E
330
1F
100
AcDbEntity
  8
0
100
AcDbCircle
 10
95.48454962301523
 20
195.9438178928943
 30
0.0
 40
1.399999999999999
  0
LINE
  5
630
330
1F
100
AcDbEntity
  8
0
100
AcDbLine
 10
100.2845496230138
 20
185.9738178928943
 30
0.0
 11
100.2845496230138
 21
191.4738178928943
 31
0.0
  0
LINE
  5
631
330
1F
100
AcDbEntity
  8
0
100
AcDbLine
 10
99.98454962301515
 20
210.3038178928954
 30
0.0
 11
100.284549623015
 21
210.3038178928954
 31
0.0
  0
LINE
  5
632
330
1F
100
AcDbEntity
  8
0
100
AcDbLine
 10
99.98454962301515
 20
209.0338178928953
 30
0.0
 11
100.284549623015
 21
209.0338178928953
 31
0.0
  0
LINE
  5
633
330
1F
100
AcDbEntity
  8
0
100
AcDbLine
 10
99.98454962301515
 20
207.763817892895
 30
0.0
 11
100.284549623015
 21
207.763817892895
 31
0.0
  0
LINE
  5
634
330
1F
100
AcDbEntity
  8
0
100
AcDbLine
 10
99.98454962301515
 20
207.763817892895
 30
0.0
 11
100.284549623015
 21
207.763817892895
 31
0.0
  0
LINE
  5
635
330
1F
100
AcDbEntity
  8
0
100
AcDbLine
 10
99.98454962301515
 20
206.493817892895
 30
0.0
 11
100.284549623015
 21
206.493817892895
 31
0.0
  0
LINE
  5
636
330
1F
100
AcDbEntity
  8
0
100
AcDbLine
 10
99.98454962301515
 20
205.2238178928948
 30
0.0
 11
100.284549623015
 21
205.2238178928948
 31
0.0
  0
LINE
  5
637
330
1F
100
AcDbEntity
  8
0
100
AcDbLine
 10
99.98454962301515
 20
203.9538178928952
 30
0.0
 11
100.284549623015
 21
203.9538178928952
 31
0.0
  0
LINE
  5
638
330
1F
100
AcDbEntity
  8
0
100
AcDbLine
 10
99.98454962301515
 20
200.3738178928939
 30
0.0
 11
100.284549623015
 21
200.3738178928939
 31
0.0
  0
ARC
  5
639
330
1F
100
AcDbEntity
  8
0
100
AcDbCircle
 10
99.98454962301515
 20
193.2738178928941
 30
0.0
 40
0.3
100
AcDbArc
 50
270.0
 51
0.0
  0
LINE
  5
63A
330
1F
100
AcDbEntity
  8
0
100
AcDbLine
 10
100.284549623015
 20
200.3738178928939
 30
0.0
 11
100.284549623015
 21
193.2738178928941
 31
0.0
  0
ARC
  5
63B
330
1F
100
AcDbEntity
  8
0
100
AcDbCircle
 10
80.18454962301518
 20
359.9738178928942
 30
0.0
 40
5.5
100
AcDbArc
 50
294.6199773286567
 51
0.0
  0
LINE
  5
63C
330
1F
100
AcDbEntity
  8
0
100
AcDbLine
 10
55.18454962301518
 20
364.9738178928942
 30
0.0
 11
108.1845496230151
 21
364.9738178928942
 31
0.0
  0
LINE
  5
63D
330
1F
100
AcDbEntity
  8
0
100
AcDbLine
 10
57.18454962301507
 20
354.9738178928941
 30
0.0
 11
109.1845496230151
 21
354.9738178928941
 31
0.0
  0
LINE
  5
63E
330
1F
100
AcDbEntity
  8
0
100
AcDbLine
 10
107.184549623015
 20
352.9738178928941
 30
0.0
 11
59.18454962301519
 21
352.9738178928941
 31
0.0
  0
LINE
  5
63F
330
1F
100
AcDbEntity
  8
0
100
AcDbLine
 10
106.8845496230142
 20
352.7738178928942
 30
0.0
 11
59.28454962301419
 21
352.7738178928942
 31
0.0
  0
LINE
  5
640
330
1F
100
AcDbEntity
  8
0
100
AcDbLine
 10
55.18454962301518
 20
364.9738178928942
 30
0.0
 11
108.1845496230151
 21
364.9738178928942
 31
0.0
  0
CIRCLE
  5
641
330
1F
100
AcDbEntity
  8
0
100
AcDbCircle
 10
80.18454962301518
 20
359.9738178928942
 30
0.0
 40
2.1
  0
LINE
  5
642
330
1F
100
AcDbEntity
  8
0
100
AcDbLine
 10
74.68454962301518
 20
359.9738178928942
 30
0.0
 11
74.68454962301518
 21
364.9738178928942
 31
0.0
  0
LINE
  5
643
330
1F
100
AcDbEntity
  8
0
100
AcDbLine
 10
76.1295496230142
 20
301.1338178928941
 30
0.0
 11
76.1295496230142
 21
276.9738178928943
 31
0.0
  0
LINE
  5
644
330
1F
100
AcDbEntity
  8
0
100
AcDbLine
 10
76.58454974493213
 20
302.17381773355
 30
0.0
 11
76.58454974493213
 21
275.9738177335504
 31
0.0
  0
LINE
  5
645
330
1F
100
AcDbEntity
  8
0
100
AcDbLine
 10
67.78454962301418
 20
301.1338178928941
 30
0.0
 11
67.78454962301418
 21
276.9738178928943
 31
0.0
  0
LINE
  5
646
330
1F
100
AcDbEntity
  8
0
100
AcDbLine
 10
74.76954962301419
 20
301.1338178928941
 30
0.0
 11
74.76954962301419
 21
276.9738178928943
 31
0.0
  0
LINE
  5
647
330
1F
100
AcDbEntity
  8
0
100
AcDbLine
 10
66.78454962301419
 20
301.1338178928941
 30
0.0
 11
66.78454962301419
 21
276.9738178928943
 31
0.0
  0
LINE
  5
648
330
1F
100
AcDbEntity
  8
0
100
AcDbLine
 10
64.18454974493204
 20
302.17381773355
 30
0.0
 11
64.18454974493204
 21
275.9738177335504
 31
0.0
  0
LINE
  5
649
330
1F
100
AcDbEntity
  8
0
100
AcDbLine
 10
65.28454962301509
 20
275.9738177335504
 30
0.0
 11
65.28454962301509
 21
302.17381773355
 31
0.0
  0
LINE
  5
64A
330
1F
100
AcDbEntity
  8
0
100
AcDbLine
 10
72.28454962301419
 20
252.5438178928939
 30
0.0
 11
72.28454962301419
 21
247.5438178928941
 31
0.0
  0
LINE
  5
64B
330
1F
100
AcDbEntity
  8
0
100
AcDbLine
 10
67.28454962301419
 20
251.7538178928941
 30
0.0
 11
67.28454962301419
 21
248.3338178928941
 31
0.0
  0
LINE
  5
64C
330
1F
100
AcDbEntity
  8
0
100
AcDbLine
 10
74.78454974493229
 20
256.5738177335503
 30
0.0
 11
74.78454974493229
 21
243.1738177335501
 31
0.0
  0
LINE
  5
64D
330
1F
100
AcDbEntity
  8
0
100
AcDbLine
 10
73.78454962301418
 20
234.6138178928939
 30
0.0
 11
73.78454962301418
 21
265.1138178928939
 31
0.0
  0
LINE
  5
64E
330
1F
100
AcDbEntity
  8
0
100
AcDbLine
 10
65.28454962301418
 20
270.4738178928943
 30
0.0
 11
65.28454962301418
 21
229.6138178928941
 31
0.0
  0
ARC
  5
64F
330
1F
100
AcDbEntity
  8
0
100
AcDbCircle
 10
69.28454962301419
 20
238.6138178928939
 30
0.0
 40
2.9
100
AcDbArc
 50
133.6028189726986
 51
226.3971810273013
  0
LINE
  5
650
330
1F
100
AcDbEntity
  8
0
100
AcDbLine
 10
65.28454962301418
 20
229.6138178928941
 30
0.0
 11
72.28454962301419
 21
229.6138178928941
 31
0.0
  0
LINE
  5
651
330
1F
100
AcDbEntity
  8
0
100
AcDbLine
 10
65.28454962301418
 20
229.6138178928941
 30
0.0
 11
72.28454962301419
 21
229.6138178928941
 31
0.0
  0
LINE
  5
652
330
1F
100
AcDbEntity
  8
0
100
AcDbLine
 10
73.88454962301421
 20
226.6138178928938
 30
0.0
 11
65.28454962301418
 21
226.6138178928938
 31
0.0
  0
ARC
  5
653
330
1F
100
AcDbEntity
  8
0
100
AcDbCircle
 10
69.28454962301419
 20
246.2338178928943
 30
0.0
 40
2.9
100
AcDbArc
 50
133.6028189726986
 51
226.3971810273013
  0
LINE
  5
654
330
1F
100
AcDbEntity
  8
0
100
AcDbLine
 10
65.28454962301418
 20
234.8538178928941
 30
0.0
 11
65.28454962301418
 21
229.6138178928941
 31
0.0
  0
LINE
  5
655
330
1F
100
AcDbEntity
  8
0
100
AcDbLine
 10
72.28454962301419
 20
229.6138178928941
 30
0.0
 11
72.28454962301419
 21
234.6138178928939
 31
0.0
  0
LINE
  5
656
330
1F
100
AcDbEntity
  8
0
100
AcDbLine
 10
72.28454962301419
 20
229.6138178928941
 30
0.0
 11
72.28454962301419
 21
234.8538178928941
 31
0.0
  0
CIRCLE
  5
657
330
1F
100
AcDbEntity
  8
0
100
AcDbCircle
 10
69.28454962301419
 20
223.743817892895
 30
0.0
 40
1.0
  0
CIRCLE
  5
658
330
1F
100
AcDbEntity
  8
0
100
AcDbCircle
 10
69.28454962301419
 20
223.743817892895
 30
0.0
 40
1.5
  0
CIRCLE
  5
659
330
1F
100
AcDbEntity
  8
0
100
AcDbCircle
 10
69.28454962301419
 20
213.9138178928939
 30
0.0
 40
2.0
  0
CIRCLE
  5
65A
330
1F
100
AcDbEntity
  8
0
100
AcDbCircle
 10
69.28454962301419
 20
213.9138178928939
 30
0.0
 40
2.0
  0
CIRCLE
  5
65B
330
1F
100
AcDbEntity
  8
0
100
AcDbCircle
 10
69.28454962301419
 20
218.993817892895
 30
0.0
 40
2.0
  0
LINE
  5
65C
330
1F
100
AcDbEntity
  8
0
100
AcDbLine
 10
74.78454974493229
 20
243.1738177335501
 30
0.0
 11
76.38454974493196
 21
243.1738177335501
 31
0.0
  0
LINE
  5
65D
330
1F
100
AcDbEntity
  8
0
100
AcDbLine
 10
73.78454962301418
 20
242.1638178928939
 30
0.0
 11
75.48454962301423
 21
242.1638178928939
 31
0.0
  0
LINE
  5
65E
330
1F
100
AcDbEntity
  8
0
100
AcDbLine
 10
75.48454962301423
 20
240.5638178928941
 30
0.0
 11
73.78454962301418
 21
240.5638178928941
 31
0.0
  0
LINE
  5
65F
330
1F
100
AcDbEntity
  8
0
100
AcDbLine
 10
74.78454974493229
 20
239.5738177335501
 30
0.0
 11
76.38454974493196
 21
239.5738177335501
 31
0.0
  0
LINE
  5
660
330
1F
100
AcDbEntity
  8
0
100
AcDbLine
 10
71.48454962301423
 20
247.5438178928941
 30
0.0
 11
72.28454962301419
 21
247.5438178928941
 31
0.0
  0
LINE
  5
661
330
1F
100
AcDbEntity
  8
0
100
AcDbLine
 10
71.48454962301423
 20
244.9238178928941
 30
0.0
 11
72.28454962301419
 21
244.9238178928941
 31
0.0
  0
LINE
  5
662
330
1F
100
AcDbEntity
  8
0
100
AcDbLine
 10
71.48454962301423
 20
247.5438178928941
 30
0.0
 11
71.48454962301423
 21
244.9238178928941
 31
0.0
  0
CIRCLE
  5
663
330
1F
100
AcDbEntity
  8
0
100
AcDbCircle
 10
69.28454962301419
 20
246.2338178928943
 30
0.0
 40
0.75
  0
LINE
  5
664
330
1F
100
AcDbEntity
  8
0
100
AcDbLine
 10
71.48454962301423
 20
239.923817892894
 30
0.0
 11
72.28454962301419
 21
239.923817892894
 31
0.0
  0
LINE
  5
665
330
1F
100
AcDbEntity
  8
0
100
AcDbLine
 10
72.28454962301419
 20
234.6138178928939
 30
0.0
 11
73.78454962301418
 21
234.6138178928939
 31
0.0
  0
LINE
  5
666
330
1F
100
AcDbEntity
  8
0
100
AcDbLine
 10
71.48454962301423
 20
237.3038178928943
 30
0.0
 11
72.28454962301419
 21
237.3038178928943
 31
0.0
  0
LINE
  5
667
330
1F
100
AcDbEntity
  8
0
100
AcDbLine
 10
72.28454962301419
 20
237.3038178928943
 30
0.0
 11
72.28454962301419
 21
235.6138178928941
 31
0.0
  0
LINE
  5
668
330
1F
100
AcDbEntity
  8
0
100
AcDbLine
 10
71.48454962301423
 20
239.923817892894
 30
0.0
 11
71.48454962301423
 21
237.3038178928943
 31
0.0
  0
LINE
  5
669
330
1F
100
AcDbEntity
  8
0
100
AcDbLine
 10
67.28454962301419
 20
244.1338178928941
 30
0.0
 11
67.28454962301419
 21
240.7138178928943
 31
0.0
  0
LINE
  5
66A
330
1F
100
AcDbEntity
  8
0
100
AcDbLine
 10
67.28454962301419
 20
236.5138178928939
 30
0.0
 11
67.28454962301419
 21
235.6138178928941
 31
0.0
  0
CIRCLE
  5
66B
330
1F
100
AcDbEntity
  8
0
100
AcDbCircle
 10
69.28454962301419
 20
238.6138178928939
 30
0.0
 40
0.75
  0
CIRCLE
  5
66C
330
1F
100
AcDbEntity
  8
0
100
AcDbCircle
 10
69.24816356261111
 20
232.5138178928941
 30
0.0
 40
0.9
  0
LINE
  5
66D
330
1F
100
AcDbEntity
  8
0
100
AcDbLine
 10
67.28454962301419
 20
235.6138178928941
 30
0.0
 11
72.28454962301419
 21
235.6138178928941
 31
0.0
  0
CIRCLE
  5
66E
330
1F
100
AcDbEntity
  8
0
100
AcDbCircle
 10
69.28454962301419
 20
238.6138178928939
 30
0.0
 40
1.5
  0
CIRCLE
  5
66F
330
1F
100
AcDbEntity
  8
0
100
AcDbCircle
 10
69.24816356261111
 20
232.5138178928941
 30
0.0
 40
2.0
  0
LINE
  5
670
330
1F
100
AcDbEntity
  8
0
100
AcDbLine
 10
72.28454962301419
 20
244.9238178928941
 30
0.0
 11
72.28454962301419
 21
239.923817892894
 31
0.0
  0
CIRCLE
  5
671
330
1F
100
AcDbEntity
  8
0
100
AcDbCircle
 10
69.28454962301419
 20
246.2338178928943
 30
0.0
 40
1.5
  0
LINE
  5
672
330
1F
100
AcDbEntity
  8
0
100
AcDbLine
 10
75.48454962301423
 20
242.1638178928939
 30
0.0
 11
75.48454962301423
 21
240.5638178928941
 31
0.0
  0
LINE
  5
673
330
1F
100
AcDbEntity
  8
0
100
AcDbLine
 10
76.38454974493196
 20
243.1738177335501
 30
0.0
 11
76.38454974493196
 21
239.5738177335501
 31
0.0
  0
LINE
  5
674
330
1F
100
AcDbEntity
  8
0
100
AcDbLine
 10
66.78454962301419
 20
276.9738178928943
 30
0.0
 11
76.1295496230142
 21
276.9738178928943
 31
0.0
  0
LINE
  5
675
330
1F
100
AcDbEntity
  8
0
100
AcDbLine
 10
64.18454974493204
 20
271.4738177335504
 30
0.0
 11
74.78454974493229
 21
271.4738177335504
 31
0.0
  0
LINE
  5
676
330
1F
100
AcDbEntity
  8
0
100
AcDbLine
 10
65.28454962301418
 20
270.4738178928943
 30
0.0
 11
72.28454962301419
 21
270.4738178928943
 31
0.0
  0
LINE
  5
677
330
1F
100
AcDbEntity
  8
0
100
AcDbLine
 10
65.28454962301418
 20
270.4738178928943
 30
0.0
 11
72.28454962301419
 21
270.4738178928943
 31
0.0
  0
ARC
  5
678
330
1F
100
AcDbEntity
  8
0
100
AcDbCircle
 10
69.28454962301419
 20
253.8538178928939
 30
0.0
 40
2.9
100
AcDbArc
 50
133.6028189726986
 51
226.3971810273013
  0
ARC
  5
679
330
1F
100
AcDbEntity
  8
0
100
AcDbCircle
 10
69.28454962301419
 20
261.4738178928943
 30
0.0
 40
2.9
100
AcDbArc
 50
133.6028189726986
 51
226.3971810273013
  0
LINE
  5
67A
330
1F
100
AcDbEntity
  8
0
100
AcDbLine
 10
64.18454974493204
 20
275.9738177335504
 30
0.0
 11
76.58454974493213
 21
275.9738177335504
 31
0.0
  0
LINE
  5
67B
330
1F
100
AcDbEntity
  8
0
100
AcDbLine
 10
65.28454962301418
 20
265.2338178928943
 30
0.0
 11
65.28454962301418
 21
270.4738178928943
 31
0.0
  0
LINE
  5
67C
330
1F
100
AcDbEntity
  8
0
100
AcDbLine
 10
66.78454962301419
 20
284.4738178928943
 30
0.0
 11
65.28454962301509
 21
284.4738178928943
 31
0.0
  0
LINE
  5
67D
330
1F
100
AcDbEntity
  8
0
100
AcDbLine
 10
65.28454962301509
 20
283.4738178928943
 30
0.0
 11
66.78454962301419
 21
283.4738178928943
 31
0.0
  0
LINE
  5
67E
330
1F
100
AcDbEntity
  8
0
100
AcDbLine
 10
66.78454962301419
 20
283.4738178928943
 30
0.0
 11
66.78454962301419
 21
284.4738178928943
 31
0.0
  0
LINE
  5
67F
330
1F
100
AcDbEntity
  8
0
100
AcDbLine
 10
66.78454962301419
 20
279.9738178928943
 30
0.0
 11
65.28454962301418
 21
279.9738178928943
 31
0.0
  0
LINE
  5
680
330
1F
100
AcDbEntity
  8
0
100
AcDbLine
 10
65.28454962301418
 20
276.9738178928943
 30
0.0
 11
66.78454962301419
 21
276.9738178928943
 31
0.0
  0
LINE
  5
681
330
1F
100
AcDbEntity
  8
0
100
AcDbLine
 10
66.78454962301419
 20
276.9738178928943
 30
0.0
 11
66.78454962301419
 21
277.9738178928943
 31
0.0
  0
LINE
  5
682
330
1F
100
AcDbEntity
  8
0
100
AcDbLine
 10
66.78454962301419
 20
276.9738178928943
 30
0.0
 11
66.78454962301419
 21
279.9738178928943
 31
0.0
  0
LINE
  5
683
330
1F
100
AcDbEntity
  8
0
100
AcDbLine
 10
65.28454962301418
 20
279.9738178928943
 30
0.0
 11
65.28454962301418
 21
276.9738178928943
 31
0.0
  0
LINE
  5
684
330
1F
100
AcDbEntity
  8
0
100
AcDbLine
 10
72.28454962301419
 20
265.4738178928943
 30
0.0
 11
72.28454962301419
 21
270.4738178928943
 31
0.0
  0
LINE
  5
685
330
1F
100
AcDbEntity
  8
0
100
AcDbLine
 10
72.28454962301419
 20
270.4738178928943
 30
0.0
 11
72.28454962301419
 21
265.2338178928943
 31
0.0
  0
CIRCLE
  5
686
330
1F
100
AcDbEntity
  8
0
100
AcDbCircle
 10
69.28454962301419
 20
267.5738178928941
 30
0.0
 40
0.9
  0
CIRCLE
  5
687
330
1F
100
AcDbEntity
  8
0
100
AcDbCircle
 10
69.28454962301419
 20
267.5738178928941
 30
0.0
 40
2.0
  0
LINE
  5
688
330
1F
100
AcDbEntity
  8
0
100
AcDbLine
 10
74.78454974493229
 20
271.4738177335504
 30
0.0
 11
74.78454974493229
 21
260.1738177335501
 31
0.0
  0
LINE
  5
689
330
1F
100
AcDbEntity
  8
0
100
AcDbLine
 10
74.78454974493229
 20
260.1738177335501
 30
0.0
 11
76.38454974493196
 21
260.1738177335501
 31
0.0
  0
LINE
  5
68A
330
1F
100
AcDbEntity
  8
0
100
AcDbLine
 10
75.48454962301423
 20
259.1638178928941
 30
0.0
 11
73.78454962301418
 21
259.1638178928941
 31
0.0
  0
LINE
  5
68B
330
1F
100
AcDbEntity
  8
0
100
AcDbLine
 10
74.78454974493229
 20
256.5738177335503
 30
0.0
 11
76.38454974493196
 21
256.5738177335503
 31
0.0
  0
LINE
  5
68C
330
1F
100
AcDbEntity
  8
0
100
AcDbLine
 10
75.48454962301423
 20
257.5638178928941
 30
0.0
 11
73.78454962301418
 21
257.5638178928941
 31
0.0
  0
LINE
  5
68D
330
1F
100
AcDbEntity
  8
0
100
AcDbLine
 10
72.28454962301419
 20
265.4738178928943
 30
0.0
 11
73.78454962301418
 21
265.4738178928943
 31
0.0
  0
LINE
  5
68E
330
1F
100
AcDbEntity
  8
0
100
AcDbLine
 10
73.78454962301418
 20
265.4738178928943
 30
0.0
 11
73.78454962301418
 21
265.1138178928939
 31
0.0
  0
LINE
  5
68F
330
1F
100
AcDbEntity
  8
0
100
AcDbLine
 10
67.28454962301419
 20
264.1138178928938
 30
0.0
 11
67.28454962301419
 21
263.5738178928941
 31
0.0
  0
LINE
  5
690
330
1F
100
AcDbEntity
  8
0
100
AcDbLine
 10
72.28454962301419
 20
264.1138178928938
 30
0.0
 11
67.28454962301419
 21
264.1138178928938
 31
0.0
  0
LINE
  5
691
330
1F
100
AcDbEntity
  8
0
100
AcDbLine
 10
71.48454962301423
 20
262.7838178928941
 30
0.0
 11
72.28454962301419
 21
262.7838178928941
 31
0.0
  0
LINE
  5
692
330
1F
100
AcDbEntity
  8
0
100
AcDbLine
 10
71.48454962301423
 20
260.163817892894
 30
0.0
 11
72.28454962301419
 21
260.163817892894
 31
0.0
  0
LINE
  5
693
330
1F
100
AcDbEntity
  8
0
100
AcDbLine
 10
71.48454962301423
 20
262.7838178928941
 30
0.0
 11
71.48454962301423
 21
260.163817892894
 31
0.0
  0
LINE
  5
694
330
1F
100
AcDbEntity
  8
0
100
AcDbLine
 10
71.48454962301423
 20
255.1638178928941
 30
0.0
 11
72.28454962301419
 21
255.1638178928941
 31
0.0
  0
LINE
  5
695
330
1F
100
AcDbEntity
  8
0
100
AcDbLine
 10
71.48454962301423
 20
252.5438178928939
 30
0.0
 11
72.28454962301419
 21
252.5438178928939
 31
0.0
  0
LINE
  5
696
330
1F
100
AcDbEntity
  8
0
100
AcDbLine
 10
71.48454962301423
 20
255.1638178928941
 30
0.0
 11
71.48454962301423
 21
252.5438178928939
 31
0.0
  0
LINE
  5
697
330
1F
100
AcDbEntity
  8
0
100
AcDbLine
 10
72.28454962301419
 20
260.163817892894
 30
0.0
 11
72.28454962301419
 21
255.1638178928941
 31
0.0
  0
CIRCLE
  5
698
330
1F
100
AcDbEntity
  8
0
100
AcDbCircle
 10
69.28454962301419
 20
261.4738178928943
 30
0.0
 40
0.75
  0
CIRCLE
  5
699
330
1F
100
AcDbEntity
  8
0
100
AcDbCircle
 10
69.28454962301419
 20
253.8538178928939
 30
0.0
 40
0.75
  0
LINE
  5
69A
330
1F
100
AcDbEntity
  8
0
100
AcDbLine
 10
67.28454962301419
 20
259.3738178928941
 30
0.0
 11
67.28454962301419
 21
255.9538178928943
 31
0.0
  0
CIRCLE
  5
69B
330
1F
100
AcDbEntity
  8
0
100
AcDbCircle
 10
69.28454962301419
 20
261.4738178928943
 30
0.0
 40
1.5
  0
CIRCLE
  5
69C
330
1F
100
AcDbEntity
  8
0
100
AcDbCircle
 10
69.28454962301419
 20
253.8538178928939
 30
0.0
 40
1.5
  0
LINE
  5
69D
330
1F
100
AcDbEntity
  8
0
100
AcDbLine
 10
72.28454962301419
 20
264.1138178928938
 30
0.0
 11
72.28454962301419
 21
262.7838178928941
 31
0.0
  0
LINE
  5
69E
330
1F
100
AcDbEntity
  8
0
100
AcDbLine
 10
76.38454974493196
 20
260.1738177335501
 30
0.0
 11
76.38454974493196
 21
256.5738177335503
 31
0.0
  0
LINE
  5
69F
330
1F
100
AcDbEntity
  8
0
100
AcDbLine
 10
75.48454962301423
 20
259.1638178928941
 30
0.0
 11
75.48454962301423
 21
257.5638178928941
 31
0.0
  0
LINE
  5
6A0
330
1F
100
AcDbEntity
  8
0
100
AcDbLine
 10
71.78454962301419
 20
284.9738178928943
 30
0.0
 11
70.78454962301418
 21
284.9738178928943
 31
0.0
  0
LINE
  5
6A1
330
1F
100
AcDbEntity
  8
0
100
AcDbLine
 10
70.78454962301418
 20
282.9738178928943
 30
0.0
 11
71.78454962301419
 21
282.9738178928943
 31
0.0
  0
LINE
  5
6A2
330
1F
100
AcDbEntity
  8
0
100
AcDbLine
 10
71.78454962301419
 20
282.9738178928943
 30
0.0
 11
71.78454962301419
 21
284.9738178928943
 31
0.0
  0
LINE
  5
6A3
330
1F
100
AcDbEntity
  8
0
100
AcDbLine
 10
70.78454962301418
 20
284.9738178928943
 30
0.0
 11
70.78454962301418
 21
282.9738178928943
 31
0.0
  0
LINE
  5
6A4
330
1F
100
AcDbEntity
  8
0
100
AcDbLine
 10
67.78454962301418
 20
277.9738178928943
 30
0.0
 11
74.76954962301419
 21
277.9738178928943
 31
0.0
  0
LINE
  5
6A5
330
1F
100
AcDbEntity
  8
0
100
AcDbLine
 10
37.6714611488611
 20
354.5152215316761
 30
0.0
 11
55.18454962301518
 21
354.9738178928941
 31
0.0
  0
ARC
  5
6A6
330
1F
100
AcDbEntity
  8
0
100
AcDbCircle
 10
37.68454962301518
 20
354.0153928691883
 30
0.0
 40
0.5
100
AcDbArc
 50
91.49999999999613
 51
180.0
  0
LINE
  5
6A7
330
1F
100
AcDbEntity
  8
0
100
AcDbLine
 10
77.08454974493213
 20
331.0738177335502
 30
0.0
 11
77.08454974493213
 21
322.8738177335498
 31
0.0
  0
LINE
  5
6A8
330
1F
100
AcDbEntity
  8
0
100
AcDbLine
 10
75.48454962301514
 20
323.4138178928943
 30
0.0
 11
75.48454962301514
 21
330.0538178928941
 31
0.0
  0
LINE
  5
6A9
330
1F
100
AcDbEntity
  8
0
100
AcDbLine
 10
65.28454962301509
 20
323.4138178928943
 30
0.0
 11
65.28454962301509
 21
330.0538178928941
 31
0.0
  0
LINE
  5
6AA
330
1F
100
AcDbEntity
  8
0
100
AcDbLine
 10
64.18454974493204
 20
339.0738177335502
 30
0.0
 11
64.18454974493204
 21
306.0738177335502
 31
0.0
  0
LINE
  5
6AB
330
1F
100
AcDbEntity
  8
0
100
AcDbLine
 10
65.28454962301521
 20
306.0738177335502
 30
0.0
 11
65.28454962301509
 21
339.0738177335502
 31
0.0
  0
LINE
  5
6AC
330
1F
100
AcDbEntity
  8
0
100
AcDbLine
 10
72.5345496230151
 20
322.4138178928941
 30
0.0
 11
65.28454962301418
 21
322.4138178928941
 31
0.0
  0
LINE
  5
6AD
330
1F
100
AcDbEntity
  8
0
100
AcDbLine
 10
75.48454962301514
 20
323.4138178928943
 30
0.0
 11
65.28454962301509
 21
323.4138178928943
 31
0.0
  0
LINE
  5
6AE
330
1F
100
AcDbEntity
  8
0
100
AcDbLine
 10
66.78454962301419
 20
301.1338178928941
 30
0.0
 11
67.78454962301418
 21
301.1338178928941
 31
0.0
  0
LINE
  5
6AF
330
1F
100
AcDbEntity
  8
0
100
AcDbLine
 10
65.28454962301418
 20
307.0138178928941
 30
0.0
 11
72.5345496230151
 21
307.0138178928941
 31
0.0
  0
LINE
  5
6B0
330
1F
100
AcDbEntity
  8
0
100
AcDbLine
 10
64.18454974493204
 20
306.0738177335502
 30
0.0
 11
73.48454974493222
 21
306.0738177335502
 31
0.0
  0
LINE
  5
6B1
330
1F
100
AcDbEntity
  8
0
100
AcDbLine
 10
76.1295496230142
 20
301.1338178928941
 30
0.0
 11
66.78454962301419
 21
301.1338178928941
 31
0.0
  0
LINE
  5
6B2
330
1F
100
AcDbEntity
  8
0
100
AcDbLine
 10
64.18454974493204
 20
302.17381773355
 30
0.0
 11
76.58454974493213
 21
302.17381773355
 31
0.0
  0
LINE
  5
6B3
330
1F
100
AcDbEntity
  8
0
100
AcDbLine
 10
66.78454962301419
 20
301.1338178928941
 30
0.0
 11
65.28454962301418
 21
301.1338178928941
 31
0.0
  0
LINE
  5
6B4
330
1F
100
AcDbEntity
  8
0
100
AcDbLine
 10
65.28454962301418
 20
298.1338178928941
 30
0.0
 11
66.78454962301419
 21
298.1338178928941
 31
0.0
  0
LINE
  5
6B5
330
1F
100
AcDbEntity
  8
0
100
AcDbLine
 10
66.78454962301419
 20
293.6338178928941
 30
0.0
 11
66.78454962301419
 21
294.6338178928941
 31
0.0
  0
LINE
  5
6B6
330
1F
100
AcDbEntity
  8
0
100
AcDbLine
 10
65.28454962301509
 20
293.6338178928941
 30
0.0
 11
66.78454962301419
 21
293.6338178928941
 31
0.0
  0
LINE
  5
6B7
330
1F
100
AcDbEntity
  8
0
100
AcDbLine
 10
66.78454962301419
 20
294.6338178928941
 30
0.0
 11
65.28454962301509
 21
294.6338178928941
 31
0.0
  0
LINE
  5
6B8
330
1F
100
AcDbEntity
  8
0
100
AcDbLine
 10
66.78454962301419
 20
288.5538178928941
 30
0.0
 11
66.78454962301419
 21
289.5538178928942
 31
0.0
  0
LINE
  5
6B9
330
1F
100
AcDbEntity
  8
0
100
AcDbLine
 10
65.28454962301509
 20
288.5538178928941
 30
0.0
 11
66.78454962301419
 21
288.5538178928941
 31
0.0
  0
LINE
  5
6BA
330
1F
100
AcDbEntity
  8
0
100
AcDbLine
 10
66.78454962301419
 20
289.5538178928942
 30
0.0
 11
65.28454962301509
 21
289.5538178928942
 31
0.0
  0
LINE
  5
6BB
330
1F
100
AcDbEntity
  8
0
100
AcDbLine
 10
66.78454962301419
 20
301.1338178928941
 30
0.0
 11
66.78454962301419
 21
300.1338178928938
 31
0.0
  0
LINE
  5
6BC
330
1F
100
AcDbEntity
  8
0
100
AcDbLine
 10
66.78454962301419
 20
298.1338178928941
 30
0.0
 11
66.78454962301419
 21
301.1338178928941
 31
0.0
  0
LINE
  5
6BD
330
1F
100
AcDbEntity
  8
0
100
AcDbLine
 10
65.28454962301418
 20
301.1338178928941
 30
0.0
 11
65.28454962301418
 21
298.1338178928941
 31
0.0
  0
LINE
  5
6BE
330
1F
100
AcDbEntity
  8
0
100
AcDbLine
 10
65.28454962301418
 20
322.4138178928941
 30
0.0
 11
65.28454962301418
 21
307.0138178928941
 31
0.0
  0
LINE
  5
6BF
330
1F
100
AcDbEntity
  8
0
100
AcDbLine
 10
75.2695496230142
 20
301.1338178928941
 30
0.0
 11
74.76954962301419
 21
301.1338178928941
 31
0.0
  0
LINE
  5
6C0
330
1F
100
AcDbEntity
  8
0
100
AcDbLine
 10
70.78454962301418
 20
293.1338178928941
 30
0.0
 11
71.78454962301419
 21
293.1338178928941
 31
0.0
  0
LINE
  5
6C1
330
1F
100
AcDbEntity
  8
0
100
AcDbLine
 10
71.78454962301419
 20
293.1338178928941
 30
0.0
 11
71.78454962301419
 21
295.1338178928939
 31
0.0
  0
LINE
  5
6C2
330
1F
100
AcDbEntity
  8
0
100
AcDbLine
 10
71.78454962301419
 20
295.1338178928939
 30
0.0
 11
70.78454962301418
 21
295.1338178928939
 31
0.0
  0
LINE
  5
6C3
330
1F
100
AcDbEntity
  8
0
100
AcDbLine
 10
70.78454962301418
 20
295.1338178928939
 30
0.0
 11
70.78454962301418
 21
293.1338178928941
 31
0.0
  0
LINE
  5
6C4
330
1F
100
AcDbEntity
  8
0
100
AcDbLine
 10
71.78454962301419
 20
290.0538178928943
 30
0.0
 11
70.78454962301418
 21
290.0538178928943
 31
0.0
  0
LINE
  5
6C5
330
1F
100
AcDbEntity
  8
0
100
AcDbLine
 10
70.78454962301418
 20
288.0538178928941
 30
0.0
 11
71.78454962301419
 21
288.0538178928941
 31
0.0
  0
LINE
  5
6C6
330
1F
100
AcDbEntity
  8
0
100
AcDbLine
 10
71.78454962301419
 20
288.0538178928941
 30
0.0
 11
71.78454962301419
 21
290.0538178928943
 31
0.0
  0
LINE
  5
6C7
330
1F
100
AcDbEntity
  8
0
100
AcDbLine
 10
70.78454962301418
 20
290.0538178928943
 30
0.0
 11
70.78454962301418
 21
288.0538178928941
 31
0.0
  0
LINE
  5
6C8
330
1F
100
AcDbEntity
  8
0
100
AcDbLine
 10
67.78454962301418
 20
300.1338178928938
 30
0.0
 11
74.76954962301419
 21
300.1338178928938
 31
0.0
  0
LINE
  5
6C9
330
1F
100
AcDbEntity
  8
0
100
AcDbLine
 10
73.48454974493222
 20
322.8738177335498
 30
0.0
 11
77.08454974493213
 21
322.8738177335498
 31
0.0
  0
CIRCLE
  5
6CA
330
1F
100
AcDbEntity
  8
0
100
AcDbCircle
 10
68.78454962301418
 20
312.9638178928943
 30
0.0
 40
1.0
  0
CIRCLE
  5
6CB
330
1F
100
AcDbEntity
  8
0
100
AcDbCircle
 10
68.78454962301418
 20
316.4638178928941
 30
0.0
 40
1.0
  0
CIRCLE
  5
6CC
330
1F
100
AcDbEntity
  8
0
100
AcDbCircle
 10
68.78454962301418
 20
309.4638178928943
 30
0.0
 40
1.0
  0
CIRCLE
  5
6CD
330
1F
100
AcDbEntity
  8
0
100
AcDbCircle
 10
68.78454962301418
 20
319.9638178928943
 30
0.0
 40
1.0
  0
LINE
  5
6CE
330
1F
100
AcDbEntity
  8
0
100
AcDbLine
 10
72.5345496230151
 20
307.0138178928941
 30
0.0
 11
72.5345496230151
 21
322.4138178928941
 31
0.0
  0
LINE
  5
6CF
330
1F
100
AcDbEntity
  8
0
100
AcDbLine
 10
73.48454974493222
 20
322.8738177335498
 30
0.0
 11
73.48454974493222
 21
306.0738177335502
 31
0.0
  0
CIRCLE
  5
6D0
330
1F
100
AcDbEntity
  8
0
100
AcDbCircle
 10
67.78454974493229
 20
347.7738177335503
 30
0.0
 40
1.399999999999999
  0
CIRCLE
  5
6D1
330
1F
100
AcDbEntity
  8
0
100
AcDbCircle
 10
67.78454974493229
 20
342.9738177335504
 30
0.0
 40
1.399999999999999
  0
LINE
  5
6D2
330
1F
100
AcDbEntity
  8
0
100
AcDbLine
 10
74.08454974493223
 20
339.0738177335502
 30
0.0
 11
64.18454974493204
 21
339.0738177335502
 31
0.0
  0
LINE
  5
6D3
330
1F
100
AcDbEntity
  8
0
100
AcDbLine
 10
73.18454962301415
 20
338.5538178928941
 30
0.0
 11
65.28454962301418
 21
338.5538178928941
 31
0.0
  0
LINE
  5
6D4
330
1F
100
AcDbEntity
  8
0
100
AcDbLine
 10
73.18454962301415
 20
331.0538178928952
 30
0.0
 11
65.28454962301418
 21
331.0538178928952
 31
0.0
  0
LINE
  5
6D5
330
1F
100
AcDbEntity
  8
0
100
AcDbLine
 10
75.48454962301514
 20
330.0538178928941
 30
0.0
 11
65.28454962301509
 21
330.0538178928941
 31
0.0
  0
LINE
  5
6D6
330
1F
100
AcDbEntity
  8
0
100
AcDbLine
 10
65.28454962301509
 20
337.6438178928951
 30
0.0
 11
65.68454962301415
 21
337.6438178928951
 31
0.0
  0
LINE
  5
6D7
330
1F
100
AcDbEntity
  8
0
100
AcDbLine
 10
65.28454962301509
 20
337.0438178928949
 30
0.0
 11
65.68454962301415
 21
337.0438178928949
 31
0.0
  0
LINE
  5
6D8
330
1F
100
AcDbEntity
  8
0
100
AcDbLine
 10
65.28454962301509
 20
335.1038178928952
 30
0.0
 11
65.68454962301415
 21
335.1038178928952
 31
0.0
  0
LINE
  5
6D9
330
1F
100
AcDbEntity
  8
0
100
AcDbLine
 10
65.28454962301509
 20
334.5038178928952
 30
0.0
 11
65.68454962301415
 21
334.5038178928952
 31
0.0
  0
LINE
  5
6DA
330
1F
100
AcDbEntity
  8
0
100
AcDbLine
 10
65.28454962301509
 20
331.9638178928951
 30
0.0
 11
65.68454962301415
 21
331.9638178928951
 31
0.0
  0
LINE
  5
6DB
330
1F
100
AcDbEntity
  8
0
100
AcDbLine
 10
65.28454962301509
 20
332.5638178928953
 30
0.0
 11
65.68454962301415
 21
332.5638178928953
 31
0.0
  0
LINE
  5
6DC
330
1F
100
AcDbEntity
  8
0
100
AcDbLine
 10
65.28454962301418
 20
331.0538178928952
 30
0.0
 11
65.28454962301418
 21
331.9638178928951
 31
0.0
  0
LINE
  5
6DD
330
1F
100
AcDbEntity
  8
0
100
AcDbLine
 10
65.28454962301418
 20
337.6438178928943
 30
0.0
 11
65.28454962301418
 21
338.5538178928941
 31
0.0
  0
LINE
  5
6DE
330
1F
100
AcDbEntity
  8
0
100
AcDbLine
 10
65.68454962301415
 20
331.0538178928952
 30
0.0
 11
65.68454962301415
 21
338.5538178928941
 31
0.0
  0
LINE
  5
6DF
330
1F
100
AcDbEntity
  8
0
100
AcDbLine
 10
55.18454962301518
 20
354.9738178928941
 30
0.0
 11
56.18454962301519
 21
354.9476319713251
 31
0.0
  0
LINE
  5
6E0
330
1F
100
AcDbEntity
  8
0
100
AcDbLine
 10
56.18454962301519
 20
350.9738178928941
 30
0.0
 11
56.19763809716812
 21
350.974160626652
 31
0.0
  0
LINE
  5
6E1
330
1F
100
AcDbEntity
  8
0
100
AcDbLine
 10
57.18454962301507
 20
354.4738178928942
 30
0.0
 11
56.18454962301519
 21
354.4738178928942
 31
0.0
  0
CIRCLE
  5
6E2
330
1F
100
AcDbEntity
  8
0
100
AcDbCircle
 10
72.8845497449321
 20
342.9738177335504
 30
0.0
 40
1.399999999999999
  0
LINE
  5
6E3
330
1F
100
AcDbEntity
  8
0
100
AcDbLine
 10
75.48454962301514
 20
324.8638178928938
 30
0.0
 11
70.70905469402316
 21
324.8638178928938
 31
0.0
  0
LINE
  5
6E4
330
1F
100
AcDbEntity
  8
0
100
AcDbLine
 10
75.48454962301514
 20
328.6038178928941
 30
0.0
 11
70.70905469402316
 21
328.6038178928941
 31
0.0
  0
LINE
  5
6E5
330
1F
100
AcDbEntity
  8
0
100
AcDbLine
 10
75.48454962301514
 20
327.4038178928941
 30
0.0
 11
72.48454962301514
 21
327.4038178928941
 31
0.0
  0
LINE
  5
6E6
330
1F
100
AcDbEntity
  8
0
100
AcDbLine
 10
75.48454962301514
 20
326.0638178928942
 30
0.0
 11
72.48454962301514
 21
326.0638178928942
 31
0.0
  0
LINE
  5
6E7
330
1F
100
AcDbEntity
  8
0
100
AcDbLine
 10
75.48454962301514
 20
324.8638178928938
 30
0.0
 11
72.48454962301514
 21
324.8638178928938
 31
0.0
  0
LINE
  5
6E8
330
1F
100
AcDbEntity
  8
0
100
AcDbLine
 10
74.08454974493223
 20
331.0738177335502
 30
0.0
 11
77.08454974493213
 21
331.0738177335502
 31
0.0
  0
LINE
  5
6E9
330
1F
100
AcDbEntity
  8
0
100
AcDbLine
 10
72.48454962301514
 20
327.4038178928941
 30
0.0
 11
72.48454962301514
 21
328.6038178928941
 31
0.0
  0
LINE
  5
6EA
330
1F
100
AcDbEntity
  8
0
100
AcDbLine
 10
72.48454962301514
 20
324.8638178928938
 30
0.0
 11
72.48454962301514
 21
326.0638178928942
 31
0.0
  0
LINE
  5
6EB
330
1F
100
AcDbEntity
  8
0
100
AcDbLine
 10
73.98454962301525
 20
326.0638178928942
 30
0.0
 11
73.98454962301525
 21
327.4038178928941
 31
0.0
  0
LINE
  5
6EC
330
1F
100
AcDbEntity
  8
0
100
AcDbLine
 10
74.48454962301525
 20
327.4038178928941
 30
0.0
 11
74.48454962301525
 21
328.6038178928941
 31
0.0
  0
LINE
  5
6ED
330
1F
100
AcDbEntity
  8
0
100
AcDbLine
 10
74.48454962301525
 20
324.8638178928938
 30
0.0
 11
74.48454962301525
 21
326.0638178928942
 31
0.0
  0
LINE
  5
6EE
330
1F
100
AcDbEntity
  8
0
100
AcDbLine
 10
70.70905469402316
 20
328.6038178928941
 30
0.0
 11
70.70905469402316
 21
324.8638178928938
 31
0.0
  0
CIRCLE
  5
6EF
330
1F
100
AcDbEntity
  8
0
100
AcDbCircle
 10
69.43454962301405
 20
334.8038178928941
 30
0.0
 40
1.290290050200999
  0
LINE
  5
6F0
330
1F
100
AcDbEntity
  8
0
100
AcDbLine
 10
74.08454974493223
 20
339.0738177335502
 30
0.0
 11
74.08454974493223
 21
331.0738177335502
 31
0.0
  0
LINE
  5
6F1
330
1F
100
AcDbEntity
  8
0
100
AcDbLine
 10
73.18454962301415
 20
331.0538178928952
 30
0.0
 11
73.18454962301415
 21
338.5538178928941
 31
0.0
  0
ARC
  5
6F2
330
1F
100
AcDbEntity
  8
0
100
AcDbCircle
 10
80.18454962301518
 20
359.9738178928942
 30
0.0
 40
5.5
100
AcDbArc
 50
180.0
 51
245.3800226713432
  0
CIRCLE
  5
6F3
330
1F
100
AcDbEntity
  8
0
100
AcDbCircle
 10
72.8845497449321
 20
347.7738177335503
 30
0.0
 40
1.399999999999999
  0
LINE
  5
6F4
330
1F
100
AcDbEntity
  8
0
100
AcDbLine
 10
55.18454962301518
 20
364.9738178928942
 30
0.0
 11
38.15837267470692
 21
364.5279717587033
 31
0.0
  0
ARC
  5
6F5
330
1F
100
AcDbEntity
  8
0
100
AcDbCircle
 10
38.18454962301519
 20
363.5283144337273
 30
0.0
 40
1.0
100
AcDbArc
 50
91.49999999999613
 51
180.0
  0
LINE
  5
6F6
330
1F
100
AcDbEntity
  8
0
100
AcDbLine
 10
85.68454962301519
 20
359.9738178928942
 30
0.0
 11
85.68454962301519
 21
364.9738178928942
 31
0.0
  0
LINE
  5
6F7
330
1F
100
AcDbEntity
  8
0
100
AcDbLine
 10
100.284549623015
 20
247.5738178928938
 30
0.0
 11
100.284549623015
 21
253.4738178928943
 31
0.0
  0
LINE
  5
6F8
330
1F
100
AcDbEntity
  8
0
100
AcDbLine
 10
101.184549744933
 20
267.5738177335503
 30
0.0
 11
101.184549744933
 21
232.6738177335501
 31
0.0
  0
LINE
  5
6F9
330
1F
100
AcDbEntity
  8
0
100
AcDbLine
 10
100.284549623015
 20
267.5738177335503
 30
0.0
 11
100.284549623015
 21
232.6738177335501
 31
0.0
  0
LINE
  5
6FA
330
1F
100
AcDbEntity
  8
0
100
AcDbLine
 10
86.3845497449321
 20
263.07381773355
 30
0.0
 11
86.3845497449321
 21
247.0738177335503
 31
0.0
  0
LINE
  5
6FB
330
1F
100
AcDbEntity
  8
0
100
AcDbLine
 10
87.48454962301424
 20
247.5738178928938
 30
0.0
 11
87.48454962301424
 21
261.5738178928941
 31
0.0
  0
LINE
  5
6FC
330
1F
100
AcDbEntity
  8
0
100
AcDbLine
 10
100.2845496230138
 20
247.0738178928939
 30
0.0
 11
92.38454962301421
 21
247.0738178928939
 31
0.0
  0
LINE
  5
6FD
330
1F
100
AcDbEntity
  8
0
100
AcDbLine
 10
100.2845496230138
 20
241.5738178928939
 30
0.0
 11
93.03454962301421
 21
241.5738178928939
 31
0.0
  0
LINE
  5
6FE
330
1F
100
AcDbEntity
  8
0
100
AcDbLine
 10
92.38454962301421
 20
242.0738178928943
 30
0.0
 11
100.2845496230138
 21
242.0738178928943
 31
0.0
  0
LINE
  5
6FF
330
1F
100
AcDbEntity
  8
0
100
AcDbLine
 10
93.03454962301421
 20
233.1738178928941
 30
0.0
 11
100.2845496230138
 21
233.1738178928941
 31
0.0
  0
LINE
  5
700
330
1F
100
AcDbEntity
  8
0
100
AcDbLine
 10
101.184549744933
 20
232.6738177335501
 30
0.0
 11
89.7845497449323
 21
232.6738177335501
 31
0.0
  0
LINE
  5
701
330
1F
100
AcDbEntity
  8
0
100
AcDbLine
 10
101.184549744933
 20
230.6738177335501
 30
0.0
 11
89.7845497449323
 21
230.6738177335501
 31
0.0
  0
LINE
  5
702
330
1F
100
AcDbEntity
  8
0
100
AcDbLine
 10
91.6845496230152
 20
230.1738178928941
 30
0.0
 11
99.98454962301515
 21
230.1738178928952
 31
0.0
  0
LINE
  5
703
330
1F
100
AcDbEntity
  8
0
100
AcDbLine
 10
90.88454962301524
 20
229.1738178928941
 30
0.0
 11
99.98454962301515
 21
229.1738178928941
 31
0.0
  0
LINE
  5
704
330
1F
100
AcDbEntity
  8
0
100
AcDbLine
 10
100.284549623015
 20
247.5738178928938
 30
0.0
 11
87.48454962301424
 21
247.5738178928938
 31
0.0
  0
ARC
  5
705
330
1F
100
AcDbEntity
  8
0
100
AcDbCircle
 10
91.6845496230152
 20
229.673817892894
 30
0.0
 40
0.5
100
AcDbArc
 50
90.0
 51
180.0
  0
LINE
  5
706
330
1F
100
AcDbEntity
  8
0
100
AcDbLine
 10
91.1845496230152
 20
229.673817892894
 30
0.0
 11
91.1845496230152
 21
229.1738178928941
 31
0.0
  0
LINE
  5
707
330
1F
100
AcDbEntity
  8
0
100
AcDbLine
 10
98.63454962301524
 20
222.773817892894
 30
0.0
 11
98.63454962301524
 21
225.1738178928952
 31
0.0
  0
ARC
  5
708
330
1F
100
AcDbEntity
  8
0
100
AcDbCircle
 10
96.63454962301523
 20
219.057534750303
 30
0.0
 40
2.0
100
AcDbArc
 50
0.0
 51
74.99999999999926
  0
LINE
  5
709
330
1F
100
AcDbEntity
  8
0
100
AcDbLine
 10
92.33454962301513
 20
225.1738178928952
 30
0.0
 11
92.33454962301513
 21
222.773817892894
 31
0.0
  0
ARC
  5
70A
330
1F
100
AcDbEntity
  8
0
100
AcDbCircle
 10
94.33454962301516
 20
219.6738178928941
 30
0.0
 40
2.0
100
AcDbArc
 50
74.99999999999926
 51
180.0
  0
LINE
  5
70B
330
1F
100
AcDbEntity
  8
0
100
AcDbLine
 10
94.85218771322022
 20
221.6056695454723
 30
0.0
 11
97.15218771322021
 21
220.9893864028812
 31
0.0
  0
LINE
  5
70C
330
1F
100
AcDbEntity
  8
0
100
AcDbLine
 10
92.33454962301513
 20
222.773817892894
 30
0.0
 11
98.63454962301524
 21
222.773817892894
 31
0.0
  0
LINE
  5
70D
330
1F
100
AcDbEntity
  8
0
100
AcDbLine
 10
92.33454962301513
 20
224.6738178928941
 30
0.0
 11
98.63454962301524
 21
224.6738178928941
 31
0.0
  0
LINE
  5
70E
330
1F
100
AcDbEntity
  8
0
100
AcDbLine
 10
92.33454962301513
 20
225.1738178928941
 30
0.0
 11
98.63454962301524
 21
225.1738178928941
 31
0.0
  0
LINE
  5
70F
330
1F
100
AcDbEntity
  8
0
100
AcDbLine
 10
97.08454962301516
 20
220.1738178928941
 30
0.0
 11
93.88454962301523
 21
220.1738178928952
 31
0.0
  0
CIRCLE
  5
710
330
1F
100
AcDbEntity
  8
0
100
AcDbCircle
 10
95.48454962301523
 20
227.2038178928943
 30
0.0
 40
1.399999999999999
  0
LINE
  5
711
330
1F
100
AcDbEntity
  8
0
100
AcDbLine
 10
89.7845497449323
 20
247.0738177335503
 30
0.0
 11
89.7845497449323
 21
232.6738177335501
 31
0.0
  0
LINE
  5
712
330
1F
100
AcDbEntity
  8
0
100
AcDbLine
 10
89.7845497449323
 20
247.0738177335503
 30
0.0
 11
86.3845497449321
 21
247.0738177335503
 31
0.0
  0
LINE
  5
713
330
1F
100
AcDbEntity
  8
0
100
AcDbLine
 10
95.33454962301425
 20
246.0738178928943
 30
0.0
 11
94.33454962301402
 21
246.0738178928943
 31
0.0
  0
LINE
  5
714
330
1F
100
AcDbEntity
  8
0
100
AcDbLine
 10
99.33454962301425
 20
246.0738178928943
 30
0.0
 11
93.334549623014
 21
246.0738178928943
 31
0.0
  0
CIRCLE
  5
715
330
1F
100
AcDbEntity
  8
0
100
AcDbCircle
 10
96.78454962301421
 20
235.6238178928939
 30
0.0
 40
1.0
  0
CIRCLE
  5
716
330
1F
100
AcDbEntity
  8
0
100
AcDbCircle
 10
96.78454962301421
 20
239.123817892894
 30
0.0
 40
1.0
  0
LINE
  5
717
330
1F
100
AcDbEntity
  8
0
100
AcDbLine
 10
94.33454962301402
 20
243.0738178928939
 30
0.0
 11
95.33454962301425
 21
243.0738178928939
 31
0.0
  0
LINE
  5
718
330
1F
100
AcDbEntity
  8
0
100
AcDbLine
 10
93.03454962301421
 20
241.5738178928939
 30
0.0
 11
93.03454962301421
 21
233.1738178928941
 31
0.0
  0
LINE
  5
719
330
1F
100
AcDbEntity
  8
0
100
AcDbLine
 10
93.334549623014
 20
243.0738178928939
 30
0.0
 11
99.33454962301425
 21
243.0738178928939
 31
0.0
  0
LINE
  5
71A
330
1F
100
AcDbEntity
  8
0
100
AcDbLine
 10
96.13454962301421
 20
243.0738178928939
 30
0.0
 11
96.13454962301421
 21
246.0738178928943
 31
0.0
  0
LINE
  5
71B
330
1F
100
AcDbEntity
  8
0
100
AcDbLine
 10
99.33454962301425
 20
243.0738178928939
 30
0.0
 11
99.33454962301425
 21
246.0738178928943
 31
0.0
  0
LINE
  5
71C
330
1F
100
AcDbEntity
  8
0
100
AcDbLine
 10
93.334549623014
 20
246.0738178928943
 30
0.0
 11
93.334549623014
 21
243.0738178928939
 31
0.0
  0
LINE
  5
71D
330
1F
100
AcDbEntity
  8
0
100
AcDbLine
 10
95.33454962301425
 20
243.0738178928939
 30
0.0
 11
95.33454962301425
 21
246.0738178928943
 31
0.0
  0
LINE
  5
71E
330
1F
100
AcDbEntity
  8
0
100
AcDbLine
 10
94.33454962301402
 20
246.0738178928943
 30
0.0
 11
94.33454962301402
 21
243.0738178928939
 31
0.0
  0
LINE
  5
71F
330
1F
100
AcDbEntity
  8
0
100
AcDbLine
 10
92.38454962301421
 20
247.0738178928939
 30
0.0
 11
92.38454962301421
 21
242.0738178928943
 31
0.0
  0
LINE
  5
720
330
1F
100
AcDbEntity
  8
0
100
AcDbLine
 10
100.284549623015
 20
229.8738178928952
 30
0.0
 11
100.284549623015
 21
222.773817892894
 31
0.0
  0
LINE
  5
721
330
1F
100
AcDbEntity
  8
0
100
AcDbLine
 10
99.98454962301515
 20
222.773817892894
 30
0.0
 11
100.284549623015
 21
222.773817892894
 31
0.0
  0
LINE
  5
722
330
1F
100
AcDbEntity
  8
0
100
AcDbLine
 10
99.98454962301515
 20
215.3838178928952
 30
0.0
 11
100.284549623015
 21
215.3838178928952
 31
0.0
  0
LINE
  5
723
330
1F
100
AcDbEntity
  8
0
100
AcDbLine
 10
99.98454962301515
 20
214.1138178928952
 30
0.0
 11
100.284549623015
 21
214.1138178928952
 31
0.0
  0
LINE
  5
724
330
1F
100
AcDbEntity
  8
0
100
AcDbLine
 10
99.98454962301515
 20
217.9238178928952
 30
0.0
 11
100.284549623015
 21
217.9238178928952
 31
0.0
  0
LINE
  5
725
330
1F
100
AcDbEntity
  8
0
100
AcDbLine
 10
99.98454962301515
 20
216.6538178928949
 30
0.0
 11
100.284549623015
 21
216.6538178928949
 31
0.0
  0
LINE
  5
726
330
1F
100
AcDbEntity
  8
0
100
AcDbLine
 10
99.98454962301515
 20
215.3838178928952
 30
0.0
 11
100.284549623015
 21
215.3838178928952
 31
0.0
  0
LINE
  5
727
330
1F
100
AcDbEntity
  8
0
100
AcDbLine
 10
99.98454962301515
 20
219.1938178928943
 30
0.0
 11
100.284549623015
 21
219.1938178928943
 31
0.0
  0
LINE
  5
728
330
1F
100
AcDbEntity
  8
0
100
AcDbLine
 10
99.98454962301515
 20
217.9238178928952
 30
0.0
 11
100.284549623015
 21
217.9238178928952
 31
0.0
  0
LINE
  5
729
330
1F
100
AcDbEntity
  8
0
100
AcDbLine
 10
99.98454962301515
 20
212.8438178928952
 30
0.0
 11
100.284549623015
 21
212.8438178928952
 31
0.0
  0
LINE
  5
72A
330
1F
100
AcDbEntity
  8
0
100
AcDbLine
 10
99.98454962301515
 20
211.573817892895
 30
0.0
 11
100.284549623015
 21
211.573817892895
 31
0.0
  0
ARC
  5
72B
330
1F
100
AcDbEntity
  8
0
100
AcDbCircle
 10
99.98454962301515
 20
229.8738178928952
 30
0.0
 40
0.3
100
AcDbArc
 50
0.0
 51
90.0
  0
LINE
  5
72C
330
1F
100
AcDbEntity
  8
0
100
AcDbLine
 10
100.2845496230138
 20
233.1738178928941
 30
0.0
 11
100.2845496230138
 21
241.5738178928939
 31
0.0
  0
LINE
  5
72D
330
1F
100
AcDbEntity
  8
0
100
AcDbLine
 10
100.2845496230138
 20
242.0738178928943
 30
0.0
 11
100.2845496230138
 21
247.0738178928939
 31
0.0
  0
LINE
  5
72E
330
1F
100
AcDbEntity
  8
0
100
AcDbLine
 10
101.184549744933
 20
267.5738177335503
 30
0.0
 11
89.7845497449323
 21
267.5738177335503
 31
0.0
  0
LINE
  5
72F
330
1F
100
AcDbEntity
  8
0
100
AcDbLine
 10
100.2845496230138
 20
267.0738178928943
 30
0.0
 11
92.38454962301421
 21
267.0738178928943
 31
0.0
  0
LINE
  5
730
330
1F
100
AcDbEntity
  8
0
100
AcDbLine
 10
92.38454962301421
 20
262.0738178928941
 30
0.0
 11
100.2845496230138
 21
262.0738178928941
 31
0.0
  0
LINE
  5
731
330
1F
100
AcDbEntity
  8
0
100
AcDbLine
 10
100.284549623015
 20
261.5738178928941
 30
0.0
 11
87.48454962301424
 21
261.5738178928941
 31
0.0
  0
LINE
  5
732
330
1F
100
AcDbEntity
  8
0
100
AcDbLine
 10
89.7845497449323
 20
263.07381773355
 30
0.0
 11
89.7845497449323
 21
267.5738177335503
 31
0.0
  0
CIRCLE
  5
733
330
1F
100
AcDbEntity
  8
0
100
AcDbCircle
 10
93.78454962301509
 20
254.5738178928943
 30
0.0
 40
5.5
  0
LINE
  5
734
330
1F
100
AcDbEntity
  8
0
100
AcDbLine
 10
89.7845497449323
 20
263.07381773355
 30
0.0
 11
86.3845497449321
 21
263.07381773355
 31
0.0
  0
LINE
  5
735
330
1F
100
AcDbEntity
  8
0
100
AcDbLine
 10
95.33454962301425
 20
266.0738178928941
 30
0.0
 11
94.33454962301402
 21
266.0738178928941
 31
0.0
  0
LINE
  5
736
330
1F
100
AcDbEntity
  8
0
100
AcDbLine
 10
99.33454962301425
 20
266.0738178928941
 30
0.0
 11
93.334549623014
 21
266.0738178928941
 31
0.0
  0
LINE
  5
737
330
1F
100
AcDbEntity
  8
0
100
AcDbLine
 10
94.33454962301402
 20
263.0738178928943
 30
0.0
 11
95.33454962301425
 21
263.0738178928943
 31
0.0
  0
LINE
  5
738
330
1F
100
AcDbEntity
  8
0
100
AcDbLine
 10
93.334549623014
 20
263.0738178928943
 30
0.0
 11
99.33454962301425
 21
263.0738178928943
 31
0.0
  0
LINE
  5
739
330
1F
100
AcDbEntity
  8
0
100
AcDbLine
 10
99.33454962301425
 20
263.0738178928943
 30
0.0
 11
99.33454962301425
 21
266.0738178928941
 31
0.0
  0
LINE
  5
73A
330
1F
100
AcDbEntity
  8
0
100
AcDbLine
 10
96.13454962301421
 20
263.0738178928943
 30
0.0
 11
96.13454962301421
 21
266.0738178928941
 31
0.0
  0
LINE
  5
73B
330
1F
100
AcDbEntity
  8
0
100
AcDbLine
 10
95.33454962301425
 20
263.0738178928943
 30
0.0
 11
95.33454962301425
 21
266.0738178928941
 31
0.0
  0
LINE
  5
73C
330
1F
100
AcDbEntity
  8
0
100
AcDbLine
 10
94.33454962301402
 20
266.0738178928941
 30
0.0
 11
94.33454962301402
 21
263.0738178928943
 31
0.0
  0
LINE
  5
73D
330
1F
100
AcDbEntity
  8
0
100
AcDbLine
 10
93.334549623014
 20
266.0738178928941
 30
0.0
 11
93.334549623014
 21
263.0738178928943
 31
0.0
  0
LINE
  5
73E
330
1F
100
AcDbEntity
  8
0
100
AcDbLine
 10
92.38454962301421
 20
267.0738178928943
 30
0.0
 11
92.38454962301421
 21
262.0738178928941
 31
0.0
  0
LINE
  5
73F
330
1F
100
AcDbEntity
  8
0
100
AcDbLine
 10
100.284549623015
 20
255.6738178928941
 30
0.0
 11
100.284549623015
 21
261.5738178928941
 31
0.0
  0
LINE
  5
740
330
1F
100
AcDbEntity
  8
0
100
AcDbLine
 10
100.2845496230138
 20
262.0738178928941
 30
0.0
 11
100.2845496230138
 21
267.0738178928943
 31
0.0
  0
ARC
  5
741
330
1F
100
AcDbEntity
  8
0
100
AcDbCircle
 10
108.1845496230151
 20
363.9738178928942
 30
0.0
 40
1.0
100
AcDbArc
 50
0.0
 51
90.0
  0
ARC
  5
742
330
1F
100
AcDbEntity
  8
0
100
AcDbCircle
 10
108.1845496230151
 20
363.9738178928942
 30
0.0
 40
1.0
100
AcDbArc
 50
0.0
 51
90.0
  0
LINE
  5
743
330
1F
100
AcDbEntity
  8
0
100
AcDbLine
 10
101.184549744933
 20
267.5738177335503
 30
0.0
 11
89.78454974493308
 21
267.5738177335503
 31
0.0
  0
INSERT
  5
744
330
1F
100
AcDbEntity
  8
0
100
AcDbBlockReference
  2
A$C3E87127B
 10
80.18454962301484
 20
359.9738178928942
 30
0.0
  0
LINE
  5
843
330
1F
100
AcDbEntity
  8
0
100
AcDbLine
 10
55.1845496230153
 20
5.00000381446341
 30
0.0
 11
109.1845496230152
 21
3.585964049726383
 31
0.0
  0
LINE
  5
844
330
1F
100
AcDbEntity
  8
0
100
AcDbLine
 10
109.1845496230152
 20
3.585964049726383
 30
0.0
 11
56.1845496230153
 21
4.973817892894428
 31
0.0
  0
LINE
  5
846
330
1F
100
AcDbEntity
  8
0
100
AcDbLine
 10
67.1845496230153
 20
21.97381789289442
 30
0.0
 11
109.1845496230152
 21
21.97381789289442
 31
0.0
  0
LINE
  5
847
330
1F
100
AcDbEntity
  8
0
100
AcDbLine
 10
108.1845496230152
 20
42.97381789289443
 30
0.0
 11
67.1845496230153
 21
42.97381789289443
 31
0.0
  0
LINE
  5
848
330
1F
100
AcDbEntity
  8
0
100
AcDbLine
 10
108.1845496230152
 20
40.97381789289442
 30
0.0
 11
67.1845496230153
 21
40.97381789289442
 31
0.0
  0
LINE
  5
849
330
1F
100
AcDbEntity
  8
0
100
AcDbLine
 10
108.1845496230152
 20
35.97381789289441
 30
0.0
 11
67.1845496230153
 21
35.97381789289441
 31
0.0
  0
LINE
  5
84A
330
1F
100
AcDbEntity
  8
0
100
AcDbLine
 10
108.1845496230152
 20
33.97381789289443
 30
0.0
 11
67.1845496230153
 21
33.97381789289443
 31
0.0
  0
LINE
  5
84B
330
1F
100
AcDbEntity
  8
0
100
AcDbLine
 10
108.1845496230152
 20
28.97381789289442
 30
0.0
 11
67.1845496230153
 21
28.97381789289442
 31
0.0
  0
LINE
  5
84C
330
1F
100
AcDbEntity
  8
0
100
AcDbLine
 10
108.1845496230152
 20
26.97381789289442
 30
0.0
 11
67.1845496230153
 21
26.97381789289442
 31
0.0
  0
LINE
  5
84D
330
1F
100
AcDbEntity
  8
0
100
AcDbLine
 10
57.1845496230153
 20
120.9738178928944
 30
0.0
 11
109.1845496230152
 21
120.9738178928944
 31
0.0
  0
LINE
  5
84F
330
1F
100
AcDbEntity
  8
0
100
AcDbLine
 10
37.1845496230153
 20
0.0000038144634261
 30
0.0
 11
109.1845496230152
 21
0.0000038144634118
 31
0.0
  0
LINE
  5
850
330
1F
100
AcDbEntity
  8
0
100
AcDbLine
 10
37.1845496230153
 20
79.00000381446344
 30
0.0
 11
37.1845496230153
 21
54.00000381446338
 31
0.0
  0
LINE
  5
852
330
1F
100
AcDbEntity
  8
0
100
AcDbLine
 10
56.1845496230153
 20
71.00000381446341
 30
0.0
 11
56.1845496230153
 21
33.0000038144634
 31
0.0
  0
LINE
  5
853
330
1F
100
AcDbEntity
  8
0
100
AcDbLine
 10
57.1845496230153
 20
32.9738178928954
 30
0.0
 11
57.1845496230153
 21
70.97381789289444
 31
0.0
  0
LINE
  5
854
330
1F
100
AcDbEntity
  8
0
100
AcDbLine
 10
67.1845496230153
 20
103.9738178928942
 30
0.0
 11
67.1845496230153
 21
21.97381789289442
 31
0.0
  0
ARC
  5
855
330
1F
100
AcDbEntity
  8
0
100
AcDbCircle
 10
38.1845496230153
 20
56.05154458741537
 30
0.0
 40
1.0
100
AcDbArc
 50
93.03047684586102
 51
180.0
  0
LINE
  5
856
330
1F
100
AcDbEntity
  8
0
100
AcDbLine
 10
55.1845496230153
 20
5.00000381446341
 30
0.0
 11
37.1845496230153
 21
4.528657226217447
 31
0.0
  0
LINE
  5
857
330
1F
100
AcDbEntity
  8
0
100
AcDbLine
 10
37.1845496230153
 20
21.17552153110545
 30
0.0
 11
37.1845496230153
 21
0.0000038144634261
 31
0.0
  0
LINE
  5
858
330
1F
100
AcDbEntity
  8
0
100
AcDbLine
 10
37.33099623242196
 20
53.64645042387014
 30
0.0
 11
41.18454962301528
 21
52.0000038144634
 31
0.0
  0
LINE
  5
859
330
1F
100
AcDbEntity
  8
0
100
AcDbLine
 10
37.65838164489422
 20
21.67483629848346
 30
0.0
 11
48.76305355738033
 21
22.25680749308343
 31
0.0
  0
LINE
  5
85A
330
1F
100
AcDbEntity
  8
0
100
AcDbLine
 10
38.13168248187526
 20
29.05014614228447
 30
0.0
 11
48.76385033472637
 21
29.61302561684737
 31
0.0
  0
LINE
  5
85B
330
1F
100
AcDbEntity
  8
0
100
AcDbLine
 10
38.13168248187526
 20
26.94986148664145
 30
0.0
 11
48.76385033472637
 21
26.38698201207839
 31
0.0
  0
LINE
  5
85C
330
1F
100
AcDbEntity
  8
0
100
AcDbLine
 10
38.13168248187526
 20
54.94986148664145
 30
0.0
 11
48.76385033472637
 21
54.38698201207841
 31
0.0
  0
LINE
  5
85D
330
1F
100
AcDbEntity
  8
0
100
AcDbLine
 10
38.13168248187526
 20
50.05014614228445
 30
0.0
 11
48.76385033472637
 21
50.61302561684738
 31
0.0
  0
LINE
  5
85E
330
1F
100
AcDbEntity
  8
0
100
AcDbLine
 10
38.13168248187526
 20
47.94986148664145
 30
0.0
 11
48.76385033472637
 21
47.38698201207841
 31
0.0
  0
LINE
  5
85F
330
1F
100
AcDbEntity
  8
0
100
AcDbLine
 10
38.13168248187526
 20
43.05014614228444
 30
0.0
 11
48.76385033472637
 21
43.61302561684738
 31
0.0
  0
LINE
  5
860
330
1F
100
AcDbEntity
  8
0
100
AcDbLine
 10
38.13168248187526
 20
40.94986148664146
 30
0.0
 11
48.76385033472637
 21
40.38698201207842
 31
0.0
  0
LINE
  5
861
330
1F
100
AcDbEntity
  8
0
100
AcDbLine
 10
38.13168248187526
 20
36.05014614228443
 30
0.0
 11
48.76385033472637
 21
36.61302561684738
 31
0.0
  0
LINE
  5
862
330
1F
100
AcDbEntity
  8
0
100
AcDbLine
 10
38.13168248187526
 20
33.94986148664147
 30
0.0
 11
48.76385033472637
 21
33.38698201207842
 31
0.0
  0
POINT
  5
863
330
1F
100
AcDbEntity
  8
0
100
AcDbPoint
 10
37.1845496230153
 20
21.65000381446339
 30
0.0
  0
ARC
  5
864
330
1F
100
AcDbEntity
  8
0
100
AcDbCircle
 10
37.6845496230153
 20
21.17552153110545
 30
0.0
 40
0.5
100
AcDbArc
 50
92.9999999999991
 51
180.0
  0
LINE
  5
865
330
1F
100
AcDbEntity
  8
0
100
AcDbLine
 10
37.1845496230153
 20
28.05154458741538
 30
0.0
 11
37.1845496230153
 21
27.94846304151043
 31
0.0
  0
ARC
  5
866
330
1F
100
AcDbEntity
  8
0
100
AcDbCircle
 10
38.1845496230153
 20
28.05154458741538
 30
0.0
 40
1.0
100
AcDbArc
 50
93.03047684586102
 51
180.0
  0
ARC
  5
867
330
1F
100
AcDbEntity
  8
0
100
AcDbCircle
 10
38.1845496230153
 20
27.94846304151043
 30
0.0
 40
1.0
100
AcDbArc
 50
180.0
 51
266.9695231541389
  0
LINE
  5
868
330
1F
100
AcDbEntity
  8
0
100
AcDbLine
 10
37.1845496230153
 20
35.05154458741538
 30
0.0
 11
37.1845496230153
 21
34.94846304151041
 31
0.0
  0
ARC
  5
869
330
1F
100
AcDbEntity
  8
0
100
AcDbCircle
 10
38.1845496230153
 20
35.05154458741538
 30
0.0
 40
1.0
100
AcDbArc
 50
93.03047684586102
 51
180.0
  0
ARC
  5
86A
330
1F
100
AcDbEntity
  8
0
100
AcDbCircle
 10
38.1845496230153
 20
34.94846304151042
 30
0.0
 40
1.0
100
AcDbArc
 50
180.0
 51
266.9695231541389
  0
ARC
  5
86B
330
1F
100
AcDbEntity
  8
0
100
AcDbCircle
 10
37.6845496230153
 20
54.00000381446338
 30
0.0
 40
0.5
100
AcDbArc
 50
180.0
 51
224.9999999999904
  0
LINE
  5
86C
330
1F
100
AcDbEntity
  8
0
100
AcDbLine
 10
37.1845496230153
 20
42.05154458741538
 30
0.0
 11
37.1845496230153
 21
41.94846304151041
 31
0.0
  0
ARC
  5
86D
330
1F
100
AcDbEntity
  8
0
100
AcDbCircle
 10
38.1845496230153
 20
42.05154458741538
 30
0.0
 40
1.0
100
AcDbArc
 50
93.03047684586102
 51
180.0
  0
ARC
  5
86E
330
1F
100
AcDbEntity
  8
0
100
AcDbCircle
 10
38.1845496230153
 20
41.94846304151041
 30
0.0
 40
1.0
100
AcDbArc
 50
180.0
 51
266.9695231541389
  0
LINE
  5
86F
330
1F
100
AcDbEntity
  8
0
100
AcDbLine
 10
37.1845496230153
 20
56.05154458741537
 30
0.0
 11
37.1845496230153
 21
55.94846304151043
 31
0.0
  0
ARC
  5
870
330
1F
100
AcDbEntity
  8
0
100
AcDbCircle
 10
38.1845496230153
 20
55.94846304151043
 30
0.0
 40
1.0
100
AcDbArc
 50
180.0
 51
266.9695231541389
  0
LINE
  5
871
330
1F
100
AcDbEntity
  8
0
100
AcDbLine
 10
37.1845496230153
 20
49.05154458741538
 30
0.0
 11
37.1845496230153
 21
48.94846304151043
 31
0.0
  0
ARC
  5
872
330
1F
100
AcDbEntity
  8
0
100
AcDbCircle
 10
38.1845496230153
 20
49.05154458741538
 30
0.0
 40
1.0
100
AcDbArc
 50
93.03047684586102
 51
180.0
  0
ARC
  5
873
330
1F
100
AcDbEntity
  8
0
100
AcDbCircle
 10
38.1845496230153
 20
48.94846304151043
 30
0.0
 40
1.0
100
AcDbArc
 50
180.0
 51
266.9695231541389
  0
ARC
  5
874
330
1F
100
AcDbEntity
  8
0
100
AcDbCircle
 10
48.6845496230153
 20
38.11092794915148
 30
0.0
 40
1.5
100
AcDbArc
 50
273.030476845861
 51
0.0
  0
LINE
  5
875
330
1F
100
AcDbEntity
  8
0
100
AcDbLine
 10
50.1845496230153
 20
31.88907967977445
 30
0.0
 11
50.1845496230153
 21
31.11092794915145
 31
0.0
  0
ARC
  5
876
330
1F
100
AcDbEntity
  8
0
100
AcDbCircle
 10
48.6845496230153
 20
31.11092794915145
 30
0.0
 40
1.5
100
AcDbArc
 50
273.030476845861
 51
0.0
  0
LINE
  5
877
330
1F
100
AcDbEntity
  8
0
100
AcDbLine
 10
50.1845496230153
 20
24.88907967977445
 30
0.0
 11
50.1845496230153
 21
23.75475179521537
 31
0.0
  0
ARC
  5
878
330
1F
100
AcDbEntity
  8
0
100
AcDbCircle
 10
48.6845496230153
 20
24.88907967977446
 30
0.0
 40
1.5
100
AcDbArc
 50
0.0
 51
86.96952315413893
  0
ARC
  5
879
330
1F
100
AcDbEntity
  8
0
100
AcDbCircle
 10
48.6845496230153
 20
23.7547517952154
 30
0.0
 40
1.5
100
AcDbArc
 50
273.0000000000056
 51
0.0
  0
ARC
  5
87A
330
1F
100
AcDbEntity
  8
0
100
AcDbCircle
 10
48.6845496230153
 20
31.88907967977447
 30
0.0
 40
1.5
100
AcDbArc
 50
0.0
 51
86.96952315413893
  0
LINE
  5
87B
330
1F
100
AcDbEntity
  8
0
  6
CONTINUOUS
100
AcDbLine
 10
43.1845496230153
 20
46.50000381446338
 30
0.0
 11
50.0545027980014
 21
46.50000381446338
 31
0.0
  0
LINE
  5
87C
330
1F
100
AcDbEntity
  8
0
  6
CONTINUOUS
100
AcDbLine
 10
41.18454962301519
 20
54.78823910858103
 30
0.0
 11
41.18454962301528
 21
54.00000381446338
 31
0.0
  0
LINE
  5
87D
330
1F
100
AcDbEntity
  8
0
  6
CONTINUOUS
100
AcDbLine
 10
43.1845496230153
 20
54.68235675563978
 30
0.0
 11
43.1845496230153
 21
50.31765087328611
 31
0.0
  0
LINE
  5
87E
330
1F
100
AcDbEntity
  8
0
100
AcDbLine
 10
39.1845496230153
 20
54.89412146152222
 30
0.0
 11
39.1845496230153
 21
54.85451207866756
 31
0.0
  0
LINE
  5
87F
330
1F
100
AcDbEntity
  8
0
100
AcDbLine
 10
41.18454962301528
 20
47.788239108581
 30
0.0
 11
41.18454962301528
 21
47.00000381446338
 31
0.0
  0
LINE
  5
880
330
1F
100
AcDbEntity
  8
0
100
AcDbLine
 10
43.1845496230153
 20
50.31765087328611
 30
0.0
 11
43.1845496230153
 21
54.00000381446338
 31
0.0
  0
LINE
  5
881
330
1F
100
AcDbEntity
  8
0
  6
CONTINUOUS
100
AcDbLine
 10
43.1845496230153
 20
47.68235675563977
 30
0.0
 11
43.1845496230153
 21
46.50000381446338
 31
0.0
  0
LINE
  5
882
330
1F
100
AcDbEntity
  8
0
100
AcDbLine
 10
39.1845496230153
 20
52.85451207866749
 30
0.0
 11
39.1845496230153
 21
52.0000038144634
 31
0.0
  0
LINE
  5
883
330
1F
100
AcDbEntity
  8
0
100
AcDbLine
 10
39.1845496230153
 20
54.85451207866756
 30
0.0
 11
41.18454962301528
 21
54.00000381446338
 31
0.0
  0
LINE
  5
884
330
1F
100
AcDbEntity
  8
0
100
AcDbLine
 10
39.1845496230153
 20
54.85451207866749
 30
0.0
 11
39.1845496230153
 21
54.89412146152222
 31
0.0
  0
ARC
  5
885
330
1F
100
AcDbEntity
  8
0
100
AcDbCircle
 10
39.6845496230153
 20
52.0000038144634
 30
0.0
 40
0.5
100
AcDbArc
 50
180.0
 51
270.0
  0
ARC
  5
886
330
1F
100
AcDbEntity
  8
0
100
AcDbCircle
 10
40.6845496230153
 20
52.0000038144634
 30
0.0
 40
0.5
100
AcDbArc
 50
270.0
 51
0.0
  0
LINE
  5
887
330
1F
100
AcDbEntity
  8
0
100
AcDbLine
 10
39.6845496230153
 20
51.50000381446338
 30
0.0
 11
40.6845496230153
 21
51.50000381446338
 31
0.0
  0
ARC
  5
888
330
1F
100
AcDbEntity
  8
0
100
AcDbCircle
 10
41.6845496230153
 20
47.00000381446338
 30
0.0
 40
0.5
100
AcDbArc
 50
180.0
 51
270.0
  0
ARC
  5
889
330
1F
100
AcDbEntity
  8
0
100
AcDbCircle
 10
42.68454962301553
 20
47.00000381446338
 30
0.0
 40
0.5
100
AcDbArc
 50
270.0
 51
0.0
  0
ARC
  5
88A
330
1F
100
AcDbEntity
  8
0
100
AcDbCircle
 10
42.6845496230153
 20
54.00000381446338
 30
0.0
 40
0.5
100
AcDbArc
 50
0.0
 51
90.0
  0
ARC
  5
88B
330
1F
100
AcDbEntity
  8
0
100
AcDbCircle
 10
41.6845496230153
 20
54.00000381446338
 30
0.0
 40
0.5
100
AcDbArc
 50
90.0
 51
180.0
  0
LINE
  5
88C
330
1F
100
AcDbEntity
  8
0
100
AcDbLine
 10
41.18454962301528
 20
52.00000381446354
 30
0.0
 11
41.18454962301528
 21
50.21176852034487
 31
0.0
  0
LINE
  5
88D
330
1F
100
AcDbEntity
  8
0
100
AcDbLine
 10
42.6845496230153
 20
54.5000038144634
 30
0.0
 11
41.6845496230153
 21
54.5000038144634
 31
0.0
  0
LINE
  5
88E
330
1F
100
AcDbEntity
  8
0
100
AcDbLine
 10
43.18454962301553
 20
47.00000381446338
 30
0.0
 11
43.18454962301553
 21
47.68235675563975
 31
0.0
  0
LINE
  5
88F
330
1F
100
AcDbEntity
  8
0
100
AcDbLine
 10
41.6845496230153
 20
46.50000381446338
 30
0.0
 11
42.68454962301553
 21
46.50000381446338
 31
0.0
  0
LINE
  5
890
330
1F
100
AcDbEntity
  8
0
100
AcDbLine
 10
50.1845496230153
 20
38.88907967977445
 30
0.0
 11
50.1845496230153
 21
38.11092794915145
 31
0.0
  0
LINE
  5
891
330
1F
100
AcDbEntity
  8
0
100
AcDbLine
 10
49.1845496230153
 20
43.69671438677846
 30
0.0
 11
49.1845496230153
 21
46.50000381446338
 31
0.0
  0
LINE
  5
892
330
1F
100
AcDbEntity
  8
0
100
AcDbLine
 10
50.1845496230153
 20
45.88907967977445
 30
0.0
 11
50.1845496230153
 21
45.11092794915144
 31
0.0
  0
ARC
  5
893
330
1F
100
AcDbEntity
  8
0
100
AcDbCircle
 10
48.6845496230153
 20
45.88907967977445
 30
0.0
 40
1.5
100
AcDbArc
 50
0.0
 51
86.96952315413893
  0
ARC
  5
894
330
1F
100
AcDbEntity
  8
0
100
AcDbCircle
 10
48.6845496230153
 20
45.11092794915144
 30
0.0
 40
1.5
100
AcDbArc
 50
273.030476845861
 51
0.0
  0
ARC
  5
895
330
1F
100
AcDbEntity
  8
0
100
AcDbCircle
 10
48.6845496230153
 20
38.88907967977445
 30
0.0
 40
1.5
100
AcDbArc
 50
0.0
 51
86.96952315413893
  0
LINE
  5
896
330
1F
100
AcDbEntity
  8
0
100
AcDbLine
 10
50.1845496230153
 20
52.88907967977445
 30
0.0
 11
50.1845496230153
 21
52.11092794915145
 31
0.0
  0
ARC
  5
897
330
1F
100
AcDbEntity
  8
0
100
AcDbCircle
 10
48.6845496230153
 20
52.88907967977445
 30
0.0
 40
1.5
100
AcDbArc
 50
0.0
 51
86.96952315413893
  0
ARC
  5
898
330
1F
100
AcDbEntity
  8
0
100
AcDbCircle
 10
48.6845496230153
 20
52.11092794915145
 30
0.0
 40
1.5
100
AcDbArc
 50
273.030476845861
 51
0.0
  0
LINE
  5
899
330
1F
100
AcDbEntity
  8
0
100
AcDbLine
 10
56.1845496230153
 20
21.00000381446339
 30
0.0
 11
56.1845496230153
 21
4.973817892893405
 31
0.0
  0
LINE
  5
89A
330
1F
100
AcDbEntity
  8
0
100
AcDbLine
 10
57.1845496230153
 20
4.92144604975641
 30
0.0
 11
57.1845496230153
 21
20.97381789289442
 31
0.0
  0
LINE
  5
89B
330
1F
100
AcDbEntity
  8
0
100
AcDbLine
 10
82.47583747049224
 20
4.259170369798424
 30
0.0
 11
82.47583747049224
 21
21.97381789289442
 31
0.0
  0
LINE
  5
89C
330
1F
100
AcDbEntity
  8
0
100
AcDbLine
 10
77.8932617755372
 20
4.379169337531378
 30
0.0
 11
77.8932617755372
 21
21.97381789289543
 31
0.0
  0
LINE
  5
89D
330
1F
100
AcDbEntity
  8
0
100
AcDbLine
 10
78.08454962301425
 20
3.800003814462396
 30
0.0
 11
78.08454962301425
 21
0.0000038144634118
 31
0.0
  0
LINE
  5
89E
330
1F
100
AcDbEntity
  8
0
100
AcDbLine
 10
82.28454962301521
 20
3.800003814462396
 30
0.0
 11
82.28454962301521
 21
0.0000038144634118
 31
0.0
  0
LINE
  5
89F
330
1F
100
AcDbEntity
  8
0
100
AcDbLine
 10
74.6845496230153
 20
3.800003814462396
 30
0.0
 11
85.68454962301528
 21
3.800003814462396
 31
0.0
  0
LINE
  5
8A0
330
1F
100
AcDbEntity
  8
0
100
AcDbLine
 10
74.6845496230153
 20
4.489378343863448
 30
0.0
 11
74.6845496230153
 21
3.800003814462396
 31
0.0
  0
LINE
  5
8A1
330
1F
100
AcDbEntity
  8
0
100
AcDbLine
 10
85.68454962301528
 20
4.201333206603406
 30
0.0
 11
85.68454962301528
 21
3.800003814462396
 31
0.0
  0
LINE
  5
8A5
330
1F
100
AcDbEntity
  8
0
100
AcDbLine
 10
60.6845496230153
 20
23.00000381446341
 30
0.0
 11
59.18454962301427
 21
23.00000381446341
 31
0.0
  0
LINE
  5
8A6
330
1F
100
AcDbEntity
  8
0
100
AcDbLine
 10
60.88454962301418
 20
22.47381789289442
 30
0.0
 11
59.18454962301427
 21
22.47381789289442
 31
0.0
  0
LINE
  5
8A7
330
1F
100
AcDbEntity
  8
0
100
AcDbLine
 10
56.1845496230153
 20
21.00000381446339
 30
0.0
 11
54.88454962301535
 21
21.00000381446339
 31
0.0
  0
LINE
  5
8A8
330
1F
100
AcDbEntity
  8
0
100
AcDbLine
 10
57.1845496230153
 20
20.97381789289442
 30
0.0
 11
56.1845496230153
 21
20.97381789289442
 31
0.0
  0
LINE
  5
8A9
330
1F
100
AcDbEntity
  8
0
100
AcDbLine
 10
60.6845496230153
 20
31.00000381446339
 30
0.0
 11
59.18454962301427
 21
31.00000381446339
 31
0.0
  0
LINE
  5
8AA
330
1F
100
AcDbEntity
  8
0
100
AcDbLine
 10
56.1845496230153
 20
33.0000038144634
 30
0.0
 11
54.88454962301535
 21
33.0000038144634
 31
0.0
  0
LINE
  5
8AB
330
1F
100
AcDbEntity
  8
0
100
AcDbLine
 10
60.88454962301418
 20
31.47381789289442
 30
0.0
 11
59.18454962301427
 21
31.47381789289442
 31
0.0
  0
LINE
  5
8AC
330
1F
100
AcDbEntity
  8
0
100
AcDbLine
 10
57.1845496230153
 20
32.9738178928954
 30
0.0
 11
56.1845496230153
 21
32.9738178928954
 31
0.0
  0
LINE
  5
8AD
330
1F
100
AcDbEntity
  8
0
100
AcDbLine
 10
59.28454962301522
 20
31.00000381446339
 30
0.0
 11
59.28454962301522
 21
23.00000381446341
 31
0.0
  0
LINE
  5
8AE
330
1F
100
AcDbEntity
  8
0
100
AcDbLine
 10
59.88454962301535
 20
31.00000381446339
 30
0.0
 11
59.88454962301535
 21
23.00000381446341
 31
0.0
  0
LINE
  5
8AF
330
1F
100
AcDbEntity
  8
0
100
AcDbLine
 10
60.6845496230153
 20
31.00000381446339
 30
0.0
 11
60.6845496230153
 21
23.00000381446341
 31
0.0
  0
LINE
  5
8B0
330
1F
100
AcDbEntity
  8
0
100
AcDbLine
 10
54.88454962301535
 20
33.0000038144634
 30
0.0
 11
54.88454962301535
 21
21.1000038144624
 31
0.0
  0
LINE
  5
8B1
330
1F
100
AcDbEntity
  8
0
100
AcDbLine
 10
55.6845496230153
 20
33.0000038144634
 30
0.0
 11
55.6845496230153
 21
21.00000381446339
 31
0.0
  0
LINE
  5
8B2
330
1F
100
AcDbEntity
  8
0
100
AcDbLine
 10
56.1845496230153
 20
33.0000038144634
 30
0.0
 11
56.1845496230153
 21
21.00000381446237
 31
0.0
  0
LINE
  5
8B3
330
1F
100
AcDbEntity
  8
0
100
AcDbLine
 10
59.18454962301427
 20
31.47381789289442
 30
0.0
 11
59.18454962301427
 21
22.47381789289442
 31
0.0
  0
LINE
  5
8B4
330
1F
100
AcDbEntity
  8
0
100
AcDbLine
 10
60.88454962301418
 20
31.47381789289442
 30
0.0
 11
60.88454962301418
 21
22.47381789289442
 31
0.0
  0
LINE
  5
8B7
330
1F
100
AcDbEntity
  8
0
100
AcDbLine
 10
37.1845496230153
 20
120.528657226217
 30
0.0
 11
55.18454962301825
 21
121.0000038144622
 31
0.0
  0
LINE
  5
8B8
330
1F
100
AcDbEntity
  8
0
100
AcDbLine
 10
47.98454962301627
 20
96.42823910858046
 30
0.0
 11
47.98454962301627
 21
92.57176852034545
 31
0.0
  0
LINE
  5
8B9
330
1F
100
AcDbEntity
  8
0
100
AcDbLine
 10
50.1845496230153
 20
94.88907967977445
 30
0.0
 11
50.1845496230153
 21
94.11092794915147
 31
0.0
  0
LINE
  5
8BA
330
1F
100
AcDbEntity
  8
0
100
AcDbLine
 10
37.33099623242196
 20
79.3535572050567
 30
0.0
 11
41.18454962301528
 21
81.00000381446342
 31
0.0
  0
LINE
  5
8BB
330
1F
100
AcDbEntity
  8
0
100
AcDbLine
 10
38.13168248187526
 20
64.05014614228446
 30
0.0
 11
48.76385033472637
 21
64.61302561684738
 31
0.0
  0
LINE
  5
8BC
330
1F
100
AcDbEntity
  8
0
100
AcDbLine
 10
38.13168248187526
 20
61.94986148664145
 30
0.0
 11
48.76385033472637
 21
61.38698201207842
 31
0.0
  0
LINE
  5
8BD
330
1F
100
AcDbEntity
  8
0
100
AcDbLine
 10
38.13168248187526
 20
57.05014614228445
 30
0.0
 11
48.76385033472637
 21
57.61302561684739
 31
0.0
  0
LINE
  5
8BE
330
1F
100
AcDbEntity
  8
0
100
AcDbLine
 10
38.13168248187526
 20
92.05014614228444
 30
0.0
 11
48.76385033472637
 21
92.61302561684738
 31
0.0
  0
LINE
  5
8BF
330
1F
100
AcDbEntity
  8
0
100
AcDbLine
 10
38.13168248187526
 20
89.94986148664144
 30
0.0
 11
48.76385033472637
 21
89.3869820120784
 31
0.0
  0
LINE
  5
8C0
330
1F
100
AcDbEntity
  8
0
100
AcDbLine
 10
38.13168248187526
 20
85.05014614228445
 30
0.0
 11
48.76385033472637
 21
85.61302561684737
 31
0.0
  0
LINE
  5
8C1
330
1F
100
AcDbEntity
  8
0
100
AcDbLine
 10
38.13168248187526
 20
82.94986148664145
 30
0.0
 11
48.76385033472637
 21
82.38698201207842
 31
0.0
  0
LINE
  5
8C2
330
1F
100
AcDbEntity
  8
0
100
AcDbLine
 10
38.13168248187526
 20
78.05014614228444
 30
0.0
 11
48.76385033472637
 21
78.61302561684737
 31
0.0
  0
LINE
  5
8C3
330
1F
100
AcDbEntity
  8
0
100
AcDbLine
 10
38.13168248187526
 20
75.94986148664145
 30
0.0
 11
48.76385033472637
 21
75.38698201207842
 31
0.0
  0
LINE
  5
8C4
330
1F
100
AcDbEntity
  8
0
100
AcDbLine
 10
38.13168248187526
 20
71.05014614228444
 30
0.0
 11
48.76385033472637
 21
71.61302561684737
 31
0.0
  0
LINE
  5
8C5
330
1F
100
AcDbEntity
  8
0
100
AcDbLine
 10
38.13168248187526
 20
68.94986148664145
 30
0.0
 11
48.76385033472637
 21
68.38698201207842
 31
0.0
  0
LINE
  5
8C6
330
1F
100
AcDbEntity
  8
0
100
AcDbLine
 10
37.1845496230153
 20
63.05154458741538
 30
0.0
 11
37.1845496230153
 21
62.9484630415104
 31
0.0
  0
ARC
  5
8C7
330
1F
100
AcDbEntity
  8
0
100
AcDbCircle
 10
38.1845496230153
 20
63.05154458741538
 30
0.0
 40
1.0
100
AcDbArc
 50
93.03047684586102
 51
180.0
  0
ARC
  5
8C8
330
1F
100
AcDbEntity
  8
0
100
AcDbCircle
 10
38.1845496230153
 20
62.9484630415104
 30
0.0
 40
1.0
100
AcDbArc
 50
180.0
 51
266.9695231541389
  0
LINE
  5
8C9
330
1F
100
AcDbEntity
  8
0
100
AcDbLine
 10
37.1845496230153
 20
70.05154458741538
 30
0.0
 11
37.1845496230153
 21
69.94846304151042
 31
0.0
  0
ARC
  5
8CA
330
1F
100
AcDbEntity
  8
0
100
AcDbCircle
 10
38.1845496230153
 20
70.05154458741538
 30
0.0
 40
1.0
100
AcDbArc
 50
93.03047684586102
 51
180.0
  0
ARC
  5
8CB
330
1F
100
AcDbEntity
  8
0
100
AcDbCircle
 10
38.1845496230153
 20
69.94846304151042
 30
0.0
 40
1.0
100
AcDbArc
 50
180.0
 51
266.9695231541389
  0
ARC
  5
8CC
330
1F
100
AcDbEntity
  8
0
100
AcDbCircle
 10
37.6845496230153
 20
79.00000381446344
 30
0.0
 40
0.5
100
AcDbArc
 50
134.9999999999726
 51
180.0
  0
LINE
  5
8CD
330
1F
100
AcDbEntity
  8
0
100
AcDbLine
 10
37.1845496230153
 20
77.05154458741536
 30
0.0
 11
37.1845496230153
 21
76.94846304151042
 31
0.0
  0
ARC
  5
8CE
330
1F
100
AcDbEntity
  8
0
100
AcDbCircle
 10
38.1845496230153
 20
77.05154458741536
 30
0.0
 40
1.0
100
AcDbArc
 50
93.03047684586102
 51
180.0
  0
ARC
  5
8CF
330
1F
100
AcDbEntity
  8
0
100
AcDbCircle
 10
38.1845496230153
 20
76.94846304151042
 30
0.0
 40
1.0
100
AcDbArc
 50
180.0
 51
266.9695231541389
  0
LINE
  5
8D0
330
1F
100
AcDbEntity
  8
0
100
AcDbLine
 10
37.1845496230153
 20
84.0515445874154
 30
0.0
 11
37.1845496230153
 21
83.94846304151043
 31
0.0
  0
ARC
  5
8D1
330
1F
100
AcDbEntity
  8
0
100
AcDbCircle
 10
38.1845496230153
 20
84.0515445874154
 30
0.0
 40
1.0
100
AcDbArc
 50
93.03047684586102
 51
180.0
  0
ARC
  5
8D2
330
1F
100
AcDbEntity
  8
0
100
AcDbCircle
 10
38.1845496230153
 20
83.94846304151043
 30
0.0
 40
1.0
100
AcDbArc
 50
180.0
 51
266.9695231541389
  0
LINE
  5
8D3
330
1F
100
AcDbEntity
  8
0
100
AcDbLine
 10
37.1845496230153
 20
91.05154458741536
 30
0.0
 11
37.1845496230153
 21
90.94846304151044
 31
0.0
  0
ARC
  5
8D4
330
1F
100
AcDbEntity
  8
0
100
AcDbCircle
 10
38.1845496230153
 20
91.05154458741536
 30
0.0
 40
1.0
100
AcDbArc
 50
93.03047684586102
 51
180.0
  0
ARC
  5
8D5
330
1F
100
AcDbEntity
  8
0
100
AcDbCircle
 10
38.1845496230153
 20
90.94846304151044
 30
0.0
 40
1.0
100
AcDbArc
 50
180.0
 51
266.9695231541389
  0
LINE
  5
8D6
330
1F
100
AcDbEntity
  8
0
  6
CONTINUOUS
100
AcDbLine
 10
41.18454962301528
 20
75.78823910858102
 30
0.0
 11
41.18454962301528
 21
71.21176852034486
 31
0.0
  0
LINE
  5
8D7
330
1F
100
AcDbEntity
  8
0
  6
CONTINUOUS
100
AcDbLine
 10
43.1845496230153
 20
75.68235675563975
 30
0.0
 11
43.1845496230153
 21
71.31765087328607
 31
0.0
  0
LINE
  5
8D8
330
1F
100
AcDbEntity
  8
0
100
AcDbLine
 10
39.1845496230153
 20
71.10588616740365
 30
0.0
 11
39.1845496230153
 21
75.89412146152223
 31
0.0
  0
LINE
  5
8D9
330
1F
100
AcDbEntity
  8
0
100
AcDbLine
 10
39.18454962301564
 20
75.89412146152222
 30
0.0
 11
39.18454962301552
 21
71.10588616740368
 31
0.0
  0
ARC
  5
8DA
330
1F
100
AcDbEntity
  8
0
100
AcDbCircle
 10
48.6845496230153
 20
73.88907967977445
 30
0.0
 40
1.5
100
AcDbArc
 50
0.0
 51
86.96952315413893
  0
LINE
  5
8DB
330
1F
100
AcDbEntity
  8
0
  6
CONTINUOUS
100
AcDbLine
 10
41.18454962301528
 20
61.78823910858101
 30
0.0
 11
41.18454962301528
 21
57.21176852034487
 31
0.0
  0
LINE
  5
8DC
330
1F
100
AcDbEntity
  8
0
  6
CONTINUOUS
100
AcDbLine
 10
41.18454962301528
 20
68.78823910858102
 30
0.0
 11
41.18454962301528
 21
64.21176852034489
 31
0.0
  0
LINE
  5
8DD
330
1F
100
AcDbEntity
  8
0
  6
CONTINUOUS
100
AcDbLine
 10
43.1845496230153
 20
68.68235675563977
 30
0.0
 11
43.1845496230153
 21
64.3176508732861
 31
0.0
  0
LINE
  5
8DE
330
1F
100
AcDbEntity
  8
0
100
AcDbLine
 10
39.1845496230153
 20
61.89412146152225
 30
0.0
 11
39.1845496230153
 21
57.10588616740366
 31
0.0
  0
LINE
  5
8DF
330
1F
100
AcDbEntity
  8
0
100
AcDbLine
 10
39.1845496230153
 20
64.10588616740366
 30
0.0
 11
39.1845496230153
 21
68.89412146152224
 31
0.0
  0
LINE
  5
8E0
330
1F
100
AcDbEntity
  8
0
  6
CONTINUOUS
100
AcDbLine
 10
43.1845496230153
 20
61.68235675563977
 30
0.0
 11
43.1845496230153
 21
57.31765087328611
 31
0.0
  0
LINE
  5
8E1
330
1F
100
AcDbEntity
  8
0
100
AcDbLine
 10
39.1845496230153
 20
57.10588616740366
 30
0.0
 11
39.1845496230153
 21
61.89412146152225
 31
0.0
  0
LINE
  5
8E2
330
1F
100
AcDbEntity
  8
0
100
AcDbLine
 10
39.18454962301552
 20
68.89412146152224
 30
0.0
 11
39.1845496230153
 21
64.10588616740366
 31
0.0
  0
LINE
  5
8E3
330
1F
100
AcDbEntity
  8
0
100
AcDbLine
 10
50.1845496230153
 20
59.88907967977445
 30
0.0
 11
50.1845496230153
 21
59.11092794915146
 31
0.0
  0
ARC
  5
8E4
330
1F
100
AcDbEntity
  8
0
100
AcDbCircle
 10
48.6845496230153
 20
59.88907967977445
 30
0.0
 40
1.5
100
AcDbArc
 50
0.0
 51
86.96952315413893
  0
ARC
  5
8E5
330
1F
100
AcDbEntity
  8
0
100
AcDbCircle
 10
48.6845496230153
 20
59.11092794915146
 30
0.0
 40
1.5
100
AcDbArc
 50
273.030476845861
 51
0.0
  0
LINE
  5
8E6
330
1F
100
AcDbEntity
  8
0
100
AcDbLine
 10
50.1845496230153
 20
66.88907967977444
 30
0.0
 11
50.1845496230153
 21
66.11092794915146
 31
0.0
  0
ARC
  5
8E7
330
1F
100
AcDbEntity
  8
0
100
AcDbCircle
 10
48.6845496230153
 20
66.88907967977444
 30
0.0
 40
1.5
100
AcDbArc
 50
0.0
 51
86.96952315413893
  0
LINE
  5
8E8
330
1F
100
AcDbEntity
  8
0
100
AcDbLine
 10
50.1845496230153
 20
73.88907967977445
 30
0.0
 11
50.1845496230153
 21
73.11092794915144
 31
0.0
  0
ARC
  5
8E9
330
1F
100
AcDbEntity
  8
0
100
AcDbCircle
 10
48.6845496230153
 20
73.11092794915144
 30
0.0
 40
1.5
100
AcDbArc
 50
273.030476845861
 51
0.0
  0
ARC
  5
8EA
330
1F
100
AcDbEntity
  8
0
100
AcDbCircle
 10
48.6845496230153
 20
66.11092794915146
 30
0.0
 40
1.5
100
AcDbArc
 50
273.030476845861
 51
0.0
  0
LWPOLYLINE
  5
8EB
330
1F
100
AcDbEntity
  8
0
100
AcDbPolyline
 90
        3
 70
     0
 43
0.0
 10
50.05450279800185
 20
86.50000381446345
 10
43.1845496230153
 20
86.50000381446345
 10
43.1845496230153
 20
85.3176508732861
  0
LINE
  5
8EC
330
1F
100
AcDbEntity
  8
0
  6
CONTINUOUS
100
AcDbLine
 10
41.18454962301528
 20
79.00000381446344
 30
0.0
 11
41.18454962301528
 21
78.21176852034487
 31
0.0
  0
LINE
  5
8ED
330
1F
100
AcDbEntity
  8
0
  6
CONTINUOUS
100
AcDbLine
 10
43.1845496230153
 20
82.68235675563976
 30
0.0
 11
43.1845496230153
 21
78.31765087328609
 31
0.0
  0
LINE
  5
8EE
330
1F
100
AcDbEntity
  8
0
100
AcDbLine
 10
39.1845496230153
 20
78.10588616740365
 30
0.0
 11
39.1845496230153
 21
78.14549555025934
 31
0.0
  0
LINE
  5
8EF
330
1F
100
AcDbEntity
  8
0
100
AcDbLine
 10
41.18454962301528
 20
82.78823910858099
 30
0.0
 11
41.18454962301528
 21
81.00000381446342
 31
0.0
  0
LINE
  5
8F0
330
1F
100
AcDbEntity
  8
0
100
AcDbLine
 10
43.1845496230153
 20
85.31765087328606
 30
0.0
 11
43.1845496230153
 21
86.00000381446342
 31
0.0
  0
LINE
  5
8F1
330
1F
100
AcDbEntity
  8
0
100
AcDbLine
 10
39.18454962301575
 20
78.14549555025958
 30
0.0
 11
39.18454962301564
 21
78.10588616740368
 31
0.0
  0
LINE
  5
8F2
330
1F
100
AcDbEntity
  8
0
100
AcDbLine
 10
39.18454962301575
 20
78.14549555025958
 30
0.0
 11
41.18454962301528
 21
79.00000381446344
 31
0.0
  0
ARC
  5
8F3
330
1F
100
AcDbEntity
  8
0
100
AcDbCircle
 10
40.68454962301554
 20
81.00000381446342
 30
0.0
 40
0.5
100
AcDbArc
 50
0.0
 51
90.0
  0
ARC
  5
8F4
330
1F
100
AcDbEntity
  8
0
100
AcDbCircle
 10
39.68454962301553
 20
81.00000381446342
 30
0.0
 40
0.5
100
AcDbArc
 50
90.0
 51
180.0
  0
LINE
  5
8F5
330
1F
100
AcDbEntity
  8
0
100
AcDbLine
 10
39.18454962301552
 20
81.00000381446342
 30
0.0
 11
39.18454962301575
 21
80.14549555025958
 31
0.0
  0
LINE
  5
8F6
330
1F
100
AcDbEntity
  8
0
100
AcDbLine
 10
40.68454962301554
 20
81.50000381446345
 30
0.0
 11
39.68454962301553
 21
81.50000381446345
 31
0.0
  0
ARC
  5
8F7
330
1F
100
AcDbEntity
  8
0
100
AcDbCircle
 10
41.6845496230153
 20
79.00000381446344
 30
0.0
 40
0.5
100
AcDbArc
 50
180.0
 51
270.0
  0
ARC
  5
8F8
330
1F
100
AcDbEntity
  8
0
100
AcDbCircle
 10
42.68454962301553
 20
79.00000381446344
 30
0.0
 40
0.5
100
AcDbArc
 50
270.0
 51
0.0
  0
ARC
  5
8F9
330
1F
100
AcDbEntity
  8
0
100
AcDbCircle
 10
42.6845496230153
 20
86.00000381446342
 30
0.0
 40
0.5
100
AcDbArc
 50
0.0
 51
90.0
  0
ARC
  5
8FA
330
1F
100
AcDbEntity
  8
0
100
AcDbCircle
 10
41.6845496230153
 20
86.00000381446342
 30
0.0
 40
0.5
100
AcDbArc
 50
90.0
 51
180.0
  0
LINE
  5
8FB
330
1F
100
AcDbEntity
  8
0
100
AcDbLine
 10
41.18454962301528
 20
86.00000381446342
 30
0.0
 11
41.18454962301528
 21
85.21176852034487
 31
0.0
  0
LINE
  5
8FC
330
1F
100
AcDbEntity
  8
0
100
AcDbLine
 10
42.6845496230153
 20
86.50000381446345
 30
0.0
 11
41.6845496230153
 21
86.50000381446345
 31
0.0
  0
LINE
  5
8FD
330
1F
100
AcDbEntity
  8
0
100
AcDbLine
 10
43.18454962301553
 20
79.00000381446344
 30
0.0
 11
43.1845496230153
 21
82.68235675563976
 31
0.0
  0
LINE
  5
8FE
330
1F
100
AcDbEntity
  8
0
100
AcDbLine
 10
41.6845496230153
 20
78.50000381446342
 30
0.0
 11
42.68454962301553
 21
78.50000381446342
 31
0.0
  0
LINE
  5
8FF
330
1F
100
AcDbEntity
  8
0
  6
CONTINUOUS
100
AcDbLine
 10
43.1845496230153
 20
86.50000381446345
 30
0.0
 11
43.1845496230153
 21
85.3176508732861
 31
0.0
  0
LINE
  5
900
330
1F
100
AcDbEntity
  8
0
100
AcDbLine
 10
50.1845496230153
 20
80.88907967977444
 30
0.0
 11
50.1845496230153
 21
80.11092794915148
 31
0.0
  0
ARC
  5
901
330
1F
100
AcDbEntity
  8
0
100
AcDbCircle
 10
48.6845496230153
 20
80.11092794915148
 30
0.0
 40
1.5
100
AcDbArc
 50
273.030476845861
 51
0.0
  0
LINE
  5
902
330
1F
100
AcDbEntity
  8
0
100
AcDbLine
 10
49.1845496230153
 20
86.50000381446345
 30
0.0
 11
49.1845496230153
 21
89.30329324214744
 31
0.0
  0
LINE
  5
903
330
1F
100
AcDbEntity
  8
0
100
AcDbLine
 10
47.98454962301627
 20
89.04896628878445
 30
0.0
 11
49.1845496230153
 21
89.0175431829015
 31
0.0
  0
LINE
  5
904
330
1F
100
AcDbEntity
  8
0
100
AcDbLine
 10
50.1845496230153
 20
87.88907967977445
 30
0.0
 11
50.1845496230153
 21
87.11092794915145
 31
0.0
  0
ARC
  5
905
330
1F
100
AcDbEntity
  8
0
100
AcDbCircle
 10
48.6845496230153
 20
87.11092794915145
 30
0.0
 40
1.5
100
AcDbArc
 50
273.030476845861
 51
0.0
  0
ARC
  5
906
330
1F
100
AcDbEntity
  8
0
100
AcDbCircle
 10
48.6845496230153
 20
94.11092794915147
 30
0.0
 40
1.5
100
AcDbArc
 50
273.030476845861
 51
0.0
  0
LINE
  5
907
330
1F
100
AcDbEntity
  8
0
100
AcDbLine
 10
47.98454962301627
 20
89.42823910858042
 30
0.0
 11
47.98454962301627
 21
89.04896628878445
 31
0.0
  0
ARC
  5
908
330
1F
100
AcDbEntity
  8
0
100
AcDbCircle
 10
48.6845496230153
 20
87.88907967977445
 30
0.0
 40
1.5
100
AcDbArc
 50
0.0
 51
86.96952315413893
  0
ARC
  5
909
330
1F
100
AcDbEntity
  8
0
100
AcDbCircle
 10
48.6845496230153
 20
80.88907967977444
 30
0.0
 40
1.5
100
AcDbArc
 50
0.0
 51
86.96952315413893
  0
LINE
  5
90A
330
1F
100
AcDbEntity
  8
0
100
AcDbLine
 10
38.13168248187526
 20
96.94986148664149
 30
0.0
 11
48.76385033472637
 21
96.38698201207844
 31
0.0
  0
LINE
  5
90B
330
1F
100
AcDbEntity
  8
0
100
AcDbLine
 10
37.65838164489422
 20
104.3251713304432
 30
0.0
 11
48.76305355738033
 21
103.7432001358429
 31
0.0
  0
LINE
  5
90C
330
1F
100
AcDbEntity
  8
0
100
AcDbLine
 10
38.13168248187526
 20
99.05014614228443
 30
0.0
 11
48.76385033472637
 21
99.61302561684739
 31
0.0
  0
LINE
  5
90D
330
1F
100
AcDbEntity
  8
0
100
AcDbLine
 10
37.1845496230153
 20
104.8244860978202
 30
0.0
 11
37.1845496230153
 21
120.528657226217
 31
0.0
  0
LINE
  5
90E
330
1F
100
AcDbEntity
  8
0
100
AcDbLine
 10
37.1845496230153
 20
98.05154458741535
 30
0.0
 11
37.1845496230153
 21
97.94846304151043
 31
0.0
  0
POINT
  5
90F
330
1F
100
AcDbEntity
  8
0
100
AcDbPoint
 10
37.1845496230153
 20
104.350003814462
 30
0.0
  0
ARC
  5
910
330
1F
100
AcDbEntity
  8
0
100
AcDbCircle
 10
37.6845496230153
 20
104.8244860978202
 30
0.0
 40
0.5
100
AcDbArc
 50
180.0
 51
266.9999999999943
  0
ARC
  5
911
330
1F
100
AcDbEntity
  8
0
100
AcDbCircle
 10
38.1845496230153
 20
98.05154458741535
 30
0.0
 40
1.0
100
AcDbArc
 50
93.03047684586102
 51
180.0
  0
ARC
  5
912
330
1F
100
AcDbEntity
  8
0
100
AcDbCircle
 10
38.1845496230153
 20
97.94846304151043
 30
0.0
 40
1.0
100
AcDbArc
 50
180.0
 51
266.9695231541389
  0
ARC
  5
913
330
1F
100
AcDbEntity
  8
0
100
AcDbCircle
 10
48.6845496230153
 20
94.88907967977445
 30
0.0
 40
1.5
100
AcDbArc
 50
0.0
 51
86.96952315413893
  0
LINE
  5
914
330
1F
100
AcDbEntity
  8
0
100
AcDbLine
 10
47.98454962301627
 20
103.7839997982062
 30
0.0
 11
47.98454962301627
 21
99.56600783071941
 31
0.0
  0
LINE
  5
915
330
1F
100
AcDbEntity
  8
0
100
AcDbLine
 10
50.1845496230153
 20
102.2452558337112
 30
0.0
 11
50.1845496230153
 21
101.1109279491513
 31
0.0
  0
ARC
  5
916
330
1F
100
AcDbEntity
  8
0
100
AcDbCircle
 10
48.6845496230153
 20
102.2452558337112
 30
0.0
 40
1.5
100
AcDbArc
 50
0.0
 51
87.00000000000093
  0
ARC
  5
917
330
1F
100
AcDbEntity
  8
0
100
AcDbCircle
 10
48.6845496230153
 20
101.1109279491513
 30
0.0
 40
1.5
100
AcDbArc
 50
273.030476845861
 51
0.0
  0
LINE
  5
919
330
1F
100
AcDbEntity
  8
0
100
AcDbLine
 10
56.1845496230153
 20
110.4710228723372
 30
0.0
 11
56.1845496230153
 21
83.00000381446343
 31
0.0
  0
LINE
  5
91A
330
1F
100
AcDbEntity
  8
0
100
AcDbLine
 10
57.1845496230153
 20
82.9738178928954
 30
0.0
 11
57.1845496230153
 21
109.6057373195923
 31
0.0
  0
LINE
  5
927
330
1F
100
AcDbEntity
  8
0
100
AcDbLine
 10
59.28454962301522
 20
81.0000038144634
 30
0.0
 11
59.28454962301522
 21
73.00000381446341
 31
0.0
  0
LINE
  5
928
330
1F
100
AcDbEntity
  8
0
100
AcDbLine
 10
59.88454962301535
 20
81.0000038144634
 30
0.0
 11
59.88454962301535
 21
73.00000381446341
 31
0.0
  0
LINE
  5
929
330
1F
100
AcDbEntity
  8
0
100
AcDbLine
 10
60.6845496230153
 20
81.0000038144634
 30
0.0
 11
60.6845496230153
 21
73.00000381446341
 31
0.0
  0
LINE
  5
92A
330
1F
100
AcDbEntity
  8
0
100
AcDbLine
 10
59.18454962301427
 20
81.47381789289445
 30
0.0
 11
59.18454962301427
 21
72.47381789289445
 31
0.0
  0
LINE
  5
92B
330
1F
100
AcDbEntity
  8
0
100
AcDbLine
 10
60.88454962301418
 20
81.47381789289445
 30
0.0
 11
60.88454962301418
 21
72.47381789289445
 31
0.0
  0
LINE
  5
92C
330
1F
100
AcDbEntity
  8
0
100
AcDbLine
 10
54.88454962301535
 20
83.00000381446343
 30
0.0
 11
54.88454962301535
 21
71.10000381446241
 31
0.0
  0
LINE
  5
92D
330
1F
100
AcDbEntity
  8
0
100
AcDbLine
 10
55.6845496230153
 20
83.00000381446343
 30
0.0
 11
55.6845496230153
 21
71.00000381446341
 31
0.0
  0
LINE
  5
92E
330
1F
100
AcDbEntity
  8
0
100
AcDbLine
 10
56.1845496230153
 20
71.00000381446239
 30
0.0
 11
56.1845496230153
 21
83.00000381446343
 31
0.0
  0
LINE
  5
92F
330
1F
100
AcDbEntity
  8
0
100
AcDbLine
 10
56.1845496230153
 20
71.00000381446341
 30
0.0
 11
54.88454962301535
 21
71.00000381446341
 31
0.0
  0
LINE
  5
930
330
1F
100
AcDbEntity
  8
0
100
AcDbLine
 10
57.1845496230153
 20
70.97381789289444
 30
0.0
 11
56.1845496230153
 21
70.97381789289444
 31
0.0
  0
LINE
  5
931
330
1F
100
AcDbEntity
  8
0
100
AcDbLine
 10
60.6845496230153
 20
73.00000381446341
 30
0.0
 11
59.18454962301427
 21
73.00000381446341
 31
0.0
  0
LINE
  5
932
330
1F
100
AcDbEntity
  8
0
100
AcDbLine
 10
60.88454962301418
 20
72.47381789289445
 30
0.0
 11
59.18454962301427
 21
72.47381789289445
 31
0.0
  0
LINE
  5
933
330
1F
100
AcDbEntity
  8
0
100
AcDbLine
 10
60.6845496230153
 20
81.0000038144634
 30
0.0
 11
59.18454962301427
 21
81.0000038144634
 31
0.0
  0
LINE
  5
934
330
1F
100
AcDbEntity
  8
0
100
AcDbLine
 10
56.1845496230153
 20
83.00000381446343
 30
0.0
 11
54.88454962301535
 21
83.00000381446343
 31
0.0
  0
LINE
  5
935
330
1F
100
AcDbEntity
  8
0
100
AcDbLine
 10
60.88454962301418
 20
81.47381789289445
 30
0.0
 11
59.18454962301427
 21
81.47381789289445
 31
0.0
  0
LINE
  5
936
330
1F
100
AcDbEntity
  8
0
100
AcDbLine
 10
57.1845496230153
 20
82.9738178928954
 30
0.0
 11
56.1845496230153
 21
82.9738178928954
 31
0.0
  0
LINE
  5
93F
330
1F
100
AcDbEntity
  8
0
100
AcDbLine
 10
65.28454962301521
 20
121.9738178928944
 30
0.0
 11
73.88454962301442
 21
121.9738178928944
 31
0.0
  0
LINE
  5
940
330
1F
100
AcDbEntity
  8
0
100
AcDbLine
 10
66.38454962301432
 20
126.2738178928944
 30
0.0
 11
72.2845496230143
 21
126.2738178928944
 31
0.0
  0
LINE
  5
941
330
1F
100
AcDbEntity
  8
0
100
AcDbLine
 10
66.78454962301429
 20
127.5738178928942
 30
0.0
 11
76.12954962301433
 21
127.5738178928942
 31
0.0
  0
LINE
  5
942
330
1F
100
AcDbEntity
  8
0
100
AcDbLine
 10
59.1845496230153
 20
111.0000038144631
 30
0.0
 11
59.1845496230153
 21
120.8952601281862
 31
0.0
  0
LINE
  5
943
330
1F
100
AcDbEntity
  8
0
100
AcDbLine
 10
60.1845496230153
 20
120.9738178928944
 30
0.0
 11
60.1845496230153
 21
110.1347182617172
 31
0.0
  0
LINE
  5
944
330
1F
100
AcDbEntity
  8
0
100
AcDbLine
 10
59.1845496230153
 20
120.4738178928942
 30
0.0
 11
59.1845496230153
 21
110.9738178928953
 31
0.0
  0
LINE
  5
945
330
1F
100
AcDbEntity
  8
0
100
AcDbLine
 10
59.1845496230153
 20
111.0000038144631
 30
0.0
 11
56.1845496230153
 21
110.4710228723372
 31
0.0
  0
LINE
  5
946
330
1F
100
AcDbEntity
  8
0
100
AcDbLine
 10
60.1845496230153
 20
110.1347182617172
 30
0.0
 11
57.1845496230153
 21
109.6057373195923
 31
0.0
  0
LINE
  5
947
330
1F
100
AcDbEntity
  8
0
100
AcDbLine
 10
56.1845496230153
 20
110.4448369507692
 30
0.0
 11
59.1845496230153
 21
110.9738178928953
 31
0.0
  0
LINE
  5
948
330
1F
100
AcDbEntity
  8
0
100
AcDbLine
 10
55.1845496230153
 20
121.0000038144632
 30
0.0
 11
59.1845496230153
 21
120.8952601281862
 31
0.0
  0
LINE
  5
949
330
1F
100
AcDbEntity
  8
0
100
AcDbLine
 10
59.1845496230153
 20
120.4738178928942
 30
0.0
 11
60.1845496230153
 21
120.4738178928942
 31
0.0
  0
LINE
  5
94A
330
1F
100
AcDbEntity
  8
0
100
AcDbLine
 10
57.1845496230153
 20
120.9738178928944
 30
0.0
 11
57.1845496230153
 21
120.9476319713252
 31
0.0
  0
LINE
  5
94B
330
1F
100
AcDbEntity
  8
0
100
AcDbLine
 10
57.1845496230153
 20
120.9738178928944
 30
0.0
 11
57.1845496230153
 21
120.9476319713247
 31
0.0
  0
LINE
  5
94C
330
1F
100
AcDbEntity
  8
0
100
AcDbLine
 10
65.28454962301521
 20
120.9738178928944
 30
0.0
 11
65.28454962301521
 21
121.9738178928944
 31
0.0
  0
LINE
  5
94D
330
1F
100
AcDbEntity
  8
0
100
AcDbLine
 10
66.38454962301432
 20
121.9738178928944
 30
0.0
 11
66.38454962301432
 21
126.2738178928944
 31
0.0
  0
LINE
  5
94E
330
1F
100
AcDbEntity
  8
0
100
AcDbLine
 10
66.78454962301429
 20
126.2738178928942
 30
0.0
 11
66.78454962301429
 21
127.5738178928942
 31
0.0
  0
LINE
  5
94F
330
1F
100
AcDbEntity
  8
0
100
AcDbLine
 10
76.38454962301534
 20
107.4738178928944
 30
0.0
 11
76.38454962301534
 21
115.4738178928942
 31
0.0
  0
LINE
  5
950
330
1F
100
AcDbEntity
  8
0
100
AcDbLine
 10
79.38454962301534
 20
105.4738178928942
 30
0.0
 11
79.38454962301534
 21
117.4738178928942
 31
0.0
  0
LINE
  5
951
330
1F
100
AcDbEntity
  8
0
100
AcDbLine
 10
79.38454962301534
 20
105.4738178928942
 30
0.0
 11
71.1845496230153
 21
105.4738178928942
 31
0.0
  0
LINE
  5
952
330
1F
100
AcDbEntity
  8
0
100
AcDbLine
 10
74.38454962301534
 20
109.4738178928944
 30
0.0
 11
74.38454962301534
 21
107.4738178928944
 31
0.0
  0
LINE
  5
953
330
1F
100
AcDbEntity
  8
0
100
AcDbLine
 10
74.38454962301534
 20
107.4738178928944
 30
0.0
 11
76.38454962301534
 21
107.4738178928944
 31
0.0
  0
LINE
  5
954
330
1F
100
AcDbEntity
  8
0
100
AcDbLine
 10
71.1845496230153
 20
109.4738178928944
 30
0.0
 11
71.1845496230153
 21
105.4738178928942
 31
0.0
  0
LINE
  5
955
330
1F
100
AcDbEntity
  8
0
100
AcDbLine
 10
71.1845496230153
 20
109.4738178928944
 30
0.0
 11
74.38454962301534
 21
109.4738178928944
 31
0.0
  0
LINE
  5
957
330
1F
100
AcDbEntity
  8
0
100
AcDbLine
 10
71.1845496230153
 20
117.4738178928942
 30
0.0
 11
79.38454962301534
 21
117.4738178928942
 31
0.0
  0
LINE
  5
958
330
1F
100
AcDbEntity
  8
0
100
AcDbLine
 10
73.88454962301442
 20
121.9738178928944
 30
0.0
 11
73.88454962301442
 21
120.9738178928944
 31
0.0
  0
LINE
  5
959
330
1F
100
AcDbEntity
  8
0
100
AcDbLine
 10
72.2845496230143
 20
126.2738178928944
 30
0.0
 11
72.2845496230143
 21
121.9738178928944
 31
0.0
  0
LINE
  5
95A
330
1F
100
AcDbEntity
  8
0
100
AcDbLine
 10
76.12954962301433
 20
127.5738178928942
 30
0.0
 11
76.12954962301433
 21
120.9738178928944
 31
0.0
  0
LINE
  5
95B
330
1F
100
AcDbEntity
  8
0
100
AcDbLine
 10
74.38454962301534
 20
113.4738178928944
 30
0.0
 11
74.38454962301534
 21
115.4738178928942
 31
0.0
  0
LINE
  5
95C
330
1F
100
AcDbEntity
  8
0
100
AcDbLine
 10
74.38454962301534
 20
115.4738178928942
 30
0.0
 11
76.38454962301534
 21
115.4738178928942
 31
0.0
  0
LINE
  5
95D
330
1F
100
AcDbEntity
  8
0
100
AcDbLine
 10
71.1845496230153
 20
113.4738178928944
 30
0.0
 11
71.1845496230153
 21
117.4738178928942
 31
0.0
  0
LINE
  5
95E
330
1F
100
AcDbEntity
  8
0
100
AcDbLine
 10
71.1845496230153
 20
113.4738178928944
 30
0.0
 11
74.38454962301534
 21
113.4738178928944
 31
0.0
  0
LINE
  5
962
330
1F
100
AcDbEntity
  8
0
100
AcDbLine
 10
108.1845496230152
 20
21.97381789289442
 30
0.0
 11
108.1845496230152
 21
103.9738178928942
 31
0.0
  0
LINE
  5
963
330
1F
100
AcDbEntity
  8
0
100
AcDbLine
 10
109.1845496230152
 20
3.585964049726383
 30
0.0
 11
109.1845496230152
 21
120.9738178928944
 31
0.0
  0
LINE
  5
964
330
1F
100
AcDbEntity
  8
0
100
AcDbLine
 10
109.1845496230152
 20
0.0000038144634118
 30
0.0
 11
109.1845496230152
 21
3.585964049726383
 31
0.0
  0
LINE
  5
96C
330
1F
100
AcDbEntity
  8
0
100
AcDbLine
 10
106.1845496230152
 20
33.97381789289443
 30
0.0
 11
106.1845496230152
 21
35.97381789289441
 31
0.0
  0
LINE
  5
96D
330
1F
100
AcDbEntity
  8
0
100
AcDbLine
 10
107.1845496230152
 20
33.97381789289443
 30
0.0
 11
107.1845496230152
 21
35.97381789289441
 31
0.0
  0
LINE
  5
96E
330
1F
100
AcDbEntity
  8
0
100
AcDbLine
 10
106.1845496230152
 20
26.97381789289442
 30
0.0
 11
106.1845496230152
 21
28.97381789289442
 31
0.0
  0
LINE
  5
96F
330
1F
100
AcDbEntity
  8
0
100
AcDbLine
 10
107.1845496230152
 20
26.97381789289442
 30
0.0
 11
107.1845496230152
 21
28.97381789289442
 31
0.0
  0
LINE
  5
971
330
1F
100
AcDbEntity
  8
0
100
AcDbLine
 10
106.1845496230152
 20
40.97381789289442
 30
0.0
 11
106.1845496230152
 21
42.97381789289443
 31
0.0
  0
LINE
  5
972
330
1F
100
AcDbEntity
  8
0
100
AcDbLine
 10
107.1845496230152
 20
40.97381789289442
 30
0.0
 11
107.1845496230152
 21
42.97381789289443
 31
0.0
  0
LINE
  5
995
330
1F
100
AcDbEntity
  8
0
100
AcDbLine
 10
92.33454962301541
 20
124.3738178928944
 30
0.0
 11
98.63454962301537
 21
124.3738178928944
 31
0.0
  0
LINE
  5
996
330
1F
100
AcDbEntity
  8
0
100
AcDbLine
 10
92.33454962301541
 20
120.9738178928944
 30
0.0
 11
92.33454962301541
 21
124.3738178928944
 31
0.0
  0
LINE
  5
997
330
1F
100
AcDbEntity
  8
0
100
AcDbLine
 10
98.63454962301537
 20
124.3738178928944
 30
0.0
 11
98.63454962301537
 21
120.9738178928944
 31
0.0
  0
LINE
  5
99D
330
1F
100
AcDbEntity
  8
0
100
AcDbLine
 10
57.1845496230153
 20
120.9738178928944
 30
0.0
 11
109.1845496230152
 21
120.9738178928944
 31
0.0
  0
LINE
  5
99E
330
1F
100
AcDbEntity
  8
0
100
AcDbLine
 10
92.33454962301541
 20
120.9738178928944
 30
0.0
 11
92.33454962301541
 21
124.3738178928944
 31
0.0
  0
LINE
  5
99F
330
1F
100
AcDbEntity
  8
0
100
AcDbLine
 10
92.33454962301541
 20
124.3738178928944
 30
0.0
 11
98.63454962301537
 21
124.3738178928944
 31
0.0
  0
LINE
  5
9A0
330
1F
100
AcDbEntity
  8
0
100
AcDbLine
 10
98.63454962301537
 20
124.3738178928944
 30
0.0
 11
98.63454962301537
 21
120.9738178928944
 31
0.0
  0
LINE
  5
9F3
330
1F
100
AcDbEntity
  8
2_カバ_
  6
DASHDOT
100
AcDbLine
 10
89.34602261496143
 20
81.97381789289549
 30
0.0
 11
78.78487664193044
 21
81.97381789289549
 31
0.0
  0
CIRCLE
  5
9F4
330
1F
100
AcDbEntity
  8
2_カバ_
  6
CONTINUOUS
100
AcDbCircle
 10
86.6845496230154
 20
81.97381789289549
 30
0.0
 40
1.25
  0
LINE
  5
9F5
330
1F
100
AcDbEntity
  8
2_カバ_
  6
CONTINUOUS
100
AcDbLine
 10
67.18454962301542
 20
103.9738178928943
 30
0.0
 11
109.1845496230152
 21
103.9738178928943
 31
0.0
  0
LINE
  5
9F6
330
1F
100
AcDbEntity
  8
2_カバ_
  6
CONTINUOUS
100
AcDbLine
 10
108.1845496230154
 20
98.9738178928945
 30
0.0
 11
67.18454962301542
 21
98.9738178928945
 31
0.0
  0
LINE
  5
9F7
330
1F
100
AcDbEntity
  8
2_カバ_
  6
CONTINUOUS
100
AcDbLine
 10
108.1845496230154
 20
96.97381789289451
 30
0.0
 11
67.18454962301542
 21
96.97381789289451
 31
0.0
  0
LINE
  5
9F8
330
1F
100
AcDbEntity
  8
2_カバ_
  6
CONTINUOUS
100
AcDbLine
 10
108.1845496230154
 20
70.97381789289451
 30
0.0
 11
67.1845496230154
 21
70.97381789289451
 31
0.0
  0
LINE
  5
9F9
330
1F
100
AcDbEntity
  8
2_カバ_
  6
CONTINUOUS
100
AcDbLine
 10
108.1845496230154
 20
68.97381789289453
 30
0.0
 11
67.1845496230154
 21
68.97381789289453
 31
0.0
  0
LINE
  5
9FA
330
1F
100
AcDbEntity
  8
2_カバ_
  6
CONTINUOUS
100
AcDbLine
 10
108.1845496230154
 20
63.9738178928945
 30
0.0
 11
67.1845496230154
 21
63.97381789289548
 31
0.0
  0
LINE
  5
9FB
330
1F
100
AcDbEntity
  8
2_カバ_
  6
CONTINUOUS
100
AcDbLine
 10
108.1845496230154
 20
61.97381789289451
 30
0.0
 11
67.1845496230154
 21
61.97381789289451
 31
0.0
  0
LINE
  5
9FC
330
1F
100
AcDbEntity
  8
2_カバ_
  6
CONTINUOUS
100
AcDbLine
 10
108.1845496230154
 20
56.97381789289451
 30
0.0
 11
67.1845496230154
 21
56.97381789289451
 31
0.0
  0
LINE
  5
9FD
330
1F
100
AcDbEntity
  8
2_カバ_
  6
CONTINUOUS
100
AcDbLine
 10
108.1845496230154
 20
54.97381789289452
 30
0.0
 11
67.1845496230154
 21
54.97381789289452
 31
0.0
  0
LINE
  5
9FE
330
1F
100
AcDbEntity
  8
2_カバ_
  6
CONTINUOUS
100
AcDbLine
 10
105.6845496230154
 20
48.9738178928945
 30
0.0
 11
84.68454962301541
 21
48.9738178928945
 31
0.0
  0
LINE
  5
9FF
330
1F
100
AcDbEntity
  8
2_カバ_
  6
CONTINUOUS
100
AcDbLine
 10
84.68454962301541
 20
63.9738178928945
 30
0.0
 11
84.68454962301541
 21
68.97381789289453
 31
0.0
  0
LINE
  5
A00
330
1F
100
AcDbEntity
  8
2_カバ_
  6
CONTINUOUS
100
AcDbLine
 10
84.1845496230154
 20
49.97381789289452
 30
0.0
 11
67.1845496230154
 21
49.97381789289452
 31
0.0
  0
LINE
  5
A01
330
1F
100
AcDbEntity
  8
2_カバ_
  6
CONTINUOUS
100
AcDbLine
 10
84.1845496230154
 20
47.97381789289452
 30
0.0
 11
67.1845496230154
 21
47.97381789289452
 31
0.0
  0
LINE
  5
A02
330
1F
100
AcDbEntity
  8
2_カバ_
  6
CONTINUOUS
100
AcDbLine
 10
84.68454962301541
 20
48.9738178928945
 30
0.0
 11
84.68454962301541
 21
54.97381789289452
 31
0.0
  0
LINE
  5
A03
330
1F
100
AcDbEntity
  8
2_カバ_
  6
CONTINUOUS
100
AcDbLine
 10
84.1845496230154
 20
47.97381789289452
 30
0.0
 11
84.1845496230154
 21
49.97381789289452
 31
0.0
  0
LINE
  5
A04
330
1F
100
AcDbEntity
  8
2_カバ_
  6
CONTINUOUS
100
AcDbLine
 10
84.68454962301541
 20
56.97381789289451
 30
0.0
 11
84.68454962301541
 21
61.97381789289451
 31
0.0
  0
LINE
  5
A05
330
1F
100
AcDbEntity
  8
2_カバ_
  6
CONTINUOUS
100
AcDbLine
 10
84.1845496230154
 20
91.97381789289448
 30
0.0
 11
67.18454962301542
 21
91.97381789289448
 31
0.0
  0
LINE
  5
A06
330
1F
100
AcDbEntity
  8
2_カバ_
  6
CONTINUOUS
100
AcDbLine
 10
84.1845496230154
 20
89.9738178928945
 30
0.0
 11
67.18454962301542
 21
89.9738178928945
 31
0.0
  0
LINE
  5
A07
330
1F
100
AcDbEntity
  8
2_カバ_
  6
CONTINUOUS
100
AcDbLine
 10
84.1845496230154
 20
84.97381789289452
 30
0.0
 11
67.18454962301542
 21
84.97381789289452
 31
0.0
  0
LINE
  5
A08
330
1F
100
AcDbEntity
  8
2_カバ_
  6
CONTINUOUS
100
AcDbLine
 10
84.1845496230154
 20
82.97381789289451
 30
0.0
 11
67.18454962301542
 21
82.97381789289451
 31
0.0
  0
LINE
  5
A09
330
1F
100
AcDbEntity
  8
2_カバ_
  6
CONTINUOUS
100
AcDbLine
 10
84.1845496230154
 20
77.97381789289452
 30
0.0
 11
67.18454962301542
 21
77.97381789289452
 31
0.0
  0
LINE
  5
A0A
330
1F
100
AcDbEntity
  8
2_カバ_
  6
CONTINUOUS
100
AcDbLine
 10
84.1845496230154
 20
75.97381789289451
 30
0.0
 11
67.18454962301542
 21
75.97381789289451
 31
0.0
  0
LINE
  5
A0B
330
1F
100
AcDbEntity
  8
2_カバ_
  6
CONTINUOUS
100
AcDbLine
 10
84.1845496230154
 20
82.97381789289451
 30
0.0
 11
84.1845496230154
 21
84.97381789289452
 31
0.0
  0
LINE
  5
A0C
330
1F
100
AcDbEntity
  8
2_カバ_
  6
CONTINUOUS
100
AcDbLine
 10
84.68454962301541
 20
70.97381789289451
 30
0.0
 11
84.68454962301541
 21
96.97381789289451
 31
0.0
  0
LINE
  5
A0D
330
1F
100
AcDbEntity
  8
2_カバ_
  6
DASHDOT
100
AcDbLine
 10
86.6845496230154
 20
85.10321846928352
 30
0.0
 11
86.6845496230154
 21
79.01837713556348
 31
0.0
  0
LINE
  5
A0E
330
1F
100
AcDbEntity
  8
2_カバ_
  6
CONTINUOUS
100
AcDbLine
 10
84.1845496230154
 20
75.97381789289451
 30
0.0
 11
84.1845496230154
 21
77.97381789289452
 31
0.0
  0
LINE
  5
A0F
330
1F
100
AcDbEntity
  8
2_カバ_
  6
CONTINUOUS
100
AcDbLine
 10
84.1845496230154
 20
89.9738178928945
 30
0.0
 11
84.1845496230154
 21
91.97381789289448
 31
0.0
  0
LINE
  5
A10
330
1F
100
AcDbEntity
  8
2_カバ_
  6
CONTINUOUS
100
AcDbLine
 10
84.68454962301541
 20
98.9738178928945
 30
0.0
 11
84.68454962301541
 21
103.9738178928943
 31
0.0
  0
LINE
  5
A11
330
1F
100
AcDbEntity
  8
2_カバ_
  6
CONTINUOUS
100
AcDbLine
 10
105.6845496230154
 20
68.97381789289453
 30
0.0
 11
105.6845496230154
 21
63.9738178928945
 31
0.0
  0
LINE
  5
A12
330
1F
100
AcDbEntity
  8
2_カバ_
  6
CONTINUOUS
100
AcDbLine
 10
100.1845496230151
 20
53.47381789289451
 30
0.0
 11
90.18454962301539
 21
53.47381789289451
 31
0.0
  0
LINE
  5
A13
330
1F
100
AcDbEntity
  8
2_カバ_
  6
CONTINUOUS
100
AcDbLine
 10
90.18454962301539
 20
49.97381789289452
 30
0.0
 11
100.1845496230151
 21
49.97381789289452
 31
0.0
  0
ARC
  5
A14
330
1F
100
AcDbEntity
  8
2_カバ_
  6
CONTINUOUS
100
AcDbCircle
 10
90.18454962301539
 20
52.97381789289548
 30
0.0
 40
0.5
100
AcDbArc
 50
90.0
 51
180.0
  0
ARC
  5
A15
330
1F
100
AcDbEntity
  8
2_カバ_
  6
CONTINUOUS
100
AcDbCircle
 10
90.18454962301539
 20
50.47381789289453
 30
0.0
 40
0.5
100
AcDbArc
 50
180.0
 51
270.0
  0
LINE
  5
A16
330
1F
100
AcDbEntity
  8
2_カバ_
  6
CONTINUOUS
100
AcDbLine
 10
89.68454962301541
 20
52.97381789289548
 30
0.0
 11
89.68454962301541
 21
50.47381789289453
 31
0.0
  0
ARC
  5
A17
330
1F
100
AcDbEntity
  8
2_カバ_
  6
CONTINUOUS
100
AcDbCircle
 10
100.1845496230151
 20
52.97381789289453
 30
0.0
 40
0.5
100
AcDbArc
 50
0.0
 51
90.0
  0
ARC
  5
A18
330
1F
100
AcDbEntity
  8
2_カバ_
  6
CONTINUOUS
100
AcDbCircle
 10
100.1845496230151
 20
50.47381789289453
 30
0.0
 40
0.5
100
AcDbArc
 50
270.0
 51
0.0
  0
LINE
  5
A19
330
1F
100
AcDbEntity
  8
2_カバ_
  6
CONTINUOUS
100
AcDbLine
 10
100.6845496230154
 20
50.47381789289453
 30
0.0
 11
100.6845496230154
 21
52.97381789289453
 31
0.0
  0
LINE
  5
A1A
330
1F
100
AcDbEntity
  8
2_カバ_
  6
CONTINUOUS
100
AcDbLine
 10
105.6845496230154
 20
54.97381789289452
 30
0.0
 11
105.6845496230154
 21
48.9738178928945
 31
0.0
  0
LINE
  5
A1B
330
1F
100
AcDbEntity
  8
2_カバ_
  6
CONTINUOUS
100
AcDbLine
 10
108.1845496230154
 20
49.97381789289452
 30
0.0
 11
106.1845496230154
 21
49.97381789289452
 31
0.0
  0
LINE
  5
A1C
330
1F
100
AcDbEntity
  8
2_カバ_
  6
CONTINUOUS
100
AcDbLine
 10
108.1845496230154
 20
47.97381789289452
 30
0.0
 11
106.1845496230154
 21
47.97381789289452
 31
0.0
  0
LINE
  5
A1D
330
1F
100
AcDbEntity
  8
2_カバ_
  6
CONTINUOUS
100
AcDbLine
 10
107.1845496230154
 20
47.97381789289452
 30
0.0
 11
107.1845496230154
 21
49.97381789289452
 31
0.0
  0
LINE
  5
A1E
330
1F
100
AcDbEntity
  8
2_カバ_
  6
CONTINUOUS
100
AcDbLine
 10
106.1845496230154
 20
47.97381789289452
 30
0.0
 11
106.1845496230154
 21
49.97381789289452
 31
0.0
  0
LINE
  5
A1F
330
1F
100
AcDbEntity
  8
2_カバ_
  6
CONTINUOUS
100
AcDbLine
 10
105.6845496230154
 20
61.97381789289451
 30
0.0
 11
105.6845496230154
 21
56.97381789289548
 31
0.0
  0
LINE
  5
A20
330
1F
100
AcDbEntity
  8
2_カバ_
  6
CONTINUOUS
100
AcDbLine
 10
107.1845496230154
 20
54.97381789289452
 30
0.0
 11
107.1845496230154
 21
56.97381789289451
 31
0.0
  0
LINE
  5
A21
330
1F
100
AcDbEntity
  8
2_カバ_
  6
CONTINUOUS
100
AcDbLine
 10
106.1845496230154
 20
54.97381789289452
 30
0.0
 11
106.1845496230154
 21
56.97381789289451
 31
0.0
  0
LINE
  5
A22
330
1F
100
AcDbEntity
  8
2_カバ_
  6
CONTINUOUS
100
AcDbLine
 10
107.1845496230154
 20
61.97381789289451
 30
0.0
 11
107.1845496230154
 21
63.9738178928945
 31
0.0
  0
LINE
  5
A23
330
1F
100
AcDbEntity
  8
2_カバ_
  6
CONTINUOUS
100
AcDbLine
 10
106.1845496230154
 20
61.97381789289451
 30
0.0
 11
106.1845496230154
 21
63.9738178928945
 31
0.0
  0
LINE
  5
A24
330
1F
100
AcDbEntity
  8
2_カバ_
  6
CONTINUOUS
100
AcDbLine
 10
107.1845496230154
 20
96.97381789289451
 30
0.0
 11
107.1845496230154
 21
98.9738178928945
 31
0.0
  0
LINE
  5
A25
330
1F
100
AcDbEntity
  8
2_カバ_
  6
CONTINUOUS
100
AcDbLine
 10
106.1845496230154
 20
96.97381789289451
 30
0.0
 11
106.1845496230154
 21
98.9738178928945
 31
0.0
  0
LINE
  5
A26
330
1F
100
AcDbEntity
  8
2_カバ_
  6
CONTINUOUS
100
AcDbLine
 10
104.1845496230151
 20
92.4738178928945
 30
0.0
 11
101.6845496230154
 21
92.47381789289546
 31
0.0
  0
LINE
  5
A27
330
1F
100
AcDbEntity
  8
2_カバ_
  6
CONTINUOUS
100
AcDbLine
 10
104.1845496230151
 20
86.4738178928945
 30
0.0
 11
101.6845496230154
 21
86.4738178928945
 31
0.0
  0
LINE
  5
A28
330
1F
100
AcDbEntity
  8
2_カバ_
  6
DASHDOT
100
AcDbLine
 10
100.1056597409644
 20
89.47381789289448
 30
0.0
 11
106.8541677470194
 21
89.47381789289448
 31
0.0
  0
LINE
  5
A29
330
1F
100
AcDbEntity
  8
2_カバ_
  6
CONTINUOUS
100
AcDbLine
 10
101.1845496230151
 20
91.97381789289549
 30
0.0
 11
101.1845496230151
 21
86.97381789289448
 31
0.0
  0
ARC
  5
A2A
330
1F
100
AcDbEntity
  8
2_カバ_
  6
CONTINUOUS
100
AcDbCircle
 10
101.6845496230154
 20
86.97381789289448
 30
0.0
 40
0.5
100
AcDbArc
 50
180.0
 51
270.0
  0
ARC
  5
A2B
330
1F
100
AcDbEntity
  8
2_カバ_
  6
CONTINUOUS
100
AcDbCircle
 10
101.6845496230154
 20
91.97381789289549
 30
0.0
 40
0.5
100
AcDbArc
 50
89.99999999999673
 51
180.0
  0
LINE
  5
A2C
330
1F
100
AcDbEntity
  8
2_カバ_
  6
CONTINUOUS
100
AcDbLine
 10
107.1845496230154
 20
82.97381789289451
 30
0.0
 11
107.1845496230154
 21
84.97381789289452
 31
0.0
  0
LINE
  5
A2D
330
1F
100
AcDbEntity
  8
2_カバ_
  6
CONTINUOUS
100
AcDbLine
 10
106.1845496230154
 20
82.97381789289451
 30
0.0
 11
106.1845496230154
 21
84.97381789289452
 31
0.0
  0
LINE
  5
A2E
330
1F
100
AcDbEntity
  8
2_カバ_
  6
CONTINUOUS
100
AcDbLine
 10
105.6845496230154
 20
96.97381789289451
 30
0.0
 11
105.6845496230154
 21
70.97381789289548
 31
0.0
  0
LINE
  5
A2F
330
1F
100
AcDbEntity
  8
2_カバ_
  6
CONTINUOUS
100
AcDbLine
 10
107.1845496230154
 20
75.97381789289451
 30
0.0
 11
107.1845496230154
 21
77.97381789289548
 31
0.0
  0
LINE
  5
A30
330
1F
100
AcDbEntity
  8
2_カバ_
  6
CONTINUOUS
100
AcDbLine
 10
106.1845496230154
 20
75.97381789289451
 30
0.0
 11
106.1845496230154
 21
77.97381789289548
 31
0.0
  0
LINE
  5
A31
330
1F
100
AcDbEntity
  8
2_カバ_
  6
CONTINUOUS
100
AcDbLine
 10
108.1845496230154
 20
75.97381789289451
 30
0.0
 11
106.1845496230154
 21
75.97381789289451
 31
0.0
  0
LINE
  5
A32
330
1F
100
AcDbEntity
  8
2_カバ_
  6
CONTINUOUS
100
AcDbLine
 10
107.1845496230154
 20
68.97381789289453
 30
0.0
 11
107.1845496230154
 21
70.97381789289451
 31
0.0
  0
LINE
  5
A33
330
1F
100
AcDbEntity
  8
2_カバ_
  6
CONTINUOUS
100
AcDbLine
 10
106.1845496230154
 20
68.97381789289453
 30
0.0
 11
106.1845496230154
 21
70.97381789289451
 31
0.0
  0
LINE
  5
A34
330
1F
100
AcDbEntity
  8
2_カバ_
  6
CONTINUOUS
100
AcDbLine
 10
108.1845496230154
 20
82.97381789289451
 30
0.0
 11
106.1845496230154
 21
82.97381789289451
 31
0.0
  0
LINE
  5
A35
330
1F
100
AcDbEntity
  8
2_カバ_
  6
CONTINUOUS
100
AcDbLine
 10
108.1845496230154
 20
77.97381789289452
 30
0.0
 11
106.1845496230154
 21
77.97381789289452
 31
0.0
  0
LINE
  5
A36
330
1F
100
AcDbEntity
  8
2_カバ_
  6
CONTINUOUS
100
AcDbLine
 10
107.1845496230154
 20
89.9738178928945
 30
0.0
 11
107.1845496230154
 21
91.97381789289448
 31
0.0
  0
LINE
  5
A37
330
1F
100
AcDbEntity
  8
2_カバ_
  6
CONTINUOUS
100
AcDbLine
 10
104.6845496230154
 20
86.97381789289448
 30
0.0
 11
104.6845496230154
 21
91.97381789289448
 31
0.0
  0
LINE
  5
A38
330
1F
100
AcDbEntity
  8
2_カバ_
  6
CONTINUOUS
100
AcDbLine
 10
106.1845496230154
 20
89.9738178928945
 30
0.0
 11
106.1845496230154
 21
91.97381789289448
 31
0.0
  0
LINE
  5
A39
330
1F
100
AcDbEntity
  8
2_カバ_
  6
CONTINUOUS
100
AcDbLine
 10
108.1845496230154
 20
84.97381789289452
 30
0.0
 11
106.1845496230154
 21
84.97381789289452
 31
0.0
  0
LINE
  5
A3A
330
1F
100
AcDbEntity
  8
2_カバ_
  6
CONTINUOUS
100
AcDbLine
 10
108.1845496230154
 20
89.9738178928945
 30
0.0
 11
106.1845496230154
 21
89.9738178928945
 31
0.0
  0
ARC
  5
A3B
330
1F
100
AcDbEntity
  8
2_カバ_
  6
CONTINUOUS
100
AcDbCircle
 10
104.1845496230151
 20
86.97381789289448
 30
0.0
 40
0.5
100
AcDbArc
 50
270.0
 51
0.0
  0
LINE
  5
A3C
330
1F
100
AcDbEntity
  8
2_カバ_
  6
CONTINUOUS
100
AcDbLine
 10
108.1845496230154
 20
91.97381789289448
 30
0.0
 11
106.1845496230154
 21
91.97381789289448
 31
0.0
  0
ARC
  5
A3D
330
1F
100
AcDbEntity
  8
2_カバ_
  6
CONTINUOUS
100
AcDbCircle
 10
104.1845496230151
 20
91.97381789289448
 30
0.0
 40
0.5
100
AcDbArc
 50
0.0
 51
90.0
  0
LINE
  5
A3E
330
1F
100
AcDbEntity
  8
2_カバ_
  6
CONTINUOUS
100
AcDbLine
 10
105.6845496230154
 20
103.9738178928943
 30
0.0
 11
105.6845496230154
 21
98.9738178928945
 31
0.0
  0
LINE
  5
A69
330
1F
100
AcDbEntity
  8
0
100
AcDbLine
 10
330.1845496230141
 20
364.8428882850482
 30
0.0
 11
330.1845496230141
 21
171.1047475007404
 31
0.0
  0
LINE
  5
A6A
330
1F
100
AcDbEntity
  8
0
100
AcDbLine
 10
325.1845496230141
 20
170.9738178928944
 30
0.0
 11
325.1845496230141
 21
180.9738178928943
 31
0.0
  0
LINE
  5
A6B
330
1F
100
AcDbEntity
  8
0
100
AcDbLine
 10
209.1845496230153
 20
180.9738178928943
 30
0.0
 11
209.1845496230153
 21
354.9738178928941
 31
0.0
  0
LINE
  5
A6C
330
1F
100
AcDbEntity
  8
0
100
AcDbLine
 10
209.1845496230153
 20
354.9738178928941
 30
0.0
 11
325.1845496230141
 21
354.9738178928941
 31
0.0
  0
LINE
  5
A6D
330
1F
100
AcDbEntity
  8
0
100
AcDbLine
 10
209.1845496230153
 20
180.9738178928943
 30
0.0
 11
325.1845496230141
 21
180.9738178928943
 31
0.0
  0
LINE
  5
A6E
330
1F
100
AcDbEntity
  8
0
100
AcDbLine
 10
325.1845496230141
 20
364.9738178928942
 30
0.0
 11
330.1845496230141
 21
364.8428882850482
 31
0.0
  0
LINE
  5
A6F
330
1F
100
AcDbEntity
  8
0
100
AcDbLine
 10
326.5985893877509
 20
364.9367899585192
 30
0.0
 11
326.5985893877502
 21
171.010845827269
 31
0.0
  0
LINE
  5
A70
330
1F
100
AcDbEntity
  8
0
100
AcDbLine
 10
325.1845496230141
 20
170.9738178928944
 30
0.0
 11
330.1845496230141
 21
171.1047475007404
 31
0.0
  0
LINE
  5
A71
330
1F
100
AcDbEntity
  8
0
100
AcDbLine
 10
209.1845496230153
 20
180.9738178928943
 30
0.0
 11
209.1845496230153
 21
354.9738178928941
 31
0.0
  0
LINE
  5
A72
330
1F
100
AcDbEntity
  8
0
100
AcDbLine
 10
209.1845496230153
 20
354.9738178928941
 30
0.0
 11
326.5724034661833
 21
354.9738178928941
 31
0.0
  0
LINE
  5
A73
330
1F
100
AcDbEntity
  8
0
100
AcDbLine
 10
226.1845496230153
 20
180.9738178928943
 30
0.0
 11
226.1845496230153
 21
354.9738178928941
 31
0.0
  0
LINE
  5
A74
330
1F
100
AcDbEntity
  8
0
100
AcDbLine
 10
308.1845496230148
 20
180.9738178928943
 30
0.0
 11
308.1845496230148
 21
354.9738178928941
 31
0.0
  0
LINE
  5
A75
330
1F
100
AcDbEntity
  8
0
100
AcDbLine
 10
226.1845496230153
 20
353.9738178928942
 30
0.0
 11
308.1845496230148
 21
353.9738178928942
 31
0.0
  0
LINE
  5
A76
330
1F
100
AcDbEntity
  8
0
100
AcDbLine
 10
231.1845496230153
 20
351.9738178928942
 30
0.0
 11
233.1845496230153
 21
351.9738178928942
 31
0.0
  0
LINE
  5
A77
330
1F
100
AcDbEntity
  8
0
100
AcDbLine
 10
231.1845496230153
 20
181.9738178928943
 30
0.0
 11
231.1845496230153
 21
235.2238178928943
 31
0.0
  0
LINE
  5
A78
330
1F
100
AcDbEntity
  8
0
100
AcDbLine
 10
233.1845496230153
 20
181.9738178928943
 30
0.0
 11
233.1845496230153
 21
235.2238178928943
 31
0.0
  0
LINE
  5
A79
330
1F
100
AcDbEntity
  8
0
100
AcDbLine
 10
231.1845496230153
 20
300.7238178928941
 30
0.0
 11
233.1845496230153
 21
300.7238178928941
 31
0.0
  0
LINE
  5
A7A
330
1F
100
AcDbEntity
  8
0
100
AcDbLine
 10
231.1845496230153
 20
235.2238178928943
 30
0.0
 11
233.1845496230153
 21
235.2238178928943
 31
0.0
  0
LINE
  5
A7B
330
1F
100
AcDbEntity
  8
0
100
AcDbLine
 10
226.1845496230153
 20
181.9738178928943
 30
0.0
 11
308.1845496230148
 21
181.9738178928943
 31
0.0
  0
LINE
  5
A7C
330
1F
100
AcDbEntity
  8
0
100
AcDbLine
 10
231.1845496230153
 20
183.9738178928944
 30
0.0
 11
233.1845496230153
 21
183.9738178928944
 31
0.0
  0
LINE
  5
A7D
330
1F
100
AcDbEntity
  8
0
100
AcDbLine
 10
231.1845496230153
 20
300.7238178928941
 30
0.0
 11
231.1845496230153
 21
353.9738178928942
 31
0.0
  0
LINE
  5
A7E
330
1F
100
AcDbEntity
  8
0
100
AcDbLine
 10
233.1845496230153
 20
300.7238178928941
 30
0.0
 11
233.1845496230153
 21
353.9738178928942
 31
0.0
  0
LINE
  5
A7F
330
1F
100
AcDbEntity
  8
0
100
AcDbLine
 10
238.1845496230153
 20
351.9738178928942
 30
0.0
 11
240.1845496230153
 21
351.9738178928942
 31
0.0
  0
LINE
  5
A80
330
1F
100
AcDbEntity
  8
0
100
AcDbLine
 10
238.1845496230153
 20
181.9738178928943
 30
0.0
 11
238.1845496230153
 21
235.2238178928943
 31
0.0
  0
LINE
  5
A81
330
1F
100
AcDbEntity
  8
0
100
AcDbLine
 10
240.1845496230153
 20
181.9738178928943
 30
0.0
 11
240.1845496230153
 21
235.2238178928943
 31
0.0
  0
LINE
  5
A82
330
1F
100
AcDbEntity
  8
0
100
AcDbLine
 10
238.1845496230153
 20
300.7238178928941
 30
0.0
 11
240.1845496230153
 21
300.7238178928941
 31
0.0
  0
LINE
  5
A83
330
1F
100
AcDbEntity
  8
0
100
AcDbLine
 10
238.1845496230153
 20
235.2238178928943
 30
0.0
 11
240.1845496230153
 21
235.2238178928943
 31
0.0
  0
LINE
  5
A84
330
1F
100
AcDbEntity
  8
0
100
AcDbLine
 10
238.1845496230153
 20
183.9738178928944
 30
0.0
 11
240.1845496230153
 21
183.9738178928944
 31
0.0
  0
LINE
  5
A85
330
1F
100
AcDbEntity
  8
0
100
AcDbLine
 10
238.1845496230153
 20
300.7238178928941
 30
0.0
 11
238.1845496230153
 21
353.9738178928942
 31
0.0
  0
LINE
  5
A86
330
1F
100
AcDbEntity
  8
0
100
AcDbLine
 10
240.1845496230153
 20
300.7238178928941
 30
0.0
 11
240.1845496230153
 21
353.9738178928942
 31
0.0
  0
LINE
  5
A87
330
1F
100
AcDbEntity
  8
0
100
AcDbLine
 10
245.1845496230153
 20
351.9738178928942
 30
0.0
 11
247.1845496230153
 21
351.9738178928942
 31
0.0
  0
LINE
  5
A88
330
1F
100
AcDbEntity
  8
0
100
AcDbLine
 10
245.1845496230153
 20
181.9738178928943
 30
0.0
 11
245.1845496230153
 21
235.2238178928943
 31
0.0
  0
LINE
  5
A89
330
1F
100
AcDbEntity
  8
0
100
AcDbLine
 10
247.1845496230153
 20
181.9738178928943
 30
0.0
 11
247.1845496230153
 21
235.2238178928943
 31
0.0
  0
LINE
  5
A8A
330
1F
100
AcDbEntity
  8
0
100
AcDbLine
 10
245.1845496230153
 20
300.7238178928941
 30
0.0
 11
247.1845496230153
 21
300.7238178928941
 31
0.0
  0
LINE
  5
A8B
330
1F
100
AcDbEntity
  8
0
100
AcDbLine
 10
245.1845496230153
 20
235.2238178928943
 30
0.0
 11
247.1845496230153
 21
235.2238178928943
 31
0.0
  0
LINE
  5
A8C
330
1F
100
AcDbEntity
  8
0
100
AcDbLine
 10
245.1845496230153
 20
183.9738178928944
 30
0.0
 11
247.1845496230153
 21
183.9738178928944
 31
0.0
  0
LINE
  5
A8D
330
1F
100
AcDbEntity
  8
0
100
AcDbLine
 10
245.1845496230153
 20
300.7238178928941
 30
0.0
 11
245.1845496230153
 21
353.9738178928942
 31
0.0
  0
LINE
  5
A8E
330
1F
100
AcDbEntity
  8
0
100
AcDbLine
 10
247.1845496230153
 20
300.7238178928941
 30
0.0
 11
247.1845496230153
 21
353.9738178928942
 31
0.0
  0
LINE
  5
A8F
330
1F
100
AcDbEntity
  8
0
100
AcDbLine
 10
252.1845496230153
 20
181.9738178928943
 30
0.0
 11
252.1845496230153
 21
235.2238178928943
 31
0.0
  0
LINE
  5
A90
330
1F
100
AcDbEntity
  8
0
100
AcDbLine
 10
254.1845496230151
 20
181.9738178928943
 30
0.0
 11
254.1845496230151
 21
235.2238178928943
 31
0.0
  0
LINE
  5
A91
330
1F
100
AcDbEntity
  8
0
100
AcDbLine
 10
252.1845496230153
 20
300.7238178928941
 30
0.0
 11
254.1845496230151
 21
300.7238178928941
 31
0.0
  0
LINE
  5
A92
330
1F
100
AcDbEntity
  8
0
100
AcDbLine
 10
252.1845496230153
 20
235.2238178928943
 30
0.0
 11
254.1845496230151
 21
235.2238178928943
 31
0.0
  0
LINE
  5
A93
330
1F
100
AcDbEntity
  8
0
100
AcDbLine
 10
252.1845496230153
 20
183.9738178928944
 30
0.0
 11
254.1845496230151
 21
183.9738178928944
 31
0.0
  0
LINE
  5
A94
330
1F
100
AcDbEntity
  8
0
100
AcDbLine
 10
252.1845496230153
 20
300.7238178928941
 30
0.0
 11
252.1845496230153
 21
353.9738178928942
 31
0.0
  0
LINE
  5
A95
330
1F
100
AcDbEntity
  8
0
100
AcDbLine
 10
254.1845496230151
 20
300.7238178928941
 30
0.0
 11
254.1845496230151
 21
353.9738178928942
 31
0.0
  0
LINE
  5
A96
330
1F
100
AcDbEntity
  8
0
100
AcDbLine
 10
259.1845496230153
 20
351.9738178928942
 30
0.0
 11
261.1845496230153
 21
351.9738178928942
 31
0.0
  0
LINE
  5
A97
330
1F
100
AcDbEntity
  8
0
100
AcDbLine
 10
259.1845496230153
 20
181.9738178928943
 30
0.0
 11
259.1845496230153
 21
235.2238178928943
 31
0.0
  0
LINE
  5
A98
330
1F
100
AcDbEntity
  8
0
100
AcDbLine
 10
261.1845496230153
 20
181.9738178928943
 30
0.0
 11
261.1845496230153
 21
235.2238178928943
 31
0.0
  0
LINE
  5
A99
330
1F
100
AcDbEntity
  8
0
100
AcDbLine
 10
259.1845496230153
 20
300.7238178928941
 30
0.0
 11
261.1845496230153
 21
300.7238178928941
 31
0.0
  0
LINE
  5
A9A
330
1F
100
AcDbEntity
  8
0
100
AcDbLine
 10
259.1845496230153
 20
235.2238178928943
 30
0.0
 11
261.1845496230153
 21
235.2238178928943
 31
0.0
  0
LINE
  5
A9B
330
1F
100
AcDbEntity
  8
0
100
AcDbLine
 10
259.1845496230153
 20
183.9738178928944
 30
0.0
 11
261.1845496230153
 21
183.9738178928944
 31
0.0
  0
LINE
  5
A9C
330
1F
100
AcDbEntity
  8
0
100
AcDbLine
 10
259.1845496230153
 20
300.7238178928941
 30
0.0
 11
259.1845496230153
 21
353.9738178928942
 31
0.0
  0
LINE
  5
A9D
330
1F
100
AcDbEntity
  8
0
100
AcDbLine
 10
261.1845496230153
 20
300.7238178928941
 30
0.0
 11
261.1845496230153
 21
353.9738178928942
 31
0.0
  0
LINE
  5
A9E
330
1F
100
AcDbEntity
  8
0
100
AcDbLine
 10
266.1845496230152
 20
351.9738178928942
 30
0.0
 11
268.1845496230153
 21
351.9738178928942
 31
0.0
  0
LINE
  5
A9F
330
1F
100
AcDbEntity
  8
0
100
AcDbLine
 10
266.1845496230152
 20
181.9738178928943
 30
0.0
 11
266.1845496230152
 21
235.2238178928943
 31
0.0
  0
LINE
  5
AA0
330
1F
100
AcDbEntity
  8
0
100
AcDbLine
 10
268.1845496230153
 20
181.9738178928943
 30
0.0
 11
268.1845496230153
 21
235.2238178928943
 31
0.0
  0
LINE
  5
AA1
330
1F
100
AcDbEntity
  8
0
100
AcDbLine
 10
266.1845496230152
 20
300.7238178928941
 30
0.0
 11
268.1845496230153
 21
300.7238178928941
 31
0.0
  0
LINE
  5
AA2
330
1F
100
AcDbEntity
  8
0
100
AcDbLine
 10
266.1845496230152
 20
235.2238178928943
 30
0.0
 11
268.1845496230153
 21
235.2238178928943
 31
0.0
  0
LINE
  5
AA3
330
1F
100
AcDbEntity
  8
0
100
AcDbLine
 10
266.1845496230152
 20
183.9738178928944
 30
0.0
 11
268.1845496230153
 21
183.9738178928944
 31
0.0
  0
LINE
  5
AA4
330
1F
100
AcDbEntity
  8
0
100
AcDbLine
 10
266.1845496230152
 20
300.7238178928941
 30
0.0
 11
266.1845496230152
 21
353.9738178928942
 31
0.0
  0
LINE
  5
AA5
330
1F
100
AcDbEntity
  8
0
100
AcDbLine
 10
268.1845496230153
 20
300.7238178928941
 30
0.0
 11
268.1845496230153
 21
353.9738178928942
 31
0.0
  0
LINE
  5
AA6
330
1F
100
AcDbEntity
  8
0
100
AcDbLine
 10
273.1845496230153
 20
351.9738178928942
 30
0.0
 11
275.1845496230149
 21
351.9738178928942
 31
0.0
  0
LINE
  5
AA7
330
1F
100
AcDbEntity
  8
0
100
AcDbLine
 10
273.1845496230153
 20
181.9738178928943
 30
0.0
 11
273.1845496230153
 21
235.2238178928943
 31
0.0
  0
LINE
  5
AA8
330
1F
100
AcDbEntity
  8
0
100
AcDbLine
 10
275.1845496230149
 20
181.9738178928943
 30
0.0
 11
275.1845496230149
 21
235.2238178928943
 31
0.0
  0
LINE
  5
AA9
330
1F
100
AcDbEntity
  8
0
100
AcDbLine
 10
273.1845496230153
 20
300.7238178928941
 30
0.0
 11
275.1845496230149
 21
300.7238178928941
 31
0.0
  0
LINE
  5
AAA
330
1F
100
AcDbEntity
  8
0
100
AcDbLine
 10
273.1845496230153
 20
235.2238178928943
 30
0.0
 11
275.1845496230149
 21
235.2238178928943
 31
0.0
  0
LINE
  5
AAB
330
1F
100
AcDbEntity
  8
0
100
AcDbLine
 10
273.1845496230153
 20
183.9738178928944
 30
0.0
 11
275.1845496230149
 21
183.9738178928944
 31
0.0
  0
LINE
  5
AAC
330
1F
100
AcDbEntity
  8
0
100
AcDbLine
 10
273.1845496230153
 20
300.7238178928941
 30
0.0
 11
273.1845496230153
 21
353.9738178928942
 31
0.0
  0
LINE
  5
AAD
330
1F
100
AcDbEntity
  8
0
100
AcDbLine
 10
275.1845496230149
 20
300.7238178928941
 30
0.0
 11
275.1845496230149
 21
353.9738178928942
 31
0.0
  0
LINE
  5
AAE
330
1F
100
AcDbEntity
  8
0
100
AcDbLine
 10
280.1845496230153
 20
351.9738178928942
 30
0.0
 11
282.1845496230153
 21
351.9738178928942
 31
0.0
  0
LINE
  5
AAF
330
1F
100
AcDbEntity
  8
0
100
AcDbLine
 10
280.1845496230153
 20
181.9738178928943
 30
0.0
 11
280.1845496230153
 21
235.2238178928943
 31
0.0
  0
LINE
  5
AB0
330
1F
100
AcDbEntity
  8
0
100
AcDbLine
 10
282.1845496230153
 20
181.9738178928943
 30
0.0
 11
282.1845496230153
 21
235.2238178928943
 31
0.0
  0
LINE
  5
AB1
330
1F
100
AcDbEntity
  8
0
100
AcDbLine
 10
280.1845496230153
 20
300.7238178928941
 30
0.0
 11
282.1845496230153
 21
300.7238178928941
 31
0.0
  0
LINE
  5
AB2
330
1F
100
AcDbEntity
  8
0
100
AcDbLine
 10
280.1845496230153
 20
235.2238178928943
 30
0.0
 11
282.1845496230153
 21
235.2238178928943
 31
0.0
  0
LINE
  5
AB3
330
1F
100
AcDbEntity
  8
0
100
AcDbLine
 10
280.1845496230153
 20
183.9738178928944
 30
0.0
 11
282.1845496230153
 21
183.9738178928944
 31
0.0
  0
LINE
  5
AB4
330
1F
100
AcDbEntity
  8
0
100
AcDbLine
 10
280.1845496230153
 20
300.7238178928941
 30
0.0
 11
280.1845496230153
 21
353.9738178928942
 31
0.0
  0
LINE
  5
AB5
330
1F
100
AcDbEntity
  8
0
100
AcDbLine
 10
282.1845496230153
 20
300.7238178928941
 30
0.0
 11
282.1845496230153
 21
353.9738178928942
 31
0.0
  0
LINE
  5
AB6
330
1F
100
AcDbEntity
  8
0
100
AcDbLine
 10
287.1845496230152
 20
351.9738178928942
 30
0.0
 11
289.1845496230152
 21
351.9738178928942
 31
0.0
  0
LINE
  5
AB7
330
1F
100
AcDbEntity
  8
0
100
AcDbLine
 10
287.1845496230152
 20
181.9738178928943
 30
0.0
 11
287.1845496230152
 21
235.2238178928943
 31
0.0
  0
LINE
  5
AB8
330
1F
100
AcDbEntity
  8
0
100
AcDbLine
 10
289.1845496230152
 20
181.9738178928943
 30
0.0
 11
289.1845496230152
 21
235.2238178928943
 31
0.0
  0
LINE
  5
AB9
330
1F
100
AcDbEntity
  8
0
100
AcDbLine
 10
287.1845496230152
 20
300.7238178928941
 30
0.0
 11
289.1845496230152
 21
300.7238178928941
 31
0.0
  0
LINE
  5
ABA
330
1F
100
AcDbEntity
  8
0
100
AcDbLine
 10
287.1845496230152
 20
235.2238178928943
 30
0.0
 11
289.1845496230152
 21
235.2238178928943
 31
0.0
  0
LINE
  5
ABB
330
1F
100
AcDbEntity
  8
0
100
AcDbLine
 10
287.1845496230152
 20
183.9738178928944
 30
0.0
 11
289.1845496230152
 21
183.9738178928944
 31
0.0
  0
LINE
  5
ABC
330
1F
100
AcDbEntity
  8
0
100
AcDbLine
 10
287.1845496230152
 20
300.7238178928941
 30
0.0
 11
287.1845496230152
 21
353.9738178928942
 31
0.0
  0
LINE
  5
ABD
330
1F
100
AcDbEntity
  8
0
100
AcDbLine
 10
289.1845496230152
 20
300.7238178928941
 30
0.0
 11
289.1845496230152
 21
353.9738178928942
 31
0.0
  0
LINE
  5
ABE
330
1F
100
AcDbEntity
  8
0
100
AcDbLine
 10
294.1845496230153
 20
351.9738178928942
 30
0.0
 11
296.1845496230153
 21
351.9738178928942
 31
0.0
  0
LINE
  5
ABF
330
1F
100
AcDbEntity
  8
0
100
AcDbLine
 10
294.1845496230153
 20
181.9738178928943
 30
0.0
 11
294.1845496230153
 21
235.2238178928943
 31
0.0
  0
LINE
  5
AC0
330
1F
100
AcDbEntity
  8
0
100
AcDbLine
 10
296.1845496230153
 20
181.9738178928943
 30
0.0
 11
296.1845496230153
 21
235.2238178928943
 31
0.0
  0
LINE
  5
AC1
330
1F
100
AcDbEntity
  8
0
100
AcDbLine
 10
294.1845496230153
 20
300.7238178928941
 30
0.0
 11
296.1845496230153
 21
300.7238178928941
 31
0.0
  0
LINE
  5
AC2
330
1F
100
AcDbEntity
  8
0
100
AcDbLine
 10
294.1845496230153
 20
235.2238178928943
 30
0.0
 11
296.1845496230153
 21
235.2238178928943
 31
0.0
  0
LINE
  5
AC3
330
1F
100
AcDbEntity
  8
0
100
AcDbLine
 10
294.1845496230153
 20
183.9738178928944
 30
0.0
 11
296.1845496230153
 21
183.9738178928944
 31
0.0
  0
LINE
  5
AC4
330
1F
100
AcDbEntity
  8
0
100
AcDbLine
 10
294.1845496230153
 20
300.7238178928941
 30
0.0
 11
294.1845496230153
 21
353.9738178928942
 31
0.0
  0
LINE
  5
AC5
330
1F
100
AcDbEntity
  8
0
100
AcDbLine
 10
296.1845496230153
 20
300.7238178928941
 30
0.0
 11
296.1845496230153
 21
353.9738178928942
 31
0.0
  0
LINE
  5
AC6
330
1F
100
AcDbEntity
  8
0
100
AcDbLine
 10
301.1845496230153
 20
351.9738178928942
 30
0.0
 11
303.1845496230148
 21
351.9738178928942
 31
0.0
  0
LINE
  5
AC7
330
1F
100
AcDbEntity
  8
0
100
AcDbLine
 10
301.1845496230153
 20
181.9738178928943
 30
0.0
 11
301.1845496230153
 21
235.2238178928943
 31
0.0
  0
LINE
  5
AC8
330
1F
100
AcDbEntity
  8
0
100
AcDbLine
 10
303.1845496230148
 20
181.9738178928943
 30
0.0
 11
303.1845496230148
 21
235.2238178928943
 31
0.0
  0
LINE
  5
AC9
330
1F
100
AcDbEntity
  8
0
100
AcDbLine
 10
301.1845496230153
 20
300.7238178928941
 30
0.0
 11
303.1845496230148
 21
300.7238178928941
 31
0.0
  0
LINE
  5
ACA
330
1F
100
AcDbEntity
  8
0
100
AcDbLine
 10
301.1845496230153
 20
235.2238178928943
 30
0.0
 11
303.1845496230148
 21
235.2238178928943
 31
0.0
  0
LINE
  5
ACB
330
1F
100
AcDbEntity
  8
0
100
AcDbLine
 10
301.1845496230153
 20
183.9738178928944
 30
0.0
 11
303.1845496230148
 21
183.9738178928944
 31
0.0
  0
LINE
  5
ACC
330
1F
100
AcDbEntity
  8
0
100
AcDbLine
 10
301.1845496230153
 20
300.7238178928941
 30
0.0
 11
301.1845496230153
 21
353.9738178928942
 31
0.0
  0
LINE
  5
ACD
330
1F
100
AcDbEntity
  8
0
100
AcDbLine
 10
303.1845496230148
 20
300.7238178928941
 30
0.0
 11
303.1845496230148
 21
353.9738178928942
 31
0.0
  0
LINE
  5
ACE
330
1F
100
AcDbEntity
  8
0
100
AcDbLine
 10
231.1845496230153
 20
329.4738178928941
 30
0.0
 11
233.1845496230153
 21
329.4738178928941
 31
0.0
  0
LINE
  5
ACF
330
1F
100
AcDbEntity
  8
0
100
AcDbLine
 10
231.1845496230153
 20
326.4738178928941
 30
0.0
 11
233.1845496230153
 21
326.4738178928941
 31
0.0
  0
LINE
  5
AD0
330
1F
100
AcDbEntity
  8
0
100
AcDbLine
 10
231.1845496230153
 20
209.4738178928944
 30
0.0
 11
233.1845496230153
 21
209.4738178928944
 31
0.0
  0
LINE
  5
AD1
330
1F
100
AcDbEntity
  8
0
100
AcDbLine
 10
231.1845496230153
 20
206.4738178928943
 30
0.0
 11
233.1845496230153
 21
206.4738178928943
 31
0.0
  0
LINE
  5
AD2
330
1F
100
AcDbEntity
  8
0
100
AcDbLine
 10
238.1845496230153
 20
329.4738178928941
 30
0.0
 11
240.1845496230153
 21
329.4738178928941
 31
0.0
  0
LINE
  5
AD3
330
1F
100
AcDbEntity
  8
0
100
AcDbLine
 10
238.1845496230153
 20
326.4738178928941
 30
0.0
 11
240.1845496230153
 21
326.4738178928941
 31
0.0
  0
LINE
  5
AD4
330
1F
100
AcDbEntity
  8
0
100
AcDbLine
 10
238.1845496230153
 20
209.4738178928944
 30
0.0
 11
240.1845496230153
 21
209.4738178928944
 31
0.0
  0
LINE
  5
AD5
330
1F
100
AcDbEntity
  8
0
100
AcDbLine
 10
238.1845496230153
 20
206.4738178928943
 30
0.0
 11
240.1845496230153
 21
206.4738178928943
 31
0.0
  0
LINE
  5
AD6
330
1F
100
AcDbEntity
  8
0
100
AcDbLine
 10
245.1845496230153
 20
329.4738178928941
 30
0.0
 11
247.1845496230153
 21
329.4738178928941
 31
0.0
  0
LINE
  5
AD7
330
1F
100
AcDbEntity
  8
0
100
AcDbLine
 10
245.1845496230153
 20
326.4738178928941
 30
0.0
 11
247.1845496230153
 21
326.4738178928941
 31
0.0
  0
LINE
  5
AD8
330
1F
100
AcDbEntity
  8
0
100
AcDbLine
 10
245.1845496230153
 20
209.4738178928944
 30
0.0
 11
247.1845496230153
 21
209.4738178928944
 31
0.0
  0
LINE
  5
AD9
330
1F
100
AcDbEntity
  8
0
100
AcDbLine
 10
245.1845496230153
 20
206.4738178928943
 30
0.0
 11
247.1845496230153
 21
206.4738178928943
 31
0.0
  0
LINE
  5
ADA
330
1F
100
AcDbEntity
  8
0
100
AcDbLine
 10
252.1845496230153
 20
329.4738178928941
 30
0.0
 11
254.1845496230151
 21
329.4738178928941
 31
0.0
  0
LINE
  5
ADB
330
1F
100
AcDbEntity
  8
0
100
AcDbLine
 10
252.1845496230153
 20
326.4738178928941
 30
0.0
 11
254.1845496230151
 21
326.4738178928941
 31
0.0
  0
LINE
  5
ADC
330
1F
100
AcDbEntity
  8
0
100
AcDbLine
 10
252.1845496230153
 20
209.4738178928944
 30
0.0
 11
254.1845496230151
 21
209.4738178928944
 31
0.0
  0
LINE
  5
ADD
330
1F
100
AcDbEntity
  8
0
100
AcDbLine
 10
252.1845496230153
 20
206.4738178928943
 30
0.0
 11
254.1845496230151
 21
206.4738178928943
 31
0.0
  0
LINE
  5
ADE
330
1F
100
AcDbEntity
  8
0
100
AcDbLine
 10
259.1845496230153
 20
329.4738178928941
 30
0.0
 11
261.1845496230153
 21
329.4738178928941
 31
0.0
  0
LINE
  5
ADF
330
1F
100
AcDbEntity
  8
0
100
AcDbLine
 10
259.1845496230153
 20
326.4738178928941
 30
0.0
 11
261.1845496230153
 21
326.4738178928941
 31
0.0
  0
LINE
  5
AE0
330
1F
100
AcDbEntity
  8
0
100
AcDbLine
 10
259.1845496230153
 20
209.4738178928944
 30
0.0
 11
261.1845496230153
 21
209.4738178928944
 31
0.0
  0
LINE
  5
AE1
330
1F
100
AcDbEntity
  8
0
100
AcDbLine
 10
259.1845496230153
 20
206.4738178928943
 30
0.0
 11
261.1845496230153
 21
206.4738178928943
 31
0.0
  0
LINE
  5
AE2
330
1F
100
AcDbEntity
  8
0
100
AcDbLine
 10
266.1845496230152
 20
329.4738178928941
 30
0.0
 11
268.1845496230153
 21
329.4738178928941
 31
0.0
  0
LINE
  5
AE3
330
1F
100
AcDbEntity
  8
0
100
AcDbLine
 10
266.1845496230152
 20
326.4738178928941
 30
0.0
 11
268.1845496230153
 21
326.4738178928941
 31
0.0
  0
LINE
  5
AE4
330
1F
100
AcDbEntity
  8
0
100
AcDbLine
 10
266.1845496230152
 20
209.4738178928944
 30
0.0
 11
268.1845496230153
 21
209.4738178928944
 31
0.0
  0
LINE
  5
AE5
330
1F
100
AcDbEntity
  8
0
100
AcDbLine
 10
266.1845496230152
 20
206.4738178928943
 30
0.0
 11
268.1845496230153
 21
206.4738178928943
 31
0.0
  0
LINE
  5
AE6
330
1F
100
AcDbEntity
  8
0
100
AcDbLine
 10
273.1845496230153
 20
329.4738178928941
 30
0.0
 11
275.1845496230149
 21
329.4738178928941
 31
0.0
  0
LINE
  5
AE7
330
1F
100
AcDbEntity
  8
0
100
AcDbLine
 10
273.1845496230153
 20
326.4738178928941
 30
0.0
 11
275.1845496230149
 21
326.4738178928941
 31
0.0
  0
LINE
  5
AE8
330
1F
100
AcDbEntity
  8
0
100
AcDbLine
 10
273.1845496230153
 20
209.4738178928944
 30
0.0
 11
275.1845496230149
 21
209.4738178928944
 31
0.0
  0
LINE
  5
AE9
330
1F
100
AcDbEntity
  8
0
100
AcDbLine
 10
273.1845496230153
 20
206.4738178928943
 30
0.0
 11
275.1845496230149
 21
206.4738178928943
 31
0.0
  0
LINE
  5
AEA
330
1F
100
AcDbEntity
  8
0
100
AcDbLine
 10
280.1845496230153
 20
329.4738178928941
 30
0.0
 11
282.1845496230153
 21
329.4738178928941
 31
0.0
  0
LINE
  5
AEB
330
1F
100
AcDbEntity
  8
0
100
AcDbLine
 10
280.1845496230153
 20
326.4738178928941
 30
0.0
 11
282.1845496230153
 21
326.4738178928941
 31
0.0
  0
LINE
  5
AEC
330
1F
100
AcDbEntity
  8
0
100
AcDbLine
 10
280.1845496230153
 20
209.4738178928944
 30
0.0
 11
282.1845496230153
 21
209.4738178928944
 31
0.0
  0
LINE
  5
AED
330
1F
100
AcDbEntity
  8
0
100
AcDbLine
 10
280.1845496230153
 20
206.4738178928943
 30
0.0
 11
282.1845496230153
 21
206.4738178928943
 31
0.0
  0
LINE
  5
AEE
330
1F
100
AcDbEntity
  8
0
100
AcDbLine
 10
287.1845496230152
 20
329.4738178928941
 30
0.0
 11
289.1845496230152
 21
329.4738178928941
 31
0.0
  0
LINE
  5
AEF
330
1F
100
AcDbEntity
  8
0
100
AcDbLine
 10
287.1845496230152
 20
326.4738178928941
 30
0.0
 11
289.1845496230152
 21
326.4738178928941
 31
0.0
  0
LINE
  5
AF0
330
1F
100
AcDbEntity
  8
0
100
AcDbLine
 10
287.1845496230152
 20
209.4738178928944
 30
0.0
 11
289.1845496230152
 21
209.4738178928944
 31
0.0
  0
LINE
  5
AF1
330
1F
100
AcDbEntity
  8
0
100
AcDbLine
 10
287.1845496230152
 20
206.4738178928943
 30
0.0
 11
289.1845496230152
 21
206.4738178928943
 31
0.0
  0
LINE
  5
AF2
330
1F
100
AcDbEntity
  8
0
100
AcDbLine
 10
294.1845496230153
 20
329.4738178928941
 30
0.0
 11
296.1845496230153
 21
329.4738178928941
 31
0.0
  0
LINE
  5
AF3
330
1F
100
AcDbEntity
  8
0
100
AcDbLine
 10
294.1845496230153
 20
326.4738178928941
 30
0.0
 11
296.1845496230153
 21
326.4738178928941
 31
0.0
  0
LINE
  5
AF4
330
1F
100
AcDbEntity
  8
0
100
AcDbLine
 10
294.1845496230153
 20
209.4738178928944
 30
0.0
 11
296.1845496230153
 21
209.4738178928944
 31
0.0
  0
LINE
  5
AF5
330
1F
100
AcDbEntity
  8
0
100
AcDbLine
 10
294.1845496230153
 20
206.4738178928943
 30
0.0
 11
296.1845496230153
 21
206.4738178928943
 31
0.0
  0
LINE
  5
AF6
330
1F
100
AcDbEntity
  8
0
100
AcDbLine
 10
301.1845496230153
 20
329.4738178928941
 30
0.0
 11
303.1845496230148
 21
329.4738178928941
 31
0.0
  0
LINE
  5
AF7
330
1F
100
AcDbEntity
  8
0
100
AcDbLine
 10
301.1845496230153
 20
326.4738178928941
 30
0.0
 11
303.1845496230148
 21
326.4738178928941
 31
0.0
  0
LINE
  5
AF8
330
1F
100
AcDbEntity
  8
0
100
AcDbLine
 10
301.1845496230153
 20
209.4738178928944
 30
0.0
 11
303.1845496230148
 21
209.4738178928944
 31
0.0
  0
LINE
  5
AF9
330
1F
100
AcDbEntity
  8
0
100
AcDbLine
 10
301.1845496230153
 20
206.4738178928943
 30
0.0
 11
303.1845496230148
 21
206.4738178928943
 31
0.0
  0
LINE
  5
AFA
330
1F
100
AcDbEntity
  8
0
100
AcDbLine
 10
281.1845496230152
 20
181.9738178928943
 30
0.0
 11
281.184549623014
 21
181.4738178928944
 31
0.0
  0
LINE
  5
AFB
330
1F
100
AcDbEntity
  8
0
100
AcDbLine
 10
226.1845496230153
 20
181.4738178928944
 30
0.0
 11
281.1845496230152
 21
181.4738178928944
 31
0.0
  0
LINE
  5
AFC
330
1F
100
AcDbEntity
  8
0
100
AcDbLine
 10
326.5724034661821
 20
180.9738178928943
 30
0.0
 11
326.5724034661833
 21
354.9738178928941
 31
0.0
  0
LINE
  5
AFD
330
1F
100
AcDbEntity
  8
0
100
AcDbLine
 10
205.7845496230154
 20
221.6738186265847
 30
0.0
 11
205.7845496230154
 21
201.4738186265847
 31
0.0
  0
LINE
  5
AFE
330
1F
100
AcDbEntity
  8
0
100
AcDbLine
 10
206.6845496230153
 20
197.9738186265845
 30
0.0
 11
206.1845496230153
 21
198.4738186265845
 31
0.0
  0
LINE
  5
AFF
330
1F
100
AcDbEntity
  8
0
100
AcDbLine
 10
206.1845496230154
 20
199.3738186265845
 30
0.0
 11
206.1845496230153
 21
198.4738186265845
 31
0.0
  0
LINE
  5
B00
330
1F
100
AcDbEntity
  8
0
100
AcDbLine
 10
207.4845496230155
 20
197.9738186265845
 30
0.0
 11
206.6845496230153
 21
197.9738186265845
 31
0.0
  0
ARC
  5
B01
330
1F
100
AcDbEntity
  8
0
100
AcDbCircle
 10
207.1845496230154
 20
199.3738186265845
 30
0.0
 40
1.0
100
AcDbArc
 50
90.0
 51
180.0
  0
LINE
  5
B02
330
1F
100
AcDbEntity
  8
0
100
AcDbLine
 10
209.1845496230153
 20
200.3738186265845
 30
0.0
 11
207.1845496230154
 21
200.3738186265845
 31
0.0
  0
LINE
  5
B03
330
1F
100
AcDbEntity
  8
0
100
AcDbLine
 10
209.1845496230153
 20
199.1738186265847
 30
0.0
 11
207.4845496230155
 21
199.1738186265847
 31
0.0
  0
LINE
  5
B04
330
1F
100
AcDbEntity
  8
0
100
AcDbLine
 10
209.1845496230153
 20
201.4738186265845
 30
0.0
 11
205.7845496230154
 21
201.4738186265847
 31
0.0
  0
LINE
  5
B05
330
1F
100
AcDbEntity
  8
0
100
AcDbLine
 10
207.4845496230155
 20
197.9738186265845
 30
0.0
 11
207.4845496230155
 21
199.1738186265847
 31
0.0
  0
LINE
  5
B06
330
1F
100
AcDbEntity
  8
0
100
AcDbLine
 10
206.6845496230155
 20
225.1738186265847
 30
0.0
 11
206.1845496230155
 21
224.6738186265847
 31
0.0
  0
LINE
  5
B07
330
1F
100
AcDbEntity
  8
0
100
AcDbLine
 10
206.1845496230155
 20
224.6738186265847
 30
0.0
 11
206.1845496230155
 21
223.7738186265846
 31
0.0
  0
LINE
  5
B08
330
1F
100
AcDbEntity
  8
0
100
AcDbLine
 10
207.4845496230155
 20
225.1738186265847
 30
0.0
 11
206.6845496230155
 21
225.1738186265847
 31
0.0
  0
ARC
  5
B09
330
1F
100
AcDbEntity
  8
0
100
AcDbCircle
 10
207.1845496230155
 20
223.7738186265846
 30
0.0
 40
1.0
100
AcDbArc
 50
180.0
 51
270.0
  0
LINE
  5
B0A
330
1F
100
AcDbEntity
  8
0
100
AcDbLine
 10
209.1845496230153
 20
222.7738186265847
 30
0.0
 11
207.1845496230155
 21
222.7738186265847
 31
0.0
  0
LINE
  5
B0B
330
1F
100
AcDbEntity
  8
0
100
AcDbLine
 10
205.7845496230154
 20
221.6738186265847
 30
0.0
 11
209.1845496230153
 21
221.6738186265847
 31
0.0
  0
LINE
  5
B0C
330
1F
100
AcDbEntity
  8
0
100
AcDbLine
 10
209.1845496230153
 20
223.9738186265848
 30
0.0
 11
207.4845496230154
 21
223.9738186265848
 31
0.0
  0
LINE
  5
B0D
330
1F
100
AcDbEntity
  8
0
100
AcDbLine
 10
207.4845496230155
 20
223.9738186265845
 30
0.0
 11
207.4845496230155
 21
225.1738186265847
 31
0.0
  0
LINE
  5
B0E
330
1F
100
AcDbEntity
  8
0
100
AcDbLine
 10
209.1845496230153
 20
185.9738186265845
 30
0.0
 11
206.6845496230151
 21
185.9738186265845
 31
0.0
  0
LINE
  5
B0F
330
1F
100
AcDbEntity
  8
0
100
AcDbLine
 10
206.6845496230151
 20
185.9738186265845
 30
0.0
 11
206.6845496230151
 21
191.4738186265847
 31
0.0
  0
LINE
  5
B10
330
1F
100
AcDbEntity
  8
0
100
AcDbLine
 10
206.6845496230151
 20
191.4738186265847
 30
0.0
 11
209.1845496230153
 21
191.4738186265847
 31
0.0
  0
LINE
  5
B11
330
1F
100
AcDbEntity
  8
0
100
AcDbLine
 10
209.1845496230153
 20
226.6138178928945
 30
0.0
 11
208.1845496230153
 21
226.6138178928945
 31
0.0
  0
LINE
  5
B12
330
1F
100
AcDbEntity
  8
0
100
AcDbLine
 10
208.1845496230153
 20
226.6138178928945
 30
0.0
 11
208.1845496230153
 21
223.9738186265848
 31
0.0
  0
LINE
  5
B13
330
1F
100
AcDbEntity
  8
0
100
AcDbLine
 10
202.5845496230153
 20
276.9738178928939
 30
0.0
 11
209.1845496230153
 21
276.9738178928939
 31
0.0
  0
LINE
  5
B14
330
1F
100
AcDbEntity
  8
0
100
AcDbLine
 10
209.1845496230153
 20
301.1338178928943
 30
0.0
 11
202.5845496230153
 21
301.1338178928943
 31
0.0
  0
LINE
  5
B15
330
1F
100
AcDbEntity
  8
0
100
AcDbLine
 10
202.5845496230153
 20
301.1338178928943
 30
0.0
 11
202.5845496230153
 21
276.9738178928939
 31
0.0
  0
LINE
  5
B16
330
1F
100
AcDbEntity
  8
0
100
AcDbLine
 10
203.8845496230153
 20
235.8138178928943
 30
0.0
 11
203.8845496230153
 21
264.2738178928945
 31
0.0
  0
LINE
  5
B17
330
1F
100
AcDbEntity
  8
0
100
AcDbLine
 10
203.8845496230153
 20
239.9238178928944
 30
0.0
 11
208.1845496230152
 21
239.9238178928944
 31
0.0
  0
LINE
  5
B18
330
1F
100
AcDbEntity
  8
0
100
AcDbLine
 10
208.1845496230153
 20
235.8138178928943
 30
0.0
 11
203.8845496230153
 21
235.8138178928943
 31
0.0
  0
LINE
  5
B19
330
1F
100
AcDbEntity
  8
0
100
AcDbLine
 10
203.8845496230153
 20
260.1638178928944
 30
0.0
 11
209.1845496230153
 21
260.1638178928944
 31
0.0
  0
LINE
  5
B1A
330
1F
100
AcDbEntity
  8
0
100
AcDbLine
 10
203.8845496230153
 20
255.1638178928945
 30
0.0
 11
209.1845496230153
 21
255.1638178928945
 31
0.0
  0
LINE
  5
B1B
330
1F
100
AcDbEntity
  8
0
100
AcDbLine
 10
203.8845496230153
 20
247.5438178928944
 30
0.0
 11
209.1845496230153
 21
247.5438178928944
 31
0.0
  0
LINE
  5
B1C
330
1F
100
AcDbEntity
  8
0
100
AcDbLine
 10
203.8845496230153
 20
252.5438178928943
 30
0.0
 11
209.1845496230153
 21
252.5438178928943
 31
0.0
  0
LINE
  5
B1D
330
1F
100
AcDbEntity
  8
0
100
AcDbLine
 10
203.8845496230153
 20
244.9238178928943
 30
0.0
 11
208.3845496230156
 21
244.9238178928943
 31
0.0
  0
LINE
  5
B1E
330
1F
100
AcDbEntity
  8
0
100
AcDbLine
 10
208.3845496230156
 20
264.2738178928945
 30
0.0
 11
203.8845496230153
 21
264.2738178928945
 31
0.0
  0
LINE
  5
B1F
330
1F
100
AcDbEntity
  8
0
100
AcDbLine
 10
252.1845496230153
 20
351.9738178928942
 30
0.0
 11
254.1845496230151
 21
351.9738178928942
 31
0.0
  0
LINE
  5
B20
330
1F
100
AcDbEntity
  8
0
100
AcDbLine
 10
325.1845496230141
 20
354.9738178928941
 30
0.0
 11
325.1845496230141
 21
364.9738178928942
 31
0.0
  0
LINE
  5
B21
330
1F
100
AcDbEntity
  8
0
100
AcDbLine
 10
209.1845496230153
 20
180.9738178928943
 30
0.0
 11
326.5724034661833
 21
180.9738178928943
 31
0.0
  0
LINE
  5
B29
330
1F
100
AcDbEntity
  8
0
100
AcDbLine
 10
208.1845496230153
 20
222.7738186265847
 30
0.0
 11
208.1845496230153
 21
221.6738186265847
 31
0.0
  0
LINE
  5
B2A
330
1F
100
AcDbEntity
  8
0
100
AcDbLine
 10
208.1845496230153
 20
201.4738186265847
 30
0.0
 11
208.1845496230153
 21
200.3738186265845
 31
0.0
  0
LINE
  5
B2B
330
1F
100
AcDbEntity
  8
0
100
AcDbLine
 10
208.1845496230153
 20
199.1738186265847
 30
0.0
 11
208.1845496230153
 21
191.4738186265847
 31
0.0
  0
LINE
  5
B2C
330
1F
100
AcDbEntity
  8
0
100
AcDbLine
 10
209.1845496230153
 20
322.4138178928943
 30
0.0
 11
208.1801876821639
 21
322.4138178928943
 31
0.0
  0
LINE
  5
B2D
330
1F
100
AcDbEntity
  8
0
100
AcDbLine
 10
209.1845496230153
 20
233.1738186265847
 30
0.0
 11
208.1845496230153
 21
233.1738186265847
 31
0.0
  0
LINE
  5
B2E
330
1F
100
AcDbEntity
  8
0
100
AcDbLine
 10
208.1845496230153
 20
233.1738186265847
 30
0.0
 11
208.1845496230152
 21
241.5738186265848
 31
0.0
  0
LINE
  5
B2F
330
1F
100
AcDbEntity
  8
0
100
AcDbLine
 10
208.1845496230152
 20
241.5738186265848
 30
0.0
 11
209.1845496230153
 21
241.5738186265848
 31
0.0
  0
LINE
  5
B30
330
1F
100
AcDbEntity
  8
0
100
AcDbLine
 10
209.1845496230153
 20
243.0738186265847
 30
0.0
 11
208.3845496230156
 21
243.0738186265847
 31
0.0
  0
LINE
  5
B31
330
1F
100
AcDbEntity
  8
0
100
AcDbLine
 10
208.3845496230156
 20
243.0738186265847
 30
0.0
 11
208.3845496230156
 21
246.0738186265848
 31
0.0
  0
LINE
  5
B32
330
1F
100
AcDbEntity
  8
0
100
AcDbLine
 10
208.3845496230156
 20
246.0738186265848
 30
0.0
 11
209.1845496230153
 21
246.0738186265848
 31
0.0
  0
LINE
  5
B33
330
1F
100
AcDbEntity
  8
0
100
AcDbLine
 10
209.1845496230153
 20
263.0738186265848
 30
0.0
 11
208.3845496230156
 21
263.0738186265848
 31
0.0
  0
LINE
  5
B34
330
1F
100
AcDbEntity
  8
0
100
AcDbLine
 10
208.3845496230156
 20
263.0738186265848
 30
0.0
 11
208.3845496230156
 21
266.0738186265847
 31
0.0
  0
LINE
  5
B35
330
1F
100
AcDbEntity
  8
0
100
AcDbLine
 10
208.3845496230156
 20
266.0738186265847
 30
0.0
 11
209.1845496230153
 21
266.0738186265847
 31
0.0
  0
LINE
  5
B36
330
1F
100
AcDbEntity
  8
0
  6
CONTINUOUS
100
AcDbLine
 10
208.1801876821639
 20
322.4138178928943
 30
0.0
 11
208.1801876821639
 21
307.0138178928941
 31
0.0
  0
LINE
  5
B37
330
1F
100
AcDbEntity
  8
0
  6
CONTINUOUS
100
AcDbLine
 10
208.1801876821639
 20
307.0138178928941
 30
0.0
 11
209.1845496230153
 21
307.0138178928941
 31
0.0
  0
MTEXT
  5
B8F
330
1F
100
AcDbEntity
  8
0
100
AcDbMText
 10
36.79770661004567
 20
406.0285596540833
 30
0.0
 40
10.0
 41
0.0
 71
     1
 72
     5
  1
SCON-C-400I~750I-DV-*-1/2\PSCON-C-100SI~750SI-DV-*-1/2
1001
ACAD
1000
MTEXTBEGIN
1070
    73
1070
     1
1070
    44
1040
1.0
1070
    74
1070
     0
1000
MTEXTEND
1000
MTEXTBEGIN
1070
    73
1070
     1
1070
    44
1040
1.0
1070
    74
1070
     0
1000
MTEXTEND
  0
ENDSEC
  0
SECTION
  2
OBJECTS
  0
DICTIONARY
  5
C
330
0
100
AcDbDictionary
  3
ACAD_GROUP
350
D
  3
ACAD_LAYOUT
350
1A
  3
ACAD_MLINESTYLE
350
17
  3
ACAD_PLOTSETTINGS
350
19
  3
ACAD_PLOTSTYLENAME
350
E
  3
ACDBHEADERROUNDTRIPXREC
350
BBA
  3
ACDBVARIABLEDICTIONARY
350
80E
  0
DICTIONARY
  5
3F6
330
2
100
AcDbDictionary
280
     1
  3
ACAD_LAYERSTATES
360
3F7
  0
DICTIONARY
  5
834
330
1F
100
AcDbDictionary
280
     1
  3
ACAD_LAYOUTSELFREF
360
BDB
  0
DICTIONARY
  5
832
330
1B
100
AcDbDictionary
280
     1
  3
ACAD_LAYOUTSELFREF
360
BDA
  0
DICTIONARY
  5
D
102
{ACAD_REACTORS
330
C
102
}
330
C
100
AcDbDictionary
  0
DICTIONARY
  5
1A
102
{ACAD_REACTORS
330
C
102
}
330
C
100
AcDbDictionary
  0
DICTIONARY
  5
17
102
{ACAD_REACTORS
330
C
102
}
330
C
100
AcDbDictionary
  3
STANDARD
350
18
  0
DICTIONARY
  5
19
102
{ACAD_REACTORS
330
C
102
}
330
C
100
AcDbDictionary
  0
ACDBDICTIONARYWDFLT
  5
E
102
{ACAD_REACTORS
330
C
102
}
330
C
100
AcDbDictionary
281
     1
  3
Normal
350
F
100
AcDbDictionaryWithDefault
340
F
  0
DICTIONARY
  5
BBA
102
{ACAD_REACTORS
330
C
102
}
330
C
100
AcDbDictionary
  3
CEPSNTYPE
350
BC4
  3
FINGERPRINTGUID
350
BC5
  3
HYPERLINKBASE
350
BBD
  3
INSUNITS
350
BC3
  3
LAYOUTDICT
350
BBF
  3
LWETCUNION
350
BC2
  3
PLOTSETDICT
350
BC0
  3
PLOTSTYLNAMDICT
350
BC1
  3
PSVPSCALE
350
BC7
  3
PUCSBASE
350
BCA
  3
PUCSORGBACK
350
BD0
  3
PUCSORGBOTTOM
350
BCC
  3
PUCSORGFRONT
350
BCF
  3
PUCSORGLEFT
350
BCD
  3
PUCSORGRIGHT
350
BCE
  3
PUCSORGTOP
350
BCB
  3
PUCSORTHOREF
350
BC8
  3
PUCSORTHOVIEW
350
BC9
  3
STYLESHEET
350
BBE
  3
TSTACKALIGN
350
BBB
  3
TSTACKSIZE
350
BBC
  3
UCSBASE
350
BD3
  3
UCSORGBACK
350
BD9
  3
UCSORGBOTTOM
350
BD5
  3
UCSORGFRONT
350
BD8
  3
UCSORGLEFT
350
BD6
  3
UCSORGRIGHT
350
BD7
  3
UCSORGTOP
350
BD4
  3
UCSORTHOREF
350
BD1
  3
UCSORTHOVIEW
350
BD2
  3
VERSIONGUID
350
BC6
  0
DICTIONARY
  5
80E
102
{ACAD_REACTORS
330
C
102
}
330
C
100
AcDbDictionary
  3
DIMASSOC
350
810
  3
HIDETEXT
350
80F
  0
DICTIONARY
  5
3F7
102
{ACAD_REACTORS
330
3F6
102
}
330
3F6
100
AcDbDictionary
  0
XRECORD
  5
BDB
102
{ACAD_REACTORS
330
834
102
}
330
834
100
AcDbXrecord
340
1F
  0
XRECORD
  5
BDA
102
{ACAD_REACTORS
330
832
102
}
330
832
100
AcDbXrecord
340
1B
  0
MLINESTYLE
  5
18
102
{ACAD_REACTORS
330
17
102
}
330
17
100
AcDbMlineStyle
  2
STANDARD
 70
     0
  3

 62
   256
 51
90.0
 52
90.0
 71
     2
 49
0.5
 62
   256
  6
BYLAYER
 49
-0.5
 62
   256
  6
BYLAYER
  0
ACDBPLACEHOLDER
  5
F
102
{ACAD_REACTORS
330
E
102
}
330
E
100
AcDbPlaceHolder
280
     0
  0
XRECORD
  5
BC4
102
{ACAD_REACTORS
330
BBA
102
}
330
BBA
100
AcDbXrecord
 90
        0
  0
XRECORD
  5
BC5
102
{ACAD_REACTORS
330
BBA
102
}
330
BBA
100
AcDbXrecord
  1
{242CEDB5-D773-4B7A-895C-FCAB5051D926}
  0
XRECORD
  5
BBD
102
{ACAD_REACTORS
330
BBA
102
}
330
BBA
100
AcDbXrecord
  1

  0
XRECORD
  5
BC3
102
{ACAD_REACTORS
330
BBA
102
}
330
BBA
100
AcDbXrecord
 90
        4
  0
XRECORD
  5
BBF
102
{ACAD_REACTORS
330
BBA
102
}
330
BBA
100
AcDbXrecord
340
1A
  0
XRECORD
  5
BC2
102
{ACAD_REACTORS
330
BBA
102
}
330
BBA
100
AcDbXrecord
 90
    10781
  0
XRECORD
  5
BC0
102
{ACAD_REACTORS
330
BBA
102
}
330
BBA
100
AcDbXrecord
340
19
  0
XRECORD
  5
BC1
102
{ACAD_REACTORS
330
BBA
102
}
330
BBA
100
AcDbXrecord
340
E
  0
XRECORD
  5
BC7
102
{ACAD_REACTORS
330
BBA
102
}
330
BBA
100
AcDbXrecord
 40
0.0
  0
XRECORD
  5
BCA
102
{ACAD_REACTORS
330
BBA
102
}
330
BBA
100
AcDbXrecord
340
0
  0
XRECORD
  5
BD0
102
{ACAD_REACTORS
330
BBA
102
}
330
BBA
100
AcDbXrecord
 10
0.0
 20
0.0
 30
0.0
  0
XRECORD
  5
BCC
102
{ACAD_REACTORS
330
BBA
102
}
330
BBA
100
AcDbXrecord
 10
0.0
 20
0.0
 30
0.0
  0
XRECORD
  5
BCF
102
{ACAD_REACTORS
330
BBA
102
}
330
BBA
100
AcDbXrecord
 10
0.0
 20
0.0
 30
0.0
  0
XRECORD
  5
BCD
102
{ACAD_REACTORS
330
BBA
102
}
330
BBA
100
AcDbXrecord
 10
0.0
 20
0.0
 30
0.0
  0
XRECORD
  5
BCE
102
{ACAD_REACTORS
330
BBA
102
}
330
BBA
100
AcDbXrecord
 10
0.0
 20
0.0
 30
0.0
  0
XRECORD
  5
BCB
102
{ACAD_REACTORS
330
BBA
102
}
330
BBA
100
AcDbXrecord
 10
0.0
 20
0.0
 30
0.0
  0
XRECORD
  5
BC8
102
{ACAD_REACTORS
330
BBA
102
}
330
BBA
100
AcDbXrecord
340
0
  0
XRECORD
  5
BC9
102
{ACAD_REACTORS
330
BBA
102
}
330
BBA
100
AcDbXrecord
 70
     0
  0
XRECORD
  5
BBE
102
{ACAD_REACTORS
330
BBA
102
}
330
BBA
100
AcDbXrecord
  1

  0
XRECORD
  5
BBB
102
{ACAD_REACTORS
330
BBA
102
}
330
BBA
100
AcDbXrecord
 90
        1
  0
XRECORD
  5
BBC
102
{ACAD_REACTORS
330
BBA
102
}
330
BBA
100
AcDbXrecord
 90
       70
  0
XRECORD
  5
BD3
102
{ACAD_REACTORS
330
BBA
102
}
330
BBA
100
AcDbXrecord
340
0
  0
XRECORD
  5
BD9
102
{ACAD_REACTORS
330
BBA
102
}
330
BBA
100
AcDbXrecord
 10
0.0
 20
0.0
 30
0.0
  0
XRECORD
  5
BD5
102
{ACAD_REACTORS
330
BBA
102
}
330
BBA
100
AcDbXrecord
 10
0.0
 20
0.0
 30
0.0
  0
XRECORD
  5
BD8
102
{ACAD_REACTORS
330
BBA
102
}
330
BBA
100
AcDbXrecord
 10
0.0
 20
0.0
 30
0.0
  0
XRECORD
  5
BD6
102
{ACAD_REACTORS
330
BBA
102
}
330
BBA
100
AcDbXrecord
 10
0.0
 20
0.0
 30
0.0
  0
XRECORD
  5
BD7
102
{ACAD_REACTORS
330
BBA
102
}
330
BBA
100
AcDbXrecord
 10
0.0
 20
0.0
 30
0.0
  0
XRECORD
  5
BD4
102
{ACAD_REACTORS
330
BBA
102
}
330
BBA
100
AcDbXrecord
 10
0.0
 20
0.0
 30
0.0
  0
XRECORD
  5
BD1
102
{ACAD_REACTORS
330
BBA
102
}
330
BBA
100
AcDbXrecord
340
0
  0
XRECORD
  5
BD2
102
{ACAD_REACTORS
330
BBA
102
}
330
BBA
100
AcDbXrecord
 70
     0
  0
XRECORD
  5
BC6
102
{ACAD_REACTORS
330
BBA
102
}
330
BBA
100
AcDbXrecord
  1
{CC589EBA-9D71-4AD9-A04C-386CA2F0BEDE}
  0
DICTIONARYVAR
  5
810
102
{ACAD_REACTORS
330
80E
102
}
330
80E
100
DictionaryVariables
280
     0
  1
2
  0
DICTIONARYVAR
  5
80F
102
{ACAD_REACTORS
330
80E
102
}
330
80E
100
DictionaryVariables
280
     0
  1
1
  0
ENDSEC
  0
EOF
