  0
SECTION
  2
HEADER
  9
$ACADVER
  1
AC1014
  9
$ACADMAINTVER
 70
     9
  9
$DWGCODEPAGE
  3
ANSI_932
  9
$INSBASE
 10
0.0
 20
0.0
 30
0.0
  9
$EXTMIN
 10
-4.509860270041038
 20
-0.0000003347043958
 30
0.0
  9
$EXTMAX
 10
280.4901397299589
 20
437.075389437366
 30
0.0
  9
$LIMMIN
 10
0.0
 20
0.0
  9
$LIMMAX
 10
420.0
 20
297.0
  9
$ORTHOMODE
 70
     0
  9
$REGENMODE
 70
     1
  9
$FILLMODE
 70
     1
  9
$QTEXTMODE
 70
     0
  9
$MIRRTEXT
 70
     1
  9
$DRAGMODE
 70
     2
  9
$LTSCALE
 40
1.0
  9
$OSMODE
 70
    55
  9
$ATTMODE
 70
     1
  9
$TEXTSIZE
 40
2.5
  9
$TRACEWID
 40
1.0
  9
$TEXTSTYLE
  7
STANDARD
  9
$CLAYER
  8
0
  9
$CELTYPE
  6
BYLAYER
  9
$CECOLOR
 62
   256
  9
$CELTSCALE
 40
1.0
  9
$DELOBJ
 70
     1
  9
$DISPSILH
 70
     0
  9
$DIMSCALE
 40
1.0
  9
$DIMASZ
 40
2.5
  9
$DIMEXO
 40
0.625
  9
$DIMDLI
 40
3.75
  9
$DIMRND
 40
0.0
  9
$DIMDLE
 40
0.0
  9
$DIMEXE
 40
1.25
  9
$DIMTP
 40
0.0
  9
$DIMTM
 40
0.0
  9
$DIMTXT
 40
2.5
  9
$DIMCEN
 40
2.5
  9
$DIMTSZ
 40
0.0
  9
$DIMTOL
 70
     0
  9
$DIMLIM
 70
     0
  9
$DIMTIH
 70
     0
  9
$DIMTOH
 70
     0
  9
$DIMSE1
 70
     0
  9
$DIMSE2
 70
     0
  9
$DIMTAD
 70
     1
  9
$DIMZIN
 70
     8
  9
$DIMBLK
  1

  9
$DIMASO
 70
     1
  9
$DIMSHO
 70
     1
  9
$DIMPOST
  1

  9
$DIMAPOST
  1

  9
$DIMALT
 70
     0
  9
$DIMALTD
 70
     3
  9
$DIMALTF
 40
0.03937007874016
  9
$DIMLFAC
 40
1.0
  9
$DIMTOFL
 70
     1
  9
$DIMTVP
 40
0.0
  9
$DIMTIX
 70
     0
  9
$DIMSOXD
 70
     0
  9
$DIMSAH
 70
     0
  9
$DIMBLK1
  1

  9
$DIMBLK2
  1

  9
$DIMSTYLE
  2
ISO-25
  9
$DIMCLRD
 70
     0
  9
$DIMCLRE
 70
     0
  9
$DIMCLRT
 70
     0
  9
$DIMTFAC
 40
1.0
  9
$DIMGAP
 40
0.625
  9
$DIMJUST
 70
     0
  9
$DIMSD1
 70
     0
  9
$DIMSD2
 70
     0
  9
$DIMTOLJ
 70
     0
  9
$DIMTZIN
 70
     8
  9
$DIMALTZ
 70
     0
  9
$DIMALTTZ
 70
     0
  9
$DIMFIT
 70
     3
  9
$DIMUPT
 70
     0
  9
$DIMUNIT
 70
     2
  9
$DIMDEC
 70
     2
  9
$DIMTDEC
 70
     2
  9
$DIMALTU
 70
     2
  9
$DIMALTTD
 70
     3
  9
$DIMTXSTY
  7
STANDARD
  9
$DIMAUNIT
 70
     0
  9
$LUNITS
 70
     2
  9
$LUPREC
 70
     4
  9
$SKETCHINC
 40
1.0
  9
$FILLETRAD
 40
10.0
  9
$AUNITS
 70
     0
  9
$AUPREC
 70
     0
  9
$MENU
  1
.
  9
$ELEVATION
 40
0.0
  9
$PELEVATION
 40
0.0
  9
$THICKNESS
 40
0.0
  9
$LIMCHECK
 70
     0
  9
$BLIPMODE
 70
     0
  9
$CHAMFERA
 40
10.0
  9
$CHAMFERB
 40
10.0
  9
$CHAMFERC
 40
20.0
  9
$CHAMFERD
 40
0.0
  9
$SKPOLY
 70
     0
  9
$TDCREATE
 40
2455874.696578947
  9
$TDUPDATE
 40
2455874.828232291
  9
$TDINDWG
 40
0.0152505787
  9
$TDUSRTIMER
 40
0.0152503935
  9
$USRTIMER
 70
     1
  9
$ANGBASE
 50
0.0
  9
$ANGDIR
 70
     0
  9
$PDMODE
 70
     0
  9
$PDSIZE
 40
0.0
  9
$PLINEWID
 40
0.0
  9
$COORDS
 70
     1
  9
$SPLFRAME
 70
     0
  9
$SPLINETYPE
 70
     6
  9
$SPLINESEGS
 70
     8
  9
$ATTDIA
 70
     0
  9
$ATTREQ
 70
     1
  9
$HANDLING
 70
 22529
  9
$HANDSEED
  5
B88
  9
$SURFTAB1
 70
     6
  9
$SURFTAB2
 70
     6
  9
$SURFTYPE
 70
     6
  9
$SURFU
 70
     6
  9
$SURFV
 70
     6
  9
$UCSNAME
  2

  9
$UCSORG
 10
0.0
 20
0.0
 30
0.0
  9
$UCSXDIR
 10
1.0
 20
0.0
 30
0.0
  9
$UCSYDIR
 10
0.0
 20
1.0
 30
0.0
  9
$PUCSNAME
  2

  9
$PUCSORG
 10
0.0
 20
0.0
 30
0.0
  9
$PUCSXDIR
 10
1.0
 20
0.0
 30
0.0
  9
$PUCSYDIR
 10
0.0
 20
1.0
 30
0.0
  9
$USERI1
 70
     0
  9
$USERI2
 70
     0
  9
$USERI3
 70
     0
  9
$USERI4
 70
     0
  9
$USERI5
 70
     0
  9
$USERR1
 40
0.0
  9
$USERR2
 40
0.0
  9
$USERR3
 40
0.0
  9
$USERR4
 40
0.0
  9
$USERR5
 40
0.0
  9
$WORLDVIEW
 70
     1
  9
$SHADEDGE
 70
     3
  9
$SHADEDIF
 70
    70
  9
$TILEMODE
 70
     1
  9
$MAXACTVP
 70
    64
  9
$PINSBASE
 10
0.0
 20
0.0
 30
0.0
  9
$PLIMCHECK
 70
     0
  9
$PEXTMIN
 10
1.000000000000000E+20
 20
1.000000000000000E+20
 30
1.000000000000000E+20
  9
$PEXTMAX
 10
-1.000000000000000E+20
 20
-1.000000000000000E+20
 30
-1.000000000000000E+20
  9
$PLIMMIN
 10
0.0
 20
0.0
  9
$PLIMMAX
 10
420.0
 20
297.0
  9
$UNITMODE
 70
     0
  9
$VISRETAIN
 70
     1
  9
$PLINEGEN
 70
     0
  9
$PSLTSCALE
 70
     1
  9
$TREEDEPTH
 70
  3020
  9
$PICKSTYLE
 70
     1
  9
$CMLSTYLE
  2
STANDARD
  9
$CMLJUST
 70
     0
  9
$CMLSCALE
 40
20.0
  9
$PROXYGRAPHICS
 70
     1
  9
$MEASUREMENT
 70
     1
  0
ENDSEC
  0
SECTION
  2
CLASSES
  0
CLASS
  1
ACDBDICTIONARYWDFLT
  2
AcDbDictionaryWithDefault
  3
AutoCAD 2000
 90
        0
280
     0
281
     0
  0
CLASS
  1
ACDBPLACEHOLDER
  2
AcDbPlaceHolder
  3
AutoCAD 2000
 90
        0
280
     0
281
     0
  0
CLASS
  1
LAYOUT
  2
AcDbLayout
  3
AutoCAD 2000
 90
        0
280
     0
281
     0
  0
CLASS
  1
DICTIONARYVAR
  2
AcDbDictionaryVar
  3
AutoCAD 2000
 90
        0
280
     0
281
     0
  0
CLASS
  1
LONG_TRANSACTION
  2
AcDbLongTransaction
  3
AutoCAD 2000
 90
        0
280
     0
281
     0
  0
CLASS
  1
LWPOLYLINE
  2
AcDbPolyline
  3
AutoCAD 2000
 90
        0
280
     0
281
     1
  0
CLASS
  1
HATCH
  2
AcDbHatch
  3
AutoCAD 2000
 90
        0
280
     0
281
     1
  0
CLASS
  1
XRECORD
  2
AcDbXrecord
  3
AutoCAD 2000
 90
        0
280
     0
281
     0
  0
CLASS
  1
LONG_TRANSACTION
  2
AcDbLongTransaction
  3
AutoCAD 2000
 90
        0
280
     0
281
     0
  0
CLASS
  1
LWPOLYLINE
  2
AcDbPolyline
  3
AutoCAD 2000
 90
        0
280
     0
281
     1
  0
CLASS
  1
HATCH
  2
AcDbHatch
  3
AutoCAD 2000
 90
        0
280
     0
281
     1
  0
CLASS
  1
XRECORD
  2
AcDbXrecord
  3
AutoCAD 2000
 90
        0
280
     0
281
     0
  0
CLASS
  1
LONG_TRANSACTION
  2
AcDbLongTransaction
  3
AutoCAD 2000
 90
        0
280
     0
281
     0
  0
CLASS
  1
LWPOLYLINE
  2
AcDbPolyline
  3
AutoCAD 2000
 90
        0
280
     0
281
     1
  0
CLASS
  1
HATCH
  2
AcDbHatch
  3
AutoCAD 2000
 90
        0
280
     0
281
     1
  0
CLASS
  1
XRECORD
  2
AcDbXrecord
  3
AutoCAD 2000
 90
        0
280
     0
281
     0
  0
CLASS
  1
LONG_TRANSACTION
  2
AcDbLongTransaction
  3
AutoCAD 2000
 90
        0
280
     0
281
     0
  0
CLASS
  1
LWPOLYLINE
  2
AcDbPolyline
  3
AutoCAD 2000
 90
        0
280
     0
281
     1
  0
CLASS
  1
HATCH
  2
AcDbHatch
  3
AutoCAD 2000
 90
        0
280
     0
281
     1
  0
CLASS
  1
XRECORD
  2
AcDbXrecord
  3
AutoCAD 2000
 90
        0
280
     0
281
     0
  0
ENDSEC
  0
SECTION
  2
TABLES
  0
TABLE
  2
VPORT
  5
8
330
0
100
AcDbSymbolTable
 70
     2
  0
VPORT
  5
B65
330
8
100
AcDbSymbolTableRecord
100
AcDbViewportTableRecord
  2
*ACTIVE
 70
     0
 10
0.0
 20
0.0
 11
1.0
 21
1.0
 12
137.2525088387904
 22
218.5399045419004
 13
0.0
 23
0.0
 14
10.0
 24
10.0
 15
10.0
 25
10.0
 16
0.0
 26
0.0
 36
1.0
 17
0.0
 27
0.0
 37
0.0
 40
440.2672442361589
 41
1.46415552855407
 42
50.0
 43
0.0
 44
0.0
 50
0.0
 51
0.0
 71
     0
 72
   100
 73
     1
 74
     3
 75
     0
 76
     0
 77
     0
 78
     0
  0
ENDTAB
  0
TABLE
  2
LTYPE
  5
5
330
0
100
AcDbSymbolTable
 70
     2
  0
LTYPE
  5
14
330
5
100
AcDbSymbolTableRecord
100
AcDbLinetypeTableRecord
  2
BYBLOCK
 70
     0
  3

 72
    65
 73
     0
 40
0.0
  0
LTYPE
  5
15
330
5
100
AcDbSymbolTableRecord
100
AcDbLinetypeTableRecord
  2
BYLAYER
 70
     0
  3

 72
    65
 73
     0
 40
0.0
  0
LTYPE
  5
16
330
5
100
AcDbSymbolTableRecord
100
AcDbLinetypeTableRecord
  2
CONTINUOUS
 70
     0
  3
Solid line
 72
    65
 73
     0
 40
0.0
  0
LTYPE
  5
762
330
5
100
AcDbSymbolTableRecord
100
AcDbLinetypeTableRecord
  2
DASHDOT
 70
     0
  3
__ . __ . __ . __ . __ . __ . __ . __ . __ . __
 72
    65
 73
     4
 40
7.5
 49
6.0
 74
     0
 49
-0.5
 74
     0
 49
0.5
 74
     0
 49
-0.5
 74
     0
  0
ENDTAB
  0
TABLE
  2
LAYER
  5
2
102
{ACAD_XDICTIONARY
360
4F6
102
}
330
0
100
AcDbSymbolTable
 70
     4
  0
LAYER
  5
10
330
2
100
AcDbSymbolTableRecord
100
AcDbLayerTableRecord
  2
0
 70
     0
 62
     7
  6
CONTINUOUS
  0
LAYER
  5
4F2
330
2
100
AcDbSymbolTableRecord
100
AcDbLayerTableRecord
  2
DEFPOINTS
 70
     0
 62
    -7
  6
CONTINUOUS
  0
LAYER
  5
4F3
330
2
100
AcDbSymbolTableRecord
100
AcDbLayerTableRecord
  2
1
 70
     0
 62
     3
  6
CONTINUOUS
  0
LAYER
  5
763
330
2
100
AcDbSymbolTableRecord
100
AcDbLayerTableRecord
  2
2_カバ_
 70
     0
 62
     7
  6
CONTINUOUS
  0
ENDTAB
  0
TABLE
  2
STYLE
  5
3
330
0
100
AcDbSymbolTable
 70
     1
  0
STYLE
  5
11
330
3
100
AcDbSymbolTableRecord
100
AcDbTextStyleTableRecord
  2
STANDARD
 70
     0
 40
0.0
 41
1.0
 50
0.0
 71
     0
 42
2.5
  3
txt
  4

  0
ENDTAB
  0
TABLE
  2
VIEW
  5
6
330
0
100
AcDbSymbolTable
 70
     0
  0
ENDTAB
  0
TABLE
  2
UCS
  5
7
330
0
100
AcDbSymbolTable
 70
     0
  0
ENDTAB
  0
TABLE
  2
APPID
  5
9
330
0
100
AcDbSymbolTable
 70
     1
  0
APPID
  5
12
330
9
100
AcDbSymbolTableRecord
100
AcDbRegAppTableRecord
  2
ACAD
 70
     0
  0
ENDTAB
  0
TABLE
  2
DIMSTYLE
  5
A
330
0
100
AcDbSymbolTable
 70
     2
  0
DIMSTYLE
105
27
330
A
100
AcDbSymbolTableRecord
100
AcDbDimStyleTableRecord
  2
ISO-25
 70
     0
  3

  4

  5

  6

  7

 40
1.0
 41
2.5
 42
0.625
 43
3.75
 44
1.25
 45
0.0
 46
0.0
 47
0.0
 48
0.0
140
2.5
141
2.5
142
0.0
143
0.03937007874016
144
1.0
145
0.0
146
1.0
147
0.625
 71
     0
 72
     0
 73
     0
 74
     0
 75
     0
 76
     0
 77
     1
 78
     8
170
     0
171
     3
172
     1
173
     0
174
     0
175
     0
176
     0
177
     0
178
     0
270
     2
271
     2
272
     2
273
     2
274
     3
340
11
275
     0
280
     0
281
     0
282
     0
283
     0
284
     8
285
     0
286
     0
287
     3
288
     0
  0
DIMSTYLE
105
4F5
330
A
100
AcDbSymbolTableRecord
100
AcDbDimStyleTableRecord
  2
STANDARD
 70
     0
  3

  4

  5

  6

  7

 40
1.0
 41
2.5
 42
0.625
 43
3.75
 44
1.25
 45
0.0
 46
0.0
 47
0.0
 48
0.0
140
2.5
141
2.5
142
0.0
143
0.0394
144
1.0
145
0.0
146
1.0
147
0.625
 71
     0
 72
     0
 73
     0
 74
     0
 75
     0
 76
     0
 77
     1
 78
     8
170
     0
171
     4
172
     1
173
     0
174
     0
175
     0
176
     0
177
     0
178
     0
270
     2
271
     4
272
     4
273
     8
274
     4
340
11
275
     0
280
     0
281
     0
282
     0
283
     1
284
     0
285
     0
286
     0
287
     3
288
     0
  0
ENDTAB
  0
TABLE
  2
BLOCK_RECORD
  5
1
330
0
100
AcDbSymbolTable
 70
     0
  0
BLOCK_RECORD
  5
1F
102
{ACAD_XDICTIONARY
360
61D
102
}
330
1
100
AcDbSymbolTableRecord
100
AcDbBlockTableRecord
  2
*MODEL_SPACE
  0
BLOCK_RECORD
  5
1B
102
{ACAD_XDICTIONARY
360
61B
102
}
330
1
100
AcDbSymbolTableRecord
100
AcDbBlockTableRecord
  2
*PAPER_SPACE
  0
ENDTAB
  0
ENDSEC
  0
SECTION
  2
BLOCKS
  0
BLOCK
  5
20
330
1F
100
AcDbEntity
  8
0
100
AcDbBlockBegin
  2
*MODEL_SPACE
 70
     0
 10
0.0
 20
0.0
 30
0.0
  3
*MODEL_SPACE
  1

  0
ENDBLK
  5
21
330
1F
100
AcDbEntity
  8
0
100
AcDbBlockEnd
  0
BLOCK
  5
1C
330
1B
100
AcDbEntity
 67
     1
  8
0
100
AcDbBlockBegin
  2
*PAPER_SPACE
 70
     0
 10
0.0
 20
0.0
 30
0.0
  3
*PAPER_SPACE
  1

  0
ENDBLK
  5
1D
330
1B
100
AcDbEntity
 67
     1
  8
0
100
AcDbBlockEnd
  0
ENDSEC
  0
SECTION
  2
ENTITIES
  0
LINE
  5
510
330
1F
100
AcDbEntity
  8
1
100
AcDbLine
 10
21.49999780809888
 20
359.9738137437261
 30
0.0
 11
36.49999780809888
 21
359.9738137437261
 31
0.0
  0
LINE
  5
511
330
1F
100
AcDbEntity
  8
1
100
AcDbLine
 10
21.49999780809888
 20
175.9738137437262
 30
0.0
 11
36.49999780809888
 21
175.9738137437262
 31
0.0
  0
LINE
  5
514
330
1F
100
AcDbEntity
  8
1
100
AcDbLine
 10
28.99999780809888
 20
352.4738137437263
 30
0.0
 11
28.99999780809888
 21
367.4738137437261
 31
0.0
  0
LINE
  5
515
330
1F
100
AcDbEntity
  8
1
100
AcDbLine
 10
28.99999780809888
 20
168.4738137437262
 30
0.0
 11
28.99999780809888
 21
183.4738137437265
 31
0.0
  0
TEXT
  5
5F6
330
1F
100
AcDbEntity
  8
0
100
AcDbText
 10
-4.509860270041038
 20
427.0753894373657
 30
0.0
 40
10.0
  1
SCON-C/CA-20~300SI-NP/PN-*-1/2
100
AcDbText
  0
LINE
  5
627
330
1F
100
AcDbEntity
  8
0
100
AcDbLine
 10
57.99999780809956
 20
3.585959900558576
 30
0.0
 11
57.99999780809956
 21
120.9738137437264
 31
0.0
  0
LINE
  5
628
330
1F
100
AcDbEntity
  8
0
100
AcDbLine
 10
15.59999780809857
 20
127.5738137437266
 30
0.0
 11
24.94499780809865
 21
127.5738137437266
 31
0.0
  0
LINE
  5
629
330
1F
100
AcDbEntity
  8
0
100
AcDbLine
 10
14.09999780809954
 20
121.9738137437266
 30
0.0
 11
22.69999780809864
 21
121.9738137437266
 31
0.0
  0
LINE
  5
62A
330
1F
100
AcDbEntity
  8
0
100
AcDbLine
 10
15.19999780809859
 20
126.2738137437265
 30
0.0
 11
21.09999780809862
 21
126.2738137437265
 31
0.0
  0
LINE
  5
62B
330
1F
100
AcDbEntity
  8
0
100
AcDbLine
 10
5.999997808099577
 20
120.9738137437264
 30
0.0
 11
57.99999780809956
 21
120.9738137437264
 31
0.0
  0
LINE
  5
637
330
1F
100
AcDbEntity
  8
0
100
AcDbLine
 10
15.99999780809957
 20
21.9738137437266
 30
0.0
 11
57.99999780809956
 21
21.9738137437266
 31
0.0
  0
LINE
  5
638
330
1F
100
AcDbEntity
  8
0
100
AcDbLine
 10
56.99999780809957
 20
42.97381374372661
 30
0.0
 11
15.99999780809957
 21
42.97381374372661
 31
0.0
  0
LINE
  5
639
330
1F
100
AcDbEntity
  8
0
100
AcDbLine
 10
56.99999780809957
 20
40.97381374372661
 30
0.0
 11
15.99999780809957
 21
40.97381374372661
 31
0.0
  0
LINE
  5
63A
330
1F
100
AcDbEntity
  8
0
100
AcDbLine
 10
56.99999780809957
 20
35.97381374372661
 30
0.0
 11
15.99999780809957
 21
35.97381374372661
 31
0.0
  0
LINE
  5
63B
330
1F
100
AcDbEntity
  8
0
100
AcDbLine
 10
56.99999780809957
 20
33.97381374372661
 30
0.0
 11
15.99999780809957
 21
33.97381374372661
 31
0.0
  0
LINE
  5
63C
330
1F
100
AcDbEntity
  8
0
100
AcDbLine
 10
56.99999780809957
 20
28.97381374372661
 30
0.0
 11
15.99999780809957
 21
28.97381374372661
 31
0.0
  0
LINE
  5
63D
330
1F
100
AcDbEntity
  8
0
100
AcDbLine
 10
56.99999780809957
 20
26.97381374372662
 30
0.0
 11
15.99999780809957
 21
26.97381374372662
 31
0.0
  0
LINE
  5
644
330
1F
100
AcDbEntity
  8
0
100
AcDbLine
 10
-0.0000021919004211
 20
-0.0000003347043958
 30
0.0
 11
57.99999780809956
 21
-0.0000003347043958
 31
0.0
  0
LINE
  5
645
330
1F
100
AcDbEntity
  8
0
100
AcDbLine
 10
3.999997808099576
 20
4.999999665295603
 30
0.0
 11
57.99999780809956
 21
3.585959900558576
 31
0.0
  0
LINE
  5
646
330
1F
100
AcDbEntity
  8
0
100
AcDbLine
 10
57.99999780809956
 20
3.585959900558576
 30
0.0
 11
4.999997808099577
 21
4.973813743726621
 31
0.0
  0
LINE
  5
647
330
1F
100
AcDbEntity
  8
0
100
AcDbLine
 10
2.999997808099576
 20
54.3196664245026
 30
0.0
 11
2.999997808099576
 21
50.6803329060866
 31
0.0
  0
LINE
  5
648
330
1F
100
AcDbEntity
  8
0
100
AcDbLine
 10
4.999997808099577
 20
70.99999966529559
 30
0.0
 11
4.999997808099577
 21
32.99999966529559
 31
0.0
  0
LINE
  5
649
330
1F
100
AcDbEntity
  8
0
100
AcDbLine
 10
5.999997808099577
 20
32.97381374372759
 30
0.0
 11
5.999997808099577
 21
70.97381374372661
 31
0.0
  0
LINE
  5
64A
330
1F
100
AcDbEntity
  8
0
100
AcDbLine
 10
15.99999780809957
 20
103.9738137437266
 30
0.0
 11
15.99999780809957
 21
21.9738137437266
 31
0.0
  0
LINE
  5
64B
330
1F
100
AcDbEntity
  8
0
100
AcDbLine
 10
-0.0000021919004211
 20
21.41966642450254
 30
0.0
 11
-0.0000021919004211
 21
-0.0000003347043958
 31
0.0
  0
LINE
  5
64C
330
1F
100
AcDbEntity
  8
0
100
AcDbLine
 10
8.099997808099544
 20
30.9999996652956
 30
0.0
 11
8.099997808099544
 21
22.9999996652956
 31
0.0
  0
LINE
  5
64D
330
1F
100
AcDbEntity
  8
0
100
AcDbLine
 10
8.699997808099567
 20
30.9999996652956
 30
0.0
 11
8.699997808099567
 21
22.9999996652956
 31
0.0
  0
LINE
  5
64E
330
1F
100
AcDbEntity
  8
0
100
AcDbLine
 10
9.499997808099578
 20
30.9999996652956
 30
0.0
 11
9.499997808099578
 21
22.9999996652956
 31
0.0
  0
ARC
  5
64F
330
1F
100
AcDbEntity
  8
0
100
AcDbCircle
 10
2.399997808099555
 20
26.3196664245026
 30
0.0
 40
0.6
100
AcDbArc
 50
0.0
 51
88.0908475670027
  0
LINE
  5
650
330
1F
100
AcDbEntity
  8
0
100
AcDbLine
 10
4.499997808099577
 20
32.99999966529559
 30
0.0
 11
4.499997808099577
 21
20.99999966529559
 31
0.0
  0
LINE
  5
651
330
1F
100
AcDbEntity
  8
0
100
AcDbLine
 10
4.999997808099577
 20
32.99999966529559
 30
0.0
 11
4.999997808099577
 21
20.99999966529457
 31
0.0
  0
LINE
  5
652
330
1F
100
AcDbEntity
  8
0
100
AcDbLine
 10
7.999997808098552
 20
31.47381374372661
 30
0.0
 11
7.999997808098552
 21
22.47381374372662
 31
0.0
  0
LINE
  5
653
330
1F
100
AcDbEntity
  8
0
100
AcDbLine
 10
9.699997808098542
 20
31.47381374372661
 30
0.0
 11
9.699997808098542
 21
22.47381374372662
 31
0.0
  0
LINE
  5
654
330
1F
100
AcDbEntity
  8
0
100
AcDbLine
 10
3.699997808099566
 20
32.99999966529559
 30
0.0
 11
3.699997808099566
 21
21.09999966529457
 31
0.0
  0
LINE
  5
655
330
1F
100
AcDbEntity
  8
0
100
AcDbLine
 10
4.999997808099577
 20
20.99999966529559
 30
0.0
 11
4.999997808099577
 21
4.9738137437256
 31
0.0
  0
LINE
  5
656
330
1F
100
AcDbEntity
  8
0
100
AcDbLine
 10
5.999997808099577
 20
4.921441900588603
 30
0.0
 11
5.999997808099577
 21
20.9738137437266
 31
0.0
  0
LINE
  5
657
330
1F
100
AcDbEntity
  8
0
100
AcDbLine
 10
3.999997808099576
 20
4.999999665295603
 30
0.0
 11
-0.0000021919004211
 21
4.895255979018599
 31
0.0
  0
LINE
  5
658
330
1F
100
AcDbEntity
  8
0
100
AcDbLine
 10
2.516655223215593
 20
22.08388824579861
 30
0.0
 11
0.5800089099595879
 21
22.01933336869057
 31
0.0
  0
ARC
  5
659
330
1F
100
AcDbEntity
  8
0
100
AcDbCircle
 10
0.5999978080995449
 20
21.41966642450254
 30
0.0
 40
0.6
100
AcDbArc
 50
91.90915243299405
 51
180.0
  0
POINT
  5
65A
330
1F
100
AcDbEntity
  8
0
100
AcDbPoint
 10
-0.0000021919004211
 20
21.99999966529455
 30
0.0
  0
LINE
  5
65B
330
1F
100
AcDbEntity
  8
0
100
AcDbLine
 10
5.999997808099577
 20
20.9738137437266
 30
0.0
 11
4.999997808099577
 21
20.9738137437266
 31
0.0
  0
ARC
  5
65C
330
1F
100
AcDbEntity
  8
0
100
AcDbCircle
 10
2.499997808099576
 20
22.58361069928857
 30
0.0
 40
0.5
100
AcDbArc
 50
271.909152432994
 51
0.0
  0
LINE
  5
65D
330
1F
100
AcDbEntity
  8
0
100
AcDbLine
 10
2.999997808099576
 20
26.3196664245026
 30
0.0
 11
2.999997808099576
 21
22.58361069928857
 31
0.0
  0
LINE
  5
65E
330
1F
100
AcDbEntity
  8
0
100
AcDbLine
 10
4.999997808099577
 20
20.99999966529559
 30
0.0
 11
3.699997808099566
 21
20.99999966529559
 31
0.0
  0
LINE
  5
65F
330
1F
100
AcDbEntity
  8
0
100
AcDbLine
 10
9.699997808098542
 20
22.47381374372662
 30
0.0
 11
7.999997808098552
 21
22.47381374372662
 31
0.0
  0
LINE
  5
660
330
1F
100
AcDbEntity
  8
0
100
AcDbLine
 10
9.499997808099578
 20
22.9999996652956
 30
0.0
 11
7.999997808098552
 21
22.9999996652956
 31
0.0
  0
LINE
  5
661
330
1F
100
AcDbEntity
  8
0
100
AcDbLine
 10
2.999997808099576
 20
40.31966642450259
 30
0.0
 11
2.999997808099576
 21
36.68033290608661
 31
0.0
  0
LINE
  5
662
330
1F
100
AcDbEntity
  8
0
100
AcDbLine
 10
2.419986706238544
 20
36.08066596189962
 30
0.0
 11
0.5800089099595879
 21
36.01933336869057
 31
0.0
  0
LINE
  5
663
330
1F
100
AcDbEntity
  8
0
100
AcDbLine
 10
0.5800089099595879
 20
33.98066596189959
 30
0.0
 11
2.419986706238544
 21
33.9193333686906
 31
0.0
  0
LINE
  5
664
330
1F
100
AcDbEntity
  8
0
100
AcDbLine
 10
2.419986706238544
 20
29.08066596189962
 30
0.0
 11
0.5800089099595879
 21
29.01933336869058
 31
0.0
  0
LINE
  5
665
330
1F
100
AcDbEntity
  8
0
100
AcDbLine
 10
0.5800089099595879
 20
26.9806659618996
 30
0.0
 11
2.419986706238544
 21
26.91933336869059
 31
0.0
  0
LINE
  5
666
330
1F
100
AcDbEntity
  8
0
100
AcDbLine
 10
-0.0000021919004211
 20
35.4196664245026
 30
0.0
 11
-0.0000021919004211
 21
34.58033290608762
 31
0.0
  0
ARC
  5
667
330
1F
100
AcDbEntity
  8
0
100
AcDbCircle
 10
0.5999978080995449
 20
34.58033290608762
 30
0.0
 40
0.6
100
AcDbArc
 50
180.0
 51
268.0908475670026
  0
POINT
  5
668
330
1F
100
AcDbEntity
  8
0
100
AcDbPoint
 10
-0.0000021919004211
 20
33.99999966529559
 30
0.0
  0
ARC
  5
669
330
1F
100
AcDbEntity
  8
0
100
AcDbCircle
 10
0.5999978080985785
 20
35.4196664245026
 30
0.0
 40
0.6
100
AcDbArc
 50
91.90915243299405
 51
180.0
  0
LINE
  5
66A
330
1F
100
AcDbEntity
  8
0
100
AcDbLine
 10
-0.0000021919004211
 20
28.41966642450257
 30
0.0
 11
-0.0000021919004211
 21
27.58033290608761
 31
0.0
  0
ARC
  5
66B
330
1F
100
AcDbEntity
  8
0
100
AcDbCircle
 10
0.5999978080995449
 20
28.41966642450257
 30
0.0
 40
0.6
100
AcDbArc
 50
91.90915243299405
 51
180.0
  0
ARC
  5
66C
330
1F
100
AcDbEntity
  8
0
100
AcDbCircle
 10
0.5999978080985785
 20
27.58033290608761
 30
0.0
 40
0.6
100
AcDbArc
 50
180.0
 51
268.0908475670026
  0
POINT
  5
66D
330
1F
100
AcDbEntity
  8
0
100
AcDbPoint
 10
-0.0000021919004211
 20
26.99999966529457
 30
0.0
  0
LINE
  5
66E
330
1F
100
AcDbEntity
  8
0
100
AcDbLine
 10
5.999997808099577
 20
32.97381374372759
 30
0.0
 11
4.999997808099577
 21
32.97381374372759
 31
0.0
  0
ARC
  5
66F
330
1F
100
AcDbEntity
  8
0
100
AcDbCircle
 10
2.399997808099555
 20
33.3196664245026
 30
0.0
 40
0.6
100
AcDbArc
 50
0.0
 51
88.0908475670027
  0
ARC
  5
670
330
1F
100
AcDbEntity
  8
0
100
AcDbCircle
 10
2.399997808099555
 20
36.68033290608661
 30
0.0
 40
0.6
100
AcDbArc
 50
271.9091524329972
 51
0.0
  0
LINE
  5
671
330
1F
100
AcDbEntity
  8
0
100
AcDbLine
 10
4.999997808099577
 20
32.99999966529559
 30
0.0
 11
3.699997808099566
 21
32.99999966529559
 31
0.0
  0
ARC
  5
672
330
1F
100
AcDbEntity
  8
0
100
AcDbCircle
 10
2.399997808099555
 20
29.68033290608662
 30
0.0
 40
0.6
100
AcDbArc
 50
271.9091524329972
 51
0.0
  0
LINE
  5
673
330
1F
100
AcDbEntity
  8
0
100
AcDbLine
 10
2.999997808099576
 20
33.3196664245026
 30
0.0
 11
2.999997808099576
 21
29.68033290608662
 31
0.0
  0
LINE
  5
674
330
1F
100
AcDbEntity
  8
0
100
AcDbLine
 10
2.419986706238544
 20
50.0806659618996
 30
0.0
 11
0.5800089099595879
 21
50.01933336869058
 31
0.0
  0
LINE
  5
675
330
1F
100
AcDbEntity
  8
0
100
AcDbLine
 10
0.5800089099595879
 20
47.9806659618996
 30
0.0
 11
2.419986706238544
 21
47.9193333686906
 31
0.0
  0
LINE
  5
676
330
1F
100
AcDbEntity
  8
0
100
AcDbLine
 10
2.419986706238544
 20
43.0806659618996
 30
0.0
 11
0.5800089099595879
 21
43.01933336869057
 31
0.0
  0
LINE
  5
677
330
1F
100
AcDbEntity
  8
0
100
AcDbLine
 10
0.5800089099595879
 20
40.98066596189959
 30
0.0
 11
2.419986706238544
 21
40.9193333686906
 31
0.0
  0
ARC
  5
678
330
1F
100
AcDbEntity
  8
0
100
AcDbCircle
 10
0.5999978080985785
 20
49.41966642450262
 30
0.0
 40
0.6
100
AcDbArc
 50
91.90915243299405
 51
180.0
  0
ARC
  5
679
330
1F
100
AcDbEntity
  8
0
100
AcDbCircle
 10
0.5999978080995449
 20
48.58033290608762
 30
0.0
 40
0.6
100
AcDbArc
 50
180.0
 51
268.0908475670026
  0
POINT
  5
67A
330
1F
100
AcDbEntity
  8
0
100
AcDbPoint
 10
-0.0000021919004211
 20
47.99999966529559
 30
0.0
  0
LINE
  5
67B
330
1F
100
AcDbEntity
  8
0
100
AcDbLine
 10
-0.0000021919004211
 20
49.41966642450262
 30
0.0
 11
-0.0000021919004211
 21
48.58033290608762
 31
0.0
  0
ARC
  5
67C
330
1F
100
AcDbEntity
  8
0
100
AcDbCircle
 10
0.5999978080985785
 20
42.4196664245026
 30
0.0
 40
0.6
100
AcDbArc
 50
91.90915243299405
 51
180.0
  0
ARC
  5
67D
330
1F
100
AcDbEntity
  8
0
100
AcDbCircle
 10
0.5999978080985785
 20
41.58033290608762
 30
0.0
 40
0.6
100
AcDbArc
 50
180.0
 51
268.0908475670026
  0
POINT
  5
67E
330
1F
100
AcDbEntity
  8
0
100
AcDbPoint
 10
-0.0000021919004211
 20
40.99999966529458
 30
0.0
  0
LINE
  5
67F
330
1F
100
AcDbEntity
  8
0
100
AcDbLine
 10
-0.0000021919004211
 20
42.4196664245026
 30
0.0
 11
-0.0000021919004211
 21
41.58033290608762
 31
0.0
  0
ARC
  5
680
330
1F
100
AcDbEntity
  8
0
100
AcDbCircle
 10
2.399997808099555
 20
50.6803329060866
 30
0.0
 40
0.6
100
AcDbArc
 50
271.9091524329972
 51
0.0
  0
ARC
  5
681
330
1F
100
AcDbEntity
  8
0
100
AcDbCircle
 10
2.399997808099555
 20
47.31966642450259
 30
0.0
 40
0.6
100
AcDbArc
 50
0.0
 51
88.0908475670027
  0
ARC
  5
682
330
1F
100
AcDbEntity
  8
0
100
AcDbCircle
 10
2.399997808099555
 20
43.6803329060866
 30
0.0
 40
0.6
100
AcDbArc
 50
271.9091524329972
 51
0.0
  0
ARC
  5
683
330
1F
100
AcDbEntity
  8
0
100
AcDbCircle
 10
2.399997808099555
 20
40.31966642450259
 30
0.0
 40
0.6
100
AcDbArc
 50
0.0
 51
88.0908475670027
  0
LINE
  5
684
330
1F
100
AcDbEntity
  8
0
100
AcDbLine
 10
2.999997808099576
 20
47.31966642450259
 30
0.0
 11
2.999997808099576
 21
43.6803329060866
 31
0.0
  0
LINE
  5
685
330
1F
100
AcDbEntity
  8
0
100
AcDbLine
 10
9.699997808098542
 20
31.47381374372661
 30
0.0
 11
7.999997808098552
 21
31.47381374372661
 31
0.0
  0
LINE
  5
686
330
1F
100
AcDbEntity
  8
0
100
AcDbLine
 10
9.499997808099578
 20
30.9999996652956
 30
0.0
 11
7.999997808098552
 21
30.9999996652956
 31
0.0
  0
LINE
  5
687
330
1F
100
AcDbEntity
  8
0
100
AcDbLine
 10
2.999997808099576
 20
103.3196664245026
 30
0.0
 11
2.999997808099576
 21
99.68033290608662
 31
0.0
  0
LINE
  5
688
330
1F
100
AcDbEntity
  8
0
100
AcDbLine
 10
-0.0000021919004211
 20
90.5803329060876
 30
0.0
 11
-0.0000021919004211
 21
120.8952559790185
 31
0.0
  0
LINE
  5
689
330
1F
100
AcDbEntity
  8
0
100
AcDbLine
 10
4.999997808099577
 20
110.4710187231696
 30
0.0
 11
4.999997808099577
 21
82.9999996652956
 31
0.0
  0
LINE
  5
68A
330
1F
100
AcDbEntity
  8
0
100
AcDbLine
 10
5.999997808099577
 20
82.9738137437276
 30
0.0
 11
5.999997808099577
 21
109.6057331704244
 31
0.0
  0
LINE
  5
68B
330
1F
100
AcDbEntity
  8
0
100
AcDbLine
 10
8.099997808099544
 20
80.99999966529559
 30
0.0
 11
8.099997808099544
 21
72.99999966529559
 31
0.0
  0
LINE
  5
68C
330
1F
100
AcDbEntity
  8
0
100
AcDbLine
 10
8.699997808099567
 20
80.99999966529559
 30
0.0
 11
8.699997808099567
 21
72.99999966529559
 31
0.0
  0
LINE
  5
68D
330
1F
100
AcDbEntity
  8
0
100
AcDbLine
 10
9.499997808099578
 20
80.99999966529559
 30
0.0
 11
9.499997808099578
 21
72.99999966529559
 31
0.0
  0
LINE
  5
68E
330
1F
100
AcDbEntity
  8
0
100
AcDbLine
 10
7.999997808098552
 20
81.47381374372661
 30
0.0
 11
7.999997808098552
 21
72.47381374372664
 31
0.0
  0
LINE
  5
68F
330
1F
100
AcDbEntity
  8
0
100
AcDbLine
 10
9.699997808098542
 20
81.47381374372661
 30
0.0
 11
9.699997808098542
 21
72.47381374372664
 31
0.0
  0
LINE
  5
690
330
1F
100
AcDbEntity
  8
0
100
AcDbLine
 10
4.499997808099577
 20
82.9999996652956
 30
0.0
 11
4.499997808099577
 21
70.99999966529559
 31
0.0
  0
LINE
  5
691
330
1F
100
AcDbEntity
  8
0
100
AcDbLine
 10
4.999997808099577
 20
70.99999966529459
 30
0.0
 11
4.999997808099577
 21
82.9999996652956
 31
0.0
  0
LINE
  5
692
330
1F
100
AcDbEntity
  8
0
100
AcDbLine
 10
3.699997808099566
 20
82.9999996652956
 30
0.0
 11
3.699997808099566
 21
71.09999966529461
 31
0.0
  0
ARC
  5
693
330
1F
100
AcDbEntity
  8
0
100
AcDbCircle
 10
0.5999978080995449
 20
76.58033290608763
 30
0.0
 40
0.6
100
AcDbArc
 50
180.0
 51
268.0908475670026
  0
ARC
  5
694
330
1F
100
AcDbEntity
  8
0
100
AcDbCircle
 10
2.399997808099555
 20
64.68033290608662
 30
0.0
 40
0.6
100
AcDbArc
 50
271.9091524329907
 51
0.0
  0
ARC
  5
695
330
1F
100
AcDbEntity
  8
0
100
AcDbCircle
 10
0.5999978080995449
 20
63.41966642450262
 30
0.0
 40
0.6
100
AcDbArc
 50
91.9091524329973
 51
180.0
  0
LINE
  5
696
330
1F
100
AcDbEntity
  8
0
100
AcDbLine
 10
-0.0000021919004211
 20
64.61966642450363
 30
0.0
 11
-0.0000021919004211
 21
59.5803329060866
 31
0.0
  0
LINE
  5
697
330
1F
100
AcDbEntity
  8
0
100
AcDbLine
 10
0.5800089099595879
 20
61.9806659618996
 30
0.0
 11
2.419986706238544
 21
61.91933336869062
 31
0.0
  0
LINE
  5
698
330
1F
100
AcDbEntity
  8
0
100
AcDbLine
 10
0.5800089099595879
 20
58.9806659618996
 30
0.0
 11
2.999997808098555
 21
58.89999966529461
 31
0.0
  0
LINE
  5
699
330
1F
100
AcDbEntity
  8
0
100
AcDbLine
 10
2.419986706238544
 20
57.08066596189961
 30
0.0
 11
0.5800089099595879
 21
57.01933336869057
 31
0.0
  0
LINE
  5
69A
330
1F
100
AcDbEntity
  8
0
100
AcDbLine
 10
0.5800089099595879
 20
54.98066596189961
 30
0.0
 11
2.419986706238544
 21
54.91933336869061
 31
0.0
  0
ARC
  5
69B
330
1F
100
AcDbEntity
  8
0
100
AcDbCircle
 10
0.5999978080995449
 20
62.58033290608762
 30
0.0
 40
0.6
100
AcDbArc
 50
180.0
 51
268.0908475670026
  0
POINT
  5
69C
330
1F
100
AcDbEntity
  8
0
100
AcDbPoint
 10
-0.0000021919004211
 20
61.99999966529458
 30
0.0
  0
ARC
  5
69D
330
1F
100
AcDbEntity
  8
0
100
AcDbCircle
 10
0.5999978080985785
 20
59.5803329060866
 30
0.0
 40
0.6
100
AcDbArc
 50
180.0
 51
268.0908475670059
  0
LINE
  5
69E
330
1F
100
AcDbEntity
  8
0
100
AcDbLine
 10
-0.0000021919004211
 20
56.41966642450262
 30
0.0
 11
-0.0000021919004211
 21
55.58033290608761
 31
0.0
  0
POINT
  5
69F
330
1F
100
AcDbEntity
  8
0
100
AcDbPoint
 10
-0.0000021919004211
 20
54.99999966529458
 30
0.0
  0
ARC
  5
6A0
330
1F
100
AcDbEntity
  8
0
100
AcDbCircle
 10
0.5999978080995449
 20
55.58033290608761
 30
0.0
 40
0.6
100
AcDbArc
 50
180.0
 51
268.0908475670026
  0
ARC
  5
6A1
330
1F
100
AcDbEntity
  8
0
100
AcDbCircle
 10
0.5999978080995449
 20
56.41966642450262
 30
0.0
 40
0.6
100
AcDbArc
 50
91.90915243299405
 51
180.0
  0
LINE
  5
6A2
330
1F
100
AcDbEntity
  8
0
100
AcDbLine
 10
2.999997808099576
 20
61.3196664245026
 30
0.0
 11
2.999997808099576
 21
57.68033290608659
 31
0.0
  0
ARC
  5
6A3
330
1F
100
AcDbEntity
  8
0
100
AcDbCircle
 10
2.399997808099555
 20
61.3196664245026
 30
0.0
 40
0.6
100
AcDbArc
 50
0.0
 51
88.0908475670027
  0
ARC
  5
6A4
330
1F
100
AcDbEntity
  8
0
100
AcDbCircle
 10
2.399997808099555
 20
54.3196664245026
 30
0.0
 40
0.6
100
AcDbArc
 50
0.0
 51
88.09084756699943
  0
ARC
  5
6A5
330
1F
100
AcDbEntity
  8
0
100
AcDbCircle
 10
2.399997808099555
 20
57.68033290608659
 30
0.0
 40
0.6
100
AcDbArc
 50
271.9091524329972
 51
0.0
  0
LINE
  5
6A6
330
1F
100
AcDbEntity
  8
0
100
AcDbLine
 10
0.5800089099595879
 20
75.98066596189958
 30
0.0
 11
2.419986706238544
 21
75.9193333686906
 31
0.0
  0
LINE
  5
6A7
330
1F
100
AcDbEntity
  8
0
100
AcDbLine
 10
2.419986706238544
 20
71.0806659618996
 30
0.0
 11
0.5800089099595879
 21
71.01933336869058
 31
0.0
  0
LINE
  5
6A8
330
1F
100
AcDbEntity
  8
0
100
AcDbLine
 10
0.5800089099595879
 20
68.98066596189962
 30
0.0
 11
2.419986706238544
 21
68.91933336869062
 31
0.0
  0
LINE
  5
6A9
330
1F
100
AcDbEntity
  8
0
100
AcDbLine
 10
2.419986706238544
 20
64.0806659618996
 30
0.0
 11
0.5800089099595879
 21
64.01933336869058
 31
0.0
  0
LINE
  5
6AA
330
1F
100
AcDbEntity
  8
0
100
AcDbLine
 10
0.5800089099595879
 20
65.2193333686906
 30
0.0
 11
2.999997808098555
 21
65.29999966529562
 31
0.0
  0
LINE
  5
6AB
330
1F
100
AcDbEntity
  8
0
100
AcDbLine
 10
0.5800089099595879
 20
65.01933336869058
 30
0.0
 11
2.999997808098555
 21
65.0999996652946
 31
0.0
  0
POINT
  5
6AC
330
1F
100
AcDbEntity
  8
0
100
AcDbPoint
 10
-0.0000021919004211
 20
75.99999966529559
 30
0.0
  0
ARC
  5
6AD
330
1F
100
AcDbEntity
  8
0
100
AcDbCircle
 10
0.5999978080985785
 20
70.41966642450262
 30
0.0
 40
0.6
100
AcDbArc
 50
91.9091524329973
 51
180.0
  0
ARC
  5
6AE
330
1F
100
AcDbEntity
  8
0
100
AcDbCircle
 10
0.5999978080995449
 20
69.58033290608762
 30
0.0
 40
0.6
100
AcDbArc
 50
180.0
 51
268.0908475670026
  0
POINT
  5
6AF
330
1F
100
AcDbEntity
  8
0
100
AcDbPoint
 10
-0.0000021919004211
 20
68.9999996652956
 30
0.0
  0
ARC
  5
6B0
330
1F
100
AcDbEntity
  8
0
100
AcDbCircle
 10
0.5999978080985785
 20
64.61966642450363
 30
0.0
 40
0.6
100
AcDbArc
 50
91.90915243299405
 51
180.0
  0
ARC
  5
6B1
330
1F
100
AcDbEntity
  8
0
100
AcDbCircle
 10
0.5999978080985785
 20
64.41966642450262
 30
0.0
 40
0.6
100
AcDbArc
 50
91.90915243299405
 51
180.0
  0
LINE
  5
6B2
330
1F
100
AcDbEntity
  8
0
100
AcDbLine
 10
-0.0000021919004211
 20
70.41966642450262
 30
0.0
 11
-0.0000021919004211
 21
69.58033290608762
 31
0.0
  0
LINE
  5
6B3
330
1F
100
AcDbEntity
  8
0
100
AcDbLine
 10
5.999997808099577
 20
70.97381374372661
 30
0.0
 11
4.999997808099577
 21
70.97381374372661
 31
0.0
  0
ARC
  5
6B4
330
1F
100
AcDbEntity
  8
0
100
AcDbCircle
 10
2.399997808099555
 20
75.31966642450258
 30
0.0
 40
0.6
100
AcDbArc
 50
0.0
 51
88.0908475670027
  0
ARC
  5
6B5
330
1F
100
AcDbEntity
  8
0
100
AcDbCircle
 10
2.399997808099555
 20
71.68033290608661
 30
0.0
 40
0.6
100
AcDbArc
 50
271.909152432994
 51
0.0
  0
LINE
  5
6B6
330
1F
100
AcDbEntity
  8
0
100
AcDbLine
 10
2.999997808099576
 20
75.31966642450258
 30
0.0
 11
2.999997808099576
 21
71.68033290608661
 31
0.0
  0
LINE
  5
6B7
330
1F
100
AcDbEntity
  8
0
100
AcDbLine
 10
4.999997808099577
 20
70.99999966529559
 30
0.0
 11
3.699997808099566
 21
70.99999966529559
 31
0.0
  0
ARC
  5
6B8
330
1F
100
AcDbEntity
  8
0
100
AcDbCircle
 10
2.399997808099555
 20
68.3196664245026
 30
0.0
 40
0.6
100
AcDbArc
 50
0.0
 51
88.0908475670027
  0
LINE
  5
6B9
330
1F
100
AcDbEntity
  8
0
100
AcDbLine
 10
2.999997808099576
 20
68.3196664245026
 30
0.0
 11
2.999997808099576
 21
64.68033290608662
 31
0.0
  0
LINE
  5
6BA
330
1F
100
AcDbEntity
  8
0
100
AcDbLine
 10
9.499997808099578
 20
72.99999966529559
 30
0.0
 11
7.999997808098552
 21
72.99999966529559
 31
0.0
  0
LINE
  5
6BB
330
1F
100
AcDbEntity
  8
0
100
AcDbLine
 10
9.699997808098542
 20
72.47381374372664
 30
0.0
 11
7.999997808098552
 21
72.47381374372664
 31
0.0
  0
LINE
  5
6BC
330
1F
100
AcDbEntity
  8
0
100
AcDbLine
 10
2.999997808099576
 20
89.31966642450261
 30
0.0
 11
2.999997808099576
 21
85.68033290608662
 31
0.0
  0
LINE
  5
6BD
330
1F
100
AcDbEntity
  8
0
100
AcDbLine
 10
2.419986706238544
 20
85.0806659618996
 30
0.0
 11
0.5800089099595879
 21
85.01933336869058
 31
0.0
  0
LINE
  5
6BE
330
1F
100
AcDbEntity
  8
0
100
AcDbLine
 10
0.5800089099595879
 20
82.9806659618996
 30
0.0
 11
2.419986706238544
 21
82.91933336869062
 31
0.0
  0
LINE
  5
6BF
330
1F
100
AcDbEntity
  8
0
100
AcDbLine
 10
2.419986706238544
 20
78.08066596189963
 30
0.0
 11
0.5800089099595879
 21
78.01933336869058
 31
0.0
  0
LINE
  5
6C0
330
1F
100
AcDbEntity
  8
0
100
AcDbLine
 10
-0.0000021919004211
 20
84.41966642450262
 30
0.0
 11
-0.0000021919004211
 21
83.58033290608764
 31
0.0
  0
ARC
  5
6C1
330
1F
100
AcDbEntity
  8
0
100
AcDbCircle
 10
0.5999978080995449
 20
84.41966642450262
 30
0.0
 40
0.6
100
AcDbArc
 50
91.9091524329973
 51
180.0
  0
POINT
  5
6C2
330
1F
100
AcDbEntity
  8
0
100
AcDbPoint
 10
-0.0000021919004211
 20
82.9999996652956
 30
0.0
  0
LINE
  5
6C3
330
1F
100
AcDbEntity
  8
0
100
AcDbLine
 10
-0.0000021919004211
 20
77.41966642450262
 30
0.0
 11
-0.0000021919004211
 21
76.58033290608763
 31
0.0
  0
ARC
  5
6C4
330
1F
100
AcDbEntity
  8
0
100
AcDbCircle
 10
0.5999978080995449
 20
77.41966642450262
 30
0.0
 40
0.6
100
AcDbArc
 50
91.90915243299405
 51
180.0
  0
ARC
  5
6C5
330
1F
100
AcDbEntity
  8
0
100
AcDbCircle
 10
0.5999978080995449
 20
83.58033290608764
 30
0.0
 40
0.6
100
AcDbArc
 50
180.0
 51
268.0908475670026
  0
ARC
  5
6C6
330
1F
100
AcDbEntity
  8
0
100
AcDbCircle
 10
2.399997808099555
 20
85.68033290608662
 30
0.0
 40
0.6
100
AcDbArc
 50
271.9091524329972
 51
0.0
  0
LINE
  5
6C7
330
1F
100
AcDbEntity
  8
0
100
AcDbLine
 10
5.999997808099577
 20
82.9738137437276
 30
0.0
 11
4.999997808099577
 21
82.9738137437276
 31
0.0
  0
ARC
  5
6C8
330
1F
100
AcDbEntity
  8
0
100
AcDbCircle
 10
2.399997808099555
 20
82.31966642450258
 30
0.0
 40
0.6
100
AcDbArc
 50
0.0
 51
88.09084756699943
  0
ARC
  5
6C9
330
1F
100
AcDbEntity
  8
0
100
AcDbCircle
 10
2.399997808099555
 20
78.68033290608662
 30
0.0
 40
0.6
100
AcDbArc
 50
271.9091524329972
 51
0.0
  0
LINE
  5
6CA
330
1F
100
AcDbEntity
  8
0
100
AcDbLine
 10
2.999997808099576
 20
82.31966642450258
 30
0.0
 11
2.999997808099576
 21
78.68033290608662
 31
0.0
  0
LINE
  5
6CB
330
1F
100
AcDbEntity
  8
0
100
AcDbLine
 10
4.999997808099577
 20
82.9999996652956
 30
0.0
 11
3.699997808099566
 21
82.9999996652956
 31
0.0
  0
LINE
  5
6CC
330
1F
100
AcDbEntity
  8
0
100
AcDbLine
 10
0.5800089099595879
 20
96.9806659618996
 30
0.0
 11
2.419986706238544
 21
96.91933336869062
 31
0.0
  0
LINE
  5
6CD
330
1F
100
AcDbEntity
  8
0
100
AcDbLine
 10
2.419986706238544
 20
99.08066596189959
 30
0.0
 11
0.5800089099595879
 21
99.01933336869058
 31
0.0
  0
LINE
  5
6CE
330
1F
100
AcDbEntity
  8
0
100
AcDbLine
 10
2.419986706238544
 20
92.08066596189963
 30
0.0
 11
0.5800089099595879
 21
92.01933336869059
 31
0.0
  0
LINE
  5
6CF
330
1F
100
AcDbEntity
  8
0
100
AcDbLine
 10
0.5800089099595879
 20
89.98066596189959
 30
0.0
 11
2.419986706238544
 21
89.91933336869058
 31
0.0
  0
ARC
  5
6D0
330
1F
100
AcDbEntity
  8
0
100
AcDbCircle
 10
0.5999978080995449
 20
97.58033290608764
 30
0.0
 40
0.6
100
AcDbArc
 50
180.0
 51
268.0908475670026
  0
POINT
  5
6D1
330
1F
100
AcDbEntity
  8
0
100
AcDbPoint
 10
-0.0000021919004211
 20
96.9999996652946
 30
0.0
  0
ARC
  5
6D2
330
1F
100
AcDbEntity
  8
0
100
AcDbCircle
 10
0.5999978080995449
 20
98.41966642450261
 30
0.0
 40
0.6
100
AcDbArc
 50
91.9091524329973
 51
180.0
  0
POINT
  5
6D3
330
1F
100
AcDbEntity
  8
0
100
AcDbPoint
 10
-0.0000021919004211
 20
98.99999966529456
 30
0.0
  0
LINE
  5
6D4
330
1F
100
AcDbEntity
  8
0
100
AcDbLine
 10
-0.0000021919004211
 20
98.41966642450261
 30
0.0
 11
-0.0000021919004211
 21
97.58033290608764
 31
0.0
  0
LINE
  5
6D5
330
1F
100
AcDbEntity
  8
0
100
AcDbLine
 10
-0.0000021919004211
 20
91.41966642450261
 30
0.0
 11
-0.0000021919004211
 21
90.5803329060876
 31
0.0
  0
ARC
  5
6D6
330
1F
100
AcDbEntity
  8
0
100
AcDbCircle
 10
0.5999978080985785
 20
90.5803329060876
 30
0.0
 40
0.6
100
AcDbArc
 50
180.0
 51
268.0908475670026
  0
ARC
  5
6D7
330
1F
100
AcDbEntity
  8
0
100
AcDbCircle
 10
0.5999978080995449
 20
91.41966642450261
 30
0.0
 40
0.6
100
AcDbArc
 50
91.9091524329973
 51
180.0
  0
POINT
  5
6D8
330
1F
100
AcDbEntity
  8
0
100
AcDbPoint
 10
-0.0000021919004211
 20
89.99999966529561
 30
0.0
  0
ARC
  5
6D9
330
1F
100
AcDbEntity
  8
0
100
AcDbCircle
 10
2.399997808099555
 20
96.31966642450262
 30
0.0
 40
0.6
100
AcDbArc
 50
0.0
 51
88.0908475670027
  0
POINT
  5
6DA
330
1F
100
AcDbEntity
  8
0
100
AcDbPoint
 10
2.999997808099576
 20
96.89999966529457
 30
0.0
  0
ARC
  5
6DB
330
1F
100
AcDbEntity
  8
0
100
AcDbCircle
 10
2.399997808099555
 20
99.68033290608662
 30
0.0
 40
0.6
100
AcDbArc
 50
271.909152432994
 51
0.0
  0
POINT
  5
6DC
330
1F
100
AcDbEntity
  8
0
100
AcDbPoint
 10
2.999997808099576
 20
99.0999996652946
 30
0.0
  0
ARC
  5
6DD
330
1F
100
AcDbEntity
  8
0
100
AcDbCircle
 10
2.399997808099555
 20
92.68033290608659
 30
0.0
 40
0.6
100
AcDbArc
 50
271.9091524329972
 51
0.0
  0
ARC
  5
6DE
330
1F
100
AcDbEntity
  8
0
100
AcDbCircle
 10
2.399997808099555
 20
89.31966642450261
 30
0.0
 40
0.6
100
AcDbArc
 50
0.0
 51
88.0908475670027
  0
LINE
  5
6DF
330
1F
100
AcDbEntity
  8
0
100
AcDbLine
 10
2.999997808099576
 20
96.31966642450262
 30
0.0
 11
2.999997808099576
 21
92.68033290608659
 31
0.0
  0
LINE
  5
6E0
330
1F
100
AcDbEntity
  8
0
100
AcDbLine
 10
9.499997808099578
 20
80.99999966529559
 30
0.0
 11
7.999997808098552
 21
80.99999966529559
 31
0.0
  0
LINE
  5
6E1
330
1F
100
AcDbEntity
  8
0
100
AcDbLine
 10
9.699997808098542
 20
81.47381374372661
 30
0.0
 11
7.999997808098552
 21
81.47381374372661
 31
0.0
  0
LINE
  5
6E2
330
1F
100
AcDbEntity
  8
0
100
AcDbLine
 10
15.19999780809859
 20
121.9738137437266
 30
0.0
 11
15.19999780809859
 21
126.2738137437265
 31
0.0
  0
LINE
  5
6E3
330
1F
100
AcDbEntity
  8
0
100
AcDbLine
 10
3.999997808099576
 20
120.9999996652955
 30
0.0
 11
7.999997808099577
 21
120.8952559790185
 31
0.0
  0
LINE
  5
6E4
330
1F
100
AcDbEntity
  8
0
100
AcDbLine
 10
7.999997808099577
 20
110.9999996652956
 30
0.0
 11
4.999997808099577
 21
110.4710187231696
 31
0.0
  0
LINE
  5
6E5
330
1F
100
AcDbEntity
  8
0
100
AcDbLine
 10
8.999997808099578
 20
110.1347141125494
 30
0.0
 11
5.999997808099577
 21
109.6057331704244
 31
0.0
  0
LINE
  5
6E6
330
1F
100
AcDbEntity
  8
0
100
AcDbLine
 10
4.999997808099577
 20
110.4448328016016
 30
0.0
 11
7.999997808099577
 21
110.9738137437275
 31
0.0
  0
LINE
  5
6E7
330
1F
100
AcDbEntity
  8
0
100
AcDbLine
 10
0.5800089099595879
 20
103.9806659618994
 30
0.0
 11
2.419986706238544
 21
103.9193333686904
 31
0.0
  0
ARC
  5
6E8
330
1F
100
AcDbEntity
  8
0
100
AcDbCircle
 10
0.5999978080995449
 20
104.5803329060875
 30
0.0
 40
0.6
100
AcDbArc
 50
180.0
 51
268.0908475670026
  0
ARC
  5
6E9
330
1F
100
AcDbEntity
  8
0
100
AcDbCircle
 10
2.399997808099555
 20
103.3196664245026
 30
0.0
 40
0.6
100
AcDbArc
 50
0.0
 51
88.0908475670027
  0
POINT
  5
6EA
330
1F
100
AcDbEntity
  8
0
100
AcDbPoint
 10
2.999997808099576
 20
103.8999996652943
 30
0.0
  0
LINE
  5
6EB
330
1F
100
AcDbEntity
  8
0
100
AcDbLine
 10
-0.0000021919004211
 20
120.8952559790185
 30
0.0
 11
3.999997808099576
 21
120.9999996652955
 31
0.0
  0
LINE
  5
6EC
330
1F
100
AcDbEntity
  8
0
100
AcDbLine
 10
5.999997808099577
 20
120.9738137437264
 30
0.0
 11
5.999997808099577
 21
120.9476278221575
 31
0.0
  0
LINE
  5
6ED
330
1F
100
AcDbEntity
  8
0
100
AcDbLine
 10
5.999997808099577
 20
120.9738137437264
 30
0.0
 11
5.999997808099577
 21
120.947627822157
 31
0.0
  0
LINE
  5
6EE
330
1F
100
AcDbEntity
  8
0
100
AcDbLine
 10
7.999997808099577
 20
110.9999996652956
 30
0.0
 11
7.999997808099577
 21
120.8952559790185
 31
0.0
  0
LINE
  5
6EF
330
1F
100
AcDbEntity
  8
0
100
AcDbLine
 10
8.999997808099578
 20
120.9738137437264
 30
0.0
 11
8.999997808099578
 21
110.1347141125494
 31
0.0
  0
LINE
  5
6F0
330
1F
100
AcDbEntity
  8
0
100
AcDbLine
 10
7.999997808099577
 20
120.4738137437264
 30
0.0
 11
7.999997808099577
 21
110.9738137437275
 31
0.0
  0
LINE
  5
6F1
330
1F
100
AcDbEntity
  8
0
100
AcDbLine
 10
7.999997808099577
 20
120.4738137437264
 30
0.0
 11
8.999997808099578
 21
120.4738137437264
 31
0.0
  0
LINE
  5
6F2
330
1F
100
AcDbEntity
  8
0
100
AcDbLine
 10
14.09999780809954
 20
120.9738137437264
 30
0.0
 11
14.09999780809954
 21
121.9738137437266
 31
0.0
  0
LINE
  5
6F3
330
1F
100
AcDbEntity
  8
0
100
AcDbLine
 10
15.59999780809857
 20
126.2738137437265
 30
0.0
 11
15.59999780809857
 21
127.5738137437266
 31
0.0
  0
LINE
  5
6FA
330
1F
100
AcDbEntity
  8
0
100
AcDbLine
 10
56.99999780809957
 20
21.9738137437266
 30
0.0
 11
56.99999780809957
 21
103.9738137437266
 31
0.0
  0
LINE
  5
6FB
330
1F
100
AcDbEntity
  8
0
100
AcDbLine
 10
57.99999780809956
 20
-0.0000003347043958
 30
0.0
 11
57.99999780809956
 21
3.585959900558576
 31
0.0
  0
LINE
  5
6FC
330
1F
100
AcDbEntity
  8
0
100
AcDbLine
 10
26.89999780809857
 20
3.799999665294591
 30
0.0
 11
26.89999780809857
 21
-0.0000003347043958
 31
0.0
  0
LINE
  5
6FD
330
1F
100
AcDbEntity
  8
0
100
AcDbLine
 10
31.09999780809955
 20
3.799999665294591
 30
0.0
 11
31.09999780809955
 21
-0.0000003347043958
 31
0.0
  0
LINE
  5
702
330
1F
100
AcDbEntity
  8
0
100
AcDbLine
 10
23.49999780809956
 20
3.799999665294591
 30
0.0
 11
34.49999780809957
 21
3.799999665294591
 31
0.0
  0
LINE
  5
703
330
1F
100
AcDbEntity
  8
0
100
AcDbLine
 10
31.29128565557659
 20
4.259166220630615
 30
0.0
 11
31.29128565557659
 21
21.9738137437266
 31
0.0
  0
LINE
  5
704
330
1F
100
AcDbEntity
  8
0
100
AcDbLine
 10
26.70870996062153
 20
4.379165188363571
 30
0.0
 11
26.70870996062153
 21
21.97381374372765
 31
0.0
  0
LINE
  5
705
330
1F
100
AcDbEntity
  8
0
100
AcDbLine
 10
23.49999780809956
 20
4.489374194695641
 30
0.0
 11
23.49999780809956
 21
3.799999665294591
 31
0.0
  0
LINE
  5
706
330
1F
100
AcDbEntity
  8
0
100
AcDbLine
 10
34.49999780809957
 20
4.201329057435598
 30
0.0
 11
34.49999780809957
 21
3.799999665294591
 31
0.0
  0
LINE
  5
709
330
1F
100
AcDbEntity
  8
0
100
AcDbLine
 10
54.99999780809956
 20
33.97381374372661
 30
0.0
 11
54.99999780809956
 21
35.97381374372661
 31
0.0
  0
LINE
  5
70A
330
1F
100
AcDbEntity
  8
0
100
AcDbLine
 10
55.99999780809957
 20
33.97381374372661
 30
0.0
 11
55.99999780809957
 21
35.97381374372661
 31
0.0
  0
LINE
  5
70B
330
1F
100
AcDbEntity
  8
0
100
AcDbLine
 10
54.99999780809956
 20
26.97381374372662
 30
0.0
 11
54.99999780809956
 21
28.97381374372661
 31
0.0
  0
LINE
  5
70C
330
1F
100
AcDbEntity
  8
0
100
AcDbLine
 10
55.99999780809957
 20
26.97381374372662
 30
0.0
 11
55.99999780809957
 21
28.97381374372661
 31
0.0
  0
LINE
  5
714
330
1F
100
AcDbEntity
  8
0
100
AcDbLine
 10
54.99999780809956
 20
40.97381374372661
 30
0.0
 11
54.99999780809956
 21
42.97381374372661
 31
0.0
  0
LINE
  5
715
330
1F
100
AcDbEntity
  8
0
100
AcDbLine
 10
55.99999780809957
 20
40.97381374372661
 30
0.0
 11
55.99999780809957
 21
42.97381374372661
 31
0.0
  0
LINE
  5
745
330
1F
100
AcDbEntity
  8
0
100
AcDbLine
 10
46.59999780809861
 20
135.6738137437264
 30
0.0
 11
42.5999978080986
 21
135.6738137437264
 31
0.0
  0
LINE
  5
746
330
1F
100
AcDbEntity
  8
0
100
AcDbLine
 10
42.5999978080986
 20
135.6738137437264
 30
0.0
 11
46.59999780809861
 21
135.6738137437264
 31
0.0
  0
LINE
  5
747
330
1F
100
AcDbEntity
  8
0
100
AcDbLine
 10
41.1499978080996
 20
124.3738137437266
 30
0.0
 11
47.44999780809961
 21
124.3738137437266
 31
0.0
  0
LINE
  5
749
330
1F
100
AcDbEntity
  8
0
100
AcDbLine
 10
40.34999780809861
 20
120.9738137437264
 30
0.0
 11
40.34999780809861
 21
130.1738137437264
 31
0.0
  0
LINE
  5
74A
330
1F
100
AcDbEntity
  8
0
100
AcDbLine
 10
40.34999780809861
 20
120.9738137437264
 30
0.0
 11
40.34999780809868
 21
130.1738137437264
 31
0.0
  0
LINE
  5
74B
330
1F
100
AcDbEntity
  8
0
100
AcDbLine
 10
21.09999780809862
 20
126.2738137437265
 30
0.0
 11
21.09999780809862
 21
121.9738137437266
 31
0.0
  0
LINE
  5
74C
330
1F
100
AcDbEntity
  8
0
100
AcDbLine
 10
24.94499780809865
 20
127.5738137437266
 30
0.0
 11
24.94499780809865
 21
120.9738137437264
 31
0.0
  0
LINE
  5
74D
330
1F
100
AcDbEntity
  8
0
100
AcDbLine
 10
42.5999978080986
 20
135.6738137437264
 30
0.0
 11
42.5999978080986
 21
124.3738137437266
 31
0.0
  0
LINE
  5
74E
330
1F
100
AcDbEntity
  8
0
100
AcDbLine
 10
23.19999780809955
 20
113.4738137437266
 30
0.0
 11
23.19999780809955
 21
115.4738137437266
 31
0.0
  0
LINE
  5
74F
330
1F
100
AcDbEntity
  8
0
100
AcDbLine
 10
19.99999780809955
 20
113.4738137437266
 30
0.0
 11
19.99999780809955
 21
117.4738137437266
 31
0.0
  0
LINE
  5
750
330
1F
100
AcDbEntity
  8
0
100
AcDbLine
 10
28.19999780809956
 20
105.4738137437265
 30
0.0
 11
28.19999780809956
 21
117.4738137437266
 31
0.0
  0
LINE
  5
751
330
1F
100
AcDbEntity
  8
0
100
AcDbLine
 10
25.19999780809957
 20
107.4738137437264
 30
0.0
 11
25.19999780809957
 21
115.4738137437266
 31
0.0
  0
LINE
  5
752
330
1F
100
AcDbEntity
  8
0
100
AcDbLine
 10
28.19999780809956
 20
105.4738137437265
 30
0.0
 11
19.99999780809955
 21
105.4738137437265
 31
0.0
  0
LINE
  5
753
330
1F
100
AcDbEntity
  8
0
100
AcDbLine
 10
19.99999780809955
 20
113.4738137437266
 30
0.0
 11
23.19999780809955
 21
113.4738137437266
 31
0.0
  0
LINE
  5
754
330
1F
100
AcDbEntity
  8
0
100
AcDbLine
 10
19.99999780809955
 20
109.4738137437266
 30
0.0
 11
23.19999780809955
 21
109.4738137437266
 31
0.0
  0
LINE
  5
755
330
1F
100
AcDbEntity
  8
0
100
AcDbLine
 10
23.19999780809955
 20
107.4738137437264
 30
0.0
 11
25.19999780809957
 21
107.4738137437264
 31
0.0
  0
LINE
  5
756
330
1F
100
AcDbEntity
  8
0
100
AcDbLine
 10
23.19999780809955
 20
109.4738137437266
 30
0.0
 11
23.19999780809955
 21
107.4738137437264
 31
0.0
  0
LINE
  5
757
330
1F
100
AcDbEntity
  8
0
100
AcDbLine
 10
19.99999780809955
 20
109.4738137437266
 30
0.0
 11
19.99999780809955
 21
105.4738137437265
 31
0.0
  0
LINE
  5
758
330
1F
100
AcDbEntity
  8
0
100
AcDbLine
 10
19.99999780809955
 20
117.4738137437266
 30
0.0
 11
28.19999780809956
 21
117.4738137437266
 31
0.0
  0
LINE
  5
759
330
1F
100
AcDbEntity
  8
0
100
AcDbLine
 10
22.69999780809864
 20
121.9738137437266
 30
0.0
 11
22.69999780809864
 21
120.9738137437264
 31
0.0
  0
LINE
  5
75A
330
1F
100
AcDbEntity
  8
0
100
AcDbLine
 10
23.19999780809955
 20
115.4738137437266
 30
0.0
 11
25.19999780809957
 21
115.4738137437266
 31
0.0
  0
LINE
  5
75B
330
1F
100
AcDbEntity
  8
0
100
AcDbLine
 10
41.1499978080996
 20
120.9738137437264
 30
0.0
 11
41.1499978080996
 21
124.3738137437266
 31
0.0
  0
LINE
  5
75C
330
1F
100
AcDbEntity
  8
0
100
AcDbLine
 10
40.34999780809861
 20
130.1738137437264
 30
0.0
 11
42.5999978080986
 21
130.1738137437264
 31
0.0
  0
LINE
  5
75D
330
1F
100
AcDbEntity
  8
0
100
AcDbLine
 10
48.84999780809859
 20
130.1738137437264
 30
0.0
 11
48.84999780809862
 21
120.9738137437264
 31
0.0
  0
LINE
  5
75E
330
1F
100
AcDbEntity
  8
0
100
AcDbLine
 10
46.59999780809861
 20
124.3738137437266
 30
0.0
 11
46.59999780809861
 21
135.6738137437264
 31
0.0
  0
LINE
  5
760
330
1F
100
AcDbEntity
  8
0
100
AcDbLine
 10
47.44999780809961
 20
124.3738137437266
 30
0.0
 11
47.44999780809961
 21
120.9738137437264
 31
0.0
  0
LINE
  5
761
330
1F
100
AcDbEntity
  8
0
100
AcDbLine
 10
46.59999780809856
 20
130.1738137437264
 30
0.0
 11
48.84999780809862
 21
130.1738137437264
 31
0.0
  0
LINE
  5
7B4
330
1F
100
AcDbEntity
  8
2_カバ_
  6
CONTINUOUS
100
AcDbLine
 10
54.49999780809957
 20
68.97381374372661
 30
0.0
 11
54.49999780809957
 21
63.97381374372661
 31
0.0
  0
LINE
  5
7B5
330
1F
100
AcDbEntity
  8
2_カバ_
  6
CONTINUOUS
100
AcDbLine
 10
33.49999780809955
 20
63.97381374372661
 30
0.0
 11
33.49999780809955
 21
68.97381374372661
 31
0.0
  0
LINE
  5
7B6
330
1F
100
AcDbEntity
  8
2_カバ_
  6
CONTINUOUS
100
AcDbLine
 10
56.99999780809957
 20
63.97381374372661
 30
0.0
 11
15.99999780809956
 21
63.97381374372759
 31
0.0
  0
LINE
  5
7B7
330
1F
100
AcDbEntity
  8
2_カバ_
  6
CONTINUOUS
100
AcDbLine
 10
56.99999780809957
 20
61.9738137437266
 30
0.0
 11
15.99999780809956
 21
61.9738137437266
 31
0.0
  0
LINE
  5
7B8
330
1F
100
AcDbEntity
  8
2_カバ_
  6
CONTINUOUS
100
AcDbLine
 10
56.99999780809957
 20
56.9738137437266
 30
0.0
 11
15.99999780809956
 21
56.9738137437266
 31
0.0
  0
LINE
  5
7B9
330
1F
100
AcDbEntity
  8
2_カバ_
  6
CONTINUOUS
100
AcDbLine
 10
56.99999780809957
 20
54.97381374372661
 30
0.0
 11
15.99999780809956
 21
54.97381374372661
 31
0.0
  0
LINE
  5
7BA
330
1F
100
AcDbEntity
  8
2_カバ_
  6
CONTINUOUS
100
AcDbLine
 10
54.49999780809957
 20
48.97381374372661
 30
0.0
 11
33.49999780809955
 21
48.97381374372661
 31
0.0
  0
LINE
  5
7BB
330
1F
100
AcDbEntity
  8
2_カバ_
  6
CONTINUOUS
100
AcDbLine
 10
48.99999780809956
 20
53.47381374372661
 30
0.0
 11
38.99999780809956
 21
53.47381374372661
 31
0.0
  0
LINE
  5
7BC
330
1F
100
AcDbEntity
  8
2_カバ_
  6
CONTINUOUS
100
AcDbLine
 10
38.99999780809956
 20
49.97381374372661
 30
0.0
 11
48.99999780809956
 21
49.97381374372661
 31
0.0
  0
LINE
  5
7BD
330
1F
100
AcDbEntity
  8
2_カバ_
  6
CONTINUOUS
100
AcDbLine
 10
32.99999780809955
 20
49.97381374372661
 30
0.0
 11
15.99999780809956
 21
49.97381374372661
 31
0.0
  0
LINE
  5
7BE
330
1F
100
AcDbEntity
  8
2_カバ_
  6
CONTINUOUS
100
AcDbLine
 10
32.99999780809955
 20
47.97381374372661
 30
0.0
 11
15.99999780809956
 21
47.97381374372661
 31
0.0
  0
LINE
  5
7BF
330
1F
100
AcDbEntity
  8
2_カバ_
  6
CONTINUOUS
100
AcDbLine
 10
33.49999780809955
 20
48.97381374372661
 30
0.0
 11
33.49999780809955
 21
54.97381374372661
 31
0.0
  0
LINE
  5
7C0
330
1F
100
AcDbEntity
  8
2_カバ_
  6
CONTINUOUS
100
AcDbLine
 10
32.99999780809955
 20
47.97381374372661
 30
0.0
 11
32.99999780809955
 21
49.97381374372661
 31
0.0
  0
ARC
  5
7C1
330
1F
100
AcDbEntity
  8
2_カバ_
  6
CONTINUOUS
100
AcDbCircle
 10
38.99999780809956
 20
52.9738137437276
 30
0.0
 40
0.5
100
AcDbArc
 50
90.0
 51
180.0
  0
ARC
  5
7C2
330
1F
100
AcDbEntity
  8
2_カバ_
  6
CONTINUOUS
100
AcDbCircle
 10
38.99999780809956
 20
50.47381374372662
 30
0.0
 40
0.5
100
AcDbArc
 50
180.0
 51
270.0
  0
LINE
  5
7C3
330
1F
100
AcDbEntity
  8
2_カバ_
  6
CONTINUOUS
100
AcDbLine
 10
38.49999780809953
 20
52.9738137437276
 30
0.0
 11
38.49999780809953
 21
50.47381374372662
 31
0.0
  0
LINE
  5
7C4
330
1F
100
AcDbEntity
  8
2_カバ_
  6
CONTINUOUS
100
AcDbLine
 10
33.49999780809955
 20
56.9738137437266
 30
0.0
 11
33.49999780809955
 21
61.9738137437266
 31
0.0
  0
LINE
  5
7C5
330
1F
100
AcDbEntity
  8
2_カバ_
  6
CONTINUOUS
100
AcDbLine
 10
54.49999780809957
 20
54.97381374372661
 30
0.0
 11
54.49999780809957
 21
48.97381374372661
 31
0.0
  0
ARC
  5
7C6
330
1F
100
AcDbEntity
  8
2_カバ_
  6
CONTINUOUS
100
AcDbCircle
 10
48.99999780809956
 20
52.97381374372662
 30
0.0
 40
0.5
100
AcDbArc
 50
0.0
 51
90.0
  0
ARC
  5
7C7
330
1F
100
AcDbEntity
  8
2_カバ_
  6
CONTINUOUS
100
AcDbCircle
 10
48.99999780809956
 20
50.47381374372662
 30
0.0
 40
0.5
100
AcDbArc
 50
270.0
 51
0.0
  0
LINE
  5
7C8
330
1F
100
AcDbEntity
  8
2_カバ_
  6
CONTINUOUS
100
AcDbLine
 10
49.49999780809957
 20
50.47381374372662
 30
0.0
 11
49.49999780809957
 21
52.97381374372662
 31
0.0
  0
LINE
  5
7C9
330
1F
100
AcDbEntity
  8
2_カバ_
  6
CONTINUOUS
100
AcDbLine
 10
55.99999780809956
 20
47.97381374372661
 30
0.0
 11
55.99999780809956
 21
49.97381374372661
 31
0.0
  0
LINE
  5
7CA
330
1F
100
AcDbEntity
  8
2_カバ_
  6
CONTINUOUS
100
AcDbLine
 10
54.99999780809956
 20
47.97381374372661
 30
0.0
 11
54.99999780809956
 21
49.97381374372661
 31
0.0
  0
LINE
  5
7CB
330
1F
100
AcDbEntity
  8
2_カバ_
  6
CONTINUOUS
100
AcDbLine
 10
56.99999780809957
 20
49.97381374372661
 30
0.0
 11
54.99999780809956
 21
49.97381374372661
 31
0.0
  0
LINE
  5
7CC
330
1F
100
AcDbEntity
  8
2_カバ_
  6
CONTINUOUS
100
AcDbLine
 10
56.99999780809957
 20
47.97381374372661
 30
0.0
 11
54.99999780809956
 21
47.97381374372661
 31
0.0
  0
LINE
  5
7CD
330
1F
100
AcDbEntity
  8
2_カバ_
  6
CONTINUOUS
100
AcDbLine
 10
54.49999780809957
 20
61.9738137437266
 30
0.0
 11
54.49999780809957
 21
56.9738137437276
 31
0.0
  0
LINE
  5
7CE
330
1F
100
AcDbEntity
  8
2_カバ_
  6
CONTINUOUS
100
AcDbLine
 10
55.99999780809956
 20
54.97381374372661
 30
0.0
 11
55.99999780809956
 21
56.9738137437266
 31
0.0
  0
LINE
  5
7CF
330
1F
100
AcDbEntity
  8
2_カバ_
  6
CONTINUOUS
100
AcDbLine
 10
54.99999780809956
 20
54.97381374372661
 30
0.0
 11
54.99999780809956
 21
56.9738137437266
 31
0.0
  0
LINE
  5
7D0
330
1F
100
AcDbEntity
  8
2_カバ_
  6
CONTINUOUS
100
AcDbLine
 10
55.99999780809956
 20
61.9738137437266
 30
0.0
 11
55.99999780809956
 21
63.97381374372661
 31
0.0
  0
LINE
  5
7D1
330
1F
100
AcDbEntity
  8
2_カバ_
  6
CONTINUOUS
100
AcDbLine
 10
54.99999780809956
 20
61.9738137437266
 30
0.0
 11
54.99999780809956
 21
63.97381374372661
 31
0.0
  0
LINE
  5
7D2
330
1F
100
AcDbEntity
  8
2_カバ_
  6
CONTINUOUS
100
AcDbLine
 10
15.99999780809956
 20
103.9738137437266
 30
0.0
 11
57.99999780809956
 21
103.9738137437266
 31
0.0
  0
LINE
  5
7D3
330
1F
100
AcDbEntity
  8
2_カバ_
  6
CONTINUOUS
100
AcDbLine
 10
56.99999780809957
 20
98.9738137437266
 30
0.0
 11
15.99999780809956
 21
98.9738137437266
 31
0.0
  0
LINE
  5
7D4
330
1F
100
AcDbEntity
  8
2_カバ_
  6
CONTINUOUS
100
AcDbLine
 10
56.99999780809957
 20
96.97381374372664
 30
0.0
 11
15.99999780809956
 21
96.97381374372664
 31
0.0
  0
LINE
  5
7D5
330
1F
100
AcDbEntity
  8
2_カバ_
  6
CONTINUOUS
100
AcDbLine
 10
56.99999780809957
 20
70.97381374372661
 30
0.0
 11
15.99999780809956
 21
70.97381374372661
 31
0.0
  0
LINE
  5
7D6
330
1F
100
AcDbEntity
  8
2_カバ_
  6
CONTINUOUS
100
AcDbLine
 10
56.99999780809957
 20
68.97381374372661
 30
0.0
 11
15.99999780809956
 21
68.97381374372661
 31
0.0
  0
LINE
  5
7D7
330
1F
100
AcDbEntity
  8
2_カバ_
  6
CONTINUOUS
100
AcDbLine
 10
32.99999780809955
 20
91.97381374372659
 30
0.0
 11
15.99999780809956
 21
91.97381374372659
 31
0.0
  0
LINE
  5
7D8
330
1F
100
AcDbEntity
  8
2_カバ_
  6
CONTINUOUS
100
AcDbLine
 10
32.99999780809955
 20
89.97381374372661
 30
0.0
 11
15.99999780809956
 21
89.97381374372661
 31
0.0
  0
LINE
  5
7D9
330
1F
100
AcDbEntity
  8
2_カバ_
  6
CONTINUOUS
100
AcDbLine
 10
32.99999780809955
 20
84.97381374372663
 30
0.0
 11
15.99999780809956
 21
84.97381374372663
 31
0.0
  0
LINE
  5
7DA
330
1F
100
AcDbEntity
  8
2_カバ_
  6
CONTINUOUS
100
AcDbLine
 10
32.99999780809955
 20
82.97381374372664
 30
0.0
 11
15.99999780809956
 21
82.97381374372664
 31
0.0
  0
LINE
  5
7DB
330
1F
100
AcDbEntity
  8
2_カバ_
  6
DASHDOT
100
AcDbLine
 10
38.16147080004558
 20
81.97381374372758
 30
0.0
 11
27.60032482701458
 21
81.97381374372758
 31
0.0
  0
LINE
  5
7DC
330
1F
100
AcDbEntity
  8
2_カバ_
  6
CONTINUOUS
100
AcDbLine
 10
32.99999780809955
 20
77.97381374372664
 30
0.0
 11
15.99999780809956
 21
77.97381374372664
 31
0.0
  0
LINE
  5
7DD
330
1F
100
AcDbEntity
  8
2_カバ_
  6
CONTINUOUS
100
AcDbLine
 10
32.99999780809955
 20
75.97381374372661
 30
0.0
 11
15.99999780809956
 21
75.97381374372661
 31
0.0
  0
LINE
  5
7DE
330
1F
100
AcDbEntity
  8
2_カバ_
  6
CONTINUOUS
100
AcDbLine
 10
32.99999780809955
 20
82.97381374372664
 30
0.0
 11
32.99999780809955
 21
84.97381374372663
 31
0.0
  0
LINE
  5
7DF
330
1F
100
AcDbEntity
  8
2_カバ_
  6
CONTINUOUS
100
AcDbLine
 10
33.49999780809955
 20
70.97381374372661
 30
0.0
 11
33.49999780809955
 21
96.97381374372664
 31
0.0
  0
LINE
  5
7E0
330
1F
100
AcDbEntity
  8
2_カバ_
  6
DASHDOT
100
AcDbLine
 10
35.49999780809953
 20
85.10321432011563
 30
0.0
 11
35.49999780809953
 21
79.01837298639559
 31
0.0
  0
LINE
  5
7E1
330
1F
100
AcDbEntity
  8
2_カバ_
  6
CONTINUOUS
100
AcDbLine
 10
32.99999780809955
 20
75.97381374372661
 30
0.0
 11
32.99999780809955
 21
77.97381374372664
 31
0.0
  0
CIRCLE
  5
7E2
330
1F
100
AcDbEntity
  8
2_カバ_
  6
CONTINUOUS
100
AcDbCircle
 10
35.49999780809953
 20
81.97381374372758
 30
0.0
 40
1.25
  0
LINE
  5
7E3
330
1F
100
AcDbEntity
  8
2_カバ_
  6
CONTINUOUS
100
AcDbLine
 10
32.99999780809955
 20
89.97381374372661
 30
0.0
 11
32.99999780809955
 21
91.97381374372659
 31
0.0
  0
LINE
  5
7E4
330
1F
100
AcDbEntity
  8
2_カバ_
  6
CONTINUOUS
100
AcDbLine
 10
33.49999780809955
 20
98.9738137437266
 30
0.0
 11
33.49999780809955
 21
103.9738137437266
 31
0.0
  0
LINE
  5
7E5
330
1F
100
AcDbEntity
  8
2_カバ_
  6
CONTINUOUS
100
AcDbLine
 10
55.99999780809956
 20
96.97381374372664
 30
0.0
 11
55.99999780809956
 21
98.9738137437266
 31
0.0
  0
LINE
  5
7E6
330
1F
100
AcDbEntity
  8
2_カバ_
  6
CONTINUOUS
100
AcDbLine
 10
54.99999780809956
 20
96.97381374372664
 30
0.0
 11
54.99999780809956
 21
98.9738137437266
 31
0.0
  0
LINE
  5
7E7
330
1F
100
AcDbEntity
  8
2_カバ_
  6
CONTINUOUS
100
AcDbLine
 10
55.99999780809956
 20
82.97381374372664
 30
0.0
 11
55.99999780809956
 21
84.97381374372663
 31
0.0
  0
LINE
  5
7E8
330
1F
100
AcDbEntity
  8
2_カバ_
  6
CONTINUOUS
100
AcDbLine
 10
54.99999780809956
 20
82.97381374372664
 30
0.0
 11
54.99999780809956
 21
84.97381374372663
 31
0.0
  0
LINE
  5
7E9
330
1F
100
AcDbEntity
  8
2_カバ_
  6
CONTINUOUS
100
AcDbLine
 10
54.49999780809957
 20
96.97381374372664
 30
0.0
 11
54.49999780809957
 21
70.97381374372758
 31
0.0
  0
LINE
  5
7EA
330
1F
100
AcDbEntity
  8
2_カバ_
  6
CONTINUOUS
100
AcDbLine
 10
55.99999780809956
 20
75.97381374372661
 30
0.0
 11
55.99999780809956
 21
77.9738137437276
 31
0.0
  0
LINE
  5
7EB
330
1F
100
AcDbEntity
  8
2_カバ_
  6
CONTINUOUS
100
AcDbLine
 10
54.99999780809956
 20
75.97381374372661
 30
0.0
 11
54.99999780809956
 21
77.9738137437276
 31
0.0
  0
LINE
  5
7EC
330
1F
100
AcDbEntity
  8
2_カバ_
  6
CONTINUOUS
100
AcDbLine
 10
56.99999780809957
 20
75.97381374372661
 30
0.0
 11
54.99999780809956
 21
75.97381374372661
 31
0.0
  0
LINE
  5
7ED
330
1F
100
AcDbEntity
  8
2_カバ_
  6
CONTINUOUS
100
AcDbLine
 10
55.99999780809956
 20
68.97381374372661
 30
0.0
 11
55.99999780809956
 21
70.97381374372661
 31
0.0
  0
LINE
  5
7EE
330
1F
100
AcDbEntity
  8
2_カバ_
  6
CONTINUOUS
100
AcDbLine
 10
54.99999780809956
 20
68.97381374372661
 30
0.0
 11
54.99999780809956
 21
70.97381374372661
 31
0.0
  0
LINE
  5
7EF
330
1F
100
AcDbEntity
  8
2_カバ_
  6
CONTINUOUS
100
AcDbLine
 10
56.99999780809957
 20
82.97381374372664
 30
0.0
 11
54.99999780809956
 21
82.97381374372664
 31
0.0
  0
LINE
  5
7F0
330
1F
100
AcDbEntity
  8
2_カバ_
  6
CONTINUOUS
100
AcDbLine
 10
56.99999780809957
 20
77.97381374372664
 30
0.0
 11
54.99999780809956
 21
77.97381374372664
 31
0.0
  0
LINE
  5
7F1
330
1F
100
AcDbEntity
  8
2_カバ_
  6
DASHDOT
100
AcDbLine
 10
48.92110792604857
 20
89.47381374372659
 30
0.0
 11
55.6696159321036
 21
89.47381374372659
 31
0.0
  0
LINE
  5
7F2
330
1F
100
AcDbEntity
  8
2_カバ_
  6
CONTINUOUS
100
AcDbLine
 10
53.49999780809956
 20
86.97381374372659
 30
0.0
 11
53.49999780809956
 21
91.97381374372659
 31
0.0
  0
LINE
  5
7F3
330
1F
100
AcDbEntity
  8
2_カバ_
  6
CONTINUOUS
100
AcDbLine
 10
49.99999780809956
 20
91.97381374372758
 30
0.0
 11
49.99999780809956
 21
86.97381374372659
 31
0.0
  0
LINE
  5
7F4
330
1F
100
AcDbEntity
  8
2_カバ_
  6
CONTINUOUS
100
AcDbLine
 10
52.99999780809956
 20
86.47381374372661
 30
0.0
 11
50.49999780809956
 21
86.47381374372661
 31
0.0
  0
ARC
  5
7F5
330
1F
100
AcDbEntity
  8
2_カバ_
  6
CONTINUOUS
100
AcDbCircle
 10
50.49999780809956
 20
86.97381374372659
 30
0.0
 40
0.5
100
AcDbArc
 50
180.0
 51
270.0
  0
ARC
  5
7F6
330
1F
100
AcDbEntity
  8
2_カバ_
  6
CONTINUOUS
100
AcDbCircle
 10
52.99999780809956
 20
86.97381374372659
 30
0.0
 40
0.5
100
AcDbArc
 50
270.0
 51
0.0
  0
ARC
  5
7F7
330
1F
100
AcDbEntity
  8
2_カバ_
  6
CONTINUOUS
100
AcDbCircle
 10
52.99999780809956
 20
91.97381374372659
 30
0.0
 40
0.5
100
AcDbArc
 50
0.0
 51
90.0
  0
ARC
  5
7F8
330
1F
100
AcDbEntity
  8
2_カバ_
  6
CONTINUOUS
100
AcDbCircle
 10
50.49999780809956
 20
91.97381374372758
 30
0.0
 40
0.5
100
AcDbArc
 50
89.99999999999673
 51
180.0
  0
LINE
  5
7F9
330
1F
100
AcDbEntity
  8
2_カバ_
  6
CONTINUOUS
100
AcDbLine
 10
52.99999780809956
 20
92.47381374372659
 30
0.0
 11
50.49999780809956
 21
92.47381374372759
 31
0.0
  0
LINE
  5
7FA
330
1F
100
AcDbEntity
  8
2_カバ_
  6
CONTINUOUS
100
AcDbLine
 10
55.99999780809956
 20
89.97381374372661
 30
0.0
 11
55.99999780809956
 21
91.97381374372659
 31
0.0
  0
LINE
  5
7FB
330
1F
100
AcDbEntity
  8
2_カバ_
  6
CONTINUOUS
100
AcDbLine
 10
54.99999780809956
 20
89.97381374372661
 30
0.0
 11
54.99999780809956
 21
91.97381374372659
 31
0.0
  0
LINE
  5
7FC
330
1F
100
AcDbEntity
  8
2_カバ_
  6
CONTINUOUS
100
AcDbLine
 10
56.99999780809957
 20
84.97381374372663
 30
0.0
 11
54.99999780809956
 21
84.97381374372663
 31
0.0
  0
LINE
  5
7FD
330
1F
100
AcDbEntity
  8
2_カバ_
  6
CONTINUOUS
100
AcDbLine
 10
56.99999780809957
 20
89.97381374372661
 30
0.0
 11
54.99999780809956
 21
89.97381374372661
 31
0.0
  0
LINE
  5
7FE
330
1F
100
AcDbEntity
  8
2_カバ_
  6
CONTINUOUS
100
AcDbLine
 10
56.99999780809957
 20
91.97381374372659
 30
0.0
 11
54.99999780809956
 21
91.97381374372659
 31
0.0
  0
LINE
  5
7FF
330
1F
100
AcDbEntity
  8
2_カバ_
  6
CONTINUOUS
100
AcDbLine
 10
54.49999780809957
 20
103.9738137437266
 30
0.0
 11
54.49999780809957
 21
98.9738137437266
 31
0.0
  0
LINE
  5
829
330
1F
100
AcDbEntity
  8
0
100
AcDbLine
 10
228.9999978080993
 20
351.9738137437261
 30
0.0
 11
230.9999978080993
 21
351.9738137437261
 31
0.0
  0
LINE
  5
82A
330
1F
100
AcDbEntity
  8
0
100
AcDbLine
 10
228.9999978080993
 20
326.4738137437261
 30
0.0
 11
230.9999978080993
 21
326.4738137437261
 31
0.0
  0
LINE
  5
82B
330
1F
100
AcDbEntity
  8
0
100
AcDbLine
 10
228.9999978080993
 20
329.4738137437261
 30
0.0
 11
230.9999978080993
 21
329.4738137437261
 31
0.0
  0
LINE
  5
82C
330
1F
100
AcDbEntity
  8
0
100
AcDbLine
 10
228.9999978080993
 20
300.7238137437261
 30
0.0
 11
230.9999978080993
 21
300.7238137437261
 31
0.0
  0
LINE
  5
82D
330
1F
100
AcDbEntity
  8
0
100
AcDbLine
 10
228.9999978080993
 20
235.223813743726
 30
0.0
 11
230.9999978080993
 21
235.223813743726
 31
0.0
  0
LINE
  5
82E
330
1F
100
AcDbEntity
  8
0
100
AcDbLine
 10
228.9999978080993
 20
209.4738137437262
 30
0.0
 11
230.9999978080993
 21
209.4738137437262
 31
0.0
  0
LINE
  5
82F
330
1F
100
AcDbEntity
  8
0
100
AcDbLine
 10
228.9999978080993
 20
206.4738137437262
 30
0.0
 11
230.9999978080993
 21
206.4738137437262
 31
0.0
  0
LINE
  5
830
330
1F
100
AcDbEntity
  8
0
100
AcDbLine
 10
228.9999978080993
 20
183.9738137437262
 30
0.0
 11
230.9999978080993
 21
183.9738137437262
 31
0.0
  0
LINE
  5
831
330
1F
100
AcDbEntity
  8
0
100
AcDbLine
 10
174.9999978080993
 20
181.9738137437262
 30
0.0
 11
256.9999978080991
 21
181.9738137437262
 31
0.0
  0
LINE
  5
832
330
1F
100
AcDbEntity
  8
0
100
AcDbLine
 10
174.9999978080993
 20
353.9738137437261
 30
0.0
 11
256.9999978080991
 21
353.9738137437261
 31
0.0
  0
LINE
  5
833
330
1F
100
AcDbEntity
  8
0
100
AcDbLine
 10
157.9999978080993
 20
354.9738137437261
 30
0.0
 11
275.3878516512672
 21
354.9738137437261
 31
0.0
  0
LINE
  5
834
330
1F
100
AcDbEntity
  8
0
100
AcDbLine
 10
157.9999978080993
 20
180.9738137437262
 30
0.0
 11
273.9999978080981
 21
180.9738137437262
 31
0.0
  0
LINE
  5
835
330
1F
100
AcDbEntity
  8
0
100
AcDbLine
 10
157.9999978080993
 20
354.9738137437261
 30
0.0
 11
273.9999978080981
 21
354.9738137437261
 31
0.0
  0
LINE
  5
836
330
1F
100
AcDbEntity
  8
0
100
AcDbLine
 10
157.9999978080993
 20
180.9738137437262
 30
0.0
 11
275.3878516512672
 21
180.9738137437262
 31
0.0
  0
LINE
  5
837
330
1F
100
AcDbEntity
  8
0
100
AcDbLine
 10
156.4900936637172
 20
306.2797821892086
 30
0.0
 11
156.4900936637172
 21
277.5178467656246
 31
0.0
  0
LINE
  5
838
330
1F
100
AcDbEntity
  8
0
100
AcDbLine
 10
151.3999978080993
 20
301.1338137437261
 30
0.0
 11
151.3999978080993
 21
276.9738137437261
 31
0.0
  0
LINE
  5
839
330
1F
100
AcDbEntity
  8
0
100
AcDbLine
 10
174.9999978080993
 20
180.9738137437262
 30
0.0
 11
174.9999978080993
 21
354.9738137437261
 31
0.0
  0
LINE
  5
83A
330
1F
100
AcDbEntity
  8
0
100
AcDbLine
 10
157.9999978080993
 20
180.9738137437262
 30
0.0
 11
157.9999978080993
 21
354.9738137437261
 31
0.0
  0
LINE
  5
83B
330
1F
100
AcDbEntity
  8
0
100
AcDbLine
 10
157.9999978080993
 20
180.9738137437262
 30
0.0
 11
157.9999978080993
 21
354.9738137437261
 31
0.0
  0
LINE
  5
83D
330
1F
100
AcDbEntity
  8
0
100
AcDbLine
 10
174.9999978080993
 20
181.473813743726
 30
0.0
 11
229.9999978080993
 21
181.473813743726
 31
0.0
  0
LINE
  5
83F
330
1F
100
AcDbEntity
  8
0
100
AcDbLine
 10
154.5999978080994
 20
221.6738144774164
 30
0.0
 11
154.5999978080994
 21
201.4738144774165
 31
0.0
  0
LINE
  5
840
330
1F
100
AcDbEntity
  8
0
100
AcDbLine
 10
157.9999978080993
 20
201.4738144774164
 30
0.0
 11
154.5999978080994
 21
201.4738144774165
 31
0.0
  0
LINE
  5
842
330
1F
100
AcDbEntity
  8
0
100
AcDbLine
 10
155.4999978080991
 20
185.9738144774164
 30
0.0
 11
155.4999978080991
 21
191.4738144774164
 31
0.0
  0
LINE
  5
843
330
1F
100
AcDbEntity
  8
0
100
AcDbLine
 10
157.9999978080993
 20
185.9738144774164
 30
0.0
 11
155.4999978080991
 21
185.9738144774164
 31
0.0
  0
LINE
  5
844
330
1F
100
AcDbEntity
  8
0
100
AcDbLine
 10
157.9999978080993
 20
200.3738144774164
 30
0.0
 11
155.9999978080994
 21
200.3738144774164
 31
0.0
  0
LINE
  5
845
330
1F
100
AcDbEntity
  8
0
100
AcDbLine
 10
156.9999978080993
 20
201.4738144774165
 30
0.0
 11
156.9999978080993
 21
200.3738144774164
 31
0.0
  0
LINE
  5
846
330
1F
100
AcDbEntity
  8
0
100
AcDbLine
 10
157.9999978080993
 20
199.1738144774165
 30
0.0
 11
156.2999978080996
 21
199.1738144774165
 31
0.0
  0
LINE
  5
847
330
1F
100
AcDbEntity
  8
0
100
AcDbLine
 10
156.2999978080995
 20
197.9738144774164
 30
0.0
 11
155.4999978080991
 21
197.9738144774164
 31
0.0
  0
LINE
  5
848
330
1F
100
AcDbEntity
  8
0
100
AcDbLine
 10
155.4999978080991
 20
197.9738144774164
 30
0.0
 11
154.9999978080991
 21
198.4738144774164
 31
0.0
  0
LINE
  5
849
330
1F
100
AcDbEntity
  8
0
100
AcDbLine
 10
155.4999978080991
 20
191.4738144774164
 30
0.0
 11
157.9999978080993
 21
191.4738144774164
 31
0.0
  0
LINE
  5
84A
330
1F
100
AcDbEntity
  8
0
100
AcDbLine
 10
156.2999978080995
 20
197.9738144774164
 30
0.0
 11
156.2999978080995
 21
199.1738144774165
 31
0.0
  0
LINE
  5
84B
330
1F
100
AcDbEntity
  8
0
100
AcDbLine
 10
154.9999978080994
 20
199.3738144774164
 30
0.0
 11
154.9999978080991
 21
198.4738144774164
 31
0.0
  0
LINE
  5
84C
330
1F
100
AcDbEntity
  8
0
100
AcDbLine
 10
156.9999978080993
 20
199.1738144774165
 30
0.0
 11
156.9999978080993
 21
191.4738144774164
 31
0.0
  0
ARC
  5
84D
330
1F
100
AcDbEntity
  8
0
100
AcDbCircle
 10
155.9999978080994
 20
199.3738144774164
 30
0.0
 40
1.0
100
AcDbArc
 50
90.0
 51
180.0
  0
LINE
  5
84E
330
1F
100
AcDbEntity
  8
0
100
AcDbLine
 10
151.3999978080993
 20
276.9738137437261
 30
0.0
 11
154.8749956299563
 21
276.973813743726
 31
0.0
  0
LINE
  5
84F
330
1F
100
AcDbEntity
  8
0
100
AcDbLine
 10
152.4999978080996
 20
276.1738144774164
 30
0.0
 11
156.4900936637172
 21
277.5178467656246
 31
0.0
  0
LINE
  5
850
330
1F
100
AcDbEntity
  8
0
100
AcDbLine
 10
152.4999978080996
 20
273.2738144774165
 30
0.0
 11
157.9999978080993
 21
271.4211828984693
 31
0.0
  0
LINE
  5
851
330
1F
100
AcDbEntity
  8
0
100
AcDbLine
 10
157.1999978080995
 20
264.2738137437262
 30
0.0
 11
152.6999978080993
 21
264.2738137437262
 31
0.0
  0
LINE
  5
852
330
1F
100
AcDbEntity
  8
0
100
AcDbLine
 10
152.6999978080993
 20
260.1638137437262
 30
0.0
 11
157.9999978080993
 21
260.1638137437262
 31
0.0
  0
LINE
  5
853
330
1F
100
AcDbEntity
  8
0
100
AcDbLine
 10
152.6999978080993
 20
255.1638137437262
 30
0.0
 11
157.9999978080993
 21
255.163813743726
 31
0.0
  0
LINE
  5
854
330
1F
100
AcDbEntity
  8
0
100
AcDbLine
 10
152.6999978080993
 20
252.5438137437261
 30
0.0
 11
157.9999978080993
 21
252.543813743726
 31
0.0
  0
LINE
  5
855
330
1F
100
AcDbEntity
  8
0
100
AcDbLine
 10
152.6999978080993
 20
247.5438137437262
 30
0.0
 11
157.9999978080993
 21
247.5438137437262
 31
0.0
  0
LINE
  5
856
330
1F
100
AcDbEntity
  8
0
100
AcDbLine
 10
152.6999978080993
 20
244.9238137437261
 30
0.0
 11
157.1999978080995
 21
244.9238137437261
 31
0.0
  0
LINE
  5
857
330
1F
100
AcDbEntity
  8
0
100
AcDbLine
 10
152.6999978080993
 20
239.9238137437261
 30
0.0
 11
156.9999978080991
 21
239.9238137437261
 31
0.0
  0
LINE
  5
858
330
1F
100
AcDbEntity
  8
0
100
AcDbLine
 10
156.9999978080993
 20
235.8138137437261
 30
0.0
 11
152.6999978080993
 21
235.8138137437261
 31
0.0
  0
LINE
  5
859
330
1F
100
AcDbEntity
  8
0
100
AcDbLine
 10
154.5999978080994
 20
221.6738144774164
 30
0.0
 11
157.9999978080993
 21
221.6738144774164
 31
0.0
  0
LINE
  5
85A
330
1F
100
AcDbEntity
  8
0
100
AcDbLine
 10
152.6999978080993
 20
235.8138137437261
 30
0.0
 11
152.6999978080993
 21
264.2738137437262
 31
0.0
  0
LINE
  5
85B
330
1F
100
AcDbEntity
  8
0
100
AcDbLine
 10
152.4999978080996
 20
276.1738144774164
 30
0.0
 11
148.1302522788479
 21
276.1738144774164
 31
0.0
  0
LINE
  5
85C
330
1F
100
AcDbEntity
  8
0
100
AcDbLine
 10
143.2999978080998
 20
273.2738144774165
 30
0.0
 11
152.4999978080996
 21
273.2738144774165
 31
0.0
  0
LINE
  5
85D
330
1F
100
AcDbEntity
  8
0
100
AcDbLine
 10
148.1302522788479
 20
278.2138028262902
 30
0.0
 11
147.0024738007383
 21
278.2138028262902
 31
0.0
  0
LINE
  5
85E
330
1F
100
AcDbEntity
  8
0
100
AcDbLine
 10
148.1302522788479
 20
276.1738144774164
 30
0.0
 11
148.1302522788479
 21
278.2138028262902
 31
0.0
  0
LINE
  5
85F
330
1F
100
AcDbEntity
  8
0
100
AcDbLine
 10
143.2999978080998
 20
273.2738144774165
 30
0.0
 11
147.0024738007383
 21
278.2138028262902
 31
0.0
  0
LINE
  5
860
330
1F
100
AcDbEntity
  8
0
100
AcDbLine
 10
152.4999978080996
 20
273.2738144774165
 30
0.0
 11
152.4999978080996
 21
276.1738144774164
 31
0.0
  0
LINE
  5
861
330
1F
100
AcDbEntity
  8
0
100
AcDbLine
 10
157.9999978080993
 20
226.6138137437263
 30
0.0
 11
156.9999978080993
 21
226.6138137437263
 31
0.0
  0
LINE
  5
862
330
1F
100
AcDbEntity
  8
0
100
AcDbLine
 10
156.2999978080995
 20
223.9738144774164
 30
0.0
 11
156.2999978080995
 21
225.1738144774165
 31
0.0
  0
LINE
  5
863
330
1F
100
AcDbEntity
  8
0
100
AcDbLine
 10
157.9999978080993
 20
223.9738144774164
 30
0.0
 11
156.2999978080993
 21
223.9738144774164
 31
0.0
  0
LINE
  5
864
330
1F
100
AcDbEntity
  8
0
100
AcDbLine
 10
156.2999978080995
 20
225.1738144774165
 30
0.0
 11
155.4999978080994
 21
225.1738144774165
 31
0.0
  0
LINE
  5
865
330
1F
100
AcDbEntity
  8
0
100
AcDbLine
 10
154.9999978080994
 20
224.6738144774165
 30
0.0
 11
154.9999978080994
 21
223.7738144774163
 31
0.0
  0
LINE
  5
866
330
1F
100
AcDbEntity
  8
0
100
AcDbLine
 10
155.4999978080994
 20
225.1738144774165
 30
0.0
 11
154.9999978080994
 21
224.6738144774165
 31
0.0
  0
LINE
  5
867
330
1F
100
AcDbEntity
  8
0
100
AcDbLine
 10
156.9999978080993
 20
226.6138137437263
 30
0.0
 11
156.9999978080993
 21
223.9738144774166
 31
0.0
  0
LINE
  5
868
330
1F
100
AcDbEntity
  8
0
100
AcDbLine
 10
156.9999978080993
 20
222.7738144774165
 30
0.0
 11
156.9999978080993
 21
221.6738144774164
 31
0.0
  0
LINE
  5
869
330
1F
100
AcDbEntity
  8
0
100
AcDbLine
 10
157.9999978080993
 20
222.7738144774165
 30
0.0
 11
155.9999978080995
 21
222.7738144774165
 31
0.0
  0
ARC
  5
86A
330
1F
100
AcDbEntity
  8
0
100
AcDbCircle
 10
155.9999978080995
 20
223.7738144774164
 30
0.0
 40
1.0
100
AcDbArc
 50
180.0
 51
270.0
  0
LINE
  5
86B
330
1F
100
AcDbEntity
  8
0
100
AcDbLine
 10
157.1999978080995
 20
246.0738144774166
 30
0.0
 11
157.9999978080993
 21
246.0738144774166
 31
0.0
  0
LINE
  5
86C
330
1F
100
AcDbEntity
  8
0
100
AcDbLine
 10
157.1999978080995
 20
243.0738144774166
 30
0.0
 11
157.1999978080995
 21
246.0738144774166
 31
0.0
  0
LINE
  5
86D
330
1F
100
AcDbEntity
  8
0
100
AcDbLine
 10
157.9999978080993
 20
243.0738144774166
 30
0.0
 11
157.1999978080995
 21
243.0738144774166
 31
0.0
  0
LINE
  5
86E
330
1F
100
AcDbEntity
  8
0
100
AcDbLine
 10
156.9999978080991
 20
241.5738144774166
 30
0.0
 11
157.9999978080993
 21
241.5738144774166
 31
0.0
  0
LINE
  5
86F
330
1F
100
AcDbEntity
  8
0
100
AcDbLine
 10
157.9999978080993
 20
233.1738144774165
 30
0.0
 11
156.9999978080993
 21
233.1738144774165
 31
0.0
  0
LINE
  5
870
330
1F
100
AcDbEntity
  8
0
100
AcDbLine
 10
156.9999978080993
 20
233.1738144774165
 30
0.0
 11
156.9999978080991
 21
241.5738144774166
 31
0.0
  0
LINE
  5
871
330
1F
100
AcDbEntity
  8
0
100
AcDbLine
 10
157.1999978080995
 20
263.0738144774166
 30
0.0
 11
157.1999978080995
 21
266.0738144774164
 31
0.0
  0
LINE
  5
872
330
1F
100
AcDbEntity
  8
0
100
AcDbLine
 10
157.9999978080993
 20
263.0738144774166
 30
0.0
 11
157.1999978080995
 21
263.0738144774166
 31
0.0
  0
LINE
  5
873
330
1F
100
AcDbEntity
  8
0
100
AcDbLine
 10
157.1999978080995
 20
266.0738144774164
 30
0.0
 11
157.9999978080993
 21
266.0738144774164
 31
0.0
  0
LINE
  5
874
330
1F
100
AcDbEntity
  8
0
100
AcDbLine
 10
228.9999978080993
 20
181.9738137437262
 30
0.0
 11
228.9999978080993
 21
235.223813743726
 31
0.0
  0
LINE
  5
875
330
1F
100
AcDbEntity
  8
0
100
AcDbLine
 10
223.9999978080993
 20
181.9738137437262
 30
0.0
 11
223.9999978080993
 21
235.223813743726
 31
0.0
  0
LINE
  5
876
330
1F
100
AcDbEntity
  8
0
100
AcDbLine
 10
221.9999978080993
 20
181.9738137437262
 30
0.0
 11
221.9999978080993
 21
235.223813743726
 31
0.0
  0
LINE
  5
877
330
1F
100
AcDbEntity
  8
0
100
AcDbLine
 10
216.9999978080993
 20
181.9738137437262
 30
0.0
 11
216.9999978080993
 21
235.223813743726
 31
0.0
  0
LINE
  5
878
330
1F
100
AcDbEntity
  8
0
100
AcDbLine
 10
214.9999978080993
 20
181.9738137437262
 30
0.0
 11
214.9999978080993
 21
235.223813743726
 31
0.0
  0
LINE
  5
879
330
1F
100
AcDbEntity
  8
0
100
AcDbLine
 10
209.9999978080993
 20
181.9738137437262
 30
0.0
 11
209.9999978080993
 21
235.223813743726
 31
0.0
  0
LINE
  5
87A
330
1F
100
AcDbEntity
  8
0
100
AcDbLine
 10
207.9999978080993
 20
181.9738137437262
 30
0.0
 11
207.9999978080993
 21
235.223813743726
 31
0.0
  0
LINE
  5
87B
330
1F
100
AcDbEntity
  8
0
100
AcDbLine
 10
202.9999978080993
 20
181.9738137437262
 30
0.0
 11
202.9999978080993
 21
235.223813743726
 31
0.0
  0
LINE
  5
87C
330
1F
100
AcDbEntity
  8
0
100
AcDbLine
 10
200.9999978080993
 20
181.9738137437262
 30
0.0
 11
200.9999978080993
 21
235.223813743726
 31
0.0
  0
LINE
  5
87D
330
1F
100
AcDbEntity
  8
0
100
AcDbLine
 10
195.9999978080993
 20
181.9738137437262
 30
0.0
 11
195.9999978080993
 21
235.223813743726
 31
0.0
  0
LINE
  5
87E
330
1F
100
AcDbEntity
  8
0
100
AcDbLine
 10
193.9999978080993
 20
181.9738137437262
 30
0.0
 11
193.9999978080993
 21
235.223813743726
 31
0.0
  0
LINE
  5
87F
330
1F
100
AcDbEntity
  8
0
100
AcDbLine
 10
188.9999978080993
 20
181.9738137437262
 30
0.0
 11
188.9999978080993
 21
235.223813743726
 31
0.0
  0
LINE
  5
880
330
1F
100
AcDbEntity
  8
0
100
AcDbLine
 10
186.9999978080993
 20
181.9738137437262
 30
0.0
 11
186.9999978080993
 21
235.223813743726
 31
0.0
  0
LINE
  5
881
330
1F
100
AcDbEntity
  8
0
100
AcDbLine
 10
181.9999978080993
 20
181.9738137437262
 30
0.0
 11
181.9999978080993
 21
235.223813743726
 31
0.0
  0
LINE
  5
882
330
1F
100
AcDbEntity
  8
0
100
AcDbLine
 10
179.9999978080993
 20
181.9738137437262
 30
0.0
 11
179.9999978080993
 21
235.223813743726
 31
0.0
  0
LINE
  5
885
330
1F
100
AcDbEntity
  8
0
100
AcDbLine
 10
179.9999978080993
 20
183.9738137437262
 30
0.0
 11
181.9999978080993
 21
183.9738137437262
 31
0.0
  0
LINE
  5
886
330
1F
100
AcDbEntity
  8
0
100
AcDbLine
 10
186.9999978080993
 20
183.9738137437262
 30
0.0
 11
188.9999978080993
 21
183.9738137437262
 31
0.0
  0
LINE
  5
887
330
1F
100
AcDbEntity
  8
0
100
AcDbLine
 10
179.9999978080993
 20
206.4738137437262
 30
0.0
 11
181.9999978080993
 21
206.4738137437262
 31
0.0
  0
LINE
  5
888
330
1F
100
AcDbEntity
  8
0
100
AcDbLine
 10
179.9999978080993
 20
209.4738137437262
 30
0.0
 11
181.9999978080993
 21
209.4738137437262
 31
0.0
  0
LINE
  5
889
330
1F
100
AcDbEntity
  8
0
100
AcDbLine
 10
186.9999978080993
 20
209.4738137437262
 30
0.0
 11
188.9999978080993
 21
209.4738137437262
 31
0.0
  0
LINE
  5
88A
330
1F
100
AcDbEntity
  8
0
100
AcDbLine
 10
186.9999978080993
 20
206.4738137437262
 30
0.0
 11
188.9999978080993
 21
206.4738137437262
 31
0.0
  0
LINE
  5
88B
330
1F
100
AcDbEntity
  8
0
100
AcDbLine
 10
193.9999978080993
 20
183.9738137437262
 30
0.0
 11
195.9999978080993
 21
183.9738137437262
 31
0.0
  0
LINE
  5
88C
330
1F
100
AcDbEntity
  8
0
100
AcDbLine
 10
200.9999978080993
 20
183.9738137437262
 30
0.0
 11
202.9999978080993
 21
183.9738137437262
 31
0.0
  0
LINE
  5
88D
330
1F
100
AcDbEntity
  8
0
100
AcDbLine
 10
193.9999978080993
 20
209.4738137437262
 30
0.0
 11
195.9999978080993
 21
209.4738137437262
 31
0.0
  0
LINE
  5
88E
330
1F
100
AcDbEntity
  8
0
100
AcDbLine
 10
193.9999978080993
 20
206.4738137437262
 30
0.0
 11
195.9999978080993
 21
206.4738137437262
 31
0.0
  0
LINE
  5
88F
330
1F
100
AcDbEntity
  8
0
100
AcDbLine
 10
200.9999978080993
 20
209.4738137437262
 30
0.0
 11
202.9999978080993
 21
209.4738137437262
 31
0.0
  0
LINE
  5
890
330
1F
100
AcDbEntity
  8
0
100
AcDbLine
 10
200.9999978080993
 20
206.4738137437262
 30
0.0
 11
202.9999978080993
 21
206.4738137437262
 31
0.0
  0
LINE
  5
893
330
1F
100
AcDbEntity
  8
0
100
AcDbLine
 10
207.9999978080993
 20
183.9738137437262
 30
0.0
 11
209.9999978080993
 21
183.9738137437262
 31
0.0
  0
LINE
  5
894
330
1F
100
AcDbEntity
  8
0
100
AcDbLine
 10
214.9999978080993
 20
183.9738137437262
 30
0.0
 11
216.9999978080993
 21
183.9738137437262
 31
0.0
  0
LINE
  5
895
330
1F
100
AcDbEntity
  8
0
100
AcDbLine
 10
207.9999978080993
 20
209.4738137437262
 30
0.0
 11
209.9999978080993
 21
209.4738137437262
 31
0.0
  0
LINE
  5
896
330
1F
100
AcDbEntity
  8
0
100
AcDbLine
 10
207.9999978080993
 20
206.4738137437262
 30
0.0
 11
209.9999978080993
 21
206.4738137437262
 31
0.0
  0
LINE
  5
897
330
1F
100
AcDbEntity
  8
0
100
AcDbLine
 10
214.9999978080993
 20
209.4738137437262
 30
0.0
 11
216.9999978080993
 21
209.4738137437262
 31
0.0
  0
LINE
  5
898
330
1F
100
AcDbEntity
  8
0
100
AcDbLine
 10
214.9999978080993
 20
206.4738137437262
 30
0.0
 11
216.9999978080993
 21
206.4738137437262
 31
0.0
  0
LINE
  5
899
330
1F
100
AcDbEntity
  8
0
100
AcDbLine
 10
221.9999978080993
 20
183.9738137437262
 30
0.0
 11
223.9999978080993
 21
183.9738137437262
 31
0.0
  0
LINE
  5
89A
330
1F
100
AcDbEntity
  8
0
100
AcDbLine
 10
229.9999978080993
 20
181.9738137437262
 30
0.0
 11
229.9999978080982
 21
181.473813743726
 31
0.0
  0
LINE
  5
89B
330
1F
100
AcDbEntity
  8
0
100
AcDbLine
 10
221.9999978080993
 20
209.4738137437262
 30
0.0
 11
223.9999978080993
 21
209.4738137437262
 31
0.0
  0
LINE
  5
89C
330
1F
100
AcDbEntity
  8
0
100
AcDbLine
 10
221.9999978080993
 20
206.4738137437262
 30
0.0
 11
223.9999978080993
 21
206.4738137437262
 31
0.0
  0
LINE
  5
89D
330
1F
100
AcDbEntity
  8
0
100
AcDbLine
 10
179.9999978080993
 20
235.223813743726
 30
0.0
 11
181.9999978080993
 21
235.223813743726
 31
0.0
  0
LINE
  5
89E
330
1F
100
AcDbEntity
  8
0
100
AcDbLine
 10
186.9999978080993
 20
235.223813743726
 30
0.0
 11
188.9999978080993
 21
235.223813743726
 31
0.0
  0
LINE
  5
89F
330
1F
100
AcDbEntity
  8
0
100
AcDbLine
 10
193.9999978080993
 20
235.223813743726
 30
0.0
 11
195.9999978080993
 21
235.223813743726
 31
0.0
  0
LINE
  5
8A0
330
1F
100
AcDbEntity
  8
0
100
AcDbLine
 10
200.9999978080993
 20
235.223813743726
 30
0.0
 11
202.9999978080993
 21
235.223813743726
 31
0.0
  0
LINE
  5
8A1
330
1F
100
AcDbEntity
  8
0
100
AcDbLine
 10
207.9999978080993
 20
235.223813743726
 30
0.0
 11
209.9999978080993
 21
235.223813743726
 31
0.0
  0
LINE
  5
8A2
330
1F
100
AcDbEntity
  8
0
100
AcDbLine
 10
214.9999978080993
 20
235.223813743726
 30
0.0
 11
216.9999978080993
 21
235.223813743726
 31
0.0
  0
LINE
  5
8A3
330
1F
100
AcDbEntity
  8
0
100
AcDbLine
 10
221.9999978080993
 20
235.223813743726
 30
0.0
 11
223.9999978080993
 21
235.223813743726
 31
0.0
  0
LINE
  5
8A4
330
1F
100
AcDbEntity
  8
0
100
AcDbLine
 10
154.5999978080994
 20
341.5238144774161
 30
0.0
 11
157.9999978080993
 21
341.5238144774161
 31
0.0
  0
LINE
  5
8A5
330
1F
100
AcDbEntity
  8
0
100
AcDbLine
 10
157.9999978080993
 20
328.9238144774162
 30
0.0
 11
154.5999978080994
 21
328.9238144774162
 31
0.0
  0
LINE
  5
8A6
330
1F
100
AcDbEntity
  8
0
100
AcDbLine
 10
152.4999978080996
 20
310.5238144774166
 30
0.0
 11
157.9999978080993
 21
312.3764460563638
 31
0.0
  0
LINE
  5
8A7
330
1F
100
AcDbEntity
  8
0
100
AcDbLine
 10
152.4999978080996
 20
307.6238144774163
 30
0.0
 11
156.4900936637172
 21
306.2797821892086
 31
0.0
  0
LINE
  5
8A8
330
1F
100
AcDbEntity
  8
0
100
AcDbLine
 10
156.4900936637172
 20
301.1338137437261
 30
0.0
 11
151.3999978080993
 21
301.1338137437261
 31
0.0
  0
LINE
  5
8A9
330
1F
100
AcDbEntity
  8
0
100
AcDbLine
 10
143.2999978080998
 20
310.5238144774166
 30
0.0
 11
152.4999978080996
 21
310.5238144774166
 31
0.0
  0
LINE
  5
8AA
330
1F
100
AcDbEntity
  8
0
100
AcDbLine
 10
152.4999978080996
 20
307.6238144774163
 30
0.0
 11
148.1302522788479
 21
307.6238144774163
 31
0.0
  0
LINE
  5
8AB
330
1F
100
AcDbEntity
  8
0
100
AcDbLine
 10
148.1302522788479
 20
307.6238144774163
 30
0.0
 11
148.1302522788479
 21
305.583826128543
 31
0.0
  0
LINE
  5
8AC
330
1F
100
AcDbEntity
  8
0
100
AcDbLine
 10
148.1302522788479
 20
305.583826128543
 30
0.0
 11
147.0024738007383
 21
305.583826128543
 31
0.0
  0
LINE
  5
8AD
330
1F
100
AcDbEntity
  8
0
100
AcDbLine
 10
143.2999978080998
 20
310.5238144774166
 30
0.0
 11
147.0024738007383
 21
305.583826128543
 31
0.0
  0
LINE
  5
8AE
330
1F
100
AcDbEntity
  8
0
100
AcDbLine
 10
152.4900936637171
 20
310.5238144774166
 30
0.0
 11
152.4900936637171
 21
307.6238144774163
 31
0.0
  0
LINE
  5
8AF
330
1F
100
AcDbEntity
  8
0
100
AcDbLine
 10
154.5999978080994
 20
328.9238144774162
 30
0.0
 11
154.5999978080994
 21
341.5238144774161
 31
0.0
  0
LINE
  5
8B0
330
1F
100
AcDbEntity
  8
0
100
AcDbLine
 10
156.9956358672482
 20
322.4138137437263
 30
0.0
 11
156.9956358672482
 21
312.0381346657611
 31
0.0
  0
LINE
  5
8B1
330
1F
100
AcDbEntity
  8
0
100
AcDbLine
 10
156.2999978080996
 20
325.4738144774163
 30
0.0
 11
156.2999978080996
 21
326.6738144774162
 31
0.0
  0
LINE
  5
8B2
330
1F
100
AcDbEntity
  8
0
100
AcDbLine
 10
157.9999978080993
 20
326.6738144774162
 30
0.0
 11
156.2999978080996
 21
326.6738144774162
 31
0.0
  0
LINE
  5
8B3
330
1F
100
AcDbEntity
  8
0
100
AcDbLine
 10
157.9999978080993
 20
327.8738144774163
 30
0.0
 11
155.9999978080995
 21
327.8738144774163
 31
0.0
  0
LINE
  5
8B4
330
1F
100
AcDbEntity
  8
0
100
AcDbLine
 10
156.2999978080996
 20
325.4738144774163
 30
0.0
 11
155.4999978080994
 21
325.4738144774163
 31
0.0
  0
LINE
  5
8B5
330
1F
100
AcDbEntity
  8
0
100
AcDbLine
 10
154.9999978080994
 20
326.8738144774163
 30
0.0
 11
154.9999978080994
 21
325.9738144774162
 31
0.0
  0
LINE
  5
8B6
330
1F
100
AcDbEntity
  8
0
100
AcDbLine
 10
155.4999978080994
 20
325.4738144774163
 30
0.0
 11
154.9999978080994
 21
325.9738144774162
 31
0.0
  0
ARC
  5
8B7
330
1F
100
AcDbEntity
  8
0
100
AcDbCircle
 10
155.9999978080995
 20
326.8738144774163
 30
0.0
 40
1.0
100
AcDbArc
 50
90.0
 51
180.0
  0
LINE
  5
8B8
330
1F
100
AcDbEntity
  8
0
100
AcDbLine
 10
157.9999978080993
 20
322.4138137437263
 30
0.0
 11
156.9956358672482
 21
322.4138137437263
 31
0.0
  0
LINE
  5
8B9
330
1F
100
AcDbEntity
  8
0
100
AcDbLine
 10
156.2999978080996
 20
343.7738144774164
 30
0.0
 11
156.2999978080996
 21
344.9738144774164
 31
0.0
  0
LINE
  5
8BA
330
1F
100
AcDbEntity
  8
0
100
AcDbLine
 10
157.9999978080993
 20
343.7738144774164
 30
0.0
 11
156.2999978080995
 21
343.7738144774164
 31
0.0
  0
LINE
  5
8BB
330
1F
100
AcDbEntity
  8
0
100
AcDbLine
 10
156.2999978080996
 20
344.9738144774164
 30
0.0
 11
155.4999978080996
 21
344.9738144774164
 31
0.0
  0
LINE
  5
8BC
330
1F
100
AcDbEntity
  8
0
100
AcDbLine
 10
154.9999978080996
 20
344.4738144774162
 30
0.0
 11
154.9999978080996
 21
343.5738144774162
 31
0.0
  0
LINE
  5
8BD
330
1F
100
AcDbEntity
  8
0
100
AcDbLine
 10
155.4999978080996
 20
344.9738144774164
 30
0.0
 11
154.9999978080996
 21
344.4738144774162
 31
0.0
  0
LINE
  5
8BE
330
1F
100
AcDbEntity
  8
0
100
AcDbLine
 10
157.9999978080993
 20
342.5738144774161
 30
0.0
 11
155.9999978080996
 21
342.5738144774161
 31
0.0
  0
ARC
  5
8BF
330
1F
100
AcDbEntity
  8
0
100
AcDbCircle
 10
155.9999978080996
 20
343.5738144774162
 30
0.0
 40
1.0
100
AcDbArc
 50
180.0
 51
270.0
  0
LINE
  5
8C0
330
1F
100
AcDbEntity
  8
0
100
AcDbLine
 10
202.9999978080993
 20
300.7238137437261
 30
0.0
 11
202.9999978080993
 21
353.9738137437261
 31
0.0
  0
LINE
  5
8C1
330
1F
100
AcDbEntity
  8
0
100
AcDbLine
 10
200.9999978080993
 20
300.7238137437261
 30
0.0
 11
200.9999978080993
 21
353.9738137437261
 31
0.0
  0
LINE
  5
8C2
330
1F
100
AcDbEntity
  8
0
100
AcDbLine
 10
195.9999978080993
 20
300.7238137437261
 30
0.0
 11
195.9999978080993
 21
353.9738137437261
 31
0.0
  0
LINE
  5
8C3
330
1F
100
AcDbEntity
  8
0
100
AcDbLine
 10
193.9999978080993
 20
300.7238137437261
 30
0.0
 11
193.9999978080993
 21
353.9738137437261
 31
0.0
  0
LINE
  5
8C4
330
1F
100
AcDbEntity
  8
0
100
AcDbLine
 10
188.9999978080993
 20
300.7238137437261
 30
0.0
 11
188.9999978080993
 21
353.9738137437261
 31
0.0
  0
LINE
  5
8C5
330
1F
100
AcDbEntity
  8
0
100
AcDbLine
 10
186.9999978080993
 20
300.7238137437261
 30
0.0
 11
186.9999978080993
 21
353.9738137437261
 31
0.0
  0
LINE
  5
8C6
330
1F
100
AcDbEntity
  8
0
100
AcDbLine
 10
181.9999978080993
 20
300.7238137437261
 30
0.0
 11
181.9999978080993
 21
353.9738137437261
 31
0.0
  0
LINE
  5
8C7
330
1F
100
AcDbEntity
  8
0
100
AcDbLine
 10
179.9999978080993
 20
300.7238137437261
 30
0.0
 11
179.9999978080993
 21
353.9738137437261
 31
0.0
  0
LINE
  5
8C8
330
1F
100
AcDbEntity
  8
0
100
AcDbLine
 10
179.9999978080993
 20
300.7238137437261
 30
0.0
 11
181.9999978080993
 21
300.7238137437261
 31
0.0
  0
LINE
  5
8C9
330
1F
100
AcDbEntity
  8
0
100
AcDbLine
 10
186.9999978080993
 20
300.7238137437261
 30
0.0
 11
188.9999978080993
 21
300.7238137437261
 31
0.0
  0
LINE
  5
8CA
330
1F
100
AcDbEntity
  8
0
100
AcDbLine
 10
193.9999978080993
 20
300.7238137437261
 30
0.0
 11
195.9999978080993
 21
300.7238137437261
 31
0.0
  0
LINE
  5
8CB
330
1F
100
AcDbEntity
  8
0
100
AcDbLine
 10
200.9999978080993
 20
300.7238137437261
 30
0.0
 11
202.9999978080993
 21
300.7238137437261
 31
0.0
  0
LINE
  5
8CC
330
1F
100
AcDbEntity
  8
0
100
AcDbLine
 10
179.9999978080993
 20
326.4738137437261
 30
0.0
 11
181.9999978080993
 21
326.4738137437261
 31
0.0
  0
LINE
  5
8CD
330
1F
100
AcDbEntity
  8
0
100
AcDbLine
 10
179.9999978080993
 20
329.4738137437261
 30
0.0
 11
181.9999978080993
 21
329.4738137437261
 31
0.0
  0
LINE
  5
8CE
330
1F
100
AcDbEntity
  8
0
100
AcDbLine
 10
186.9999978080993
 20
326.4738137437261
 30
0.0
 11
188.9999978080993
 21
326.4738137437261
 31
0.0
  0
LINE
  5
8CF
330
1F
100
AcDbEntity
  8
0
100
AcDbLine
 10
186.9999978080993
 20
329.4738137437261
 30
0.0
 11
188.9999978080993
 21
329.4738137437261
 31
0.0
  0
LINE
  5
8D0
330
1F
100
AcDbEntity
  8
0
100
AcDbLine
 10
179.9999978080993
 20
351.9738137437261
 30
0.0
 11
181.9999978080993
 21
351.9738137437261
 31
0.0
  0
LINE
  5
8D1
330
1F
100
AcDbEntity
  8
0
100
AcDbLine
 10
186.9999978080993
 20
351.9738137437261
 30
0.0
 11
188.9999978080993
 21
351.9738137437261
 31
0.0
  0
LINE
  5
8D2
330
1F
100
AcDbEntity
  8
0
100
AcDbLine
 10
193.9999978080993
 20
326.4738137437261
 30
0.0
 11
195.9999978080993
 21
326.4738137437261
 31
0.0
  0
LINE
  5
8D3
330
1F
100
AcDbEntity
  8
0
100
AcDbLine
 10
193.9999978080993
 20
329.4738137437261
 30
0.0
 11
195.9999978080993
 21
329.4738137437261
 31
0.0
  0
LINE
  5
8D4
330
1F
100
AcDbEntity
  8
0
100
AcDbLine
 10
200.9999978080993
 20
326.4738137437261
 30
0.0
 11
202.9999978080993
 21
326.4738137437261
 31
0.0
  0
LINE
  5
8D5
330
1F
100
AcDbEntity
  8
0
100
AcDbLine
 10
200.9999978080993
 20
329.4738137437261
 30
0.0
 11
202.9999978080993
 21
329.4738137437261
 31
0.0
  0
LINE
  5
8D6
330
1F
100
AcDbEntity
  8
0
100
AcDbLine
 10
193.9999978080993
 20
351.9738137437261
 30
0.0
 11
195.9999978080993
 21
351.9738137437261
 31
0.0
  0
LINE
  5
8D7
330
1F
100
AcDbEntity
  8
0
100
AcDbLine
 10
200.9999978080993
 20
351.9738137437261
 30
0.0
 11
202.9999978080993
 21
351.9738137437261
 31
0.0
  0
LINE
  5
8D8
330
1F
100
AcDbEntity
  8
0
100
AcDbLine
 10
228.9999978080993
 20
300.7238137437261
 30
0.0
 11
228.9999978080993
 21
353.9738137437261
 31
0.0
  0
LINE
  5
8D9
330
1F
100
AcDbEntity
  8
0
100
AcDbLine
 10
223.9999978080993
 20
300.7238137437261
 30
0.0
 11
223.9999978080993
 21
353.9738137437261
 31
0.0
  0
LINE
  5
8DA
330
1F
100
AcDbEntity
  8
0
100
AcDbLine
 10
221.9999978080993
 20
300.7238137437261
 30
0.0
 11
221.9999978080993
 21
353.9738137437261
 31
0.0
  0
LINE
  5
8DB
330
1F
100
AcDbEntity
  8
0
100
AcDbLine
 10
216.9999978080993
 20
300.7238137437261
 30
0.0
 11
216.9999978080993
 21
353.9738137437261
 31
0.0
  0
LINE
  5
8DC
330
1F
100
AcDbEntity
  8
0
100
AcDbLine
 10
214.9999978080993
 20
300.7238137437261
 30
0.0
 11
214.9999978080993
 21
353.9738137437261
 31
0.0
  0
LINE
  5
8DD
330
1F
100
AcDbEntity
  8
0
100
AcDbLine
 10
209.9999978080993
 20
300.7238137437261
 30
0.0
 11
209.9999978080993
 21
353.9738137437261
 31
0.0
  0
LINE
  5
8DE
330
1F
100
AcDbEntity
  8
0
100
AcDbLine
 10
207.9999978080993
 20
300.7238137437261
 30
0.0
 11
207.9999978080993
 21
353.9738137437261
 31
0.0
  0
LINE
  5
8DF
330
1F
100
AcDbEntity
  8
0
100
AcDbLine
 10
207.9999978080993
 20
300.7238137437261
 30
0.0
 11
209.9999978080993
 21
300.7238137437261
 31
0.0
  0
LINE
  5
8E0
330
1F
100
AcDbEntity
  8
0
100
AcDbLine
 10
214.9999978080993
 20
300.7238137437261
 30
0.0
 11
216.9999978080993
 21
300.7238137437261
 31
0.0
  0
LINE
  5
8E1
330
1F
100
AcDbEntity
  8
0
100
AcDbLine
 10
221.9999978080993
 20
300.7238137437261
 30
0.0
 11
223.9999978080993
 21
300.7238137437261
 31
0.0
  0
LINE
  5
8E2
330
1F
100
AcDbEntity
  8
0
100
AcDbLine
 10
207.9999978080993
 20
326.4738137437261
 30
0.0
 11
209.9999978080993
 21
326.4738137437261
 31
0.0
  0
LINE
  5
8E3
330
1F
100
AcDbEntity
  8
0
100
AcDbLine
 10
207.9999978080993
 20
329.4738137437261
 30
0.0
 11
209.9999978080993
 21
329.4738137437261
 31
0.0
  0
LINE
  5
8E4
330
1F
100
AcDbEntity
  8
0
100
AcDbLine
 10
214.9999978080993
 20
326.4738137437261
 30
0.0
 11
216.9999978080993
 21
326.4738137437261
 31
0.0
  0
LINE
  5
8E5
330
1F
100
AcDbEntity
  8
0
100
AcDbLine
 10
214.9999978080993
 20
329.4738137437261
 30
0.0
 11
216.9999978080993
 21
329.4738137437261
 31
0.0
  0
LINE
  5
8E6
330
1F
100
AcDbEntity
  8
0
100
AcDbLine
 10
207.9999978080993
 20
351.9738137437261
 30
0.0
 11
209.9999978080993
 21
351.9738137437261
 31
0.0
  0
LINE
  5
8E7
330
1F
100
AcDbEntity
  8
0
100
AcDbLine
 10
214.9999978080993
 20
351.9738137437261
 30
0.0
 11
216.9999978080993
 21
351.9738137437261
 31
0.0
  0
LINE
  5
8E8
330
1F
100
AcDbEntity
  8
0
100
AcDbLine
 10
221.9999978080993
 20
326.4738137437261
 30
0.0
 11
223.9999978080993
 21
326.4738137437261
 31
0.0
  0
LINE
  5
8E9
330
1F
100
AcDbEntity
  8
0
100
AcDbLine
 10
221.9999978080993
 20
329.4738137437261
 30
0.0
 11
223.9999978080993
 21
329.4738137437261
 31
0.0
  0
LINE
  5
8EA
330
1F
100
AcDbEntity
  8
0
100
AcDbLine
 10
221.9999978080993
 20
351.9738137437261
 30
0.0
 11
223.9999978080993
 21
351.9738137437261
 31
0.0
  0
LINE
  5
8EB
330
1F
100
AcDbEntity
  8
0
100
AcDbLine
 10
275.387851651266
 20
180.9738137437262
 30
0.0
 11
275.3878516512672
 21
354.9738137437261
 31
0.0
  0
LINE
  5
8EC
330
1F
100
AcDbEntity
  8
0
100
AcDbLine
 10
256.9999978080991
 20
180.9738137437262
 30
0.0
 11
256.9999978080991
 21
354.9738137437261
 31
0.0
  0
LINE
  5
8ED
330
1F
100
AcDbEntity
  8
0
100
AcDbLine
 10
275.4140375728352
 20
364.9367858093511
 30
0.0
 11
275.4140375728343
 21
171.010841678101
 31
0.0
  0
LINE
  5
8EE
330
1F
100
AcDbEntity
  8
0
100
AcDbLine
 10
278.9999978080981
 20
364.8428841358801
 30
0.0
 11
278.9999978080981
 21
171.1047433515721
 31
0.0
  0
LINE
  5
8EF
330
1F
100
AcDbEntity
  8
0
100
AcDbLine
 10
251.9999978080992
 20
181.9738137437262
 30
0.0
 11
251.9999978080992
 21
235.223813743726
 31
0.0
  0
LINE
  5
8F0
330
1F
100
AcDbEntity
  8
0
100
AcDbLine
 10
249.9999978080992
 20
181.9738137437262
 30
0.0
 11
249.9999978080992
 21
235.223813743726
 31
0.0
  0
LINE
  5
8F1
330
1F
100
AcDbEntity
  8
0
100
AcDbLine
 10
244.999997808099
 20
181.9738137437262
 30
0.0
 11
244.999997808099
 21
235.223813743726
 31
0.0
  0
LINE
  5
8F2
330
1F
100
AcDbEntity
  8
0
100
AcDbLine
 10
242.9999978080993
 20
181.9738137437262
 30
0.0
 11
242.9999978080993
 21
235.223813743726
 31
0.0
  0
LINE
  5
8F3
330
1F
100
AcDbEntity
  8
0
100
AcDbLine
 10
237.9999978080993
 20
181.9738137437262
 30
0.0
 11
237.9999978080993
 21
235.223813743726
 31
0.0
  0
LINE
  5
8F4
330
1F
100
AcDbEntity
  8
0
100
AcDbLine
 10
235.9999978080993
 20
181.9738137437262
 30
0.0
 11
235.9999978080993
 21
235.223813743726
 31
0.0
  0
LINE
  5
8F5
330
1F
100
AcDbEntity
  8
0
100
AcDbLine
 10
230.9999978080993
 20
181.9738137437262
 30
0.0
 11
230.9999978080993
 21
235.223813743726
 31
0.0
  0
LINE
  5
8F6
330
1F
100
AcDbEntity
  8
0
100
AcDbLine
 10
235.9999978080993
 20
183.9738137437262
 30
0.0
 11
237.9999978080993
 21
183.9738137437262
 31
0.0
  0
LINE
  5
8F7
330
1F
100
AcDbEntity
  8
0
100
AcDbLine
 10
235.9999978080993
 20
209.4738137437262
 30
0.0
 11
237.9999978080993
 21
209.4738137437262
 31
0.0
  0
LINE
  5
8F8
330
1F
100
AcDbEntity
  8
0
100
AcDbLine
 10
235.9999978080993
 20
206.4738137437262
 30
0.0
 11
237.9999978080993
 21
206.4738137437262
 31
0.0
  0
LINE
  5
8F9
330
1F
100
AcDbEntity
  8
0
100
AcDbLine
 10
242.9999978080993
 20
183.9738137437262
 30
0.0
 11
244.999997808099
 21
183.9738137437262
 31
0.0
  0
LINE
  5
8FA
330
1F
100
AcDbEntity
  8
0
100
AcDbLine
 10
249.9999978080992
 20
183.9738137437262
 30
0.0
 11
251.9999978080992
 21
183.9738137437262
 31
0.0
  0
LINE
  5
8FB
330
1F
100
AcDbEntity
  8
0
100
AcDbLine
 10
242.9999978080993
 20
209.4738137437262
 30
0.0
 11
244.999997808099
 21
209.4738137437262
 31
0.0
  0
LINE
  5
8FC
330
1F
100
AcDbEntity
  8
0
100
AcDbLine
 10
242.9999978080993
 20
206.4738137437262
 30
0.0
 11
244.999997808099
 21
206.4738137437262
 31
0.0
  0
LINE
  5
8FD
330
1F
100
AcDbEntity
  8
0
100
AcDbLine
 10
249.9999978080992
 20
209.4738137437262
 30
0.0
 11
251.9999978080992
 21
209.4738137437262
 31
0.0
  0
LINE
  5
8FE
330
1F
100
AcDbEntity
  8
0
100
AcDbLine
 10
249.9999978080992
 20
206.4738137437262
 30
0.0
 11
251.9999978080992
 21
206.4738137437262
 31
0.0
  0
LINE
  5
8FF
330
1F
100
AcDbEntity
  8
0
100
AcDbLine
 10
273.9999978080981
 20
170.9738137437262
 30
0.0
 11
273.9999978080981
 21
180.9738137437262
 31
0.0
  0
LINE
  5
900
330
1F
100
AcDbEntity
  8
0
100
AcDbLine
 10
273.9999978080981
 20
170.9738137437262
 30
0.0
 11
278.9999978080981
 21
171.1047433515721
 31
0.0
  0
LINE
  5
901
330
1F
100
AcDbEntity
  8
0
100
AcDbLine
 10
235.9999978080993
 20
235.223813743726
 30
0.0
 11
237.9999978080993
 21
235.223813743726
 31
0.0
  0
LINE
  5
902
330
1F
100
AcDbEntity
  8
0
100
AcDbLine
 10
242.9999978080993
 20
235.223813743726
 30
0.0
 11
244.999997808099
 21
235.223813743726
 31
0.0
  0
LINE
  5
903
330
1F
100
AcDbEntity
  8
0
100
AcDbLine
 10
249.9999978080992
 20
235.223813743726
 30
0.0
 11
251.9999978080992
 21
235.223813743726
 31
0.0
  0
LINE
  5
904
330
1F
100
AcDbEntity
  8
0
100
AcDbLine
 10
273.9999978080981
 20
354.9738137437261
 30
0.0
 11
273.9999978080981
 21
364.9738137437261
 31
0.0
  0
LINE
  5
905
330
1F
100
AcDbEntity
  8
0
100
AcDbLine
 10
251.9999978080992
 20
300.7238137437261
 30
0.0
 11
251.9999978080992
 21
353.9738137437261
 31
0.0
  0
LINE
  5
906
330
1F
100
AcDbEntity
  8
0
100
AcDbLine
 10
249.9999978080992
 20
300.7238137437261
 30
0.0
 11
249.9999978080992
 21
353.9738137437261
 31
0.0
  0
LINE
  5
907
330
1F
100
AcDbEntity
  8
0
100
AcDbLine
 10
244.999997808099
 20
300.7238137437261
 30
0.0
 11
244.999997808099
 21
353.9738137437261
 31
0.0
  0
LINE
  5
908
330
1F
100
AcDbEntity
  8
0
100
AcDbLine
 10
242.9999978080993
 20
300.7238137437261
 30
0.0
 11
242.9999978080993
 21
353.9738137437261
 31
0.0
  0
LINE
  5
909
330
1F
100
AcDbEntity
  8
0
100
AcDbLine
 10
237.9999978080993
 20
300.7238137437261
 30
0.0
 11
237.9999978080993
 21
353.9738137437261
 31
0.0
  0
LINE
  5
90A
330
1F
100
AcDbEntity
  8
0
100
AcDbLine
 10
235.9999978080993
 20
300.7238137437261
 30
0.0
 11
235.9999978080993
 21
353.9738137437261
 31
0.0
  0
LINE
  5
90B
330
1F
100
AcDbEntity
  8
0
100
AcDbLine
 10
230.9999978080993
 20
300.7238137437261
 30
0.0
 11
230.9999978080993
 21
353.9738137437261
 31
0.0
  0
LINE
  5
90C
330
1F
100
AcDbEntity
  8
0
100
AcDbLine
 10
235.9999978080993
 20
300.7238137437261
 30
0.0
 11
237.9999978080993
 21
300.7238137437261
 31
0.0
  0
LINE
  5
90D
330
1F
100
AcDbEntity
  8
0
100
AcDbLine
 10
242.9999978080993
 20
300.7238137437261
 30
0.0
 11
244.999997808099
 21
300.7238137437261
 31
0.0
  0
LINE
  5
90E
330
1F
100
AcDbEntity
  8
0
100
AcDbLine
 10
249.9999978080992
 20
300.7238137437261
 30
0.0
 11
251.9999978080992
 21
300.7238137437261
 31
0.0
  0
LINE
  5
90F
330
1F
100
AcDbEntity
  8
0
100
AcDbLine
 10
235.9999978080993
 20
326.4738137437261
 30
0.0
 11
237.9999978080993
 21
326.4738137437261
 31
0.0
  0
LINE
  5
910
330
1F
100
AcDbEntity
  8
0
100
AcDbLine
 10
235.9999978080993
 20
329.4738137437261
 30
0.0
 11
237.9999978080993
 21
329.4738137437261
 31
0.0
  0
LINE
  5
911
330
1F
100
AcDbEntity
  8
0
100
AcDbLine
 10
235.9999978080993
 20
351.9738137437261
 30
0.0
 11
237.9999978080993
 21
351.9738137437261
 31
0.0
  0
LINE
  5
912
330
1F
100
AcDbEntity
  8
0
100
AcDbLine
 10
242.9999978080993
 20
326.4738137437261
 30
0.0
 11
244.999997808099
 21
326.4738137437261
 31
0.0
  0
LINE
  5
913
330
1F
100
AcDbEntity
  8
0
100
AcDbLine
 10
242.9999978080993
 20
329.4738137437261
 30
0.0
 11
244.999997808099
 21
329.4738137437261
 31
0.0
  0
LINE
  5
914
330
1F
100
AcDbEntity
  8
0
100
AcDbLine
 10
249.9999978080992
 20
326.4738137437261
 30
0.0
 11
251.9999978080992
 21
326.4738137437261
 31
0.0
  0
LINE
  5
915
330
1F
100
AcDbEntity
  8
0
100
AcDbLine
 10
249.9999978080992
 20
329.4738137437261
 30
0.0
 11
251.9999978080992
 21
329.4738137437261
 31
0.0
  0
LINE
  5
916
330
1F
100
AcDbEntity
  8
0
100
AcDbLine
 10
242.9999978080993
 20
351.9738137437261
 30
0.0
 11
244.999997808099
 21
351.9738137437261
 31
0.0
  0
LINE
  5
917
330
1F
100
AcDbEntity
  8
0
100
AcDbLine
 10
249.9999978080992
 20
351.9738137437261
 30
0.0
 11
251.9999978080992
 21
351.9738137437261
 31
0.0
  0
LINE
  5
918
330
1F
100
AcDbEntity
  8
0
100
AcDbLine
 10
273.9999978080981
 20
364.9738137437261
 30
0.0
 11
278.9999978080981
 21
364.8428841358801
 31
0.0
  0
LINE
  5
919
330
1F
100
AcDbEntity
  8
0
100
AcDbLine
 10
55.69999780809842
 20
352.7738137437261
 30
0.0
 11
55.69999780809842
 21
183.1738137437262
 31
0.0
  0
LINE
  5
91A
330
1F
100
AcDbEntity
  8
0
100
AcDbLine
 10
49.09999780809935
 20
327.8738137437262
 30
0.0
 11
49.09999780809935
 21
320.7538137437263
 31
0.0
  0
LINE
  5
91B
330
1F
100
AcDbEntity
  8
0
100
AcDbLine
 10
49.09999780809935
 20
350.7738135843822
 30
0.0
 11
49.09999780809935
 21
319.4738135843822
 31
0.0
  0
LINE
  5
91C
330
1F
100
AcDbEntity
  8
0
100
AcDbLine
 10
49.99999793001735
 20
319.4738135843822
 30
0.0
 11
49.99999793001735
 21
350.7738135843822
 31
0.0
  0
LINE
  5
91D
330
1F
100
AcDbEntity
  8
0
100
AcDbLine
 10
48.79999780809939
 20
320.4738137437264
 30
0.0
 11
48.79999780809939
 21
349.9738137437272
 31
0.0
  0
LINE
  5
91E
330
1F
100
AcDbEntity
  8
0
100
AcDbLine
 10
25.89999793001635
 20
331.0738135843821
 30
0.0
 11
25.89999793001635
 21
322.8738135843824
 31
0.0
  0
LINE
  5
91F
330
1F
100
AcDbEntity
  8
0
100
AcDbLine
 10
38.59999793001634
 20
319.4738135843822
 30
0.0
 11
38.59999793001634
 21
350.7738135843822
 31
0.0
  0
LINE
  5
920
330
1F
100
AcDbEntity
  8
0
100
AcDbLine
 10
39.69999780809938
 20
348.9938137437263
 30
0.0
 11
39.69999780809938
 21
321.4738137437263
 31
0.0
  0
CIRCLE
  5
921
330
1F
100
AcDbEntity
  8
0
100
AcDbCircle
 10
44.29999780809938
 20
323.4038137437272
 30
0.0
 40
1.399999999999999
  0
LINE
  5
922
330
1F
100
AcDbEntity
  8
0
100
AcDbLine
 10
12.99999793001637
 20
339.0738135843823
 30
0.0
 11
12.99999793001637
 21
306.0738135843821
 31
0.0
  0
LINE
  5
923
330
1F
100
AcDbEntity
  8
0
100
AcDbLine
 10
14.09999780809942
 20
306.0738135843821
 30
0.0
 11
14.09999780809935
 21
339.0738135843823
 31
0.0
  0
LINE
  5
924
330
1F
100
AcDbEntity
  8
0
100
AcDbLine
 10
8.099997808098406
 20
352.7738137437261
 30
0.0
 11
8.099997808098406
 21
203.6659135320253
 31
0.0
  0
LINE
  5
925
330
1F
100
AcDbEntity
  8
0
100
AcDbLine
 10
4.999997808099408
 20
201.6069941686403
 30
0.0
 11
4.999997808099408
 21
354.4738137437261
 31
0.0
  0
LINE
  5
926
330
1F
100
AcDbEntity
  8
0
100
AcDbLine
 10
57.99999780809939
 20
180.9738137437264
 30
0.0
 11
57.99999780809939
 21
354.9738137437263
 31
0.0
  0
LINE
  5
927
330
1F
100
AcDbEntity
  8
0
100
AcDbLine
 10
7.999997808099406
 20
352.9738137437263
 30
0.0
 11
7.999997808098384
 21
203.5595097612303
 31
0.0
  0
LINE
  5
928
330
1F
100
AcDbEntity
  8
0
100
AcDbLine
 10
55.9999978080994
 20
182.9738137437264
 30
0.0
 11
55.9999978080994
 21
352.9738137437263
 31
0.0
  0
LINE
  5
929
330
1F
100
AcDbEntity
  8
0
100
AcDbLine
 10
5.999997808099406
 20
354.9738137437263
 30
0.0
 11
5.999997808098384
 21
202.3555942037642
 31
0.0
  0
LINE
  5
92A
330
1F
100
AcDbEntity
  8
0
100
AcDbLine
 10
4.999997808099408
 20
201.6069941686394
 30
0.0
 11
4.999997808099408
 21
354.9476278221573
 31
0.0
  0
LINE
  5
92B
330
1F
100
AcDbEntity
  8
0
100
AcDbLine
 10
57.99999780809939
 20
363.9738137437261
 30
0.0
 11
57.99999780809939
 21
171.9738137437263
 31
0.0
  0
LINE
  5
92C
330
1F
100
AcDbEntity
  8
0
100
AcDbLine
 10
-0.0000021919005917
 20
363.8949131865284
 30
0.0
 11
-0.0000021919005917
 21
172.0527143009254
 31
0.0
  0
LINE
  5
92D
330
1F
100
AcDbEntity
  8
0
100
AcDbLine
 10
21.34999780809937
 20
322.4138137437263
 30
0.0
 11
14.09999780809839
 21
322.4138137437263
 31
0.0
  0
LINE
  5
92E
330
1F
100
AcDbEntity
  8
0
100
AcDbLine
 10
24.94499780809843
 20
301.1338137437263
 30
0.0
 11
15.5999978080984
 21
301.1338137437263
 31
0.0
  0
LINE
  5
92F
330
1F
100
AcDbEntity
  8
0
100
AcDbLine
 10
16.59999780809838
 20
300.1338137437262
 30
0.0
 11
23.58499780809841
 21
300.1338137437262
 31
0.0
  0
LINE
  5
930
330
1F
100
AcDbEntity
  8
0
100
AcDbLine
 10
14.09999780809839
 20
307.0138137437262
 30
0.0
 11
21.34999780809937
 21
307.0138137437262
 31
0.0
  0
LINE
  5
931
330
1F
100
AcDbEntity
  8
0
100
AcDbLine
 10
12.99999793001637
 20
302.1738135843821
 30
0.0
 11
25.39999793001635
 21
302.1738135843821
 31
0.0
  0
LINE
  5
932
330
1F
100
AcDbEntity
  8
0
100
AcDbLine
 10
12.99999793001637
 20
306.0738135843821
 30
0.0
 11
22.29999793001637
 21
306.0738135843821
 31
0.0
  0
LINE
  5
933
330
1F
100
AcDbEntity
  8
0
100
AcDbLine
 10
20.59999780809839
 20
295.1338137437263
 30
0.0
 11
19.59999780809839
 21
295.1338137437263
 31
0.0
  0
LINE
  5
934
330
1F
100
AcDbEntity
  8
0
100
AcDbLine
 10
19.59999780809839
 20
293.1338137437263
 30
0.0
 11
20.59999780809839
 21
293.1338137437263
 31
0.0
  0
LINE
  5
935
330
1F
100
AcDbEntity
  8
0
100
AcDbLine
 10
20.59999780809839
 20
284.9738137437264
 30
0.0
 11
19.59999780809839
 21
284.9738137437264
 31
0.0
  0
LINE
  5
936
330
1F
100
AcDbEntity
  8
0
100
AcDbLine
 10
20.59999780809839
 20
290.0538137437262
 30
0.0
 11
19.59999780809839
 21
290.0538137437262
 31
0.0
  0
LINE
  5
937
330
1F
100
AcDbEntity
  8
0
100
AcDbLine
 10
19.59999780809839
 20
288.0538137437262
 30
0.0
 11
20.59999780809839
 21
288.0538137437262
 31
0.0
  0
LINE
  5
938
330
1F
100
AcDbEntity
  8
0
100
AcDbLine
 10
19.59999780809839
 20
282.9738137437264
 30
0.0
 11
20.59999780809839
 21
282.9738137437264
 31
0.0
  0
LINE
  5
939
330
1F
100
AcDbEntity
  8
0
100
AcDbLine
 10
15.5999978080984
 20
276.9738137437264
 30
0.0
 11
24.94499780809843
 21
276.9738137437264
 31
0.0
  0
LINE
  5
93A
330
1F
100
AcDbEntity
  8
0
100
AcDbLine
 10
16.59999780809838
 20
277.9738137437263
 30
0.0
 11
23.58499780809841
 21
277.9738137437263
 31
0.0
  0
LINE
  5
93B
330
1F
100
AcDbEntity
  8
0
100
AcDbLine
 10
12.99999793001637
 20
275.9738135843821
 30
0.0
 11
25.39999793001635
 21
275.9738135843821
 31
0.0
  0
CIRCLE
  5
93C
330
1F
100
AcDbEntity
  8
0
100
AcDbCircle
 10
18.09999780809839
 20
267.5738137437263
 30
0.0
 40
2.0
  0
LINE
  5
93D
330
1F
100
AcDbEntity
  8
0
100
AcDbLine
 10
21.09999780809839
 20
264.1138137437263
 30
0.0
 11
16.09999780809839
 21
264.1138137437263
 31
0.0
  0
LINE
  5
93E
330
1F
100
AcDbEntity
  8
0
100
AcDbLine
 10
12.99999793001637
 20
271.4738135843822
 30
0.0
 11
23.59999793001632
 21
271.4738135843822
 31
0.0
  0
LINE
  5
93F
330
1F
100
AcDbEntity
  8
0
100
AcDbLine
 10
14.09999780809839
 20
270.4738137437264
 30
0.0
 11
21.09999780809839
 21
270.4738137437264
 31
0.0
  0
LINE
  5
940
330
1F
100
AcDbEntity
  8
0
100
AcDbLine
 10
14.09999780809839
 20
270.4738137437264
 30
0.0
 11
21.09999780809839
 21
270.4738137437264
 31
0.0
  0
LINE
  5
941
330
1F
100
AcDbEntity
  8
0
100
AcDbLine
 10
16.09999780809839
 20
235.6138137437262
 30
0.0
 11
21.09999780809839
 21
235.6138137437262
 31
0.0
  0
LINE
  5
942
330
1F
100
AcDbEntity
  8
0
100
AcDbLine
 10
22.69999780809841
 20
226.6138137437263
 30
0.0
 11
14.09999780809839
 21
226.6138137437263
 31
0.0
  0
LINE
  5
943
330
1F
100
AcDbEntity
  8
0
100
AcDbLine
 10
14.09999780809839
 20
229.6138137437262
 30
0.0
 11
21.09999780809839
 21
229.6138137437262
 31
0.0
  0
LINE
  5
944
330
1F
100
AcDbEntity
  8
0
100
AcDbLine
 10
14.09999780809839
 20
229.6138137437262
 30
0.0
 11
21.09999780809839
 21
229.6138137437262
 31
0.0
  0
CIRCLE
  5
945
330
1F
100
AcDbEntity
  8
0
100
AcDbCircle
 10
18.06361174769534
 20
232.5138137437264
 30
0.0
 40
2.0
  0
CIRCLE
  5
946
330
1F
100
AcDbEntity
  8
0
100
AcDbCircle
 10
18.09999780809839
 20
213.9138137437263
 30
0.0
 40
2.0
  0
CIRCLE
  5
947
330
1F
100
AcDbEntity
  8
0
100
AcDbCircle
 10
18.09999780809839
 20
213.9138137437263
 30
0.0
 40
2.0
  0
CIRCLE
  5
948
330
1F
100
AcDbEntity
  8
0
100
AcDbCircle
 10
18.09999780809839
 20
203.7538137437274
 30
0.0
 40
2.0
  0
CIRCLE
  5
949
330
1F
100
AcDbEntity
  8
0
100
AcDbCircle
 10
18.09999780809839
 20
203.7538137437274
 30
0.0
 40
2.0
  0
CIRCLE
  5
94A
330
1F
100
AcDbEntity
  8
0
100
AcDbCircle
 10
18.09999780809839
 20
198.6738137437263
 30
0.0
 40
2.0
  0
CIRCLE
  5
94B
330
1F
100
AcDbEntity
  8
0
100
AcDbCircle
 10
18.09999780809839
 20
198.6738137437263
 30
0.0
 40
2.0
  0
CIRCLE
  5
94C
330
1F
100
AcDbEntity
  8
0
100
AcDbCircle
 10
18.09999780809839
 20
208.8338137437263
 30
0.0
 40
2.0
  0
CIRCLE
  5
94D
330
1F
100
AcDbEntity
  8
0
100
AcDbCircle
 10
18.09999780809839
 20
218.9938137437273
 30
0.0
 40
2.0
  0
LINE
  5
94E
330
1F
100
AcDbEntity
  8
0
100
AcDbLine
 10
14.09999780809839
 20
185.9738137437263
 30
0.0
 11
22.69999780809841
 21
185.9738137437263
 31
0.0
  0
LINE
  5
94F
330
1F
100
AcDbEntity
  8
0
100
AcDbLine
 10
23.59999793001632
 20
185.1738135843824
 30
0.0
 11
12.99999793001637
 21
185.1738135843824
 31
0.0
  0
LINE
  5
950
330
1F
100
AcDbEntity
  8
0
100
AcDbLine
 10
11.09999780809435
 20
183.1738137437262
 30
0.0
 11
55.69999780809842
 21
183.1738137437262
 31
0.0
  0
LINE
  5
951
330
1F
100
AcDbEntity
  8
0
100
AcDbLine
 10
55.9999978080994
 20
182.9738137437264
 30
0.0
 11
10.99999780809433
 21
182.9738137437264
 31
0.0
  0
LINE
  5
952
330
1F
100
AcDbEntity
  8
0
100
AcDbLine
 10
5.999997808098384
 20
180.9738137437264
 30
0.0
 11
57.99999780809939
 21
180.9738137437264
 31
0.0
  0
LINE
  5
953
330
1F
100
AcDbEntity
  8
0
100
AcDbLine
 10
3.999997808099406
 20
170.9738137437263
 30
0.0
 11
26.89999780809937
 21
170.9738137437263
 31
0.0
  0
CIRCLE
  5
954
330
1F
100
AcDbEntity
  8
0
100
AcDbCircle
 10
18.09999780809839
 20
193.5938137437263
 30
0.0
 40
2.0
  0
CIRCLE
  5
955
330
1F
100
AcDbEntity
  8
0
100
AcDbCircle
 10
18.09999780809839
 20
223.7438137437273
 30
0.0
 40
1.5
  0
CIRCLE
  5
956
330
1F
100
AcDbEntity
  8
0
100
AcDbCircle
 10
18.09999780809839
 20
223.7438137437273
 30
0.0
 40
1.0
  0
LINE
  5
957
330
1F
100
AcDbEntity
  8
0
100
AcDbLine
 10
14.09999780809839
 20
226.6138137437263
 30
0.0
 11
14.09999780809839
 21
185.9738137437263
 31
0.0
  0
LINE
  5
958
330
1F
100
AcDbEntity
  8
0
100
AcDbLine
 10
14.09999780809935
 20
185.1738135843824
 30
0.0
 11
14.09999780809931
 21
271.4738135843822
 31
0.0
  0
LINE
  5
959
330
1F
100
AcDbEntity
  8
0
100
AcDbLine
 10
12.99999793001637
 20
271.4738135843822
 30
0.0
 11
12.99999793001637
 21
185.1738135843824
 31
0.0
  0
LINE
  5
95A
330
1F
100
AcDbEntity
  8
0
100
AcDbLine
 10
0.973820859791374
 20
171.0530569759493
 30
0.0
 11
3.999997808099406
 21
170.9738137437263
 31
0.0
  0
ARC
  5
95B
330
1F
100
AcDbEntity
  8
0
100
AcDbCircle
 10
0.9999978080994084
 20
172.0527143009254
 30
0.0
 40
1.0
100
AcDbArc
 50
180.0
 51
268.5000000000005
  0
ARC
  5
95C
330
1F
100
AcDbEntity
  8
0
100
AcDbCircle
 10
4.199997808098429
 20
197.9738137437264
 30
0.0
 40
6.899999999996
100
AcDbArc
 50
0.0
 51
55.5826112895375
  0
ARC
  5
95D
330
1F
100
AcDbEntity
  8
0
100
AcDbCircle
 10
4.299997808099417
 20
197.9738137437264
 30
0.0
 40
6.699999999996
100
AcDbArc
 50
0.0
 51
56.47925960398239
  0
ARC
  5
95E
330
1F
100
AcDbEntity
  8
0
100
AcDbCircle
 10
4.299997808099417
 20
197.9738137437264
 30
0.0
 40
3.699999999995998
100
AcDbArc
 50
0.0
 51
79.09453000326085
  0
ARC
  5
95F
330
1F
100
AcDbEntity
  8
0
100
AcDbCircle
 10
4.299997808099417
 20
197.9738137437264
 30
0.0
 40
4.699999999995998
100
AcDbArc
 50
0.0
 51
68.79523363710418
  0
ARC
  5
960
330
1F
100
AcDbEntity
  8
0
100
AcDbCircle
 10
4.299997808099417
 20
197.9738137437264
 30
0.0
 40
3.699999999995998
100
AcDbArc
 50
0.0
 51
79.09453000326085
  0
LINE
  5
961
330
1F
100
AcDbEntity
  8
0
100
AcDbLine
 10
3.999997808099406
 20
180.9738137437264
 30
0.0
 11
7.999997808094349
 21
181.0785574300034
 31
0.0
  0
CIRCLE
  5
962
330
1F
100
AcDbEntity
  8
0
100
AcDbCircle
 10
3.999997808099406
 20
185.9738137437263
 30
0.0
 40
1.6
  0
CIRCLE
  5
963
330
1F
100
AcDbEntity
  8
0
100
AcDbCircle
 10
3.999997808099406
 20
185.9738137437263
 30
0.0
 40
2.0
  0
LINE
  5
964
330
1F
100
AcDbEntity
  8
0
100
AcDbLine
 10
0.4869093339453347
 20
181.0658072029763
 30
0.0
 11
3.999997808099406
 21
180.9738137437264
 31
0.0
  0
ARC
  5
965
330
1F
100
AcDbEntity
  8
0
100
AcDbCircle
 10
0.4999978080994087
 20
181.5656358654644
 30
0.0
 40
0.5
100
AcDbArc
 50
180.0
 51
268.5000000000005
  0
LINE
  5
966
330
1F
100
AcDbEntity
  8
0
100
AcDbLine
 10
5.99999780809685
 20
181.0261855868647
 30
0.0
 11
5.999997808098384
 21
180.9738137437264
 31
0.0
  0
CIRCLE
  5
967
330
1F
100
AcDbEntity
  8
0
100
AcDbCircle
 10
3.999997808099406
 20
195.9738137437263
 30
0.0
 40
1.6
  0
CIRCLE
  5
968
330
1F
100
AcDbEntity
  8
0
100
AcDbCircle
 10
3.999997808099406
 20
195.9738137437263
 30
0.0
 40
2.0
  0
LINE
  5
969
330
1F
100
AcDbEntity
  8
0
100
AcDbLine
 10
11.09999780809533
 20
197.9738137437264
 30
0.0
 11
11.09999780809435
 21
183.1738137437262
 31
0.0
  0
LINE
  5
96A
330
1F
100
AcDbEntity
  8
0
100
AcDbLine
 10
7.999997808095371
 20
197.9738137437264
 30
0.0
 11
7.999997808094349
 21
181.4738137437263
 31
0.0
  0
LINE
  5
96B
330
1F
100
AcDbEntity
  8
0
100
AcDbLine
 10
10.99999780809536
 20
197.9738137437264
 30
0.0
 11
10.99999780809433
 21
182.9738137437264
 31
0.0
  0
LINE
  5
96C
330
1F
100
AcDbEntity
  8
0
100
AcDbLine
 10
8.999997808095372
 20
197.9738137437264
 30
0.0
 11
8.999997808094347
 21
180.9738137437264
 31
0.0
  0
LINE
  5
96D
330
1F
100
AcDbEntity
  8
0
100
AcDbLine
 10
7.999997808095371
 20
197.9738137437264
 30
0.0
 11
7.999997808094349
 21
181.0785574300034
 31
0.0
  0
LINE
  5
96E
330
1F
100
AcDbEntity
  8
0
100
AcDbLine
 10
8.999997808094347
 20
181.4738137437263
 30
0.0
 11
7.999997808094349
 21
181.4738137437261
 31
0.0
  0
CIRCLE
  5
96F
330
1F
100
AcDbEntity
  8
0
100
AcDbCircle
 10
18.09999780809839
 20
188.8438137437263
 30
0.0
 40
1.5
  0
CIRCLE
  5
970
330
1F
100
AcDbEntity
  8
0
100
AcDbCircle
 10
18.09999780809839
 20
188.8438137437263
 30
0.0
 40
1.0
  0
ARC
  5
971
330
1F
100
AcDbEntity
  8
0
100
AcDbCircle
 10
1.149997808099384
 20
203.8238137437263
 30
0.0
 40
0.15
100
AcDbArc
 50
90.0
 51
270.0
  0
CIRCLE
  5
972
330
1F
100
AcDbEntity
  8
0
100
AcDbCircle
 10
2.499997808099408
 20
203.9738137437264
 30
0.0
 40
1.85
  0
CIRCLE
  5
973
330
1F
100
AcDbEntity
  8
0
100
AcDbCircle
 10
2.499997808099408
 20
203.9738137437264
 30
0.0
 40
2.149999999999999
  0
ARC
  5
974
330
1F
100
AcDbEntity
  8
0
100
AcDbCircle
 10
3.44999780809843
 20
203.1738137437264
 30
0.0
 40
0.15
100
AcDbArc
 50
270.0
 51
90.0
  0
ARC
  5
975
330
1F
100
AcDbEntity
  8
0
100
AcDbCircle
 10
1.549997808099418
 20
203.1738137437264
 30
0.0
 40
0.15
100
AcDbArc
 50
90.0
 51
270.0
  0
ARC
  5
976
330
1F
100
AcDbEntity
  8
0
100
AcDbCircle
 10
3.049997808098396
 20
202.5238137437264
 30
0.0
 40
0.15
100
AcDbArc
 50
270.0
 51
90.0
  0
ARC
  5
977
330
1F
100
AcDbEntity
  8
0
100
AcDbCircle
 10
1.949997808099394
 20
202.5238137437264
 30
0.0
 40
0.15
100
AcDbArc
 50
90.0
 51
270.0
  0
LINE
  5
978
330
1F
100
AcDbEntity
  8
0
100
AcDbLine
 10
1.949997808099394
 20
202.3738137437263
 30
0.0
 11
3.049997808098396
 21
202.3738137437263
 31
0.0
  0
LINE
  5
979
330
1F
100
AcDbEntity
  8
0
100
AcDbLine
 10
1.949997808099394
 20
202.6738137437262
 30
0.0
 11
3.049997808098396
 21
202.6738137437262
 31
0.0
  0
LINE
  5
97A
330
1F
100
AcDbEntity
  8
0
100
AcDbLine
 10
1.549997808099418
 20
203.0238137437264
 30
0.0
 11
3.44999780809843
 21
203.0238137437264
 31
0.0
  0
LINE
  5
97B
330
1F
100
AcDbEntity
  8
0
100
AcDbLine
 10
1.549997808099418
 20
203.3238137437263
 30
0.0
 11
3.44999780809843
 21
203.3238137437263
 31
0.0
  0
LINE
  5
97C
330
1F
100
AcDbEntity
  8
0
100
AcDbLine
 10
2.649997808098419
 20
203.9738137437264
 30
0.0
 11
3.849997808099373
 21
203.9738137437264
 31
0.0
  0
LINE
  5
97D
330
1F
100
AcDbEntity
  8
0
100
AcDbLine
 10
1.149997808099384
 20
203.9738137437264
 30
0.0
 11
2.349997808099373
 21
203.9738137437264
 31
0.0
  0
ARC
  5
97E
330
1F
100
AcDbEntity
  8
0
100
AcDbCircle
 10
3.849997808099373
 20
203.8238137437263
 30
0.0
 40
0.15
100
AcDbArc
 50
270.0
 51
90.0
  0
ARC
  5
97F
330
1F
100
AcDbEntity
  8
0
100
AcDbCircle
 10
2.499997808099408
 20
205.3238137437263
 30
0.0
 40
0.15
100
AcDbArc
 50
0.0
 51
180.0
  0
LINE
  5
980
330
1F
100
AcDbEntity
  8
0
100
AcDbLine
 10
2.649997808098419
 20
203.9738137437264
 30
0.0
 11
2.649997808098419
 21
205.3238137437263
 31
0.0
  0
LINE
  5
981
330
1F
100
AcDbEntity
  8
0
100
AcDbLine
 10
2.349997808099373
 20
203.9738137437264
 30
0.0
 11
2.349997808099373
 21
205.3238137437263
 31
0.0
  0
LINE
  5
982
330
1F
100
AcDbEntity
  8
0
100
AcDbLine
 10
1.149997808099384
 20
203.6738137437263
 30
0.0
 11
3.849997808099373
 21
203.6738137437263
 31
0.0
  0
LINE
  5
983
330
1F
100
AcDbEntity
  8
0
100
AcDbLine
 10
16.09999780809839
 20
251.7538137437264
 30
0.0
 11
16.09999780809839
 21
248.3338137437263
 31
0.0
  0
LINE
  5
984
330
1F
100
AcDbEntity
  8
0
100
AcDbLine
 10
14.09999780809839
 20
270.4738137437264
 30
0.0
 11
14.09999780809839
 21
229.6138137437262
 31
0.0
  0
LINE
  5
985
330
1F
100
AcDbEntity
  8
0
100
AcDbLine
 10
16.09999780809839
 20
236.5138137437264
 30
0.0
 11
16.09999780809839
 21
235.6138137437262
 31
0.0
  0
LINE
  5
986
330
1F
100
AcDbEntity
  8
0
100
AcDbLine
 10
14.09999780809839
 20
234.8538137437262
 30
0.0
 11
14.09999780809839
 21
229.6138137437262
 31
0.0
  0
CIRCLE
  5
987
330
1F
100
AcDbEntity
  8
0
100
AcDbCircle
 10
18.06361174769534
 20
232.5138137437264
 30
0.0
 40
0.9
  0
LINE
  5
988
330
1F
100
AcDbEntity
  8
0
100
AcDbLine
 10
16.09999780809839
 20
244.1338137437264
 30
0.0
 11
16.09999780809839
 21
240.7138137437263
 31
0.0
  0
CIRCLE
  5
989
330
1F
100
AcDbEntity
  8
0
100
AcDbCircle
 10
18.09999780809839
 20
246.2338137437263
 30
0.0
 40
0.75
  0
CIRCLE
  5
98A
330
1F
100
AcDbEntity
  8
0
100
AcDbCircle
 10
18.09999780809839
 20
246.2338137437263
 30
0.0
 40
1.5
  0
ARC
  5
98B
330
1F
100
AcDbEntity
  8
0
100
AcDbCircle
 10
18.09999780809839
 20
246.2338137437263
 30
0.0
 40
2.9
100
AcDbArc
 50
133.6028189726988
 51
226.3971810273009
  0
CIRCLE
  5
98C
330
1F
100
AcDbEntity
  8
0
100
AcDbCircle
 10
18.09999780809839
 20
238.6138137437263
 30
0.0
 40
0.75
  0
CIRCLE
  5
98D
330
1F
100
AcDbEntity
  8
0
100
AcDbCircle
 10
18.09999780809839
 20
238.6138137437263
 30
0.0
 40
1.5
  0
ARC
  5
98E
330
1F
100
AcDbEntity
  8
0
100
AcDbCircle
 10
18.09999780809839
 20
238.6138137437263
 30
0.0
 40
2.9
100
AcDbArc
 50
133.6028189726988
 51
226.3971810273009
  0
CIRCLE
  5
98F
330
1F
100
AcDbEntity
  8
0
100
AcDbCircle
 10
18.09999780809839
 20
261.4738137437263
 30
0.0
 40
1.5
  0
CIRCLE
  5
990
330
1F
100
AcDbEntity
  8
0
100
AcDbCircle
 10
18.09999780809839
 20
261.4738137437263
 30
0.0
 40
0.75
  0
ARC
  5
991
330
1F
100
AcDbEntity
  8
0
100
AcDbCircle
 10
18.09999780809839
 20
261.4738137437263
 30
0.0
 40
2.9
100
AcDbArc
 50
133.6028189726988
 51
226.3971810273009
  0
CIRCLE
  5
992
330
1F
100
AcDbEntity
  8
0
100
AcDbCircle
 10
18.09999780809839
 20
253.8538137437263
 30
0.0
 40
0.75
  0
CIRCLE
  5
993
330
1F
100
AcDbEntity
  8
0
100
AcDbCircle
 10
18.09999780809839
 20
253.8538137437263
 30
0.0
 40
1.5
  0
LINE
  5
994
330
1F
100
AcDbEntity
  8
0
100
AcDbLine
 10
16.09999780809839
 20
259.3738137437263
 30
0.0
 11
16.09999780809839
 21
255.9538137437263
 31
0.0
  0
ARC
  5
995
330
1F
100
AcDbEntity
  8
0
100
AcDbCircle
 10
18.09999780809839
 20
253.8538137437263
 30
0.0
 40
2.9
100
AcDbArc
 50
133.6028189726988
 51
226.3971810273009
  0
CIRCLE
  5
996
330
1F
100
AcDbEntity
  8
0
100
AcDbCircle
 10
18.09999780809839
 20
267.5738137437263
 30
0.0
 40
0.9
  0
LINE
  5
997
330
1F
100
AcDbEntity
  8
0
100
AcDbLine
 10
14.09999780809839
 20
265.2338137437262
 30
0.0
 11
14.09999780809839
 21
270.4738137437264
 31
0.0
  0
LINE
  5
998
330
1F
100
AcDbEntity
  8
0
100
AcDbLine
 10
16.09999780809839
 20
264.1138137437263
 30
0.0
 11
16.09999780809839
 21
263.5738137437263
 31
0.0
  0
LINE
  5
999
330
1F
100
AcDbEntity
  8
0
100
AcDbLine
 10
15.5999978080984
 20
298.1338137437262
 30
0.0
 11
15.5999978080984
 21
301.1338137437263
 31
0.0
  0
LINE
  5
99A
330
1F
100
AcDbEntity
  8
0
100
AcDbLine
 10
14.09999780809839
 20
301.1338137437263
 30
0.0
 11
14.09999780809839
 21
298.1338137437262
 31
0.0
  0
LINE
  5
99B
330
1F
100
AcDbEntity
  8
0
100
AcDbLine
 10
15.5999978080984
 20
301.1338137437263
 30
0.0
 11
15.5999978080984
 21
276.9738137437264
 31
0.0
  0
LINE
  5
99C
330
1F
100
AcDbEntity
  8
0
100
AcDbLine
 10
16.59999780809838
 20
301.1338137437263
 30
0.0
 11
16.59999780809838
 21
276.9738137437264
 31
0.0
  0
LINE
  5
99D
330
1F
100
AcDbEntity
  8
0
100
AcDbLine
 10
12.99999793001637
 20
302.1738135843821
 30
0.0
 11
12.99999793001637
 21
275.9738135843821
 31
0.0
  0
LINE
  5
99E
330
1F
100
AcDbEntity
  8
0
100
AcDbLine
 10
14.09999780809935
 20
275.9738135843821
 30
0.0
 11
14.09999780809935
 21
302.1738135843821
 31
0.0
  0
LINE
  5
99F
330
1F
100
AcDbEntity
  8
0
100
AcDbLine
 10
15.5999978080984
 20
283.4738137437261
 30
0.0
 11
15.5999978080984
 21
284.4738137437261
 31
0.0
  0
LINE
  5
9A0
330
1F
100
AcDbEntity
  8
0
100
AcDbLine
 10
15.5999978080984
 20
284.4738137437261
 30
0.0
 11
14.09999780809935
 21
284.4738137437261
 31
0.0
  0
LINE
  5
9A1
330
1F
100
AcDbEntity
  8
0
100
AcDbLine
 10
15.5999978080984
 20
279.9738137437263
 30
0.0
 11
14.09999780809839
 21
279.9738137437263
 31
0.0
  0
LINE
  5
9A2
330
1F
100
AcDbEntity
  8
0
100
AcDbLine
 10
14.09999780809935
 20
283.4738137437261
 30
0.0
 11
15.5999978080984
 21
283.4738137437261
 31
0.0
  0
LINE
  5
9A3
330
1F
100
AcDbEntity
  8
0
100
AcDbLine
 10
19.59999780809839
 20
284.9738137437264
 30
0.0
 11
19.59999780809839
 21
282.9738137437264
 31
0.0
  0
LINE
  5
9A4
330
1F
100
AcDbEntity
  8
0
100
AcDbLine
 10
15.5999978080984
 20
276.9738137437264
 30
0.0
 11
15.5999978080984
 21
277.9738137437263
 31
0.0
  0
LINE
  5
9A5
330
1F
100
AcDbEntity
  8
0
100
AcDbLine
 10
14.09999780809839
 20
276.9738137437264
 30
0.0
 11
15.5999978080984
 21
276.9738137437264
 31
0.0
  0
LINE
  5
9A6
330
1F
100
AcDbEntity
  8
0
100
AcDbLine
 10
15.5999978080984
 20
276.9738137437264
 30
0.0
 11
15.5999978080984
 21
279.9738137437263
 31
0.0
  0
LINE
  5
9A7
330
1F
100
AcDbEntity
  8
0
100
AcDbLine
 10
14.09999780809839
 20
279.9738137437263
 30
0.0
 11
14.09999780809839
 21
276.9738137437264
 31
0.0
  0
LINE
  5
9A8
330
1F
100
AcDbEntity
  8
0
100
AcDbLine
 10
14.09999780809839
 20
298.1338137437262
 30
0.0
 11
15.5999978080984
 21
298.1338137437262
 31
0.0
  0
LINE
  5
9A9
330
1F
100
AcDbEntity
  8
0
100
AcDbLine
 10
15.5999978080984
 20
293.6338137437262
 30
0.0
 11
15.5999978080984
 21
294.6338137437263
 31
0.0
  0
LINE
  5
9AA
330
1F
100
AcDbEntity
  8
0
100
AcDbLine
 10
19.59999780809839
 20
295.1338137437263
 30
0.0
 11
19.59999780809839
 21
293.1338137437263
 31
0.0
  0
LINE
  5
9AB
330
1F
100
AcDbEntity
  8
0
100
AcDbLine
 10
15.5999978080984
 20
294.6338137437263
 30
0.0
 11
14.09999780809935
 21
294.6338137437263
 31
0.0
  0
LINE
  5
9AC
330
1F
100
AcDbEntity
  8
0
100
AcDbLine
 10
14.09999780809935
 20
293.6338137437262
 30
0.0
 11
15.5999978080984
 21
293.6338137437262
 31
0.0
  0
LINE
  5
9AD
330
1F
100
AcDbEntity
  8
0
100
AcDbLine
 10
15.5999978080984
 20
288.5538137437263
 30
0.0
 11
15.5999978080984
 21
289.5538137437263
 31
0.0
  0
LINE
  5
9AE
330
1F
100
AcDbEntity
  8
0
100
AcDbLine
 10
19.59999780809839
 20
290.0538137437262
 30
0.0
 11
19.59999780809839
 21
288.0538137437262
 31
0.0
  0
LINE
  5
9AF
330
1F
100
AcDbEntity
  8
0
100
AcDbLine
 10
15.5999978080984
 20
289.5538137437263
 30
0.0
 11
14.09999780809935
 21
289.5538137437263
 31
0.0
  0
LINE
  5
9B0
330
1F
100
AcDbEntity
  8
0
100
AcDbLine
 10
14.09999780809935
 20
288.5538137437263
 30
0.0
 11
15.5999978080984
 21
288.5538137437263
 31
0.0
  0
LINE
  5
9B1
330
1F
100
AcDbEntity
  8
0
100
AcDbLine
 10
14.09999780809839
 20
322.4138137437263
 30
0.0
 11
14.09999780809839
 21
307.0138137437262
 31
0.0
  0
CIRCLE
  5
9B2
330
1F
100
AcDbEntity
  8
0
100
AcDbCircle
 10
17.59999780809839
 20
309.4638137437264
 30
0.0
 40
1.0
  0
LINE
  5
9B3
330
1F
100
AcDbEntity
  8
0
100
AcDbLine
 10
15.5999978080984
 20
301.1338137437263
 30
0.0
 11
15.5999978080984
 21
300.1338137437262
 31
0.0
  0
LINE
  5
9B4
330
1F
100
AcDbEntity
  8
0
100
AcDbLine
 10
15.5999978080984
 20
301.1338137437263
 30
0.0
 11
16.59999780809838
 21
301.1338137437263
 31
0.0
  0
LINE
  5
9B5
330
1F
100
AcDbEntity
  8
0
100
AcDbLine
 10
15.5999978080984
 20
301.1338137437263
 30
0.0
 11
14.09999780809839
 21
301.1338137437263
 31
0.0
  0
CIRCLE
  5
9B6
330
1F
100
AcDbEntity
  8
0
100
AcDbCircle
 10
17.59999780809839
 20
319.9638137437263
 30
0.0
 40
1.0
  0
CIRCLE
  5
9B7
330
1F
100
AcDbEntity
  8
0
100
AcDbCircle
 10
17.59999780809839
 20
312.9638137437264
 30
0.0
 40
1.0
  0
CIRCLE
  5
9B8
330
1F
100
AcDbEntity
  8
0
100
AcDbCircle
 10
17.59999780809839
 20
316.4638137437264
 30
0.0
 40
1.0
  0
LINE
  5
9B9
330
1F
100
AcDbEntity
  8
0
100
AcDbLine
 10
47.4499978080994
 20
222.7738137437264
 30
0.0
 11
47.4499978080994
 21
225.1738137437274
 31
0.0
  0
LINE
  5
9BA
330
1F
100
AcDbEntity
  8
0
100
AcDbLine
 10
49.09999780809935
 20
229.8738137437273
 30
0.0
 11
49.09999780809935
 21
222.7738137437264
 31
0.0
  0
LINE
  5
9BB
330
1F
100
AcDbEntity
  8
0
100
AcDbLine
 10
41.14999780809936
 20
225.1738137437274
 30
0.0
 11
41.14999780809936
 21
222.7738137437264
 31
0.0
  0
LINE
  5
9BC
330
1F
100
AcDbEntity
  8
0
100
AcDbLine
 10
48.79999780809939
 20
192.9738137437263
 30
0.0
 11
48.79999780809939
 21
230.1738137437264
 31
0.0
  0
LINE
  5
9BD
330
1F
100
AcDbEntity
  8
0
100
AcDbLine
 10
39.69999780809938
 20
229.1738137437262
 30
0.0
 11
39.69999780809938
 21
193.9738137437263
 31
0.0
  0
LINE
  5
9BE
330
1F
100
AcDbEntity
  8
0
100
AcDbLine
 10
22.69999780809841
 20
185.9738137437263
 30
0.0
 11
22.69999780809841
 21
226.6138137437263
 31
0.0
  0
LINE
  5
9BF
330
1F
100
AcDbEntity
  8
0
100
AcDbLine
 10
38.59999793001634
 20
230.6738135843823
 30
0.0
 11
38.59999793001634
 21
185.1738135843824
 31
0.0
  0
LINE
  5
9C0
330
1F
100
AcDbEntity
  8
0
100
AcDbLine
 10
49.99999793001735
 20
230.6738135843823
 30
0.0
 11
49.99999793001735
 21
185.1738135843824
 31
0.0
  0
LINE
  5
9C1
330
1F
100
AcDbEntity
  8
0
100
AcDbLine
 10
23.59999793001632
 20
239.5738135843824
 30
0.0
 11
23.59999793001632
 21
185.1738135843824
 31
0.0
  0
LINE
  5
9C2
330
1F
100
AcDbEntity
  8
0
100
AcDbLine
 10
49.09999780809935
 20
230.6738135843823
 30
0.0
 11
49.09999780809935
 21
185.1738135843824
 31
0.0
  0
LINE
  5
9C4
330
1F
100
AcDbEntity
  8
0
100
AcDbLine
 10
34.4999978080994
 20
175.9738137437263
 30
0.0
 11
34.4999978080994
 21
170.9738137437263
 31
0.0
  0
LINE
  5
9C6
330
1F
100
AcDbEntity
  8
0
100
AcDbLine
 10
31.09999780809937
 20
175.9738137437263
 30
0.0
 11
31.09999780809937
 21
170.9738137437263
 31
0.0
  0
LINE
  5
9C7
330
1F
100
AcDbEntity
  8
0
100
AcDbLine
 10
26.89999780809937
 20
175.9738137437263
 30
0.0
 11
26.89999780809937
 21
170.9738137437263
 31
0.0
  0
LINE
  5
9C8
330
1F
100
AcDbEntity
  8
0
100
AcDbLine
 10
23.49999780809939
 20
175.9738137437263
 30
0.0
 11
23.49999780809939
 21
170.9738137437263
 31
0.0
  0
ARC
  5
9CE
330
1F
100
AcDbEntity
  8
0
100
AcDbCircle
 10
56.9999978080994
 20
171.9738137437263
 30
0.0
 40
1.0
100
AcDbArc
 50
270.0
 51
0.0
  0
LINE
  5
9D0
330
1F
100
AcDbEntity
  8
0
100
AcDbLine
 10
31.09999780809937
 20
170.9738137437263
 30
0.0
 11
56.9999978080994
 21
170.9738137437263
 31
0.0
  0
LINE
  5
9D1
330
1F
100
AcDbEntity
  8
0
100
AcDbLine
 10
43.6676358983044
 20
221.6056653963044
 30
0.0
 11
45.96763589830444
 21
220.9893822537133
 31
0.0
  0
LINE
  5
9D2
330
1F
100
AcDbEntity
  8
0
100
AcDbLine
 10
41.14999780809936
 20
222.7738137437264
 30
0.0
 11
47.4499978080994
 21
222.7738137437264
 31
0.0
  0
LINE
  5
9D3
330
1F
100
AcDbEntity
  8
0
100
AcDbLine
 10
45.89999780809936
 20
220.1738137437263
 30
0.0
 11
42.69999780809938
 21
220.1738137437274
 31
0.0
  0
LINE
  5
9D4
330
1F
100
AcDbEntity
  8
0
100
AcDbLine
 10
43.6676358983044
 20
201.5419620911482
 30
0.0
 11
45.96763589830444
 21
202.1582452337393
 31
0.0
  0
LINE
  5
9D5
330
1F
100
AcDbEntity
  8
0
100
AcDbLine
 10
42.69999780809938
 20
202.9738137437262
 30
0.0
 11
45.89999780809936
 21
202.9738137437262
 31
0.0
  0
LINE
  5
9D6
330
1F
100
AcDbEntity
  8
0
100
AcDbLine
 10
41.14999780809936
 20
197.9738137437264
 30
0.0
 11
47.4499978080994
 21
197.9738137437264
 31
0.0
  0
LINE
  5
9D7
330
1F
100
AcDbEntity
  8
0
100
AcDbLine
 10
41.14999780809936
 20
198.4738137437263
 30
0.0
 11
47.4499978080994
 21
198.4738137437263
 31
0.0
  0
LINE
  5
9D8
330
1F
100
AcDbEntity
  8
0
100
AcDbLine
 10
41.14999780809936
 20
200.3738137437263
 30
0.0
 11
47.4499978080994
 21
200.3738137437263
 31
0.0
  0
LINE
  5
9D9
330
1F
100
AcDbEntity
  8
0
100
AcDbLine
 10
39.69999780809938
 20
193.9738137437263
 30
0.0
 11
48.79999780809939
 21
193.9738137437263
 31
0.0
  0
LINE
  5
9DA
330
1F
100
AcDbEntity
  8
0
100
AcDbLine
 10
40.49999780809939
 20
192.9738137437263
 30
0.0
 11
48.79999780809939
 21
192.9738137437263
 31
0.0
  0
LINE
  5
9DB
330
1F
100
AcDbEntity
  8
0
100
AcDbLine
 10
42.59999780809841
 20
185.9738137437263
 30
0.0
 11
49.0999978080984
 21
185.9738137437263
 31
0.0
  0
LINE
  5
9DC
330
1F
100
AcDbEntity
  8
0
100
AcDbLine
 10
49.0999978080984
 20
191.4738137437264
 30
0.0
 11
42.59999780809841
 21
191.4738137437264
 31
0.0
  0
LINE
  5
9DD
330
1F
100
AcDbEntity
  8
0
100
AcDbLine
 10
49.99999793001735
 20
185.1738135843824
 30
0.0
 11
38.59999793001634
 21
185.1738135843824
 31
0.0
  0
CIRCLE
  5
9DE
330
1F
100
AcDbEntity
  8
0
100
AcDbCircle
 10
44.29999780809938
 20
195.9438137437263
 30
0.0
 40
1.399999999999999
  0
LINE
  5
9DF
330
1F
100
AcDbEntity
  8
0
100
AcDbLine
 10
41.14999780809936
 20
200.3738137437263
 30
0.0
 11
41.14999780809936
 21
197.9738137437264
 31
0.0
  0
ARC
  5
9E0
330
1F
100
AcDbEntity
  8
0
100
AcDbCircle
 10
28.9999978080994
 20
175.9738137437263
 30
0.0
 40
5.5
100
AcDbArc
 50
0.0
 51
65.38002267134493
  0
ARC
  5
9E1
330
1F
100
AcDbEntity
  8
0
100
AcDbCircle
 10
28.9999978080994
 20
175.9738137437263
 30
0.0
 40
5.5
100
AcDbArc
 50
114.6199773286548
 51
180.0
  0
ARC
  5
9E2
330
1F
100
AcDbEntity
  8
0
100
AcDbCircle
 10
28.9999978080994
 20
175.9738137437263
 30
0.0
 40
2.1
100
AcDbArc
 50
0.0
 51
180.0
  0
LINE
  5
9E3
330
1F
100
AcDbEntity
  8
0
100
AcDbLine
 10
42.59999780809841
 20
191.4738137437264
 30
0.0
 11
42.59999780809841
 21
185.9738137437263
 31
0.0
  0
LINE
  5
9E4
330
1F
100
AcDbEntity
  8
0
100
AcDbLine
 10
43.5999978080984
 20
185.9738137437263
 30
0.0
 11
43.5999978080984
 21
191.4738137437264
 31
0.0
  0
LINE
  5
9E6
330
1F
100
AcDbEntity
  8
0
100
AcDbLine
 10
42.59999780809841
 20
185.9738137437263
 30
0.0
 11
43.5999978080984
 21
185.9738137437263
 31
0.0
  0
LINE
  5
9E7
330
1F
100
AcDbEntity
  8
0
100
AcDbLine
 10
39.9999978080994
 20
193.9738137437263
 30
0.0
 11
39.9999978080994
 21
193.4738137437263
 31
0.0
  0
ARC
  5
9E8
330
1F
100
AcDbEntity
  8
0
100
AcDbCircle
 10
40.49999780809939
 20
193.4738137437263
 30
0.0
 40
0.5
100
AcDbArc
 50
180.0
 51
270.0
  0
LINE
  5
9E9
330
1F
100
AcDbEntity
  8
0
100
AcDbLine
 10
43.5999978080984
 20
189.4738137437263
 30
0.0
 11
42.59999780809841
 21
189.4738137437263
 31
0.0
  0
LINE
  5
9EA
330
1F
100
AcDbEntity
  8
0
100
AcDbLine
 10
42.59999780809841
 20
187.9738137437263
 30
0.0
 11
43.5999978080984
 21
187.9738137437263
 31
0.0
  0
LINE
  5
9EB
330
1F
100
AcDbEntity
  8
0
100
AcDbLine
 10
42.59999780809841
 20
189.4738137437263
 30
0.0
 11
42.59999780809841
 21
187.9738137437263
 31
0.0
  0
LINE
  5
9EC
330
1F
100
AcDbEntity
  8
0
100
AcDbLine
 10
43.5999978080984
 20
187.9738137437263
 30
0.0
 11
43.5999978080984
 21
189.4738137437263
 31
0.0
  0
LINE
  5
9ED
330
1F
100
AcDbEntity
  8
0
100
AcDbLine
 10
42.69999780809938
 20
220.1738137437263
 30
0.0
 11
42.69999780809938
 21
202.9738137437262
 31
0.0
  0
LINE
  5
9EE
330
1F
100
AcDbEntity
  8
0
100
AcDbLine
 10
41.14999780809936
 20
219.6738137437264
 30
0.0
 11
41.14999780809936
 21
203.4738137437264
 31
0.0
  0
ARC
  5
9EF
330
1F
100
AcDbEntity
  8
0
100
AcDbCircle
 10
43.14999780809936
 20
203.4738137437264
 30
0.0
 40
2.0
100
AcDbArc
 50
180.0
 51
285.0000000000012
  0
ARC
  5
9F0
330
1F
100
AcDbEntity
  8
0
100
AcDbCircle
 10
43.14999780809936
 20
219.6738137437264
 30
0.0
 40
2.0
100
AcDbArc
 50
74.99999999999848
 51
180.0
  0
LINE
  5
9F1
330
1F
100
AcDbEntity
  8
0
100
AcDbLine
 10
47.4499978080994
 20
197.9738137437264
 30
0.0
 11
47.4499978080994
 21
200.3738137437263
 31
0.0
  0
LINE
  5
9F2
330
1F
100
AcDbEntity
  8
0
100
AcDbLine
 10
49.09999780809935
 20
200.3738137437263
 30
0.0
 11
49.09999780809935
 21
193.2738137437264
 31
0.0
  0
LINE
  5
9F3
330
1F
100
AcDbEntity
  8
0
100
AcDbLine
 10
49.0999978080984
 20
185.9738137437263
 30
0.0
 11
49.0999978080984
 21
191.4738137437264
 31
0.0
  0
CIRCLE
  5
9F5
330
1F
100
AcDbEntity
  8
0
100
AcDbCircle
 10
45.66999780809839
 20
189.9738137437264
 30
0.0
 40
0.32
  0
CIRCLE
  5
9F6
330
1F
100
AcDbEntity
  8
0
100
AcDbCircle
 10
45.66999780809839
 20
187.4738137437263
 30
0.0
 40
0.32
  0
ARC
  5
9F7
330
1F
100
AcDbEntity
  8
0
100
AcDbCircle
 10
48.79999780809939
 20
193.2738137437264
 30
0.0
 40
0.3
100
AcDbArc
 50
270.0
 51
0.0
  0
LINE
  5
9F8
330
1F
100
AcDbEntity
  8
0
100
AcDbLine
 10
45.89999780809936
 20
202.9738137437262
 30
0.0
 11
45.89999780809936
 21
220.1738137437263
 31
0.0
  0
LINE
  5
9F9
330
1F
100
AcDbEntity
  8
0
100
AcDbLine
 10
47.4499978080994
 20
204.0900968863184
 30
0.0
 11
47.4499978080994
 21
219.0575306011353
 31
0.0
  0
ARC
  5
9FA
330
1F
100
AcDbEntity
  8
0
100
AcDbCircle
 10
45.44999780809938
 20
204.0900968863184
 30
0.0
 40
2.0
100
AcDbArc
 50
285.0000000000012
 51
0.0
  0
LINE
  5
9FB
330
1F
100
AcDbEntity
  8
0
100
AcDbLine
 10
48.79999780809939
 20
203.9538137437272
 30
0.0
 11
49.09999780809935
 21
203.9538137437272
 31
0.0
  0
LINE
  5
9FC
330
1F
100
AcDbEntity
  8
0
100
AcDbLine
 10
48.79999780809939
 20
205.2238137437273
 30
0.0
 11
49.09999780809935
 21
205.2238137437273
 31
0.0
  0
LINE
  5
9FD
330
1F
100
AcDbEntity
  8
0
100
AcDbLine
 10
48.79999780809939
 20
206.4938137437274
 30
0.0
 11
49.09999780809935
 21
206.4938137437274
 31
0.0
  0
LINE
  5
9FE
330
1F
100
AcDbEntity
  8
0
100
AcDbLine
 10
48.79999780809939
 20
207.7638137437272
 30
0.0
 11
49.09999780809935
 21
207.7638137437272
 31
0.0
  0
LINE
  5
9FF
330
1F
100
AcDbEntity
  8
0
100
AcDbLine
 10
48.79999780809939
 20
207.7638137437272
 30
0.0
 11
49.09999780809935
 21
207.7638137437272
 31
0.0
  0
LINE
  5
A00
330
1F
100
AcDbEntity
  8
0
100
AcDbLine
 10
48.79999780809939
 20
209.0338137437274
 30
0.0
 11
49.09999780809935
 21
209.0338137437274
 31
0.0
  0
LINE
  5
A01
330
1F
100
AcDbEntity
  8
0
100
AcDbLine
 10
48.79999780809939
 20
210.3038137437274
 30
0.0
 11
49.09999780809935
 21
210.3038137437274
 31
0.0
  0
LINE
  5
A02
330
1F
100
AcDbEntity
  8
0
100
AcDbLine
 10
48.79999780809939
 20
200.3738137437263
 30
0.0
 11
49.09999780809935
 21
200.3738137437263
 31
0.0
  0
LINE
  5
A03
330
1F
100
AcDbEntity
  8
0
100
AcDbLine
 10
48.79999780809939
 20
222.7738137437264
 30
0.0
 11
49.09999780809935
 21
222.7738137437264
 31
0.0
  0
LINE
  5
A04
330
1F
100
AcDbEntity
  8
0
100
AcDbLine
 10
48.79999780809939
 20
217.9238137437274
 30
0.0
 11
49.09999780809935
 21
217.9238137437274
 31
0.0
  0
LINE
  5
A05
330
1F
100
AcDbEntity
  8
0
100
AcDbLine
 10
48.79999780809939
 20
219.1938137437263
 30
0.0
 11
49.09999780809935
 21
219.1938137437263
 31
0.0
  0
LINE
  5
A06
330
1F
100
AcDbEntity
  8
0
100
AcDbLine
 10
48.79999780809939
 20
215.3838137437273
 30
0.0
 11
49.09999780809935
 21
215.3838137437273
 31
0.0
  0
LINE
  5
A07
330
1F
100
AcDbEntity
  8
0
100
AcDbLine
 10
48.79999780809939
 20
216.6538137437273
 30
0.0
 11
49.09999780809935
 21
216.6538137437274
 31
0.0
  0
LINE
  5
A08
330
1F
100
AcDbEntity
  8
0
100
AcDbLine
 10
48.79999780809939
 20
217.9238137437274
 30
0.0
 11
49.09999780809935
 21
217.9238137437274
 31
0.0
  0
LINE
  5
A09
330
1F
100
AcDbEntity
  8
0
100
AcDbLine
 10
48.79999780809939
 20
212.8438137437273
 30
0.0
 11
49.09999780809935
 21
212.8438137437273
 31
0.0
  0
LINE
  5
A0A
330
1F
100
AcDbEntity
  8
0
100
AcDbLine
 10
48.79999780809939
 20
214.1138137437272
 30
0.0
 11
49.09999780809935
 21
214.1138137437272
 31
0.0
  0
LINE
  5
A0B
330
1F
100
AcDbEntity
  8
0
100
AcDbLine
 10
48.79999780809939
 20
215.3838137437273
 30
0.0
 11
49.09999780809935
 21
215.3838137437273
 31
0.0
  0
ARC
  5
A0C
330
1F
100
AcDbEntity
  8
0
100
AcDbCircle
 10
45.44999780809938
 20
219.0575306011353
 30
0.0
 40
2.0
100
AcDbArc
 50
0.0
 51
74.99999999999848
  0
LINE
  5
A0D
330
1F
100
AcDbEntity
  8
0
100
AcDbLine
 10
48.79999780809939
 20
211.5738137437273
 30
0.0
 11
49.09999780809935
 21
211.5738137437273
 31
0.0
  0
LINE
  5
A0E
330
1F
100
AcDbEntity
  8
0
100
AcDbLine
 10
46.59999780809839
 20
273.2738130100357
 30
0.0
 11
46.59999780809839
 21
275.2738130100357
 31
0.0
  0
LINE
  5
A0F
330
1F
100
AcDbEntity
  8
0
100
AcDbLine
 10
49.0999978080984
 20
270.0738137437263
 30
0.0
 11
49.0999978080984
 21
276.1738137437263
 31
0.0
  0
LINE
  5
A10
330
1F
100
AcDbEntity
  8
0
100
AcDbLine
 10
46.59999780809839
 20
273.2738130100357
 30
0.0
 11
46.59999780809839
 21
278.2138013589094
 31
0.0
  0
LINE
  5
A11
330
1F
100
AcDbEntity
  8
0
100
AcDbLine
 10
48.8499978080984
 20
270.0738137437263
 30
0.0
 11
48.8499978080984
 21
313.7238137437264
 31
0.0
  0
LINE
  5
A12
330
1F
100
AcDbEntity
  8
0
100
AcDbLine
 10
49.99999793001735
 20
315.6738135843823
 30
0.0
 11
49.99999793001735
 21
269.5738135843821
 31
0.0
  0
LINE
  5
A13
330
1F
100
AcDbEntity
  8
0
100
AcDbLine
 10
49.09999780809935
 20
315.6738135843821
 30
0.0
 11
49.09999780809933
 21
269.5738135843821
 31
0.0
  0
LINE
  5
A14
330
1F
100
AcDbEntity
  8
0
100
AcDbLine
 10
42.59999780809841
 20
278.2138013589094
 30
0.0
 11
42.59999780809841
 21
273.2738130100357
 31
0.0
  0
LINE
  5
A15
330
1F
100
AcDbEntity
  8
0
100
AcDbLine
 10
40.34999780809839
 20
313.7238137437264
 30
0.0
 11
40.34999780809839
 21
270.0738137437263
 31
0.0
  0
LINE
  5
A16
330
1F
100
AcDbEntity
  8
0
100
AcDbLine
 10
38.59999793001634
 20
269.5738135843821
 30
0.0
 11
38.59999793001634
 21
315.6738135843823
 31
0.0
  0
LINE
  5
A17
330
1F
100
AcDbEntity
  8
0
100
AcDbLine
 10
42.59999780809841
 20
273.2738130100357
 30
0.0
 11
46.59999780809839
 21
273.2738130100357
 31
0.0
  0
LINE
  5
A18
330
1F
100
AcDbEntity
  8
0
100
AcDbLine
 10
46.59999780809839
 20
273.2738130100357
 30
0.0
 11
42.59999780809841
 21
273.2738130100357
 31
0.0
  0
LINE
  5
A19
330
1F
100
AcDbEntity
  8
0
100
AcDbLine
 10
40.34999780809839
 20
270.0738137437263
 30
0.0
 11
48.8499978080984
 21
270.0738137437263
 31
0.0
  0
LINE
  5
A1A
330
1F
100
AcDbEntity
  8
0
100
AcDbLine
 10
42.59999780809841
 20
270.0738137437263
 30
0.0
 11
46.59999780809839
 21
270.0738137437263
 31
0.0
  0
LINE
  5
A1B
330
1F
100
AcDbEntity
  8
0
100
AcDbLine
 10
48.14999780809841
 20
266.0738137437263
 30
0.0
 11
42.1499978080984
 21
266.0738137437263
 31
0.0
  0
LINE
  5
A1C
330
1F
100
AcDbEntity
  8
0
100
AcDbLine
 10
49.99999793001735
 20
269.5738135843821
 30
0.0
 11
38.59999793001634
 21
269.5738135843821
 31
0.0
  0
LINE
  5
A1D
330
1F
100
AcDbEntity
  8
0
100
AcDbLine
 10
49.99999793001735
 20
267.5738135843821
 30
0.0
 11
38.59999793001634
 21
267.5738135843821
 31
0.0
  0
LINE
  5
A1E
330
1F
100
AcDbEntity
  8
0
100
AcDbLine
 10
49.0999978080984
 20
267.0738137437262
 30
0.0
 11
41.19999780809842
 21
267.0738137437262
 31
0.0
  0
LINE
  5
A1F
330
1F
100
AcDbEntity
  8
0
100
AcDbLine
 10
42.1499978080984
 20
263.0738137437262
 30
0.0
 11
48.14999780809841
 21
263.0738137437262
 31
0.0
  0
CIRCLE
  5
A20
330
1F
100
AcDbEntity
  8
0
100
AcDbCircle
 10
42.59999780809937
 20
254.5738137437262
 30
0.0
 40
5.5
  0
LINE
  5
A21
330
1F
100
AcDbEntity
  8
0
100
AcDbLine
 10
49.09999780809935
 20
261.5738137437263
 30
0.0
 11
36.29999780809839
 21
261.5738137437263
 31
0.0
  0
LINE
  5
A22
330
1F
100
AcDbEntity
  8
0
100
AcDbLine
 10
49.09999780809935
 20
247.5738137437263
 30
0.0
 11
36.29999780809839
 21
247.5738137437263
 31
0.0
  0
LINE
  5
A23
330
1F
100
AcDbEntity
  8
0
100
AcDbLine
 10
41.19999780809842
 20
262.0738137437263
 30
0.0
 11
49.0999978080984
 21
262.0738137437263
 31
0.0
  0
LINE
  5
A24
330
1F
100
AcDbEntity
  8
0
100
AcDbLine
 10
49.0999978080984
 20
247.0738137437263
 30
0.0
 11
41.19999780809842
 21
247.0738137437263
 31
0.0
  0
LINE
  5
A25
330
1F
100
AcDbEntity
  8
0
100
AcDbLine
 10
48.14999780809841
 20
246.0738137437262
 30
0.0
 11
42.1499978080984
 21
246.0738137437262
 31
0.0
  0
LINE
  5
A26
330
1F
100
AcDbEntity
  8
0
100
AcDbLine
 10
42.1499978080984
 20
243.0738137437263
 30
0.0
 11
48.14999780809841
 21
243.0738137437263
 31
0.0
  0
CIRCLE
  5
A27
330
1F
100
AcDbEntity
  8
0
100
AcDbCircle
 10
45.5999978080984
 20
235.6238137437263
 30
0.0
 40
1.0
  0
CIRCLE
  5
A28
330
1F
100
AcDbEntity
  8
0
100
AcDbCircle
 10
45.5999978080984
 20
239.1238137437263
 30
0.0
 40
1.0
  0
LINE
  5
A29
330
1F
100
AcDbEntity
  8
0
100
AcDbLine
 10
39.69999780809938
 20
229.1738137437262
 30
0.0
 11
48.79999780809939
 21
229.1738137437262
 31
0.0
  0
LINE
  5
A2A
330
1F
100
AcDbEntity
  8
0
100
AcDbLine
 10
40.49999780809939
 20
230.1738137437264
 30
0.0
 11
48.79999780809939
 21
230.1738137437274
 31
0.0
  0
LINE
  5
A2B
330
1F
100
AcDbEntity
  8
0
100
AcDbLine
 10
41.14999780809936
 20
225.1738137437262
 30
0.0
 11
47.4499978080994
 21
225.1738137437262
 31
0.0
  0
LINE
  5
A2C
330
1F
100
AcDbEntity
  8
0
100
AcDbLine
 10
41.14999780809936
 20
224.6738137437263
 30
0.0
 11
47.4499978080994
 21
224.6738137437263
 31
0.0
  0
CIRCLE
  5
A2D
330
1F
100
AcDbEntity
  8
0
100
AcDbCircle
 10
44.29999780809938
 20
227.2038137437263
 30
0.0
 40
1.399999999999999
  0
LINE
  5
A2E
330
1F
100
AcDbEntity
  8
0
100
AcDbLine
 10
49.99999793001735
 20
232.6738135843823
 30
0.0
 11
38.59999793001634
 21
232.6738135843823
 31
0.0
  0
LINE
  5
A2F
330
1F
100
AcDbEntity
  8
0
100
AcDbLine
 10
49.99999793001735
 20
230.6738135843823
 30
0.0
 11
38.59999793001634
 21
230.6738135843823
 31
0.0
  0
LINE
  5
A30
330
1F
100
AcDbEntity
  8
0
100
AcDbLine
 10
41.84999780809841
 20
233.1738137437262
 30
0.0
 11
49.0999978080984
 21
233.1738137437262
 31
0.0
  0
LINE
  5
A31
330
1F
100
AcDbEntity
  8
0
100
AcDbLine
 10
49.0999978080984
 20
241.5738137437263
 30
0.0
 11
41.84999780809841
 21
241.5738137437263
 31
0.0
  0
LINE
  5
A32
330
1F
100
AcDbEntity
  8
0
100
AcDbLine
 10
41.19999780809842
 20
242.0738137437262
 30
0.0
 11
49.0999978080984
 21
242.0738137437262
 31
0.0
  0
LINE
  5
A33
330
1F
100
AcDbEntity
  8
0
100
AcDbLine
 10
35.19999793001636
 20
263.0738135843823
 30
0.0
 11
35.19999793001636
 21
247.0738135843824
 31
0.0
  0
LINE
  5
A34
330
1F
100
AcDbEntity
  8
0
100
AcDbLine
 10
36.29999780809839
 20
247.5738137437263
 30
0.0
 11
36.29999780809839
 21
261.5738137437263
 31
0.0
  0
LINE
  5
A35
330
1F
100
AcDbEntity
  8
0
100
AcDbLine
 10
21.09999780809839
 20
252.5438137437264
 30
0.0
 11
21.09999780809839
 21
247.5438137437262
 31
0.0
  0
LINE
  5
A36
330
1F
100
AcDbEntity
  8
0
100
AcDbLine
 10
23.59999793001632
 20
256.5738135843823
 30
0.0
 11
23.59999793001632
 21
243.1738135843823
 31
0.0
  0
LINE
  5
A37
330
1F
100
AcDbEntity
  8
0
100
AcDbLine
 10
22.59999780809839
 20
234.6138137437264
 30
0.0
 11
22.59999780809839
 21
265.1138137437262
 31
0.0
  0
LINE
  5
A38
330
1F
100
AcDbEntity
  8
0
100
AcDbLine
 10
21.09999780809839
 20
237.3038137437263
 30
0.0
 11
21.09999780809839
 21
235.6138137437262
 31
0.0
  0
LINE
  5
A39
330
1F
100
AcDbEntity
  8
0
100
AcDbLine
 10
21.09999780809839
 20
234.6138137437264
 30
0.0
 11
22.59999780809839
 21
234.6138137437264
 31
0.0
  0
LINE
  5
A3A
330
1F
100
AcDbEntity
  8
0
100
AcDbLine
 10
21.09999780809839
 20
229.6138137437262
 30
0.0
 11
21.09999780809839
 21
234.8538137437262
 31
0.0
  0
LINE
  5
A3B
330
1F
100
AcDbEntity
  8
0
100
AcDbLine
 10
21.09999780809839
 20
229.6138137437262
 30
0.0
 11
21.09999780809839
 21
234.6138137437264
 31
0.0
  0
LINE
  5
A3C
330
1F
100
AcDbEntity
  8
0
100
AcDbLine
 10
20.29999780809839
 20
247.5438137437262
 30
0.0
 11
21.09999780809839
 21
247.5438137437262
 31
0.0
  0
LINE
  5
A3D
330
1F
100
AcDbEntity
  8
0
100
AcDbLine
 10
23.59999793001632
 20
243.1738135843823
 30
0.0
 11
25.19999793001636
 21
243.1738135843823
 31
0.0
  0
LINE
  5
A3E
330
1F
100
AcDbEntity
  8
0
100
AcDbLine
 10
24.29999780809839
 20
242.1638137437263
 30
0.0
 11
24.29999780809839
 21
240.5638137437263
 31
0.0
  0
LINE
  5
A3F
330
1F
100
AcDbEntity
  8
0
100
AcDbLine
 10
24.29999780809839
 20
240.5638137437263
 30
0.0
 11
22.59999780809839
 21
240.5638137437263
 31
0.0
  0
LINE
  5
A40
330
1F
100
AcDbEntity
  8
0
100
AcDbLine
 10
22.59999780809839
 20
242.1638137437263
 30
0.0
 11
24.29999780809839
 21
242.1638137437263
 31
0.0
  0
LINE
  5
A41
330
1F
100
AcDbEntity
  8
0
100
AcDbLine
 10
21.09999780809839
 20
244.9238137437264
 30
0.0
 11
21.09999780809839
 21
239.9238137437262
 31
0.0
  0
LINE
  5
A42
330
1F
100
AcDbEntity
  8
0
100
AcDbLine
 10
20.29999780809839
 20
244.9238137437264
 30
0.0
 11
21.09999780809839
 21
244.9238137437264
 31
0.0
  0
LINE
  5
A43
330
1F
100
AcDbEntity
  8
0
100
AcDbLine
 10
20.29999780809839
 20
239.9238137437262
 30
0.0
 11
21.09999780809839
 21
239.9238137437262
 31
0.0
  0
LINE
  5
A44
330
1F
100
AcDbEntity
  8
0
100
AcDbLine
 10
23.59999793001632
 20
239.5738135843824
 30
0.0
 11
25.19999793001636
 21
239.5738135843824
 31
0.0
  0
LINE
  5
A45
330
1F
100
AcDbEntity
  8
0
100
AcDbLine
 10
25.19999793001636
 20
243.1738135843823
 30
0.0
 11
25.19999793001636
 21
239.5738135843824
 31
0.0
  0
LINE
  5
A46
330
1F
100
AcDbEntity
  8
0
100
AcDbLine
 10
20.29999780809839
 20
247.5438137437262
 30
0.0
 11
20.29999780809839
 21
244.9238137437264
 31
0.0
  0
LINE
  5
A47
330
1F
100
AcDbEntity
  8
0
100
AcDbLine
 10
20.29999780809839
 20
237.3038137437263
 30
0.0
 11
21.09999780809839
 21
237.3038137437263
 31
0.0
  0
LINE
  5
A48
330
1F
100
AcDbEntity
  8
0
100
AcDbLine
 10
20.29999780809839
 20
239.9238137437262
 30
0.0
 11
20.29999780809839
 21
237.3038137437263
 31
0.0
  0
LINE
  5
A49
330
1F
100
AcDbEntity
  8
0
100
AcDbLine
 10
41.84999780809841
 20
241.5738137437263
 30
0.0
 11
41.84999780809841
 21
233.1738137437262
 31
0.0
  0
LINE
  5
A4A
330
1F
100
AcDbEntity
  8
0
100
AcDbLine
 10
38.59999793001634
 20
247.0738135843824
 30
0.0
 11
38.59999793001634
 21
232.6738135843823
 31
0.0
  0
LINE
  5
A4B
330
1F
100
AcDbEntity
  8
0
100
AcDbLine
 10
39.9999978080994
 20
229.6738137437262
 30
0.0
 11
39.9999978080994
 21
229.1738137437262
 31
0.0
  0
ARC
  5
A4C
330
1F
100
AcDbEntity
  8
0
100
AcDbCircle
 10
40.49999780809939
 20
229.6738137437262
 30
0.0
 40
0.5
100
AcDbArc
 50
90.0
 51
180.0
  0
LINE
  5
A4D
330
1F
100
AcDbEntity
  8
0
100
AcDbLine
 10
38.59999793001634
 20
247.0738135843824
 30
0.0
 11
35.19999793001636
 21
247.0738135843824
 31
0.0
  0
LINE
  5
A4E
330
1F
100
AcDbEntity
  8
0
100
AcDbLine
 10
44.14999780809842
 20
243.0738137437263
 30
0.0
 11
44.14999780809842
 21
246.0738137437262
 31
0.0
  0
LINE
  5
A4F
330
1F
100
AcDbEntity
  8
0
100
AcDbLine
 10
44.94999780809842
 20
243.0738137437263
 30
0.0
 11
44.94999780809842
 21
246.0738137437262
 31
0.0
  0
LINE
  5
A50
330
1F
100
AcDbEntity
  8
0
100
AcDbLine
 10
43.14999780809841
 20
246.0738137437262
 30
0.0
 11
43.14999780809841
 21
243.0738137437263
 31
0.0
  0
LINE
  5
A51
330
1F
100
AcDbEntity
  8
0
100
AcDbLine
 10
42.1499978080984
 20
246.0738137437262
 30
0.0
 11
42.1499978080984
 21
243.0738137437263
 31
0.0
  0
LINE
  5
A52
330
1F
100
AcDbEntity
  8
0
100
AcDbLine
 10
44.14999780809842
 20
246.0738137437262
 30
0.0
 11
43.14999780809841
 21
246.0738137437262
 31
0.0
  0
LINE
  5
A53
330
1F
100
AcDbEntity
  8
0
100
AcDbLine
 10
43.14999780809841
 20
243.0738137437263
 30
0.0
 11
44.14999780809842
 21
243.0738137437263
 31
0.0
  0
LINE
  5
A54
330
1F
100
AcDbEntity
  8
0
100
AcDbLine
 10
41.19999780809842
 20
247.0738137437263
 30
0.0
 11
41.19999780809842
 21
242.0738137437262
 31
0.0
  0
LINE
  5
A55
330
1F
100
AcDbEntity
  8
0
100
AcDbLine
 10
20.29999780809839
 20
262.7838137437263
 30
0.0
 11
20.29999780809839
 21
260.1638137437264
 31
0.0
  0
LINE
  5
A56
330
1F
100
AcDbEntity
  8
0
100
AcDbLine
 10
23.59999793001632
 20
271.4738135843822
 30
0.0
 11
23.59999793001632
 21
260.1738135843823
 31
0.0
  0
LINE
  5
A57
330
1F
100
AcDbEntity
  8
0
100
AcDbLine
 10
23.59999793001632
 20
260.1738135843823
 30
0.0
 11
25.19999793001636
 21
260.1738135843823
 31
0.0
  0
LINE
  5
A58
330
1F
100
AcDbEntity
  8
0
100
AcDbLine
 10
24.29999780809839
 20
259.1638137437263
 30
0.0
 11
22.59999780809839
 21
259.1638137437263
 31
0.0
  0
LINE
  5
A59
330
1F
100
AcDbEntity
  8
0
100
AcDbLine
 10
20.29999780809839
 20
260.1638137437264
 30
0.0
 11
21.09999780809839
 21
260.1638137437264
 31
0.0
  0
LINE
  5
A5A
330
1F
100
AcDbEntity
  8
0
100
AcDbLine
 10
23.59999793001632
 20
256.5738135843823
 30
0.0
 11
25.19999793001636
 21
256.5738135843823
 31
0.0
  0
LINE
  5
A5B
330
1F
100
AcDbEntity
  8
0
100
AcDbLine
 10
24.29999780809839
 20
257.5638137437262
 30
0.0
 11
22.59999780809839
 21
257.5638137437262
 31
0.0
  0
LINE
  5
A5C
330
1F
100
AcDbEntity
  8
0
100
AcDbLine
 10
20.29999780809839
 20
255.1638137437262
 30
0.0
 11
21.09999780809839
 21
255.1638137437262
 31
0.0
  0
LINE
  5
A5D
330
1F
100
AcDbEntity
  8
0
100
AcDbLine
 10
20.29999780809839
 20
252.5438137437264
 30
0.0
 11
21.09999780809839
 21
252.5438137437264
 31
0.0
  0
LINE
  5
A5E
330
1F
100
AcDbEntity
  8
0
100
AcDbLine
 10
20.29999780809839
 20
255.1638137437262
 30
0.0
 11
20.29999780809839
 21
252.5438137437264
 31
0.0
  0
LINE
  5
A5F
330
1F
100
AcDbEntity
  8
0
100
AcDbLine
 10
25.19999793001636
 20
260.1738135843823
 30
0.0
 11
25.19999793001636
 21
256.5738135843823
 31
0.0
  0
LINE
  5
A60
330
1F
100
AcDbEntity
  8
0
100
AcDbLine
 10
24.29999780809839
 20
259.1638137437263
 30
0.0
 11
24.29999780809839
 21
257.5638137437262
 31
0.0
  0
LINE
  5
A61
330
1F
100
AcDbEntity
  8
0
100
AcDbLine
 10
21.09999780809839
 20
260.1638137437264
 30
0.0
 11
21.09999780809839
 21
255.1638137437262
 31
0.0
  0
LINE
  5
A62
330
1F
100
AcDbEntity
  8
0
100
AcDbLine
 10
21.09999780809839
 20
265.4738137437263
 30
0.0
 11
22.59999780809839
 21
265.4738137437263
 31
0.0
  0
LINE
  5
A63
330
1F
100
AcDbEntity
  8
0
100
AcDbLine
 10
21.09999780809839
 20
265.4738137437263
 30
0.0
 11
21.09999780809839
 21
270.4738137437264
 31
0.0
  0
LINE
  5
A64
330
1F
100
AcDbEntity
  8
0
100
AcDbLine
 10
21.09999780809839
 20
270.4738137437264
 30
0.0
 11
21.09999780809839
 21
265.2338137437262
 31
0.0
  0
LINE
  5
A65
330
1F
100
AcDbEntity
  8
0
100
AcDbLine
 10
22.59999780809839
 20
265.4738137437263
 30
0.0
 11
22.59999780809839
 21
265.1138137437262
 31
0.0
  0
LINE
  5
A66
330
1F
100
AcDbEntity
  8
0
100
AcDbLine
 10
21.09999780809839
 20
264.1138137437263
 30
0.0
 11
21.09999780809839
 21
262.7838137437263
 31
0.0
  0
LINE
  5
A67
330
1F
100
AcDbEntity
  8
0
100
AcDbLine
 10
20.29999780809839
 20
262.7838137437263
 30
0.0
 11
21.09999780809839
 21
262.7838137437263
 31
0.0
  0
LINE
  5
A68
330
1F
100
AcDbEntity
  8
0
100
AcDbLine
 10
38.59999793001634
 20
263.0738135843823
 30
0.0
 11
35.19999793001636
 21
263.0738135843823
 31
0.0
  0
LINE
  5
A69
330
1F
100
AcDbEntity
  8
0
100
AcDbLine
 10
38.59999793001634
 20
263.0738135843823
 30
0.0
 11
38.59999793001634
 21
267.5738135843821
 31
0.0
  0
LINE
  5
A6A
330
1F
100
AcDbEntity
  8
0
100
AcDbLine
 10
44.14999780809842
 20
266.0738137437263
 30
0.0
 11
43.14999780809841
 21
266.0738137437263
 31
0.0
  0
LINE
  5
A6B
330
1F
100
AcDbEntity
  8
0
100
AcDbLine
 10
42.59999780809841
 20
273.2738130100357
 30
0.0
 11
42.59999780809841
 21
270.0738137437263
 31
0.0
  0
LINE
  5
A6C
330
1F
100
AcDbEntity
  8
0
100
AcDbLine
 10
43.14999780809841
 20
263.0738137437262
 30
0.0
 11
44.14999780809842
 21
263.0738137437262
 31
0.0
  0
LINE
  5
A6D
330
1F
100
AcDbEntity
  8
0
100
AcDbLine
 10
42.1499978080984
 20
266.0738137437263
 30
0.0
 11
42.1499978080984
 21
263.0738137437262
 31
0.0
  0
LINE
  5
A6E
330
1F
100
AcDbEntity
  8
0
100
AcDbLine
 10
43.14999780809841
 20
266.0738137437263
 30
0.0
 11
43.14999780809841
 21
263.0738137437262
 31
0.0
  0
LINE
  5
A6F
330
1F
100
AcDbEntity
  8
0
100
AcDbLine
 10
44.14999780809842
 20
263.0738137437262
 30
0.0
 11
44.14999780809842
 21
266.0738137437263
 31
0.0
  0
LINE
  5
A70
330
1F
100
AcDbEntity
  8
0
100
AcDbLine
 10
41.19999780809842
 20
267.0738137437262
 30
0.0
 11
41.19999780809842
 21
262.0738137437263
 31
0.0
  0
LINE
  5
A71
330
1F
100
AcDbEntity
  8
0
100
AcDbLine
 10
44.94999780809842
 20
263.0738137437262
 30
0.0
 11
44.94999780809842
 21
266.0738137437263
 31
0.0
  0
LINE
  5
A72
330
1F
100
AcDbEntity
  8
0
100
AcDbLine
 10
49.09999780809935
 20
247.5738137437263
 30
0.0
 11
49.09999780809935
 21
253.4738137437264
 31
0.0
  0
LINE
  5
A73
330
1F
100
AcDbEntity
  8
0
100
AcDbLine
 10
49.99999793001735
 20
267.5738135843821
 30
0.0
 11
49.99999793001735
 21
232.6738135843823
 31
0.0
  0
LINE
  5
A74
330
1F
100
AcDbEntity
  8
0
100
AcDbLine
 10
49.09999780809933
 20
267.5738135843821
 30
0.0
 11
49.09999780809935
 21
232.6738135843823
 31
0.0
  0
LINE
  5
A75
330
1F
100
AcDbEntity
  8
0
100
AcDbLine
 10
49.0999978080984
 20
233.1738137437262
 30
0.0
 11
49.0999978080984
 21
241.5738137437263
 31
0.0
  0
ARC
  5
A76
330
1F
100
AcDbEntity
  8
0
100
AcDbCircle
 10
48.79999780809939
 20
229.8738137437273
 30
0.0
 40
0.3
100
AcDbArc
 50
0.0
 51
90.0
  0
LINE
  5
A77
330
1F
100
AcDbEntity
  8
0
100
AcDbLine
 10
48.14999780809841
 20
243.0738137437263
 30
0.0
 11
48.14999780809841
 21
246.0738137437262
 31
0.0
  0
LINE
  5
A78
330
1F
100
AcDbEntity
  8
0
100
AcDbLine
 10
49.0999978080984
 20
242.0738137437262
 30
0.0
 11
49.0999978080984
 21
247.0738137437263
 31
0.0
  0
LINE
  5
A79
330
1F
100
AcDbEntity
  8
0
100
AcDbLine
 10
49.09999780809935
 20
255.6738137437263
 30
0.0
 11
49.09999780809935
 21
261.5738137437263
 31
0.0
  0
LINE
  5
A7A
330
1F
100
AcDbEntity
  8
0
100
AcDbLine
 10
48.8499978080984
 20
270.0738137437263
 30
0.0
 11
49.0999978080984
 21
270.0738137437263
 31
0.0
  0
LINE
  5
A7B
330
1F
100
AcDbEntity
  8
0
100
AcDbLine
 10
46.59999780809839
 20
270.0738137437263
 30
0.0
 11
46.59999780809839
 21
273.2738130100357
 31
0.0
  0
LINE
  5
A7C
330
1F
100
AcDbEntity
  8
0
100
AcDbLine
 10
49.0999978080984
 20
262.0738137437263
 30
0.0
 11
49.0999978080984
 21
267.0738137437262
 31
0.0
  0
LINE
  5
A7D
330
1F
100
AcDbEntity
  8
0
100
AcDbLine
 10
48.14999780809841
 20
263.0738137437262
 30
0.0
 11
48.14999780809841
 21
266.0738137437263
 31
0.0
  0
LINE
  5
A7E
330
1F
100
AcDbEntity
  8
0
100
AcDbLine
 10
39.69999780809938
 20
321.4738137437263
 30
0.0
 11
48.79999780809939
 21
321.4738137437263
 31
0.0
  0
LINE
  5
A7F
330
1F
100
AcDbEntity
  8
0
100
AcDbLine
 10
40.49999780809939
 20
320.4738137437264
 30
0.0
 11
48.79999780809939
 21
320.4738137437264
 31
0.0
  0
LINE
  5
A80
330
1F
100
AcDbEntity
  8
0
100
AcDbLine
 10
49.99999793001735
 20
319.4738135843822
 30
0.0
 11
38.59999793001634
 21
319.4738135843822
 31
0.0
  0
LINE
  5
A81
330
1F
100
AcDbEntity
  8
0
100
AcDbLine
 10
46.7249978080984
 20
313.7238137437264
 30
0.0
 11
42.7249978080984
 21
313.7238137437264
 31
0.0
  0
LINE
  5
A82
330
1F
100
AcDbEntity
  8
0
100
AcDbLine
 10
42.7249978080984
 20
310.5238144774166
 30
0.0
 11
46.7249978080984
 21
310.5238144774166
 31
0.0
  0
LINE
  5
A83
330
1F
100
AcDbEntity
  8
0
100
AcDbLine
 10
46.7249978080984
 20
310.5238144774166
 30
0.0
 11
42.7249978080984
 21
310.5238144774166
 31
0.0
  0
LINE
  5
A84
330
1F
100
AcDbEntity
  8
0
100
AcDbLine
 10
42.7249978080984
 20
305.5838261285432
 30
0.0
 11
46.7249978080984
 21
305.5838261285432
 31
0.0
  0
LINE
  5
A85
330
1F
100
AcDbEntity
  8
0
100
AcDbLine
 10
42.7249978080984
 20
307.5238144774167
 30
0.0
 11
46.7249978080984
 21
307.5238144774167
 31
0.0
  0
LINE
  5
A86
330
1F
100
AcDbEntity
  8
0
100
AcDbLine
 10
42.7249978080984
 20
308.0238144774166
 30
0.0
 11
46.7249978080984
 21
308.0238144774166
 31
0.0
  0
LINE
  5
A87
330
1F
100
AcDbEntity
  8
0
100
AcDbLine
 10
42.7249978080984
 20
307.0238144774166
 30
0.0
 11
46.7249978080984
 21
307.0238144774166
 31
0.0
  0
LINE
  5
A88
330
1F
100
AcDbEntity
  8
0
100
AcDbLine
 10
42.7249978080984
 20
309.5238144774167
 30
0.0
 11
46.7249978080984
 21
309.5238144774167
 31
0.0
  0
LINE
  5
A89
330
1F
100
AcDbEntity
  8
0
100
AcDbLine
 10
42.7249978080984
 20
308.0238144774166
 30
0.0
 11
46.7249978080984
 21
308.0238144774166
 31
0.0
  0
LINE
  5
A8A
330
1F
100
AcDbEntity
  8
0
100
AcDbLine
 10
42.7249978080984
 20
309.0238144774166
 30
0.0
 11
46.7249978080984
 21
309.0238144774166
 31
0.0
  0
LINE
  5
A8B
330
1F
100
AcDbEntity
  8
0
100
AcDbLine
 10
42.7249978080984
 20
308.5238144774166
 30
0.0
 11
46.7249978080984
 21
308.5238144774166
 31
0.0
  0
LINE
  5
A8C
330
1F
100
AcDbEntity
  8
0
100
AcDbLine
 10
49.0999978080984
 20
313.7238137437264
 30
0.0
 11
40.34999780809839
 21
313.7238137437264
 31
0.0
  0
LINE
  5
A8D
330
1F
100
AcDbEntity
  8
0
100
AcDbLine
 10
49.99999793001735
 20
315.6738135843823
 30
0.0
 11
38.59999793001634
 21
315.6738135843823
 31
0.0
  0
LINE
  5
A8E
330
1F
100
AcDbEntity
  8
0
100
AcDbLine
 10
46.59999780809839
 20
278.2138013589094
 30
0.0
 11
42.59999780809841
 21
278.2138013589094
 31
0.0
  0
LINE
  5
A8F
330
1F
100
AcDbEntity
  8
0
100
AcDbLine
 10
46.59999780809839
 20
275.2738130100357
 30
0.0
 11
42.59999780809841
 21
275.2738130100357
 31
0.0
  0
LINE
  5
A90
330
1F
100
AcDbEntity
  8
0
100
AcDbLine
 10
46.59999780809839
 20
274.7738130100358
 30
0.0
 11
42.59999780809841
 21
274.7738130100358
 31
0.0
  0
LINE
  5
A91
330
1F
100
AcDbEntity
  8
0
100
AcDbLine
 10
46.59999780809839
 20
275.7738130100357
 30
0.0
 11
42.59999780809841
 21
275.7738130100357
 31
0.0
  0
LINE
  5
A92
330
1F
100
AcDbEntity
  8
0
100
AcDbLine
 10
46.59999780809839
 20
274.2738130100357
 30
0.0
 11
42.59999780809841
 21
274.2738130100357
 31
0.0
  0
LINE
  5
A93
330
1F
100
AcDbEntity
  8
0
100
AcDbLine
 10
46.59999780809839
 20
276.7738130100358
 30
0.0
 11
42.59999780809841
 21
276.7738130100358
 31
0.0
  0
LINE
  5
A94
330
1F
100
AcDbEntity
  8
0
100
AcDbLine
 10
46.59999780809839
 20
275.7738130100357
 30
0.0
 11
42.59999780809841
 21
275.7738130100357
 31
0.0
  0
LINE
  5
A95
330
1F
100
AcDbEntity
  8
0
100
AcDbLine
 10
46.59999780809839
 20
276.2738130100357
 30
0.0
 11
42.59999780809841
 21
276.2738130100357
 31
0.0
  0
LINE
  5
A96
330
1F
100
AcDbEntity
  8
0
100
AcDbLine
 10
24.94499780809843
 20
301.1338137437263
 30
0.0
 11
24.94499780809843
 21
276.9738137437264
 31
0.0
  0
LINE
  5
A97
330
1F
100
AcDbEntity
  8
0
100
AcDbLine
 10
23.58499780809841
 20
301.1338137437263
 30
0.0
 11
23.58499780809841
 21
276.9738137437264
 31
0.0
  0
LINE
  5
A98
330
1F
100
AcDbEntity
  8
0
100
AcDbLine
 10
25.39999793001635
 20
302.1738135843821
 30
0.0
 11
25.39999793001635
 21
275.9738135843821
 31
0.0
  0
LINE
  5
A99
330
1F
100
AcDbEntity
  8
0
100
AcDbLine
 10
41.44999780809841
 20
307.6238137437262
 30
0.0
 11
41.44999780809841
 21
276.1738137437263
 31
0.0
  0
LINE
  5
A9A
330
1F
100
AcDbEntity
  8
0
100
AcDbLine
 10
20.59999780809839
 20
282.9738137437264
 30
0.0
 11
20.59999780809839
 21
284.9738137437264
 31
0.0
  0
LINE
  5
A9B
330
1F
100
AcDbEntity
  8
0
100
AcDbLine
 10
20.59999780809839
 20
293.1338137437263
 30
0.0
 11
20.59999780809839
 21
295.1338137437263
 31
0.0
  0
LINE
  5
A9C
330
1F
100
AcDbEntity
  8
0
100
AcDbLine
 10
20.59999780809839
 20
288.0538137437262
 30
0.0
 11
20.59999780809839
 21
290.0538137437262
 31
0.0
  0
LINE
  5
A9D
330
1F
100
AcDbEntity
  8
0
100
AcDbLine
 10
41.44999780809841
 20
276.1738137437263
 30
0.0
 11
42.59999780809841
 21
276.1738137437263
 31
0.0
  0
LINE
  5
A9E
330
1F
100
AcDbEntity
  8
0
100
AcDbLine
 10
21.34999780809937
 20
307.0138137437262
 30
0.0
 11
21.34999780809937
 21
322.4138137437263
 31
0.0
  0
LINE
  5
A9F
330
1F
100
AcDbEntity
  8
0
100
AcDbLine
 10
22.29999793001637
 20
322.8738135843824
 30
0.0
 11
22.29999793001637
 21
306.0738135843821
 31
0.0
  0
LINE
  5
AA0
330
1F
100
AcDbEntity
  8
0
100
AcDbLine
 10
24.08499780809842
 20
301.1338137437263
 30
0.0
 11
23.58499780809841
 21
301.1338137437263
 31
0.0
  0
LINE
  5
AA1
330
1F
100
AcDbEntity
  8
0
100
AcDbLine
 10
22.29999793001637
 20
322.8738135843824
 30
0.0
 11
25.89999793001635
 21
322.8738135843824
 31
0.0
  0
LINE
  5
AA2
330
1F
100
AcDbEntity
  8
0
100
AcDbLine
 10
42.7249978080984
 20
313.7238137437264
 30
0.0
 11
42.7249978080984
 21
310.5238144774166
 31
0.0
  0
LINE
  5
AA3
330
1F
100
AcDbEntity
  8
0
100
AcDbLine
 10
42.7249978080984
 20
307.6238137437262
 30
0.0
 11
41.44999780809841
 21
307.6238137437262
 31
0.0
  0
LINE
  5
AA4
330
1F
100
AcDbEntity
  8
0
100
AcDbLine
 10
42.7249978080984
 20
310.5238144774166
 30
0.0
 11
42.7249978080984
 21
305.5838261285432
 31
0.0
  0
LINE
  5
AA5
330
1F
100
AcDbEntity
  8
0
100
AcDbLine
 10
42.7249978080984
 20
310.5238144774166
 30
0.0
 11
42.7249978080984
 21
308.5238144774166
 31
0.0
  0
LINE
  5
AA6
330
1F
100
AcDbEntity
  8
0
100
AcDbLine
 10
39.9999978080994
 20
321.4738137437263
 30
0.0
 11
39.9999978080994
 21
320.9538137437263
 31
0.0
  0
ARC
  5
AA7
330
1F
100
AcDbEntity
  8
0
100
AcDbCircle
 10
40.49999780809939
 20
320.9738137437263
 30
0.0
 40
0.5
100
AcDbArc
 50
180.0
 51
270.0
  0
LINE
  5
AA8
330
1F
100
AcDbEntity
  8
0
100
AcDbLine
 10
47.74999780809836
 20
276.1738137437263
 30
0.0
 11
47.74999780809836
 21
307.6238137437262
 31
0.0
  0
LINE
  5
AA9
330
1F
100
AcDbEntity
  8
0
100
AcDbLine
 10
49.09999780809935
 20
285.1638137437273
 30
0.0
 11
48.8499978080984
 21
285.1638137437273
 31
0.0
  0
LINE
  5
AAA
330
1F
100
AcDbEntity
  8
0
100
AcDbLine
 10
49.09999780809935
 20
281.3538137437272
 30
0.0
 11
48.8499978080984
 21
281.3538137437272
 31
0.0
  0
LINE
  5
AAB
330
1F
100
AcDbEntity
  8
0
100
AcDbLine
 10
49.09999780809935
 20
280.853813743727
 30
0.0
 11
48.8499978080984
 21
280.853813743727
 31
0.0
  0
LINE
  5
AAC
330
1F
100
AcDbEntity
  8
0
100
AcDbLine
 10
49.09999780809935
 20
282.1238137437271
 30
0.0
 11
48.8499978080984
 21
282.1238137437271
 31
0.0
  0
LINE
  5
AAD
330
1F
100
AcDbEntity
  8
0
100
AcDbLine
 10
49.09999780809935
 20
282.6238137437263
 30
0.0
 11
48.8499978080984
 21
282.6238137437263
 31
0.0
  0
LINE
  5
AAE
330
1F
100
AcDbEntity
  8
0
100
AcDbLine
 10
49.09999780809935
 20
283.3938137437273
 30
0.0
 11
48.8499978080984
 21
283.3938137437272
 31
0.0
  0
LINE
  5
AAF
330
1F
100
AcDbEntity
  8
0
100
AcDbLine
 10
49.09999780809935
 20
283.8938137437271
 30
0.0
 11
48.8499978080984
 21
283.8938137437271
 31
0.0
  0
LINE
  5
AB0
330
1F
100
AcDbEntity
  8
0
100
AcDbLine
 10
49.09999780809935
 20
284.6638137437271
 30
0.0
 11
48.8499978080984
 21
284.6638137437271
 31
0.0
  0
LINE
  5
AB1
330
1F
100
AcDbEntity
  8
0
100
AcDbLine
 10
49.09999780809935
 20
280.0838137437283
 30
0.0
 11
48.8499978080984
 21
280.0838137437283
 31
0.0
  0
LINE
  5
AB2
330
1F
100
AcDbEntity
  8
0
100
AcDbLine
 10
49.09999780809935
 20
279.5838137437284
 30
0.0
 11
48.8499978080984
 21
279.5838137437284
 31
0.0
  0
LINE
  5
AB3
330
1F
100
AcDbEntity
  8
0
100
AcDbLine
 10
49.09999780809935
 20
280.8538137437281
 30
0.0
 11
48.8499978080984
 21
280.8538137437282
 31
0.0
  0
LINE
  5
AB4
330
1F
100
AcDbEntity
  8
0
100
AcDbLine
 10
49.09999780809935
 20
281.3538137437272
 30
0.0
 11
48.8499978080984
 21
281.3538137437272
 31
0.0
  0
LINE
  5
AB5
330
1F
100
AcDbEntity
  8
0
100
AcDbLine
 10
46.59999780809839
 20
276.1738137437263
 30
0.0
 11
47.74999780809836
 21
276.1738137437263
 31
0.0
  0
LINE
  5
AB6
330
1F
100
AcDbEntity
  8
0
100
AcDbLine
 10
48.8499978080984
 20
276.1738137437263
 30
0.0
 11
49.0999978080984
 21
276.1738137437263
 31
0.0
  0
LINE
  5
AB7
330
1F
100
AcDbEntity
  8
0
100
AcDbLine
 10
49.09999780809935
 20
297.8638137437262
 30
0.0
 11
48.8499978080984
 21
297.8638137437262
 31
0.0
  0
LINE
  5
AB8
330
1F
100
AcDbEntity
  8
0
100
AcDbLine
 10
49.09999780809935
 20
291.5138137437263
 30
0.0
 11
48.8499978080984
 21
291.5138137437263
 31
0.0
  0
LINE
  5
AB9
330
1F
100
AcDbEntity
  8
0
100
AcDbLine
 10
49.09999780809935
 20
292.2838137437262
 30
0.0
 11
48.8499978080984
 21
292.2838137437262
 31
0.0
  0
LINE
  5
ABA
330
1F
100
AcDbEntity
  8
0
100
AcDbLine
 10
49.09999780809935
 20
292.7838137437271
 30
0.0
 11
48.8499978080984
 21
292.7838137437271
 31
0.0
  0
LINE
  5
ABB
330
1F
100
AcDbEntity
  8
0
100
AcDbLine
 10
49.09999780809935
 20
296.593813743727
 30
0.0
 11
48.8499978080984
 21
296.593813743727
 31
0.0
  0
LINE
  5
ABC
330
1F
100
AcDbEntity
  8
0
100
AcDbLine
 10
49.09999780809935
 20
297.3638137437271
 30
0.0
 11
48.8499978080984
 21
297.3638137437271
 31
0.0
  0
LINE
  5
ABD
330
1F
100
AcDbEntity
  8
0
100
AcDbLine
 10
49.09999780809935
 20
292.7838137437271
 30
0.0
 11
48.8499978080984
 21
292.7838137437271
 31
0.0
  0
LINE
  5
ABE
330
1F
100
AcDbEntity
  8
0
100
AcDbLine
 10
49.09999780809935
 20
292.2838137437271
 30
0.0
 11
48.8499978080984
 21
292.2838137437271
 31
0.0
  0
LINE
  5
ABF
330
1F
100
AcDbEntity
  8
0
100
AcDbLine
 10
49.09999780809935
 20
293.5538137437271
 30
0.0
 11
48.8499978080984
 21
293.5538137437271
 31
0.0
  0
LINE
  5
AC0
330
1F
100
AcDbEntity
  8
0
100
AcDbLine
 10
49.09999780809935
 20
294.0538137437262
 30
0.0
 11
48.8499978080984
 21
294.0538137437262
 31
0.0
  0
LINE
  5
AC1
330
1F
100
AcDbEntity
  8
0
100
AcDbLine
 10
49.09999780809935
 20
294.8238137437263
 30
0.0
 11
48.8499978080984
 21
294.8238137437263
 31
0.0
  0
LINE
  5
AC2
330
1F
100
AcDbEntity
  8
0
100
AcDbLine
 10
49.09999780809935
 20
295.3238137437271
 30
0.0
 11
48.8499978080984
 21
295.3238137437273
 31
0.0
  0
LINE
  5
AC3
330
1F
100
AcDbEntity
  8
0
100
AcDbLine
 10
49.09999780809935
 20
296.0938137437271
 30
0.0
 11
48.8499978080984
 21
296.0938137437271
 31
0.0
  0
LINE
  5
AC4
330
1F
100
AcDbEntity
  8
0
100
AcDbLine
 10
49.09999780809935
 20
291.0138137437272
 30
0.0
 11
48.8499978080984
 21
291.0138137437272
 31
0.0
  0
LINE
  5
AC5
330
1F
100
AcDbEntity
  8
0
100
AcDbLine
 10
49.09999780809935
 20
287.2038137437264
 30
0.0
 11
48.8499978080984
 21
287.2038137437261
 31
0.0
  0
LINE
  5
AC6
330
1F
100
AcDbEntity
  8
0
100
AcDbLine
 10
49.09999780809935
 20
287.7038137437273
 30
0.0
 11
48.8499978080984
 21
287.7038137437273
 31
0.0
  0
LINE
  5
AC7
330
1F
100
AcDbEntity
  8
0
100
AcDbLine
 10
49.09999780809935
 20
288.4738137437271
 30
0.0
 11
48.8499978080984
 21
288.4738137437271
 31
0.0
  0
LINE
  5
AC8
330
1F
100
AcDbEntity
  8
0
100
AcDbLine
 10
49.09999780809935
 20
285.9338137437271
 30
0.0
 11
48.8499978080984
 21
285.9338137437271
 31
0.0
  0
LINE
  5
AC9
330
1F
100
AcDbEntity
  8
0
100
AcDbLine
 10
49.09999780809935
 20
286.4338137437271
 30
0.0
 11
48.8499978080984
 21
286.4338137437271
 31
0.0
  0
LINE
  5
ACA
330
1F
100
AcDbEntity
  8
0
100
AcDbLine
 10
49.09999780809935
 20
288.9738137437273
 30
0.0
 11
48.8499978080984
 21
288.9738137437273
 31
0.0
  0
LINE
  5
ACB
330
1F
100
AcDbEntity
  8
0
100
AcDbLine
 10
49.09999780809935
 20
289.7438137437271
 30
0.0
 11
48.8499978080984
 21
289.7438137437271
 31
0.0
  0
LINE
  5
ACC
330
1F
100
AcDbEntity
  8
0
100
AcDbLine
 10
49.09999780809935
 20
290.2438137437271
 30
0.0
 11
48.8499978080984
 21
290.2438137437271
 31
0.0
  0
LINE
  5
ACD
330
1F
100
AcDbEntity
  8
0
100
AcDbLine
 10
49.0999978080984
 20
307.6238137437262
 30
0.0
 11
49.0999978080984
 21
313.7238137437264
 31
0.0
  0
LINE
  5
ACE
330
1F
100
AcDbEntity
  8
0
100
AcDbLine
 10
46.7249978080984
 20
310.5238144774166
 30
0.0
 11
46.7249978080984
 21
313.7238137437264
 31
0.0
  0
LINE
  5
ACF
330
1F
100
AcDbEntity
  8
0
100
AcDbLine
 10
47.74999780809836
 20
307.6238137437262
 30
0.0
 11
46.7249978080984
 21
307.6238137437262
 31
0.0
  0
LINE
  5
AD0
330
1F
100
AcDbEntity
  8
0
100
AcDbLine
 10
46.7249978080984
 20
305.5838261285432
 30
0.0
 11
46.7249978080984
 21
310.5238144774166
 31
0.0
  0
LINE
  5
AD1
330
1F
100
AcDbEntity
  8
0
100
AcDbLine
 10
49.0999978080984
 20
307.6238137437262
 30
0.0
 11
48.8499978080984
 21
307.6238137437262
 31
0.0
  0
LINE
  5
AD2
330
1F
100
AcDbEntity
  8
0
100
AcDbLine
 10
49.09999780809935
 20
304.2138137437264
 30
0.0
 11
48.8499978080984
 21
304.2138137437264
 31
0.0
  0
LINE
  5
AD3
330
1F
100
AcDbEntity
  8
0
100
AcDbLine
 10
49.09999780809935
 20
300.403813743727
 30
0.0
 11
48.8499978080984
 21
300.403813743727
 31
0.0
  0
LINE
  5
AD4
330
1F
100
AcDbEntity
  8
0
100
AcDbLine
 10
49.09999780809935
 20
301.1738137437272
 30
0.0
 11
48.8499978080984
 21
301.1738137437272
 31
0.0
  0
LINE
  5
AD5
330
1F
100
AcDbEntity
  8
0
100
AcDbLine
 10
49.09999780809935
 20
301.6738137437271
 30
0.0
 11
48.8499978080984
 21
301.6738137437271
 31
0.0
  0
LINE
  5
AD6
330
1F
100
AcDbEntity
  8
0
100
AcDbLine
 10
49.09999780809935
 20
302.4438137437263
 30
0.0
 11
48.8499978080984
 21
302.4438137437263
 31
0.0
  0
LINE
  5
AD7
330
1F
100
AcDbEntity
  8
0
100
AcDbLine
 10
49.09999780809935
 20
302.9438137437263
 30
0.0
 11
48.8499978080984
 21
302.9438137437263
 31
0.0
  0
LINE
  5
AD8
330
1F
100
AcDbEntity
  8
0
100
AcDbLine
 10
49.09999780809935
 20
303.7138137437263
 30
0.0
 11
48.8499978080984
 21
303.7138137437263
 31
0.0
  0
LINE
  5
AD9
330
1F
100
AcDbEntity
  8
0
100
AcDbLine
 10
49.09999780809935
 20
298.6338137437263
 30
0.0
 11
48.8499978080984
 21
298.6338137437263
 31
0.0
  0
LINE
  5
ADA
330
1F
100
AcDbEntity
  8
0
100
AcDbLine
 10
49.09999780809935
 20
299.1338137437263
 30
0.0
 11
48.8499978080984
 21
299.1338137437263
 31
0.0
  0
LINE
  5
ADB
330
1F
100
AcDbEntity
  8
0
100
AcDbLine
 10
49.09999780809935
 20
299.9038137437262
 30
0.0
 11
48.8499978080984
 21
299.9038137437262
 31
0.0
  0
ARC
  5
ADC
330
1F
100
AcDbEntity
  8
0
100
AcDbCircle
 10
48.79999780809939
 20
320.7738137437264
 30
0.0
 40
0.3
100
AcDbArc
 50
270.0
 51
0.0
  0
LINE
  5
ADD
330
1F
100
AcDbEntity
  8
0
100
AcDbLine
 10
55.69999780809842
 20
352.7738137437261
 30
0.0
 11
8.099997808098406
 21
352.7738137437261
 31
0.0
  0
LINE
  5
ADE
330
1F
100
AcDbEntity
  8
0
100
AcDbLine
 10
55.9999978080994
 20
352.9738137437263
 30
0.0
 11
7.999997808099406
 21
352.9738137437263
 31
0.0
  0
LINE
  5
ADF
330
1F
100
AcDbEntity
  8
0
100
AcDbLine
 10
5.999997808099406
 20
354.9738137437263
 30
0.0
 11
57.99999780809939
 21
354.9738137437263
 31
0.0
  0
LINE
  5
AE0
330
1F
100
AcDbEntity
  8
0
100
AcDbLine
 10
3.999997808099406
 20
364.9738137437263
 30
0.0
 11
56.9999978080994
 21
364.9738137437263
 31
0.0
  0
LINE
  5
AE1
330
1F
100
AcDbEntity
  8
0
100
AcDbLine
 10
21.99999780809837
 20
338.5538137437263
 30
0.0
 11
14.09999780809839
 21
338.5538137437263
 31
0.0
  0
LINE
  5
AE2
330
1F
100
AcDbEntity
  8
0
100
AcDbLine
 10
22.89999793001635
 20
339.0738135843823
 30
0.0
 11
12.99999793001637
 21
339.0738135843823
 31
0.0
  0
LINE
  5
AE3
330
1F
100
AcDbEntity
  8
0
100
AcDbLine
 10
24.29999780809942
 20
328.6038137437262
 30
0.0
 11
19.52450287910735
 21
328.6038137437262
 31
0.0
  0
LINE
  5
AE4
330
1F
100
AcDbEntity
  8
0
100
AcDbLine
 10
24.29999780809942
 20
324.8638137437262
 30
0.0
 11
19.52450287910735
 21
324.8638137437262
 31
0.0
  0
LINE
  5
AE5
330
1F
100
AcDbEntity
  8
0
100
AcDbLine
 10
24.29999780809942
 20
330.0538137437263
 30
0.0
 11
14.09999780809935
 21
330.0538137437263
 31
0.0
  0
LINE
  5
AE6
330
1F
100
AcDbEntity
  8
0
100
AcDbLine
 10
24.29999780809942
 20
323.4138137437263
 30
0.0
 11
14.09999780809935
 21
323.4138137437263
 31
0.0
  0
LINE
  5
AE7
330
1F
100
AcDbEntity
  8
0
100
AcDbLine
 10
21.99999780809837
 20
331.0538137437271
 30
0.0
 11
14.09999780809839
 21
331.0538137437271
 31
0.0
  0
CIRCLE
  5
AE8
330
1F
100
AcDbEntity
  8
0
100
AcDbCircle
 10
16.59999793001633
 20
347.7738135843821
 30
0.0
 40
1.399999999999999
  0
LINE
  5
AE9
330
1F
100
AcDbEntity
  8
0
100
AcDbLine
 10
14.49999780809837
 20
331.0538137437271
 30
0.0
 11
14.49999780809837
 21
338.5538137437263
 31
0.0
  0
CIRCLE
  5
AEA
330
1F
100
AcDbEntity
  8
0
100
AcDbCircle
 10
18.24999780809837
 20
334.8038137437263
 30
0.0
 40
1.290290050200999
  0
LINE
  5
AEB
330
1F
100
AcDbEntity
  8
0
100
AcDbLine
 10
14.09999780809839
 20
331.0538137437271
 30
0.0
 11
14.09999780809839
 21
331.9638137437272
 31
0.0
  0
LINE
  5
AEC
330
1F
100
AcDbEntity
  8
0
100
AcDbLine
 10
14.09999780809935
 20
334.5038137437271
 30
0.0
 11
14.49999780809837
 21
334.5038137437271
 31
0.0
  0
LINE
  5
AED
330
1F
100
AcDbEntity
  8
0
100
AcDbLine
 10
14.09999780809935
 20
335.1038137437273
 30
0.0
 11
14.49999780809837
 21
335.1038137437273
 31
0.0
  0
LINE
  5
AEE
330
1F
100
AcDbEntity
  8
0
100
AcDbLine
 10
14.09999780809935
 20
332.5638137437274
 30
0.0
 11
14.49999780809837
 21
332.5638137437274
 31
0.0
  0
LINE
  5
AEF
330
1F
100
AcDbEntity
  8
0
100
AcDbLine
 10
14.09999780809935
 20
331.9638137437272
 30
0.0
 11
14.49999780809837
 21
331.9638137437272
 31
0.0
  0
LINE
  5
AF0
330
1F
100
AcDbEntity
  8
0
100
AcDbLine
 10
19.52450287910735
 20
328.6038137437262
 30
0.0
 11
19.52450287910735
 21
324.8638137437262
 31
0.0
  0
LINE
  5
AF1
330
1F
100
AcDbEntity
  8
0
100
AcDbLine
 10
14.09999780809935
 20
323.4138137437263
 30
0.0
 11
14.09999780809935
 21
330.0538137437263
 31
0.0
  0
LINE
  5
AF2
330
1F
100
AcDbEntity
  8
0
100
AcDbLine
 10
14.09999780809935
 20
337.0438137437273
 30
0.0
 11
14.49999780809837
 21
337.0438137437273
 31
0.0
  0
LINE
  5
AF3
330
1F
100
AcDbEntity
  8
0
100
AcDbLine
 10
14.09999780809935
 20
337.6438137437273
 30
0.0
 11
14.49999780809837
 21
337.6438137437273
 31
0.0
  0
LINE
  5
AF4
330
1F
100
AcDbEntity
  8
0
100
AcDbLine
 10
14.09999780809839
 20
337.6438137437261
 30
0.0
 11
14.09999780809839
 21
338.5538137437263
 31
0.0
  0
CIRCLE
  5
AF5
330
1F
100
AcDbEntity
  8
0
100
AcDbCircle
 10
16.59999793001633
 20
342.9738135843823
 30
0.0
 40
1.399999999999999
  0
LINE
  5
AF6
330
1F
100
AcDbEntity
  8
0
100
AcDbLine
 10
0.4869093339453347
 20
354.8818202844762
 30
0.0
 11
3.999997808099406
 21
354.9738137437263
 31
0.0
  0
ARC
  5
AF7
330
1F
100
AcDbEntity
  8
0
100
AcDbCircle
 10
0.4999978080994087
 20
354.3819916219892
 30
0.0
 40
0.5
100
AcDbArc
 50
91.4999999999995
 51
180.0
  0
LINE
  5
AF8
330
1F
100
AcDbEntity
  8
0
100
AcDbLine
 10
5.999997808099406
 20
354.4738137437261
 30
0.0
 11
4.999997808099408
 21
354.4738137437261
 31
0.0
  0
LINE
  5
AF9
330
1F
100
AcDbEntity
  8
0
100
AcDbLine
 10
4.999997808099408
 20
350.9738137437261
 30
0.0
 11
5.013086282252402
 21
350.9741564774842
 31
0.0
  0
LINE
  5
AFA
330
1F
100
AcDbEntity
  8
0
100
AcDbLine
 10
3.999997808099406
 20
354.9738137437263
 30
0.0
 11
4.999997808099408
 21
354.9476278221573
 31
0.0
  0
LINE
  5
AFB
330
1F
100
AcDbEntity
  8
0
100
AcDbLine
 10
0.973820859791374
 20
364.8945705115031
 30
0.0
 11
3.999997808099406
 21
364.9738137437263
 31
0.0
  0
ARC
  5
AFC
330
1F
100
AcDbEntity
  8
0
100
AcDbCircle
 10
0.9999978080994084
 20
363.8949131865284
 30
0.0
 40
1.0
100
AcDbArc
 50
91.4999999999995
 51
180.0
  0
LINE
  5
AFD
330
1F
100
AcDbEntity
  8
0
100
AcDbLine
 10
39.69999780809938
 20
348.9738137437263
 30
0.0
 11
48.79999780809939
 21
348.9738137437263
 31
0.0
  0
LINE
  5
AFE
330
1F
100
AcDbEntity
  8
0
100
AcDbLine
 10
40.49999780809939
 20
349.9738137437272
 30
0.0
 11
48.79999780809939
 21
349.9738137437272
 31
0.0
  0
LINE
  5
AFF
330
1F
100
AcDbEntity
  8
0
100
AcDbLine
 10
49.99999793001735
 20
350.7738135843822
 30
0.0
 11
38.59999793001634
 21
350.7738135843822
 31
0.0
  0
CIRCLE
  5
B00
330
1F
100
AcDbEntity
  8
0
100
AcDbCircle
 10
44.29999780809938
 20
347.0438137437262
 30
0.0
 40
1.399999999999999
  0
LINE
  5
B01
330
1F
100
AcDbEntity
  8
0
100
AcDbLine
 10
41.14999780809936
 20
344.9538137437273
 30
0.0
 11
47.4499978080994
 21
344.9538137437273
 31
0.0
  0
LINE
  5
B02
330
1F
100
AcDbEntity
  8
0
100
AcDbLine
 10
41.14999780809936
 20
344.4738137437263
 30
0.0
 11
47.4499978080994
 21
344.4738137437263
 31
0.0
  0
LINE
  5
B03
330
1F
100
AcDbEntity
  8
0
100
AcDbLine
 10
41.14999780809936
 20
342.5738137437273
 30
0.0
 11
47.4499978080994
 21
342.5738137437273
 31
0.0
  0
LINE
  5
B04
330
1F
100
AcDbEntity
  8
0
100
AcDbLine
 10
43.6676358983044
 20
341.4557013006553
 30
0.0
 11
45.96763589830444
 21
340.8394181580634
 31
0.0
  0
LINE
  5
B05
330
1F
100
AcDbEntity
  8
0
100
AcDbLine
 10
45.89999780809936
 20
339.9938137437263
 30
0.0
 11
42.69999780809938
 21
339.9938137437263
 31
0.0
  0
LINE
  5
B06
330
1F
100
AcDbEntity
  8
0
100
AcDbLine
 10
42.69999780809938
 20
330.4538137437261
 30
0.0
 11
45.89999780809936
 21
330.4538137437261
 31
0.0
  0
LINE
  5
B07
330
1F
100
AcDbEntity
  8
0
100
AcDbLine
 10
41.14999780809936
 20
325.4738137437263
 30
0.0
 11
47.4499978080994
 21
325.4738137437263
 31
0.0
  0
LINE
  5
B08
330
1F
100
AcDbEntity
  8
0
100
AcDbLine
 10
41.14999780809936
 20
325.9738137437261
 30
0.0
 11
47.4499978080994
 21
325.9738137437261
 31
0.0
  0
LINE
  5
B09
330
1F
100
AcDbEntity
  8
0
100
AcDbLine
 10
41.14999780809936
 20
327.8738137437262
 30
0.0
 11
47.4499978080994
 21
327.8738137437262
 31
0.0
  0
LINE
  5
B0A
330
1F
100
AcDbEntity
  8
0
100
AcDbLine
 10
43.6676358983044
 20
328.9909133451432
 30
0.0
 11
45.96763589830444
 21
329.6071964877353
 31
0.0
  0
CIRCLE
  5
B0B
330
1F
100
AcDbEntity
  8
0
100
AcDbCircle
 10
21.69999793001635
 20
347.7738135843821
 30
0.0
 40
1.399999999999999
  0
LINE
  5
B0C
330
1F
100
AcDbEntity
  8
0
100
AcDbLine
 10
21.99999780809837
 20
331.0538137437271
 30
0.0
 11
21.99999780809837
 21
338.5538137437263
 31
0.0
  0
LINE
  5
B0D
330
1F
100
AcDbEntity
  8
0
100
AcDbLine
 10
22.89999793001635
 20
339.0738135843823
 30
0.0
 11
22.89999793001635
 21
331.0738135843821
 31
0.0
  0
LINE
  5
B0E
330
1F
100
AcDbEntity
  8
0
100
AcDbLine
 10
22.89999793001635
 20
331.0738135843821
 30
0.0
 11
25.89999793001635
 21
331.0738135843821
 31
0.0
  0
LINE
  5
B0F
330
1F
100
AcDbEntity
  8
0
100
AcDbLine
 10
23.29999780809941
 20
324.8638137437262
 30
0.0
 11
23.29999780809941
 21
326.0638137437263
 31
0.0
  0
LINE
  5
B10
330
1F
100
AcDbEntity
  8
0
100
AcDbLine
 10
23.29999780809941
 20
327.4038137437264
 30
0.0
 11
23.29999780809941
 21
328.6038137437262
 31
0.0
  0
LINE
  5
B11
330
1F
100
AcDbEntity
  8
0
100
AcDbLine
 10
22.79999780809942
 20
326.0638137437263
 30
0.0
 11
22.79999780809942
 21
327.4038137437264
 31
0.0
  0
LINE
  5
B12
330
1F
100
AcDbEntity
  8
0
100
AcDbLine
 10
21.2999978080994
 20
324.8638137437262
 30
0.0
 11
21.2999978080994
 21
326.0638137437263
 31
0.0
  0
LINE
  5
B13
330
1F
100
AcDbEntity
  8
0
100
AcDbLine
 10
21.2999978080994
 20
327.4038137437264
 30
0.0
 11
21.2999978080994
 21
328.6038137437262
 31
0.0
  0
LINE
  5
B14
330
1F
100
AcDbEntity
  8
0
100
AcDbLine
 10
24.29999780809942
 20
324.8638137437262
 30
0.0
 11
21.2999978080994
 21
324.8638137437262
 31
0.0
  0
LINE
  5
B15
330
1F
100
AcDbEntity
  8
0
100
AcDbLine
 10
24.29999780809942
 20
326.0638137437263
 30
0.0
 11
21.2999978080994
 21
326.0638137437263
 31
0.0
  0
LINE
  5
B16
330
1F
100
AcDbEntity
  8
0
100
AcDbLine
 10
24.29999780809942
 20
327.4038137437264
 30
0.0
 11
21.2999978080994
 21
327.4038137437264
 31
0.0
  0
LINE
  5
B17
330
1F
100
AcDbEntity
  8
0
100
AcDbLine
 10
24.29999780809942
 20
323.4138137437263
 30
0.0
 11
24.29999780809942
 21
330.0538137437263
 31
0.0
  0
CIRCLE
  5
B18
330
1F
100
AcDbEntity
  8
0
100
AcDbCircle
 10
21.69999793001635
 20
342.9738135843823
 30
0.0
 40
1.399999999999999
  0
LINE
  5
B19
330
1F
100
AcDbEntity
  8
0
100
AcDbLine
 10
42.69999780809938
 20
339.9938137437263
 30
0.0
 11
42.69999780809938
 21
330.4538137437261
 31
0.0
  0
LINE
  5
B1A
330
1F
100
AcDbEntity
  8
0
100
AcDbLine
 10
41.14999780809936
 20
339.5238496480772
 30
0.0
 11
41.14999780809936
 21
330.922764997722
 31
0.0
  0
LINE
  5
B1B
330
1F
100
AcDbEntity
  8
0
100
AcDbLine
 10
41.14999780809936
 20
327.8738137437262
 30
0.0
 11
41.14999780809936
 21
325.4738137437263
 31
0.0
  0
ARC
  5
B1C
330
1F
100
AcDbEntity
  8
0
100
AcDbCircle
 10
43.14999780809936
 20
330.922764997722
 30
0.0
 40
2.0
100
AcDbArc
 50
180.0
 51
285.0000000000012
  0
ARC
  5
B1D
330
1F
100
AcDbEntity
  8
0
100
AcDbCircle
 10
43.14999780809936
 20
339.5238496480772
 30
0.0
 40
2.0
100
AcDbArc
 50
74.99999999999848
 51
180.0
  0
LINE
  5
B1E
330
1F
100
AcDbEntity
  8
0
100
AcDbLine
 10
41.14999780809936
 20
344.9738137437273
 30
0.0
 11
41.14999780809936
 21
342.5738137437273
 31
0.0
  0
ARC
  5
B1F
330
1F
100
AcDbEntity
  8
0
100
AcDbCircle
 10
28.9999978080994
 20
359.9738137437263
 30
0.0
 40
5.5
100
AcDbArc
 50
294.619977328655
 51
0.0
  0
CIRCLE
  5
B20
330
1F
100
AcDbEntity
  8
0
100
AcDbCircle
 10
28.9999978080994
 20
359.9738137437263
 30
0.0
 40
2.1
  0
LINE
  5
B21
330
1F
100
AcDbEntity
  8
0
100
AcDbLine
 10
23.49999780809939
 20
359.9738137437263
 30
0.0
 11
23.49999780809939
 21
364.9738137437263
 31
0.0
  0
ARC
  5
B22
330
1F
100
AcDbEntity
  8
0
100
AcDbCircle
 10
28.9999978080994
 20
359.9738137437263
 30
0.0
 40
5.5
100
AcDbArc
 50
180.0
 51
245.3800226713448
  0
LINE
  5
B23
330
1F
100
AcDbEntity
  8
0
100
AcDbLine
 10
34.4999978080994
 20
359.9738137437263
 30
0.0
 11
34.4999978080994
 21
364.9738137437263
 31
0.0
  0
LINE
  5
B24
330
1F
100
AcDbEntity
  8
0
100
AcDbLine
 10
39.9999978080994
 20
349.4938137437263
 30
0.0
 11
39.9999978080994
 21
348.9938137437263
 31
0.0
  0
ARC
  5
B25
330
1F
100
AcDbEntity
  8
0
100
AcDbCircle
 10
40.49999780809939
 20
349.4738137437273
 30
0.0
 40
0.5
100
AcDbArc
 50
90.0
 51
180.0
  0
LINE
  5
B26
330
1F
100
AcDbEntity
  8
0
100
AcDbLine
 10
49.09999780809935
 20
349.6938137437262
 30
0.0
 11
49.09999780809935
 21
342.5738137437261
 31
0.0
  0
LINE
  5
B27
330
1F
100
AcDbEntity
  8
0
100
AcDbLine
 10
45.89999780809936
 20
330.4538137437261
 30
0.0
 11
45.89999780809936
 21
339.9938137437263
 31
0.0
  0
LINE
  5
B28
330
1F
100
AcDbEntity
  8
0
100
AcDbLine
 10
47.4499978080994
 20
331.5390481403133
 30
0.0
 11
47.4499978080994
 21
338.9075665054853
 31
0.0
  0
LINE
  5
B29
330
1F
100
AcDbEntity
  8
0
100
AcDbLine
 10
48.79999780809939
 20
331.4138137437272
 30
0.0
 11
49.09999780809935
 21
331.4138137437272
 31
0.0
  0
LINE
  5
B2A
330
1F
100
AcDbEntity
  8
0
100
AcDbLine
 10
48.79999780809939
 20
332.6838137437271
 30
0.0
 11
49.09999780809935
 21
332.6838137437271
 31
0.0
  0
LINE
  5
B2B
330
1F
100
AcDbEntity
  8
0
100
AcDbLine
 10
48.79999780809939
 20
333.9538137437263
 30
0.0
 11
49.09999780809935
 21
333.9538137437263
 31
0.0
  0
LINE
  5
B2C
330
1F
100
AcDbEntity
  8
0
100
AcDbLine
 10
48.79999780809939
 20
333.9538137437263
 30
0.0
 11
49.09999780809935
 21
333.9538137437263
 31
0.0
  0
LINE
  5
B2D
330
1F
100
AcDbEntity
  8
0
100
AcDbLine
 10
48.79999780809939
 20
335.2238137437264
 30
0.0
 11
49.09999780809935
 21
335.2238137437264
 31
0.0
  0
LINE
  5
B2E
330
1F
100
AcDbEntity
  8
0
100
AcDbLine
 10
48.79999780809939
 20
335.2238137437264
 30
0.0
 11
49.09999780809935
 21
335.2238137437264
 31
0.0
  0
LINE
  5
B2F
330
1F
100
AcDbEntity
  8
0
100
AcDbLine
 10
47.4499978080994
 20
325.4738137437263
 30
0.0
 11
47.4499978080994
 21
327.8738137437262
 31
0.0
  0
LINE
  5
B30
330
1F
100
AcDbEntity
  8
0
100
AcDbLine
 10
48.79999780809939
 20
327.8738137437262
 30
0.0
 11
49.09999780809935
 21
327.8738137437262
 31
0.0
  0
ARC
  5
B31
330
1F
100
AcDbEntity
  8
0
100
AcDbCircle
 10
45.44999780809938
 20
331.5390481403133
 30
0.0
 40
2.0
100
AcDbArc
 50
285.0000000000012
 51
0.0
  0
ARC
  5
B32
330
1F
100
AcDbEntity
  8
0
100
AcDbCircle
 10
45.44999780809938
 20
338.9075665054853
 30
0.0
 40
2.0
100
AcDbArc
 50
0.0
 51
74.99999999999848
  0
LINE
  5
B33
330
1F
100
AcDbEntity
  8
0
100
AcDbLine
 10
48.79999780809939
 20
336.4938137437263
 30
0.0
 11
49.09999780809935
 21
336.4938137437263
 31
0.0
  0
LINE
  5
B34
330
1F
100
AcDbEntity
  8
0
100
AcDbLine
 10
48.79999780809939
 20
336.4938137437263
 30
0.0
 11
49.09999780809935
 21
336.4938137437263
 31
0.0
  0
LINE
  5
B35
330
1F
100
AcDbEntity
  8
0
100
AcDbLine
 10
48.79999780809939
 20
337.7638137437262
 30
0.0
 11
49.09999780809935
 21
337.7638137437262
 31
0.0
  0
LINE
  5
B36
330
1F
100
AcDbEntity
  8
0
100
AcDbLine
 10
48.79999780809939
 20
337.7638137437262
 30
0.0
 11
49.09999780809935
 21
337.7638137437262
 31
0.0
  0
LINE
  5
B37
330
1F
100
AcDbEntity
  8
0
100
AcDbLine
 10
48.79999780809939
 20
339.0338137437264
 30
0.0
 11
49.09999780809935
 21
339.0338137437264
 31
0.0
  0
LINE
  5
B38
330
1F
100
AcDbEntity
  8
0
100
AcDbLine
 10
48.79999780809939
 20
342.5738137437261
 30
0.0
 11
49.09999780809935
 21
342.5738137437261
 31
0.0
  0
LINE
  5
B39
330
1F
100
AcDbEntity
  8
0
100
AcDbLine
 10
47.4499978080994
 20
342.5738137437273
 30
0.0
 11
47.4499978080994
 21
344.9738137437273
 31
0.0
  0
ARC
  5
B3A
330
1F
100
AcDbEntity
  8
0
100
AcDbCircle
 10
56.9999978080994
 20
363.9738137437261
 30
0.0
 40
1.0
100
AcDbArc
 50
0.0
 51
90.0
  0
ARC
  5
B3B
330
1F
100
AcDbEntity
  8
0
100
AcDbCircle
 10
48.79999780809939
 20
349.6738137437273
 30
0.0
 40
0.3
100
AcDbArc
 50
0.0
 51
90.0
  0
ENDSEC
  0
SECTION
  2
OBJECTS
  0
DICTIONARY
  5
C
330
0
100
AcDbDictionary
  3
ACAD_GROUP
350
D
  3
ACAD_LAYOUT
350
1A
  3
ACAD_MLINESTYLE
350
17
  3
ACAD_PLOTSETTINGS
350
19
  3
ACAD_PLOTSTYLENAME
350
E
  3
ACDBHEADERROUNDTRIPXREC
350
B66
  3
ACDBVARIABLEDICTIONARY
350
5F7
  0
DICTIONARY
  5
4F6
330
2
100
AcDbDictionary
280
     1
  3
ACAD_LAYERSTATES
360
4F7
  0
DICTIONARY
  5
61D
330
1F
100
AcDbDictionary
280
     1
  3
ACAD_LAYOUTSELFREF
360
B87
  0
DICTIONARY
  5
61B
330
1B
100
AcDbDictionary
280
     1
  3
ACAD_LAYOUTSELFREF
360
B86
  0
DICTIONARY
  5
D
102
{ACAD_REACTORS
330
C
102
}
330
C
100
AcDbDictionary
  0
DICTIONARY
  5
1A
102
{ACAD_REACTORS
330
C
102
}
330
C
100
AcDbDictionary
  0
DICTIONARY
  5
17
102
{ACAD_REACTORS
330
C
102
}
330
C
100
AcDbDictionary
  3
STANDARD
350
18
  0
DICTIONARY
  5
19
102
{ACAD_REACTORS
330
C
102
}
330
C
100
AcDbDictionary
  0
ACDBDICTIONARYWDFLT
  5
E
102
{ACAD_REACTORS
330
C
102
}
330
C
100
AcDbDictionary
281
     1
  3
Normal
350
F
100
AcDbDictionaryWithDefault
340
F
  0
DICTIONARY
  5
B66
102
{ACAD_REACTORS
330
C
102
}
330
C
100
AcDbDictionary
  3
CEPSNTYPE
350
B70
  3
FINGERPRINTGUID
350
B71
  3
HYPERLINKBASE
350
B69
  3
INSUNITS
350
B6F
  3
LAYOUTDICT
350
B6B
  3
LWETCUNION
350
B6E
  3
PLOTSETDICT
350
B6C
  3
PLOTSTYLNAMDICT
350
B6D
  3
PSVPSCALE
350
B73
  3
PUCSBASE
350
B76
  3
PUCSORGBACK
350
B7C
  3
PUCSORGBOTTOM
350
B78
  3
PUCSORGFRONT
350
B7B
  3
PUCSORGLEFT
350
B79
  3
PUCSORGRIGHT
350
B7A
  3
PUCSORGTOP
350
B77
  3
PUCSORTHOREF
350
B74
  3
PUCSORTHOVIEW
350
B75
  3
STYLESHEET
350
B6A
  3
TSTACKALIGN
350
B67
  3
TSTACKSIZE
350
B68
  3
UCSBASE
350
B7F
  3
UCSORGBACK
350
B85
  3
UCSORGBOTTOM
350
B81
  3
UCSORGFRONT
350
B84
  3
UCSORGLEFT
350
B82
  3
UCSORGRIGHT
350
B83
  3
UCSORGTOP
350
B80
  3
UCSORTHOREF
350
B7D
  3
UCSORTHOVIEW
350
B7E
  3
VERSIONGUID
350
B72
  0
DICTIONARY
  5
5F7
102
{ACAD_REACTORS
330
C
102
}
330
C
100
AcDbDictionary
  3
DIMASSOC
350
5F9
  3
HIDETEXT
350
5F8
  0
DICTIONARY
  5
4F7
102
{ACAD_REACTORS
330
4F6
102
}
330
4F6
100
AcDbDictionary
  0
XRECORD
  5
B87
102
{ACAD_REACTORS
330
61D
102
}
330
61D
100
AcDbXrecord
340
1F
  0
XRECORD
  5
B86
102
{ACAD_REACTORS
330
61B
102
}
330
61B
100
AcDbXrecord
340
1B
  0
MLINESTYLE
  5
18
102
{ACAD_REACTORS
330
17
102
}
330
17
100
AcDbMlineStyle
  2
STANDARD
 70
     0
  3

 62
   256
 51
90.0
 52
90.0
 71
     2
 49
0.5
 62
   256
  6
BYLAYER
 49
-0.5
 62
   256
  6
BYLAYER
  0
ACDBPLACEHOLDER
  5
F
102
{ACAD_REACTORS
330
E
102
}
330
E
100
AcDbPlaceHolder
280
     0
  0
XRECORD
  5
B70
102
{ACAD_REACTORS
330
B66
102
}
330
B66
100
AcDbXrecord
 90
        0
  0
XRECORD
  5
B71
102
{ACAD_REACTORS
330
B66
102
}
330
B66
100
AcDbXrecord
  1
{08A00A2B-70FA-4947-AD53-B76125A4E8FC}
  0
XRECORD
  5
B69
102
{ACAD_REACTORS
330
B66
102
}
330
B66
100
AcDbXrecord
  1

  0
XRECORD
  5
B6F
102
{ACAD_REACTORS
330
B66
102
}
330
B66
100
AcDbXrecord
 90
        4
  0
XRECORD
  5
B6B
102
{ACAD_REACTORS
330
B66
102
}
330
B66
100
AcDbXrecord
340
1A
  0
XRECORD
  5
B6E
102
{ACAD_REACTORS
330
B66
102
}
330
B66
100
AcDbXrecord
 90
    10781
  0
XRECORD
  5
B6C
102
{ACAD_REACTORS
330
B66
102
}
330
B66
100
AcDbXrecord
340
19
  0
XRECORD
  5
B6D
102
{ACAD_REACTORS
330
B66
102
}
330
B66
100
AcDbXrecord
340
E
  0
XRECORD
  5
B73
102
{ACAD_REACTORS
330
B66
102
}
330
B66
100
AcDbXrecord
 40
0.0
  0
XRECORD
  5
B76
102
{ACAD_REACTORS
330
B66
102
}
330
B66
100
AcDbXrecord
340
0
  0
XRECORD
  5
B7C
102
{ACAD_REACTORS
330
B66
102
}
330
B66
100
AcDbXrecord
 10
0.0
 20
0.0
 30
0.0
  0
XRECORD
  5
B78
102
{ACAD_REACTORS
330
B66
102
}
330
B66
100
AcDbXrecord
 10
0.0
 20
0.0
 30
0.0
  0
XRECORD
  5
B7B
102
{ACAD_REACTORS
330
B66
102
}
330
B66
100
AcDbXrecord
 10
0.0
 20
0.0
 30
0.0
  0
XRECORD
  5
B79
102
{ACAD_REACTORS
330
B66
102
}
330
B66
100
AcDbXrecord
 10
0.0
 20
0.0
 30
0.0
  0
XRECORD
  5
B7A
102
{ACAD_REACTORS
330
B66
102
}
330
B66
100
AcDbXrecord
 10
0.0
 20
0.0
 30
0.0
  0
XRECORD
  5
B77
102
{ACAD_REACTORS
330
B66
102
}
330
B66
100
AcDbXrecord
 10
0.0
 20
0.0
 30
0.0
  0
XRECORD
  5
B74
102
{ACAD_REACTORS
330
B66
102
}
330
B66
100
AcDbXrecord
340
0
  0
XRECORD
  5
B75
102
{ACAD_REACTORS
330
B66
102
}
330
B66
100
AcDbXrecord
 70
     0
  0
XRECORD
  5
B6A
102
{ACAD_REACTORS
330
B66
102
}
330
B66
100
AcDbXrecord
  1

  0
XRECORD
  5
B67
102
{ACAD_REACTORS
330
B66
102
}
330
B66
100
AcDbXrecord
 90
        1
  0
XRECORD
  5
B68
102
{ACAD_REACTORS
330
B66
102
}
330
B66
100
AcDbXrecord
 90
       70
  0
XRECORD
  5
B7F
102
{ACAD_REACTORS
330
B66
102
}
330
B66
100
AcDbXrecord
340
0
  0
XRECORD
  5
B85
102
{ACAD_REACTORS
330
B66
102
}
330
B66
100
AcDbXrecord
 10
0.0
 20
0.0
 30
0.0
  0
XRECORD
  5
B81
102
{ACAD_REACTORS
330
B66
102
}
330
B66
100
AcDbXrecord
 10
0.0
 20
0.0
 30
0.0
  0
XRECORD
  5
B84
102
{ACAD_REACTORS
330
B66
102
}
330
B66
100
AcDbXrecord
 10
0.0
 20
0.0
 30
0.0
  0
XRECORD
  5
B82
102
{ACAD_REACTORS
330
B66
102
}
330
B66
100
AcDbXrecord
 10
0.0
 20
0.0
 30
0.0
  0
XRECORD
  5
B83
102
{ACAD_REACTORS
330
B66
102
}
330
B66
100
AcDbXrecord
 10
0.0
 20
0.0
 30
0.0
  0
XRECORD
  5
B80
102
{ACAD_REACTORS
330
B66
102
}
330
B66
100
AcDbXrecord
 10
0.0
 20
0.0
 30
0.0
  0
XRECORD
  5
B7D
102
{ACAD_REACTORS
330
B66
102
}
330
B66
100
AcDbXrecord
340
0
  0
XRECORD
  5
B7E
102
{ACAD_REACTORS
330
B66
102
}
330
B66
100
AcDbXrecord
 70
     0
  0
XRECORD
  5
B72
102
{ACAD_REACTORS
330
B66
102
}
330
B66
100
AcDbXrecord
  1
{B869A96F-E70E-4773-A160-979CCCB023FD}
  0
DICTIONARYVAR
  5
5F9
102
{ACAD_REACTORS
330
5F7
102
}
330
5F7
100
DictionaryVariables
280
     0
  1
2
  0
DICTIONARYVAR
  5
5F8
102
{ACAD_REACTORS
330
5F7
102
}
330
5F7
100
DictionaryVariables
280
     0
  1
1
  0
ENDSEC
  0
EOF
