  0
SECTION
  2
HEADER
  9
$ACADVER
  1
AC1015
  9
$ACADMAINTVER
 70
     6
  9
$DWGCODEPAGE
  3
ANSI_932
  9
$INSBASE
 10
0.0
 20
0.0
 30
0.0
  9
$EXTMIN
 10
-3.386649558098952
 20
-0.0244042321332927
 30
-0.000000000000013
  9
$EXTMAX
 10
279.0197012272186
 20
399.9808455021796
 30
0.0000000000000023
  9
$LIMMIN
 10
0.0
 20
0.0
  9
$LIMMAX
 10
420.0
 20
297.0
  9
$ORTHOMODE
 70
     0
  9
$REGENMODE
 70
     1
  9
$FILLMODE
 70
     1
  9
$QTEXTMODE
 70
     0
  9
$MIRRTEXT
 70
     1
  9
$LTSCALE
 40
1.0
  9
$ATTMODE
 70
     1
  9
$TEXTSIZE
 40
2.5
  9
$TRACEWID
 40
1.0
  9
$TEXTSTYLE
  7
STANDARD
  9
$CLAYER
  8
0
  9
$CELTYPE
  6
BYLAYER
  9
$CECOLOR
 62
   256
  9
$CELTSCALE
 40
1.0
  9
$DISPSILH
 70
     0
  9
$DIMSCALE
 40
1.0
  9
$DIMASZ
 40
2.5
  9
$DIMEXO
 40
0.625
  9
$DIMDLI
 40
3.75
  9
$DIMRND
 40
0.0
  9
$DIMDLE
 40
0.0
  9
$DIMEXE
 40
1.25
  9
$DIMTP
 40
0.0
  9
$DIMTM
 40
0.0
  9
$DIMTXT
 40
2.5
  9
$DIMCEN
 40
2.5
  9
$DIMTSZ
 40
0.0
  9
$DIMTOL
 70
     0
  9
$DIMLIM
 70
     0
  9
$DIMTIH
 70
     0
  9
$DIMTOH
 70
     0
  9
$DIMSE1
 70
     0
  9
$DIMSE2
 70
     0
  9
$DIMTAD
 70
     1
  9
$DIMZIN
 70
     8
  9
$DIMBLK
  1

  9
$DIMASO
 70
     1
  9
$DIMSHO
 70
     1
  9
$DIMPOST
  1

  9
$DIMAPOST
  1

  9
$DIMALT
 70
     0
  9
$DIMALTD
 70
     3
  9
$DIMALTF
 40
0.03937007874016
  9
$DIMLFAC
 40
1.0
  9
$DIMTOFL
 70
     1
  9
$DIMTVP
 40
0.0
  9
$DIMTIX
 70
     0
  9
$DIMSOXD
 70
     0
  9
$DIMSAH
 70
     0
  9
$DIMBLK1
  1

  9
$DIMBLK2
  1

  9
$DIMSTYLE
  2
ISO-25
  9
$DIMCLRD
 70
     0
  9
$DIMCLRE
 70
     0
  9
$DIMCLRT
 70
     0
  9
$DIMTFAC
 40
1.0
  9
$DIMGAP
 40
0.625
  9
$DIMJUST
 70
     0
  9
$DIMSD1
 70
     0
  9
$DIMSD2
 70
     0
  9
$DIMTOLJ
 70
     0
  9
$DIMTZIN
 70
     8
  9
$DIMALTZ
 70
     0
  9
$DIMALTTZ
 70
     0
  9
$DIMUPT
 70
     0
  9
$DIMDEC
 70
     2
  9
$DIMTDEC
 70
     2
  9
$DIMALTU
 70
     2
  9
$DIMALTTD
 70
     3
  9
$DIMTXSTY
  7
STANDARD
  9
$DIMAUNIT
 70
     0
  9
$DIMADEC
 70
     0
  9
$DIMALTRND
 40
0.0
  9
$DIMAZIN
 70
     0
  9
$DIMDSEP
 70
    46
  9
$DIMATFIT
 70
     3
  9
$DIMFRAC
 70
     0
  9
$DIMLDRBLK
  1

  9
$DIMLUNIT
 70
     2
  9
$DIMLWD
 70
    -2
  9
$DIMLWE
 70
    -2
  9
$DIMTMOVE
 70
     0
  9
$LUNITS
 70
     2
  9
$LUPREC
 70
     4
  9
$SKETCHINC
 40
1.0
  9
$FILLETRAD
 40
10.0
  9
$AUNITS
 70
     0
  9
$AUPREC
 70
     0
  9
$MENU
  1
.
  9
$ELEVATION
 40
0.0
  9
$PELEVATION
 40
0.0
  9
$THICKNESS
 40
0.0
  9
$LIMCHECK
 70
     0
  9
$CHAMFERA
 40
10.0
  9
$CHAMFERB
 40
10.0
  9
$CHAMFERC
 40
20.0
  9
$CHAMFERD
 40
0.0
  9
$SKPOLY
 70
     0
  9
$TDCREATE
 40
2455874.790112083
  9
$TDUCREATE
 40
2455874.415112083
  9
$TDUPDATE
 40
2456843.677777673
  9
$TDUUPDATE
 40
2456843.302777673
  9
$TDINDWG
 40
0.0313895023
  9
$TDUSRTIMER
 40
0.0313884722
  9
$USRTIMER
 70
     1
  9
$ANGBASE
 50
0.0
  9
$ANGDIR
 70
     0
  9
$PDMODE
 70
     0
  9
$PDSIZE
 40
0.0
  9
$PLINEWID
 40
0.0
  9
$SPLFRAME
 70
     0
  9
$SPLINETYPE
 70
     6
  9
$SPLINESEGS
 70
     8
  9
$HANDSEED
  5
148B
  9
$SURFTAB1
 70
     6
  9
$SURFTAB2
 70
     6
  9
$SURFTYPE
 70
     6
  9
$SURFU
 70
     6
  9
$SURFV
 70
     6
  9
$UCSBASE
  2

  9
$UCSNAME
  2

  9
$UCSORG
 10
0.0
 20
0.0
 30
0.0
  9
$UCSXDIR
 10
1.0
 20
0.0
 30
0.0
  9
$UCSYDIR
 10
0.0
 20
1.0
 30
0.0
  9
$UCSORTHOREF
  2

  9
$UCSORTHOVIEW
 70
     0
  9
$UCSORGTOP
 10
0.0
 20
0.0
 30
0.0
  9
$UCSORGBOTTOM
 10
0.0
 20
0.0
 30
0.0
  9
$UCSORGLEFT
 10
0.0
 20
0.0
 30
0.0
  9
$UCSORGRIGHT
 10
0.0
 20
0.0
 30
0.0
  9
$UCSORGFRONT
 10
0.0
 20
0.0
 30
0.0
  9
$UCSORGBACK
 10
0.0
 20
0.0
 30
0.0
  9
$PUCSBASE
  2

  9
$PUCSNAME
  2

  9
$PUCSORG
 10
0.0
 20
0.0
 30
0.0
  9
$PUCSXDIR
 10
1.0
 20
0.0
 30
0.0
  9
$PUCSYDIR
 10
0.0
 20
1.0
 30
0.0
  9
$PUCSORTHOREF
  2

  9
$PUCSORTHOVIEW
 70
     0
  9
$PUCSORGTOP
 10
0.0
 20
0.0
 30
0.0
  9
$PUCSORGBOTTOM
 10
0.0
 20
0.0
 30
0.0
  9
$PUCSORGLEFT
 10
0.0
 20
0.0
 30
0.0
  9
$PUCSORGRIGHT
 10
0.0
 20
0.0
 30
0.0
  9
$PUCSORGFRONT
 10
0.0
 20
0.0
 30
0.0
  9
$PUCSORGBACK
 10
0.0
 20
0.0
 30
0.0
  9
$USERI1
 70
     0
  9
$USERI2
 70
     0
  9
$USERI3
 70
     0
  9
$USERI4
 70
     0
  9
$USERI5
 70
     0
  9
$USERR1
 40
0.0
  9
$USERR2
 40
0.0
  9
$USERR3
 40
0.0
  9
$USERR4
 40
0.0
  9
$USERR5
 40
0.0
  9
$WORLDVIEW
 70
     1
  9
$SHADEDGE
 70
     3
  9
$SHADEDIF
 70
    70
  9
$TILEMODE
 70
     1
  9
$MAXACTVP
 70
    64
  9
$PINSBASE
 10
0.0
 20
0.0
 30
0.0
  9
$PLIMCHECK
 70
     0
  9
$PEXTMIN
 10
1.000000000000000E+20
 20
1.000000000000000E+20
 30
1.000000000000000E+20
  9
$PEXTMAX
 10
-1.000000000000000E+20
 20
-1.000000000000000E+20
 30
-1.000000000000000E+20
  9
$PLIMMIN
 10
0.0
 20
0.0
  9
$PLIMMAX
 10
420.0
 20
297.0
  9
$UNITMODE
 70
     0
  9
$VISRETAIN
 70
     1
  9
$PLINEGEN
 70
     0
  9
$PSLTSCALE
 70
     1
  9
$TREEDEPTH
 70
  3020
  9
$CMLSTYLE
  2
STANDARD
  9
$CMLJUST
 70
     0
  9
$CMLSCALE
 40
20.0
  9
$PROXYGRAPHICS
 70
     1
  9
$MEASUREMENT
 70
     1
  9
$CELWEIGHT
370
    -1
  9
$ENDCAPS
280
     0
  9
$JOINSTYLE
280
     0
  9
$LWDISPLAY
290
     0
  9
$INSUNITS
 70
     4
  9
$HYPERLINKBASE
  1

  9
$STYLESHEET
  1

  9
$XEDIT
290
     1
  9
$CEPSNTYPE
380
     0
  9
$PSTYLEMODE
290
     1
  9
$FINGERPRINTGUID
  2
{DFE87AFF-CEDA-490C-9593-3352DB0660B4}
  9
$VERSIONGUID
  2
{8AA1AE67-2051-41D9-8D99-656BD5C6E343}
  9
$EXTNAMES
290
     1
  9
$PSVPSCALE
 40
0.0
  9
$OLESTARTUP
290
     0
  0
ENDSEC
  0
SECTION
  2
CLASSES
  0
CLASS
  1
ACDBDICTIONARYWDFLT
  2
AcDbDictionaryWithDefault
  3
AutoCAD 2000
 90
        0
280
     0
281
     0
  0
CLASS
  1
ACDBPLACEHOLDER
  2
AcDbPlaceHolder
  3
AutoCAD 2000
 90
        0
280
     0
281
     0
  0
CLASS
  1
LAYOUT
  2
AcDbLayout
  3
AutoCAD 2000
 90
        0
280
     0
281
     0
  0
CLASS
  1
DICTIONARYVAR
  2
AcDbDictionaryVar
  3
AutoCAD 2000
 90
        0
280
     0
281
     0
  0
CLASS
  1
LONG_TRANSACTION
  2
AcDbLongTransaction
  3
AutoCAD 2000
 90
    32768
280
     0
281
     0
  0
CLASS
  1
LWPOLYLINE
  2
AcDbPolyline
  3
AutoCAD 2000
 90
    32768
280
     0
281
     1
  0
CLASS
  1
HATCH
  2
AcDbHatch
  3
AutoCAD 2000
 90
    32768
280
     0
281
     1
  0
CLASS
  1
XRECORD
  2
AcDbXrecord
  3
AutoCAD 2000
 90
    32768
280
     0
281
     0
  0
CLASS
  1
LONG_TRANSACTION
  2
AcDbLongTransaction
  3
AutoCAD 2000
 90
    32768
280
     0
281
     0
  0
CLASS
  1
LWPOLYLINE
  2
AcDbPolyline
  3
AutoCAD 2000
 90
    32768
280
     0
281
     1
  0
CLASS
  1
HATCH
  2
AcDbHatch
  3
AutoCAD 2000
 90
    32768
280
     0
281
     1
  0
CLASS
  1
XRECORD
  2
AcDbXrecord
  3
AutoCAD 2000
 90
    32768
280
     0
281
     0
  0
CLASS
  1
LONG_TRANSACTION
  2
AcDbLongTransaction
  3
AutoCAD 2000
 90
    32768
280
     0
281
     0
  0
CLASS
  1
LWPOLYLINE
  2
AcDbPolyline
  3
AutoCAD 2000
 90
    32768
280
     0
281
     1
  0
CLASS
  1
HATCH
  2
AcDbHatch
  3
AutoCAD 2000
 90
    32768
280
     0
281
     1
  0
CLASS
  1
XRECORD
  2
AcDbXrecord
  3
AutoCAD 2000
 90
    32768
280
     0
281
     0
  0
CLASS
  1
LONG_TRANSACTION
  2
AcDbLongTransaction
  3
AutoCAD 2000
 90
    32768
280
     0
281
     0
  0
CLASS
  1
LWPOLYLINE
  2
AcDbPolyline
  3
AutoCAD 2000
 90
    32768
280
     0
281
     1
  0
CLASS
  1
HATCH
  2
AcDbHatch
  3
AutoCAD 2000
 90
    32768
280
     0
281
     1
  0
CLASS
  1
XRECORD
  2
AcDbXrecord
  3
AutoCAD 2000
 90
    32768
280
     0
281
     0
  0
CLASS
  1
LONG_TRANSACTION
  2
AcDbLongTransaction
  3
AutoCAD 2000
 90
    32768
280
     0
281
     0
  0
CLASS
  1
LWPOLYLINE
  2
AcDbPolyline
  3
AutoCAD 2000
 90
    32768
280
     0
281
     1
  0
CLASS
  1
HATCH
  2
AcDbHatch
  3
AutoCAD 2000
 90
    32768
280
     0
281
     1
  0
CLASS
  1
XRECORD
  2
AcDbXrecord
  3
AutoCAD 2000
 90
    32768
280
     0
281
     0
  0
CLASS
  1
LONG_TRANSACTION
  2
AcDbLongTransaction
  3
AutoCAD 2000
 90
    32768
280
     0
281
     0
  0
CLASS
  1
LWPOLYLINE
  2
AcDbPolyline
  3
AutoCAD 2000
 90
    32768
280
     0
281
     1
  0
CLASS
  1
HATCH
  2
AcDbHatch
  3
AutoCAD 2000
 90
    32768
280
     0
281
     1
  0
CLASS
  1
XRECORD
  2
AcDbXrecord
  3
AutoCAD 2000
 90
    32768
280
     0
281
     0
  0
CLASS
  1
LONG_TRANSACTION
  2
AcDbLongTransaction
  3
AutoCAD 2000
 90
    32768
280
     0
281
     0
  0
CLASS
  1
LWPOLYLINE
  2
AcDbPolyline
  3
AutoCAD 2000
 90
    32768
280
     0
281
     1
  0
CLASS
  1
HATCH
  2
AcDbHatch
  3
AutoCAD 2000
 90
    32768
280
     0
281
     1
  0
CLASS
  1
XRECORD
  2
AcDbXrecord
  3
AutoCAD 2000
 90
    32768
280
     0
281
     0
  0
ENDSEC
  0
SECTION
  2
TABLES
  0
TABLE
  2
VPORT
  5
8
330
0
100
AcDbSymbolTable
 70
     3
  0
VPORT
  5
146A
330
8
100
AcDbSymbolTableRecord
100
AcDbViewportTableRecord
  2
*Active
 70
     0
 10
0.0
 20
0.0
 11
1.0
 21
1.0
 12
137.8165258345598
 22
199.9782206350232
 13
0.0
 23
0.0
 14
10.0
 24
10.0
 15
10.0
 25
10.0
 16
0.0
 26
0.0
 36
1.0
 17
0.0
 27
0.0
 37
0.0
 40
403.6527140176046
 41
2.319634703196347
 42
50.0
 43
0.0
 44
0.0
 50
0.0
 51
0.0
 71
     0
 72
   100
 73
     1
 74
     3
 75
     0
 76
     0
 77
     0
 78
     0
281
     0
 65
     1
110
0.0
120
0.0
130
0.0
111
1.0
121
0.0
131
0.0
112
0.0
122
1.0
132
0.0
 79
     0
146
0.0
  0
ENDTAB
  0
TABLE
  2
LTYPE
  5
5
330
0
100
AcDbSymbolTable
 70
     2
  0
LTYPE
  5
14
330
5
100
AcDbSymbolTableRecord
100
AcDbLinetypeTableRecord
  2
BYBLOCK
 70
     0
  3

 72
    65
 73
     0
 40
0.0
  0
LTYPE
  5
15
330
5
100
AcDbSymbolTableRecord
100
AcDbLinetypeTableRecord
  2
BYLAYER
 70
     0
  3

 72
    65
 73
     0
 40
0.0
  0
LTYPE
  5
16
330
5
100
AcDbSymbolTableRecord
100
AcDbLinetypeTableRecord
  2
CONTINUOUS
 70
     0
  3
Solid line
 72
    65
 73
     0
 40
0.0
  0
LTYPE
  5
2AC
330
5
100
AcDbSymbolTableRecord
100
AcDbLinetypeTableRecord
  2
CENTER
 70
     0
  3
__ . __ . __ . __ . __ . __ . __ . __ . __ . __
 72
    65
 73
     4
 40
1.0
 49
0.5
 74
     0
 49
-0.25
 74
     0
 49
0.0
 74
     0
 49
-0.25
 74
     0
  0
ENDTAB
  0
TABLE
  2
LAYER
  5
2
102
{ACAD_XDICTIONARY
360
2B2
102
}
330
0
100
AcDbSymbolTable
 70
     3
  0
LAYER
  5
10
330
2
100
AcDbSymbolTableRecord
100
AcDbLayerTableRecord
  2
0
 70
     0
 62
     7
  6
CONTINUOUS
370
    -3
390
F
  0
LAYER
  5
2AE
330
2
100
AcDbSymbolTableRecord
100
AcDbLayerTableRecord
  2
DEFPOINTS
 70
     0
 62
    -7
  6
CONTINUOUS
290
     0
370
    -3
390
F
  0
LAYER
  5
2AF
330
2
100
AcDbSymbolTableRecord
100
AcDbLayerTableRecord
  2
1
 70
     0
 62
     3
  6
CONTINUOUS
370
    -3
390
F
  0
ENDTAB
  0
TABLE
  2
STYLE
  5
3
330
0
100
AcDbSymbolTable
 70
     1
  0
STYLE
  5
11
330
3
100
AcDbSymbolTableRecord
100
AcDbTextStyleTableRecord
  2
STANDARD
 70
     0
 40
0.0
 41
1.0
 50
0.0
 71
     0
 42
2.5
  3
txt
  4

  0
ENDTAB
  0
TABLE
  2
VIEW
  5
6
330
0
100
AcDbSymbolTable
 70
     0
  0
ENDTAB
  0
TABLE
  2
UCS
  5
7
330
0
100
AcDbSymbolTable
 70
     0
  0
ENDTAB
  0
TABLE
  2
APPID
  5
9
330
0
100
AcDbSymbolTable
 70
     1
  0
APPID
  5
12
330
9
100
AcDbSymbolTableRecord
100
AcDbRegAppTableRecord
  2
ACAD
 70
     0
  0
ENDTAB
  0
TABLE
  2
DIMSTYLE
  5
A
330
0
100
AcDbSymbolTable
 70
     2
100
AcDbDimStyleTable
 71
     0
  0
DIMSTYLE
105
27
330
A
100
AcDbSymbolTableRecord
100
AcDbDimStyleTableRecord
  2
ISO-25
 70
     0
 41
2.5
 42
0.625
 43
3.75
 44
1.25
 73
     0
 74
     0
 77
     1
 78
     8
140
2.5
141
2.5
143
0.03937007874016
147
0.625
171
     3
172
     1
271
     2
272
     2
274
     3
283
     0
284
     8
340
11
  0
DIMSTYLE
105
2B1
330
A
100
AcDbSymbolTableRecord
100
AcDbDimStyleTableRecord
  2
STANDARD
 70
     0
 41
2.5
 42
0.625
 43
3.75
 44
1.25
 73
     0
 74
     0
 77
     1
 78
     8
140
2.5
141
2.5
143
0.0394
147
0.625
171
     4
172
     1
273
     8
274
     4
340
11
  0
ENDTAB
  0
TABLE
  2
BLOCK_RECORD
  5
1
330
0
100
AcDbSymbolTable
 70
     5
  0
BLOCK_RECORD
  5
1F
102
{ACAD_XDICTIONARY
360
B35
102
}
330
1
100
AcDbSymbolTableRecord
100
AcDbBlockTableRecord
  2
*MODEL_SPACE
340
13D7
  0
BLOCK_RECORD
  5
1B
102
{ACAD_XDICTIONARY
360
B33
102
}
330
1
100
AcDbSymbolTableRecord
100
AcDbBlockTableRecord
  2
*PAPER_SPACE
340
13D8
  0
BLOCK_RECORD
  5
2B
330
1
100
AcDbSymbolTableRecord
100
AcDbBlockTableRecord
  2
A$C35844AFD
340
0
102
{BLKREFS
331
11CA
102
}
  0
BLOCK_RECORD
  5
160
330
1
100
AcDbSymbolTableRecord
100
AcDbBlockTableRecord
  2
A$C413B70EE
340
0
102
{BLKREFS
331
233
102
}
  0
BLOCK_RECORD
  5
232
330
1
100
AcDbSymbolTableRecord
100
AcDbBlockTableRecord
  2
A$C40301A48
340
0
102
{BLKREFS
331
11C8
102
}
  0
BLOCK_RECORD
  5
236
330
1
100
AcDbSymbolTableRecord
100
AcDbBlockTableRecord
  2
A$C5CFD6E8C
340
0
102
{BLKREFS
331
1350
331
1352
102
}
  0
BLOCK_RECORD
  5
BBA
330
1
100
AcDbSymbolTableRecord
100
AcDbBlockTableRecord
  2
A$C57E26210
340
0
102
{BLKREFS
331
1308
102
}
  0
ENDTAB
  0
ENDSEC
  0
SECTION
  2
BLOCKS
  0
BLOCK
  5
20
330
1F
100
AcDbEntity
  8
0
100
AcDbBlockBegin
  2
*MODEL_SPACE
 70
     0
 10
0.0
 20
0.0
 30
0.0
  3
*MODEL_SPACE
  1

  0
ENDBLK
  5
21
330
1F
100
AcDbEntity
  8
0
100
AcDbBlockEnd
  0
BLOCK
  5
1C
330
1B
100
AcDbEntity
 67
     1
  8
0
100
AcDbBlockBegin
  2
*PAPER_SPACE
 70
     0
 10
0.0
 20
0.0
 30
0.0
  3
*PAPER_SPACE
  1

  0
ENDBLK
  5
1D
330
1B
100
AcDbEntity
 67
     1
  8
0
100
AcDbBlockEnd
  0
BLOCK
  5
15E
330
2B
100
AcDbEntity
  8
0
100
AcDbBlockBegin
  2
A$C35844AFD
 70
     0
 10
0.0
 20
0.0
 30
0.0
  3
A$C35844AFD
  1

  0
LINE
  5
2C
330
2B
100
AcDbEntity
  8
0
100
AcDbLine
 10
26.70871065379236
 20
4.379166399082007
 30
0.0
 11
26.70871065379236
 21
21.97381495444607
 31
0.0
  0
LINE
  5
2D
330
2B
100
AcDbEntity
  8
0
100
AcDbLine
 10
31.29128634874739
 20
4.259167431349053
 30
0.0
 11
31.29128634874739
 21
21.97381495444505
 31
0.0
  0
LINE
  5
2E
330
2B
100
AcDbEntity
  8
0
100
AcDbLine
 10
5.999998501270398
 20
4.92144311130704
 30
0.0
 11
5.999998501270398
 21
20.97381495444506
 31
0.0
  0
LINE
  5
2F
330
2B
100
AcDbEntity
  8
0
100
AcDbLine
 10
4.999998501270396
 20
21.00000087601403
 30
0.0
 11
4.999998501270396
 21
4.973814954444033
 31
0.0
  0
LINE
  5
30
330
2B
100
AcDbEntity
  8
0
100
AcDbLine
 10
-0.0000014987296026
 20
21.419667635221
 30
0.0
 11
-0.0000014987296026
 21
0.0000008760140418
 31
0.0
  0
LINE
  5
31
330
2B
100
AcDbEntity
  8
0
100
AcDbLine
 10
57.9999985012704
 20
3.585961111277015
 30
0.0
 11
57.9999985012704
 21
120.973814954445
 31
0.0
  0
LINE
  5
32
330
2B
100
AcDbEntity
  8
0
100
AcDbLine
 10
53.4999985012704
 20
86.97381495444506
 30
0.0
 11
53.4999985012704
 21
91.97381495444506
 31
0.0
  0
LINE
  5
33
330
2B
100
AcDbEntity
  8
0
100
AcDbLine
 10
54.49999850127039
 20
96.97381495444506
 30
0.0
 11
54.49999850127039
 21
70.97381495444506
 31
0.0
  0
LINE
  5
34
330
2B
100
AcDbEntity
  8
0
100
AcDbLine
 10
33.49999850127039
 20
70.97381495444506
 30
0.0
 11
33.49999850127039
 21
96.97381495444506
 31
0.0
  0
ARC
  5
35
330
2B
100
AcDbEntity
  8
0
100
AcDbCircle
 10
2.399998501270374
 20
89.31966763522103
 30
0.0
 40
0.6
100
AcDbArc
 50
0.0
 51
88.09084756699943
  0
LINE
  5
36
330
2B
100
AcDbEntity
  8
0
100
AcDbLine
 10
5.999998501270398
 20
82.97381495444602
 30
0.0
 11
5.999998501270398
 21
109.605734381143
 31
0.0
  0
LINE
  5
37
330
2B
100
AcDbEntity
  8
0
100
AcDbLine
 10
4.999998501270396
 20
110.471019933888
 30
0.0
 11
4.999998501270396
 21
83.00000087601405
 31
0.0
  0
LINE
  5
38
330
2B
100
AcDbEntity
  8
0
100
AcDbLine
 10
56.99999850127039
 20
21.97381495444505
 30
0.0
 11
56.99999850127039
 21
103.9738149544449
 31
0.0
  0
LINE
  5
39
330
2B
100
AcDbEntity
  8
0
100
AcDbLine
 10
15.99999850127039
 20
103.9738149544449
 30
0.0
 11
15.99999850127039
 21
21.97381495444505
 31
0.0
  0
LINE
  5
3A
330
2B
100
AcDbEntity
  8
0
100
AcDbLine
 10
28.19999850127038
 20
105.473814954445
 30
0.0
 11
19.99999850127039
 21
105.473814954445
 31
0.0
  0
LINE
  5
3B
330
2B
100
AcDbEntity
  8
0
100
AcDbLine
 10
19.99999850127039
 20
117.4738149544449
 30
0.0
 11
28.19999850127038
 21
117.4738149544449
 31
0.0
  0
LINE
  5
3C
330
2B
100
AcDbEntity
  8
0
100
AcDbLine
 10
19.99999850127039
 20
109.473814954445
 30
0.0
 11
23.19999850127037
 21
109.473814954445
 31
0.0
  0
LINE
  5
3D
330
2B
100
AcDbEntity
  8
0
100
AcDbLine
 10
19.99999850127039
 20
113.4738149544449
 30
0.0
 11
23.19999850127037
 21
113.4738149544449
 31
0.0
  0
LINE
  5
3E
330
2B
100
AcDbEntity
  8
0
100
AcDbLine
 10
32.9999985012704
 20
89.97381495444503
 30
0.0
 11
15.99999850127039
 21
89.97381495444503
 31
0.0
  0
LINE
  5
3F
330
2B
100
AcDbEntity
  8
0
100
AcDbLine
 10
32.9999985012704
 20
91.97381495444506
 30
0.0
 11
15.99999850127039
 21
91.97381495444506
 31
0.0
  0
LINE
  5
40
330
2B
100
AcDbEntity
  8
0
100
AcDbLine
 10
56.99999850127039
 20
96.97381495444506
 30
0.0
 11
53.44722031511543
 21
96.97381495444506
 31
0.0
  0
LINE
  5
41
330
2B
100
AcDbEntity
  8
0
100
AcDbLine
 10
56.99999850127039
 20
98.97381495444506
 30
0.0
 11
53.44722031511543
 21
98.97381495444506
 31
0.0
  0
LINE
  5
42
330
2B
100
AcDbEntity
  8
0
100
AcDbLine
 10
15.99999850127039
 20
103.9738149544449
 30
0.0
 11
57.9999985012704
 21
103.9738149544449
 31
0.0
  0
LINE
  5
43
330
2B
100
AcDbEntity
  8
0
100
AcDbLine
 10
5.999998501270398
 20
120.973814954445
 30
0.0
 11
57.9999985012704
 21
120.973814954445
 31
0.0
  0
LINE
  5
44
330
2B
100
AcDbEntity
  8
0
100
AcDbLine
 10
19.99999850127039
 20
109.473814954445
 30
0.0
 11
19.99999850127039
 21
105.473814954445
 31
0.0
  0
LINE
  5
45
330
2B
100
AcDbEntity
  8
0
100
AcDbLine
 10
-0.0000014987296026
 20
90.58033411680609
 30
0.0
 11
-0.0000014987296026
 21
120.8952571897369
 31
0.0
  0
LINE
  5
46
330
2B
100
AcDbEntity
  8
0
100
AcDbLine
 10
7.999998501270398
 20
120.473814954445
 30
0.0
 11
7.999998501270398
 21
110.9738149544459
 31
0.0
  0
LINE
  5
47
330
2B
100
AcDbEntity
  8
0
100
AcDbLine
 10
8.999998501270397
 20
120.973814954445
 30
0.0
 11
8.999998501270397
 21
110.1347153232679
 31
0.0
  0
LINE
  5
48
330
2B
100
AcDbEntity
  8
0
100
AcDbLine
 10
7.999998501270398
 20
111.000000876014
 30
0.0
 11
7.999998501270398
 21
120.8952571897369
 31
0.0
  0
LINE
  5
49
330
2B
100
AcDbEntity
  8
0
100
AcDbLine
 10
5.999998501270398
 20
120.973814954445
 30
0.0
 11
5.999998501270398
 21
120.9476290328755
 31
0.0
  0
LINE
  5
4A
330
2B
100
AcDbEntity
  8
0
100
AcDbLine
 10
5.999998501270398
 20
120.973814954445
 30
0.0
 11
5.999998501270398
 21
120.9476290328759
 31
0.0
  0
LINE
  5
4B
330
2B
100
AcDbEntity
  8
0
100
AcDbLine
 10
7.999998501270398
 20
120.473814954445
 30
0.0
 11
8.999998501270397
 21
120.473814954445
 31
0.0
  0
LINE
  5
4C
330
2B
100
AcDbEntity
  8
0
100
AcDbLine
 10
3.999998501270396
 20
121.0000008760139
 30
0.0
 11
7.999998501270398
 21
120.8952571897369
 31
0.0
  0
LINE
  5
4D
330
2B
100
AcDbEntity
  8
0
100
AcDbLine
 10
-0.0000014987296026
 20
120.8952571897369
 30
0.0
 11
3.999998501270396
 21
121.0000008760139
 31
0.0
  0
LINE
  5
4E
330
2B
100
AcDbEntity
  8
0
100
AcDbLine
 10
4.999998501270396
 20
110.44483401232
 30
0.0
 11
7.999998501270398
 21
110.9738149544459
 31
0.0
  0
LINE
  5
4F
330
2B
100
AcDbEntity
  8
0
100
AcDbLine
 10
8.999998501270397
 20
110.1347153232679
 30
0.0
 11
5.999998501270398
 21
109.605734381143
 31
0.0
  0
LINE
  5
50
330
2B
100
AcDbEntity
  8
0
100
AcDbLine
 10
7.999998501270398
 20
111.000000876014
 30
0.0
 11
4.999998501270396
 21
110.471019933888
 31
0.0
  0
LINE
  5
51
330
2B
100
AcDbEntity
  8
0
100
AcDbLine
 10
19.99999850127039
 20
113.4738149544449
 30
0.0
 11
19.99999850127039
 21
117.4738149544449
 31
0.0
  0
LINE
  5
52
330
2B
100
AcDbEntity
  8
0
100
AcDbLine
 10
-0.0000014987296026
 20
98.41966763522108
 30
0.0
 11
-0.0000014987296026
 21
97.58033411680608
 31
0.0
  0
POINT
  5
53
330
2B
100
AcDbEntity
  8
0
100
AcDbPoint
 10
-0.0000014987296026
 20
99.00000087601302
 30
0.0
  0
POINT
  5
54
330
2B
100
AcDbEntity
  8
0
100
AcDbPoint
 10
2.999998501270396
 20
99.10000087601305
 30
0.0
  0
ARC
  5
55
330
2B
100
AcDbEntity
  8
0
100
AcDbCircle
 10
2.399998501270374
 20
99.68033411680506
 30
0.0
 40
0.6
100
AcDbArc
 50
271.909152432994
 51
0.0
  0
ARC
  5
56
330
2B
100
AcDbEntity
  8
0
100
AcDbCircle
 10
0.5999985012704201
 20
98.41966763522108
 30
0.0
 40
0.6
100
AcDbArc
 50
91.90915243299405
 51
180.0
  0
LINE
  5
57
330
2B
100
AcDbEntity
  8
0
100
AcDbLine
 10
2.419987399409365
 20
99.08066717261808
 30
0.0
 11
0.5800096031304065
 21
99.019334579409
 31
0.0
  0
LINE
  5
58
330
2B
100
AcDbEntity
  8
0
100
AcDbLine
 10
2.999998501270396
 20
103.319667635221
 30
0.0
 11
2.999998501270396
 21
99.68033411680506
 31
0.0
  0
POINT
  5
59
330
2B
100
AcDbEntity
  8
0
100
AcDbPoint
 10
2.999998501270396
 20
103.9000008760127
 30
0.0
  0
ARC
  5
5A
330
2B
100
AcDbEntity
  8
0
100
AcDbCircle
 10
0.5999985012704201
 20
104.5803341168058
 30
0.0
 40
0.6
100
AcDbArc
 50
180.0
 51
268.0908475670059
  0
LINE
  5
5B
330
2B
100
AcDbEntity
  8
0
100
AcDbLine
 10
0.5800096031304065
 20
103.980667172618
 30
0.0
 11
2.419987399409365
 21
103.919334579409
 31
0.0
  0
ARC
  5
5C
330
2B
100
AcDbEntity
  8
0
100
AcDbCircle
 10
2.399998501270374
 20
103.319667635221
 30
0.0
 40
0.6
100
AcDbArc
 50
0.0
 51
88.09084756699943
  0
POINT
  5
5D
330
2B
100
AcDbEntity
  8
0
100
AcDbPoint
 10
-0.0000014987296026
 20
90.00000087601405
 30
0.0
  0
ARC
  5
5E
330
2B
100
AcDbEntity
  8
0
100
AcDbCircle
 10
2.399998501270374
 20
92.68033411680503
 30
0.0
 40
0.6
100
AcDbArc
 50
271.909152432994
 51
0.0
  0
ARC
  5
5F
330
2B
100
AcDbEntity
  8
0
100
AcDbCircle
 10
0.5999985012704201
 20
91.41966763522106
 30
0.0
 40
0.6
100
AcDbArc
 50
91.90915243299405
 51
180.0
  0
ARC
  5
60
330
2B
100
AcDbEntity
  8
0
100
AcDbCircle
 10
0.5999985012693969
 20
90.58033411680609
 30
0.0
 40
0.6
100
AcDbArc
 50
180.0
 51
268.0908475670059
  0
LINE
  5
61
330
2B
100
AcDbEntity
  8
0
100
AcDbLine
 10
-0.0000014987296026
 20
91.41966763522106
 30
0.0
 11
-0.0000014987296026
 21
90.58033411680609
 31
0.0
  0
LINE
  5
62
330
2B
100
AcDbEntity
  8
0
100
AcDbLine
 10
0.5800096031304065
 20
89.98066717261805
 30
0.0
 11
2.419987399409365
 21
89.91933457940907
 31
0.0
  0
LINE
  5
63
330
2B
100
AcDbEntity
  8
0
100
AcDbLine
 10
2.419987399409365
 20
92.08066717261806
 30
0.0
 11
0.5800096031304065
 21
92.01933457940901
 31
0.0
  0
POINT
  5
64
330
2B
100
AcDbEntity
  8
0
100
AcDbPoint
 10
2.999998501270396
 20
96.90000087601299
 30
0.0
  0
POINT
  5
65
330
2B
100
AcDbEntity
  8
0
100
AcDbPoint
 10
-0.0000014987296026
 20
97.00000087601305
 30
0.0
  0
ARC
  5
66
330
2B
100
AcDbEntity
  8
0
100
AcDbCircle
 10
2.399998501270374
 20
96.31966763522104
 30
0.0
 40
0.6
100
AcDbArc
 50
0.0
 51
88.09084756699943
  0
ARC
  5
67
330
2B
100
AcDbEntity
  8
0
100
AcDbCircle
 10
0.5999985012704201
 20
97.58033411680608
 30
0.0
 40
0.6
100
AcDbArc
 50
180.0
 51
268.0908475670059
  0
LINE
  5
68
330
2B
100
AcDbEntity
  8
0
100
AcDbLine
 10
0.5800096031304065
 20
96.98066717261804
 30
0.0
 11
2.419987399409365
 21
96.91933457940905
 31
0.0
  0
LINE
  5
69
330
2B
100
AcDbEntity
  8
0
100
AcDbLine
 10
2.999998501270396
 20
96.31966763522104
 30
0.0
 11
2.999998501270396
 21
92.68033411680503
 31
0.0
  0
LINE
  5
6A
330
2B
100
AcDbEntity
  8
0
100
AcDbLine
 10
28.19999850127038
 20
105.473814954445
 30
0.0
 11
28.19999850127038
 21
117.4738149544449
 31
0.0
  0
LINE
  5
6B
330
2B
100
AcDbEntity
  8
0
100
AcDbLine
 10
23.19999850127037
 20
107.473814954445
 30
0.0
 11
25.19999850127037
 21
107.473814954445
 31
0.0
  0
LINE
  5
6C
330
2B
100
AcDbEntity
  8
0
100
AcDbLine
 10
23.19999850127037
 20
109.473814954445
 30
0.0
 11
23.19999850127037
 21
107.473814954445
 31
0.0
  0
LINE
  5
6D
330
2B
100
AcDbEntity
  8
0
100
AcDbLine
 10
23.19999850127037
 20
115.4738149544449
 30
0.0
 11
25.19999850127037
 21
115.4738149544449
 31
0.0
  0
LINE
  5
6E
330
2B
100
AcDbEntity
  8
0
100
AcDbLine
 10
23.19999850127037
 20
113.4738149544449
 30
0.0
 11
23.19999850127037
 21
115.4738149544449
 31
0.0
  0
LINE
  5
6F
330
2B
100
AcDbEntity
  8
0
100
AcDbLine
 10
25.19999850127037
 20
107.473814954445
 30
0.0
 11
25.19999850127037
 21
115.4738149544449
 31
0.0
  0
LINE
  5
70
330
2B
100
AcDbEntity
  8
0
100
AcDbLine
 10
33.49999850127039
 20
98.97381495444506
 30
0.0
 11
33.49999850127039
 21
103.9738149544449
 31
0.0
  0
LINE
  5
71
330
2B
100
AcDbEntity
  8
0
100
AcDbLine
 10
32.9999985012704
 20
89.97381495444503
 30
0.0
 11
32.9999985012704
 21
91.97381495444506
 31
0.0
  0
LINE
  5
72
330
2B
100
AcDbEntity
  8
0
100
AcDbLine
 10
55.9999985012704
 20
96.97381495444506
 30
0.0
 11
55.9999985012704
 21
98.97381495444506
 31
0.0
  0
LINE
  5
73
330
2B
100
AcDbEntity
  8
0
100
AcDbLine
 10
54.99999850127039
 20
96.97381495444506
 30
0.0
 11
54.99999850127039
 21
98.97381495444506
 31
0.0
  0
LINE
  5
74
330
2B
100
AcDbEntity
  8
0
100
AcDbLine
 10
54.49999850127039
 20
103.9738149544449
 30
0.0
 11
54.49999850127039
 21
98.97381495444506
 31
0.0
  0
ARC
  5
75
330
2B
100
AcDbEntity
  8
0
100
AcDbCircle
 10
52.9999985012704
 20
91.97381495444503
 30
0.0
 40
0.5
100
AcDbArc
 50
0.0
 51
26.56294527600439
  0
LINE
  5
76
330
2B
100
AcDbEntity
  8
0
100
AcDbLine
 10
55.9999985012704
 20
89.97381495444503
 30
0.0
 11
55.9999985012704
 21
91.97381495444506
 31
0.0
  0
LINE
  5
77
330
2B
100
AcDbEntity
  8
0
100
AcDbLine
 10
54.99999850127039
 20
89.97381495444503
 30
0.0
 11
54.99999850127039
 21
91.97381495444506
 31
0.0
  0
LINE
  5
78
330
2B
100
AcDbEntity
  8
0
100
AcDbLine
 10
56.99999850127039
 20
89.97381495444503
 30
0.0
 11
54.99999850127039
 21
89.97381495444503
 31
0.0
  0
LINE
  5
79
330
2B
100
AcDbEntity
  8
0
100
AcDbLine
 10
56.99999850127039
 20
91.97381495444506
 30
0.0
 11
54.99999850127039
 21
91.97381495444506
 31
0.0
  0
LINE
  5
7A
330
2B
100
AcDbEntity
  8
0
100
AcDbLine
 10
32.9999985012704
 20
47.97381495444507
 30
0.0
 11
15.99999850127039
 21
47.97381495444507
 31
0.0
  0
LINE
  5
7B
330
2B
100
AcDbEntity
  8
0
100
AcDbLine
 10
32.9999985012704
 20
49.97381495444507
 30
0.0
 11
15.99999850127039
 21
49.97381495444507
 31
0.0
  0
LINE
  5
7C
330
2B
100
AcDbEntity
  8
0
100
AcDbLine
 10
56.99999850127039
 20
26.97381495444505
 30
0.0
 11
15.99999850127039
 21
26.97381495444505
 31
0.0
  0
LINE
  5
7D
330
2B
100
AcDbEntity
  8
0
100
AcDbLine
 10
56.99999850127039
 20
28.97381495444506
 30
0.0
 11
15.99999850127039
 21
28.97381495444506
 31
0.0
  0
LINE
  5
7E
330
2B
100
AcDbEntity
  8
0
100
AcDbLine
 10
56.99999850127039
 20
33.97381495444505
 30
0.0
 11
15.99999850127039
 21
33.97381495444505
 31
0.0
  0
LINE
  5
7F
330
2B
100
AcDbEntity
  8
0
100
AcDbLine
 10
56.99999850127039
 20
35.97381495444506
 30
0.0
 11
15.99999850127039
 21
35.97381495444506
 31
0.0
  0
LINE
  5
80
330
2B
100
AcDbEntity
  8
0
100
AcDbLine
 10
56.99999850127039
 20
40.97381495444506
 30
0.0
 11
15.99999850127039
 21
40.97381495444506
 31
0.0
  0
LINE
  5
81
330
2B
100
AcDbEntity
  8
0
100
AcDbLine
 10
56.99999850127039
 20
42.97381495444507
 30
0.0
 11
15.99999850127039
 21
42.97381495444507
 31
0.0
  0
LINE
  5
82
330
2B
100
AcDbEntity
  8
0
100
AcDbLine
 10
56.99999850127039
 20
54.97381495444507
 30
0.0
 11
53.49999850127034
 21
54.97381495444507
 31
0.0
  0
LINE
  5
83
330
2B
100
AcDbEntity
  8
0
100
AcDbLine
 10
56.99999850127039
 20
56.97381495444506
 30
0.0
 11
53.49999850127034
 21
56.97381495444506
 31
0.0
  0
LINE
  5
84
330
2B
100
AcDbEntity
  8
0
100
AcDbLine
 10
56.99999850127039
 20
61.97381495444506
 30
0.0
 11
53.49999850127034
 21
61.97381495444506
 31
0.0
  0
LINE
  5
85
330
2B
100
AcDbEntity
  8
0
100
AcDbLine
 10
15.99999850127039
 20
21.97381495444505
 30
0.0
 11
57.9999985012704
 21
21.97381495444505
 31
0.0
  0
LINE
  5
86
330
2B
100
AcDbEntity
  8
0
100
AcDbLine
 10
32.9999985012704
 20
75.97381495444506
 30
0.0
 11
15.99999850127039
 21
75.97381495444506
 31
0.0
  0
LINE
  5
87
330
2B
100
AcDbEntity
  8
0
100
AcDbLine
 10
32.9999985012704
 20
77.97381495444506
 30
0.0
 11
15.99999850127039
 21
77.97381495444506
 31
0.0
  0
LINE
  5
88
330
2B
100
AcDbEntity
  8
0
100
AcDbLine
 10
32.9999985012704
 20
82.97381495444506
 30
0.0
 11
15.99999850127039
 21
82.97381495444506
 31
0.0
  0
LINE
  5
89
330
2B
100
AcDbEntity
  8
0
100
AcDbLine
 10
32.9999985012704
 20
84.97381495444505
 30
0.0
 11
15.99999850127039
 21
84.97381495444505
 31
0.0
  0
LINE
  5
8A
330
2B
100
AcDbEntity
  8
0
100
AcDbLine
 10
56.99999850127039
 20
63.97381495444506
 30
0.0
 11
53.49999850127034
 21
63.97381495444506
 31
0.0
  0
LINE
  5
8B
330
2B
100
AcDbEntity
  8
0
100
AcDbLine
 10
56.99999850127039
 20
68.97381495444506
 30
0.0
 11
53.49999850127034
 21
68.97381495444506
 31
0.0
  0
LINE
  5
8C
330
2B
100
AcDbEntity
  8
0
100
AcDbLine
 10
56.99999850127039
 20
70.97381495444506
 30
0.0
 11
53.49999850127034
 21
70.97381495444506
 31
0.0
  0
LINE
  5
8D
330
2B
100
AcDbEntity
  8
0
100
AcDbLine
 10
2.999998501270396
 20
54.31966763522105
 30
0.0
 11
2.999998501270396
 21
50.68033411680506
 31
0.0
  0
LINE
  5
8E
330
2B
100
AcDbEntity
  8
0
100
AcDbLine
 10
5.999998501270398
 20
32.97381495444602
 30
0.0
 11
5.999998501270398
 21
70.97381495444506
 31
0.0
  0
LINE
  5
8F
330
2B
100
AcDbEntity
  8
0
100
AcDbLine
 10
4.999998501270396
 20
71.00000087601405
 30
0.0
 11
4.999998501270396
 21
33.00000087601403
 31
0.0
  0
LINE
  5
90
330
2B
100
AcDbEntity
  8
0
100
AcDbLine
 10
2.999998501270396
 20
75.31966763522103
 30
0.0
 11
2.999998501270396
 21
71.68033411680507
 31
0.0
  0
LINE
  5
91
330
2B
100
AcDbEntity
  8
0
100
AcDbLine
 10
4.999998501270396
 20
71.00000087601301
 30
0.0
 11
4.999998501270396
 21
83.00000087601405
 31
0.0
  0
LINE
  5
92
330
2B
100
AcDbEntity
  8
0
100
AcDbLine
 10
4.499998501270396
 20
83.00000087601405
 30
0.0
 11
4.499998501270396
 21
71.00000087601405
 31
0.0
  0
LINE
  5
93
330
2B
100
AcDbEntity
  8
0
100
AcDbLine
 10
3.699998501270328
 20
83.00000087601405
 30
0.0
 11
3.699998501270328
 21
71.10000087601306
 31
0.0
  0
LINE
  5
94
330
2B
100
AcDbEntity
  8
0
100
AcDbLine
 10
9.699998501269419
 20
81.47381495444506
 30
0.0
 11
9.699998501269419
 21
72.47381495444506
 31
0.0
  0
LINE
  5
95
330
2B
100
AcDbEntity
  8
0
100
AcDbLine
 10
7.999998501269374
 20
81.47381495444506
 30
0.0
 11
7.999998501269374
 21
72.47381495444506
 31
0.0
  0
LINE
  5
96
330
2B
100
AcDbEntity
  8
0
100
AcDbLine
 10
9.499998501270397
 20
81.00000087601406
 30
0.0
 11
9.499998501270397
 21
73.00000087601405
 31
0.0
  0
LINE
  5
97
330
2B
100
AcDbEntity
  8
0
100
AcDbLine
 10
8.699998501270329
 20
81.00000087601406
 30
0.0
 11
8.699998501270329
 21
73.00000087601405
 31
0.0
  0
LINE
  5
98
330
2B
100
AcDbEntity
  8
0
100
AcDbLine
 10
8.09999850127042
 20
81.00000087601406
 30
0.0
 11
8.09999850127042
 21
73.00000087601405
 31
0.0
  0
LINE
  5
99
330
2B
100
AcDbEntity
  8
0
100
AcDbLine
 10
2.999998501270396
 20
82.31966763522104
 30
0.0
 11
2.999998501270396
 21
78.68033411680507
 31
0.0
  0
LINE
  5
9A
330
2B
100
AcDbEntity
  8
0
100
AcDbLine
 10
5.999998501270398
 20
82.97381495444602
 30
0.0
 11
4.999998501270396
 21
82.97381495444602
 31
0.0
  0
LINE
  5
9B
330
2B
100
AcDbEntity
  8
0
100
AcDbLine
 10
9.699998501269419
 20
81.47381495444506
 30
0.0
 11
7.999998501269374
 21
81.47381495444506
 31
0.0
  0
LINE
  5
9C
330
2B
100
AcDbEntity
  8
0
100
AcDbLine
 10
4.999998501270396
 20
83.00000087601405
 30
0.0
 11
3.699998501270328
 21
83.00000087601405
 31
0.0
  0
POINT
  5
9D
330
2B
100
AcDbEntity
  8
0
100
AcDbPoint
 10
-0.0000014987296026
 20
83.00000087601405
 30
0.0
  0
ARC
  5
9E
330
2B
100
AcDbEntity
  8
0
100
AcDbCircle
 10
2.399998501270374
 20
82.31966763522104
 30
0.0
 40
0.6
100
AcDbArc
 50
0.0
 51
88.09084756699943
  0
ARC
  5
9F
330
2B
100
AcDbEntity
  8
0
100
AcDbCircle
 10
2.399998501270374
 20
85.68033411680508
 30
0.0
 40
0.6
100
AcDbArc
 50
271.909152432994
 51
0.0
  0
LINE
  5
A0
330
2B
100
AcDbEntity
  8
0
100
AcDbLine
 10
9.499998501270397
 20
81.00000087601406
 30
0.0
 11
7.999998501269374
 21
81.00000087601406
 31
0.0
  0
ARC
  5
A1
330
2B
100
AcDbEntity
  8
0
100
AcDbCircle
 10
0.5999985012704201
 20
84.41966763522106
 30
0.0
 40
0.6
100
AcDbArc
 50
91.90915243299405
 51
180.0
  0
ARC
  5
A2
330
2B
100
AcDbEntity
  8
0
100
AcDbCircle
 10
0.5999985012704201
 20
83.58033411680606
 30
0.0
 40
0.6
100
AcDbArc
 50
180.0
 51
268.0908475670059
  0
LINE
  5
A3
330
2B
100
AcDbEntity
  8
0
100
AcDbLine
 10
-0.0000014987296026
 20
84.41966763522106
 30
0.0
 11
-0.0000014987296026
 21
83.58033411680606
 31
0.0
  0
LINE
  5
A4
330
2B
100
AcDbEntity
  8
0
100
AcDbLine
 10
0.5800096031304065
 20
82.98066717261804
 30
0.0
 11
2.419987399409365
 21
82.91933457940904
 31
0.0
  0
LINE
  5
A5
330
2B
100
AcDbEntity
  8
0
100
AcDbLine
 10
2.419987399409365
 20
85.08066717261806
 30
0.0
 11
0.5800096031304065
 21
85.01933457940902
 31
0.0
  0
LINE
  5
A6
330
2B
100
AcDbEntity
  8
0
100
AcDbLine
 10
2.999998501270396
 20
89.31966763522103
 30
0.0
 11
2.999998501270396
 21
85.68033411680508
 31
0.0
  0
LINE
  5
A7
330
2B
100
AcDbEntity
  8
0
100
AcDbLine
 10
9.699998501269419
 20
72.47381495444506
 30
0.0
 11
7.999998501269374
 21
72.47381495444506
 31
0.0
  0
POINT
  5
A8
330
2B
100
AcDbEntity
  8
0
100
AcDbPoint
 10
-0.0000014987296026
 20
76.00000087601405
 30
0.0
  0
ARC
  5
A9
330
2B
100
AcDbEntity
  8
0
100
AcDbCircle
 10
2.399998501270374
 20
75.31966763522103
 30
0.0
 40
0.6
100
AcDbArc
 50
0.0
 51
88.09084756699943
  0
ARC
  5
AA
330
2B
100
AcDbEntity
  8
0
100
AcDbCircle
 10
2.399998501270374
 20
78.68033411680507
 30
0.0
 40
0.6
100
AcDbArc
 50
271.909152432994
 51
0.0
  0
LINE
  5
AB
330
2B
100
AcDbEntity
  8
0
100
AcDbLine
 10
9.499998501270397
 20
73.00000087601405
 30
0.0
 11
7.999998501269374
 21
73.00000087601405
 31
0.0
  0
ARC
  5
AC
330
2B
100
AcDbEntity
  8
0
100
AcDbCircle
 10
0.5999985012704201
 20
77.41966763522106
 30
0.0
 40
0.6
100
AcDbArc
 50
91.90915243299405
 51
180.0
  0
ARC
  5
AD
330
2B
100
AcDbEntity
  8
0
100
AcDbCircle
 10
0.5999985012704201
 20
76.58033411680604
 30
0.0
 40
0.6
100
AcDbArc
 50
180.0
 51
268.0908475670059
  0
LINE
  5
AE
330
2B
100
AcDbEntity
  8
0
100
AcDbLine
 10
-0.0000014987296026
 20
77.41966763522106
 30
0.0
 11
-0.0000014987296026
 21
76.58033411680604
 31
0.0
  0
LINE
  5
AF
330
2B
100
AcDbEntity
  8
0
100
AcDbLine
 10
0.5800096031304065
 20
75.98066717261804
 30
0.0
 11
2.419987399409365
 21
75.91933457940905
 31
0.0
  0
LINE
  5
B0
330
2B
100
AcDbEntity
  8
0
100
AcDbLine
 10
2.419987399409365
 20
78.08066717261806
 30
0.0
 11
0.5800096031304065
 21
78.01933457940902
 31
0.0
  0
LINE
  5
B1
330
2B
100
AcDbEntity
  8
0
100
AcDbLine
 10
-0.0000014987296026
 20
64.61966763522207
 30
0.0
 11
-0.0000014987296026
 21
59.58033411680503
 31
0.0
  0
ARC
  5
B2
330
2B
100
AcDbEntity
  8
0
100
AcDbCircle
 10
0.5999985012693969
 20
64.41966763522106
 30
0.0
 40
0.6
100
AcDbArc
 50
91.90915243299405
 51
180.0
  0
LINE
  5
B3
330
2B
100
AcDbEntity
  8
0
100
AcDbLine
 10
0.5800096031304065
 20
65.01933457940904
 30
0.0
 11
2.999998501269373
 21
65.10000087601304
 31
0.0
  0
ARC
  5
B4
330
2B
100
AcDbEntity
  8
0
100
AcDbCircle
 10
0.5999985012693969
 20
64.61966763522207
 30
0.0
 40
0.6
100
AcDbArc
 50
91.90915243299405
 51
180.0
  0
LINE
  5
B5
330
2B
100
AcDbEntity
  8
0
100
AcDbLine
 10
0.5800096031304065
 20
65.21933457940908
 30
0.0
 11
2.999998501269373
 21
65.30000087601405
 31
0.0
  0
POINT
  5
B6
330
2B
100
AcDbEntity
  8
0
100
AcDbPoint
 10
-0.0000014987296026
 20
69.00000087601404
 30
0.0
  0
ARC
  5
B7
330
2B
100
AcDbEntity
  8
0
100
AcDbCircle
 10
2.399998501270374
 20
64.68033411680504
 30
0.0
 40
0.6
100
AcDbArc
 50
271.9091524329875
 51
0.0
  0
ARC
  5
B8
330
2B
100
AcDbEntity
  8
0
100
AcDbCircle
 10
2.399998501270374
 20
68.31966763522103
 30
0.0
 40
0.6
100
AcDbArc
 50
0.0
 51
88.09084756699943
  0
ARC
  5
B9
330
2B
100
AcDbEntity
  8
0
100
AcDbCircle
 10
0.5999985012704201
 20
69.58033411680606
 30
0.0
 40
0.6
100
AcDbArc
 50
180.0
 51
268.0908475670059
  0
ARC
  5
BA
330
2B
100
AcDbEntity
  8
0
100
AcDbCircle
 10
0.5999985012704201
 20
63.41966763522106
 30
0.0
 40
0.6
100
AcDbArc
 50
91.90915243299405
 51
180.0
  0
LINE
  5
BB
330
2B
100
AcDbEntity
  8
0
100
AcDbLine
 10
-0.0000014987296026
 20
70.41966763522106
 30
0.0
 11
-0.0000014987296026
 21
69.58033411680606
 31
0.0
  0
LINE
  5
BC
330
2B
100
AcDbEntity
  8
0
100
AcDbLine
 10
2.419987399409365
 20
64.08066717261807
 30
0.0
 11
0.5800096031304065
 21
64.01933457940903
 31
0.0
  0
LINE
  5
BD
330
2B
100
AcDbEntity
  8
0
100
AcDbLine
 10
2.999998501270396
 20
68.31966763522103
 30
0.0
 11
2.999998501270396
 21
64.68033411680504
 31
0.0
  0
LINE
  5
BE
330
2B
100
AcDbEntity
  8
0
100
AcDbLine
 10
0.5800096031304065
 20
68.98066717261804
 30
0.0
 11
2.419987399409365
 21
68.91933457940905
 31
0.0
  0
LINE
  5
BF
330
2B
100
AcDbEntity
  8
0
100
AcDbLine
 10
5.999998501270398
 20
70.97381495444506
 30
0.0
 11
4.999998501270396
 21
70.97381495444506
 31
0.0
  0
LINE
  5
C0
330
2B
100
AcDbEntity
  8
0
100
AcDbLine
 10
4.999998501270396
 20
71.00000087601405
 30
0.0
 11
3.699998501270328
 21
71.00000087601405
 31
0.0
  0
ARC
  5
C1
330
2B
100
AcDbEntity
  8
0
100
AcDbCircle
 10
2.399998501270374
 20
71.68033411680507
 30
0.0
 40
0.6
100
AcDbArc
 50
271.909152432994
 51
0.0
  0
LINE
  5
C2
330
2B
100
AcDbEntity
  8
0
100
AcDbLine
 10
2.419987399409365
 20
71.08066717261806
 30
0.0
 11
0.5800096031304065
 21
71.01933457940901
 31
0.0
  0
ARC
  5
C3
330
2B
100
AcDbEntity
  8
0
100
AcDbCircle
 10
0.5999985012693969
 20
70.41966763522106
 30
0.0
 40
0.6
100
AcDbArc
 50
91.90915243299405
 51
180.0
  0
ARC
  5
C4
330
2B
100
AcDbEntity
  8
0
100
AcDbCircle
 10
0.5999985012693969
 20
59.58033411680503
 30
0.0
 40
0.6
100
AcDbArc
 50
180.0
 51
268.0908475670059
  0
LINE
  5
C5
330
2B
100
AcDbEntity
  8
0
100
AcDbLine
 10
0.5800096031304065
 20
58.98066717261802
 30
0.0
 11
2.999998501269373
 21
58.90000087601305
 31
0.0
  0
POINT
  5
C6
330
2B
100
AcDbEntity
  8
0
100
AcDbPoint
 10
-0.0000014987296026
 20
55.00000087601302
 30
0.0
  0
POINT
  5
C7
330
2B
100
AcDbEntity
  8
0
100
AcDbPoint
 10
-0.0000014987296026
 20
62.00000087601302
 30
0.0
  0
ARC
  5
C8
330
2B
100
AcDbEntity
  8
0
100
AcDbCircle
 10
2.399998501270374
 20
57.68033411680505
 30
0.0
 40
0.6
100
AcDbArc
 50
271.909152432994
 51
0.0
  0
ARC
  5
C9
330
2B
100
AcDbEntity
  8
0
100
AcDbCircle
 10
2.399998501270374
 20
61.31966763522104
 30
0.0
 40
0.6
100
AcDbArc
 50
0.0
 51
88.09084756699943
  0
ARC
  5
CA
330
2B
100
AcDbEntity
  8
0
100
AcDbCircle
 10
0.5999985012704201
 20
62.58033411680606
 30
0.0
 40
0.6
100
AcDbArc
 50
180.0
 51
268.0908475670059
  0
ARC
  5
CB
330
2B
100
AcDbEntity
  8
0
100
AcDbCircle
 10
0.5999985012704201
 20
56.41966763522106
 30
0.0
 40
0.6
100
AcDbArc
 50
91.90915243299405
 51
180.0
  0
ARC
  5
CC
330
2B
100
AcDbEntity
  8
0
100
AcDbCircle
 10
0.5999985012704201
 20
55.58033411680606
 30
0.0
 40
0.6
100
AcDbArc
 50
180.0
 51
268.0908475670059
  0
LINE
  5
CD
330
2B
100
AcDbEntity
  8
0
100
AcDbLine
 10
-0.0000014987296026
 20
56.41966763522106
 30
0.0
 11
-0.0000014987296026
 21
55.58033411680606
 31
0.0
  0
LINE
  5
CE
330
2B
100
AcDbEntity
  8
0
100
AcDbLine
 10
0.5800096031304065
 20
54.98066717261803
 30
0.0
 11
2.419987399409365
 21
54.91933457940906
 31
0.0
  0
LINE
  5
CF
330
2B
100
AcDbEntity
  8
0
100
AcDbLine
 10
2.419987399409365
 20
57.08066717261806
 30
0.0
 11
0.5800096031304065
 21
57.01933457940903
 31
0.0
  0
LINE
  5
D0
330
2B
100
AcDbEntity
  8
0
100
AcDbLine
 10
2.999998501270396
 20
61.31966763522104
 30
0.0
 11
2.999998501270396
 21
57.68033411680505
 31
0.0
  0
LINE
  5
D1
330
2B
100
AcDbEntity
  8
0
100
AcDbLine
 10
0.5800096031304065
 20
61.98066717261802
 30
0.0
 11
2.419987399409365
 21
61.91933457940905
 31
0.0
  0
ARC
  5
D2
330
2B
100
AcDbEntity
  8
0
100
AcDbCircle
 10
2.399998501270374
 20
54.31966763522105
 30
0.0
 40
0.6
100
AcDbArc
 50
0.0
 51
88.09084756699943
  0
ARC
  5
D3
330
2B
100
AcDbEntity
  8
0
100
AcDbCircle
 10
2.399998501270374
 20
36.68033411680506
 30
0.0
 40
0.6
100
AcDbArc
 50
271.909152432994
 51
0.0
  0
LINE
  5
D4
330
2B
100
AcDbEntity
  8
0
100
AcDbLine
 10
2.999998501270396
 20
47.31966763522104
 30
0.0
 11
2.999998501270396
 21
43.68033411680506
 31
0.0
  0
POINT
  5
D5
330
2B
100
AcDbEntity
  8
0
100
AcDbPoint
 10
-0.0000014987296026
 20
48.00000087601404
 30
0.0
  0
ARC
  5
D6
330
2B
100
AcDbEntity
  8
0
100
AcDbCircle
 10
2.399998501270374
 20
47.31966763522104
 30
0.0
 40
0.6
100
AcDbArc
 50
0.0
 51
88.09084756699943
  0
ARC
  5
D7
330
2B
100
AcDbEntity
  8
0
100
AcDbCircle
 10
2.399998501270374
 20
50.68033411680506
 30
0.0
 40
0.6
100
AcDbArc
 50
271.909152432994
 51
0.0
  0
ARC
  5
D8
330
2B
100
AcDbEntity
  8
0
100
AcDbCircle
 10
0.5999985012693969
 20
49.41966763522106
 30
0.0
 40
0.6
100
AcDbArc
 50
91.90915243299405
 51
180.0
  0
ARC
  5
D9
330
2B
100
AcDbEntity
  8
0
100
AcDbCircle
 10
0.5999985012704201
 20
48.58033411680604
 30
0.0
 40
0.6
100
AcDbArc
 50
180.0
 51
268.0908475670059
  0
LINE
  5
DA
330
2B
100
AcDbEntity
  8
0
100
AcDbLine
 10
-0.0000014987296026
 20
49.41966763522106
 30
0.0
 11
-0.0000014987296026
 21
48.58033411680604
 31
0.0
  0
LINE
  5
DB
330
2B
100
AcDbEntity
  8
0
100
AcDbLine
 10
0.5800096031304065
 20
47.98066717261803
 30
0.0
 11
2.419987399409365
 21
47.91933457940904
 31
0.0
  0
LINE
  5
DC
330
2B
100
AcDbEntity
  8
0
100
AcDbLine
 10
2.419987399409365
 20
50.08066717261806
 30
0.0
 11
0.5800096031304065
 21
50.01933457940903
 31
0.0
  0
POINT
  5
DD
330
2B
100
AcDbEntity
  8
0
100
AcDbPoint
 10
-0.0000014987296026
 20
41.000000876013
 30
0.0
  0
ARC
  5
DE
330
2B
100
AcDbEntity
  8
0
100
AcDbCircle
 10
2.399998501270374
 20
40.31966763522103
 30
0.0
 40
0.6
100
AcDbArc
 50
0.0
 51
88.09084756699943
  0
ARC
  5
DF
330
2B
100
AcDbEntity
  8
0
100
AcDbCircle
 10
2.399998501270374
 20
43.68033411680506
 30
0.0
 40
0.6
100
AcDbArc
 50
271.909152432994
 51
0.0
  0
ARC
  5
E0
330
2B
100
AcDbEntity
  8
0
100
AcDbCircle
 10
0.5999985012693969
 20
42.41966763522106
 30
0.0
 40
0.6
100
AcDbArc
 50
91.90915243299405
 51
180.0
  0
ARC
  5
E1
330
2B
100
AcDbEntity
  8
0
100
AcDbCircle
 10
0.5999985012693969
 20
41.58033411680604
 30
0.0
 40
0.6
100
AcDbArc
 50
180.0
 51
268.0908475670059
  0
LINE
  5
E2
330
2B
100
AcDbEntity
  8
0
100
AcDbLine
 10
-0.0000014987296026
 20
42.41966763522106
 30
0.0
 11
-0.0000014987296026
 21
41.58033411680604
 31
0.0
  0
LINE
  5
E3
330
2B
100
AcDbEntity
  8
0
100
AcDbLine
 10
0.5800096031304065
 20
40.98066717261803
 30
0.0
 11
2.419987399409365
 21
40.91933457940903
 31
0.0
  0
LINE
  5
E4
330
2B
100
AcDbEntity
  8
0
100
AcDbLine
 10
2.419987399409365
 20
43.08066717261806
 30
0.0
 11
0.5800096031304065
 21
43.01933457940902
 31
0.0
  0
LINE
  5
E5
330
2B
100
AcDbEntity
  8
0
100
AcDbLine
 10
2.999998501270396
 20
40.31966763522103
 30
0.0
 11
2.999998501270396
 21
36.68033411680506
 31
0.0
  0
ARC
  5
E6
330
2B
100
AcDbEntity
  8
0
100
AcDbCircle
 10
0.5999985012693969
 20
27.58033411680605
 30
0.0
 40
0.6
100
AcDbArc
 50
180.0
 51
268.0908475670059
  0
LINE
  5
E7
330
2B
100
AcDbEntity
  8
0
100
AcDbLine
 10
9.699998501269419
 20
31.47381495444506
 30
0.0
 11
9.699998501269419
 21
22.47381495444505
 31
0.0
  0
LINE
  5
E8
330
2B
100
AcDbEntity
  8
0
100
AcDbLine
 10
7.999998501269374
 20
31.47381495444506
 30
0.0
 11
7.999998501269374
 21
22.47381495444505
 31
0.0
  0
LINE
  5
E9
330
2B
100
AcDbEntity
  8
0
100
AcDbLine
 10
4.999998501270396
 20
33.00000087601403
 30
0.0
 11
4.999998501270396
 21
21.00000087601301
 31
0.0
  0
LINE
  5
EA
330
2B
100
AcDbEntity
  8
0
100
AcDbLine
 10
4.499998501270396
 20
33.00000087601403
 30
0.0
 11
4.499998501270396
 21
21.00000087601403
 31
0.0
  0
LINE
  5
EB
330
2B
100
AcDbEntity
  8
0
100
AcDbLine
 10
3.699998501270328
 20
33.00000087601403
 30
0.0
 11
3.699998501270328
 21
21.10000087601302
 31
0.0
  0
LINE
  5
EC
330
2B
100
AcDbEntity
  8
0
100
AcDbLine
 10
9.499998501270397
 20
31.00000087601403
 30
0.0
 11
9.499998501270397
 21
23.00000087601403
 31
0.0
  0
LINE
  5
ED
330
2B
100
AcDbEntity
  8
0
100
AcDbLine
 10
8.699998501270329
 20
31.00000087601403
 30
0.0
 11
8.699998501270329
 21
23.00000087601403
 31
0.0
  0
LINE
  5
EE
330
2B
100
AcDbEntity
  8
0
100
AcDbLine
 10
8.09999850127042
 20
31.00000087601403
 30
0.0
 11
8.09999850127042
 21
23.00000087601403
 31
0.0
  0
ARC
  5
EF
330
2B
100
AcDbEntity
  8
0
100
AcDbCircle
 10
2.399998501270374
 20
29.68033411680505
 30
0.0
 40
0.6
100
AcDbArc
 50
271.909152432994
 51
0.0
  0
ARC
  5
F0
330
2B
100
AcDbEntity
  8
0
100
AcDbCircle
 10
0.5999985012704201
 20
28.41966763522099
 30
0.0
 40
0.6
100
AcDbArc
 50
91.90915243299405
 51
180.0
  0
LINE
  5
F1
330
2B
100
AcDbEntity
  8
0
100
AcDbLine
 10
-0.0000014987296026
 20
28.41966763522099
 30
0.0
 11
-0.0000014987296026
 21
27.58033411680605
 31
0.0
  0
LINE
  5
F2
330
2B
100
AcDbEntity
  8
0
100
AcDbLine
 10
2.419987399409365
 20
29.08066717261806
 30
0.0
 11
0.5800096031304065
 21
29.01933457940902
 31
0.0
  0
LINE
  5
F3
330
2B
100
AcDbEntity
  8
0
100
AcDbLine
 10
5.999998501270398
 20
32.97381495444602
 30
0.0
 11
4.999998501270396
 21
32.97381495444602
 31
0.0
  0
LINE
  5
F4
330
2B
100
AcDbEntity
  8
0
100
AcDbLine
 10
9.699998501269419
 20
31.47381495444506
 30
0.0
 11
7.999998501269374
 21
31.47381495444506
 31
0.0
  0
LINE
  5
F5
330
2B
100
AcDbEntity
  8
0
100
AcDbLine
 10
4.999998501270396
 20
33.00000087601403
 30
0.0
 11
3.699998501270328
 21
33.00000087601403
 31
0.0
  0
POINT
  5
F6
330
2B
100
AcDbEntity
  8
0
100
AcDbPoint
 10
-0.0000014987296026
 20
34.00000087601403
 30
0.0
  0
ARC
  5
F7
330
2B
100
AcDbEntity
  8
0
100
AcDbCircle
 10
2.399998501270374
 20
33.31966763522103
 30
0.0
 40
0.6
100
AcDbArc
 50
0.0
 51
88.09084756699943
  0
LINE
  5
F8
330
2B
100
AcDbEntity
  8
0
100
AcDbLine
 10
9.499998501270397
 20
31.00000087601403
 30
0.0
 11
7.999998501269374
 21
31.00000087601403
 31
0.0
  0
ARC
  5
F9
330
2B
100
AcDbEntity
  8
0
100
AcDbCircle
 10
0.5999985012693969
 20
35.41966763522106
 30
0.0
 40
0.6
100
AcDbArc
 50
91.90915243299405
 51
180.0
  0
ARC
  5
FA
330
2B
100
AcDbEntity
  8
0
100
AcDbCircle
 10
0.5999985012704201
 20
34.58033411680605
 30
0.0
 40
0.6
100
AcDbArc
 50
180.0
 51
268.0908475670059
  0
LINE
  5
FB
330
2B
100
AcDbEntity
  8
0
100
AcDbLine
 10
-0.0000014987296026
 20
35.41966763522106
 30
0.0
 11
-0.0000014987296026
 21
34.58033411680605
 31
0.0
  0
LINE
  5
FC
330
2B
100
AcDbEntity
  8
0
100
AcDbLine
 10
0.5800096031304065
 20
33.98066717261804
 30
0.0
 11
2.419987399409365
 21
33.91933457940905
 31
0.0
  0
LINE
  5
FD
330
2B
100
AcDbEntity
  8
0
100
AcDbLine
 10
2.419987399409365
 20
36.08066717261806
 30
0.0
 11
0.5800096031304065
 21
36.019334579409
 31
0.0
  0
LINE
  5
FE
330
2B
100
AcDbEntity
  8
0
100
AcDbLine
 10
2.999998501270396
 20
33.31966763522103
 30
0.0
 11
2.999998501270396
 21
29.68033411680505
 31
0.0
  0
LINE
  5
FF
330
2B
100
AcDbEntity
  8
0
100
AcDbLine
 10
5.999998501270398
 20
20.97381495444506
 30
0.0
 11
4.999998501270396
 21
20.97381495444506
 31
0.0
  0
LINE
  5
100
330
2B
100
AcDbEntity
  8
0
100
AcDbLine
 10
4.999998501270396
 20
21.00000087601403
 30
0.0
 11
3.699998501270328
 21
21.00000087601403
 31
0.0
  0
LINE
  5
101
330
2B
100
AcDbEntity
  8
0
100
AcDbLine
 10
9.699998501269419
 20
22.47381495444505
 30
0.0
 11
7.999998501269374
 21
22.47381495444505
 31
0.0
  0
POINT
  5
102
330
2B
100
AcDbEntity
  8
0
100
AcDbPoint
 10
-0.0000014987296026
 20
22.00000087601301
 30
0.0
  0
POINT
  5
103
330
2B
100
AcDbEntity
  8
0
100
AcDbPoint
 10
-0.0000014987296026
 20
27.00000087601301
 30
0.0
  0
ARC
  5
104
330
2B
100
AcDbEntity
  8
0
100
AcDbCircle
 10
2.499998501270396
 20
22.58361191000705
 30
0.0
 40
0.5
100
AcDbArc
 50
271.909152432994
 51
0.0
  0
ARC
  5
105
330
2B
100
AcDbEntity
  8
0
100
AcDbCircle
 10
2.399998501270374
 20
26.31966763522104
 30
0.0
 40
0.6
100
AcDbArc
 50
0.0
 51
88.09084756699943
  0
LINE
  5
106
330
2B
100
AcDbEntity
  8
0
100
AcDbLine
 10
9.499998501270397
 20
23.00000087601403
 30
0.0
 11
7.999998501269374
 21
23.00000087601403
 31
0.0
  0
LINE
  5
107
330
2B
100
AcDbEntity
  8
0
100
AcDbLine
 10
2.516655916386412
 20
22.08388945651705
 30
0.0
 11
0.5800096031304065
 21
22.01933457940902
 31
0.0
  0
LINE
  5
108
330
2B
100
AcDbEntity
  8
0
100
AcDbLine
 10
2.999998501270396
 20
26.31966763522104
 30
0.0
 11
2.999998501270396
 21
22.58361191000705
 31
0.0
  0
LINE
  5
109
330
2B
100
AcDbEntity
  8
0
100
AcDbLine
 10
0.5800096031304065
 20
26.98066717261804
 30
0.0
 11
2.419987399409365
 21
26.91933457940905
 31
0.0
  0
ARC
  5
10A
330
2B
100
AcDbEntity
  8
0
100
AcDbCircle
 10
0.5999985012704201
 20
21.419667635221
 30
0.0
 40
0.6
100
AcDbArc
 50
91.90915243299405
 51
180.0
  0
LINE
  5
10B
330
2B
100
AcDbEntity
  8
0
100
AcDbLine
 10
54.49999850127039
 20
54.97381495444507
 30
0.0
 11
54.49999850127039
 21
48.97381495444506
 31
0.0
  0
LINE
  5
10C
330
2B
100
AcDbEntity
  8
0
100
AcDbLine
 10
33.49999850127039
 20
48.97381495444506
 30
0.0
 11
33.49999850127039
 21
54.97381495444507
 31
0.0
  0
LINE
  5
10D
330
2B
100
AcDbEntity
  8
0
100
AcDbLine
 10
32.9999985012704
 20
82.97381495444506
 30
0.0
 11
32.9999985012704
 21
84.97381495444505
 31
0.0
  0
LINE
  5
10E
330
2B
100
AcDbEntity
  8
0
100
AcDbLine
 10
32.9999985012704
 20
75.97381495444506
 30
0.0
 11
32.9999985012704
 21
77.97381495444506
 31
0.0
  0
LINE
  5
10F
330
2B
100
AcDbEntity
  8
0
100
AcDbLine
 10
33.49999850127039
 20
63.97381495444506
 30
0.0
 11
33.49999850127039
 21
68.97381495444506
 31
0.0
  0
LINE
  5
110
330
2B
100
AcDbEntity
  8
0
100
AcDbLine
 10
33.49999850127039
 20
56.97381495444506
 30
0.0
 11
33.49999850127039
 21
61.97381495444506
 31
0.0
  0
LINE
  5
111
330
2B
100
AcDbEntity
  8
0
100
AcDbLine
 10
55.9999985012704
 20
82.97381495444506
 30
0.0
 11
55.9999985012704
 21
84.97381495444505
 31
0.0
  0
LINE
  5
112
330
2B
100
AcDbEntity
  8
0
100
AcDbLine
 10
54.99999850127039
 20
82.97381495444506
 30
0.0
 11
54.99999850127039
 21
84.97381495444505
 31
0.0
  0
LINE
  5
113
330
2B
100
AcDbEntity
  8
0
100
AcDbLine
 10
56.99999850127039
 20
82.97381495444506
 30
0.0
 11
54.99999850127039
 21
82.97381495444506
 31
0.0
  0
LINE
  5
114
330
2B
100
AcDbEntity
  8
0
100
AcDbLine
 10
56.99999850127039
 20
84.97381495444505
 30
0.0
 11
54.99999850127039
 21
84.97381495444505
 31
0.0
  0
LINE
  5
115
330
2B
100
AcDbEntity
  8
0
100
AcDbLine
 10
55.9999985012704
 20
75.97381495444506
 30
0.0
 11
55.9999985012704
 21
77.97381495444506
 31
0.0
  0
LINE
  5
116
330
2B
100
AcDbEntity
  8
0
100
AcDbLine
 10
54.99999850127039
 20
75.97381495444506
 30
0.0
 11
54.99999850127039
 21
77.97381495444506
 31
0.0
  0
LINE
  5
117
330
2B
100
AcDbEntity
  8
0
100
AcDbLine
 10
56.99999850127039
 20
75.97381495444506
 30
0.0
 11
54.99999850127039
 21
75.97381495444506
 31
0.0
  0
LINE
  5
118
330
2B
100
AcDbEntity
  8
0
100
AcDbLine
 10
56.99999850127039
 20
77.97381495444506
 30
0.0
 11
54.99999850127039
 21
77.97381495444506
 31
0.0
  0
LINE
  5
119
330
2B
100
AcDbEntity
  8
0
100
AcDbLine
 10
55.9999985012704
 20
61.97381495444506
 30
0.0
 11
55.9999985012704
 21
63.97381495444506
 31
0.0
  0
LINE
  5
11A
330
2B
100
AcDbEntity
  8
0
100
AcDbLine
 10
54.99999850127039
 20
61.97381495444506
 30
0.0
 11
54.99999850127039
 21
63.97381495444506
 31
0.0
  0
LINE
  5
11B
330
2B
100
AcDbEntity
  8
0
100
AcDbLine
 10
54.49999850127039
 20
68.97381495444506
 30
0.0
 11
54.49999850127039
 21
63.97381495444506
 31
0.0
  0
LINE
  5
11C
330
2B
100
AcDbEntity
  8
0
100
AcDbLine
 10
55.9999985012704
 20
68.97381495444506
 30
0.0
 11
55.9999985012704
 21
70.97381495444506
 31
0.0
  0
LINE
  5
11D
330
2B
100
AcDbEntity
  8
0
100
AcDbLine
 10
54.99999850127039
 20
68.97381495444506
 30
0.0
 11
54.99999850127039
 21
70.97381495444506
 31
0.0
  0
LINE
  5
11E
330
2B
100
AcDbEntity
  8
0
100
AcDbLine
 10
54.49999850127039
 20
61.97381495444506
 30
0.0
 11
54.49999850127039
 21
56.97381495444506
 31
0.0
  0
LINE
  5
11F
330
2B
100
AcDbEntity
  8
0
100
AcDbLine
 10
55.9999985012704
 20
54.97381495444507
 30
0.0
 11
55.9999985012704
 21
56.97381495444506
 31
0.0
  0
LINE
  5
120
330
2B
100
AcDbEntity
  8
0
100
AcDbLine
 10
54.99999850127039
 20
54.97381495444507
 30
0.0
 11
54.99999850127039
 21
56.97381495444506
 31
0.0
  0
LINE
  5
121
330
2B
100
AcDbEntity
  8
0
100
AcDbLine
 10
38.9999985012704
 20
49.97381495444507
 30
0.0
 11
48.9999985012704
 21
49.97381495444507
 31
0.0
  0
LINE
  5
122
330
2B
100
AcDbEntity
  8
0
100
AcDbLine
 10
54.49999850127039
 20
48.97381495444506
 30
0.0
 11
33.49999850127039
 21
48.97381495444506
 31
0.0
  0
LINE
  5
123
330
2B
100
AcDbEntity
  8
0
100
AcDbLine
 10
32.9999985012704
 20
47.97381495444507
 30
0.0
 11
32.9999985012704
 21
49.97381495444507
 31
0.0
  0
ARC
  5
124
330
2B
100
AcDbEntity
  8
0
100
AcDbCircle
 10
38.9999985012704
 20
50.47381495444507
 30
0.0
 40
0.5
100
AcDbArc
 50
251.374822272642
 51
270.0
  0
ARC
  5
125
330
2B
100
AcDbEntity
  8
0
100
AcDbCircle
 10
48.9999985012704
 20
50.47381495444507
 30
0.0
 40
0.5
100
AcDbArc
 50
270.0
 51
288.6251777273578
  0
LINE
  5
126
330
2B
100
AcDbEntity
  8
0
100
AcDbLine
 10
55.9999985012704
 20
47.97381495444507
 30
0.0
 11
55.9999985012704
 21
49.97381495444507
 31
0.0
  0
LINE
  5
127
330
2B
100
AcDbEntity
  8
0
100
AcDbLine
 10
54.99999850127039
 20
47.97381495444507
 30
0.0
 11
54.99999850127039
 21
49.97381495444507
 31
0.0
  0
LINE
  5
128
330
2B
100
AcDbEntity
  8
0
100
AcDbLine
 10
56.99999850127039
 20
47.97381495444507
 30
0.0
 11
54.99999850127039
 21
47.97381495444507
 31
0.0
  0
LINE
  5
129
330
2B
100
AcDbEntity
  8
0
100
AcDbLine
 10
56.99999850127039
 20
49.97381495444507
 30
0.0
 11
54.99999850127039
 21
49.97381495444507
 31
0.0
  0
LINE
  5
12A
330
2B
100
AcDbEntity
  8
0
100
AcDbLine
 10
55.9999985012704
 20
40.97381495444506
 30
0.0
 11
55.9999985012704
 21
42.97381495444507
 31
0.0
  0
LINE
  5
12B
330
2B
100
AcDbEntity
  8
0
100
AcDbLine
 10
54.99999850127039
 20
40.97381495444506
 30
0.0
 11
54.99999850127039
 21
42.97381495444507
 31
0.0
  0
LINE
  5
12C
330
2B
100
AcDbEntity
  8
0
100
AcDbLine
 10
55.9999985012704
 20
26.97381495444505
 30
0.0
 11
55.9999985012704
 21
28.97381495444506
 31
0.0
  0
LINE
  5
12D
330
2B
100
AcDbEntity
  8
0
100
AcDbLine
 10
54.99999850127039
 20
26.97381495444505
 30
0.0
 11
54.99999850127039
 21
28.97381495444506
 31
0.0
  0
LINE
  5
12E
330
2B
100
AcDbEntity
  8
0
100
AcDbLine
 10
55.9999985012704
 20
33.97381495444505
 30
0.0
 11
55.9999985012704
 21
35.97381495444506
 31
0.0
  0
LINE
  5
12F
330
2B
100
AcDbEntity
  8
0
100
AcDbLine
 10
54.99999850127039
 20
33.97381495444505
 30
0.0
 11
54.99999850127039
 21
35.97381495444506
 31
0.0
  0
LINE
  5
130
330
2B
100
AcDbEntity
  8
0
100
AcDbLine
 10
57.9999985012704
 20
3.585961111277015
 30
0.0
 11
4.999998501270396
 21
4.973814954445058
 31
0.0
  0
LINE
  5
131
330
2B
100
AcDbEntity
  8
0
100
AcDbLine
 10
3.999998501270396
 20
5.000000876014039
 30
0.0
 11
57.9999985012704
 21
3.585961111277015
 31
0.0
  0
LINE
  5
132
330
2B
100
AcDbEntity
  8
0
100
AcDbLine
 10
-0.0000014987296026
 20
0.0000008760140418
 30
0.0
 11
57.9999985012704
 21
0.0000008760140418
 31
0.0
  0
LINE
  5
133
330
2B
100
AcDbEntity
  8
0
100
AcDbLine
 10
3.999998501270396
 20
5.000000876014039
 30
0.0
 11
-0.0000014987296026
 21
4.895257189737034
 31
0.0
  0
LINE
  5
134
330
2B
100
AcDbEntity
  8
0
100
AcDbLine
 10
31.09999850127036
 20
3.800000876013028
 30
0.0
 11
31.09999850127036
 21
0.0000008760140418
 31
0.0
  0
LINE
  5
135
330
2B
100
AcDbEntity
  8
0
100
AcDbLine
 10
26.89999850126941
 20
3.800000876013028
 30
0.0
 11
26.89999850126941
 21
0.0000008760140418
 31
0.0
  0
LINE
  5
136
330
2B
100
AcDbEntity
  8
0
100
AcDbLine
 10
23.49999850127038
 20
3.800000876013028
 30
0.0
 11
34.49999850127039
 21
3.800000876013028
 31
0.0
  0
LINE
  5
137
330
2B
100
AcDbEntity
  8
0
100
AcDbLine
 10
23.49999850127038
 20
4.489375405414079
 30
0.0
 11
23.49999850127038
 21
3.800000876013028
 31
0.0
  0
LINE
  5
138
330
2B
100
AcDbEntity
  8
0
100
AcDbLine
 10
34.49999850127039
 20
4.201330268154038
 30
0.0
 11
34.49999850127039
 21
3.800000876013028
 31
0.0
  0
LINE
  5
139
330
2B
100
AcDbEntity
  8
0
100
AcDbLine
 10
57.9999985012704
 20
0.0000008760140418
 30
0.0
 11
57.9999985012704
 21
3.585961111277015
 31
0.0
  0
LINE
  5
13A
330
2B
100
AcDbEntity
  8
0
100
AcDbLine
 10
41.14999850127042
 20
120.973814954445
 30
0.0
 11
41.14999850127042
 21
124.3738149544449
 31
0.0
  0
LINE
  5
13B
330
2B
100
AcDbEntity
  8
0
100
AcDbLine
 10
41.14999850127042
 20
124.3738149544449
 30
0.0
 11
47.44999850127043
 21
124.3738149544449
 31
0.0
  0
LINE
  5
13C
330
2B
100
AcDbEntity
  8
0
100
AcDbLine
 10
47.44999850127043
 20
124.3738149544449
 30
0.0
 11
47.44999850127043
 21
120.973814954445
 31
0.0
  0
LINE
  5
13D
330
2B
100
AcDbEntity
  8
0
100
AcDbLine
 10
15.59999850126938
 20
126.273814954445
 30
0.0
 11
15.59999850126938
 21
127.5738149544449
 31
0.0
  0
LINE
  5
13E
330
2B
100
AcDbEntity
  8
0
100
AcDbLine
 10
15.59999850126938
 20
127.5738149544449
 30
0.0
 11
24.94499850126947
 21
127.5738149544449
 31
0.0
  0
LINE
  5
13F
330
2B
100
AcDbEntity
  8
0
100
AcDbLine
 10
24.94499850126947
 20
127.5738149544449
 30
0.0
 11
24.94499850126947
 21
120.973814954445
 31
0.0
  0
LINE
  5
140
330
2B
100
AcDbEntity
  8
0
100
AcDbLine
 10
15.19999850126942
 20
121.973814954445
 30
0.0
 11
15.19999850126942
 21
126.273814954445
 31
0.0
  0
LINE
  5
141
330
2B
100
AcDbEntity
  8
0
100
AcDbLine
 10
15.19999850126942
 20
126.273814954445
 30
0.0
 11
21.09999850126945
 21
126.273814954445
 31
0.0
  0
LINE
  5
142
330
2B
100
AcDbEntity
  8
0
100
AcDbLine
 10
21.09999850126945
 20
126.273814954445
 30
0.0
 11
21.09999850126945
 21
121.973814954445
 31
0.0
  0
LINE
  5
143
330
2B
100
AcDbEntity
  8
0
100
AcDbLine
 10
14.09999850127042
 20
120.973814954445
 30
0.0
 11
14.09999850127042
 21
121.973814954445
 31
0.0
  0
LINE
  5
144
330
2B
100
AcDbEntity
  8
0
100
AcDbLine
 10
14.09999850127042
 20
121.973814954445
 30
0.0
 11
22.69999850126946
 21
121.973814954445
 31
0.0
  0
LINE
  5
145
330
2B
100
AcDbEntity
  8
0
100
AcDbLine
 10
22.69999850126946
 20
121.973814954445
 30
0.0
 11
22.69999850126946
 21
120.973814954445
 31
0.0
  0
LINE
  5
146
330
2B
100
AcDbEntity
  8
0
100
AcDbLine
 10
48.9999985012704
 20
50.00000087601303
 30
0.0
 11
38.9999985012704
 21
50.00000087601303
 31
0.0
  0
LINE
  5
147
330
2B
100
AcDbEntity
  8
0
100
AcDbLine
 10
51.4999985012704
 20
102.0000008760127
 30
0.0
 11
49.99999850127039
 21
102.0000008760127
 31
0.0
  0
LINE
  5
148
330
2B
100
AcDbEntity
  8
0
100
AcDbLine
 10
53.4999985012704
 20
52.00000087601302
 30
0.0
 11
34.49999850127039
 21
52.00000087601303
 31
0.0
  0
LINE
  5
149
330
2B
100
AcDbEntity
  8
0
100
AcDbLine
 10
34.49999850127039
 20
90.00000087601303
 30
0.0
 11
53.4999985012704
 21
90.00000087601302
 31
0.0
  0
LINE
  5
14A
330
2B
100
AcDbEntity
  8
0
100
AcDbLine
 10
34.49999850127039
 20
92.00000087601305
 30
0.0
 11
53.4999985012704
 21
92.00000087601299
 31
0.0
  0
LINE
  5
14B
330
2B
100
AcDbEntity
  8
0
100
AcDbLine
 10
34.55277668742439
 20
102.0000008760127
 30
0.0
 11
53.44722031511543
 21
102.0000008760127
 31
0.0
  0
LINE
  5
14C
330
2B
100
AcDbEntity
  8
0
100
AcDbLine
 10
34.55277668742439
 20
102.0000008760127
 30
0.0
 11
34.55277668742439
 21
92.00000087601305
 31
0.0
  0
LINE
  5
14D
330
2B
100
AcDbEntity
  8
0
100
AcDbLine
 10
53.44722031511543
 20
102.0000008760127
 30
0.0
 11
53.44722031511543
 21
92.00000087601299
 31
0.0
  0
LINE
  5
14E
330
2B
100
AcDbEntity
  8
0
100
AcDbLine
 10
53.4999985012704
 20
92.00000087601299
 30
0.0
 11
53.4999985012704
 21
50.00000087601303
 31
0.0
  0
LINE
  5
14F
330
2B
100
AcDbEntity
  8
0
100
AcDbLine
 10
53.4999985012704
 20
50.00000087601303
 30
0.0
 11
34.49999850127039
 21
50.00000087601303
 31
0.0
  0
LINE
  5
150
330
2B
100
AcDbEntity
  8
0
100
AcDbLine
 10
34.49999850127039
 20
50.00000087601303
 30
0.0
 11
34.49999850127039
 21
92.00000087601305
 31
0.0
  0
LINE
  5
151
330
2B
100
AcDbEntity
  8
0
100
AcDbLine
 10
38.9999985012704
 20
52.00000087601303
 30
0.0
 11
38.9999985012704
 21
49.97381495444507
 31
0.0
  0
ARC
  5
152
330
2B
100
AcDbEntity
  8
0
100
AcDbCircle
 10
35.2999985012704
 20
82.00000087601303
 30
0.0
 40
1.05
100
AcDbArc
 50
139.6324064558198
 51
220.36759354418
  0
LINE
  5
153
330
2B
100
AcDbEntity
  8
0
100
AcDbLine
 10
48.9999985012704
 20
49.97381495444507
 30
0.0
 11
48.9999985012704
 21
52.00000087601302
 31
0.0
  0
LINE
  5
154
330
2B
100
AcDbEntity
  8
0
100
AcDbLine
 10
34.55277668742439
 20
98.97381495444506
 30
0.0
 11
15.99999850127039
 21
98.97381495444506
 31
0.0
  0
LINE
  5
155
330
2B
100
AcDbEntity
  8
0
100
AcDbLine
 10
34.55277668742439
 20
96.97381495444506
 30
0.0
 11
15.99999850127039
 21
96.97381495444506
 31
0.0
  0
LINE
  5
156
330
2B
100
AcDbEntity
  8
0
100
AcDbLine
 10
34.49999850127034
 20
70.97381495444506
 30
0.0
 11
15.99999850127039
 21
70.97381495444506
 31
0.0
  0
LINE
  5
157
330
2B
100
AcDbEntity
  8
0
100
AcDbLine
 10
34.49999850127034
 20
68.97381495444506
 30
0.0
 11
15.99999850127039
 21
68.97381495444506
 31
0.0
  0
LINE
  5
158
330
2B
100
AcDbEntity
  8
0
100
AcDbLine
 10
34.49999850127034
 20
63.97381495444506
 30
0.0
 11
15.99999850127039
 21
63.97381495444506
 31
0.0
  0
LINE
  5
159
330
2B
100
AcDbEntity
  8
0
100
AcDbLine
 10
34.49999850127034
 20
61.97381495444506
 30
0.0
 11
15.99999850127039
 21
61.97381495444506
 31
0.0
  0
LINE
  5
15A
330
2B
100
AcDbEntity
  8
0
100
AcDbLine
 10
34.49999850127034
 20
56.97381495444506
 30
0.0
 11
15.99999850127039
 21
56.97381495444506
 31
0.0
  0
LINE
  5
15B
330
2B
100
AcDbEntity
  8
0
100
AcDbLine
 10
34.49999850127034
 20
54.97381495444507
 30
0.0
 11
15.99999850127039
 21
54.97381495444507
 31
0.0
  0
LINE
  5
15C
330
2B
100
AcDbEntity
  8
0
100
AcDbLine
 10
48.9999985012704
 20
50.00000087601303
 30
0.0
 11
53.4999985012704
 21
50.00000087601303
 31
0.0
  0
LINE
  5
15D
330
2B
100
AcDbEntity
  8
0
100
AcDbLine
 10
53.4999985012704
 20
50.00000087601303
 30
0.0
 11
53.4999985012704
 21
50.00000087601303
 31
0.0
  0
ENDBLK
  5
15F
330
2B
100
AcDbEntity
  8
0
100
AcDbBlockEnd
  0
BLOCK
  5
230
330
160
100
AcDbEntity
  8
0
100
AcDbBlockBegin
  2
A$C413B70EE
 70
     0
 10
0.0
 20
0.0
 30
0.0
  3
A$C413B70EE
  1

  0
LINE
  5
161
330
160
100
AcDbEntity
  8
0
100
AcDbLine
 10
127.5999998339284
 20
200.3690727306389
 30
0.0
 11
127.5999998339284
 21
6.63093194633106
 31
0.0
  0
LINE
  5
162
330
160
100
AcDbEntity
  8
0
100
AcDbLine
 10
122.5999998339284
 20
6.500002338485045
 30
0.0
 11
122.5999998339284
 21
16.50000233848504
 31
0.0
  0
LINE
  5
163
330
160
100
AcDbEntity
  8
0
100
AcDbLine
 10
6.599999833929357
 20
16.50000233848504
 30
0.0
 11
6.599999833929357
 21
190.5000023384846
 31
0.0
  0
LINE
  5
164
330
160
100
AcDbEntity
  8
0
100
AcDbLine
 10
6.599999833929357
 20
190.5000023384846
 30
0.0
 11
122.5999998339284
 21
190.5000023384846
 31
0.0
  0
LINE
  5
165
330
160
100
AcDbEntity
  8
0
100
AcDbLine
 10
6.599999833929357
 20
16.50000233848504
 30
0.0
 11
122.5999998339284
 21
16.50000233848504
 31
0.0
  0
LINE
  5
166
330
160
100
AcDbEntity
  8
0
100
AcDbLine
 10
122.5999998339284
 20
200.5000023384849
 30
0.0
 11
127.5999998339284
 21
200.3690727306389
 31
0.0
  0
LINE
  5
167
330
160
100
AcDbEntity
  8
0
100
AcDbLine
 10
124.014039598665
 20
200.4629744041099
 30
0.0
 11
124.0140395986643
 21
6.537030272860023
 31
0.0
  0
LINE
  5
168
330
160
100
AcDbEntity
  8
0
100
AcDbLine
 10
122.5999998339284
 20
6.500002338485045
 30
0.0
 11
127.5999998339284
 21
6.63093194633106
 31
0.0
  0
LINE
  5
169
330
160
100
AcDbEntity
  8
0
100
AcDbLine
 10
6.599999833929357
 20
16.50000233848504
 30
0.0
 11
6.599999833929357
 21
190.5000023384846
 31
0.0
  0
LINE
  5
16A
330
160
100
AcDbEntity
  8
0
100
AcDbLine
 10
6.599999833929357
 20
190.5000023384846
 30
0.0
 11
123.9878536770973
 21
190.5000023384846
 31
0.0
  0
LINE
  5
16B
330
160
100
AcDbEntity
  8
0
100
AcDbLine
 10
23.59999983392935
 20
16.50000233848504
 30
0.0
 11
23.59999983392935
 21
190.5000023384846
 31
0.0
  0
LINE
  5
16C
330
160
100
AcDbEntity
  8
0
100
AcDbLine
 10
105.5999998339291
 20
16.50000233848504
 30
0.0
 11
105.5999998339291
 21
190.5000023384846
 31
0.0
  0
LINE
  5
16D
330
160
100
AcDbEntity
  8
0
100
AcDbLine
 10
23.59999983392935
 20
189.5000023384849
 30
0.0
 11
105.5999998339291
 21
189.5000023384849
 31
0.0
  0
LINE
  5
16E
330
160
100
AcDbEntity
  8
0
100
AcDbLine
 10
28.59999983392935
 20
187.5000023384849
 30
0.0
 11
30.59999983392935
 21
187.5000023384849
 31
0.0
  0
LINE
  5
16F
330
160
100
AcDbEntity
  8
0
100
AcDbLine
 10
28.59999983392935
 20
17.50000233848504
 30
0.0
 11
28.59999983392935
 21
70.75000233848505
 31
0.0
  0
LINE
  5
170
330
160
100
AcDbEntity
  8
0
100
AcDbLine
 10
30.59999983392935
 20
17.50000233848504
 30
0.0
 11
30.59999983392935
 21
70.75000233848505
 31
0.0
  0
LINE
  5
171
330
160
100
AcDbEntity
  8
0
100
AcDbLine
 10
28.59999983392935
 20
136.2500023384842
 30
0.0
 11
30.59999983392935
 21
136.2500023384842
 31
0.0
  0
LINE
  5
172
330
160
100
AcDbEntity
  8
0
100
AcDbLine
 10
28.59999983392935
 20
70.75000233848505
 30
0.0
 11
30.59999983392935
 21
70.75000233848505
 31
0.0
  0
LINE
  5
173
330
160
100
AcDbEntity
  8
0
100
AcDbLine
 10
23.59999983392935
 20
17.50000233848504
 30
0.0
 11
105.5999998339291
 21
17.50000233848504
 31
0.0
  0
LINE
  5
174
330
160
100
AcDbEntity
  8
0
100
AcDbLine
 10
28.59999983392935
 20
19.50000233848504
 30
0.0
 11
30.59999983392935
 21
19.50000233848504
 31
0.0
  0
LINE
  5
175
330
160
100
AcDbEntity
  8
0
100
AcDbLine
 10
28.59999983392935
 20
136.2500023384842
 30
0.0
 11
28.59999983392935
 21
189.5000023384849
 31
0.0
  0
LINE
  5
176
330
160
100
AcDbEntity
  8
0
100
AcDbLine
 10
30.59999983392935
 20
136.2500023384842
 30
0.0
 11
30.59999983392935
 21
189.5000023384849
 31
0.0
  0
LINE
  5
177
330
160
100
AcDbEntity
  8
0
100
AcDbLine
 10
35.59999983392936
 20
187.5000023384849
 30
0.0
 11
37.59999983392936
 21
187.5000023384849
 31
0.0
  0
LINE
  5
178
330
160
100
AcDbEntity
  8
0
100
AcDbLine
 10
35.59999983392936
 20
17.50000233848504
 30
0.0
 11
35.59999983392936
 21
70.75000233848505
 31
0.0
  0
LINE
  5
179
330
160
100
AcDbEntity
  8
0
100
AcDbLine
 10
37.59999983392936
 20
17.50000233848504
 30
0.0
 11
37.59999983392936
 21
70.75000233848505
 31
0.0
  0
LINE
  5
17A
330
160
100
AcDbEntity
  8
0
100
AcDbLine
 10
35.59999983392936
 20
136.2500023384842
 30
0.0
 11
37.59999983392936
 21
136.2500023384842
 31
0.0
  0
LINE
  5
17B
330
160
100
AcDbEntity
  8
0
100
AcDbLine
 10
35.59999983392936
 20
70.75000233848505
 30
0.0
 11
37.59999983392936
 21
70.75000233848505
 31
0.0
  0
LINE
  5
17C
330
160
100
AcDbEntity
  8
0
100
AcDbLine
 10
35.59999983392936
 20
19.50000233848504
 30
0.0
 11
37.59999983392936
 21
19.50000233848504
 31
0.0
  0
LINE
  5
17D
330
160
100
AcDbEntity
  8
0
100
AcDbLine
 10
35.59999983392936
 20
136.2500023384842
 30
0.0
 11
35.59999983392936
 21
189.5000023384849
 31
0.0
  0
LINE
  5
17E
330
160
100
AcDbEntity
  8
0
100
AcDbLine
 10
37.59999983392936
 20
136.2500023384842
 30
0.0
 11
37.59999983392936
 21
189.5000023384849
 31
0.0
  0
LINE
  5
17F
330
160
100
AcDbEntity
  8
0
100
AcDbLine
 10
42.59999983392936
 20
187.5000023384849
 30
0.0
 11
44.59999983392934
 21
187.5000023384849
 31
0.0
  0
LINE
  5
180
330
160
100
AcDbEntity
  8
0
100
AcDbLine
 10
42.59999983392936
 20
17.50000233848504
 30
0.0
 11
42.59999983392936
 21
70.75000233848505
 31
0.0
  0
LINE
  5
181
330
160
100
AcDbEntity
  8
0
100
AcDbLine
 10
44.59999983392934
 20
17.50000233848504
 30
0.0
 11
44.59999983392934
 21
70.75000233848505
 31
0.0
  0
LINE
  5
182
330
160
100
AcDbEntity
  8
0
100
AcDbLine
 10
42.59999983392936
 20
136.2500023384842
 30
0.0
 11
44.59999983392934
 21
136.2500023384842
 31
0.0
  0
LINE
  5
183
330
160
100
AcDbEntity
  8
0
100
AcDbLine
 10
42.59999983392936
 20
70.75000233848505
 30
0.0
 11
44.59999983392934
 21
70.75000233848505
 31
0.0
  0
LINE
  5
184
330
160
100
AcDbEntity
  8
0
100
AcDbLine
 10
42.59999983392936
 20
19.50000233848504
 30
0.0
 11
44.59999983392934
 21
19.50000233848504
 31
0.0
  0
LINE
  5
185
330
160
100
AcDbEntity
  8
0
100
AcDbLine
 10
42.59999983392936
 20
136.2500023384842
 30
0.0
 11
42.59999983392936
 21
189.5000023384849
 31
0.0
  0
LINE
  5
186
330
160
100
AcDbEntity
  8
0
100
AcDbLine
 10
44.59999983392934
 20
136.2500023384842
 30
0.0
 11
44.59999983392934
 21
189.5000023384849
 31
0.0
  0
LINE
  5
187
330
160
100
AcDbEntity
  8
0
100
AcDbLine
 10
49.59999983392936
 20
17.50000233848504
 30
0.0
 11
49.59999983392936
 21
70.75000233848505
 31
0.0
  0
LINE
  5
188
330
160
100
AcDbEntity
  8
0
100
AcDbLine
 10
51.59999983392935
 20
17.50000233848504
 30
0.0
 11
51.59999983392935
 21
70.75000233848505
 31
0.0
  0
LINE
  5
189
330
160
100
AcDbEntity
  8
0
100
AcDbLine
 10
49.59999983392936
 20
136.2500023384842
 30
0.0
 11
51.59999983392935
 21
136.2500023384842
 31
0.0
  0
LINE
  5
18A
330
160
100
AcDbEntity
  8
0
100
AcDbLine
 10
49.59999983392936
 20
70.75000233848505
 30
0.0
 11
51.59999983392935
 21
70.75000233848505
 31
0.0
  0
LINE
  5
18B
330
160
100
AcDbEntity
  8
0
100
AcDbLine
 10
49.59999983392936
 20
19.50000233848504
 30
0.0
 11
51.59999983392935
 21
19.50000233848504
 31
0.0
  0
LINE
  5
18C
330
160
100
AcDbEntity
  8
0
100
AcDbLine
 10
49.59999983392936
 20
136.2500023384842
 30
0.0
 11
49.59999983392936
 21
189.5000023384849
 31
0.0
  0
LINE
  5
18D
330
160
100
AcDbEntity
  8
0
100
AcDbLine
 10
51.59999983392935
 20
136.2500023384842
 30
0.0
 11
51.59999983392935
 21
189.5000023384849
 31
0.0
  0
LINE
  5
18E
330
160
100
AcDbEntity
  8
0
100
AcDbLine
 10
56.59999983392935
 20
187.5000023384849
 30
0.0
 11
58.59999983392936
 21
187.5000023384849
 31
0.0
  0
LINE
  5
18F
330
160
100
AcDbEntity
  8
0
100
AcDbLine
 10
56.59999983392935
 20
17.50000233848504
 30
0.0
 11
56.59999983392935
 21
70.75000233848505
 31
0.0
  0
LINE
  5
190
330
160
100
AcDbEntity
  8
0
100
AcDbLine
 10
58.59999983392936
 20
17.50000233848504
 30
0.0
 11
58.59999983392936
 21
70.75000233848505
 31
0.0
  0
LINE
  5
191
330
160
100
AcDbEntity
  8
0
100
AcDbLine
 10
56.59999983392935
 20
136.2500023384842
 30
0.0
 11
58.59999983392936
 21
136.2500023384842
 31
0.0
  0
LINE
  5
192
330
160
100
AcDbEntity
  8
0
100
AcDbLine
 10
56.59999983392935
 20
70.75000233848505
 30
0.0
 11
58.59999983392936
 21
70.75000233848505
 31
0.0
  0
LINE
  5
193
330
160
100
AcDbEntity
  8
0
100
AcDbLine
 10
56.59999983392935
 20
19.50000233848504
 30
0.0
 11
58.59999983392936
 21
19.50000233848504
 31
0.0
  0
LINE
  5
194
330
160
100
AcDbEntity
  8
0
100
AcDbLine
 10
56.59999983392935
 20
136.2500023384842
 30
0.0
 11
56.59999983392935
 21
189.5000023384849
 31
0.0
  0
LINE
  5
195
330
160
100
AcDbEntity
  8
0
100
AcDbLine
 10
58.59999983392936
 20
136.2500023384842
 30
0.0
 11
58.59999983392936
 21
189.5000023384849
 31
0.0
  0
LINE
  5
196
330
160
100
AcDbEntity
  8
0
100
AcDbLine
 10
63.59999983392936
 20
187.5000023384849
 30
0.0
 11
65.59999983392936
 21
187.5000023384849
 31
0.0
  0
LINE
  5
197
330
160
100
AcDbEntity
  8
0
100
AcDbLine
 10
63.59999983392936
 20
17.50000233848504
 30
0.0
 11
63.59999983392936
 21
70.75000233848505
 31
0.0
  0
LINE
  5
198
330
160
100
AcDbEntity
  8
0
100
AcDbLine
 10
65.59999983392936
 20
17.50000233848504
 30
0.0
 11
65.59999983392936
 21
70.75000233848505
 31
0.0
  0
LINE
  5
199
330
160
100
AcDbEntity
  8
0
100
AcDbLine
 10
63.59999983392936
 20
136.2500023384842
 30
0.0
 11
65.59999983392936
 21
136.2500023384842
 31
0.0
  0
LINE
  5
19A
330
160
100
AcDbEntity
  8
0
100
AcDbLine
 10
63.59999983392936
 20
70.75000233848505
 30
0.0
 11
65.59999983392936
 21
70.75000233848505
 31
0.0
  0
LINE
  5
19B
330
160
100
AcDbEntity
  8
0
100
AcDbLine
 10
63.59999983392936
 20
19.50000233848504
 30
0.0
 11
65.59999983392936
 21
19.50000233848504
 31
0.0
  0
LINE
  5
19C
330
160
100
AcDbEntity
  8
0
100
AcDbLine
 10
63.59999983392936
 20
136.2500023384842
 30
0.0
 11
63.59999983392936
 21
189.5000023384849
 31
0.0
  0
LINE
  5
19D
330
160
100
AcDbEntity
  8
0
100
AcDbLine
 10
65.59999983392936
 20
136.2500023384842
 30
0.0
 11
65.59999983392936
 21
189.5000023384849
 31
0.0
  0
LINE
  5
19E
330
160
100
AcDbEntity
  8
0
100
AcDbLine
 10
70.59999983392936
 20
187.5000023384849
 30
0.0
 11
72.59999983392936
 21
187.5000023384849
 31
0.0
  0
LINE
  5
19F
330
160
100
AcDbEntity
  8
0
100
AcDbLine
 10
70.59999983392936
 20
17.50000233848504
 30
0.0
 11
70.59999983392936
 21
70.75000233848505
 31
0.0
  0
LINE
  5
1A0
330
160
100
AcDbEntity
  8
0
100
AcDbLine
 10
72.59999983392936
 20
17.50000233848504
 30
0.0
 11
72.59999983392936
 21
70.75000233848505
 31
0.0
  0
LINE
  5
1A1
330
160
100
AcDbEntity
  8
0
100
AcDbLine
 10
70.59999983392936
 20
136.2500023384842
 30
0.0
 11
72.59999983392936
 21
136.2500023384842
 31
0.0
  0
LINE
  5
1A2
330
160
100
AcDbEntity
  8
0
100
AcDbLine
 10
70.59999983392936
 20
70.75000233848505
 30
0.0
 11
72.59999983392936
 21
70.75000233848505
 31
0.0
  0
LINE
  5
1A3
330
160
100
AcDbEntity
  8
0
100
AcDbLine
 10
70.59999983392936
 20
19.50000233848504
 30
0.0
 11
72.59999983392936
 21
19.50000233848504
 31
0.0
  0
LINE
  5
1A4
330
160
100
AcDbEntity
  8
0
100
AcDbLine
 10
70.59999983392936
 20
136.2500023384842
 30
0.0
 11
70.59999983392936
 21
189.5000023384849
 31
0.0
  0
LINE
  5
1A5
330
160
100
AcDbEntity
  8
0
100
AcDbLine
 10
72.59999983392936
 20
136.2500023384842
 30
0.0
 11
72.59999983392936
 21
189.5000023384849
 31
0.0
  0
LINE
  5
1A6
330
160
100
AcDbEntity
  8
0
100
AcDbLine
 10
77.59999983392936
 20
187.5000023384849
 30
0.0
 11
79.59999983392936
 21
187.5000023384849
 31
0.0
  0
LINE
  5
1A7
330
160
100
AcDbEntity
  8
0
100
AcDbLine
 10
77.59999983392936
 20
17.50000233848504
 30
0.0
 11
77.59999983392936
 21
70.75000233848505
 31
0.0
  0
LINE
  5
1A8
330
160
100
AcDbEntity
  8
0
100
AcDbLine
 10
79.59999983392936
 20
17.50000233848504
 30
0.0
 11
79.59999983392936
 21
70.75000233848505
 31
0.0
  0
LINE
  5
1A9
330
160
100
AcDbEntity
  8
0
100
AcDbLine
 10
77.59999983392936
 20
136.2500023384842
 30
0.0
 11
79.59999983392936
 21
136.2500023384842
 31
0.0
  0
LINE
  5
1AA
330
160
100
AcDbEntity
  8
0
100
AcDbLine
 10
77.59999983392936
 20
70.75000233848505
 30
0.0
 11
79.59999983392936
 21
70.75000233848505
 31
0.0
  0
LINE
  5
1AB
330
160
100
AcDbEntity
  8
0
100
AcDbLine
 10
77.59999983392936
 20
19.50000233848504
 30
0.0
 11
79.59999983392936
 21
19.50000233848504
 31
0.0
  0
LINE
  5
1AC
330
160
100
AcDbEntity
  8
0
100
AcDbLine
 10
77.59999983392936
 20
136.2500023384842
 30
0.0
 11
77.59999983392936
 21
189.5000023384849
 31
0.0
  0
LINE
  5
1AD
330
160
100
AcDbEntity
  8
0
100
AcDbLine
 10
79.59999983392936
 20
136.2500023384842
 30
0.0
 11
79.59999983392936
 21
189.5000023384849
 31
0.0
  0
LINE
  5
1AE
330
160
100
AcDbEntity
  8
0
100
AcDbLine
 10
84.59999983392936
 20
187.5000023384849
 30
0.0
 11
86.59999983392934
 21
187.5000023384849
 31
0.0
  0
LINE
  5
1AF
330
160
100
AcDbEntity
  8
0
100
AcDbLine
 10
84.59999983392936
 20
17.50000233848504
 30
0.0
 11
84.59999983392936
 21
70.75000233848505
 31
0.0
  0
LINE
  5
1B0
330
160
100
AcDbEntity
  8
0
100
AcDbLine
 10
86.59999983392934
 20
17.50000233848504
 30
0.0
 11
86.59999983392934
 21
70.75000233848505
 31
0.0
  0
LINE
  5
1B1
330
160
100
AcDbEntity
  8
0
100
AcDbLine
 10
84.59999983392936
 20
136.2500023384842
 30
0.0
 11
86.59999983392934
 21
136.2500023384842
 31
0.0
  0
LINE
  5
1B2
330
160
100
AcDbEntity
  8
0
100
AcDbLine
 10
84.59999983392936
 20
70.75000233848505
 30
0.0
 11
86.59999983392934
 21
70.75000233848505
 31
0.0
  0
LINE
  5
1B3
330
160
100
AcDbEntity
  8
0
100
AcDbLine
 10
84.59999983392936
 20
19.50000233848504
 30
0.0
 11
86.59999983392934
 21
19.50000233848504
 31
0.0
  0
LINE
  5
1B4
330
160
100
AcDbEntity
  8
0
100
AcDbLine
 10
84.59999983392936
 20
136.2500023384842
 30
0.0
 11
84.59999983392936
 21
189.5000023384849
 31
0.0
  0
LINE
  5
1B5
330
160
100
AcDbEntity
  8
0
100
AcDbLine
 10
86.59999983392934
 20
136.2500023384842
 30
0.0
 11
86.59999983392934
 21
189.5000023384849
 31
0.0
  0
LINE
  5
1B6
330
160
100
AcDbEntity
  8
0
100
AcDbLine
 10
91.59999983392937
 20
187.5000023384849
 30
0.0
 11
93.59999983392937
 21
187.5000023384849
 31
0.0
  0
LINE
  5
1B7
330
160
100
AcDbEntity
  8
0
100
AcDbLine
 10
91.59999983392937
 20
17.50000233848504
 30
0.0
 11
91.59999983392937
 21
70.75000233848505
 31
0.0
  0
LINE
  5
1B8
330
160
100
AcDbEntity
  8
0
100
AcDbLine
 10
93.59999983392937
 20
17.50000233848504
 30
0.0
 11
93.59999983392937
 21
70.75000233848505
 31
0.0
  0
LINE
  5
1B9
330
160
100
AcDbEntity
  8
0
100
AcDbLine
 10
91.59999983392937
 20
136.2500023384842
 30
0.0
 11
93.59999983392937
 21
136.2500023384842
 31
0.0
  0
LINE
  5
1BA
330
160
100
AcDbEntity
  8
0
100
AcDbLine
 10
91.59999983392937
 20
70.75000233848505
 30
0.0
 11
93.59999983392937
 21
70.75000233848505
 31
0.0
  0
LINE
  5
1BB
330
160
100
AcDbEntity
  8
0
100
AcDbLine
 10
91.59999983392937
 20
19.50000233848504
 30
0.0
 11
93.59999983392937
 21
19.50000233848504
 31
0.0
  0
LINE
  5
1BC
330
160
100
AcDbEntity
  8
0
100
AcDbLine
 10
91.59999983392937
 20
136.2500023384842
 30
0.0
 11
91.59999983392937
 21
189.5000023384849
 31
0.0
  0
LINE
  5
1BD
330
160
100
AcDbEntity
  8
0
100
AcDbLine
 10
93.59999983392937
 20
136.2500023384842
 30
0.0
 11
93.59999983392937
 21
189.5000023384849
 31
0.0
  0
LINE
  5
1BE
330
160
100
AcDbEntity
  8
0
100
AcDbLine
 10
98.59999983392938
 20
187.5000023384849
 30
0.0
 11
100.5999998339291
 21
187.5000023384849
 31
0.0
  0
LINE
  5
1BF
330
160
100
AcDbEntity
  8
0
100
AcDbLine
 10
98.59999983392938
 20
17.50000233848504
 30
0.0
 11
98.59999983392938
 21
70.75000233848505
 31
0.0
  0
LINE
  5
1C0
330
160
100
AcDbEntity
  8
0
100
AcDbLine
 10
100.5999998339291
 20
17.50000233848504
 30
0.0
 11
100.5999998339291
 21
70.75000233848505
 31
0.0
  0
LINE
  5
1C1
330
160
100
AcDbEntity
  8
0
100
AcDbLine
 10
98.59999983392938
 20
136.2500023384842
 30
0.0
 11
100.5999998339291
 21
136.2500023384842
 31
0.0
  0
LINE
  5
1C2
330
160
100
AcDbEntity
  8
0
100
AcDbLine
 10
98.59999983392938
 20
70.75000233848505
 30
0.0
 11
100.5999998339291
 21
70.75000233848505
 31
0.0
  0
LINE
  5
1C3
330
160
100
AcDbEntity
  8
0
100
AcDbLine
 10
98.59999983392938
 20
19.50000233848504
 30
0.0
 11
100.5999998339291
 21
19.50000233848504
 31
0.0
  0
LINE
  5
1C4
330
160
100
AcDbEntity
  8
0
100
AcDbLine
 10
98.59999983392938
 20
136.2500023384842
 30
0.0
 11
98.59999983392938
 21
189.5000023384849
 31
0.0
  0
LINE
  5
1C5
330
160
100
AcDbEntity
  8
0
100
AcDbLine
 10
100.5999998339291
 20
136.2500023384842
 30
0.0
 11
100.5999998339291
 21
189.5000023384849
 31
0.0
  0
LINE
  5
1C6
330
160
100
AcDbEntity
  8
0
100
AcDbLine
 10
28.59999983392935
 20
165.0000023384849
 30
0.0
 11
30.59999983392935
 21
165.0000023384849
 31
0.0
  0
LINE
  5
1C7
330
160
100
AcDbEntity
  8
0
100
AcDbLine
 10
28.59999983392935
 20
162.0000023384849
 30
0.0
 11
30.59999983392935
 21
162.0000023384849
 31
0.0
  0
LINE
  5
1C8
330
160
100
AcDbEntity
  8
0
100
AcDbLine
 10
28.59999983392935
 20
45.00000233848505
 30
0.0
 11
30.59999983392935
 21
45.00000233848505
 31
0.0
  0
LINE
  5
1C9
330
160
100
AcDbEntity
  8
0
100
AcDbLine
 10
28.59999983392935
 20
42.00000233848505
 30
0.0
 11
30.59999983392935
 21
42.00000233848505
 31
0.0
  0
LINE
  5
1CA
330
160
100
AcDbEntity
  8
0
100
AcDbLine
 10
35.59999983392936
 20
165.0000023384849
 30
0.0
 11
37.59999983392936
 21
165.0000023384849
 31
0.0
  0
LINE
  5
1CB
330
160
100
AcDbEntity
  8
0
100
AcDbLine
 10
35.59999983392936
 20
162.0000023384849
 30
0.0
 11
37.59999983392936
 21
162.0000023384849
 31
0.0
  0
LINE
  5
1CC
330
160
100
AcDbEntity
  8
0
100
AcDbLine
 10
35.59999983392936
 20
45.00000233848505
 30
0.0
 11
37.59999983392936
 21
45.00000233848505
 31
0.0
  0
LINE
  5
1CD
330
160
100
AcDbEntity
  8
0
100
AcDbLine
 10
35.59999983392936
 20
42.00000233848505
 30
0.0
 11
37.59999983392936
 21
42.00000233848505
 31
0.0
  0
LINE
  5
1CE
330
160
100
AcDbEntity
  8
0
100
AcDbLine
 10
42.59999983392936
 20
165.0000023384849
 30
0.0
 11
44.59999983392934
 21
165.0000023384849
 31
0.0
  0
LINE
  5
1CF
330
160
100
AcDbEntity
  8
0
100
AcDbLine
 10
42.59999983392936
 20
162.0000023384849
 30
0.0
 11
44.59999983392934
 21
162.0000023384849
 31
0.0
  0
LINE
  5
1D0
330
160
100
AcDbEntity
  8
0
100
AcDbLine
 10
42.59999983392936
 20
45.00000233848505
 30
0.0
 11
44.59999983392934
 21
45.00000233848505
 31
0.0
  0
LINE
  5
1D1
330
160
100
AcDbEntity
  8
0
100
AcDbLine
 10
42.59999983392936
 20
42.00000233848505
 30
0.0
 11
44.59999983392934
 21
42.00000233848505
 31
0.0
  0
LINE
  5
1D2
330
160
100
AcDbEntity
  8
0
100
AcDbLine
 10
49.59999983392936
 20
165.0000023384849
 30
0.0
 11
51.59999983392935
 21
165.0000023384849
 31
0.0
  0
LINE
  5
1D3
330
160
100
AcDbEntity
  8
0
100
AcDbLine
 10
49.59999983392936
 20
162.0000023384849
 30
0.0
 11
51.59999983392935
 21
162.0000023384849
 31
0.0
  0
LINE
  5
1D4
330
160
100
AcDbEntity
  8
0
100
AcDbLine
 10
49.59999983392936
 20
45.00000233848505
 30
0.0
 11
51.59999983392935
 21
45.00000233848505
 31
0.0
  0
LINE
  5
1D5
330
160
100
AcDbEntity
  8
0
100
AcDbLine
 10
49.59999983392936
 20
42.00000233848505
 30
0.0
 11
51.59999983392935
 21
42.00000233848505
 31
0.0
  0
LINE
  5
1D6
330
160
100
AcDbEntity
  8
0
100
AcDbLine
 10
56.59999983392935
 20
165.0000023384849
 30
0.0
 11
58.59999983392936
 21
165.0000023384849
 31
0.0
  0
LINE
  5
1D7
330
160
100
AcDbEntity
  8
0
100
AcDbLine
 10
56.59999983392935
 20
162.0000023384849
 30
0.0
 11
58.59999983392936
 21
162.0000023384849
 31
0.0
  0
LINE
  5
1D8
330
160
100
AcDbEntity
  8
0
100
AcDbLine
 10
56.59999983392935
 20
45.00000233848505
 30
0.0
 11
58.59999983392936
 21
45.00000233848505
 31
0.0
  0
LINE
  5
1D9
330
160
100
AcDbEntity
  8
0
100
AcDbLine
 10
56.59999983392935
 20
42.00000233848505
 30
0.0
 11
58.59999983392936
 21
42.00000233848505
 31
0.0
  0
LINE
  5
1DA
330
160
100
AcDbEntity
  8
0
100
AcDbLine
 10
63.59999983392936
 20
165.0000023384849
 30
0.0
 11
65.59999983392936
 21
165.0000023384849
 31
0.0
  0
LINE
  5
1DB
330
160
100
AcDbEntity
  8
0
100
AcDbLine
 10
63.59999983392936
 20
162.0000023384849
 30
0.0
 11
65.59999983392936
 21
162.0000023384849
 31
0.0
  0
LINE
  5
1DC
330
160
100
AcDbEntity
  8
0
100
AcDbLine
 10
63.59999983392936
 20
45.00000233848505
 30
0.0
 11
65.59999983392936
 21
45.00000233848505
 31
0.0
  0
LINE
  5
1DD
330
160
100
AcDbEntity
  8
0
100
AcDbLine
 10
63.59999983392936
 20
42.00000233848505
 30
0.0
 11
65.59999983392936
 21
42.00000233848505
 31
0.0
  0
LINE
  5
1DE
330
160
100
AcDbEntity
  8
0
100
AcDbLine
 10
70.59999983392936
 20
165.0000023384849
 30
0.0
 11
72.59999983392936
 21
165.0000023384849
 31
0.0
  0
LINE
  5
1DF
330
160
100
AcDbEntity
  8
0
100
AcDbLine
 10
70.59999983392936
 20
162.0000023384849
 30
0.0
 11
72.59999983392936
 21
162.0000023384849
 31
0.0
  0
LINE
  5
1E0
330
160
100
AcDbEntity
  8
0
100
AcDbLine
 10
70.59999983392936
 20
45.00000233848505
 30
0.0
 11
72.59999983392936
 21
45.00000233848505
 31
0.0
  0
LINE
  5
1E1
330
160
100
AcDbEntity
  8
0
100
AcDbLine
 10
70.59999983392936
 20
42.00000233848505
 30
0.0
 11
72.59999983392936
 21
42.00000233848505
 31
0.0
  0
LINE
  5
1E2
330
160
100
AcDbEntity
  8
0
100
AcDbLine
 10
77.59999983392936
 20
165.0000023384849
 30
0.0
 11
79.59999983392936
 21
165.0000023384849
 31
0.0
  0
LINE
  5
1E3
330
160
100
AcDbEntity
  8
0
100
AcDbLine
 10
77.59999983392936
 20
162.0000023384849
 30
0.0
 11
79.59999983392936
 21
162.0000023384849
 31
0.0
  0
LINE
  5
1E4
330
160
100
AcDbEntity
  8
0
100
AcDbLine
 10
77.59999983392936
 20
45.00000233848505
 30
0.0
 11
79.59999983392936
 21
45.00000233848505
 31
0.0
  0
LINE
  5
1E5
330
160
100
AcDbEntity
  8
0
100
AcDbLine
 10
77.59999983392936
 20
42.00000233848505
 30
0.0
 11
79.59999983392936
 21
42.00000233848505
 31
0.0
  0
LINE
  5
1E6
330
160
100
AcDbEntity
  8
0
100
AcDbLine
 10
84.59999983392936
 20
165.0000023384849
 30
0.0
 11
86.59999983392934
 21
165.0000023384849
 31
0.0
  0
LINE
  5
1E7
330
160
100
AcDbEntity
  8
0
100
AcDbLine
 10
84.59999983392936
 20
162.0000023384849
 30
0.0
 11
86.59999983392934
 21
162.0000023384849
 31
0.0
  0
LINE
  5
1E8
330
160
100
AcDbEntity
  8
0
100
AcDbLine
 10
84.59999983392936
 20
45.00000233848505
 30
0.0
 11
86.59999983392934
 21
45.00000233848505
 31
0.0
  0
LINE
  5
1E9
330
160
100
AcDbEntity
  8
0
100
AcDbLine
 10
84.59999983392936
 20
42.00000233848505
 30
0.0
 11
86.59999983392934
 21
42.00000233848505
 31
0.0
  0
LINE
  5
1EA
330
160
100
AcDbEntity
  8
0
100
AcDbLine
 10
91.59999983392937
 20
165.0000023384849
 30
0.0
 11
93.59999983392937
 21
165.0000023384849
 31
0.0
  0
LINE
  5
1EB
330
160
100
AcDbEntity
  8
0
100
AcDbLine
 10
91.59999983392937
 20
162.0000023384849
 30
0.0
 11
93.59999983392937
 21
162.0000023384849
 31
0.0
  0
LINE
  5
1EC
330
160
100
AcDbEntity
  8
0
100
AcDbLine
 10
91.59999983392937
 20
45.00000233848505
 30
0.0
 11
93.59999983392937
 21
45.00000233848505
 31
0.0
  0
LINE
  5
1ED
330
160
100
AcDbEntity
  8
0
100
AcDbLine
 10
91.59999983392937
 20
42.00000233848505
 30
0.0
 11
93.59999983392937
 21
42.00000233848505
 31
0.0
  0
LINE
  5
1EE
330
160
100
AcDbEntity
  8
0
100
AcDbLine
 10
98.59999983392938
 20
165.0000023384849
 30
0.0
 11
100.5999998339291
 21
165.0000023384849
 31
0.0
  0
LINE
  5
1EF
330
160
100
AcDbEntity
  8
0
100
AcDbLine
 10
98.59999983392938
 20
162.0000023384849
 30
0.0
 11
100.5999998339291
 21
162.0000023384849
 31
0.0
  0
LINE
  5
1F0
330
160
100
AcDbEntity
  8
0
100
AcDbLine
 10
98.59999983392938
 20
45.00000233848505
 30
0.0
 11
100.5999998339291
 21
45.00000233848505
 31
0.0
  0
LINE
  5
1F1
330
160
100
AcDbEntity
  8
0
100
AcDbLine
 10
98.59999983392938
 20
42.00000233848505
 30
0.0
 11
100.5999998339291
 21
42.00000233848505
 31
0.0
  0
LINE
  5
1F2
330
160
100
AcDbEntity
  8
0
100
AcDbLine
 10
78.59999983392936
 20
17.50000233848504
 30
0.0
 11
78.59999983392835
 21
17.00000233848504
 31
0.0
  0
LINE
  5
1F3
330
160
100
AcDbEntity
  8
0
100
AcDbLine
 10
23.59999983392935
 20
17.00000233848504
 30
0.0
 11
78.59999983392936
 21
17.00000233848504
 31
0.0
  0
LINE
  5
1F4
330
160
100
AcDbEntity
  8
0
100
AcDbLine
 10
123.9878536770963
 20
16.50000233848504
 30
0.0
 11
123.9878536770973
 21
190.5000023384846
 31
0.0
  0
LINE
  5
1F5
330
160
100
AcDbEntity
  8
0
100
AcDbLine
 10
3.199999833929495
 20
57.20000307217538
 30
0.0
 11
3.199999833929495
 21
37.00000307217532
 31
0.0
  0
LINE
  5
1F6
330
160
100
AcDbEntity
  8
0
100
AcDbLine
 10
4.099999833929357
 20
33.50000307217532
 30
0.0
 11
3.599999833929357
 21
34.00000307217532
 31
0.0
  0
LINE
  5
1F7
330
160
100
AcDbEntity
  8
0
100
AcDbLine
 10
3.599999833929472
 20
34.90000307217542
 30
0.0
 11
3.599999833929357
 21
34.00000307217532
 31
0.0
  0
LINE
  5
1F8
330
160
100
AcDbEntity
  8
0
100
AcDbLine
 10
4.899999833929538
 20
33.50000307217532
 30
0.0
 11
4.099999833929357
 21
33.50000307217532
 31
0.0
  0
ARC
  5
1F9
330
160
100
AcDbEntity
  8
0
100
AcDbCircle
 10
4.599999833929471
 20
34.90000307217531
 30
0.0
 40
1.0
100
AcDbArc
 50
90.0
 51
180.0
  0
LINE
  5
1FA
330
160
100
AcDbEntity
  8
0
100
AcDbLine
 10
6.599999833929357
 20
35.90000307217538
 30
0.0
 11
4.599999833929471
 21
35.90000307217531
 31
0.0
  0
LINE
  5
1FB
330
160
100
AcDbEntity
  8
0
100
AcDbLine
 10
6.599999833929357
 20
34.70000307217537
 30
0.0
 11
4.899999833929655
 21
34.70000307217537
 31
0.0
  0
LINE
  5
1FC
330
160
100
AcDbEntity
  8
0
100
AcDbLine
 10
6.599999833929357
 20
37.00000307217528
 30
0.0
 11
3.199999833929495
 21
37.00000307217532
 31
0.0
  0
LINE
  5
1FD
330
160
100
AcDbEntity
  8
0
100
AcDbLine
 10
4.899999833929538
 20
33.50000307217532
 30
0.0
 11
4.899999833929538
 21
34.70000307217537
 31
0.0
  0
LINE
  5
1FE
330
160
100
AcDbEntity
  8
0
100
AcDbLine
 10
4.099999833929587
 20
60.70000307217537
 30
0.0
 11
3.599999833929587
 21
60.20000307217538
 31
0.0
  0
LINE
  5
1FF
330
160
100
AcDbEntity
  8
0
100
AcDbLine
 10
3.599999833929587
 20
60.20000307217538
 30
0.0
 11
3.599999833929587
 21
59.30000307217529
 31
0.0
  0
LINE
  5
200
330
160
100
AcDbEntity
  8
0
100
AcDbLine
 10
4.899999833929538
 20
60.70000307217537
 30
0.0
 11
4.099999833929587
 21
60.70000307217537
 31
0.0
  0
ARC
  5
201
330
160
100
AcDbEntity
  8
0
100
AcDbCircle
 10
4.599999833929587
 20
59.3000030721754
 30
0.0
 40
1.0
100
AcDbArc
 50
180.0
 51
270.0
  0
LINE
  5
202
330
160
100
AcDbEntity
  8
0
100
AcDbLine
 10
6.599999833929357
 20
58.3000030721754
 30
0.0
 11
4.599999833929587
 21
58.3000030721754
 31
0.0
  0
LINE
  5
203
330
160
100
AcDbEntity
  8
0
100
AcDbLine
 10
3.199999833929495
 20
57.20000307217538
 30
0.0
 11
6.599999833929357
 21
57.20000307217538
 31
0.0
  0
LINE
  5
204
330
160
100
AcDbEntity
  8
0
100
AcDbLine
 10
6.599999833929357
 20
59.50000307217544
 30
0.0
 11
4.899999833929427
 21
59.50000307217544
 31
0.0
  0
LINE
  5
205
330
160
100
AcDbEntity
  8
0
100
AcDbLine
 10
4.899999833929538
 20
59.50000307217533
 30
0.0
 11
4.899999833929538
 21
60.70000307217537
 31
0.0
  0
LINE
  5
206
330
160
100
AcDbEntity
  8
0
100
AcDbLine
 10
6.599999833929357
 20
21.50000307217532
 30
0.0
 11
4.099999833929246
 21
21.50000307217532
 31
0.0
  0
LINE
  5
207
330
160
100
AcDbEntity
  8
0
100
AcDbLine
 10
4.099999833929246
 20
21.50000307217532
 30
0.0
 11
4.099999833929246
 21
27.00000307217532
 31
0.0
  0
LINE
  5
208
330
160
100
AcDbEntity
  8
0
100
AcDbLine
 10
4.099999833929246
 20
27.00000307217532
 30
0.0
 11
6.599999833929357
 21
27.00000307217532
 31
0.0
  0
LINE
  5
209
330
160
100
AcDbEntity
  8
0
100
AcDbLine
 10
6.599999833929357
 20
62.14000233848515
 30
0.0
 11
5.599999833929358
 21
62.14000233848515
 31
0.0
  0
LINE
  5
20A
330
160
100
AcDbEntity
  8
0
100
AcDbLine
 10
5.599999833929358
 20
62.14000233848515
 30
0.0
 11
5.599999833929358
 21
59.50000307217544
 31
0.0
  0
LINE
  5
20B
330
160
100
AcDbEntity
  8
0
100
AcDbLine
 10
-0.000000166070663
 20
112.5000023384849
 30
0.0
 11
6.599999833929357
 21
112.5000023384849
 31
0.0
  0
LINE
  5
20C
330
160
100
AcDbEntity
  8
0
100
AcDbLine
 10
6.599999833929357
 20
136.6600023384848
 30
0.0
 11
-0.000000166070663
 21
136.6600023384848
 31
0.0
  0
LINE
  5
20D
330
160
100
AcDbEntity
  8
0
100
AcDbLine
 10
-0.000000166070663
 20
136.6600023384848
 30
0.0
 11
-0.000000166070663
 21
112.5000023384849
 31
0.0
  0
LINE
  5
20E
330
160
100
AcDbEntity
  8
0
100
AcDbLine
 10
1.299999833929404
 20
71.34000233848508
 30
0.0
 11
1.299999833929404
 21
99.80000233848514
 31
0.0
  0
LINE
  5
20F
330
160
100
AcDbEntity
  8
0
100
AcDbLine
 10
1.299999833929404
 20
75.45000233848509
 30
0.0
 11
5.599999833929246
 21
75.45000233848509
 31
0.0
  0
LINE
  5
210
330
160
100
AcDbEntity
  8
0
100
AcDbLine
 10
5.599999833929358
 20
71.34000233848508
 30
0.0
 11
1.299999833929404
 21
71.34000233848508
 31
0.0
  0
LINE
  5
211
330
160
100
AcDbEntity
  8
0
100
AcDbLine
 10
1.299999833929404
 20
95.69000233848512
 30
0.0
 11
6.599999833929357
 21
95.69000233848512
 31
0.0
  0
LINE
  5
212
330
160
100
AcDbEntity
  8
0
100
AcDbLine
 10
1.299999833929404
 20
90.69000233848512
 30
0.0
 11
6.599999833929357
 21
90.69000233848512
 31
0.0
  0
LINE
  5
213
330
160
100
AcDbEntity
  8
0
100
AcDbLine
 10
1.299999833929404
 20
83.0700023384851
 30
0.0
 11
6.599999833929357
 21
83.0700023384851
 31
0.0
  0
LINE
  5
214
330
160
100
AcDbEntity
  8
0
100
AcDbLine
 10
1.299999833929404
 20
88.07000233848507
 30
0.0
 11
6.599999833929357
 21
88.07000233848507
 31
0.0
  0
LINE
  5
215
330
160
100
AcDbEntity
  8
0
100
AcDbLine
 10
1.299999833929404
 20
80.4500023384851
 30
0.0
 11
5.799999833929632
 21
80.4500023384851
 31
0.0
  0
LINE
  5
216
330
160
100
AcDbEntity
  8
0
100
AcDbLine
 10
5.799999833929632
 20
99.80000233848514
 30
0.0
 11
1.299999833929404
 21
99.80000233848514
 31
0.0
  0
LINE
  5
217
330
160
100
AcDbEntity
  8
0
100
AcDbLine
 10
49.59999983392936
 20
187.5000023384849
 30
0.0
 11
51.59999983392935
 21
187.5000023384849
 31
0.0
  0
LINE
  5
218
330
160
100
AcDbEntity
  8
0
100
AcDbLine
 10
122.5999998339284
 20
190.5000023384846
 30
0.0
 11
122.5999998339284
 21
200.5000023384849
 31
0.0
  0
LINE
  5
219
330
160
100
AcDbEntity
  8
0
100
AcDbLine
 10
6.599999833929357
 20
16.50000233848504
 30
0.0
 11
123.9878536770973
 21
16.50000233848504
 31
0.0
  0
LINE
  5
21A
330
160
100
AcDbEntity
  8
0
100
AcDbLine
 10
25.59999983392935
 20
0.0000023384850465
 30
0.0
 11
25.59999983392935
 21
8.500002338485044
 31
0.0
  0
LINE
  5
21B
330
160
100
AcDbEntity
  8
0
100
AcDbLine
 10
77.59999983392835
 20
0.0000023384850465
 30
0.0
 11
77.59999983392835
 21
16.50000233848504
 31
0.0
  0
LINE
  5
21C
330
160
100
AcDbEntity
  8
0
100
AcDbLine
 10
25.59999983392935
 20
0.0000023384850465
 30
0.0
 11
77.59999983392835
 21
0.0000023384850465
 31
0.0
  0
LINE
  5
21D
330
160
100
AcDbEntity
  8
0
100
AcDbLine
 10
35.59999983392936
 20
0.0000023384850465
 30
0.0
 11
35.59999983392936
 21
16.50000233848504
 31
0.0
  0
LINE
  5
21E
330
160
100
AcDbEntity
  8
0
100
AcDbLine
 10
25.59999983392935
 20
8.500002338485044
 30
0.0
 11
35.59999983392936
 21
8.500002338485044
 31
0.0
  0
LINE
  5
21F
330
160
100
AcDbEntity
  8
0
100
AcDbLine
 10
37.59999983392936
 20
9.500002338485046
 30
0.0
 11
37.59999983392936
 21
0.0000023384850465
 31
0.0
  0
LINE
  5
220
330
160
100
AcDbEntity
  8
0
100
AcDbLine
 10
75.59999983392835
 20
9.500002338485046
 30
0.0
 11
75.59999983392835
 21
0.0000023384850465
 31
0.0
  0
LINE
  5
221
330
160
100
AcDbEntity
  8
0
100
AcDbLine
 10
5.599999833929358
 20
58.3000030721754
 30
0.0
 11
5.599999833929358
 21
57.20000307217538
 31
0.0
  0
LINE
  5
222
330
160
100
AcDbEntity
  8
0
100
AcDbLine
 10
5.599999833929358
 20
37.00000307217532
 30
0.0
 11
5.599999833929358
 21
35.90000307217532
 31
0.0
  0
LINE
  5
223
330
160
100
AcDbEntity
  8
0
100
AcDbLine
 10
5.599999833929358
 20
34.70000307217537
 30
0.0
 11
5.599999833929358
 21
27.00000307217532
 31
0.0
  0
LINE
  5
224
330
160
100
AcDbEntity
  8
0
100
AcDbLine
 10
6.599999833929357
 20
157.9400023384851
 30
0.0
 11
5.595637893078333
 21
157.9400023384851
 31
0.0
  0
LINE
  5
225
330
160
100
AcDbEntity
  8
0
100
AcDbLine
 10
6.599999833929357
 20
68.70000307217536
 30
0.0
 11
5.599999833929358
 21
68.70000307217536
 31
0.0
  0
LINE
  5
226
330
160
100
AcDbEntity
  8
0
100
AcDbLine
 10
5.599999833929358
 20
68.70000307217536
 30
0.0
 11
5.599999833929246
 21
77.10000307217547
 31
0.0
  0
LINE
  5
227
330
160
100
AcDbEntity
  8
0
100
AcDbLine
 10
5.599999833929246
 20
77.10000307217547
 30
0.0
 11
6.599999833929357
 21
77.10000307217547
 31
0.0
  0
LINE
  5
228
330
160
100
AcDbEntity
  8
0
100
AcDbLine
 10
6.599999833929357
 20
78.60000307217545
 30
0.0
 11
5.799999833929632
 21
78.60000307217545
 31
0.0
  0
LINE
  5
229
330
160
100
AcDbEntity
  8
0
100
AcDbLine
 10
5.799999833929632
 20
78.60000307217545
 30
0.0
 11
5.799999833929632
 21
81.60000307217547
 31
0.0
  0
LINE
  5
22A
330
160
100
AcDbEntity
  8
0
100
AcDbLine
 10
5.799999833929632
 20
81.60000307217547
 30
0.0
 11
6.599999833929357
 21
81.60000307217547
 31
0.0
  0
LINE
  5
22B
330
160
100
AcDbEntity
  8
0
100
AcDbLine
 10
6.599999833929357
 20
98.60000307217545
 30
0.0
 11
5.799999833929632
 21
98.60000307217545
 31
0.0
  0
LINE
  5
22C
330
160
100
AcDbEntity
  8
0
100
AcDbLine
 10
5.799999833929632
 20
98.60000307217545
 30
0.0
 11
5.799999833929632
 21
101.6000030721754
 31
0.0
  0
LINE
  5
22D
330
160
100
AcDbEntity
  8
0
100
AcDbLine
 10
5.799999833929632
 20
101.6000030721754
 30
0.0
 11
6.599999833929357
 21
101.6000030721754
 31
0.0
  0
LINE
  5
22E
330
160
100
AcDbEntity
  8
0
  6
Continuous
100
AcDbLine
 10
5.595637893078333
 20
157.9400023384851
 30
0.0
 11
5.595637893078333
 21
142.5400023384848
 31
0.0
  0
LINE
  5
22F
330
160
100
AcDbEntity
  8
0
  6
Continuous
100
AcDbLine
 10
5.595637893078333
 20
142.5400023384848
 30
0.0
 11
6.599999833929357
 21
142.5400023384848
 31
0.0
  0
ENDBLK
  5
231
330
160
100
AcDbEntity
  8
0
100
AcDbBlockEnd
  0
BLOCK
  5
234
330
232
100
AcDbEntity
  8
0
100
AcDbBlockBegin
  2
A$C40301A48
 70
     0
 10
0.0
 20
0.0
 30
0.0
  3
A$C40301A48
  1

  0
INSERT
  5
233
330
232
100
AcDbEntity
  8
0
100
AcDbBlockReference
  2
A$C413B70EE
 10
-6.599999833929357
 20
-190.5000023384846
 30
0.0
  0
ENDBLK
  5
235
330
232
100
AcDbEntity
  8
0
100
AcDbBlockEnd
  0
BLOCK
  5
23B
330
236
100
AcDbEntity
  8
0
 48
5.0
100
AcDbBlockBegin
  2
A$C5CFD6E8C
 70
     0
 10
0.0
 20
0.0
 30
0.0
  3
A$C5CFD6E8C
  1

  0
LINE
  5
237
330
236
100
AcDbEntity
  8
0
 62
     0
100
AcDbLine
 10
1.599997211020308
 20
2.70000247964549
 30
0.0
 11
1.599997211020308
 21
0.0000024796447633
 31
0.0
  0
LINE
  5
238
330
236
100
AcDbEntity
  8
0
 62
     0
100
AcDbLine
 10
-0.0000027889800549
 20
0.0000024796447633
 30
0.0
 11
-0.0000027889800549
 21
2.70000247964549
 31
0.0
  0
LINE
  5
239
330
236
100
AcDbEntity
  8
0
  6
CENTER
 62
     0
100
AcDbLine
 10
1.599997211020308
 20
2.70000247964549
 30
0.0
 11
-0.0000027889800549
 21
2.70000247964549
 31
0.0
  0
LINE
  5
23A
330
236
100
AcDbEntity
  8
0
  6
CENTER
 62
     0
100
AcDbLine
 10
1.599997211020308
 20
0.0000024796447633
 30
0.0
 11
-0.0000027889800549
 21
0.0000024796447633
 31
0.0
  0
ENDBLK
  5
23C
330
236
100
AcDbEntity
  8
0
 48
5.0
100
AcDbBlockEnd
  0
BLOCK
  5
CE6
330
BBA
100
AcDbEntity
  8
0
100
AcDbBlockBegin
  2
A$C57E26210
 70
     0
 10
0.0
 20
0.0
 30
0.0
  3
A$C57E26210
  1

  0
LWPOLYLINE
  5
BBB
330
BBA
100
AcDbEntity
  8
0
  6
Continuous
 62
     7
100
AcDbPolyline
 90
        6
 70
   128
 43
0.0
 10
14.01098777450738
 20
13.70000042456694
 10
14.01101385153947
 20
13.73618789452621
 10
14.01103899724899
 20
13.84311397064038
 10
14.01106181465206
 20
14.01594182911821
 10
14.01108113959549
 20
14.24685348260709
 10
14.01109627358732
 20
14.52540368277141
  0
LINE
  5
BBC
330
BBA
100
AcDbEntity
  8
0
  6
Continuous
 62
     7
100
AcDbLine
 10
12.60161499403533
 20
16.4000004946024
 30
0.0
 11
12.60161499403533
 21
11.05000050242551
 31
0.0
  0
LINE
  5
BBD
330
BBA
100
AcDbEntity
  8
0
  6
Continuous
 62
     7
100
AcDbLine
 10
9.84153018243728
 20
15.02000023114987
 30
0.0
 11
9.84153018243728
 21
12.82000047590144
 31
0.0
  0
LINE
  5
BBE
330
BBA
100
AcDbEntity
  8
0
  6
Continuous
 62
     7
100
AcDbLine
 10
9.84094903715072
 20
12.82000047590144
 30
0.0
 11
9.84094903715072
 21
15.02000023114987
 31
0.0
  0
LINE
  5
BBF
330
BBA
100
AcDbEntity
  8
0
  6
Continuous
 62
     7
100
AcDbLine
 10
8.440949087069611
 20
12.82000047590144
 30
0.0
 11
8.440949087069611
 21
15.02000023114987
 31
0.0
  0
LINE
  5
BC0
330
BBA
100
AcDbEntity
  8
0
  6
Continuous
 62
     7
100
AcDbLine
 10
10.10161504991468
 20
11.5314819334776
 30
0.0
 11
10.10161504991468
 21
15.10000037464806
 31
0.0
  0
LWPOLYLINE
  5
BC1
330
BBA
100
AcDbEntity
  8
0
  6
Continuous
 62
     7
100
AcDbPolyline
 90
        9
 70
   128
 43
0.0
 10
5.2715680273634
 20
15.04331449482151
 10
5.271541950331311
 20
14.85185645956107
 10
5.271514010654072
 20
14.69383197340675
 10
5.27148607097683
 20
14.57070600676843
 10
5.271456268654445
 20
14.48361896413871
 10
5.271426466332058
 20
14.43337783652848
 10
5.271395732687096
 20
14.4204487508864
 10
5.271365930364709
 20
14.44495091650196
 10
5.271336128042321
 20
14.50665755632826
  0
LINE
  5
BC2
330
BBA
100
AcDbEntity
  8
0
  6
Continuous
 62
     7
100
AcDbLine
 10
7.501344260798077
 20
14.397877216968
 30
0.0
 11
7.501602237151246
 21
15.0676578699381
 31
0.0
  0
LWPOLYLINE
  5
BC3
330
BBA
100
AcDbEntity
  8
0
  6
Continuous
 62
     7
100
AcDbPolyline
 90
        7
 70
   128
 43
0.0
 10
7.241400954352003
 20
14.42000031906673
 10
7.241426100061516
 20
14.43337783652848
 10
7.241455902383902
 20
14.48361896413871
 10
7.241485704706293
 20
14.57070600676843
 10
7.241514575706105
 20
14.69383197340675
 10
7.241541584060769
 20
14.85185645956107
 10
7.241555553899386
 20
14.94534448224612
  0
LINE
  5
BC4
330
BBA
100
AcDbEntity
  8
0
100
AcDbLine
 10
0.000000310167934
 20
18.10000062051676
 30
0.0
 11
0.0000003101688435
 21
0.0000001943440111
 31
0.0
  0
LINE
  5
BC5
330
BBA
100
AcDbEntity
  8
0
100
AcDbLine
 10
14.30159928746593
 20
18.10000062051721
 30
0.0
 11
14.30159928746673
 21
0.0000001943440111
 31
0.0
  0
LINE
  5
BC6
330
BBA
100
AcDbEntity
  8
0
  6
Continuous
 62
     7
100
AcDbLine
 10
3.001614538059806
 20
15.10000037464806
 30
0.0
 11
3.001614538059806
 21
3.000000440213169
 31
0.0
  0
LINE
  5
BC7
330
BBA
100
AcDbEntity
  8
0
  6
Continuous
 62
     7
100
AcDbLine
 10
1.701614883766751
 20
1.700000320258823
 30
0.0
 11
1.701614883766751
 21
16.4000004946024
 31
0.0
  0
LINE
  5
BC8
330
BBA
100
AcDbEntity
  8
0
  6
Continuous
 62
     7
100
AcDbLine
 10
1.501599391029458
 20
1.50000019434401
 30
0.0
 11
1.501599391029458
 21
16.60000062051722
 31
0.0
  0
LINE
  5
BC9
330
BBA
100
AcDbEntity
  8
0
  6
Continuous
 62
     7
100
AcDbLine
 10
12.80159928746638
 20
1.50000019434401
 30
0.0
 11
12.80159928746638
 21
16.60000062051722
 31
0.0
  0
LINE
  5
BCA
330
BBA
100
AcDbEntity
  8
0
  6
Continuous
 62
     7
100
AcDbLine
 10
1.500000310168843
 20
16.60000062051722
 30
0.0
 11
1.500000310168843
 21
1.50000019434401
 31
0.0
  0
LINE
  5
BCB
330
BBA
100
AcDbEntity
  8
0
100
AcDbLine
 10
14.30159928746673
 20
0.0000001943440111
 30
0.0
 11
0.0000003101688435
 21
0.0000001943440111
 31
0.0
  0
LWPOLYLINE
  5
BCC
330
BBA
100
AcDbEntity
  8
0
  6
Continuous
 62
     7
100
AcDbPolyline
 90
        8
 70
   128
 43
0.0
 10
12.86098786540446
 20
1.957631152752128
 10
12.86099997259793
 20
1.96641212764689
 10
12.86102372132359
 20
2.036008001002755
 10
12.86104560740408
 20
2.171743609640087
 10
12.86106469951683
 20
2.366876178118673
 10
12.86108006633934
 20
2.61171436372706
 10
12.86109077654896
 20
2.894097421947208
 10
12.86109636448441
 20
3.200000566127982
  0
LWPOLYLINE
  5
BCD
330
BBA
100
AcDbEntity
  8
0
  6
Continuous
 62
     7
100
AcDbPolyline
 90
       11
 70
   128
 43
0.0
 10
12.86093757398544
 20
1.957631152752128
 10
12.86094036795316
 20
1.938643813762155
 10
12.86096365101752
 20
1.835101232561554
 10
12.86098786540446
 20
1.80000061604687
 10
12.8610120797914
 20
1.835101232561554
 10
12.86103489719448
 20
1.938643813762155
 10
12.86105538629112
 20
2.105436236295188
 10
12.86107261575875
 20
2.327114757779326
 10
12.8610856542748
 20
2.592563111963951
 10
12.86109357051667
 20
2.888471302273956
 10
12.86109636448441
 20
3.200000566127982
  0
LWPOLYLINE
  5
BCE
330
BBA
100
AcDbEntity
  8
0
  6
Continuous
 62
     7
100
AcDbPolyline
 90
        8
 70
   128
 43
0.0
 10
13.31098779946683
 20
1.80000061604687
 10
13.3110117810231
 20
1.835101232561554
 10
13.31103483125684
 20
1.938643813762155
 10
13.31105555318413
 20
2.105436236295188
 10
13.31107254982112
 20
2.327114757779326
 10
13.31108558833715
 20
2.592563111963951
 10
13.31109373740969
 20
2.888471302273956
 10
13.31109629854677
 20
3.200000566127982
  0
LINE
  5
BCF
330
BBA
100
AcDbEntity
  8
0
  6
Continuous
 62
     7
100
AcDbLine
 10
12.60161499403533
 20
7.050000312435712
 30
0.0
 11
12.60161499403533
 21
1.700000320258823
 31
0.0
  0
LINE
  5
BD0
330
BBA
100
AcDbEntity
  8
0
  6
Continuous
 62
     7
100
AcDbLine
 10
7.753813703582864
 20
2.805033647152868
 30
0.0
 11
7.753813703582864
 21
3.000000440213169
 31
0.0
  0
LWPOLYLINE
  5
BD1
330
BBA
100
AcDbEntity
  8
0
  6
Continuous
 62
     7
100
AcDbPolyline
 90
        9
 70
   128
 43
0.0
 10
7.501602237151246
 20
3.032342944923128
 10
7.50160503111897
 20
3.022724245372501
 10
7.501607825086692
 20
3.007636354002443
 10
7.501609687731843
 20
2.987521183374608
 10
7.501611550376992
 20
2.962968726340021
 10
7.501613413022141
 20
2.934700292232718
 10
7.501614344344716
 20
2.903544292482818
 10
7.501614344344716
 20
2.870414820197311
 10
7.501615275667289
 20
2.836284176144089
  0
LINE
  5
BD2
330
BBA
100
AcDbEntity
  8
0
  6
Continuous
 62
     7
100
AcDbLine
 10
7.75377458803473
 20
2.805033647152868
 30
0.0
 11
7.75377458803473
 21
3.000000440213169
 31
0.0
  0
LWPOLYLINE
  5
BD3
330
BBA
100
AcDbEntity
  8
0
  6
Continuous
 62
     7
100
AcDbPolyline
 90
        5
 70
   128
 43
0.0
 10
5.271576409266572
 20
2.971513145300831
 10
5.271576409266572
 20
2.970420703920805
 10
5.271579203234296
 20
2.918112040194952
 10
5.271581997202018
 20
2.860760730388846
 10
5.271584791169741
 20
2.805033647152868
  0
LWPOLYLINE
  5
BD4
330
BBA
100
AcDbEntity
  8
0
  6
Continuous
 62
     7
100
AcDbPolyline
 90
        9
 70
   128
 43
0.0
 10
5.351602164135556
 20
3.032342944923128
 10
5.35160495810328
 20
3.022724245372501
 10
5.351607752071004
 20
3.007636354002443
 10
5.351609614716153
 20
2.987521183374608
 10
5.351611477361299
 20
2.962968726340021
 10
5.35161334000645
 20
2.934700292232718
 10
5.351614271329026
 20
2.903544292482818
 10
5.351615202651601
 20
2.870414820197311
 10
5.351615202651601
 20
2.836284176144089
  0
LINE
  5
BD5
330
BBA
100
AcDbEntity
  8
0
  6
Continuous
 62
     7
100
AcDbLine
 10
5.099416774736027
 20
3.000000440213169
 30
0.0
 11
5.099416774736027
 21
2.805033647152868
 31
0.0
  0
LINE
  5
BD6
330
BBA
100
AcDbEntity
  8
0
  6
Continuous
 62
     7
100
AcDbLine
 10
14.30159928746661
 20
1.520000346633878
 30
0.0
 11
13.71073077343521
 21
1.520000346633878
 31
0.0
  0
LINE
  5
BD7
330
BBA
100
AcDbEntity
  8
0
  6
Continuous
 62
     7
100
AcDbLine
 10
14.30159928746661
 20
1.760000311467138
 30
0.0
 11
13.71073077343521
 21
1.760000311467138
 31
0.0
  0
LINE
  5
BD8
330
BBA
100
AcDbEntity
  8
0
  6
Continuous
 62
     7
100
AcDbLine
 10
13.31098779946683
 20
1.80000061604687
 30
0.0
 11
14.30159928746661
 21
2.196245026731048
 31
0.0
  0
LINE
  5
BD9
330
BBA
100
AcDbEntity
  8
0
  6
Continuous
 62
     7
100
AcDbLine
 10
5.351615202651601
 20
2.836284176144089
 30
0.0
 11
7.501615275667289
 21
2.836284176144089
 31
0.0
  0
LINE
  5
BDA
330
BBA
100
AcDbEntity
  8
0
  6
Continuous
 62
     7
100
AcDbLine
 10
12.60161499403533
 20
1.700000320258823
 30
0.0
 11
1.701614883766751
 21
1.700000320258823
 31
0.0
  0
LINE
  5
BDB
330
BBA
100
AcDbEntity
  8
0
  6
Continuous
 62
     7
100
AcDbLine
 10
1.501599391029458
 20
1.50000019434401
 30
0.0
 11
12.80159928746638
 21
1.50000019434401
 31
0.0
  0
LINE
  5
BDC
330
BBA
100
AcDbEntity
  8
0
  6
Continuous
 62
     7
100
AcDbLine
 10
5.351615202651601
 20
2.836284176144089
 30
0.0
 11
5.351615202651601
 21
2.805033647152868
 31
0.0
  0
LINE
  5
BDD
330
BBA
100
AcDbEntity
  8
0
  6
Continuous
 62
     7
100
AcDbLine
 10
5.099416774736027
 20
2.805033647152868
 30
0.0
 11
5.351615202651601
 21
2.805033647152868
 31
0.0
  0
LINE
  5
BDE
330
BBA
100
AcDbEntity
  8
0
  6
Continuous
 62
     7
100
AcDbLine
 10
2.611246024296856
 20
1.50000019434401
 30
0.0
 11
3.536772978530506
 21
1.42997963789412
 31
0.0
  0
LINE
  5
BDF
330
BBA
100
AcDbEntity
  8
0
  6
Continuous
 62
     7
100
AcDbLine
 10
3.536772978530506
 20
1.229979977640595
 30
0.0
 11
2.346888248847105
 21
1.320000220719063
 31
0.0
  0
LINE
  5
BE0
330
BBA
100
AcDbEntity
  8
0
  6
Continuous
 62
     7
100
AcDbLine
 10
1.919974637256244
 20
1.50000019434401
 30
0.0
 11
1.919974637256244
 21
1.320000220719063
 31
0.0
  0
LINE
  5
BE1
330
BBA
100
AcDbEntity
  8
0
  6
Continuous
 62
     7
100
AcDbLine
 10
1.919974637256244
 20
1.320000220719063
 30
0.0
 11
2.346888248847105
 21
1.320000220719063
 31
0.0
  0
LINE
  5
BE2
330
BBA
100
AcDbEntity
  8
0
  6
Continuous
 62
     7
100
AcDbLine
 10
3.536772978530506
 20
1.229979977640595
 30
0.0
 11
3.536772978530506
 21
1.42997963789412
 31
0.0
  0
LINE
  5
BE3
330
BBA
100
AcDbEntity
  8
0
  6
Continuous
 62
     7
100
AcDbLine
 10
4.060192097948172
 20
1.45373581412741
 30
0.0
 11
3.536772978530506
 21
1.42997963789412
 31
0.0
  0
LINE
  5
BE4
330
BBA
100
AcDbEntity
  8
0
  6
Continuous
 62
     7
100
AcDbLine
 10
3.536772978530506
 20
1.229979977640595
 30
0.0
 11
4.060192097948172
 21
1.253736153873886
 31
0.0
  0
LWPOLYLINE
  5
BE5
330
BBA
100
AcDbEntity
  8
0
  6
Continuous
 62
     7
100
AcDbPolyline
 90
       10
 70
   128
 43
0.0
 10
1.701614883766751
 20
1.700000320258823
 10
1.666884933636764
 20
1.665270835790123
 10
1.633210171983819
 20
1.631596539798465
 10
1.601613190994839
 20
1.60000049013206
 10
1.573054184244254
 20
1.571442880365339
 10
1.548400213049034
 20
1.54679170313784
 10
1.528401923404316
 20
1.526795276138273
 10
1.513666537628751
 20
1.512061753007855
 10
1.504640159235574
 20
1.503038634243693
 10
1.501599391029458
 20
1.50000019434401
  0
LINE
  5
BE6
330
BBA
100
AcDbEntity
  8
0
  6
Continuous
 62
     7
100
AcDbLine
 10
1.500000310168843
 20
1.50000019434401
 30
0.0
 11
1.501599391029458
 21
1.50000019434401
 31
0.0
  0
LINE
  5
BE7
330
BBA
100
AcDbEntity
  8
0
  6
Continuous
 62
     7
100
AcDbLine
 10
11.06027566738543
 20
1.320000220719063
 30
0.0
 11
11.06027549334089
 21
0.0000001943440111
 31
0.0
  0
LINE
  5
BE8
330
BBA
100
AcDbEntity
  8
0
  6
Continuous
 62
     7
100
AcDbLine
 10
11.06131595470124
 20
1.50000019434401
 30
0.0
 11
11.06131595470124
 21
0.0000001943440111
 31
0.0
  0
LINE
  5
BE9
330
BBA
100
AcDbEntity
  8
0
  6
Continuous
 62
     7
100
AcDbLine
 10
9.120715380684712
 20
1.320000220719063
 30
0.0
 11
11.06071525164065
 21
1.320000220719063
 31
0.0
  0
LINE
  5
BEA
330
BBA
100
AcDbEntity
  8
0
  6
Continuous
 62
     7
100
AcDbLine
 10
8.820692141578772
 20
1.50000019434401
 30
0.0
 11
8.820692141578772
 21
1.320000220719063
 31
0.0
  0
LINE
  5
BEB
330
BBA
100
AcDbEntity
  8
0
  6
Continuous
 62
     7
100
AcDbLine
 10
9.120715380684712
 20
1.320000220719063
 30
0.0
 11
8.820692141578772
 21
1.320000220719063
 31
0.0
  0
LINE
  5
BEC
330
BBA
100
AcDbEntity
  8
0
  6
Continuous
 62
     7
100
AcDbLine
 10
9.120715380684712
 20
1.50000019434401
 30
0.0
 11
9.120715380684712
 21
1.320000220719063
 31
0.0
  0
LINE
  5
BED
330
BBA
100
AcDbEntity
  8
0
  6
Continuous
 62
     7
100
AcDbLine
 10
12.7603389034432
 20
0.0000001943440111
 30
0.0
 11
12.7603389034432
 21
0.1890975466699274
 31
0.0
  0
LINE
  5
BEE
330
BBA
100
AcDbEntity
  8
0
  6
Continuous
 62
     7
100
AcDbLine
 10
12.6613160306972
 20
0.0000001943440111
 30
0.0
 11
12.6613160306972
 21
1.50000019434401
 31
0.0
  0
LINE
  5
BEF
330
BBA
100
AcDbEntity
  8
0
  6
Continuous
 62
     7
100
AcDbLine
 10
12.80159928746638
 20
1.957631152752128
 30
0.0
 11
12.86098786540446
 21
1.957631152752128
 31
0.0
  0
LINE
  5
BF0
330
BBA
100
AcDbEntity
  8
0
  6
Continuous
 62
     7
100
AcDbLine
 10
12.86098786540446
 20
1.80000061604687
 30
0.0
 11
13.31098779946683
 21
1.80000061604687
 31
0.0
  0
LINE
  5
BF1
330
BBA
100
AcDbEntity
  8
0
  6
Continuous
 62
     7
100
AcDbLine
 10
13.61069206059096
 20
1.320000220719063
 30
0.0
 11
13.61069206059096
 21
1.520000346633878
 31
0.0
  0
LINE
  5
BF2
330
BBA
100
AcDbEntity
  8
0
  6
Continuous
 62
     7
100
AcDbLine
 10
13.71073077343521
 20
1.520000346633878
 30
0.0
 11
13.71073077343521
 21
1.760000311467138
 31
0.0
  0
LINE
  5
BF3
330
BBA
100
AcDbEntity
  8
0
  6
Continuous
 62
     7
100
AcDbLine
 10
13.71073077343521
 20
1.760000311467138
 30
0.0
 11
12.80159928746638
 21
1.760000311467138
 31
0.0
  0
LINE
  5
BF4
330
BBA
100
AcDbEntity
  8
0
  6
Continuous
 62
     7
100
AcDbLine
 10
13.71073077343521
 20
1.520000346633878
 30
0.0
 11
12.80159928746638
 21
1.520000346633878
 31
0.0
  0
LINE
  5
BF5
330
BBA
100
AcDbEntity
  8
0
  6
Continuous
 62
     7
100
AcDbLine
 10
13.31071538761374
 20
1.520000346633878
 30
0.0
 11
13.31071538761374
 21
1.320000220719063
 31
0.0
  0
LINE
  5
BF6
330
BBA
100
AcDbEntity
  8
0
  6
Continuous
 62
     7
100
AcDbLine
 10
12.6613160306972
 20
1.320000220719063
 30
0.0
 11
13.31071538761374
 21
1.320000220719063
 31
0.0
  0
LINE
  5
BF7
330
BBA
100
AcDbEntity
  8
0
  6
Continuous
 62
     7
100
AcDbLine
 10
13.31071538761374
 20
1.320000220719063
 30
0.0
 11
13.61069206059096
 21
1.320000220719063
 31
0.0
  0
LINE
  5
BF8
330
BBA
100
AcDbEntity
  8
0
  6
Continuous
 62
     7
100
AcDbLine
 10
12.6613160306972
 20
0.1890975466699274
 30
0.0
 11
12.7603389034432
 21
0.1890975466699274
 31
0.0
  0
LINE
  5
BF9
330
BBA
100
AcDbEntity
  8
0
  6
Continuous
 62
     7
100
AcDbLine
 10
12.6613160306972
 20
0.5318168035478266
 30
0.0
 11
12.76031468905626
 21
0.5318168035478266
 31
0.0
  0
LWPOLYLINE
  5
BFA
330
BBA
100
AcDbEntity
  8
0
  6
Continuous
 62
     7
100
AcDbPolyline
 90
        9
 70
   128
 43
0.0
 10
12.7603389034432
 20
0.1890975466699274
 10
12.76033424683032
 20
0.197316468390909
 10
12.76032912455616
 20
0.2181734374494226
 10
12.76032493360458
 20
0.2508293322057398
 10
12.76032120831428
 20
0.2939672625393541
 10
12.76031841434655
 20
0.3458503118486078
 10
12.76031608604012
 20
0.4043867296309145
 10
12.76031515471752
 20
0.4672202697724971
 10
12.76031468905626
 20
0.5318168035478266
  0
LINE
  5
BFB
330
BBA
100
AcDbEntity
  8
0
  6
Continuous
 62
     7
100
AcDbLine
 10
12.76031468905626
 20
0.5318168035478266
 30
0.0
 11
12.76031468905626
 21
0.9427368125648172
 31
0.0
  0
LINE
  5
BFC
330
BBA
100
AcDbEntity
  8
0
  6
Continuous
 62
     7
100
AcDbLine
 10
12.76030304752407
 20
1.092736557754959
 30
0.0
 11
12.6613160306972
 21
1.092736557754959
 31
0.0
  0
LWPOLYLINE
  5
BFD
330
BBA
100
AcDbEntity
  8
0
  6
Continuous
 62
     7
100
AcDbPolyline
 90
        9
 70
   128
 43
0.0
 10
12.76031468905626
 20
0.9427368125648172
 10
12.76031468905626
 20
0.97199989918181
 10
12.76031375773367
 20
1.000138879451242
 10
12.76031282641111
 20
1.02607155654141
 10
12.76031142942724
 20
1.04880234662005
 10
12.76030956678209
 20
1.067456737789598
 10
12.76030770413695
 20
1.081318542990175
 10
12.76030537583051
 20
1.089854114386525
 10
12.76030304752407
 20
1.092736557754959
  0
LWPOLYLINE
  5
BFE
330
BBA
100
AcDbEntity
  8
0
  6
Continuous
 62
     7
100
AcDbPolyline
 90
        9
 70
   128
 43
0.0
 10
12.80159928746638
 20
1.50000019434401
 10
12.79775944449125
 20
1.503843296948159
 10
12.78638147659717
 20
1.515224524471249
 10
12.76790217407165
 20
1.533706620964494
 10
12.74303167037783
 20
1.558578987303462
 10
12.71272643379983
 20
1.588886552187885
 10
12.67815061755594
 20
1.623463765415635
 10
12.64063275329886
 20
1.660982560995307
 10
12.60161499403533
 20
1.700000320258823
  0
LINE
  5
BFF
330
BBA
100
AcDbEntity
  8
0
  6
Continuous
 62
     7
100
AcDbLine
 10
12.76031468905626
 20
0.9427368125648172
 30
0.0
 11
12.6613160306972
 21
0.9427368125648172
 31
0.0
  0
LINE
  5
C00
330
BBA
100
AcDbEntity
  8
0
  6
Continuous
 62
     7
100
AcDbLine
 10
7.501615275667289
 20
2.836284176144089
 30
0.0
 11
7.501615275667289
 21
2.805033647152868
 31
0.0
  0
LINE
  5
C01
330
BBA
100
AcDbEntity
  8
0
  6
Continuous
 62
     7
100
AcDbLine
 10
7.501615275667289
 20
2.805033647152868
 30
0.0
 11
7.753813703582864
 21
2.805033647152868
 31
0.0
  0
LINE
  5
C02
330
BBA
100
AcDbEntity
  8
0
  6
Continuous
 62
     7
100
AcDbLine
 10
14.26027558654664
 20
1.092736557754959
 30
0.0
 11
14.30159928746673
 21
1.092736557754959
 31
0.0
  0
LINE
  5
C03
330
BBA
100
AcDbEntity
  8
0
  6
Continuous
 62
     7
100
AcDbLine
 10
14.26027558654664
 20
1.520000346633878
 30
0.0
 11
14.26027544037424
 21
0.0000001944299584
 31
0.0
  0
LINE
  5
C04
330
BBA
100
AcDbEntity
  8
0
  6
Continuous
 62
     7
100
AcDbLine
 10
14.26027558654664
 20
2.179715730878793
 30
0.0
 11
14.26027558654664
 21
1.760000311467138
 31
0.0
  0
LINE
  5
C05
330
BBA
100
AcDbEntity
  8
0
  6
Continuous
 62
     7
100
AcDbLine
 10
13.46080779940007
 20
9.435000399523687
 30
0.0
 11
14.30159928746626
 21
9.435000399523687
 31
0.0
  0
LINE
  5
C06
330
BBA
100
AcDbEntity
  8
0
  6
Continuous
 62
     7
100
AcDbLine
 10
14.30159928746626
 20
9.935000394168582
 30
0.0
 11
13.46080779940007
 21
9.935000394168582
 31
0.0
  0
LINE
  5
C07
330
BBA
100
AcDbEntity
  8
0
  6
Continuous
 62
     7
100
AcDbLine
 10
12.80159928746638
 20
11.97500032808193
 30
0.0
 11
14.30159928746616
 21
11.97500032808193
 31
0.0
  0
LINE
  5
C08
330
BBA
100
AcDbEntity
  8
0
  6
Continuous
 62
     7
100
AcDbLine
 10
14.30159928746616
 20
12.47500041003831
 30
0.0
 11
12.80159928746638
 21
12.47500041003831
 31
0.0
  0
LINE
  5
C09
330
BBA
100
AcDbEntity
  8
0
  6
Continuous
 62
     7
100
AcDbLine
 10
14.01098777450738
 20
13.70000042456694
 30
0.0
 11
14.30159928746603
 21
13.99061193752547
 31
0.0
  0
LINE
  5
C0A
330
BBA
100
AcDbEntity
  8
0
  6
Continuous
 62
     7
100
AcDbLine
 10
14.30159928746661
 20
3.200000566127982
 30
0.0
 11
13.31109629854677
 21
3.200000566127982
 31
0.0
  0
LINE
  5
C0B
330
BBA
100
AcDbEntity
  8
0
  6
Continuous
 62
     7
100
AcDbLine
 10
14.01109627358732
 20
3.574597132089817
 30
0.0
 11
14.30159928746661
 21
3.574597132089817
 31
0.0
  0
LINE
  5
C0C
330
BBA
100
AcDbEntity
  8
0
  6
Continuous
 62
     7
100
AcDbLine
 10
14.30159928746661
 20
4.109388877334819
 30
0.0
 11
14.01098777450738
 21
4.400000390294278
 31
0.0
  0
LINE
  5
C0D
330
BBA
100
AcDbEntity
  8
0
  6
Continuous
 62
     7
100
AcDbLine
 10
12.80159928746638
 20
4.855000362429108
 30
0.0
 11
14.30159928746649
 21
4.855000362429108
 31
0.0
  0
LINE
  5
C0E
330
BBA
100
AcDbEntity
  8
0
  6
Continuous
 62
     7
100
AcDbLine
 10
14.30159928746638
 20
6.895000296342457
 30
0.0
 11
13.36083241649089
 21
6.895000296342457
 31
0.0
  0
LINE
  5
C0F
330
BBA
100
AcDbEntity
  8
0
  6
Continuous
 62
     7
100
AcDbLine
 10
14.30159928746638
 20
7.395000378298846
 30
0.0
 11
13.36083241649089
 21
7.395000378298846
 31
0.0
  0
LINE
  5
C10
330
BBA
100
AcDbEntity
  8
0
  6
Continuous
 62
     7
100
AcDbLine
 10
3.472384129689316
 20
8.15000042289057
 30
0.0
 11
3.472384129689316
 21
8.850000412483041
 31
0.0
  0
LINE
  5
C11
330
BBA
100
AcDbEntity
  8
0
  6
Continuous
 62
     7
100
AcDbLine
 10
12.46080786831794
 20
10.70057968113133
 30
0.0
 11
12.46080786831794
 21
7.399421133729902
 31
0.0
  0
LINE
  5
C12
330
BBA
100
AcDbEntity
  8
0
  6
Continuous
 62
     7
100
AcDbLine
 10
12.46076130218921
 20
7.399421133729902
 30
0.0
 11
12.46076130218921
 21
10.70057968113133
 31
0.0
  0
LINE
  5
C13
330
BBA
100
AcDbEntity
  8
0
  6
Continuous
 62
     7
100
AcDbLine
 10
13.46080779940007
 20
7.399421133729902
 30
0.0
 11
13.46080779940007
 21
10.70057968113133
 31
0.0
  0
LINE
  5
C14
330
BBA
100
AcDbEntity
  8
0
  6
Continuous
 62
     7
100
AcDbLine
 10
12.60161499403533
 20
11.05000050242551
 30
0.0
 11
12.60161499403533
 21
7.050000312435712
 31
0.0
  0
LINE
  5
C15
330
BBA
100
AcDbEntity
  8
0
  6
Continuous
 62
     7
100
AcDbLine
 10
13.36083241649089
 20
11.55000035155126
 30
0.0
 11
13.36083241649089
 21
6.550000463309967
 31
0.0
  0
LINE
  5
C16
330
BBA
100
AcDbEntity
  8
0
  6
Continuous
 62
     7
100
AcDbLine
 10
7.501602237151246
 20
3.032342944923128
 30
0.0
 11
5.351602164135556
 21
3.032342944923128
 31
0.0
  0
LINE
  5
C17
330
BBA
100
AcDbEntity
  8
0
  6
Continuous
 62
     7
100
AcDbLine
 10
5.351344187782386
 20
3.702123597893205
 30
0.0
 11
7.501344260798077
 21
3.702123597893205
 31
0.0
  0
LINE
  5
C18
330
BBA
100
AcDbEntity
  8
0
  6
Continuous
 62
     7
100
AcDbLine
 10
3.472384129689316
 20
8.15000042289057
 30
0.0
 11
3.00145900718985
 21
8.15000042289057
 31
0.0
  0
LWPOLYLINE
  5
C19
330
BBA
100
AcDbEntity
  8
0
  6
Continuous
 62
     7
100
AcDbPolyline
 90
        7
 70
   128
 43
0.0
 10
7.241555553899386
 20
3.154656332615103
 10
7.241541584060769
 20
3.248144355300154
 10
7.241514575706105
 20
3.406168841454473
 10
7.241485704706293
 20
3.529294808092798
 10
7.241455902383902
 20
3.616381850722517
 10
7.241426100061516
 20
3.666622978332725
 10
7.241400954352003
 20
3.680000495794502
  0
LINE
  5
C1A
330
BBA
100
AcDbEntity
  8
0
  6
Continuous
 62
     7
100
AcDbLine
 10
7.241400954352003
 20
3.680000495794502
 30
0.0
 11
5.271400389299968
 21
3.680000495794502
 31
0.0
  0
LINE
  5
C1B
330
BBA
100
AcDbEntity
  8
0
  6
Continuous
 62
     7
100
AcDbLine
 10
3.00145900718985
 20
7.750000403891588
 30
0.0
 11
3.472384129689316
 21
7.750000403891588
 31
0.0
  0
LINE
  5
C1C
330
BBA
100
AcDbEntity
  8
0
  6
Continuous
 62
     7
100
AcDbLine
 10
3.472384129689316
 20
7.050000312435712
 30
0.0
 11
3.00145900718985
 21
7.050000312435712
 31
0.0
  0
LINE
  5
C1D
330
BBA
100
AcDbEntity
  8
0
  6
Continuous
 62
     7
100
AcDbLine
 10
3.472384129689316
 20
5.950000318396177
 30
0.0
 11
3.00145900718985
 21
5.950000318396177
 31
0.0
  0
LINE
  5
C1E
330
BBA
100
AcDbEntity
  8
0
  6
Continuous
 62
     7
100
AcDbLine
 10
3.00145900718985
 20
6.650000293436732
 30
0.0
 11
3.472384129689316
 21
6.650000293436732
 31
0.0
  0
LINE
  5
C1F
330
BBA
100
AcDbEntity
  8
0
  6
Continuous
 62
     7
100
AcDbLine
 10
3.00145900718985
 20
5.550000299397196
 30
0.0
 11
3.472384129689316
 21
5.550000299397196
 31
0.0
  0
LINE
  5
C20
330
BBA
100
AcDbEntity
  8
0
  6
Continuous
 62
     7
100
AcDbLine
 10
3.00145900718985
 20
4.850000557187286
 30
0.0
 11
3.472384129689316
 21
4.850000557187286
 31
0.0
  0
LINE
  5
C21
330
BBA
100
AcDbEntity
  8
0
  6
Continuous
 62
     7
100
AcDbLine
 10
3.472384129689316
 20
7.050000312435712
 30
0.0
 11
3.472384129689316
 21
7.750000403891588
 31
0.0
  0
LINE
  5
C22
330
BBA
100
AcDbEntity
  8
0
  6
Continuous
 62
     7
100
AcDbLine
 10
3.472384129689316
 20
5.950000318396177
 30
0.0
 11
3.472384129689316
 21
6.650000293436732
 31
0.0
  0
LINE
  5
C23
330
BBA
100
AcDbEntity
  8
0
  6
Continuous
 62
     7
100
AcDbLine
 10
3.472384129689316
 20
4.850000557187286
 30
0.0
 11
3.472384129689316
 21
5.550000299397196
 31
0.0
  0
LWPOLYLINE
  5
C24
330
BBA
100
AcDbEntity
  8
0
  6
Continuous
 62
     7
100
AcDbPolyline
 90
        9
 70
   128
 43
0.0
 10
5.271538225041011
 20
3.000000440213169
 10
5.271532637105565
 20
3.036639601621118
 10
5.271506560073476
 20
3.186994180712189
 10
5.271479551718811
 20
3.303336393717017
 10
5.271450680718999
 20
3.384550516191211
 10
5.271422741041758
 20
3.429857962462391
 10
5.271393870041947
 20
3.438823804888214
 10
5.27136499904213
 20
3.411362827453102
 10
5.271336128042321
 20
3.347738128784383
  0
LINE
  5
C25
330
BBA
100
AcDbEntity
  8
0
  6
Continuous
 62
     7
100
AcDbLine
 10
5.271336128042321
 20
3.347738128784383
 30
0.0
 11
5.271336128042321
 21
3.593343258532968
 31
0.0
  0
LWPOLYLINE
  5
C26
330
BBA
100
AcDbEntity
  8
0
  6
Continuous
 62
     7
100
AcDbPolyline
 90
        9
 70
   128
 43
0.0
 10
5.271336128042321
 20
3.593343258532968
 10
5.271365930364709
 20
3.655049898359266
 10
5.271395732687096
 20
3.679552063974823
 10
5.271426466332058
 20
3.666622978332725
 10
5.271456268654445
 20
3.616381850722517
 10
5.27148607097683
 20
3.529294808092798
 10
5.271514010654072
 20
3.406168841454473
 10
5.271541950331311
 20
3.248144355300154
 10
5.2715680273634
 20
3.056686320039716
  0
LWPOLYLINE
  5
C27
330
BBA
100
AcDbEntity
  8
0
  6
Continuous
 62
     7
100
AcDbPolyline
 90
        3
 70
   128
 43
0.0
 10
5.2715680273634
 20
3.056686320039716
 10
5.271572683976273
 20
3.01685737881371
 10
5.271573615298846
 20
3.000000440213169
  0
LINE
  5
C28
330
BBA
100
AcDbEntity
  8
0
  6
Continuous
 62
     7
100
AcDbLine
 10
5.271465581880191
 20
3.347738128784383
 30
0.0
 11
5.271336128042321
 21
3.347738128784383
 31
0.0
  0
LINE
  5
C29
330
BBA
100
AcDbEntity
  8
0
  6
Continuous
 62
     7
100
AcDbLine
 10
5.351576087103467
 20
2.971513145300831
 30
0.0
 11
5.351576087103467
 21
3.000000440213169
 31
0.0
  0
LINE
  5
C2A
330
BBA
100
AcDbEntity
  8
0
  6
Continuous
 62
     7
100
AcDbLine
 10
5.351602164135556
 20
3.032342944923128
 30
0.0
 11
5.351555598006825
 21
3.154656332615103
 31
0.0
  0
LINE
  5
C2B
330
BBA
100
AcDbEntity
  8
0
  6
Continuous
 62
     7
100
AcDbLine
 10
5.351567705200293
 20
3.056686320039716
 30
0.0
 11
5.2715680273634
 21
3.056686320039716
 31
0.0
  0
LINE
  5
C2C
330
BBA
100
AcDbEntity
  8
0
  6
Continuous
 62
     7
100
AcDbLine
 10
5.351257574782948
 20
3.680000495794502
 30
0.0
 11
5.351257574782948
 21
3.702123597893205
 31
0.0
  0
LINE
  5
C2D
330
BBA
100
AcDbEntity
  8
0
  6
Continuous
 62
     7
100
AcDbLine
 10
5.351257574782948
 20
3.702123597893205
 30
0.0
 11
5.351344187782386
 21
3.702123597893205
 31
0.0
  0
LINE
  5
C2E
330
BBA
100
AcDbEntity
  8
0
  6
Continuous
 62
     7
100
AcDbLine
 10
5.351353501008134
 20
3.680000495794502
 30
0.0
 11
5.351344187782386
 21
3.702123597893205
 31
0.0
  0
LINE
  5
C2F
330
BBA
100
AcDbEntity
  8
0
  6
Continuous
 62
     7
100
AcDbLine
 10
4.671529931054691
 20
3.080000583711353
 30
0.0
 11
3.001614538059806
 21
3.080000583711353
 31
0.0
  0
LINE
  5
C30
330
BBA
100
AcDbEntity
  8
0
  6
Continuous
 62
     7
100
AcDbLine
 10
3.001614538059806
 20
3.000000440213169
 30
0.0
 11
5.099416774736027
 21
3.000000440213169
 31
0.0
  0
LINE
  5
C31
330
BBA
100
AcDbEntity
  8
0
  6
Continuous
 62
     7
100
AcDbLine
 10
4.671529931054691
 20
3.000000440213169
 30
0.0
 11
4.671529931054691
 21
3.080000583711353
 31
0.0
  0
LINE
  5
C32
330
BBA
100
AcDbEntity
  8
0
  6
Continuous
 62
     7
100
AcDbLine
 10
5.351576087103467
 20
3.000000440213169
 30
0.0
 11
5.099416774736027
 21
3.000000440213169
 31
0.0
  0
LINE
  5
C33
330
BBA
100
AcDbEntity
  8
0
  6
Continuous
 62
     7
100
AcDbLine
 10
11.0607613521081
 20
7.399421133729902
 30
0.0
 11
11.76075504072126
 21
7.399421133729902
 31
0.0
  0
LINE
  5
C34
330
BBA
100
AcDbEntity
  8
0
  6
Continuous
 62
     7
100
AcDbLine
 10
10.10076102711374
 20
5.28000033895978
 30
0.0
 11
10.10076102711374
 21
6.56851888138362
 31
0.0
  0
LINE
  5
C35
330
BBA
100
AcDbEntity
  8
0
  6
Continuous
 62
     7
100
AcDbLine
 10
10.10161504991468
 20
6.56851888138362
 30
0.0
 11
10.10076102711374
 21
6.56851888138362
 31
0.0
  0
LINE
  5
C36
330
BBA
100
AcDbEntity
  8
0
  6
Continuous
 62
     7
100
AcDbLine
 10
11.76083234049497
 20
6.56851888138362
 30
0.0
 11
11.76083234049497
 21
7.550000394392098
 31
0.0
  0
LINE
  5
C37
330
BBA
100
AcDbEntity
  8
0
  6
Continuous
 62
     7
100
AcDbLine
 10
11.76075504072126
 20
6.56851888138362
 30
0.0
 11
11.76075504072126
 21
7.399421133729902
 31
0.0
  0
LINE
  5
C38
330
BBA
100
AcDbEntity
  8
0
  6
Continuous
 62
     7
100
AcDbLine
 10
11.0607613521081
 20
6.56851888138362
 30
0.0
 11
11.0607613521081
 21
7.399421133729902
 31
0.0
  0
LINE
  5
C39
330
BBA
100
AcDbEntity
  8
0
  6
Continuous
 62
     7
100
AcDbLine
 10
9.84153018243728
 20
5.28000033895978
 30
0.0
 11
9.84153018243728
 21
3.080000583711353
 31
0.0
  0
LINE
  5
C3A
330
BBA
100
AcDbEntity
  8
0
  6
Continuous
 62
     7
100
AcDbLine
 10
9.84094903715072
 20
3.080000583711353
 30
0.0
 11
9.84094903715072
 21
5.28000033895978
 31
0.0
  0
LINE
  5
C3B
330
BBA
100
AcDbEntity
  8
0
  6
Continuous
 62
     7
100
AcDbLine
 10
8.440949087069611
 20
3.080000583711353
 30
0.0
 11
8.440949087069611
 21
5.28000033895978
 31
0.0
  0
LINE
  5
C3C
330
BBA
100
AcDbEntity
  8
0
  6
Continuous
 62
     7
100
AcDbLine
 10
10.10161504991468
 20
3.000000440213169
 30
0.0
 11
10.10161504991468
 21
6.56851888138362
 31
0.0
  0
LINE
  5
C3D
330
BBA
100
AcDbEntity
  8
0
  6
Continuous
 62
     7
100
AcDbLine
 10
11.76083234049497
 20
7.550000394392098
 30
0.0
 11
12.01083238147315
 21
7.550000394392098
 31
0.0
  0
LINE
  5
C3E
330
BBA
100
AcDbEntity
  8
0
  6
Continuous
 62
     7
100
AcDbLine
 10
10.10161504991468
 20
6.56851888138362
 30
0.0
 11
11.90161478616414
 21
6.56851888138362
 31
0.0
  0
LINE
  5
C3F
330
BBA
100
AcDbEntity
  8
0
  6
Continuous
 62
     7
100
AcDbLine
 10
12.16082095079241
 20
7.550000394392098
 30
0.0
 11
12.16082095079241
 21
7.050000312435712
 31
0.0
  0
LINE
  5
C40
330
BBA
100
AcDbEntity
  8
0
  6
Continuous
 62
     7
100
AcDbLine
 10
12.52222579814611
 20
7.550000394392098
 30
0.0
 11
12.60081591926631
 21
7.550000394392098
 31
0.0
  0
LINE
  5
C41
330
BBA
100
AcDbEntity
  8
0
  6
Continuous
 62
     7
100
AcDbLine
 10
12.60078471996006
 20
7.050000312435712
 30
0.0
 11
12.60078471996006
 21
7.399421133729902
 31
0.0
  0
LINE
  5
C42
330
BBA
100
AcDbEntity
  8
0
  6
Continuous
 62
     7
100
AcDbLine
 10
12.60080800302444
 20
7.399421133729902
 30
0.0
 11
12.60080800302444
 21
7.550000394392098
 31
0.0
  0
LINE
  5
C43
330
BBA
100
AcDbEntity
  8
0
  6
Continuous
 62
     7
100
AcDbLine
 10
12.46080786831794
 20
7.399421133729902
 30
0.0
 11
12.60080800302444
 21
7.399421133729902
 31
0.0
  0
LINE
  5
C44
330
BBA
100
AcDbEntity
  8
0
  6
Continuous
 62
     7
100
AcDbLine
 10
12.46076130218921
 20
7.399421133729902
 30
0.0
 11
12.46080786831794
 21
7.399421133729902
 31
0.0
  0
LINE
  5
C45
330
BBA
100
AcDbEntity
  8
0
  6
Continuous
 62
     7
100
AcDbLine
 10
13.36083241649089
 20
7.399421133729902
 30
0.0
 11
13.46080779940007
 21
7.399421133729902
 31
0.0
  0
LINE
  5
C46
330
BBA
100
AcDbEntity
  8
0
  6
Continuous
 62
     7
100
AcDbLine
 10
12.16082095079241
 20
7.399421133729902
 30
0.0
 11
12.46076130218921
 21
7.399421133729902
 31
0.0
  0
LINE
  5
C47
330
BBA
100
AcDbEntity
  8
0
  6
Continuous
 62
     7
100
AcDbLine
 10
12.80159928746638
 20
6.550000463309967
 30
0.0
 11
13.36083241649089
 21
6.550000463309967
 31
0.0
  0
LINE
  5
C48
330
BBA
100
AcDbEntity
  8
0
  6
Continuous
 62
     7
100
AcDbLine
 10
12.86109636448441
 20
3.200000566127982
 30
0.0
 11
12.80159928746638
 21
3.200000566127982
 31
0.0
  0
LINE
  5
C49
330
BBA
100
AcDbEntity
  8
0
  6
Continuous
 62
     7
100
AcDbLine
 10
13.31109629854677
 20
3.200000566127982
 30
0.0
 11
12.86109636448441
 21
3.200000566127982
 31
0.0
  0
LINE
  5
C4A
330
BBA
100
AcDbEntity
  8
0
  6
Continuous
 62
     7
100
AcDbLine
 10
14.01098777450738
 20
4.400000390294278
 30
0.0
 11
12.80159928746638
 21
4.400000390294278
 31
0.0
  0
LWPOLYLINE
  5
C4B
330
BBA
100
AcDbEntity
  8
0
  6
Continuous
 62
     7
100
AcDbPolyline
 90
        6
 70
   128
 43
0.0
 10
14.01098777450738
 20
4.400000390294278
 10
14.01101385153947
 20
4.363812920335021
 10
14.01103899724899
 20
4.256886844220844
 10
14.01106181465206
 20
4.084058985743013
 10
14.01108113959549
 20
3.853147332254136
 10
14.01109627358732
 20
3.574597132089817
  0
LINE
  5
C4C
330
BBA
100
AcDbEntity
  8
0
  6
Continuous
 62
     7
100
AcDbLine
 10
12.80159928746638
 20
3.574597132089817
 30
0.0
 11
14.01109627358732
 21
3.574597132089817
 31
0.0
  0
LINE
  5
C4D
330
BBA
100
AcDbEntity
  8
0
  6
Continuous
 62
     7
100
AcDbLine
 10
12.01083238147315
 20
7.550000394392098
 30
0.0
 11
12.16082095079241
 21
7.550000394392098
 31
0.0
  0
LINE
  5
C4E
330
BBA
100
AcDbEntity
  8
0
  6
Continuous
 62
     7
100
AcDbLine
 10
12.60161499403533
 20
7.050000312435712
 30
0.0
 11
11.90161478616414
 21
7.050000312435712
 31
0.0
  0
LINE
  5
C4F
330
BBA
100
AcDbEntity
  8
0
  6
Continuous
 62
     7
100
AcDbLine
 10
12.01083238147315
 20
7.050000312435712
 30
0.0
 11
12.01083238147315
 21
7.550000394392098
 31
0.0
  0
LINE
  5
C50
330
BBA
100
AcDbEntity
  8
0
  6
Continuous
 62
     7
100
AcDbLine
 10
11.90140523858485
 20
7.050000312435712
 30
0.0
 11
11.90161478616414
 21
7.050000312435712
 31
0.0
  0
LINE
  5
C51
330
BBA
100
AcDbEntity
  8
0
  6
Continuous
 62
     7
100
AcDbLine
 10
11.90161478616414
 20
7.050000312435712
 30
0.0
 11
11.90161478616414
 21
6.56851888138362
 31
0.0
  0
LINE
  5
C52
330
BBA
100
AcDbEntity
  8
0
  6
Continuous
 62
     7
100
AcDbLine
 10
11.90140523858485
 20
6.56851888138362
 30
0.0
 11
11.90140523858485
 21
7.050000312435712
 31
0.0
  0
LINE
  5
C53
330
BBA
100
AcDbEntity
  8
0
  6
Continuous
 62
     7
100
AcDbLine
 10
10.10153029956039
 20
5.28000033895978
 30
0.0
 11
9.84153018243728
 21
5.28000033895978
 31
0.0
  0
LINE
  5
C54
330
BBA
100
AcDbEntity
  8
0
  6
Continuous
 62
     7
100
AcDbLine
 10
9.84153018243728
 20
5.28000033895978
 30
0.0
 11
9.84094903715072
 21
5.28000033895978
 31
0.0
  0
LINE
  5
C55
330
BBA
100
AcDbEntity
  8
0
  6
Continuous
 62
     7
100
AcDbLine
 10
9.84094903715072
 20
5.28000033895978
 30
0.0
 11
8.440949087069611
 21
5.28000033895978
 31
0.0
  0
LINE
  5
C56
330
BBA
100
AcDbEntity
  8
0
  6
Continuous
 62
     7
100
AcDbLine
 10
8.440949087069611
 20
5.28000033895978
 30
0.0
 11
8.440760959909539
 21
5.28000033895978
 31
0.0
  0
LINE
  5
C57
330
BBA
100
AcDbEntity
  8
0
  6
Continuous
 62
     7
100
AcDbLine
 10
11.76076109431801
 20
7.550000394392098
 30
0.0
 11
11.76083234049497
 21
7.550000394392098
 31
0.0
  0
LINE
  5
C58
330
BBA
100
AcDbEntity
  8
0
  6
Continuous
 62
     7
100
AcDbLine
 10
7.501344260798077
 20
3.702123597893205
 30
0.0
 11
7.501602237151246
 21
3.032342944923128
 31
0.0
  0
LINE
  5
C59
330
BBA
100
AcDbEntity
  8
0
  6
Continuous
 62
     7
100
AcDbLine
 10
7.841530320273022
 20
3.080000583711353
 30
0.0
 11
7.841530320273022
 21
3.000000440213169
 31
0.0
  0
LINE
  5
C5A
330
BBA
100
AcDbEntity
  8
0
  6
Continuous
 62
     7
100
AcDbLine
 10
7.841530320273022
 20
3.080000583711353
 30
0.0
 11
7.840761047826387
 21
3.080000583711353
 31
0.0
  0
LINE
  5
C5B
330
BBA
100
AcDbEntity
  8
0
  6
Continuous
 62
     7
100
AcDbLine
 10
7.753813703582864
 20
3.000000440213169
 30
0.0
 11
7.75377458803473
 21
3.000000440213169
 31
0.0
  0
LINE
  5
C5C
330
BBA
100
AcDbEntity
  8
0
  6
Continuous
 62
     7
100
AcDbLine
 10
7.75377458803473
 20
3.000000440213169
 30
0.0
 11
7.501608756409266
 21
3.000000440213169
 31
0.0
  0
LINE
  5
C5D
330
BBA
100
AcDbEntity
  8
0
  6
Continuous
 62
     7
100
AcDbLine
 10
7.753813703582864
 20
3.000000440213169
 30
0.0
 11
10.10161504991468
 21
3.000000440213169
 31
0.0
  0
LINE
  5
C5E
330
BBA
100
AcDbEntity
  8
0
  6
Continuous
 62
     7
100
AcDbLine
 10
9.84153018243728
 20
3.080000583711353
 30
0.0
 11
7.841530320273022
 21
3.080000583711353
 31
0.0
  0
LINE
  5
C5F
330
BBA
100
AcDbEntity
  8
0
  6
Continuous
 62
     7
100
AcDbLine
 10
5.351344187782386
 20
14.397877216968
 30
0.0
 11
7.501344260798077
 21
14.397877216968
 31
0.0
  0
LINE
  5
C60
330
BBA
100
AcDbEntity
  8
0
  6
Continuous
 62
     7
100
AcDbLine
 10
5.271400389299968
 20
14.42000031906673
 30
0.0
 11
7.241400954352003
 21
14.42000031906673
 31
0.0
  0
LINE
  5
C61
330
BBA
100
AcDbEntity
  8
0
  6
Continuous
 62
     7
100
AcDbLine
 10
5.351353501008134
 20
14.42000031906673
 30
0.0
 11
5.351344187782386
 21
14.397877216968
 31
0.0
  0
LINE
  5
C62
330
BBA
100
AcDbEntity
  8
0
  6
Continuous
 62
     7
100
AcDbLine
 10
5.351257574782948
 20
14.397877216968
 30
0.0
 11
5.351344187782386
 21
14.397877216968
 31
0.0
  0
LINE
  5
C63
330
BBA
100
AcDbEntity
  8
0
  6
Continuous
 62
     7
100
AcDbLine
 10
5.351257574782948
 20
14.397877216968
 30
0.0
 11
5.351257574782948
 21
14.42000031906673
 31
0.0
  0
LINE
  5
C64
330
BBA
100
AcDbEntity
  8
0
  6
Continuous
 62
     7
100
AcDbLine
 10
3.00145900718985
 20
13.25000025767391
 30
0.0
 11
3.472384129689316
 21
13.25000025767391
 31
0.0
  0
LINE
  5
C65
330
BBA
100
AcDbEntity
  8
0
  6
Continuous
 62
     7
100
AcDbLine
 10
3.472384129689316
 20
12.55000051546403
 30
0.0
 11
3.00145900718985
 21
12.55000051546403
 31
0.0
  0
LINE
  5
C66
330
BBA
100
AcDbEntity
  8
0
  6
Continuous
 62
     7
100
AcDbLine
 10
3.00145900718985
 20
11.05000050242551
 30
0.0
 11
3.472384129689316
 21
11.05000050242551
 31
0.0
  0
LINE
  5
C67
330
BBA
100
AcDbEntity
  8
0
  6
Continuous
 62
     7
100
AcDbLine
 10
3.00145900718985
 20
12.15000049646505
 30
0.0
 11
3.472384129689316
 21
12.15000049646505
 31
0.0
  0
LINE
  5
C68
330
BBA
100
AcDbEntity
  8
0
  6
Continuous
 62
     7
100
AcDbLine
 10
3.472384129689316
 20
11.45000052142449
 30
0.0
 11
3.00145900718985
 21
11.45000052142449
 31
0.0
  0
LINE
  5
C69
330
BBA
100
AcDbEntity
  8
0
  6
Continuous
 62
     7
100
AcDbLine
 10
3.472384129689316
 20
12.55000051546403
 30
0.0
 11
3.472384129689316
 21
13.25000025767391
 31
0.0
  0
LINE
  5
C6A
330
BBA
100
AcDbEntity
  8
0
  6
Continuous
 62
     7
100
AcDbLine
 10
3.472384129689316
 20
11.45000052142449
 30
0.0
 11
3.472384129689316
 21
12.15000049646505
 31
0.0
  0
LINE
  5
C6B
330
BBA
100
AcDbEntity
  8
0
  6
Continuous
 62
     7
100
AcDbLine
 10
3.00145900718985
 20
8.850000412483041
 30
0.0
 11
3.472384129689316
 21
8.850000412483041
 31
0.0
  0
LINE
  5
C6C
330
BBA
100
AcDbEntity
  8
0
  6
Continuous
 62
     7
100
AcDbLine
 10
3.472384129689316
 20
9.250000402378192
 30
0.0
 11
3.00145900718985
 21
9.250000402378192
 31
0.0
  0
LINE
  5
C6D
330
BBA
100
AcDbEntity
  8
0
  6
Continuous
 62
     7
100
AcDbLine
 10
3.00145900718985
 20
9.950000391970661
 30
0.0
 11
3.472384129689316
 21
9.950000391970661
 31
0.0
  0
LINE
  5
C6E
330
BBA
100
AcDbEntity
  8
0
  6
Continuous
 62
     7
100
AcDbLine
 10
3.472384129689316
 20
10.35000041096964
 30
0.0
 11
3.00145900718985
 21
10.35000041096964
 31
0.0
  0
LINE
  5
C6F
330
BBA
100
AcDbEntity
  8
0
  6
Continuous
 62
     7
100
AcDbLine
 10
3.472384129689316
 20
9.250000402378192
 30
0.0
 11
3.472384129689316
 21
9.950000391970661
 31
0.0
  0
LINE
  5
C70
330
BBA
100
AcDbEntity
  8
0
  6
Continuous
 62
     7
100
AcDbLine
 10
3.472384129689316
 20
10.35000041096964
 30
0.0
 11
3.472384129689316
 21
11.05000050242551
 31
0.0
  0
LINE
  5
C71
330
BBA
100
AcDbEntity
  8
0
  6
Continuous
 62
     7
100
AcDbLine
 10
11.90161478616414
 20
11.05000050242551
 30
0.0
 11
12.60161499403533
 21
11.05000050242551
 31
0.0
  0
LINE
  5
C72
330
BBA
100
AcDbEntity
  8
0
  6
Continuous
 62
     7
100
AcDbLine
 10
12.01083238147315
 20
10.55000042046913
 30
0.0
 11
12.16082095079241
 21
10.55000042046913
 31
0.0
  0
LINE
  5
C73
330
BBA
100
AcDbEntity
  8
0
  6
Continuous
 62
     7
100
AcDbLine
 10
11.90161478616414
 20
11.5314819334776
 30
0.0
 11
11.90161478616414
 21
11.05000050242551
 31
0.0
  0
LINE
  5
C74
330
BBA
100
AcDbEntity
  8
0
  6
Continuous
 62
     7
100
AcDbLine
 10
11.90140523858485
 20
11.05000050242551
 30
0.0
 11
11.90140523858485
 21
11.5314819334776
 31
0.0
  0
LINE
  5
C75
330
BBA
100
AcDbEntity
  8
0
  6
Continuous
 62
     7
100
AcDbLine
 10
11.90161478616414
 20
11.05000050242551
 30
0.0
 11
11.90140523858485
 21
11.05000050242551
 31
0.0
  0
LINE
  5
C76
330
BBA
100
AcDbEntity
  8
0
  6
Continuous
 62
     7
100
AcDbLine
 10
9.84153018243728
 20
12.82000047590144
 30
0.0
 11
10.10153029956039
 21
12.82000047590144
 31
0.0
  0
LINE
  5
C77
330
BBA
100
AcDbEntity
  8
0
  6
Continuous
 62
     7
100
AcDbLine
 10
9.84094903715072
 20
12.82000047590144
 30
0.0
 11
9.84153018243728
 21
12.82000047590144
 31
0.0
  0
LINE
  5
C78
330
BBA
100
AcDbEntity
  8
0
  6
Continuous
 62
     7
100
AcDbLine
 10
8.440949087069611
 20
12.82000047590144
 30
0.0
 11
9.84094903715072
 21
12.82000047590144
 31
0.0
  0
LINE
  5
C79
330
BBA
100
AcDbEntity
  8
0
  6
Continuous
 62
     7
100
AcDbLine
 10
8.440760959909539
 20
12.82000047590144
 30
0.0
 11
8.440949087069611
 21
12.82000047590144
 31
0.0
  0
LINE
  5
C7A
330
BBA
100
AcDbEntity
  8
0
  6
Continuous
 62
     7
100
AcDbLine
 10
10.10076102711374
 20
11.5314819334776
 30
0.0
 11
10.10161504991468
 21
11.5314819334776
 31
0.0
  0
LINE
  5
C7B
330
BBA
100
AcDbEntity
  8
0
  6
Continuous
 62
     7
100
AcDbLine
 10
10.10076102711374
 20
11.5314819334776
 30
0.0
 11
10.10076102711374
 21
12.82000047590144
 31
0.0
  0
LINE
  5
C7C
330
BBA
100
AcDbEntity
  8
0
  6
Continuous
 62
     7
100
AcDbLine
 10
11.76075504072126
 20
10.70057968113133
 30
0.0
 11
11.0607613521081
 21
10.70057968113133
 31
0.0
  0
LINE
  5
C7D
330
BBA
100
AcDbEntity
  8
0
  6
Continuous
 62
     7
100
AcDbLine
 10
11.76075504072126
 20
10.70057968113133
 30
0.0
 11
11.76075504072126
 21
11.5314819334776
 31
0.0
  0
LINE
  5
C7E
330
BBA
100
AcDbEntity
  8
0
  6
Continuous
 62
     7
100
AcDbLine
 10
11.0607613521081
 20
10.70057968113133
 30
0.0
 11
11.0607613521081
 21
11.5314819334776
 31
0.0
  0
LINE
  5
C7F
330
BBA
100
AcDbEntity
  8
0
  6
Continuous
 62
     7
100
AcDbLine
 10
11.90161478616414
 20
11.5314819334776
 30
0.0
 11
10.10161504991468
 21
11.5314819334776
 31
0.0
  0
LINE
  5
C80
330
BBA
100
AcDbEntity
  8
0
  6
Continuous
 62
     7
100
AcDbLine
 10
11.76076109431801
 20
10.55000042046913
 30
0.0
 11
11.76083234049497
 21
10.55000042046913
 31
0.0
  0
LINE
  5
C81
330
BBA
100
AcDbEntity
  8
0
100
AcDbLine
 10
11.05892571531353
 20
9.050699830684152
 30
0.0
 11
11.55892571531353
 21
9.050699830684152
 31
0.0
  0
LINE
  5
C82
330
BBA
100
AcDbEntity
  8
0
  6
Continuous
 62
     7
100
AcDbLine
 10
11.76083234049497
 20
10.55000042046913
 30
0.0
 11
12.01083238147315
 21
10.55000042046913
 31
0.0
  0
LINE
  5
C83
330
BBA
100
AcDbEntity
  8
0
  6
Continuous
 62
     7
100
AcDbLine
 10
11.76083234049497
 20
10.55000042046913
 30
0.0
 11
11.76083234049497
 21
11.5314819334776
 31
0.0
  0
LINE
  5
C84
330
BBA
100
AcDbEntity
  8
0
  6
Continuous
 62
     7
100
AcDbLine
 10
12.01083238147315
 20
11.05000050242551
 30
0.0
 11
12.01083238147315
 21
10.55000042046913
 31
0.0
  0
LINE
  5
C85
330
BBA
100
AcDbEntity
  8
0
100
AcDbLine
 10
11.55892571531353
 20
9.050699830684152
 30
0.0
 11
11.05892571531353
 21
9.050699830684152
 31
0.0
  0
LINE
  5
C86
330
BBA
100
AcDbEntity
  8
0
  6
Continuous
 62
     7
100
AcDbLine
 10
12.80159928746638
 20
13.70000042456694
 30
0.0
 11
14.01098777450738
 21
13.70000042456694
 31
0.0
  0
LINE
  5
C87
330
BBA
100
AcDbEntity
  8
0
  6
Continuous
 62
     7
100
AcDbLine
 10
13.36083241649089
 20
11.55000035155126
 30
0.0
 11
12.80159928746638
 21
11.55000035155126
 31
0.0
  0
LINE
  5
C88
330
BBA
100
AcDbEntity
  8
0
  6
Continuous
 62
     7
100
AcDbLine
 10
12.60080800302444
 20
10.70057968113133
 30
0.0
 11
12.46080786831794
 21
10.70057968113133
 31
0.0
  0
LINE
  5
C89
330
BBA
100
AcDbEntity
  8
0
  6
Continuous
 62
     7
100
AcDbLine
 10
12.46080786831794
 20
10.70057968113133
 30
0.0
 11
12.46076130218921
 21
10.70057968113133
 31
0.0
  0
LINE
  5
C8A
330
BBA
100
AcDbEntity
  8
0
  6
Continuous
 62
     7
100
AcDbLine
 10
13.46080779940007
 20
10.70057968113133
 30
0.0
 11
13.36083241649089
 21
10.70057968113133
 31
0.0
  0
LINE
  5
C8B
330
BBA
100
AcDbEntity
  8
0
  6
Continuous
 62
     7
100
AcDbLine
 10
12.46076130218921
 20
10.70057968113133
 30
0.0
 11
12.16082095079241
 21
10.70057968113133
 31
0.0
  0
LINE
  5
C8C
330
BBA
100
AcDbEntity
  8
0
  6
Continuous
 62
     7
100
AcDbLine
 10
12.60078471996006
 20
10.70057968113133
 30
0.0
 11
12.60078471996006
 21
11.05000050242551
 31
0.0
  0
LINE
  5
C8D
330
BBA
100
AcDbEntity
  8
0
  6
Continuous
 62
     7
100
AcDbLine
 10
12.60081591926631
 20
10.55000042046913
 30
0.0
 11
12.52222579814611
 21
10.55000042046913
 31
0.0
  0
LINE
  5
C8E
330
BBA
100
AcDbEntity
  8
0
  6
Continuous
 62
     7
100
AcDbLine
 10
12.60080800302444
 20
10.55000042046913
 30
0.0
 11
12.60080800302444
 21
10.70057968113133
 31
0.0
  0
LINE
  5
C8F
330
BBA
100
AcDbEntity
  8
0
  6
Continuous
 62
     7
100
AcDbLine
 10
12.16082095079241
 20
11.05000050242551
 30
0.0
 11
12.16082095079241
 21
10.55000042046913
 31
0.0
  0
LINE
  5
C90
330
BBA
100
AcDbEntity
  8
0
  6
Continuous
 62
     7
100
AcDbLine
 10
14.26027628503857
 20
9.435000399523687
 30
0.0
 11
14.26027605220792
 21
7.395000378298846
 31
0.0
  0
LINE
  5
C91
330
BBA
100
AcDbEntity
  8
0
  6
Continuous
 62
     7
100
AcDbLine
 10
14.26027628503857
 20
8.165000420692649
 30
0.0
 11
14.30159928746638
 21
8.165000420692649
 31
0.0
  0
LINE
  5
C92
330
BBA
100
AcDbEntity
  8
0
  6
Continuous
 62
     7
100
AcDbLine
 10
14.26027628503857
 20
8.665000415337543
 30
0.0
 11
14.30159928746638
 21
8.665000415337543
 31
0.0
  0
LINE
  5
C93
330
BBA
100
AcDbEntity
  8
0
  6
Continuous
 62
     7
100
AcDbLine
 10
14.30159928746649
 20
4.355000280472721
 30
0.0
 11
14.0559876514983
 21
4.355000280472721
 31
0.0
  0
LINE
  5
C94
330
BBA
100
AcDbEntity
  8
0
  6
Continuous
 62
     7
100
AcDbLine
 10
14.30159928746649
 20
5.625000404822912
 30
0.0
 11
14.26027605220792
 21
5.625000404822912
 31
0.0
  0
LINE
  5
C95
330
BBA
100
AcDbEntity
  8
0
  6
Continuous
 62
     7
100
AcDbLine
 10
14.26027605220792
 20
6.125000486779297
 30
0.0
 11
14.30159928746638
 21
6.125000486779297
 31
0.0
  0
LINE
  5
C96
330
BBA
100
AcDbEntity
  8
0
  6
Continuous
 62
     7
100
AcDbLine
 10
14.26027605220792
 20
6.895000296342457
 30
0.0
 11
14.26027581937727
 21
4.855000362429108
 31
0.0
  0
LINE
  5
C97
330
BBA
100
AcDbEntity
  8
0
  6
Continuous
 62
     7
100
AcDbLine
 10
14.26027581937727
 20
3.574597132089817
 30
0.0
 11
14.26027581937727
 21
3.200000566127982
 31
0.0
  0
LINE
  5
C98
330
BBA
100
AcDbEntity
  8
0
  6
Continuous
 62
     7
100
AcDbLine
 10
14.26027581937727
 20
4.355000280472721
 30
0.0
 11
14.26027581937727
 21
4.150712345424381
 31
0.0
  0
LINE
  5
C99
330
BBA
100
AcDbEntity
  8
0
  6
Continuous
 62
     7
100
AcDbLine
 10
14.26027651786919
 20
10.70500043656238
 30
0.0
 11
14.30159928746616
 21
10.70500043656238
 31
0.0
  0
LINE
  5
C9A
330
BBA
100
AcDbEntity
  8
0
  6
Continuous
 62
     7
100
AcDbLine
 10
14.30159928746616
 20
11.20500051851877
 30
0.0
 11
14.26027651786919
 21
11.20500051851877
 31
0.0
  0
LINE
  5
C9B
330
BBA
100
AcDbEntity
  8
0
  6
Continuous
 62
     7
100
AcDbLine
 10
14.30159928746616
 20
13.24500045243212
 30
0.0
 11
14.26027675069986
 21
13.24500045243212
 31
0.0
  0
LINE
  5
C9C
330
BBA
100
AcDbEntity
  8
0
  6
Continuous
 62
     7
100
AcDbLine
 10
14.30159928746603
 20
13.7450005343885
 30
0.0
 11
14.26027675069986
 21
13.7450005343885
 31
0.0
  0
LINE
  5
C9D
330
BBA
100
AcDbEntity
  8
0
  6
Continuous
 62
     7
100
AcDbLine
 10
14.26027651786919
 20
11.97500032808193
 30
0.0
 11
14.26027628503857
 21
9.935000394168582
 31
0.0
  0
LINE
  5
C9E
330
BBA
100
AcDbEntity
  8
0
  6
Continuous
 62
     7
100
AcDbLine
 10
14.26027675069986
 20
13.94928940075942
 30
0.0
 11
14.26027651786919
 21
12.47500041003831
 31
0.0
  0
LINE
  5
C9F
330
BBA
100
AcDbEntity
  8
0
100
AcDbLine
 10
14.30159928746593
 20
18.10000062051721
 30
0.0
 11
0.000000310167934
 21
18.10000062051676
 31
0.0
  0
LINE
  5
CA0
330
BBA
100
AcDbEntity
  8
0
  6
Continuous
 62
     7
100
AcDbLine
 10
14.30159928746603
 20
14.52540368277141
 30
0.0
 11
14.01109627358732
 21
14.52540368277141
 31
0.0
  0
LINE
  5
CA1
330
BBA
100
AcDbEntity
  8
0
  6
Continuous
 62
     7
100
AcDbLine
 10
13.31109629854677
 20
14.90000024873324
 30
0.0
 11
14.30159928746603
 21
14.90000024873324
 31
0.0
  0
LINE
  5
CA2
330
BBA
100
AcDbEntity
  8
0
  6
Continuous
 62
     7
100
AcDbLine
 10
14.30159928746593
 20
15.90375578813018
 30
0.0
 11
13.31098779946683
 21
16.30000019881435
 31
0.0
  0
LINE
  5
CA3
330
BBA
100
AcDbEntity
  8
0
  6
Continuous
 62
     7
100
AcDbLine
 10
13.71073077343521
 20
16.34000050339408
 30
0.0
 11
14.30159928746593
 21
16.34000050339408
 31
0.0
  0
LINE
  5
CA4
330
BBA
100
AcDbEntity
  8
0
  6
Continuous
 62
     7
100
AcDbLine
 10
13.71073077343521
 20
16.58000046822735
 30
0.0
 11
14.30159928746593
 21
16.58000046822735
 31
0.0
  0
LINE
  5
CA5
330
BBA
100
AcDbEntity
  8
0
  6
Continuous
 62
     7
100
AcDbLine
 10
7.501615275667289
 20
15.26371663871714
 30
0.0
 11
5.351615202651601
 21
15.26371663871714
 31
0.0
  0
LINE
  5
CA6
330
BBA
100
AcDbEntity
  8
0
  6
Continuous
 62
     7
100
AcDbLine
 10
5.351602164135556
 20
15.0676578699381
 30
0.0
 11
7.501602237151246
 21
15.0676578699381
 31
0.0
  0
LINE
  5
CA7
330
BBA
100
AcDbEntity
  8
0
  6
Continuous
 62
     7
100
AcDbLine
 10
1.701614883766751
 20
16.4000004946024
 30
0.0
 11
12.60161499403533
 21
16.4000004946024
 31
0.0
  0
LINE
  5
CA8
330
BBA
100
AcDbEntity
  8
0
  6
Continuous
 62
     7
100
AcDbLine
 10
12.80159928746638
 20
16.60000062051722
 30
0.0
 11
1.501599391029458
 21
16.60000062051722
 31
0.0
  0
LINE
  5
CA9
330
BBA
100
AcDbEntity
  8
0
  6
Continuous
 62
     7
100
AcDbLine
 10
3.536772978530506
 20
16.8700208372206
 30
0.0
 11
2.346888248847105
 21
16.78000059414215
 31
0.0
  0
LINE
  5
CAA
330
BBA
100
AcDbEntity
  8
0
  6
Continuous
 62
     7
100
AcDbLine
 10
3.536772978530506
 20
16.67002117696709
 30
0.0
 11
2.611246024296856
 21
16.60000062051722
 31
0.0
  0
LINE
  5
CAB
330
BBA
100
AcDbEntity
  8
0
  6
Continuous
 62
     7
100
AcDbLine
 10
1.919974637256244
 20
16.78000059414215
 30
0.0
 11
1.919974637256244
 21
16.60000062051722
 31
0.0
  0
LINE
  5
CAC
330
BBA
100
AcDbEntity
  8
0
  6
Continuous
 62
     7
100
AcDbLine
 10
1.919974637256244
 20
16.78000059414215
 30
0.0
 11
2.346888248847105
 21
16.78000059414215
 31
0.0
  0
LINE
  5
CAD
330
BBA
100
AcDbEntity
  8
0
  6
Continuous
 62
     7
100
AcDbLine
 10
3.536772978530506
 20
16.8700208372206
 30
0.0
 11
3.536772978530506
 21
16.67002117696709
 31
0.0
  0
LINE
  5
CAE
330
BBA
100
AcDbEntity
  8
0
  6
Continuous
 62
     7
100
AcDbLine
 10
4.060192097948172
 20
16.64626500073381
 30
0.0
 11
3.536772978530506
 21
16.67002117696709
 31
0.0
  0
LINE
  5
CAF
330
BBA
100
AcDbEntity
  8
0
  6
Continuous
 62
     7
100
AcDbLine
 10
4.060192097948172
 20
16.84626466098733
 30
0.0
 11
3.536772978530506
 21
16.8700208372206
 31
0.0
  0
LINE
  5
CB0
330
BBA
100
AcDbEntity
  8
0
  6
Continuous
 62
     7
100
AcDbLine
 10
5.351602164135556
 20
15.0676578699381
 30
0.0
 11
5.351555598006825
 21
14.94534448224612
 31
0.0
  0
LWPOLYLINE
  5
CB1
330
BBA
100
AcDbEntity
  8
0
  6
Continuous
 62
     7
100
AcDbPolyline
 90
        9
 70
   128
 43
0.0
 10
5.271336128042321
 20
14.75226268607682
 10
5.27136499904213
 20
14.68863798740811
 10
5.271393870041947
 20
14.66117700997298
 10
5.271422741041758
 20
14.67014285239883
 10
5.271450680718999
 20
14.71545029867002
 10
5.271479551718811
 20
14.79666442114421
 10
5.271506560073476
 20
14.91300663414904
 10
5.271532637105565
 20
15.0633612132401
 10
5.271538225041011
 20
15.10000037464806
  0
LINE
  5
CB2
330
BBA
100
AcDbEntity
  8
0
  6
Continuous
 62
     7
100
AcDbLine
 10
5.271336128042321
 20
14.50665755632826
 30
0.0
 11
5.271336128042321
 21
14.75226268607682
 31
0.0
  0
LINE
  5
CB3
330
BBA
100
AcDbEntity
  8
0
  6
Continuous
 62
     7
100
AcDbLine
 10
5.271336128042321
 20
14.75226268607682
 30
0.0
 11
5.271465581880191
 21
14.75226268607682
 31
0.0
  0
LWPOLYLINE
  5
CB4
330
BBA
100
AcDbEntity
  8
0
  6
Continuous
 62
     7
100
AcDbPolyline
 90
        5
 70
   128
 43
0.0
 10
5.271584791169741
 20
15.29496716770835
 10
5.271581997202018
 20
15.23924008447238
 10
5.271579203234296
 20
15.18188877466625
 10
5.271576409266572
 20
15.12958011094042
 10
5.271576409266572
 20
15.12848766956039
  0
LWPOLYLINE
  5
CB5
330
BBA
100
AcDbEntity
  8
0
  6
Continuous
 62
     7
100
AcDbPolyline
 90
        3
 70
   128
 43
0.0
 10
5.271573615298846
 20
15.10000037464806
 10
5.271572683976273
 20
15.08314343604752
 10
5.2715680273634
 20
15.04331449482151
  0
LINE
  5
CB6
330
BBA
100
AcDbEntity
  8
0
  6
Continuous
 62
     7
100
AcDbLine
 10
5.351615202651601
 20
15.26371663871714
 30
0.0
 11
5.351615202651601
 21
15.29496716770835
 31
0.0
  0
LINE
  5
CB7
330
BBA
100
AcDbEntity
  8
0
  6
Continuous
 62
     7
100
AcDbLine
 10
5.351576087103467
 20
15.12848766956039
 30
0.0
 11
5.351576087103467
 21
15.10000037464806
 31
0.0
  0
LWPOLYLINE
  5
CB8
330
BBA
100
AcDbEntity
  8
0
  6
Continuous
 62
     7
100
AcDbPolyline
 90
        9
 70
   128
 43
0.0
 10
5.351602164135556
 20
15.0676578699381
 10
5.35160495810328
 20
15.07727656948873
 10
5.351607752071004
 20
15.09236446085878
 10
5.351609614716153
 20
15.11247963148661
 10
5.351611477361299
 20
15.1370320885212
 10
5.35161334000645
 20
15.16530052262851
 10
5.351614271329026
 20
15.19645652237841
 10
5.351615202651601
 20
15.22958599466392
 10
5.351615202651601
 20
15.26371663871714
  0
LINE
  5
CB9
330
BBA
100
AcDbEntity
  8
0
  6
Continuous
 62
     7
100
AcDbLine
 10
5.2715680273634
 20
15.04331449482151
 30
0.0
 11
5.351567705200293
 21
15.04331449482151
 31
0.0
  0
LINE
  5
CBA
330
BBA
100
AcDbEntity
  8
0
  6
Continuous
 62
     7
100
AcDbLine
 10
3.001614538059806
 20
15.02000023114987
 30
0.0
 11
4.671529931054691
 21
15.02000023114987
 31
0.0
  0
LINE
  5
CBB
330
BBA
100
AcDbEntity
  8
0
  6
Continuous
 62
     7
100
AcDbLine
 10
5.099416774736027
 20
15.10000037464806
 30
0.0
 11
3.001614538059806
 21
15.10000037464806
 31
0.0
  0
LINE
  5
CBC
330
BBA
100
AcDbEntity
  8
0
  6
Continuous
 62
     7
100
AcDbLine
 10
4.671529931054691
 20
15.02000023114987
 30
0.0
 11
4.671529931054691
 21
15.10000037464806
 31
0.0
  0
LINE
  5
CBD
330
BBA
100
AcDbEntity
  8
0
  6
Continuous
 62
     7
100
AcDbLine
 10
5.099416774736027
 20
15.29496716770835
 30
0.0
 11
5.099416774736027
 21
15.10000037464806
 31
0.0
  0
LINE
  5
CBE
330
BBA
100
AcDbEntity
  8
0
  6
Continuous
 62
     7
100
AcDbLine
 10
5.351615202651601
 20
15.29496716770835
 30
0.0
 11
5.099416774736027
 21
15.29496716770835
 31
0.0
  0
LINE
  5
CBF
330
BBA
100
AcDbEntity
  8
0
  6
Continuous
 62
     7
100
AcDbLine
 10
5.099416774736027
 20
15.10000037464806
 30
0.0
 11
5.351576087103467
 21
15.10000037464806
 31
0.0
  0
LWPOLYLINE
  5
CC0
330
BBA
100
AcDbEntity
  8
0
  6
Continuous
 62
     7
100
AcDbPolyline
 90
       10
 70
   128
 43
0.0
 10
1.701614883766751
 20
16.4000004946024
 10
1.666884933636764
 20
16.4347299790711
 10
1.633210171983819
 20
16.46840427506274
 10
1.601613190994839
 20
16.50000032472917
 10
1.573054184244254
 20
16.52855793449589
 10
1.548400213049034
 20
16.55320911172339
 10
1.528401923404316
 20
16.57320553872295
 10
1.513666537628751
 20
16.58793906185334
 10
1.504640159235574
 20
16.59696218061753
 10
1.501599391029458
 20
16.60000062051722
  0
LINE
  5
CC1
330
BBA
100
AcDbEntity
  8
0
  6
Continuous
 62
     7
100
AcDbLine
 10
1.501599391029458
 20
16.60000062051722
 30
0.0
 11
1.500000310168843
 21
16.60000062051722
 31
0.0
  0
LINE
  5
CC2
330
BBA
100
AcDbEntity
  8
0
  6
Continuous
 62
     7
100
AcDbLine
 10
11.06131595470124
 20
18.10000062051721
 30
0.0
 11
11.06131595470124
 21
16.60000062051722
 31
0.0
  0
LINE
  5
CC3
330
BBA
100
AcDbEntity
  8
0
  6
Continuous
 62
     7
100
AcDbLine
 10
11.06071525164065
 20
16.78000059414215
 30
0.0
 11
9.120715380684712
 21
16.78000059414215
 31
0.0
  0
LINE
  5
CC4
330
BBA
100
AcDbEntity
  8
0
  6
Continuous
 62
     7
100
AcDbLine
 10
8.820692141578772
 20
16.78000059414215
 30
0.0
 11
8.820692141578772
 21
16.60000062051722
 31
0.0
  0
LINE
  5
CC5
330
BBA
100
AcDbEntity
  8
0
  6
Continuous
 62
     7
100
AcDbLine
 10
9.120715380684712
 20
16.78000059414215
 30
0.0
 11
8.820692141578772
 21
16.78000059414215
 31
0.0
  0
LINE
  5
CC6
330
BBA
100
AcDbEntity
  8
0
  6
Continuous
 62
     7
100
AcDbLine
 10
9.120715380684712
 20
16.60000062051722
 30
0.0
 11
9.120715380684712
 21
16.78000059414215
 31
0.0
  0
LINE
  5
CC7
330
BBA
100
AcDbEntity
  8
0
  6
Continuous
 62
     7
100
AcDbLine
 10
12.6613160306972
 20
16.60000062051722
 30
0.0
 11
12.6613160306972
 21
18.10000062051721
 31
0.0
  0
LWPOLYLINE
  5
CC8
330
BBA
100
AcDbEntity
  8
0
  6
Continuous
 62
     7
100
AcDbPolyline
 90
        9
 70
   128
 43
0.0
 10
12.80159928746638
 20
16.60000062051722
 10
12.79775944449125
 20
16.59615751791307
 10
12.78638147659717
 20
16.58477629038998
 10
12.76790217407165
 20
16.56629419389673
 10
12.74303167037783
 20
16.54142182755776
 10
12.71272643379983
 20
16.51111426267333
 10
12.67815061755594
 20
16.47653704944556
 10
12.64063275329886
 20
16.43901825386591
 10
12.60161499403533
 20
16.4000004946024
  0
LINE
  5
CC9
330
BBA
100
AcDbEntity
  8
0
  6
Continuous
 62
     7
100
AcDbLine
 10
13.61069206059096
 20
16.58000046822735
 30
0.0
 11
13.61069206059096
 21
16.78000059414215
 31
0.0
  0
LINE
  5
CCA
330
BBA
100
AcDbEntity
  8
0
  6
Continuous
 62
     7
100
AcDbLine
 10
12.80159928746638
 20
16.58000046822735
 30
0.0
 11
13.71073077343521
 21
16.58000046822735
 31
0.0
  0
LINE
  5
CCB
330
BBA
100
AcDbEntity
  8
0
  6
Continuous
 62
     7
100
AcDbLine
 10
13.31071538761374
 20
16.58000046822735
 30
0.0
 11
13.31071538761374
 21
16.78000059414215
 31
0.0
  0
LINE
  5
CCC
330
BBA
100
AcDbEntity
  8
0
  6
Continuous
 62
     7
100
AcDbLine
 10
13.31071538761374
 20
16.78000059414215
 30
0.0
 11
12.6613160306972
 21
16.78000059414215
 31
0.0
  0
LINE
  5
CCD
330
BBA
100
AcDbEntity
  8
0
  6
Continuous
 62
     7
100
AcDbLine
 10
13.61069206059096
 20
16.78000059414215
 30
0.0
 11
13.31071538761374
 21
16.78000059414215
 31
0.0
  0
LWPOLYLINE
  5
CCE
330
BBA
100
AcDbEntity
  8
0
  6
Continuous
 62
     7
100
AcDbPolyline
 90
        8
 70
   128
 43
0.0
 10
12.86109636448441
 20
14.90000024873324
 10
12.86109077654896
 20
15.20590339291401
 10
12.86108006633934
 20
15.48828645113417
 10
12.86106469951683
 20
15.73312463674255
 10
12.86104560740408
 20
15.92825720522114
 10
12.86102372132359
 20
16.06399281385846
 10
12.86099997259793
 20
16.13358868721434
 10
12.86098786540446
 20
16.14236966210909
  0
LWPOLYLINE
  5
CCF
330
BBA
100
AcDbEntity
  8
0
  6
Continuous
 62
     7
100
AcDbPolyline
 90
        8
 70
   128
 43
0.0
 10
13.31109629854677
 20
14.90000024873324
 10
13.31109373740969
 20
15.21152951258724
 10
13.31108558833715
 20
15.50743770289727
 10
13.31107254982112
 20
15.7728860570819
 10
13.31105555318413
 20
15.99456457856603
 10
13.31103483125684
 20
16.16135700109905
 10
13.3110117810231
 20
16.26489958229965
 10
13.31098779946683
 20
16.30000019881435
  0
LWPOLYLINE
  5
CD0
330
BBA
100
AcDbEntity
  8
0
  6
Continuous
 62
     7
100
AcDbPolyline
 90
       11
 70
   128
 43
0.0
 10
12.86109636448441
 20
14.90000024873324
 10
12.86109357051667
 20
15.21152951258724
 10
12.8610856542748
 20
15.50743770289727
 10
12.86107261575875
 20
15.7728860570819
 10
12.86105538629112
 20
15.99456457856603
 10
12.86103489719448
 20
16.16135700109905
 10
12.8610120797914
 20
16.26489958229965
 10
12.86098786540446
 20
16.30000019881435
 10
12.86096365101752
 20
16.26489958229965
 10
12.86094036795316
 20
16.16135700109905
 10
12.86093757398544
 20
16.14236966210909
  0
LINE
  5
CD1
330
BBA
100
AcDbEntity
  8
0
  6
Continuous
 62
     7
100
AcDbLine
 10
14.01109627358732
 20
14.52540368277141
 30
0.0
 11
12.80159928746638
 21
14.52540368277141
 31
0.0
  0
LINE
  5
CD2
330
BBA
100
AcDbEntity
  8
0
  6
Continuous
 62
     7
100
AcDbLine
 10
12.80159928746638
 20
14.90000024873324
 30
0.0
 11
12.86109636448441
 21
14.90000024873324
 31
0.0
  0
LINE
  5
CD3
330
BBA
100
AcDbEntity
  8
0
  6
Continuous
 62
     7
100
AcDbLine
 10
12.86109636448441
 20
14.90000024873324
 30
0.0
 11
13.31109629854677
 21
14.90000024873324
 31
0.0
  0
LINE
  5
CD4
330
BBA
100
AcDbEntity
  8
0
  6
Continuous
 62
     7
100
AcDbLine
 10
12.86098786540446
 20
16.14236966210909
 30
0.0
 11
12.80159928746638
 21
16.14236966210909
 31
0.0
  0
LINE
  5
CD5
330
BBA
100
AcDbEntity
  8
0
  6
Continuous
 62
     7
100
AcDbLine
 10
13.31098779946683
 20
16.30000019881435
 30
0.0
 11
12.86098786540446
 21
16.30000019881435
 31
0.0
  0
LINE
  5
CD6
330
BBA
100
AcDbEntity
  8
0
  6
Continuous
 62
     7
100
AcDbLine
 10
12.80159928746638
 20
16.34000050339408
 30
0.0
 11
13.71073077343521
 21
16.34000050339408
 31
0.0
  0
LINE
  5
CD7
330
BBA
100
AcDbEntity
  8
0
  6
Continuous
 62
     7
100
AcDbLine
 10
13.71073077343521
 20
16.58000046822735
 30
0.0
 11
13.71073077343521
 21
16.34000050339408
 31
0.0
  0
LINE
  5
CD8
330
BBA
100
AcDbEntity
  8
0
  6
Continuous
 62
     7
100
AcDbLine
 10
7.841530320273022
 20
15.10000037464806
 30
0.0
 11
7.841530320273022
 21
15.02000023114987
 31
0.0
  0
LINE
  5
CD9
330
BBA
100
AcDbEntity
  8
0
  6
Continuous
 62
     7
100
AcDbLine
 10
7.840761047826387
 20
15.02000023114987
 30
0.0
 11
7.841530320273022
 21
15.02000023114987
 31
0.0
  0
LINE
  5
CDA
330
BBA
100
AcDbEntity
  8
0
  6
Continuous
 62
     7
100
AcDbLine
 10
7.753813703582864
 20
15.10000037464806
 30
0.0
 11
7.753813703582864
 21
15.29496716770835
 31
0.0
  0
LINE
  5
CDB
330
BBA
100
AcDbEntity
  8
0
  6
Continuous
 62
     7
100
AcDbLine
 10
7.753813703582864
 20
15.29496716770835
 30
0.0
 11
7.501615275667289
 21
15.29496716770835
 31
0.0
  0
LINE
  5
CDC
330
BBA
100
AcDbEntity
  8
0
  6
Continuous
 62
     7
100
AcDbLine
 10
7.501615275667289
 20
15.26371663871714
 30
0.0
 11
7.501615275667289
 21
15.29496716770835
 31
0.0
  0
LWPOLYLINE
  5
CDD
330
BBA
100
AcDbEntity
  8
0
  6
Continuous
 62
     7
100
AcDbPolyline
 90
        9
 70
   128
 43
0.0
 10
7.501602237151246
 20
15.0676578699381
 10
7.50160503111897
 20
15.07727656948873
 10
7.501607825086692
 20
15.09236446085878
 10
7.501609687731843
 20
15.11247963148661
 10
7.501611550376992
 20
15.1370320885212
 10
7.501613413022141
 20
15.16530052262851
 10
7.501614344344716
 20
15.19645652237841
 10
7.501614344344716
 20
15.22958599466392
 10
7.501615275667289
 20
15.26371663871714
  0
LINE
  5
CDE
330
BBA
100
AcDbEntity
  8
0
  6
Continuous
 62
     7
100
AcDbLine
 10
7.75377458803473
 20
15.10000037464806
 30
0.0
 11
7.75377458803473
 21
15.29496716770835
 31
0.0
  0
LINE
  5
CDF
330
BBA
100
AcDbEntity
  8
0
  6
Continuous
 62
     7
100
AcDbLine
 10
7.75377458803473
 20
15.10000037464806
 30
0.0
 11
7.753813703582864
 21
15.10000037464806
 31
0.0
  0
LINE
  5
CE0
330
BBA
100
AcDbEntity
  8
0
  6
Continuous
 62
     7
100
AcDbLine
 10
7.501608756409266
 20
15.10000037464806
 30
0.0
 11
7.75377458803473
 21
15.10000037464806
 31
0.0
  0
LINE
  5
CE1
330
BBA
100
AcDbEntity
  8
0
  6
Continuous
 62
     7
100
AcDbLine
 10
10.10161504991468
 20
15.10000037464806
 30
0.0
 11
7.753813703582864
 21
15.10000037464806
 31
0.0
  0
LINE
  5
CE2
330
BBA
100
AcDbEntity
  8
0
  6
Continuous
 62
     7
100
AcDbLine
 10
7.841530320273022
 20
15.02000023114987
 30
0.0
 11
9.84153018243728
 21
15.02000023114987
 31
0.0
  0
LINE
  5
CE3
330
BBA
100
AcDbEntity
  8
0
  6
Continuous
 62
     7
100
AcDbLine
 10
14.26027712916535
 20
18.10000062025346
 30
0.0
 11
14.2602769835305
 21
16.58000046822735
 31
0.0
  0
LINE
  5
CE4
330
BBA
100
AcDbEntity
  8
0
  6
Continuous
 62
     7
100
AcDbLine
 10
14.2602769835305
 20
16.34000050339408
 30
0.0
 11
14.2602769835305
 21
15.92028461832114
 31
0.0
  0
LINE
  5
CE5
330
BBA
100
AcDbEntity
  8
0
  6
Continuous
 62
     7
100
AcDbLine
 10
14.26027675069986
 20
14.90000024873324
 30
0.0
 11
14.26027675069986
 21
14.52540368277141
 31
0.0
  0
ENDBLK
  5
CE7
330
BBA
100
AcDbEntity
  8
0
100
AcDbBlockEnd
  0
ENDSEC
  0
SECTION
  2
ENTITIES
  0
TEXT
  5
AE7
330
1F
100
AcDbEntity
  8
0
100
AcDbText
 10
-3.36081764916107
 20
389.9564286977794
 30
0.0
 40
10.0
  1
SCON-CA-12A~200A-EP/PRT-*-1/2
100
AcDbText
  0
ARC
  5
11BF
330
1F
100
AcDbEntity
  8
0
100
AcDbCircle
 10
28.99999973862657
 20
175.9738137530359
 30
0.0
 40
5.5
100
AcDbArc
 50
114.6199773286485
 51
180.0
  0
LINE
  5
11C0
330
1F
100
AcDbEntity
  8
0
100
AcDbLine
 10
51.49999973862566
 20
180.9738137530358
 30
0.0
 11
51.49999973862566
 21
173.9738137530359
 31
0.0
  0
LINE
  5
11C1
330
1F
100
AcDbEntity
  8
0
100
AcDbLine
 10
53.49999973862566
 20
164.4738137530358
 30
0.0
 11
53.49999973862566
 21
180.9738137530358
 31
0.0
  0
LINE
  5
11C2
330
1F
100
AcDbEntity
  8
0
100
AcDbLine
 10
34.49999973862566
 20
164.4738137530358
 30
0.0
 11
34.49999973862566
 21
180.9738137530358
 31
0.0
  0
LINE
  5
11C3
330
1F
100
AcDbEntity
  8
0
100
AcDbLine
 10
36.49999973862565
 20
180.9738137530358
 30
0.0
 11
36.49999973862565
 21
173.9738137530359
 31
0.0
  0
ARC
  5
11C4
330
1F
100
AcDbEntity
  8
0
100
AcDbCircle
 10
28.99999973862657
 20
175.9738137530359
 30
0.0
 40
2.1
100
AcDbArc
 50
0.0
 51
180.0
  0
ARC
  5
11C5
330
1F
100
AcDbEntity
  8
0
100
AcDbCircle
 10
28.99999973862657
 20
175.9738137530359
 30
0.0
 40
5.5
100
AcDbArc
 50
0.0
 51
65.38002267135138
  0
LINE
  5
11C6
330
1F
100
AcDbEntity
  8
0
100
AcDbLine
 10
57.99999973862656
 20
363.9738137530358
 30
0.0
 11
57.99999973862656
 21
171.9738137530359
 31
0.0
  0
LINE
  5
11C7
330
1F
100
AcDbEntity
  8
0
100
AcDbLine
 10
-0.0000002613732022
 20
363.8949131958377
 30
0.0
 11
-0.0000002613732022
 21
172.0527143102336
 31
0.0
  0
INSERT
  5
11C8
330
1F
100
AcDbEntity
  8
0
100
AcDbBlockReference
  2
A$C40301A48
 10
157.9999997386263
 20
354.973813753036
 30
0.0
  0
LINE
  5
11C9
330
1F
100
AcDbEntity
  8
1
100
AcDbLine
 10
28.9999997386268
 20
168.4738137530358
 30
0.0
 11
28.9999997386268
 21
183.473813753036
 31
0.0
  0
INSERT
  5
11CA
330
1F
100
AcDbEntity
  8
0
100
AcDbBlockReference
  2
A$C35844AFD
 10
0.0000012373562868
 20
-0.0000012014095319
 30
0.0
  0
LINE
  5
11CB
330
1F
100
AcDbEntity
  8
0
100
AcDbLine
 10
3.999999738626796
 20
170.973813753036
 30
0.0
 11
26.89999973862666
 21
170.973813753036
 31
0.0
  0
LINE
  5
11CC
330
1F
100
AcDbEntity
  8
1
100
AcDbLine
 10
21.49999973862673
 20
175.9738137530359
 30
0.0
 11
36.4999997386268
 21
175.9738137530359
 31
0.0
  0
LINE
  5
11CD
330
1F
100
AcDbEntity
  8
0
100
AcDbLine
 10
0.9738227903186498
 20
171.0530569852585
 30
0.0
 11
3.999999738626796
 21
170.973813753036
 31
0.0
  0
ARC
  5
11CE
330
1F
100
AcDbEntity
  8
0
100
AcDbCircle
 10
0.9999997386267407
 20
172.0527143102336
 30
0.0
 40
1.0
100
AcDbArc
 50
180.0
 51
268.4999999999971
  0
LINE
  5
11CF
330
1F
100
AcDbEntity
  8
0
100
AcDbLine
 10
53.49999973862566
 20
170.973813753036
 30
0.0
 11
56.99999973862656
 21
170.973813753036
 31
0.0
  0
ARC
  5
11D0
330
1F
100
AcDbEntity
  8
0
100
AcDbCircle
 10
43.99999973862565
 20
173.9738137530359
 30
0.0
 40
9.5
100
AcDbArc
 50
186.0423284190447
 51
353.9576715809289
  0
ARC
  5
11D1
330
1F
100
AcDbEntity
  8
0
100
AcDbCircle
 10
43.99999973862565
 20
173.9738137530359
 30
0.0
 40
7.5
100
AcDbArc
 50
180.0
 51
0.0
  0
LINE
  5
11D2
330
1F
100
AcDbEntity
  8
0
100
AcDbLine
 10
53.49999973862566
 20
164.4738137530358
 30
0.0
 11
34.49999973862566
 21
164.4738137530358
 31
0.0
  0
LINE
  5
11D3
330
1F
100
AcDbEntity
  8
0
100
AcDbLine
 10
23.49999973862657
 20
175.9738137530359
 30
0.0
 11
23.49999973862657
 21
170.973813753036
 31
0.0
  0
LINE
  5
11D4
330
1F
100
AcDbEntity
  8
0
100
AcDbLine
 10
26.89999973862666
 20
175.9738137530359
 30
0.0
 11
26.89999973862666
 21
170.973813753036
 31
0.0
  0
LINE
  5
11D5
330
1F
100
AcDbEntity
  8
0
100
AcDbLine
 10
36.56696536496667
 20
172.9738137530359
 30
0.0
 11
34.55277792478057
 21
172.9738137530359
 31
0.0
  0
LINE
  5
11D6
330
1F
100
AcDbEntity
  8
0
100
AcDbLine
 10
34.49999973862657
 20
175.9738137530359
 30
0.0
 11
34.49999973862657
 21
170.973813753036
 31
0.0
  0
LINE
  5
11D7
330
1F
100
AcDbEntity
  8
0
100
AcDbLine
 10
31.0999997386267
 20
175.9738137530359
 30
0.0
 11
31.0999997386267
 21
170.973813753036
 31
0.0
  0
LINE
  5
11D8
330
1F
100
AcDbEntity
  8
0
100
AcDbLine
 10
31.0999997386267
 20
170.973813753036
 30
0.0
 11
34.49999973862566
 21
170.973813753036
 31
0.0
  0
LINE
  5
11D9
330
1F
100
AcDbEntity
  8
0
100
AcDbLine
 10
53.44722155247166
 20
172.9738137530359
 30
0.0
 11
51.43303411228572
 21
172.9738137530359
 31
0.0
  0
ARC
  5
11DA
330
1F
100
AcDbEntity
  8
0
100
AcDbCircle
 10
56.99999973862656
 20
171.9738137530359
 30
0.0
 40
1.0
100
AcDbArc
 50
270.0
 51
0.0
  0
LINE
  5
11DB
330
1F
100
AcDbEntity
  8
0
100
AcDbLine
 10
8.099999738625797
 20
352.7738137530356
 30
0.0
 11
8.099999738625797
 21
203.6659135413349
 31
0.0
  0
LINE
  5
11DC
330
1F
100
AcDbEntity
  8
0
100
AcDbLine
 10
55.69999973862571
 20
352.7738137530356
 30
0.0
 11
55.69999973862571
 21
183.1738137530358
 31
0.0
  0
LINE
  5
11DD
330
1F
100
AcDbEntity
  8
0
100
AcDbLine
 10
4.99999973862674
 20
201.6069941779499
 30
0.0
 11
4.99999973862674
 21
354.4738137530358
 31
0.0
  0
LINE
  5
11DE
330
1F
100
AcDbEntity
  8
0
100
AcDbLine
 10
57.99999973862656
 20
180.9738137530358
 30
0.0
 11
57.99999973862656
 21
354.973813753036
 31
0.0
  0
LINE
  5
11DF
330
1F
100
AcDbEntity
  8
0
100
AcDbLine
 10
7.99999973862674
 20
352.973813753036
 30
0.0
 11
7.99999973862566
 21
203.5595097705396
 31
0.0
  0
LINE
  5
11E0
330
1F
100
AcDbEntity
  8
0
100
AcDbLine
 10
55.99999973862656
 20
182.9738137530359
 30
0.0
 11
55.99999973862656
 21
352.973813753036
 31
0.0
  0
LINE
  5
11E1
330
1F
100
AcDbEntity
  8
0
100
AcDbLine
 10
5.999999738626798
 20
354.973813753036
 30
0.0
 11
5.99999973862566
 21
202.3555942130734
 31
0.0
  0
LINE
  5
11E2
330
1F
100
AcDbEntity
  8
0
100
AcDbLine
 10
4.99999973862674
 20
201.6069941779488
 30
0.0
 11
4.99999973862674
 21
354.9476278314671
 31
0.0
  0
LINE
  5
11E3
330
1F
100
AcDbEntity
  8
0
100
AcDbLine
 10
21.09999973862553
 20
265.473813753036
 30
0.0
 11
22.59999973862556
 21
265.473813753036
 31
0.0
  0
LINE
  5
11E4
330
1F
100
AcDbEntity
  8
0
100
AcDbLine
 10
21.09999973862553
 20
234.6138137530358
 30
0.0
 11
22.59999973862556
 21
234.6138137530358
 31
0.0
  0
LINE
  5
11E5
330
1F
100
AcDbEntity
  8
0
100
AcDbLine
 10
22.6999997386257
 20
226.6138137530357
 30
0.0
 11
14.09999973862579
 21
226.6138137530357
 31
0.0
  0
LINE
  5
11E6
330
1F
100
AcDbEntity
  8
0
100
AcDbLine
 10
14.09999973862579
 20
185.9738137530358
 30
0.0
 11
22.6999997386257
 21
185.9738137530358
 31
0.0
  0
LINE
  5
11E7
330
1F
100
AcDbEntity
  8
0
100
AcDbLine
 10
24.94499973862582
 20
301.1338137530358
 30
0.0
 11
15.59999973862578
 21
301.1338137530358
 31
0.0
  0
LINE
  5
11E8
330
1F
100
AcDbEntity
  8
0
100
AcDbLine
 10
15.59999973862578
 20
276.9738137530358
 30
0.0
 11
24.94499973862582
 21
276.9738137530358
 31
0.0
  0
LINE
  5
11E9
330
1F
100
AcDbEntity
  8
0
100
AcDbLine
 10
16.59999973862574
 20
277.973813753036
 30
0.0
 11
23.58499973862575
 21
277.973813753036
 31
0.0
  0
LINE
  5
11EA
330
1F
100
AcDbEntity
  8
0
100
AcDbLine
 10
16.59999973862574
 20
300.1338137530358
 30
0.0
 11
23.58499973862575
 21
300.1338137530358
 31
0.0
  0
LINE
  5
11EB
330
1F
100
AcDbEntity
  8
0
100
AcDbLine
 10
12.99999986054365
 20
302.1738135936918
 30
0.0
 11
25.39999986054351
 21
302.1738135936918
 31
0.0
  0
LINE
  5
11EC
330
1F
100
AcDbEntity
  8
0
100
AcDbLine
 10
12.99999986054365
 20
275.9738135936915
 30
0.0
 11
25.39999986054351
 21
275.9738135936915
 31
0.0
  0
LINE
  5
11ED
330
1F
100
AcDbEntity
  8
0
100
AcDbLine
 10
23.59999986054355
 20
185.1738135936918
 30
0.0
 11
12.99999986054365
 21
185.1738135936918
 31
0.0
  0
LINE
  5
11EE
330
1F
100
AcDbEntity
  8
0
100
AcDbLine
 10
12.99999986054365
 20
271.4738135936916
 30
0.0
 11
23.59999986054355
 21
271.4738135936916
 31
0.0
  0
LINE
  5
11EF
330
1F
100
AcDbEntity
  8
0
100
AcDbLine
 10
11.09999973862169
 20
183.1738137530358
 30
0.0
 11
55.69999973862571
 21
183.1738137530358
 31
0.0
  0
LINE
  5
11F0
330
1F
100
AcDbEntity
  8
0
100
AcDbLine
 10
55.99999973862656
 20
182.9738137530359
 30
0.0
 11
10.99999973862156
 21
182.9738137530359
 31
0.0
  0
LINE
  5
11F1
330
1F
100
AcDbEntity
  8
0
100
AcDbLine
 10
5.99999973862566
 20
180.9738137530358
 30
0.0
 11
57.99999973862656
 21
180.9738137530358
 31
0.0
  0
LINE
  5
11F2
330
1F
100
AcDbEntity
  8
0
100
AcDbLine
 10
21.09999973862553
 20
244.9238137530358
 30
0.0
 11
21.09999973862553
 21
239.9238137530358
 31
0.0
  0
ARC
  5
11F3
330
1F
100
AcDbEntity
  8
0
100
AcDbCircle
 10
18.09999973862557
 20
238.6138137530358
 30
0.0
 40
2.9
100
AcDbArc
 50
133.6028189727064
 51
226.3971810272928
  0
LINE
  5
11F4
330
1F
100
AcDbEntity
  8
0
100
AcDbLine
 10
14.09999973862579
 20
270.4738137530358
 30
0.0
 11
14.09999973862579
 21
229.6138137530358
 31
0.0
  0
LINE
  5
11F5
330
1F
100
AcDbEntity
  8
0
100
AcDbLine
 10
14.0999997386267
 20
185.1738135936918
 30
0.0
 11
14.0999997386267
 21
271.4738135936916
 31
0.0
  0
LINE
  5
11F6
330
1F
100
AcDbEntity
  8
0
100
AcDbLine
 10
12.99999986054365
 20
271.4738135936916
 30
0.0
 11
12.99999986054365
 21
185.1738135936918
 31
0.0
  0
LINE
  5
11F7
330
1F
100
AcDbEntity
  8
0
100
AcDbLine
 10
14.09999973862579
 20
226.6138137530357
 30
0.0
 11
14.09999973862579
 21
185.9738137530358
 31
0.0
  0
CIRCLE
  5
11F8
330
1F
100
AcDbEntity
  8
0
100
AcDbCircle
 10
18.09999973862557
 20
208.8338137530358
 30
0.0
 40
2.0
  0
ARC
  5
11F9
330
1F
100
AcDbEntity
  8
0
100
AcDbCircle
 10
4.299999738626752
 20
197.9738137530359
 30
0.0
 40
3.699999999995998
100
AcDbArc
 50
0.0
 51
79.0945300032578
  0
ARC
  5
11FA
330
1F
100
AcDbEntity
  8
0
100
AcDbCircle
 10
4.299999738626752
 20
197.9738137530359
 30
0.0
 40
4.699999999995998
100
AcDbArc
 50
0.0
 51
68.79523363710446
  0
LINE
  5
11FB
330
1F
100
AcDbEntity
  8
0
100
AcDbLine
 10
3.999999738626796
 20
180.9738137530358
 30
0.0
 11
7.999999738621567
 21
181.0785574393128
 31
0.0
  0
ARC
  5
11FC
330
1F
100
AcDbEntity
  8
0
100
AcDbCircle
 10
4.299999738626752
 20
197.9738137530359
 30
0.0
 40
3.699999999995998
100
AcDbArc
 50
0.0
 51
79.0945300032578
  0
CIRCLE
  5
11FD
330
1F
100
AcDbEntity
  8
0
100
AcDbCircle
 10
3.999999738626796
 20
185.9738137530358
 30
0.0
 40
1.6
  0
CIRCLE
  5
11FE
330
1F
100
AcDbEntity
  8
0
100
AcDbCircle
 10
3.999999738626796
 20
185.9738137530358
 30
0.0
 40
2.0
  0
LINE
  5
11FF
330
1F
100
AcDbEntity
  8
0
100
AcDbLine
 10
0.4869112644727239
 20
181.0658072122858
 30
0.0
 11
3.999999738626796
 21
180.9738137530358
 31
0.0
  0
ARC
  5
1200
330
1F
100
AcDbEntity
  8
0
100
AcDbCircle
 10
0.4999997386267411
 20
181.5656358747738
 30
0.0
 40
0.5
100
AcDbArc
 50
180.0
 51
268.4999999999971
  0
LINE
  5
1201
330
1F
100
AcDbEntity
  8
0
100
AcDbLine
 10
5.999999738624012
 20
181.026185596175
 30
0.0
 11
5.99999973862566
 21
180.9738137530358
 31
0.0
  0
CIRCLE
  5
1202
330
1F
100
AcDbEntity
  8
0
100
AcDbCircle
 10
3.999999738626796
 20
195.973813753036
 30
0.0
 40
1.6
  0
CIRCLE
  5
1203
330
1F
100
AcDbEntity
  8
0
100
AcDbCircle
 10
3.999999738626796
 20
195.973813753036
 30
0.0
 40
2.0
  0
ARC
  5
1204
330
1F
100
AcDbEntity
  8
0
100
AcDbCircle
 10
1.949999738626615
 20
202.5238137530346
 30
0.0
 40
0.15
100
AcDbArc
 50
90.0
 51
270.0
  0
LINE
  5
1205
330
1F
100
AcDbEntity
  8
0
100
AcDbLine
 10
1.549999738626751
 20
203.0238137530357
 30
0.0
 11
3.449999738625591
 21
203.0238137530357
 31
0.0
  0
LINE
  5
1206
330
1F
100
AcDbEntity
  8
0
100
AcDbLine
 10
1.549999738626751
 20
203.3238137530358
 30
0.0
 11
3.449999738625591
 21
203.3238137530358
 31
0.0
  0
LINE
  5
1207
330
1F
100
AcDbEntity
  8
0
100
AcDbLine
 10
1.14999973862666
 20
203.9738137530358
 30
0.0
 11
2.349999738626705
 21
203.9738137530358
 31
0.0
  0
LINE
  5
1208
330
1F
100
AcDbEntity
  8
0
100
AcDbLine
 10
1.14999973862666
 20
203.6738137530357
 30
0.0
 11
3.849999738626701
 21
203.6738137530357
 31
0.0
  0
CIRCLE
  5
1209
330
1F
100
AcDbEntity
  8
0
100
AcDbCircle
 10
2.499999738626796
 20
203.9738137530358
 30
0.0
 40
1.85
  0
CIRCLE
  5
120A
330
1F
100
AcDbEntity
  8
0
100
AcDbCircle
 10
2.499999738626796
 20
203.9738137530358
 30
0.0
 40
2.149999999999999
  0
ARC
  5
120B
330
1F
100
AcDbEntity
  8
0
100
AcDbCircle
 10
1.549999738626751
 20
203.1738137530358
 30
0.0
 40
0.15
100
AcDbArc
 50
90.0
 51
270.0
  0
ARC
  5
120C
330
1F
100
AcDbEntity
  8
0
100
AcDbCircle
 10
1.14999973862666
 20
203.8238137530349
 30
0.0
 40
0.15
100
AcDbArc
 50
90.0
 51
270.0
  0
ARC
  5
120D
330
1F
100
AcDbEntity
  8
0
100
AcDbCircle
 10
3.449999738625591
 20
203.1738137530358
 30
0.0
 40
0.15
100
AcDbArc
 50
270.0
 51
90.0
  0
ARC
  5
120E
330
1F
100
AcDbEntity
  8
0
100
AcDbCircle
 10
3.049999738625615
 20
202.5238137530346
 30
0.0
 40
0.15
100
AcDbArc
 50
270.0
 51
90.0
  0
LINE
  5
120F
330
1F
100
AcDbEntity
  8
0
100
AcDbLine
 10
1.949999738626615
 20
202.373813753035
 30
0.0
 11
3.049999738625615
 21
202.373813753035
 31
0.0
  0
LINE
  5
1210
330
1F
100
AcDbEntity
  8
0
100
AcDbLine
 10
1.949999738626615
 20
202.6738137530358
 30
0.0
 11
3.049999738625615
 21
202.6738137530358
 31
0.0
  0
LINE
  5
1211
330
1F
100
AcDbEntity
  8
0
100
AcDbLine
 10
2.649999738625751
 20
203.9738137530358
 30
0.0
 11
3.849999738626701
 21
203.9738137530358
 31
0.0
  0
ARC
  5
1212
330
1F
100
AcDbEntity
  8
0
100
AcDbCircle
 10
3.849999738626701
 20
203.8238137530349
 30
0.0
 40
0.15
100
AcDbArc
 50
270.0
 51
90.0
  0
ARC
  5
1213
330
1F
100
AcDbEntity
  8
0
100
AcDbCircle
 10
2.499999738626796
 20
205.3238137530358
 30
0.0
 40
0.15
100
AcDbArc
 50
0.0
 51
180.0
  0
LINE
  5
1214
330
1F
100
AcDbEntity
  8
0
100
AcDbLine
 10
2.649999738625751
 20
203.9738137530358
 30
0.0
 11
2.649999738625751
 21
205.3238137530358
 31
0.0
  0
LINE
  5
1215
330
1F
100
AcDbEntity
  8
0
100
AcDbLine
 10
2.349999738626705
 20
203.9738137530358
 30
0.0
 11
2.349999738626705
 21
205.3238137530358
 31
0.0
  0
CIRCLE
  5
1216
330
1F
100
AcDbEntity
  8
0
100
AcDbCircle
 10
18.09999973862557
 20
193.5938137530358
 30
0.0
 40
2.0
  0
LINE
  5
1217
330
1F
100
AcDbEntity
  8
0
100
AcDbLine
 10
11.09999973862261
 20
197.9738137530359
 30
0.0
 11
11.09999973862169
 21
183.1738137530358
 31
0.0
  0
LINE
  5
1218
330
1F
100
AcDbEntity
  8
0
100
AcDbLine
 10
7.999999738622705
 20
197.9738137530359
 30
0.0
 11
7.999999738621567
 21
181.4738137530359
 31
0.0
  0
LINE
  5
1219
330
1F
100
AcDbEntity
  8
0
100
AcDbLine
 10
10.99999973862268
 20
197.9738137530359
 30
0.0
 11
10.99999973862156
 21
182.9738137530359
 31
0.0
  0
LINE
  5
121A
330
1F
100
AcDbEntity
  8
0
100
AcDbLine
 10
8.999999738622705
 20
197.9738137530359
 30
0.0
 11
8.999999738621568
 21
180.9738137530358
 31
0.0
  0
LINE
  5
121B
330
1F
100
AcDbEntity
  8
0
100
AcDbLine
 10
7.999999738622705
 20
197.9738137530359
 30
0.0
 11
7.999999738621567
 21
181.0785574393128
 31
0.0
  0
LINE
  5
121C
330
1F
100
AcDbEntity
  8
0
100
AcDbLine
 10
8.999999738621568
 20
181.4738137530359
 30
0.0
 11
7.999999738621567
 21
181.4738137530359
 31
0.0
  0
CIRCLE
  5
121D
330
1F
100
AcDbEntity
  8
0
100
AcDbCircle
 10
18.09999973862557
 20
188.8438137530358
 30
0.0
 40
1.5
  0
CIRCLE
  5
121E
330
1F
100
AcDbEntity
  8
0
100
AcDbCircle
 10
18.09999973862557
 20
188.8438137530358
 30
0.0
 40
1.0
  0
ARC
  5
121F
330
1F
100
AcDbEntity
  8
0
100
AcDbCircle
 10
4.199999738625705
 20
197.9738137530359
 30
0.0
 40
6.899999999996
100
AcDbArc
 50
0.0
 51
55.58261128956075
  0
ARC
  5
1220
330
1F
100
AcDbEntity
  8
0
100
AcDbCircle
 10
4.299999738626752
 20
197.9738137530359
 30
0.0
 40
6.699999999996
100
AcDbArc
 50
0.0
 51
56.47925960400248
  0
CIRCLE
  5
1221
330
1F
100
AcDbEntity
  8
0
100
AcDbCircle
 10
18.09999973862557
 20
198.6738137530348
 30
0.0
 40
2.0
  0
CIRCLE
  5
1222
330
1F
100
AcDbEntity
  8
0
100
AcDbCircle
 10
18.09999973862557
 20
198.6738137530348
 30
0.0
 40
2.0
  0
CIRCLE
  5
1223
330
1F
100
AcDbEntity
  8
0
100
AcDbCircle
 10
18.09999973862557
 20
203.7538137530356
 30
0.0
 40
2.0
  0
CIRCLE
  5
1224
330
1F
100
AcDbEntity
  8
0
100
AcDbCircle
 10
18.09999973862557
 20
203.7538137530356
 30
0.0
 40
2.0
  0
CIRCLE
  5
1225
330
1F
100
AcDbEntity
  8
0
100
AcDbCircle
 10
18.09999973862557
 20
223.7438137530368
 30
0.0
 40
1.5
  0
CIRCLE
  5
1226
330
1F
100
AcDbEntity
  8
0
100
AcDbCircle
 10
18.09999973862557
 20
213.9138137530359
 30
0.0
 40
2.0
  0
CIRCLE
  5
1227
330
1F
100
AcDbEntity
  8
0
100
AcDbCircle
 10
18.09999973862557
 20
213.9138137530359
 30
0.0
 40
2.0
  0
CIRCLE
  5
1228
330
1F
100
AcDbEntity
  8
0
100
AcDbCircle
 10
18.09999973862557
 20
223.7438137530368
 30
0.0
 40
1.0
  0
CIRCLE
  5
1229
330
1F
100
AcDbEntity
  8
0
100
AcDbCircle
 10
18.09999973862557
 20
218.9938137530368
 30
0.0
 40
2.0
  0
LINE
  5
122A
330
1F
100
AcDbEntity
  8
0
100
AcDbLine
 10
14.09999973862579
 20
229.6138137530358
 30
0.0
 11
21.09999973862553
 21
229.6138137530358
 31
0.0
  0
LINE
  5
122B
330
1F
100
AcDbEntity
  8
0
100
AcDbLine
 10
14.09999973862579
 20
229.6138137530358
 30
0.0
 11
21.09999973862553
 21
229.6138137530358
 31
0.0
  0
LINE
  5
122C
330
1F
100
AcDbEntity
  8
0
100
AcDbLine
 10
14.09999973862579
 20
234.853813753036
 30
0.0
 11
14.09999973862579
 21
229.6138137530358
 31
0.0
  0
LINE
  5
122D
330
1F
100
AcDbEntity
  8
0
100
AcDbLine
 10
21.09999973862553
 20
229.6138137530358
 30
0.0
 11
21.09999973862553
 21
234.853813753036
 31
0.0
  0
CIRCLE
  5
122E
330
1F
100
AcDbEntity
  8
0
100
AcDbCircle
 10
18.06361367822262
 20
232.5138137530359
 30
0.0
 40
0.9
  0
LINE
  5
122F
330
1F
100
AcDbEntity
  8
0
100
AcDbLine
 10
21.09999973862553
 20
229.6138137530358
 30
0.0
 11
21.09999973862553
 21
234.6138137530358
 31
0.0
  0
CIRCLE
  5
1230
330
1F
100
AcDbEntity
  8
0
100
AcDbCircle
 10
18.06361367822262
 20
232.5138137530359
 30
0.0
 40
2.0
  0
LINE
  5
1231
330
1F
100
AcDbEntity
  8
0
100
AcDbLine
 10
16.09999973862579
 20
235.6138137530355
 30
0.0
 11
21.09999973862553
 21
235.6138137530355
 31
0.0
  0
CIRCLE
  5
1232
330
1F
100
AcDbEntity
  8
0
100
AcDbCircle
 10
18.09999973862557
 20
238.6138137530358
 30
0.0
 40
1.5
  0
CIRCLE
  5
1233
330
1F
100
AcDbEntity
  8
0
100
AcDbCircle
 10
18.09999973862557
 20
238.6138137530358
 30
0.0
 40
0.75
  0
LINE
  5
1234
330
1F
100
AcDbEntity
  8
0
100
AcDbLine
 10
16.09999973862579
 20
236.5138137530359
 30
0.0
 11
16.09999973862579
 21
235.6138137530355
 31
0.0
  0
LINE
  5
1235
330
1F
100
AcDbEntity
  8
0
100
AcDbLine
 10
20.2999997386256
 20
239.9238137530358
 30
0.0
 11
21.09999973862553
 21
239.9238137530358
 31
0.0
  0
LINE
  5
1236
330
1F
100
AcDbEntity
  8
0
100
AcDbLine
 10
21.09999973862553
 20
237.3038137530358
 30
0.0
 11
21.09999973862553
 21
235.6138137530355
 31
0.0
  0
LINE
  5
1237
330
1F
100
AcDbEntity
  8
0
100
AcDbLine
 10
20.2999997386256
 20
237.3038137530358
 30
0.0
 11
21.09999973862553
 21
237.3038137530358
 31
0.0
  0
LINE
  5
1238
330
1F
100
AcDbEntity
  8
0
100
AcDbLine
 10
20.2999997386256
 20
239.9238137530358
 30
0.0
 11
20.2999997386256
 21
237.3038137530358
 31
0.0
  0
LINE
  5
1239
330
1F
100
AcDbEntity
  8
0
100
AcDbLine
 10
16.09999973862579
 20
259.373813753036
 30
0.0
 11
16.09999973862579
 21
255.9538137530358
 31
0.0
  0
LINE
  5
123A
330
1F
100
AcDbEntity
  8
0
100
AcDbLine
 10
21.09999973862553
 20
260.1638137530358
 30
0.0
 11
21.09999973862553
 21
255.163813753036
 31
0.0
  0
ARC
  5
123B
330
1F
100
AcDbEntity
  8
0
100
AcDbCircle
 10
18.09999973862557
 20
246.2338137530355
 30
0.0
 40
2.9
100
AcDbArc
 50
133.6028189727064
 51
226.3971810272928
  0
LINE
  5
123C
330
1F
100
AcDbEntity
  8
0
100
AcDbLine
 10
21.09999973862553
 20
252.5438137530361
 30
0.0
 11
21.09999973862553
 21
247.543813753036
 31
0.0
  0
CIRCLE
  5
123D
330
1F
100
AcDbEntity
  8
0
100
AcDbCircle
 10
18.09999973862557
 20
246.2338137530355
 30
0.0
 40
0.75
  0
CIRCLE
  5
123E
330
1F
100
AcDbEntity
  8
0
100
AcDbCircle
 10
18.09999973862557
 20
246.2338137530355
 30
0.0
 40
1.5
  0
LINE
  5
123F
330
1F
100
AcDbEntity
  8
0
100
AcDbLine
 10
16.09999973862579
 20
244.1338137530358
 30
0.0
 11
16.09999973862579
 21
240.7138137530357
 31
0.0
  0
LINE
  5
1240
330
1F
100
AcDbEntity
  8
0
100
AcDbLine
 10
20.2999997386256
 20
247.543813753036
 30
0.0
 11
20.2999997386256
 21
244.9238137530358
 31
0.0
  0
LINE
  5
1241
330
1F
100
AcDbEntity
  8
0
100
AcDbLine
 10
20.2999997386256
 20
247.543813753036
 30
0.0
 11
21.09999973862553
 21
247.543813753036
 31
0.0
  0
LINE
  5
1242
330
1F
100
AcDbEntity
  8
0
100
AcDbLine
 10
20.2999997386256
 20
244.9238137530358
 30
0.0
 11
21.09999973862553
 21
244.9238137530358
 31
0.0
  0
CIRCLE
  5
1243
330
1F
100
AcDbEntity
  8
0
100
AcDbCircle
 10
18.09999973862557
 20
253.8538137530359
 30
0.0
 40
1.5
  0
CIRCLE
  5
1244
330
1F
100
AcDbEntity
  8
0
100
AcDbCircle
 10
18.09999973862557
 20
253.8538137530359
 30
0.0
 40
0.75
  0
ARC
  5
1245
330
1F
100
AcDbEntity
  8
0
100
AcDbCircle
 10
18.09999973862557
 20
253.8538137530359
 30
0.0
 40
2.9
100
AcDbArc
 50
133.6028189727064
 51
226.3971810272928
  0
LINE
  5
1246
330
1F
100
AcDbEntity
  8
0
100
AcDbLine
 10
16.09999973862579
 20
251.7538137530348
 30
0.0
 11
16.09999973862579
 21
248.3338137530358
 31
0.0
  0
LINE
  5
1247
330
1F
100
AcDbEntity
  8
0
100
AcDbLine
 10
20.2999997386256
 20
255.163813753036
 30
0.0
 11
20.2999997386256
 21
252.5438137530361
 31
0.0
  0
LINE
  5
1248
330
1F
100
AcDbEntity
  8
0
100
AcDbLine
 10
20.2999997386256
 20
252.5438137530361
 30
0.0
 11
21.09999973862553
 21
252.5438137530361
 31
0.0
  0
LINE
  5
1249
330
1F
100
AcDbEntity
  8
0
100
AcDbLine
 10
20.2999997386256
 20
255.163813753036
 30
0.0
 11
21.09999973862553
 21
255.163813753036
 31
0.0
  0
LINE
  5
124A
330
1F
100
AcDbEntity
  8
0
100
AcDbLine
 10
14.09999973862579
 20
270.4738137530358
 30
0.0
 11
21.09999973862553
 21
270.4738137530358
 31
0.0
  0
LINE
  5
124B
330
1F
100
AcDbEntity
  8
0
100
AcDbLine
 10
14.09999973862579
 20
270.4738137530358
 30
0.0
 11
21.09999973862553
 21
270.4738137530358
 31
0.0
  0
LINE
  5
124C
330
1F
100
AcDbEntity
  8
0
100
AcDbLine
 10
14.09999973862579
 20
265.2338137530355
 30
0.0
 11
14.09999973862579
 21
270.4738137530358
 31
0.0
  0
LINE
  5
124D
330
1F
100
AcDbEntity
  8
0
100
AcDbLine
 10
21.09999973862553
 20
264.1138137530357
 30
0.0
 11
21.09999973862553
 21
262.7838137530358
 31
0.0
  0
LINE
  5
124E
330
1F
100
AcDbEntity
  8
0
100
AcDbLine
 10
16.09999973862579
 20
264.1138137530357
 30
0.0
 11
16.09999973862579
 21
263.5738137530359
 31
0.0
  0
CIRCLE
  5
124F
330
1F
100
AcDbEntity
  8
0
100
AcDbCircle
 10
18.09999973862557
 20
261.4738137530358
 30
0.0
 40
1.5
  0
CIRCLE
  5
1250
330
1F
100
AcDbEntity
  8
0
100
AcDbCircle
 10
18.09999973862557
 20
261.4738137530358
 30
0.0
 40
0.75
  0
ARC
  5
1251
330
1F
100
AcDbEntity
  8
0
100
AcDbCircle
 10
18.09999973862557
 20
261.4738137530358
 30
0.0
 40
2.9
100
AcDbArc
 50
133.6028189727064
 51
226.3971810272928
  0
LINE
  5
1252
330
1F
100
AcDbEntity
  8
0
100
AcDbLine
 10
20.2999997386256
 20
262.7838137530358
 30
0.0
 11
20.2999997386256
 21
260.1638137530358
 31
0.0
  0
LINE
  5
1253
330
1F
100
AcDbEntity
  8
0
100
AcDbLine
 10
20.2999997386256
 20
260.1638137530358
 30
0.0
 11
21.09999973862553
 21
260.1638137530358
 31
0.0
  0
LINE
  5
1254
330
1F
100
AcDbEntity
  8
0
100
AcDbLine
 10
20.2999997386256
 20
262.7838137530358
 30
0.0
 11
21.09999973862553
 21
262.7838137530358
 31
0.0
  0
CIRCLE
  5
1255
330
1F
100
AcDbEntity
  8
0
100
AcDbCircle
 10
18.09999973862557
 20
267.5738137530359
 30
0.0
 40
0.9
  0
LINE
  5
1256
330
1F
100
AcDbEntity
  8
0
100
AcDbLine
 10
21.09999973862553
 20
264.1138137530357
 30
0.0
 11
16.09999973862579
 21
264.1138137530357
 31
0.0
  0
CIRCLE
  5
1257
330
1F
100
AcDbEntity
  8
0
100
AcDbCircle
 10
18.09999973862557
 20
267.5738137530359
 30
0.0
 40
2.0
  0
LINE
  5
1258
330
1F
100
AcDbEntity
  8
0
100
AcDbLine
 10
21.09999973862553
 20
270.4738137530358
 30
0.0
 11
21.09999973862553
 21
265.2338137530355
 31
0.0
  0
LINE
  5
1259
330
1F
100
AcDbEntity
  8
0
100
AcDbLine
 10
21.09999973862553
 20
265.473813753036
 30
0.0
 11
21.09999973862553
 21
270.4738137530358
 31
0.0
  0
LINE
  5
125A
330
1F
100
AcDbEntity
  8
0
100
AcDbLine
 10
14.0999997386267
 20
275.9738135936915
 30
0.0
 11
14.0999997386267
 21
302.1738135936918
 31
0.0
  0
LINE
  5
125B
330
1F
100
AcDbEntity
  8
0
100
AcDbLine
 10
15.59999973862578
 20
301.1338137530358
 30
0.0
 11
15.59999973862578
 21
276.9738137530358
 31
0.0
  0
LINE
  5
125C
330
1F
100
AcDbEntity
  8
0
100
AcDbLine
 10
16.59999973862574
 20
301.1338137530358
 30
0.0
 11
16.59999973862574
 21
276.9738137530358
 31
0.0
  0
LINE
  5
125D
330
1F
100
AcDbEntity
  8
0
100
AcDbLine
 10
12.99999986054365
 20
302.1738135936918
 30
0.0
 11
12.99999986054365
 21
275.9738135936915
 31
0.0
  0
LINE
  5
125E
330
1F
100
AcDbEntity
  8
0
100
AcDbLine
 10
15.59999973862578
 20
284.4738137530358
 30
0.0
 11
14.0999997386267
 21
284.4738137530358
 31
0.0
  0
LINE
  5
125F
330
1F
100
AcDbEntity
  8
0
100
AcDbLine
 10
15.59999973862578
 20
279.973813753036
 30
0.0
 11
14.09999973862579
 21
279.973813753036
 31
0.0
  0
LINE
  5
1260
330
1F
100
AcDbEntity
  8
0
100
AcDbLine
 10
14.09999973862579
 20
276.9738137530358
 30
0.0
 11
15.59999973862578
 21
276.9738137530358
 31
0.0
  0
LINE
  5
1261
330
1F
100
AcDbEntity
  8
0
100
AcDbLine
 10
14.0999997386267
 20
283.4738137530358
 30
0.0
 11
15.59999973862578
 21
283.4738137530358
 31
0.0
  0
LINE
  5
1262
330
1F
100
AcDbEntity
  8
0
100
AcDbLine
 10
14.09999973862579
 20
279.973813753036
 30
0.0
 11
14.09999973862579
 21
276.9738137530358
 31
0.0
  0
LINE
  5
1263
330
1F
100
AcDbEntity
  8
0
100
AcDbLine
 10
15.59999973862578
 20
276.9738137530358
 30
0.0
 11
15.59999973862578
 21
279.973813753036
 31
0.0
  0
LINE
  5
1264
330
1F
100
AcDbEntity
  8
0
100
AcDbLine
 10
15.59999973862578
 20
276.9738137530358
 30
0.0
 11
15.59999973862578
 21
277.973813753036
 31
0.0
  0
LINE
  5
1265
330
1F
100
AcDbEntity
  8
0
100
AcDbLine
 10
15.59999973862578
 20
283.4738137530358
 30
0.0
 11
15.59999973862578
 21
284.4738137530358
 31
0.0
  0
LINE
  5
1266
330
1F
100
AcDbEntity
  8
0
100
AcDbLine
 10
19.59999973862553
 20
284.9738137530358
 30
0.0
 11
19.59999973862553
 21
282.9738137530359
 31
0.0
  0
LINE
  5
1267
330
1F
100
AcDbEntity
  8
0
100
AcDbLine
 10
20.59999973862557
 20
284.9738137530358
 30
0.0
 11
19.59999973862553
 21
284.9738137530358
 31
0.0
  0
LINE
  5
1268
330
1F
100
AcDbEntity
  8
0
100
AcDbLine
 10
20.59999973862557
 20
282.9738137530359
 30
0.0
 11
20.59999973862557
 21
284.9738137530358
 31
0.0
  0
LINE
  5
1269
330
1F
100
AcDbEntity
  8
0
100
AcDbLine
 10
19.59999973862553
 20
282.9738137530359
 30
0.0
 11
20.59999973862557
 21
282.9738137530359
 31
0.0
  0
LINE
  5
126A
330
1F
100
AcDbEntity
  8
0
100
AcDbLine
 10
15.59999973862578
 20
301.1338137530358
 30
0.0
 11
14.09999973862579
 21
301.1338137530358
 31
0.0
  0
LINE
  5
126B
330
1F
100
AcDbEntity
  8
0
100
AcDbLine
 10
15.59999973862578
 20
294.6338137530358
 30
0.0
 11
14.0999997386267
 21
294.6338137530358
 31
0.0
  0
LINE
  5
126C
330
1F
100
AcDbEntity
  8
0
100
AcDbLine
 10
15.59999973862578
 20
289.5538137530359
 30
0.0
 11
14.0999997386267
 21
289.5538137530359
 31
0.0
  0
LINE
  5
126D
330
1F
100
AcDbEntity
  8
0
100
AcDbLine
 10
14.09999973862579
 20
298.1338137530358
 30
0.0
 11
15.59999973862578
 21
298.1338137530358
 31
0.0
  0
LINE
  5
126E
330
1F
100
AcDbEntity
  8
0
100
AcDbLine
 10
14.0999997386267
 20
288.5538137530359
 30
0.0
 11
15.59999973862578
 21
288.5538137530359
 31
0.0
  0
LINE
  5
126F
330
1F
100
AcDbEntity
  8
0
100
AcDbLine
 10
14.0999997386267
 20
293.6338137530348
 30
0.0
 11
15.59999973862578
 21
293.6338137530348
 31
0.0
  0
LINE
  5
1270
330
1F
100
AcDbEntity
  8
0
100
AcDbLine
 10
14.09999973862579
 20
301.1338137530358
 30
0.0
 11
14.09999973862579
 21
298.1338137530358
 31
0.0
  0
LINE
  5
1271
330
1F
100
AcDbEntity
  8
0
100
AcDbLine
 10
19.59999973862553
 20
295.1338137530348
 30
0.0
 11
19.59999973862553
 21
293.1338137530358
 31
0.0
  0
LINE
  5
1272
330
1F
100
AcDbEntity
  8
0
100
AcDbLine
 10
20.59999973862557
 20
293.1338137530358
 30
0.0
 11
20.59999973862557
 21
295.1338137530348
 31
0.0
  0
LINE
  5
1273
330
1F
100
AcDbEntity
  8
0
100
AcDbLine
 10
15.59999973862578
 20
293.6338137530348
 30
0.0
 11
15.59999973862578
 21
294.6338137530358
 31
0.0
  0
LINE
  5
1274
330
1F
100
AcDbEntity
  8
0
100
AcDbLine
 10
15.59999973862578
 20
288.5538137530359
 30
0.0
 11
15.59999973862578
 21
289.5538137530359
 31
0.0
  0
LINE
  5
1275
330
1F
100
AcDbEntity
  8
0
100
AcDbLine
 10
19.59999973862553
 20
290.0538137530359
 30
0.0
 11
19.59999973862553
 21
288.0538137530359
 31
0.0
  0
LINE
  5
1276
330
1F
100
AcDbEntity
  8
0
100
AcDbLine
 10
20.59999973862557
 20
290.0538137530359
 30
0.0
 11
19.59999973862553
 21
290.0538137530359
 31
0.0
  0
LINE
  5
1277
330
1F
100
AcDbEntity
  8
0
100
AcDbLine
 10
20.59999973862557
 20
288.0538137530359
 30
0.0
 11
20.59999973862557
 21
290.0538137530359
 31
0.0
  0
LINE
  5
1278
330
1F
100
AcDbEntity
  8
0
100
AcDbLine
 10
19.59999973862553
 20
288.0538137530359
 30
0.0
 11
20.59999973862557
 21
288.0538137530359
 31
0.0
  0
LINE
  5
1279
330
1F
100
AcDbEntity
  8
0
100
AcDbLine
 10
19.59999973862553
 20
293.1338137530358
 30
0.0
 11
20.59999973862557
 21
293.1338137530358
 31
0.0
  0
LINE
  5
127A
330
1F
100
AcDbEntity
  8
0
100
AcDbLine
 10
15.59999973862578
 20
298.1338137530358
 30
0.0
 11
15.59999973862578
 21
301.1338137530358
 31
0.0
  0
LINE
  5
127B
330
1F
100
AcDbEntity
  8
0
100
AcDbLine
 10
15.59999973862578
 20
301.1338137530358
 30
0.0
 11
15.59999973862578
 21
300.1338137530358
 31
0.0
  0
LINE
  5
127C
330
1F
100
AcDbEntity
  8
0
100
AcDbLine
 10
15.59999973862578
 20
301.1338137530358
 30
0.0
 11
16.59999973862574
 21
301.1338137530358
 31
0.0
  0
LINE
  5
127D
330
1F
100
AcDbEntity
  8
0
100
AcDbLine
 10
20.59999973862557
 20
295.1338137530348
 30
0.0
 11
19.59999973862553
 21
295.1338137530348
 31
0.0
  0
LINE
  5
127E
330
1F
100
AcDbEntity
  8
0
100
AcDbLine
 10
49.09999973862642
 20
267.5738135936919
 30
0.0
 11
49.09999973862671
 21
232.6738135936918
 31
0.0
  0
LINE
  5
127F
330
1F
100
AcDbEntity
  8
0
100
AcDbLine
 10
49.09999973862557
 20
233.1738137530355
 30
0.0
 11
49.09999973862557
 21
241.5738137530357
 31
0.0
  0
LINE
  5
1280
330
1F
100
AcDbEntity
  8
0
100
AcDbLine
 10
41.84999973862557
 20
241.5738137530357
 30
0.0
 11
41.84999973862557
 21
233.1738137530355
 31
0.0
  0
LINE
  5
1281
330
1F
100
AcDbEntity
  8
0
100
AcDbLine
 10
22.59999973862556
 20
234.6138137530358
 30
0.0
 11
22.59999973862556
 21
265.1138137530358
 31
0.0
  0
LINE
  5
1282
330
1F
100
AcDbEntity
  8
0
100
AcDbLine
 10
49.99999986054457
 20
267.5738135936919
 30
0.0
 11
49.99999986054457
 21
232.6738135936918
 31
0.0
  0
LINE
  5
1283
330
1F
100
AcDbEntity
  8
0
100
AcDbLine
 10
25.1999998605437
 20
243.1738135936918
 30
0.0
 11
25.1999998605437
 21
239.5738135936919
 31
0.0
  0
LINE
  5
1284
330
1F
100
AcDbEntity
  8
0
100
AcDbLine
 10
38.59999986054356
 20
247.0738135936918
 30
0.0
 11
38.59999986054356
 21
232.6738135936918
 31
0.0
  0
LINE
  5
1285
330
1F
100
AcDbEntity
  8
0
100
AcDbLine
 10
49.09999973862671
 20
230.6738135936918
 30
0.0
 11
49.09999973862671
 21
185.1738135936918
 31
0.0
  0
LINE
  5
1286
330
1F
100
AcDbEntity
  8
0
100
AcDbLine
 10
48.79999973862673
 20
192.9738137530359
 30
0.0
 11
48.79999973862673
 21
230.1738137530358
 31
0.0
  0
LINE
  5
1287
330
1F
100
AcDbEntity
  8
0
100
AcDbLine
 10
39.69999973862661
 20
229.1738137530358
 30
0.0
 11
39.69999973862661
 21
193.9738137530359
 31
0.0
  0
LINE
  5
1288
330
1F
100
AcDbEntity
  8
0
100
AcDbLine
 10
45.89999973862665
 20
202.973813753036
 30
0.0
 11
45.89999973862665
 21
220.1738137530357
 31
0.0
  0
LINE
  5
1289
330
1F
100
AcDbEntity
  8
0
100
AcDbLine
 10
42.69999973862661
 20
220.1738137530357
 30
0.0
 11
42.69999973862661
 21
202.973813753036
 31
0.0
  0
LINE
  5
128A
330
1F
100
AcDbEntity
  8
0
100
AcDbLine
 10
41.14999973862665
 20
219.6738137530358
 30
0.0
 11
41.14999973862665
 21
203.4738137530359
 31
0.0
  0
LINE
  5
128B
330
1F
100
AcDbEntity
  8
0
100
AcDbLine
 10
47.44999973862661
 20
204.0900968956268
 30
0.0
 11
47.44999973862661
 21
219.0575306104446
 31
0.0
  0
LINE
  5
128C
330
1F
100
AcDbEntity
  8
0
100
AcDbLine
 10
22.6999997386257
 20
185.9738137530358
 30
0.0
 11
22.6999997386257
 21
226.6138137530357
 31
0.0
  0
LINE
  5
128D
330
1F
100
AcDbEntity
  8
0
100
AcDbLine
 10
38.59999986054356
 20
230.6738135936918
 30
0.0
 11
38.59999986054356
 21
185.1738135936918
 31
0.0
  0
LINE
  5
128E
330
1F
100
AcDbEntity
  8
0
100
AcDbLine
 10
49.99999986054457
 20
230.6738135936918
 30
0.0
 11
49.99999986054457
 21
185.1738135936918
 31
0.0
  0
LINE
  5
128F
330
1F
100
AcDbEntity
  8
0
100
AcDbLine
 10
23.59999986054355
 20
239.5738135936919
 30
0.0
 11
23.59999986054355
 21
185.1738135936918
 31
0.0
  0
LINE
  5
1290
330
1F
100
AcDbEntity
  8
0
100
AcDbLine
 10
49.99999986054457
 20
185.1738135936918
 30
0.0
 11
38.59999986054356
 21
185.1738135936918
 31
0.0
  0
LINE
  5
1291
330
1F
100
AcDbEntity
  8
0
100
AcDbLine
 10
39.99999973862657
 20
193.9738137530359
 30
0.0
 11
39.99999973862657
 21
193.4738137530358
 31
0.0
  0
LINE
  5
1292
330
1F
100
AcDbEntity
  8
0
100
AcDbLine
 10
49.09999973862671
 20
200.3738137530358
 30
0.0
 11
49.09999973862671
 21
193.2738137530357
 31
0.0
  0
LINE
  5
1293
330
1F
100
AcDbEntity
  8
0
100
AcDbLine
 10
42.59999973862557
 20
185.9738137530358
 30
0.0
 11
49.09999973862557
 21
185.9738137530358
 31
0.0
  0
LINE
  5
1294
330
1F
100
AcDbEntity
  8
0
100
AcDbLine
 10
49.09999973862557
 20
191.4738137530358
 30
0.0
 11
42.59999973862557
 21
191.4738137530358
 31
0.0
  0
LINE
  5
1295
330
1F
100
AcDbEntity
  8
0
100
AcDbLine
 10
40.49999973862656
 20
192.9738137530359
 30
0.0
 11
48.79999973862673
 21
192.9738137530359
 31
0.0
  0
LINE
  5
1296
330
1F
100
AcDbEntity
  8
0
100
AcDbLine
 10
42.59999973862557
 20
187.9738137530359
 30
0.0
 11
43.59999973862556
 21
187.9738137530359
 31
0.0
  0
LINE
  5
1297
330
1F
100
AcDbEntity
  8
0
100
AcDbLine
 10
43.59999973862556
 20
189.4738137530358
 30
0.0
 11
42.59999973862557
 21
189.4738137530358
 31
0.0
  0
LINE
  5
1298
330
1F
100
AcDbEntity
  8
0
100
AcDbLine
 10
42.59999973862557
 20
185.9738137530358
 30
0.0
 11
43.59999973862556
 21
185.9738137530358
 31
0.0
  0
LINE
  5
1299
330
1F
100
AcDbEntity
  8
0
100
AcDbLine
 10
42.59999973862557
 20
191.4738137530358
 30
0.0
 11
42.59999973862557
 21
185.9738137530358
 31
0.0
  0
LINE
  5
129A
330
1F
100
AcDbEntity
  8
0
100
AcDbLine
 10
42.59999973862557
 20
189.4738137530358
 30
0.0
 11
42.59999973862557
 21
187.9738137530359
 31
0.0
  0
ARC
  5
129B
330
1F
100
AcDbEntity
  8
0
100
AcDbCircle
 10
40.49999973862656
 20
193.4738137530358
 30
0.0
 40
0.5
100
AcDbArc
 50
180.0
 51
270.0
  0
LINE
  5
129C
330
1F
100
AcDbEntity
  8
0
100
AcDbLine
 10
43.59999973862556
 20
187.9738137530359
 30
0.0
 11
43.59999973862556
 21
189.4738137530358
 31
0.0
  0
LINE
  5
129D
330
1F
100
AcDbEntity
  8
0
100
AcDbLine
 10
43.59999973862556
 20
185.9738137530358
 30
0.0
 11
43.59999973862556
 21
191.4738137530358
 31
0.0
  0
CIRCLE
  5
129E
330
1F
100
AcDbEntity
  8
0
100
AcDbCircle
 10
45.66999973862571
 20
189.9738137530358
 30
0.0
 40
0.32
  0
CIRCLE
  5
129F
330
1F
100
AcDbEntity
  8
0
100
AcDbCircle
 10
45.66999973862571
 20
187.4738137530359
 30
0.0
 40
0.32
  0
LINE
  5
12A0
330
1F
100
AcDbEntity
  8
0
100
AcDbLine
 10
49.09999973862557
 20
185.9738137530358
 30
0.0
 11
49.09999973862557
 21
191.4738137530358
 31
0.0
  0
ARC
  5
12A1
330
1F
100
AcDbEntity
  8
0
100
AcDbCircle
 10
48.79999973862673
 20
193.2738137530357
 30
0.0
 40
0.3
100
AcDbArc
 50
270.0
 51
0.0
  0
LINE
  5
12A2
330
1F
100
AcDbEntity
  8
0
100
AcDbLine
 10
41.14999973862665
 20
197.9738137530359
 30
0.0
 11
47.44999973862661
 21
197.9738137530359
 31
0.0
  0
LINE
  5
12A3
330
1F
100
AcDbEntity
  8
0
100
AcDbLine
 10
41.14999973862665
 20
198.4738137530358
 30
0.0
 11
47.44999973862661
 21
198.4738137530358
 31
0.0
  0
LINE
  5
12A4
330
1F
100
AcDbEntity
  8
0
100
AcDbLine
 10
41.14999973862665
 20
200.3738137530358
 30
0.0
 11
47.44999973862661
 21
200.3738137530358
 31
0.0
  0
ARC
  5
12A5
330
1F
100
AcDbEntity
  8
0
100
AcDbCircle
 10
45.44999973862661
 20
204.0900968956268
 30
0.0
 40
2.0
100
AcDbArc
 50
284.9999999999943
 51
0.0
  0
LINE
  5
12A6
330
1F
100
AcDbEntity
  8
0
100
AcDbLine
 10
39.69999973862661
 20
193.9738137530359
 30
0.0
 11
48.79999973862673
 21
193.9738137530359
 31
0.0
  0
ARC
  5
12A7
330
1F
100
AcDbEntity
  8
0
100
AcDbCircle
 10
43.14999973862665
 20
203.4738137530359
 30
0.0
 40
2.0
100
AcDbArc
 50
180.0
 51
284.9999999999943
  0
CIRCLE
  5
12A8
330
1F
100
AcDbEntity
  8
0
100
AcDbCircle
 10
44.29999973862673
 20
195.9438137530348
 30
0.0
 40
1.399999999999999
  0
LINE
  5
12A9
330
1F
100
AcDbEntity
  8
0
100
AcDbLine
 10
41.14999973862665
 20
200.3738137530358
 30
0.0
 11
41.14999973862665
 21
197.9738137530359
 31
0.0
  0
LINE
  5
12AA
330
1F
100
AcDbEntity
  8
0
100
AcDbLine
 10
42.69999973862661
 20
202.973813753036
 30
0.0
 11
45.89999973862665
 21
202.973813753036
 31
0.0
  0
LINE
  5
12AB
330
1F
100
AcDbEntity
  8
0
100
AcDbLine
 10
43.66763782883174
 20
201.5419621004578
 30
0.0
 11
45.9676378288317
 21
202.1582452430485
 31
0.0
  0
LINE
  5
12AC
330
1F
100
AcDbEntity
  8
0
100
AcDbLine
 10
47.44999973862661
 20
197.9738137530359
 30
0.0
 11
47.44999973862661
 21
200.3738137530358
 31
0.0
  0
LINE
  5
12AD
330
1F
100
AcDbEntity
  8
0
100
AcDbLine
 10
48.79999973862673
 20
200.3738137530358
 30
0.0
 11
49.09999973862671
 21
200.3738137530358
 31
0.0
  0
LINE
  5
12AE
330
1F
100
AcDbEntity
  8
0
100
AcDbLine
 10
48.79999973862673
 20
203.9538137530369
 30
0.0
 11
49.09999973862671
 21
203.9538137530369
 31
0.0
  0
LINE
  5
12AF
330
1F
100
AcDbEntity
  8
0
100
AcDbLine
 10
48.79999973862673
 20
205.2238137530367
 30
0.0
 11
49.09999973862671
 21
205.2238137530367
 31
0.0
  0
LINE
  5
12B0
330
1F
100
AcDbEntity
  8
0
100
AcDbLine
 10
48.79999973862673
 20
206.4938137530368
 30
0.0
 11
49.09999973862671
 21
206.4938137530368
 31
0.0
  0
LINE
  5
12B1
330
1F
100
AcDbEntity
  8
0
100
AcDbLine
 10
48.79999973862673
 20
207.7638137530364
 30
0.0
 11
49.09999973862671
 21
207.7638137530364
 31
0.0
  0
LINE
  5
12B2
330
1F
100
AcDbEntity
  8
0
100
AcDbLine
 10
48.79999973862673
 20
207.7638137530364
 30
0.0
 11
49.09999973862671
 21
207.7638137530364
 31
0.0
  0
LINE
  5
12B3
330
1F
100
AcDbEntity
  8
0
100
AcDbLine
 10
48.79999973862673
 20
209.0338137530368
 30
0.0
 11
49.09999973862671
 21
209.0338137530368
 31
0.0
  0
LINE
  5
12B4
330
1F
100
AcDbEntity
  8
0
100
AcDbLine
 10
49.99999986054457
 20
232.6738135936918
 30
0.0
 11
38.59999986054356
 21
232.6738135936918
 31
0.0
  0
LINE
  5
12B5
330
1F
100
AcDbEntity
  8
0
100
AcDbLine
 10
49.99999986054457
 20
230.6738135936918
 30
0.0
 11
38.59999986054356
 21
230.6738135936918
 31
0.0
  0
LINE
  5
12B6
330
1F
100
AcDbEntity
  8
0
100
AcDbLine
 10
23.59999986054355
 20
239.5738135936919
 30
0.0
 11
25.1999998605437
 21
239.5738135936919
 31
0.0
  0
LINE
  5
12B7
330
1F
100
AcDbEntity
  8
0
100
AcDbLine
 10
41.14999973862665
 20
225.1738137530365
 30
0.0
 11
41.14999973862665
 21
222.7738137530357
 31
0.0
  0
LINE
  5
12B8
330
1F
100
AcDbEntity
  8
0
100
AcDbLine
 10
47.44999973862661
 20
222.7738137530357
 30
0.0
 11
47.44999973862661
 21
225.1738137530365
 31
0.0
  0
LINE
  5
12B9
330
1F
100
AcDbEntity
  8
0
100
AcDbLine
 10
49.09999973862671
 20
229.8738137530369
 30
0.0
 11
49.09999973862671
 21
222.7738137530357
 31
0.0
  0
LINE
  5
12BA
330
1F
100
AcDbEntity
  8
0
100
AcDbLine
 10
41.14999973862665
 20
224.6738137530357
 30
0.0
 11
47.44999973862661
 21
224.6738137530357
 31
0.0
  0
LINE
  5
12BB
330
1F
100
AcDbEntity
  8
0
100
AcDbLine
 10
41.14999973862665
 20
222.7738137530357
 30
0.0
 11
47.44999973862661
 21
222.7738137530357
 31
0.0
  0
ARC
  5
12BC
330
1F
100
AcDbEntity
  8
0
100
AcDbCircle
 10
45.44999973862661
 20
219.0575306104446
 30
0.0
 40
2.0
100
AcDbArc
 50
0.0
 51
75.00000000000555
  0
LINE
  5
12BD
330
1F
100
AcDbEntity
  8
0
100
AcDbLine
 10
45.89999973862665
 20
220.1738137530357
 30
0.0
 11
42.69999973862661
 21
220.1738137530357
 31
0.0
  0
ARC
  5
12BE
330
1F
100
AcDbEntity
  8
0
100
AcDbCircle
 10
43.14999973862665
 20
219.6738137530358
 30
0.0
 40
2.0
100
AcDbArc
 50
75.00000000000555
 51
180.0
  0
LINE
  5
12BF
330
1F
100
AcDbEntity
  8
0
100
AcDbLine
 10
43.66763782883174
 20
221.6056654056135
 30
0.0
 11
45.9676378288317
 21
220.9893822630224
 31
0.0
  0
LINE
  5
12C0
330
1F
100
AcDbEntity
  8
0
100
AcDbLine
 10
48.79999973862673
 20
215.3838137530367
 30
0.0
 11
49.09999973862671
 21
215.3838137530367
 31
0.0
  0
LINE
  5
12C1
330
1F
100
AcDbEntity
  8
0
100
AcDbLine
 10
48.79999973862673
 20
216.6538137530358
 30
0.0
 11
49.09999973862671
 21
216.6538137530358
 31
0.0
  0
LINE
  5
12C2
330
1F
100
AcDbEntity
  8
0
100
AcDbLine
 10
48.79999973862673
 20
210.3038137530368
 30
0.0
 11
49.09999973862671
 21
210.3038137530368
 31
0.0
  0
LINE
  5
12C3
330
1F
100
AcDbEntity
  8
0
100
AcDbLine
 10
48.79999973862673
 20
211.5738137530364
 30
0.0
 11
49.09999973862671
 21
211.5738137530364
 31
0.0
  0
LINE
  5
12C4
330
1F
100
AcDbEntity
  8
0
100
AcDbLine
 10
48.79999973862673
 20
212.8438137530368
 30
0.0
 11
49.09999973862671
 21
212.8438137530368
 31
0.0
  0
LINE
  5
12C5
330
1F
100
AcDbEntity
  8
0
100
AcDbLine
 10
48.79999973862673
 20
214.1138137530365
 30
0.0
 11
49.09999973862671
 21
214.1138137530365
 31
0.0
  0
LINE
  5
12C6
330
1F
100
AcDbEntity
  8
0
100
AcDbLine
 10
48.79999973862673
 20
215.3838137530367
 30
0.0
 11
49.09999973862671
 21
215.3838137530367
 31
0.0
  0
LINE
  5
12C7
330
1F
100
AcDbEntity
  8
0
100
AcDbLine
 10
48.79999973862673
 20
217.9238137530357
 30
0.0
 11
49.09999973862671
 21
217.9238137530357
 31
0.0
  0
LINE
  5
12C8
330
1F
100
AcDbEntity
  8
0
100
AcDbLine
 10
48.79999973862673
 20
219.1938137530355
 30
0.0
 11
49.09999973862671
 21
219.1938137530355
 31
0.0
  0
LINE
  5
12C9
330
1F
100
AcDbEntity
  8
0
100
AcDbLine
 10
48.79999973862673
 20
217.9238137530357
 30
0.0
 11
49.09999973862671
 21
217.9238137530357
 31
0.0
  0
LINE
  5
12CA
330
1F
100
AcDbEntity
  8
0
100
AcDbLine
 10
48.79999973862673
 20
222.7738137530357
 30
0.0
 11
49.09999973862671
 21
222.7738137530357
 31
0.0
  0
LINE
  5
12CB
330
1F
100
AcDbEntity
  8
0
100
AcDbLine
 10
41.84999973862557
 20
233.1738137530355
 30
0.0
 11
49.09999973862557
 21
233.1738137530355
 31
0.0
  0
LINE
  5
12CC
330
1F
100
AcDbEntity
  8
0
100
AcDbLine
 10
41.14999973862665
 20
225.1738137530348
 30
0.0
 11
47.44999973862661
 21
225.1738137530348
 31
0.0
  0
LINE
  5
12CD
330
1F
100
AcDbEntity
  8
0
100
AcDbLine
 10
39.69999973862661
 20
229.1738137530358
 30
0.0
 11
48.79999973862673
 21
229.1738137530358
 31
0.0
  0
LINE
  5
12CE
330
1F
100
AcDbEntity
  8
0
100
AcDbLine
 10
40.49999973862656
 20
230.1738137530358
 30
0.0
 11
48.79999973862673
 21
230.1738137530365
 31
0.0
  0
CIRCLE
  5
12CF
330
1F
100
AcDbEntity
  8
0
100
AcDbCircle
 10
44.29999973862673
 20
227.203813753036
 30
0.0
 40
1.399999999999999
  0
LINE
  5
12D0
330
1F
100
AcDbEntity
  8
0
100
AcDbLine
 10
39.99999973862657
 20
229.6738137530358
 30
0.0
 11
39.99999973862657
 21
229.1738137530358
 31
0.0
  0
ARC
  5
12D1
330
1F
100
AcDbEntity
  8
0
100
AcDbCircle
 10
40.49999973862656
 20
229.6738137530358
 30
0.0
 40
0.5
100
AcDbArc
 50
90.0
 51
180.0
  0
CIRCLE
  5
12D2
330
1F
100
AcDbEntity
  8
0
100
AcDbCircle
 10
45.59999973862558
 20
239.123813753035
 30
0.0
 40
1.0
  0
CIRCLE
  5
12D3
330
1F
100
AcDbEntity
  8
0
100
AcDbCircle
 10
45.59999973862558
 20
235.6238137530358
 30
0.0
 40
1.0
  0
ARC
  5
12D4
330
1F
100
AcDbEntity
  8
0
100
AcDbCircle
 10
48.79999973862673
 20
229.8738137530369
 30
0.0
 40
0.3
100
AcDbArc
 50
0.0
 51
90.0
  0
LINE
  5
12D5
330
1F
100
AcDbEntity
  8
0
100
AcDbLine
 10
49.09999973862671
 20
261.5738137530358
 30
0.0
 11
36.29999973862561
 21
261.5738137530358
 31
0.0
  0
LINE
  5
12D6
330
1F
100
AcDbEntity
  8
0
100
AcDbLine
 10
49.09999973862671
 20
247.5738137530357
 30
0.0
 11
36.29999973862561
 21
247.5738137530357
 31
0.0
  0
CIRCLE
  5
12D7
330
1F
100
AcDbEntity
  8
0
100
AcDbCircle
 10
42.59999973862671
 20
254.5738137530359
 30
0.0
 40
5.5
  0
LINE
  5
12D8
330
1F
100
AcDbEntity
  8
0
100
AcDbLine
 10
49.99999986054457
 20
267.5738135936919
 30
0.0
 11
38.59999986054464
 21
267.5738135936919
 31
0.0
  0
LINE
  5
12D9
330
1F
100
AcDbEntity
  8
0
100
AcDbLine
 10
36.29999973862561
 20
247.5738137530357
 30
0.0
 11
36.29999973862561
 21
261.5738137530358
 31
0.0
  0
LINE
  5
12DA
330
1F
100
AcDbEntity
  8
0
100
AcDbLine
 10
23.59999986054355
 20
256.5738135936919
 30
0.0
 11
23.59999986054355
 21
243.1738135936918
 31
0.0
  0
LINE
  5
12DB
330
1F
100
AcDbEntity
  8
0
100
AcDbLine
 10
35.1999998605437
 20
263.0738135936919
 30
0.0
 11
35.1999998605437
 21
247.0738135936918
 31
0.0
  0
LINE
  5
12DC
330
1F
100
AcDbEntity
  8
0
100
AcDbLine
 10
24.2999997386256
 20
242.163813753036
 30
0.0
 11
24.2999997386256
 21
240.563813753036
 31
0.0
  0
LINE
  5
12DD
330
1F
100
AcDbEntity
  8
0
100
AcDbLine
 10
24.2999997386256
 20
240.563813753036
 30
0.0
 11
22.59999973862556
 21
240.563813753036
 31
0.0
  0
LINE
  5
12DE
330
1F
100
AcDbEntity
  8
0
100
AcDbLine
 10
22.59999973862556
 20
242.163813753036
 30
0.0
 11
24.2999997386256
 21
242.163813753036
 31
0.0
  0
LINE
  5
12DF
330
1F
100
AcDbEntity
  8
0
100
AcDbLine
 10
23.59999986054355
 20
243.1738135936918
 30
0.0
 11
25.1999998605437
 21
243.1738135936918
 31
0.0
  0
LINE
  5
12E0
330
1F
100
AcDbEntity
  8
0
100
AcDbLine
 10
38.59999986054356
 20
247.0738135936918
 30
0.0
 11
35.1999998605437
 21
247.0738135936918
 31
0.0
  0
LINE
  5
12E1
330
1F
100
AcDbEntity
  8
0
100
AcDbLine
 10
23.59999986054355
 20
271.4738135936916
 30
0.0
 11
23.59999986054355
 21
260.1738135936918
 31
0.0
  0
LINE
  5
12E2
330
1F
100
AcDbEntity
  8
0
100
AcDbLine
 10
24.2999997386256
 20
259.1638137530358
 30
0.0
 11
24.2999997386256
 21
257.563813753036
 31
0.0
  0
LINE
  5
12E3
330
1F
100
AcDbEntity
  8
0
100
AcDbLine
 10
24.2999997386256
 20
259.1638137530358
 30
0.0
 11
22.59999973862556
 21
259.1638137530358
 31
0.0
  0
LINE
  5
12E4
330
1F
100
AcDbEntity
  8
0
100
AcDbLine
 10
24.2999997386256
 20
257.563813753036
 30
0.0
 11
22.59999973862556
 21
257.563813753036
 31
0.0
  0
LINE
  5
12E5
330
1F
100
AcDbEntity
  8
0
100
AcDbLine
 10
23.59999986054355
 20
260.1738135936918
 30
0.0
 11
25.1999998605437
 21
260.1738135936918
 31
0.0
  0
LINE
  5
12E6
330
1F
100
AcDbEntity
  8
0
100
AcDbLine
 10
23.59999986054355
 20
256.5738135936919
 30
0.0
 11
25.1999998605437
 21
256.5738135936919
 31
0.0
  0
LINE
  5
12E7
330
1F
100
AcDbEntity
  8
0
100
AcDbLine
 10
25.1999998605437
 20
260.1738135936918
 30
0.0
 11
25.1999998605437
 21
256.5738135936919
 31
0.0
  0
LINE
  5
12E8
330
1F
100
AcDbEntity
  8
0
100
AcDbLine
 10
22.59999973862556
 20
265.473813753036
 30
0.0
 11
22.59999973862556
 21
265.1138137530358
 31
0.0
  0
LINE
  5
12E9
330
1F
100
AcDbEntity
  8
0
100
AcDbLine
 10
38.59999986054356
 20
263.0738135936919
 30
0.0
 11
38.59999986054356
 21
267.5738135936919
 31
0.0
  0
LINE
  5
12EA
330
1F
100
AcDbEntity
  8
0
100
AcDbLine
 10
38.59999986054356
 20
263.0738135936919
 30
0.0
 11
35.1999998605437
 21
263.0738135936919
 31
0.0
  0
LINE
  5
12EB
330
1F
100
AcDbEntity
  8
0
100
AcDbLine
 10
49.09999973862671
 20
255.6738137530349
 30
0.0
 11
49.09999973862671
 21
261.5738137530358
 31
0.0
  0
LINE
  5
12EC
330
1F
100
AcDbEntity
  8
0
100
AcDbLine
 10
49.09999973862557
 20
241.5738137530357
 30
0.0
 11
41.84999973862557
 21
241.5738137530357
 31
0.0
  0
LINE
  5
12ED
330
1F
100
AcDbEntity
  8
0
100
AcDbLine
 10
49.09999973862557
 20
247.0738137530358
 30
0.0
 11
41.1999997386257
 21
247.0738137530358
 31
0.0
  0
LINE
  5
12EE
330
1F
100
AcDbEntity
  8
0
100
AcDbLine
 10
48.14999973862574
 20
246.0738137530359
 30
0.0
 11
42.14999973862575
 21
246.0738137530359
 31
0.0
  0
LINE
  5
12EF
330
1F
100
AcDbEntity
  8
0
100
AcDbLine
 10
42.14999973862575
 20
243.0738137530358
 30
0.0
 11
48.14999973862574
 21
243.0738137530358
 31
0.0
  0
LINE
  5
12F0
330
1F
100
AcDbEntity
  8
0
100
AcDbLine
 10
41.1999997386257
 20
242.0738137530359
 30
0.0
 11
49.09999973862557
 21
242.0738137530359
 31
0.0
  0
LINE
  5
12F1
330
1F
100
AcDbEntity
  8
0
100
AcDbLine
 10
44.14999973862574
 20
246.0738137530359
 30
0.0
 11
43.14999973862574
 21
246.0738137530359
 31
0.0
  0
LINE
  5
12F2
330
1F
100
AcDbEntity
  8
0
100
AcDbLine
 10
43.14999973862574
 20
243.0738137530358
 30
0.0
 11
44.14999973862574
 21
243.0738137530358
 31
0.0
  0
LINE
  5
12F3
330
1F
100
AcDbEntity
  8
0
100
AcDbLine
 10
41.1999997386257
 20
247.0738137530358
 30
0.0
 11
41.1999997386257
 21
242.0738137530359
 31
0.0
  0
LINE
  5
12F4
330
1F
100
AcDbEntity
  8
0
100
AcDbLine
 10
43.14999973862574
 20
246.0738137530359
 30
0.0
 11
43.14999973862574
 21
243.0738137530358
 31
0.0
  0
LINE
  5
12F5
330
1F
100
AcDbEntity
  8
0
100
AcDbLine
 10
42.14999973862575
 20
246.0738137530359
 30
0.0
 11
42.14999973862575
 21
243.0738137530358
 31
0.0
  0
LINE
  5
12F6
330
1F
100
AcDbEntity
  8
0
100
AcDbLine
 10
44.14999973862574
 20
243.0738137530358
 30
0.0
 11
44.14999973862574
 21
246.0738137530359
 31
0.0
  0
LINE
  5
12F7
330
1F
100
AcDbEntity
  8
0
100
AcDbLine
 10
44.9499997386257
 20
243.0738137530358
 30
0.0
 11
44.9499997386257
 21
246.0738137530359
 31
0.0
  0
LINE
  5
12F8
330
1F
100
AcDbEntity
  8
0
100
AcDbLine
 10
49.09999973862671
 20
247.5738137530357
 30
0.0
 11
49.09999973862671
 21
253.4738137530359
 31
0.0
  0
LINE
  5
12F9
330
1F
100
AcDbEntity
  8
0
100
AcDbLine
 10
49.09999973862557
 20
242.0738137530359
 30
0.0
 11
49.09999973862557
 21
247.0738137530358
 31
0.0
  0
LINE
  5
12FA
330
1F
100
AcDbEntity
  8
0
100
AcDbLine
 10
48.14999973862574
 20
243.0738137530358
 30
0.0
 11
48.14999973862574
 21
246.0738137530359
 31
0.0
  0
LINE
  5
12FB
330
1F
100
AcDbEntity
  8
0
100
AcDbLine
 10
48.14999973862574
 20
266.0738137530358
 30
0.0
 11
42.14999973862575
 21
266.0738137530358
 31
0.0
  0
LINE
  5
12FC
330
1F
100
AcDbEntity
  8
0
100
AcDbLine
 10
49.09999973862557
 20
267.0738137530348
 30
0.0
 11
41.1999997386257
 21
267.0738137530348
 31
0.0
  0
LINE
  5
12FD
330
1F
100
AcDbEntity
  8
0
100
AcDbLine
 10
42.14999973862575
 20
263.0738137530359
 30
0.0
 11
48.14999973862574
 21
263.0738137530359
 31
0.0
  0
LINE
  5
12FE
330
1F
100
AcDbEntity
  8
0
100
AcDbLine
 10
41.1999997386257
 20
262.0738137530358
 30
0.0
 11
49.09999973862557
 21
262.0738137530358
 31
0.0
  0
LINE
  5
12FF
330
1F
100
AcDbEntity
  8
0
100
AcDbLine
 10
42.14999973862575
 20
266.0738137530358
 30
0.0
 11
42.14999973862575
 21
263.0738137530359
 31
0.0
  0
LINE
  5
1300
330
1F
100
AcDbEntity
  8
0
100
AcDbLine
 10
43.14999973862574
 20
266.0738137530358
 30
0.0
 11
43.14999973862574
 21
263.0738137530359
 31
0.0
  0
LINE
  5
1301
330
1F
100
AcDbEntity
  8
0
100
AcDbLine
 10
44.14999973862574
 20
263.0738137530359
 30
0.0
 11
44.14999973862574
 21
266.0738137530358
 31
0.0
  0
LINE
  5
1302
330
1F
100
AcDbEntity
  8
0
100
AcDbLine
 10
41.1999997386257
 20
267.0738137530348
 30
0.0
 11
41.1999997386257
 21
262.0738137530358
 31
0.0
  0
LINE
  5
1303
330
1F
100
AcDbEntity
  8
0
100
AcDbLine
 10
44.9499997386257
 20
263.0738137530359
 30
0.0
 11
44.9499997386257
 21
266.0738137530358
 31
0.0
  0
LINE
  5
1304
330
1F
100
AcDbEntity
  8
0
100
AcDbLine
 10
43.14999973862574
 20
263.0738137530359
 30
0.0
 11
44.14999973862574
 21
263.0738137530359
 31
0.0
  0
LINE
  5
1305
330
1F
100
AcDbEntity
  8
0
100
AcDbLine
 10
44.14999973862574
 20
266.0738137530358
 30
0.0
 11
43.14999973862574
 21
266.0738137530358
 31
0.0
  0
LINE
  5
1306
330
1F
100
AcDbEntity
  8
0
100
AcDbLine
 10
48.14999973862574
 20
263.0738137530359
 30
0.0
 11
48.14999973862574
 21
266.0738137530358
 31
0.0
  0
LINE
  5
1307
330
1F
100
AcDbEntity
  8
0
100
AcDbLine
 10
49.09999973862557
 20
262.0738137530358
 30
0.0
 11
49.09999973862557
 21
267.0738137530348
 31
0.0
  0
INSERT
  5
1308
330
1F
100
AcDbEntity
  8
0
100
AcDbBlockReference
  2
A$C57E26210
 10
34.03868308677612
 20
282.9481504164646
 30
0.0
  0
LINE
  5
1309
330
1F
100
AcDbEntity
  8
0
  6
Continuous
100
AcDbLine
 10
48.34028206407322
 20
301.048150842638
 30
0.0
 11
34.03868308677521
 21
301.048150842638
 31
0.0
  0
LINE
  5
130A
330
1F
100
AcDbEntity
  8
0
  6
Continuous
100
AcDbLine
 10
48.34028206407413
 20
282.9481504164646
 30
0.0
 11
34.03868308677612
 21
282.9481504164646
 31
0.0
  0
LINE
  5
130B
330
1F
100
AcDbEntity
  8
0
  6
Continuous
100
AcDbLine
 10
34.03868308677521
 20
301.048150842638
 30
0.0
 11
34.03868308677612
 21
282.9481504164646
 31
0.0
  0
LINE
  5
130C
330
1F
100
AcDbEntity
  8
0
100
AcDbLine
 10
24.94499973862582
 20
301.1338137530358
 30
0.0
 11
24.94499973862582
 21
276.9738137530358
 31
0.0
  0
LINE
  5
130D
330
1F
100
AcDbEntity
  8
0
100
AcDbLine
 10
23.58499973862575
 20
301.1338137530358
 30
0.0
 11
23.58499973862575
 21
276.9738137530358
 31
0.0
  0
LINE
  5
130E
330
1F
100
AcDbEntity
  8
0
100
AcDbLine
 10
25.39999986054351
 20
302.1738135936918
 30
0.0
 11
25.39999986054351
 21
275.9738135936915
 31
0.0
  0
LINE
  5
130F
330
1F
100
AcDbEntity
  8
0
100
AcDbLine
 10
24.08499973862575
 20
301.1338137530358
 30
0.0
 11
23.58499973862575
 21
301.1338137530358
 31
0.0
  0
LINE
  5
1310
330
1F
100
AcDbEntity
  8
0
  6
Continuous
100
AcDbLine
 10
48.34028206407322
 20
301.048150842638
 30
0.0
 11
48.34028206407413
 21
282.9481504164646
 31
0.0
  0
LINE
  5
1311
330
1F
100
AcDbEntity
  8
0
100
AcDbLine
 10
24.29999973862675
 20
324.8638137530357
 30
0.0
 11
21.29999973862675
 21
324.8638137530357
 31
0.0
  0
LINE
  5
1312
330
1F
100
AcDbEntity
  8
0
100
AcDbLine
 10
24.29999973862675
 20
326.0638137530361
 30
0.0
 11
21.29999973862675
 21
326.0638137530361
 31
0.0
  0
LINE
  5
1313
330
1F
100
AcDbEntity
  8
0
100
AcDbLine
 10
24.29999973862675
 20
327.4038137530358
 30
0.0
 11
21.29999973862675
 21
327.4038137530358
 31
0.0
  0
LINE
  5
1314
330
1F
100
AcDbEntity
  8
0
100
AcDbLine
 10
24.29999973862675
 20
330.0538137530359
 30
0.0
 11
14.0999997386267
 21
330.0538137530359
 31
0.0
  0
LINE
  5
1315
330
1F
100
AcDbEntity
  8
0
100
AcDbLine
 10
24.29999973862675
 20
323.4138137530358
 30
0.0
 11
14.0999997386267
 21
323.4138137530358
 31
0.0
  0
LINE
  5
1316
330
1F
100
AcDbEntity
  8
0
100
AcDbLine
 10
24.29999973862675
 20
328.603813753036
 30
0.0
 11
19.52450480963472
 21
328.603813753036
 31
0.0
  0
LINE
  5
1317
330
1F
100
AcDbEntity
  8
0
100
AcDbLine
 10
24.29999973862675
 20
324.8638137530357
 30
0.0
 11
19.52450480963472
 21
324.8638137530357
 31
0.0
  0
CIRCLE
  5
1318
330
1F
100
AcDbEntity
  8
0
100
AcDbCircle
 10
21.69999986054369
 20
342.9738135936915
 30
0.0
 40
1.399999999999999
  0
LINE
  5
1319
330
1F
100
AcDbEntity
  8
0
100
AcDbLine
 10
22.89999986054351
 20
339.0738135936918
 30
0.0
 11
12.99999986054365
 21
339.0738135936918
 31
0.0
  0
CIRCLE
  5
131A
330
1F
100
AcDbEntity
  8
0
100
AcDbCircle
 10
21.69999986054369
 20
347.7738135936917
 30
0.0
 40
1.399999999999999
  0
LINE
  5
131B
330
1F
100
AcDbEntity
  8
0
100
AcDbLine
 10
22.2999998605436
 20
322.8738135936906
 30
0.0
 11
25.89999986054351
 21
322.8738135936906
 31
0.0
  0
LINE
  5
131C
330
1F
100
AcDbEntity
  8
0
100
AcDbLine
 10
55.69999973862571
 20
352.7738137530356
 30
0.0
 11
8.099999738625797
 21
352.7738137530356
 31
0.0
  0
LINE
  5
131D
330
1F
100
AcDbEntity
  8
0
100
AcDbLine
 10
55.99999973862656
 20
352.973813753036
 30
0.0
 11
7.99999973862674
 21
352.973813753036
 31
0.0
  0
LINE
  5
131E
330
1F
100
AcDbEntity
  8
0
100
AcDbLine
 10
5.999999738626798
 20
354.973813753036
 30
0.0
 11
57.99999973862656
 21
354.973813753036
 31
0.0
  0
LINE
  5
131F
330
1F
100
AcDbEntity
  8
0
100
AcDbLine
 10
3.999999738626796
 20
364.9738137530358
 30
0.0
 11
56.99999973862656
 21
364.9738137530358
 31
0.0
  0
LINE
  5
1320
330
1F
100
AcDbEntity
  8
1
100
AcDbLine
 10
21.49999973862673
 20
359.9738137530358
 30
0.0
 11
36.4999997386268
 21
359.9738137530358
 31
0.0
  0
LINE
  5
1321
330
1F
100
AcDbEntity
  8
0
100
AcDbLine
 10
14.0999997386267
 20
306.0738135936918
 30
0.0
 11
14.0999997386267
 21
339.0738135936918
 31
0.0
  0
LINE
  5
1322
330
1F
100
AcDbEntity
  8
0
100
AcDbLine
 10
14.49999973862565
 20
331.0538137530368
 30
0.0
 11
14.49999973862565
 21
338.5538137530359
 31
0.0
  0
LINE
  5
1323
330
1F
100
AcDbEntity
  8
0
100
AcDbLine
 10
21.99999973862566
 20
331.0538137530368
 30
0.0
 11
21.99999973862566
 21
338.5538137530359
 31
0.0
  0
CIRCLE
  5
1324
330
1F
100
AcDbEntity
  8
0
100
AcDbCircle
 10
18.24999973862566
 20
334.8038137530359
 30
0.0
 40
1.290290050200999
  0
LINE
  5
1325
330
1F
100
AcDbEntity
  8
0
100
AcDbLine
 10
12.99999986054365
 20
339.0738135936918
 30
0.0
 11
12.99999986054365
 21
306.0738135936918
 31
0.0
  0
LINE
  5
1326
330
1F
100
AcDbEntity
  8
0
100
AcDbLine
 10
14.09999973862579
 20
322.4138137530358
 30
0.0
 11
14.09999973862579
 21
307.0138137530359
 31
0.0
  0
LINE
  5
1327
330
1F
100
AcDbEntity
  8
0
100
AcDbLine
 10
21.3499997386267
 20
307.0138137530359
 30
0.0
 11
21.3499997386267
 21
322.4138137530358
 31
0.0
  0
LINE
  5
1328
330
1F
100
AcDbEntity
  8
0
100
AcDbLine
 10
22.2999998605436
 20
322.8738135936906
 30
0.0
 11
22.2999998605436
 21
306.0738135936918
 31
0.0
  0
LINE
  5
1329
330
1F
100
AcDbEntity
  8
0
100
AcDbLine
 10
14.09999973862579
 20
307.0138137530359
 30
0.0
 11
21.3499997386267
 21
307.0138137530359
 31
0.0
  0
LINE
  5
132A
330
1F
100
AcDbEntity
  8
0
100
AcDbLine
 10
12.99999986054365
 20
306.0738135936918
 30
0.0
 11
22.2999998605436
 21
306.0738135936918
 31
0.0
  0
CIRCLE
  5
132B
330
1F
100
AcDbEntity
  8
0
100
AcDbCircle
 10
17.59999973862573
 20
309.4638137530357
 30
0.0
 40
1.0
  0
CIRCLE
  5
132C
330
1F
100
AcDbEntity
  8
0
100
AcDbCircle
 10
17.59999973862573
 20
312.9638137530347
 30
0.0
 40
1.0
  0
CIRCLE
  5
132D
330
1F
100
AcDbEntity
  8
0
100
AcDbCircle
 10
17.59999973862573
 20
316.4638137530356
 30
0.0
 40
1.0
  0
LINE
  5
132E
330
1F
100
AcDbEntity
  8
0
100
AcDbLine
 10
21.3499997386267
 20
322.4138137530358
 30
0.0
 11
14.09999973862579
 21
322.4138137530358
 31
0.0
  0
LINE
  5
132F
330
1F
100
AcDbEntity
  8
0
100
AcDbLine
 10
14.0999997386267
 20
332.5638137530368
 30
0.0
 11
14.49999973862565
 21
332.5638137530368
 31
0.0
  0
LINE
  5
1330
330
1F
100
AcDbEntity
  8
0
100
AcDbLine
 10
14.0999997386267
 20
331.9638137530357
 30
0.0
 11
14.49999973862565
 21
331.9638137530357
 31
0.0
  0
LINE
  5
1331
330
1F
100
AcDbEntity
  8
0
100
AcDbLine
 10
21.99999973862566
 20
331.0538137530368
 30
0.0
 11
14.09999973862579
 21
331.0538137530368
 31
0.0
  0
LINE
  5
1332
330
1F
100
AcDbEntity
  8
0
100
AcDbLine
 10
14.0999997386267
 20
323.4138137530358
 30
0.0
 11
14.0999997386267
 21
330.0538137530359
 31
0.0
  0
LINE
  5
1333
330
1F
100
AcDbEntity
  8
0
100
AcDbLine
 10
14.09999973862579
 20
331.0538137530368
 30
0.0
 11
14.09999973862579
 21
331.9638137530357
 31
0.0
  0
LINE
  5
1334
330
1F
100
AcDbEntity
  8
0
100
AcDbLine
 10
19.52450480963472
 20
328.603813753036
 30
0.0
 11
19.52450480963472
 21
324.8638137530357
 31
0.0
  0
CIRCLE
  5
1335
330
1F
100
AcDbEntity
  8
0
100
AcDbCircle
 10
17.59999973862573
 20
319.9638137530357
 30
0.0
 40
1.0
  0
LINE
  5
1336
330
1F
100
AcDbEntity
  8
0
100
AcDbLine
 10
21.29999973862675
 20
324.8638137530357
 30
0.0
 11
21.29999973862675
 21
326.0638137530361
 31
0.0
  0
LINE
  5
1337
330
1F
100
AcDbEntity
  8
0
100
AcDbLine
 10
21.29999973862675
 20
327.4038137530358
 30
0.0
 11
21.29999973862675
 21
328.603813753036
 31
0.0
  0
LINE
  5
1338
330
1F
100
AcDbEntity
  8
0
100
AcDbLine
 10
0.4869112644727239
 20
354.8818202937857
 30
0.0
 11
3.999999738626796
 21
354.973813753036
 31
0.0
  0
ARC
  5
1339
330
1F
100
AcDbEntity
  8
0
100
AcDbCircle
 10
0.4999997386267411
 20
354.3819916312989
 30
0.0
 40
0.5
100
AcDbArc
 50
91.50000000000273
 51
180.0
  0
LINE
  5
133A
330
1F
100
AcDbEntity
  8
0
100
AcDbLine
 10
5.999999738626798
 20
354.4738137530358
 30
0.0
 11
4.99999973862674
 21
354.4738137530358
 31
0.0
  0
LINE
  5
133B
330
1F
100
AcDbEntity
  8
0
100
AcDbLine
 10
3.999999738626796
 20
354.973813753036
 30
0.0
 11
4.99999973862674
 21
354.9476278314671
 31
0.0
  0
LINE
  5
133C
330
1F
100
AcDbEntity
  8
0
100
AcDbLine
 10
4.99999973862674
 20
350.973813753036
 30
0.0
 11
5.013088212779733
 21
350.9741564867938
 31
0.0
  0
LINE
  5
133D
330
1F
100
AcDbEntity
  8
0
100
AcDbLine
 10
0.9738227903186498
 20
364.8945705208132
 30
0.0
 11
3.999999738626796
 21
364.9738137530358
 31
0.0
  0
ARC
  5
133E
330
1F
100
AcDbEntity
  8
0
100
AcDbCircle
 10
0.9999997386267407
 20
363.8949131958377
 30
0.0
 40
1.0
100
AcDbArc
 50
91.50000000000273
 51
180.0
  0
LINE
  5
133F
330
1F
100
AcDbEntity
  8
0
100
AcDbLine
 10
14.0999997386267
 20
334.5038137530366
 30
0.0
 11
14.49999973862565
 21
334.5038137530366
 31
0.0
  0
LINE
  5
1340
330
1F
100
AcDbEntity
  8
0
100
AcDbLine
 10
14.0999997386267
 20
335.103813753037
 30
0.0
 11
14.49999973862565
 21
335.103813753037
 31
0.0
  0
LINE
  5
1341
330
1F
100
AcDbEntity
  8
0
100
AcDbLine
 10
14.0999997386267
 20
337.043813753036
 30
0.0
 11
14.49999973862565
 21
337.043813753036
 31
0.0
  0
LINE
  5
1342
330
1F
100
AcDbEntity
  8
0
100
AcDbLine
 10
14.0999997386267
 20
337.6438137530366
 30
0.0
 11
14.49999973862565
 21
337.6438137530366
 31
0.0
  0
LINE
  5
1343
330
1F
100
AcDbEntity
  8
0
100
AcDbLine
 10
21.99999973862566
 20
338.5538137530359
 30
0.0
 11
14.09999973862579
 21
338.5538137530359
 31
0.0
  0
LINE
  5
1344
330
1F
100
AcDbEntity
  8
0
100
AcDbLine
 10
14.09999973862579
 20
337.643813753036
 30
0.0
 11
14.09999973862579
 21
338.5538137530359
 31
0.0
  0
CIRCLE
  5
1345
330
1F
100
AcDbEntity
  8
0
100
AcDbCircle
 10
16.59999986054356
 20
342.9738135936915
 30
0.0
 40
1.399999999999999
  0
CIRCLE
  5
1346
330
1F
100
AcDbEntity
  8
0
100
AcDbCircle
 10
16.59999986054356
 20
347.7738135936917
 30
0.0
 40
1.399999999999999
  0
LINE
  5
1347
330
1F
100
AcDbEntity
  8
1
100
AcDbLine
 10
28.99999973862657
 20
352.4738137530358
 30
0.0
 11
28.99999973862657
 21
367.473813753036
 31
0.0
  0
LINE
  5
1348
330
1F
100
AcDbEntity
  8
0
100
AcDbLine
 10
22.89999986054351
 20
339.0738135936918
 30
0.0
 11
22.89999986054351
 21
331.0738135936918
 31
0.0
  0
LINE
  5
1349
330
1F
100
AcDbEntity
  8
0
100
AcDbLine
 10
24.29999973862675
 20
323.4138137530358
 30
0.0
 11
24.29999973862675
 21
330.0538137530359
 31
0.0
  0
LINE
  5
134A
330
1F
100
AcDbEntity
  8
0
100
AcDbLine
 10
22.79999973862675
 20
326.0638137530361
 30
0.0
 11
22.79999973862675
 21
327.4038137530358
 31
0.0
  0
LINE
  5
134B
330
1F
100
AcDbEntity
  8
0
100
AcDbLine
 10
25.89999986054351
 20
331.0738135936918
 30
0.0
 11
25.89999986054351
 21
322.8738135936906
 31
0.0
  0
LINE
  5
134C
330
1F
100
AcDbEntity
  8
0
100
AcDbLine
 10
23.29999973862675
 20
324.8638137530357
 30
0.0
 11
23.29999973862675
 21
326.0638137530361
 31
0.0
  0
LINE
  5
134D
330
1F
100
AcDbEntity
  8
0
100
AcDbLine
 10
23.29999973862675
 20
327.4038137530358
 30
0.0
 11
23.29999973862675
 21
328.603813753036
 31
0.0
  0
LINE
  5
134E
330
1F
100
AcDbEntity
  8
0
100
AcDbLine
 10
22.89999986054351
 20
331.0738135936918
 30
0.0
 11
25.89999986054351
 21
331.0738135936918
 31
0.0
  0
LWPOLYLINE
  5
134F
330
1F
100
AcDbEntity
  8
0
 62
     0
100
AcDbPolyline
 90
        4
 70
     1
 43
0.0
 10
47.49999973862634
 20
312.9488144867256
 10
49.09999973862671
 20
312.9488144867256
 10
49.09999973862671
 20
310.2488144867259
 10
47.49999973862634
 20
310.2488144867259
  0
INSERT
  5
1350
330
1F
100
AcDbEntity
  8
0
 62
     0
 48
5.0
100
AcDbBlockReference
  2
A$C5CFD6E8C
 10
47.50000252760627
 20
310.2488120070808
 30
0.0
  0
LWPOLYLINE
  5
1351
330
1F
100
AcDbEntity
  8
0
 62
     0
100
AcDbPolyline
 90
        4
 70
     1
 43
0.0
 10
47.49999973862634
 20
318.4488144867271
 10
49.09999973862671
 20
318.4488144867271
 10
49.09999973862671
 20
315.7488144867258
 10
47.49999973862634
 20
315.7488144867258
  0
INSERT
  5
1352
330
1F
100
AcDbEntity
  8
0
 62
     0
 48
5.0
100
AcDbBlockReference
  2
A$C5CFD6E8C
 10
47.50000252760627
 20
315.7488120070808
 30
0.0
  0
CIRCLE
  5
1353
330
1F
100
AcDbEntity
  8
0
100
AcDbCircle
 10
28.99999973862657
 20
359.9738137530358
 30
0.0
 40
2.1
  0
ARC
  5
1354
330
1F
100
AcDbEntity
  8
0
100
AcDbCircle
 10
28.99999973862657
 20
359.9738137530358
 30
0.0
 40
5.5
100
AcDbArc
 50
180.0
 51
245.3800226713513
  0
LINE
  5
1355
330
1F
100
AcDbEntity
  8
0
100
AcDbLine
 10
23.49999973862657
 20
359.9738137530358
 30
0.0
 11
23.49999973862657
 21
364.9738137530358
 31
0.0
  0
ARC
  5
1356
330
1F
100
AcDbEntity
  8
0
100
AcDbCircle
 10
28.99999973862657
 20
359.9738137530358
 30
0.0
 40
5.5
100
AcDbArc
 50
294.6199773286486
 51
0.0
  0
LINE
  5
1357
330
1F
100
AcDbEntity
  8
0
100
AcDbLine
 10
34.49999973862657
 20
359.9738137530358
 30
0.0
 11
34.49999973862657
 21
364.9738137530358
 31
0.0
  0
ARC
  5
1358
330
1F
100
AcDbEntity
  8
0
100
AcDbCircle
 10
56.99999973862656
 20
363.9738137530358
 30
0.0
 40
1.0
100
AcDbArc
 50
0.0
 51
90.0
  0
ENDSEC
  0
SECTION
  2
OBJECTS
  0
DICTIONARY
  5
C
330
0
100
AcDbDictionary
281
     1
  3
ACAD_GROUP
350
D
  3
ACAD_LAYOUT
350
1A
  3
ACAD_MLINESTYLE
350
17
  3
ACAD_PLOTSETTINGS
350
19
  3
ACAD_PLOTSTYLENAME
350
E
  3
ACDBHEADERROUNDTRIPXREC
350
146B
  3
ACDBVARIABLEDICTIONARY
350
AE8
  0
DICTIONARY
  5
2B2
330
2
100
AcDbDictionary
280
     1
281
     1
  3
ACAD_LAYERSTATES
360
2B3
  0
DICTIONARY
  5
B35
330
1F
100
AcDbDictionary
280
     1
281
     1
  3
ACAD_LAYOUTSELFREF
360
13D3
  0
DICTIONARY
  5
B33
330
1B
100
AcDbDictionary
280
     1
281
     1
  3
ACAD_LAYOUTSELFREF
360
13D2
  0
DICTIONARY
  5
D
102
{ACAD_REACTORS
330
C
102
}
330
C
100
AcDbDictionary
281
     1
  0
DICTIONARY
  5
1A
102
{ACAD_REACTORS
330
C
102
}
330
C
100
AcDbDictionary
281
     1
  3
Model
350
13D7
  3
ﾚｲｱｳﾄ1
350
13D8
  0
DICTIONARY
  5
17
102
{ACAD_REACTORS
330
C
102
}
330
C
100
AcDbDictionary
281
     1
  3
STANDARD
350
18
  0
DICTIONARY
  5
19
102
{ACAD_REACTORS
330
C
102
}
330
C
100
AcDbDictionary
281
     1
  0
ACDBDICTIONARYWDFLT
  5
E
102
{ACAD_REACTORS
330
C
102
}
330
C
100
AcDbDictionary
281
     1
  3
Normal
350
F
100
AcDbDictionaryWithDefault
340
F
  0
DICTIONARY
  5
146B
102
{ACAD_REACTORS
330
C
102
}
330
C
100
AcDbDictionary
281
     1
  3
CEPSNTYPE
350
1475
  3
FINGERPRINTGUID
350
1476
  3
HYPERLINKBASE
350
146E
  3
INSUNITS
350
1474
  3
LAYOUTDICT
350
1470
  3
LWETCUNION
350
1473
  3
PLOTSETDICT
350
1471
  3
PLOTSTYLNAMDICT
350
1472
  3
PSVPSCALE
350
1478
  3
PUCSBASE
350
147B
  3
PUCSORGBACK
350
1481
  3
PUCSORGBOTTOM
350
147D
  3
PUCSORGFRONT
350
1480
  3
PUCSORGLEFT
350
147E
  3
PUCSORGRIGHT
350
147F
  3
PUCSORGTOP
350
147C
  3
PUCSORTHOREF
350
1479
  3
PUCSORTHOVIEW
350
147A
  3
STYLESHEET
350
146F
  3
TSTACKALIGN
350
146C
  3
TSTACKSIZE
350
146D
  3
UCSBASE
350
1484
  3
UCSORGBACK
350
148A
  3
UCSORGBOTTOM
350
1486
  3
UCSORGFRONT
350
1489
  3
UCSORGLEFT
350
1487
  3
UCSORGRIGHT
350
1488
  3
UCSORGTOP
350
1485
  3
UCSORTHOREF
350
1482
  3
UCSORTHOVIEW
350
1483
  3
VERSIONGUID
350
1477
  0
DICTIONARY
  5
AE8
102
{ACAD_REACTORS
330
C
102
}
330
C
100
AcDbDictionary
281
     1
  3
DIMASSOC
350
AEA
  3
HIDETEXT
350
AE9
  0
DICTIONARY
  5
2B3
102
{ACAD_REACTORS
330
2B2
102
}
330
2B2
100
AcDbDictionary
281
     1
  0
XRECORD
  5
13D3
102
{ACAD_REACTORS
330
B35
102
}
330
B35
100
AcDbXrecord
280
     1
340
1F
  0
XRECORD
  5
13D2
102
{ACAD_REACTORS
330
B33
102
}
330
B33
100
AcDbXrecord
280
     1
340
1B
  0
LAYOUT
  5
13D7
102
{ACAD_REACTORS
330
1A
102
}
330
1A
100
AcDbPlotSettings
  1

  2
8F大型複合機B_C7780
  4
A4
  6

 40
4.900083065032958
 41
4.900057315826416
 42
4.90008544921875
 43
4.90008544921875
 44
210.015670776367
 45
297.0106506347656
 46
0.0
 47
0.0
 48
-57.05304697578776
 49
-3.018419637131955
140
378.2101837193349
141
426.9729507574929
142
1.0
143
2.147642742626865
 70
 11952
 72
     1
 73
     1
 74
     4
  7

 75
     0
147
0.4656267917153022
148
57.05304697578776
149
3.018419637131955
100
AcDbLayout
  1
Model
 70
     1
 71
     0
 10
0.0
 20
0.0
 11
12.0
 21
9.0
 12
0.0
 22
0.0
 32
0.0
 14
0.0
 24
0.0
 34
0.0
 15
0.0
 25
0.0
 35
0.0
146
0.0
 13
0.0
 23
0.0
 33
0.0
 16
1.0
 26
0.0
 36
0.0
 17
0.0
 27
1.0
 37
0.0
 76
     0
330
1F
  0
LAYOUT
  5
13D8
102
{ACAD_REACTORS
330
1A
102
}
330
1A
100
AcDbPlotSettings
  1

  2
8F大型複合機B_C7780
  4

  6

 40
0.0
 41
0.0
 42
0.0
 43
0.0
 44
0.0
 45
0.0
 46
0.0
 47
0.0
 48
0.0
 49
0.0
140
0.0
141
0.0
142
1.0
143
1.0
 70
   688
 72
     0
 73
     0
 74
     5
  7

 75
    16
147
1.0
148
0.0
149
0.0
100
AcDbLayout
  1
ﾚｲｱｳﾄ1
 70
     1
 71
     1
 10
0.0
 20
0.0
 11
420.0
 21
297.0
 12
0.0
 22
0.0
 32
0.0
 14
1.000000000000000E+20
 24
1.000000000000000E+20
 34
1.000000000000000E+20
 15
-1.000000000000000E+20
 25
-1.000000000000000E+20
 35
-1.000000000000000E+20
146
0.0
 13
0.0
 23
0.0
 33
0.0
 16
1.0
 26
0.0
 36
0.0
 17
0.0
 27
1.0
 37
0.0
 76
     0
330
1B
  0
MLINESTYLE
  5
18
102
{ACAD_REACTORS
330
17
102
}
330
17
100
AcDbMlineStyle
  2
STANDARD
 70
     0
  3

 62
   256
 51
90.0
 52
90.0
 71
     2
 49
0.5
 62
   256
  6
BYLAYER
 49
-0.5
 62
   256
  6
BYLAYER
  0
ACDBPLACEHOLDER
  5
F
102
{ACAD_REACTORS
330
E
102
}
330
E
  0
XRECORD
  5
1475
102
{ACAD_REACTORS
330
146B
102
}
330
146B
100
AcDbXrecord
280
     1
 90
        0
  0
XRECORD
  5
1476
102
{ACAD_REACTORS
330
146B
102
}
330
146B
100
AcDbXrecord
280
     1
  1
{DFE87AFF-CEDA-490C-9593-3352DB0660B4}
  0
XRECORD
  5
146E
102
{ACAD_REACTORS
330
146B
102
}
330
146B
100
AcDbXrecord
280
     1
  1

  0
XRECORD
  5
1474
102
{ACAD_REACTORS
330
146B
102
}
330
146B
100
AcDbXrecord
280
     1
 90
        4
  0
XRECORD
  5
1470
102
{ACAD_REACTORS
330
146B
102
}
330
146B
100
AcDbXrecord
280
     1
340
1A
  0
XRECORD
  5
1473
102
{ACAD_REACTORS
330
146B
102
}
330
146B
100
AcDbXrecord
280
     1
 90
    10781
  0
XRECORD
  5
1471
102
{ACAD_REACTORS
330
146B
102
}
330
146B
100
AcDbXrecord
280
     1
340
19
  0
XRECORD
  5
1472
102
{ACAD_REACTORS
330
146B
102
}
330
146B
100
AcDbXrecord
280
     1
340
E
  0
XRECORD
  5
1478
102
{ACAD_REACTORS
330
146B
102
}
330
146B
100
AcDbXrecord
280
     1
 40
0.0
  0
XRECORD
  5
147B
102
{ACAD_REACTORS
330
146B
102
}
330
146B
100
AcDbXrecord
280
     1
340
0
  0
XRECORD
  5
1481
102
{ACAD_REACTORS
330
146B
102
}
330
146B
100
AcDbXrecord
280
     1
 10
0.0
 20
0.0
 30
0.0
  0
XRECORD
  5
147D
102
{ACAD_REACTORS
330
146B
102
}
330
146B
100
AcDbXrecord
280
     1
 10
0.0
 20
0.0
 30
0.0
  0
XRECORD
  5
1480
102
{ACAD_REACTORS
330
146B
102
}
330
146B
100
AcDbXrecord
280
     1
 10
0.0
 20
0.0
 30
0.0
  0
XRECORD
  5
147E
102
{ACAD_REACTORS
330
146B
102
}
330
146B
100
AcDbXrecord
280
     1
 10
0.0
 20
0.0
 30
0.0
  0
XRECORD
  5
147F
102
{ACAD_REACTORS
330
146B
102
}
330
146B
100
AcDbXrecord
280
     1
 10
0.0
 20
0.0
 30
0.0
  0
XRECORD
  5
147C
102
{ACAD_REACTORS
330
146B
102
}
330
146B
100
AcDbXrecord
280
     1
 10
0.0
 20
0.0
 30
0.0
  0
XRECORD
  5
1479
102
{ACAD_REACTORS
330
146B
102
}
330
146B
100
AcDbXrecord
280
     1
340
0
  0
XRECORD
  5
147A
102
{ACAD_REACTORS
330
146B
102
}
330
146B
100
AcDbXrecord
280
     1
 70
     0
  0
XRECORD
  5
146F
102
{ACAD_REACTORS
330
146B
102
}
330
146B
100
AcDbXrecord
280
     1
  1

  0
XRECORD
  5
146C
102
{ACAD_REACTORS
330
146B
102
}
330
146B
100
AcDbXrecord
280
     1
 90
        1
  0
XRECORD
  5
146D
102
{ACAD_REACTORS
330
146B
102
}
330
146B
100
AcDbXrecord
280
     1
 90
       70
  0
XRECORD
  5
1484
102
{ACAD_REACTORS
330
146B
102
}
330
146B
100
AcDbXrecord
280
     1
340
0
  0
XRECORD
  5
148A
102
{ACAD_REACTORS
330
146B
102
}
330
146B
100
AcDbXrecord
280
     1
 10
0.0
 20
0.0
 30
0.0
  0
XRECORD
  5
1486
102
{ACAD_REACTORS
330
146B
102
}
330
146B
100
AcDbXrecord
280
     1
 10
0.0
 20
0.0
 30
0.0
  0
XRECORD
  5
1489
102
{ACAD_REACTORS
330
146B
102
}
330
146B
100
AcDbXrecord
280
     1
 10
0.0
 20
0.0
 30
0.0
  0
XRECORD
  5
1487
102
{ACAD_REACTORS
330
146B
102
}
330
146B
100
AcDbXrecord
280
     1
 10
0.0
 20
0.0
 30
0.0
  0
XRECORD
  5
1488
102
{ACAD_REACTORS
330
146B
102
}
330
146B
100
AcDbXrecord
280
     1
 10
0.0
 20
0.0
 30
0.0
  0
XRECORD
  5
1485
102
{ACAD_REACTORS
330
146B
102
}
330
146B
100
AcDbXrecord
280
     1
 10
0.0
 20
0.0
 30
0.0
  0
XRECORD
  5
1482
102
{ACAD_REACTORS
330
146B
102
}
330
146B
100
AcDbXrecord
280
     1
340
0
  0
XRECORD
  5
1483
102
{ACAD_REACTORS
330
146B
102
}
330
146B
100
AcDbXrecord
280
     1
 70
     0
  0
XRECORD
  5
1477
102
{ACAD_REACTORS
330
146B
102
}
330
146B
100
AcDbXrecord
280
     1
  1
{8AA1AE67-2051-41D9-8D99-656BD5C6E343}
  0
DICTIONARYVAR
  5
AEA
102
{ACAD_REACTORS
330
AE8
102
}
330
AE8
100
DictionaryVariables
280
     0
  1
2
  0
DICTIONARYVAR
  5
AE9
102
{ACAD_REACTORS
330
AE8
102
}
330
AE8
100
DictionaryVariables
280
     0
  1
1
  0
ENDSEC
  0
EOF
