  0
SECTION
  2
HEADER
  9
$ACADVER
  1
AC1015
  9
$ACADMAINTVER
 70
     6
  9
$DWGCODEPAGE
  3
ANSI_932
  9
$INSBASE
 10
0.0
 20
0.0
 30
0.0
  9
$EXTMIN
 10
1338.706656603361
 20
-3611.475718225897
 30
0.0
  9
$EXTMAX
 10
1619.590850515364
 20
-3161.994990278253
 30
0.0
  9
$LIMMIN
 10
0.0
 20
0.0
  9
$LIMMAX
 10
420.0
 20
297.0
  9
$ORTHOMODE
 70
     0
  9
$REGENMODE
 70
     1
  9
$FILLMODE
 70
     1
  9
$QTEXTMODE
 70
     0
  9
$MIRRTEXT
 70
     1
  9
$LTSCALE
 40
1.0
  9
$ATTMODE
 70
     1
  9
$TEXTSIZE
 40
3.799999999999999
  9
$TRACEWID
 40
1.0
  9
$TEXTSTYLE
  7
STANDARD
  9
$CLAYER
  8
0
  9
$CELTYPE
  6
BYLAYER
  9
$CECOLOR
 62
   256
  9
$CELTSCALE
 40
1.0
  9
$DISPSILH
 70
     0
  9
$DIMSCALE
 40
1.0
  9
$DIMASZ
 40
2.5
  9
$DIMEXO
 40
1.0
  9
$DIMDLI
 40
8.0
  9
$DIMRND
 40
0.0
  9
$DIMDLE
 40
0.0
  9
$DIMEXE
 40
1.0
  9
$DIMTP
 40
0.0
  9
$DIMTM
 40
0.0
  9
$DIMTXT
 40
2.5
  9
$DIMCEN
 40
0.0
  9
$DIMTSZ
 40
0.0
  9
$DIMTOL
 70
     0
  9
$DIMLIM
 70
     0
  9
$DIMTIH
 70
     0
  9
$DIMTOH
 70
     0
  9
$DIMSE1
 70
     0
  9
$DIMSE2
 70
     0
  9
$DIMTAD
 70
     3
  9
$DIMZIN
 70
     9
  9
$DIMBLK
  1
Open
  9
$DIMASO
 70
     1
  9
$DIMSHO
 70
     1
  9
$DIMPOST
  1

  9
$DIMAPOST
  1

  9
$DIMALT
 70
     0
  9
$DIMALTD
 70
     2
  9
$DIMALTF
 40
25.4
  9
$DIMLFAC
 40
1.0
  9
$DIMTOFL
 70
     1
  9
$DIMTVP
 40
0.0
  9
$DIMTIX
 70
     0
  9
$DIMSOXD
 70
     0
  9
$DIMSAH
 70
     0
  9
$DIMBLK1
  1

  9
$DIMBLK2
  1

  9
$DIMSTYLE
  2
iai
  9
$DIMCLRD
 70
     3
  9
$DIMCLRE
 70
     3
  9
$DIMCLRT
 70
     2
  9
$DIMTFAC
 40
1.0
  9
$DIMGAP
 40
1.0
  9
$DIMJUST
 70
     0
  9
$DIMSD1
 70
     0
  9
$DIMSD2
 70
     0
  9
$DIMTOLJ
 70
     1
  9
$DIMTZIN
 70
    12
  9
$DIMALTZ
 70
     0
  9
$DIMALTTZ
 70
     0
  9
$DIMUPT
 70
     0
  9
$DIMDEC
 70
     5
  9
$DIMTDEC
 70
     5
  9
$DIMALTU
 70
     2
  9
$DIMALTTD
 70
     2
  9
$DIMTXSTY
  7
romans
  9
$DIMAUNIT
 70
     0
  9
$DIMADEC
 70
     5
  9
$DIMALTRND
 40
0.0
  9
$DIMAZIN
 70
     2
  9
$DIMDSEP
 70
    46
  9
$DIMATFIT
 70
     3
  9
$DIMFRAC
 70
     2
  9
$DIMLDRBLK
  1
Open
  9
$DIMLUNIT
 70
     2
  9
$DIMLWD
 70
    -1
  9
$DIMLWE
 70
    -1
  9
$DIMTMOVE
 70
     0
  9
$LUNITS
 70
     2
  9
$LUPREC
 70
     4
  9
$SKETCHINC
 40
1.0
  9
$FILLETRAD
 40
10.0
  9
$AUNITS
 70
     0
  9
$AUPREC
 70
     0
  9
$MENU
  1
acad
  9
$ELEVATION
 40
0.0
  9
$PELEVATION
 40
0.0
  9
$THICKNESS
 40
0.0
  9
$LIMCHECK
 70
     0
  9
$CHAMFERA
 40
10.0
  9
$CHAMFERB
 40
10.0
  9
$CHAMFERC
 40
20.0
  9
$CHAMFERD
 40
0.0
  9
$SKPOLY
 70
     0
  9
$TDCREATE
 40
2452240.643004375
  9
$TDUCREATE
 40
2452240.268004375
  9
$TDUPDATE
 40
2456868.693110995
  9
$TDUUPDATE
 40
2456868.318110995
  9
$TDINDWG
 40
1.9595990972
  9
$TDUSRTIMER
 40
2456868.161791655
  9
$USRTIMER
 70
     1
  9
$ANGBASE
 50
0.0
  9
$ANGDIR
 70
     0
  9
$PDMODE
 70
     0
  9
$PDSIZE
 40
0.0
  9
$PLINEWID
 40
0.0
  9
$SPLFRAME
 70
     0
  9
$SPLINETYPE
 70
     6
  9
$SPLINESEGS
 70
     8
  9
$HANDSEED
  5
1AF2A
  9
$SURFTAB1
 70
     6
  9
$SURFTAB2
 70
     6
  9
$SURFTYPE
 70
     6
  9
$SURFU
 70
     6
  9
$SURFV
 70
     6
  9
$UCSBASE
  2

  9
$UCSNAME
  2

  9
$UCSORG
 10
0.0
 20
0.0
 30
0.0
  9
$UCSXDIR
 10
1.0
 20
0.0
 30
0.0
  9
$UCSYDIR
 10
0.0
 20
1.0
 30
0.0
  9
$UCSORTHOREF
  2

  9
$UCSORTHOVIEW
 70
     0
  9
$UCSORGTOP
 10
0.0
 20
0.0
 30
0.0
  9
$UCSORGBOTTOM
 10
0.0
 20
0.0
 30
0.0
  9
$UCSORGLEFT
 10
0.0
 20
0.0
 30
0.0
  9
$UCSORGRIGHT
 10
0.0
 20
0.0
 30
0.0
  9
$UCSORGFRONT
 10
0.0
 20
0.0
 30
0.0
  9
$UCSORGBACK
 10
0.0
 20
0.0
 30
0.0
  9
$PUCSBASE
  2

  9
$PUCSNAME
  2

  9
$PUCSORG
 10
0.0
 20
0.0
 30
0.0
  9
$PUCSXDIR
 10
1.0
 20
0.0
 30
0.0
  9
$PUCSYDIR
 10
0.0
 20
1.0
 30
0.0
  9
$PUCSORTHOREF
  2

  9
$PUCSORTHOVIEW
 70
     0
  9
$PUCSORGTOP
 10
0.0
 20
0.0
 30
0.0
  9
$PUCSORGBOTTOM
 10
0.0
 20
0.0
 30
0.0
  9
$PUCSORGLEFT
 10
0.0
 20
0.0
 30
0.0
  9
$PUCSORGRIGHT
 10
0.0
 20
0.0
 30
0.0
  9
$PUCSORGFRONT
 10
0.0
 20
0.0
 30
0.0
  9
$PUCSORGBACK
 10
0.0
 20
0.0
 30
0.0
  9
$USERI1
 70
     0
  9
$USERI2
 70
     0
  9
$USERI3
 70
     0
  9
$USERI4
 70
     0
  9
$USERI5
 70
     0
  9
$USERR1
 40
0.0
  9
$USERR2
 40
0.0
  9
$USERR3
 40
0.0
  9
$USERR4
 40
0.0
  9
$USERR5
 40
0.0
  9
$WORLDVIEW
 70
     1
  9
$SHADEDGE
 70
     3
  9
$SHADEDIF
 70
    70
  9
$TILEMODE
 70
     1
  9
$MAXACTVP
 70
    48
  9
$PINSBASE
 10
0.0
 20
0.0
 30
0.0
  9
$PLIMCHECK
 70
     0
  9
$PEXTMIN
 10
0.0
 20
0.0
 30
0.0
  9
$PEXTMAX
 10
420.0
 20
297.0
 30
0.0
  9
$PLIMMIN
 10
-4.911043744612356
 20
-4.921150662038712
  9
$PLIMMAX
 10
415.0779394096844
 20
292.0894999727268
  9
$UNITMODE
 70
     0
  9
$VISRETAIN
 70
     1
  9
$PLINEGEN
 70
     0
  9
$PSLTSCALE
 70
     1
  9
$TREEDEPTH
 70
  3020
  9
$CMLSTYLE
  2
STANDARD
  9
$CMLJUST
 70
     0
  9
$CMLSCALE
 40
20.0
  9
$PROXYGRAPHICS
 70
     1
  9
$MEASUREMENT
 70
     1
  9
$CELWEIGHT
370
    -1
  9
$ENDCAPS
280
     0
  9
$JOINSTYLE
280
     0
  9
$LWDISPLAY
290
     0
  9
$INSUNITS
 70
     0
  9
$HYPERLINKBASE
  1

  9
$STYLESHEET
  1

  9
$XEDIT
290
     1
  9
$CEPSNTYPE
380
     0
  9
$PSTYLEMODE
290
     1
  9
$FINGERPRINTGUID
  2
{6FDF5DD9-E1C4-4B83-93D0-8D8DAA8CABC8}
  9
$VERSIONGUID
  2
{711B51D3-04CD-4E16-97BD-C97BF3C59690}
  9
$EXTNAMES
290
     1
  9
$PSVPSCALE
 40
0.0
  9
$OLESTARTUP
290
     0
  0
ENDSEC
  0
SECTION
  2
CLASSES
  0
CLASS
  1
LWPOLYLINE
  2
AcDbPolyline
  3
AutoCAD 2000
 90
    32768
280
     0
281
     1
  0
CLASS
  1
HATCH
  2
AcDbHatch
  3
AutoCAD 2000
 90
    32768
280
     0
281
     1
  0
CLASS
  1
ACDBDICTIONARYWDFLT
  2
AcDbDictionaryWithDefault
  3
AutoCAD 2000
 90
        0
280
     0
281
     0
  0
CLASS
  1
ACDBPLACEHOLDER
  2
AcDbPlaceHolder
  3
AutoCAD 2000
 90
        0
280
     0
281
     0
  0
CLASS
  1
LAYOUT
  2
AcDbLayout
  3
AutoCAD 2000
 90
        0
280
     0
281
     0
  0
CLASS
  1
DICTIONARYVAR
  2
AcDbDictionaryVar
  3
AutoCAD 2000
 90
        0
280
     0
281
     0
  0
CLASS
  1
LONG_TRANSACTION
  2
AcDbLongTransaction
  3
AutoCAD 2000
 90
    32768
280
     0
281
     0
  0
CLASS
  1
LWPOLYLINE
  2
AcDbPolyline
  3
AutoCAD 2000
 90
    32768
280
     0
281
     1
  0
CLASS
  1
HATCH
  2
AcDbHatch
  3
AutoCAD 2000
 90
    32768
280
     0
281
     1
  0
CLASS
  1
XRECORD
  2
AcDbXrecord
  3
AutoCAD 2000
 90
    32768
280
     0
281
     0
  0
CLASS
  1
OLE2FRAME
  2
AcDbOle2Frame
  3
AutoCAD 2000
 90
    32768
280
     0
281
     1
  0
CLASS
  1
SORTENTSTABLE
  2
AcDbSortentsTable
  3
AutoCAD 2000
 90
        0
280
     0
281
     0
  0
CLASS
  1
VISUALSTYLE
  2
AcDbVisualStyle
  3
ObjectDBX Classes
 90
    36863
280
     0
281
     0
  0
CLASS
  1
SCALE
  2
AcDbScale
  3
ObjectDBX Classes
 90
     1153
280
     0
281
     0
  0
CLASS
  1
MATERIAL
  2
AcDbMaterial
  3
ObjectDBX Classes
 90
    33921
280
     0
281
     0
  0
CLASS
  1
TABLESTYLE
  2
AcDbTableStyle
  3
ObjectDBX Classes
 90
    36863
280
     0
281
     0
  0
CLASS
  1
SUN
  2
AcDbSun
  3
SCENEOE
 90
    33921
280
     0
281
     0
  0
CLASS
  1
RASTERVARIABLES
  2
AcDbRasterVariables
  3
ISM
 90
        0
280
     0
281
     0
  0
ENDSEC
  0
SECTION
  2
TABLES
  0
TABLE
  2
VPORT
  5
8
330
0
100
AcDbSymbolTable
 70
     2
  0
VPORT
  5
1AF08
330
8
100
AcDbSymbolTableRecord
100
AcDbViewportTableRecord
  2
*Active
 70
     0
 10
0.0
 20
0.0
 11
1.0
 21
1.0
 12
1528.264204825041
 22
-3364.075831413201
 13
0.0
 23
0.0
 14
10.0
 24
10.0
 15
10.0
 25
10.0
 16
0.0
 26
0.0
 36
1.0
 17
0.0
 27
0.0
 37
0.0
 40
499.3800775385152
 41
2.319634703196347
 42
50.0
 43
0.0
 44
0.0
 50
0.0
 51
0.0
 71
    16
 72
   100
 73
     1
 74
     1
 75
     0
 76
     0
 77
     0
 78
     0
281
     0
 65
     1
110
0.0
120
0.0
130
0.0
111
1.0
121
0.0
131
0.0
112
0.0
122
1.0
132
0.0
 79
     0
146
0.0
  0
ENDTAB
  0
TABLE
  2
LTYPE
  5
5
330
0
100
AcDbSymbolTable
 70
     1
  0
LTYPE
  5
12
330
5
100
AcDbSymbolTableRecord
100
AcDbLinetypeTableRecord
  2
BYBLOCK
 70
     0
  3

 72
    65
 73
     0
 40
0.0
  0
LTYPE
  5
13
330
5
100
AcDbSymbolTableRecord
100
AcDbLinetypeTableRecord
  2
BYLAYER
 70
     0
  3

 72
    65
 73
     0
 40
0.0
  0
LTYPE
  5
14
330
5
100
AcDbSymbolTableRecord
100
AcDbLinetypeTableRecord
  2
CONTINUOUS
 70
     0
  3
Solid line
 72
    65
 73
     0
 40
0.0
  0
ENDTAB
  0
TABLE
  2
LAYER
  5
2
102
{ACAD_XDICTIONARY
360
10A43
102
}
330
0
100
AcDbSymbolTable
 70
     8
  0
LAYER
  5
E
330
2
100
AcDbSymbolTableRecord
100
AcDbLayerTableRecord
  2
0
 70
     0
 62
     7
  6
CONTINUOUS
370
    -3
390
1B72
  0
LAYER
  5
24
330
2
100
AcDbSymbolTableRecord
100
AcDbLayerTableRecord
  2
図面範囲
 70
     0
 62
    -7
  6
CONTINUOUS
370
    -3
390
1B72
  0
LAYER
  5
2E
330
2
100
AcDbSymbolTableRecord
100
AcDbLayerTableRecord
  2
外枠
 70
     0
 62
     7
  6
CONTINUOUS
370
    -3
390
1B72
  0
LAYER
  5
10A
330
2
100
AcDbSymbolTableRecord
100
AcDbLayerTableRecord
  2
VIEWPORT枠
 70
     0
 62
    -7
  6
CONTINUOUS
370
    -3
390
1B72
  0
LAYER
  5
16C
330
2
100
AcDbSymbolTableRecord
100
AcDbLayerTableRecord
  2
DEFPOINTS
 70
     0
 62
    -7
  6
CONTINUOUS
290
     0
370
    -3
390
1B72
  0
LAYER
  5
172
330
2
100
AcDbSymbolTableRecord
100
AcDbLayerTableRecord
  2
1
 70
     0
 62
     3
  6
CONTINUOUS
370
    -3
390
1B72
  0
LAYER
  5
10A42
330
2
100
AcDbSymbolTableRecord
100
AcDbLayerTableRecord
  2
3_表示パネル
 70
     0
 62
     7
  6
CONTINUOUS
370
    -3
390
1B72
  0
LAYER
  5
16E9E
330
2
100
AcDbSymbolTableRecord
100
AcDbLayerTableRecord
  2
外形
 70
     0
 62
     3
  6
CONTINUOUS
370
    25
390
1B72
  0
ENDTAB
  0
TABLE
  2
STYLE
  5
3
330
0
100
AcDbSymbolTable
 70
     3
  0
STYLE
  5
F
330
3
100
AcDbSymbolTableRecord
100
AcDbTextStyleTableRecord
  2
STANDARD
 70
     0
 40
0.0
 41
0.8
 50
0.0
 71
     0
 42
3.799999999999999
  3
txt.shx
  4

  0
STYLE
  5
2F
330
3
100
AcDbSymbolTableRecord
100
AcDbTextStyleTableRecord
  2
BIGFONT
 70
     0
 40
0.0
 41
1.0
 50
0.0
 71
     0
 42
1.913529
  3
txt
  4
bigfont
  0
STYLE
  5
1AA93
330
3
100
AcDbSymbolTableRecord
100
AcDbTextStyleTableRecord
  2
romans
 70
     0
 40
0.0
 41
0.8
 50
0.0
 71
     0
 42
3.5
  3
romans.shx
  4
bigfont.shx
  0
ENDTAB
  0
TABLE
  2
VIEW
  5
6
330
0
100
AcDbSymbolTable
 70
     0
  0
ENDTAB
  0
TABLE
  2
UCS
  5
7
330
0
100
AcDbSymbolTable
 70
     0
  0
ENDTAB
  0
TABLE
  2
APPID
  5
9
330
0
100
AcDbSymbolTable
 70
     5
  0
APPID
  5
10
330
9
100
AcDbSymbolTableRecord
100
AcDbRegAppTableRecord
  2
ACAD
 70
     0
  0
APPID
  5
309
330
9
100
AcDbSymbolTableRecord
100
AcDbRegAppTableRecord
  2
CONTENTBLOCKDESCRIPTION
 70
     0
  0
APPID
  5
30B
330
9
100
AcDbSymbolTableRecord
100
AcDbRegAppTableRecord
  2
CONTENTTABDATA
 70
     0
  0
APPID
  5
30C
330
9
100
AcDbSymbolTableRecord
100
AcDbRegAppTableRecord
  2
CONTENTCURRENTTAB
 70
     0
  0
APPID
  5
348
330
9
100
AcDbSymbolTableRecord
100
AcDbRegAppTableRecord
  2
CONTENTBLOCKICON
 70
     0
  0
ENDTAB
  0
TABLE
  2
DIMSTYLE
  5
A
330
0
100
AcDbSymbolTable
 70
     1
100
AcDbDimStyleTable
 71
     1
340
1AA94
  0
DIMSTYLE
105
1AA94
330
A
100
AcDbSymbolTableRecord
100
AcDbDimStyleTableRecord
  2
iai
 70
     0
 41
2.5
 42
1.0
 43
8.0
 44
1.0
 73
     0
 74
     0
 77
     3
 78
     9
 79
     2
140
2.5
141
0.0
147
1.0
172
     1
176
     3
177
     3
178
     2
179
     5
271
     5
272
     5
276
     2
284
    12
340
1AA93
341
1AA01
342
1AA01
371
    -1
372
    -1
  0
ENDTAB
  0
TABLE
  2
BLOCK_RECORD
  5
1
330
0
100
AcDbSymbolTable
 70
     7
  0
BLOCK_RECORD
  5
18
102
{ACAD_XDICTIONARY
360
87B9
102
}
330
1
100
AcDbSymbolTableRecord
100
AcDbBlockTableRecord
  2
*MODEL_SPACE
340
1B75
  0
BLOCK_RECORD
  5
1A4A9
330
1
100
AcDbSymbolTableRecord
100
AcDbBlockTableRecord
  2
*PAPER_SPACE
340
1A501
  0
BLOCK_RECORD
  5
2A
330
1
100
AcDbSymbolTableRecord
100
AcDbBlockTableRecord
  2
A$C338010C9
340
0
310
280000002000000020000000010004000000000000020000000000000000000000000000000000000000000000008000008000000080800080000000800080008080000080808000C0C0C0000000FF0000FF000000FFFF00FF000000FF00FF00FFFF0000FFFFFF00FFFFFFFFFFFFFFFFFFFFFFFFFFFFFFFFFFFFFFFFFFFFFF
310
FFFFFFFFFFFFFFFFFFFFFFFFFFFFFFFFFFFFFFFFFFFFFFFFFFFFFFFFFFFFFFFFFFFFFFFFFFFFFFFFFFFFFFFFFFFFFFFFFFFFFFFFFFFFFFFFFFFFFFFFFFFFFFFFFFFFFFFFFFFFFFFFFFFFFFFFFFFFFFFFFFFFFFFFFFFFFFFFFFFFFFFFFFFFFFFFFFFFFFFFFFFFFFFFFFFFFFFFFFFFFFFFFFFFFFFFFFFFFFFFFFFFFFFFFFFFFF
310
FFFFFFFFFFFFFFFFFFFFFFFFFFFFFFFFFFFFFFFFFFFFFFFFFFFFFFFFFFFFFFFFFFFFFFFFFFFFFFFFFFFFFFFFFFFFFFFFFFFFFFFFFFFFFFFFFFFFFFFFFFFFFFFFFFFFFFFFFFFFFFFFFFFFFFFFFFFFFFFFFFFFFFFFFFFFFFFFFFFF0F0F0F0FF0F0FFF00F0F0F0F00F0F00F0F000F0F0FF0FFF0FFF00F00000F000F0FF00F0F0F
310
0F0FF00FFF00FF0FF0F0FF0FF0FF0FFFFFFFFFFFFFFFFFFFFFFFFFFFFFFFFFFFFFFFFFFFFFFFFFFFFFFFFFFFFFFFFFFFFFFFFFFFFFFFFFFFFFFFFFFFFFFFFFFFFFFFFFFFFFFFFFFFFFFFFFFFFFFFFFFFFFFFFFFFFFFFFFFFFFFFFFFFFFFFFFFFFFFFFFFFFFFFFFFFFFFFFFFFFFFFFFFFFFFFFFFFFFFFFFFFFFFFFFFFFFFFFF
310
FFFFFFFFFFFFFFFFFFFFFFFFFFFFFFFFFFFFFFFFFFFFFFFFFFFFFFFFFFFFFFFFFFFFFFFFFFFFFFFFFFFFFFFFFFFFFFFFFFFFFFFFFFFFFFFFFFFFFFFFFFFFFFFFFFFFFFFFFFFFFFFFFFFFFFFFFFFFFFFFFFFFFFFFFFFFFFFFFFFFFFFFFFFFFFFFFFFFFFFFFFFFFFFFFFFFFFFF
102
{BLKREFS
331
1A4FA
102
}
  0
BLOCK_RECORD
  5
D7E3
330
1
100
AcDbSymbolTableRecord
100
AcDbBlockTableRecord
  2
A$C35844AFD
340
0
102
{BLKREFS
331
18084
102
}
  0
BLOCK_RECORD
  5
FD45
330
1
100
AcDbSymbolTableRecord
100
AcDbBlockTableRecord
  2
A$C413B70EE
340
0
102
{BLKREFS
331
FE1A
102
}
  0
BLOCK_RECORD
  5
FE19
330
1
100
AcDbSymbolTableRecord
100
AcDbBlockTableRecord
  2
A$C40301A48
340
0
102
{BLKREFS
331
18085
102
}
  0
BLOCK_RECORD
  5
19F7E
330
1
100
AcDbSymbolTableRecord
100
AcDbBlockTableRecord
  2
A$C60EC01A6
340
0
102
{BLKREFS
331
19FF3
102
}
  0
BLOCK_RECORD
  5
1A1B9
330
1
100
AcDbSymbolTableRecord
100
AcDbBlockTableRecord
  2
A$C582506EE
340
0
102
{BLKREFS
331
1A360
102
}
  0
BLOCK_RECORD
  5
1AA01
330
1
100
AcDbSymbolTableRecord
100
AcDbBlockTableRecord
  2
_Open
340
0
  0
ENDTAB
  0
ENDSEC
  0
SECTION
  2
BLOCKS
  0
BLOCK
  5
19
330
18
100
AcDbEntity
  8
0
100
AcDbBlockBegin
  2
*MODEL_SPACE
 70
     0
 10
0.0
 20
0.0
 30
0.0
  3
*MODEL_SPACE
  1
*MODEL_SPACE
  0
ENDBLK
  5
1A
330
18
100
AcDbEntity
  8
0
100
AcDbBlockEnd
  0
BLOCK
  5
1A4FF
330
1A4A9
100
AcDbEntity
 67
     1
  8
0
100
AcDbBlockBegin
  2
*PAPER_SPACE
 70
     0
 10
0.0
 20
0.0
 30
0.0
  3
*PAPER_SPACE
  1
*PAPER_SPACE
  0
ENDBLK
  5
1A500
330
1A4A9
100
AcDbEntity
 67
     1
  8
0
100
AcDbBlockEnd
  0
BLOCK
  5
2C
330
2A
100
AcDbEntity
  8
0
100
AcDbBlockBegin
  2
A$C338010C9
 70
     0
 10
0.0
 20
0.0
 30
0.0
  3
A$C338010C9
  1
A$C338010C9
  0
HATCH
  5
2B
330
2A
100
AcDbEntity
  8
0
100
AcDbHatch
 10
0.0
 20
0.0
 30
0.0
210
0.0
220
0.0
230
1.0
  2
SOLID
 70
     1
 71
     0
 91
       21
 92
        1
 93
        4
 72
     1
 10
0.0
 20
2.678357
 11
2.678357
 21
19.046092
 72
     1
 10
2.678357
 20
19.046092
 11
6.844689999999999
 21
19.046092
 72
     1
 10
6.844689999999999
 20
19.046092
 11
3.868737999999999
 21
2.678356999999998
 72
     1
 10
3.868737999999999
 20
2.678357
 11
0.0
 21
2.678357
 97
        0
 92
       16
 93
        3
 72
     1
 10
19.04609299999999
 20
14.87976
 11
20.23647299999999
 21
8.927856
 72
     1
 10
20.23647299999999
 20
8.927856
 11
15.77254599999999
 21
8.927856
 72
     1
 10
15.77254599999999
 20
8.927856
 11
19.04609299999999
 21
14.87976
 97
        0
 92
        1
 93
        8
 72
     1
 10
12.20140299999999
 20
2.678357
 11
13.98697399999999
 21
5.951903999999999
 72
     1
 10
13.98697399999999
 20
5.951903999999999
 11
20.831664
 21
5.951903999999999
 72
     1
 10
20.831664
 20
5.951903999999999
 11
21.426854
 21
2.678357
 72
     1
 10
21.426854
 20
2.678357
 11
25.593187
 21
2.678357
 72
     1
 10
25.593187
 20
2.678357
 11
22.022045
 21
19.046092
 72
     1
 10
22.022045
 20
19.046092
 11
17.558117
 21
19.046092
 72
     1
 10
17.558117
 20
19.046092
 11
8.035071
 21
2.678356999999998
 72
     1
 10
8.035071
 20
2.678357
 11
12.20140299999999
 21
2.678357
 97
        0
 92
        1
 93
        4
 72
     1
 10
30.35470999999999
 20
2.678357
 11
33.33066199999999
 21
19.046092
 72
     1
 10
33.33066199999999
 20
19.046092
 11
37.19939899999999
 21
19.046092
 72
     1
 10
37.19939899999999
 20
19.046092
 11
34.223447
 21
2.678356999999998
 72
     1
 10
34.223447
 20
2.678357
 11
30.35470999999999
 21
2.678357
 97
        0
 92
        1
 93
       53
 72
     1
 10
58.031063
 20
14.284569
 11
57.138277
 21
16.07014099999999
 72
     1
 10
57.138277
 20
16.07014099999999
 11
56.245491
 21
16.66533099999999
 72
     1
 10
56.245491
 20
16.66533099999999
 11
55.05511099999999
 21
17.260521
 72
     1
 10
55.05511099999999
 20
17.260521
 11
53.86473
 21
17.558116
 72
     1
 10
53.86473
 20
17.558116
 11
52.376754
 21
17.558116
 72
     1
 10
52.376754
 20
17.558116
 11
50.888778
 21
17.558116
 72
     1
 10
50.888778
 20
17.558116
 11
49.10320699999999
 21
17.260521
 72
     1
 10
49.10320699999999
 20
17.260521
 11
47.912826
 21
16.66533099999999
 72
     1
 10
47.912826
 20
16.66533099999999
 11
46.722445
 21
15.772545
 72
     1
 10
46.722445
 20
15.772545
 11
45.23446899999999
 21
14.58216499999999
 72
     1
 10
45.23446899999999
 20
14.58216499999999
 11
44.34168399999999
 21
13.39178399999999
 72
     1
 10
44.34168399999999
 20
13.39178399999999
 11
43.746493
 21
11.903808
 72
     1
 10
43.746493
 20
11.903808
 11
43.151303
 21
10.11823699999999
 72
     1
 10
43.151303
 20
10.11823699999999
 11
42.853708
 21
8.332665999999999
 72
     1
 10
42.853708
 20
8.332665999999999
 11
43.151303
 21
6.844689999999999
 72
     1
 10
43.151303
 20
6.844689999999999
 11
43.746493
 21
5.654308999999999
 72
     1
 10
43.746493
 20
5.654308999999999
 11
44.34168399999999
 21
4.463928
 72
     1
 10
44.34168399999999
 20
4.463928
 11
45.532065
 21
3.571143
 72
     1
 10
45.532065
 20
3.571143
 11
46.722445
 21
2.975951999999999
 72
     1
 10
46.722445
 20
2.975951999999999
 11
48.210421
 21
2.678357
 72
     1
 10
48.210421
 20
2.678357
 11
49.698397
 21
2.678357
 72
     1
 10
49.698397
 20
2.678357
 11
51.18637299999999
 21
2.678357
 72
     1
 10
51.18637299999999
 20
2.678357
 11
52.674349
 21
2.975951999999999
 72
     1
 10
52.674349
 20
2.975951999999999
 11
53.86473
 21
3.273547
 72
     1
 10
53.86473
 20
3.273547
 11
55.05511099999999
 21
3.868737999999999
 72
     1
 10
55.05511099999999
 20
3.868737999999999
 11
55.94789599999999
 21
4.761523
 72
     1
 10
55.94789599999999
 20
4.761523
 11
56.543087
 21
5.654308999999999
 72
     1
 10
56.543087
 20
5.654308999999999
 11
57.138277
 21
6.844689999999999
 72
     1
 10
57.138277
 20
6.844689999999999
 11
57.73346700000001
 21
8.035069999999999
 72
     1
 10
57.73346700000001
 20
8.035069999999999
 11
54.45992
 21
8.035069999999999
 72
     1
 10
54.45992
 20
8.035069999999999
 11
53.86473
 21
6.844689999999999
 72
     1
 10
53.86473
 20
6.844689999999999
 11
52.97194399999999
 21
5.951903999999999
 72
     1
 10
52.97194399999999
 20
5.951903999999999
 11
51.781564
 21
5.356714
 72
     1
 10
51.781564
 20
5.356714
 11
50.293588
 21
5.059117999999999
 72
     1
 10
50.293588
 20
5.059117999999999
 11
48.508016
 21
5.356714
 72
     1
 10
48.508016
 20
5.356714
 11
47.31763599999999
 21
6.249499
 72
     1
 10
47.31763599999999
 20
6.249499
 11
47.02004099999999
 21
6.844689999999999
 72
     1
 10
47.02004099999999
 20
6.844689999999999
 11
46.42484999999999
 21
7.737474999999999
 72
     1
 10
46.42484999999999
 20
7.737474999999999
 11
46.42484999999999
 21
8.927856
 72
     1
 10
46.42484999999999
 20
8.927856
 11
46.722445
 21
10.11823699999999
 72
     1
 10
46.722445
 20
10.11823699999999
 11
47.02004099999999
 21
11.308617
 72
     1
 10
47.02004099999999
 20
11.308617
 11
47.31763599999999
 21
12.498998
 72
     1
 10
47.31763599999999
 20
12.498998
 11
47.912826
 21
13.39178399999999
 72
     1
 10
47.912826
 20
13.39178399999999
 11
48.80561199999999
 21
13.98697399999999
 72
     1
 10
48.80561199999999
 20
13.98697399999999
 11
50.293588
 21
14.87976
 72
     1
 10
50.293588
 20
14.87976
 11
51.781564
 21
15.17735499999999
 72
     1
 10
51.781564
 20
15.17735499999999
 11
53.26954
 21
14.87976
 72
     1
 10
53.26954
 20
14.87976
 11
54.45992
 21
14.284569
 72
     1
 10
54.45992
 20
14.284569
 11
54.75751500000001
 21
13.39178399999999
 72
     1
 10
54.75751500000001
 20
13.39178399999999
 11
55.05511099999999
 21
12.498998
 72
     1
 10
55.05511099999999
 20
12.498998
 11
58.328658
 21
12.498998
 72
     1
 10
58.328658
 20
12.498998
 11
58.328658
 21
13.39178399999999
 72
     1
 10
58.328658
 20
13.39178399999999
 11
58.031063
 21
14.284569
 97
        0
 92
        1
 93
       14
 72
     1
 10
78.26753499999999
 20
13.094189
 11
77.37475
 21
12.498998
 72
     1
 10
77.37475
 20
12.498998
 11
76.77956
 21
11.903808
 72
     1
 10
76.77956
 20
11.903808
 11
77.077155
 21
13.689379
 72
     1
 10
77.077155
 20
13.689379
 11
73.50601199999999
 21
13.689379
 72
     1
 10
73.50601199999999
 20
13.689379
 11
71.720441
 21
2.678357
 72
     1
 10
71.720441
 20
2.678357
 11
74.993988
 21
2.678357
 72
     1
 10
74.993988
 20
2.678357
 11
76.18436899999998
 21
8.927856
 72
     1
 10
76.18436899999998
 20
8.927856
 11
76.77956
 21
10.11823699999999
 72
     1
 10
76.77956
 20
10.11823699999999
 11
77.67234499999999
 21
10.713427
 72
     1
 10
77.67234499999999
 20
10.713427
 11
78.86272599999999
 21
11.011022
 72
     1
 10
78.86272599999999
 20
11.011022
 11
80.053107
 21
10.713427
 72
     1
 10
80.053107
 20
10.713427
 11
80.648297
 21
13.689379
 72
     1
 10
80.648297
 20
13.689379
 11
79.45791599999999
 21
13.689379
 72
     1
 10
79.45791599999999
 20
13.689379
 11
78.26753499999999
 21
13.094189
 97
        0
 92
        1
 93
       14
 72
     1
 10
113.681363
 20
13.094189
 11
112.7885779999999
 21
12.498998
 72
     1
 10
112.7885779999999
 20
12.498998
 11
111.8957919999999
 21
11.903808
 72
     1
 10
111.8957919999999
 20
11.903808
 11
112.193387
 21
13.689379
 72
     1
 10
112.193387
 20
13.689379
 11
108.9198399999999
 21
13.689379
 72
     1
 10
108.9198399999999
 20
13.689379
 11
107.1342689999999
 21
2.678357
 72
     1
 10
107.1342689999999
 20
2.678357
 11
110.407816
 21
2.678357
 72
     1
 10
110.407816
 20
2.678357
 11
111.5981969999999
 21
8.927856
 72
     1
 10
111.5981969999999
 20
8.927856
 11
112.193387
 21
10.11823699999999
 72
     1
 10
112.193387
 20
10.11823699999999
 11
113.086173
 21
10.713427
 72
     1
 10
113.086173
 20
10.713427
 11
114.276554
 21
11.011022
 72
     1
 10
114.276554
 20
11.011022
 11
115.466934
 21
10.713427
 72
     1
 10
115.466934
 20
10.713427
 11
116.0621249999999
 21
13.689379
 72
     1
 10
116.0621249999999
 20
13.689379
 11
114.8717439999999
 21
13.689379
 72
     1
 10
114.8717439999999
 20
13.689379
 11
113.681363
 21
13.094189
 97
        0
 92
        1
 93
       24
 72
     1
 10
133.917836
 20
13.39178399999999
 11
133.917836
 21
13.689379
 72
     1
 10
133.917836
 20
13.689379
 11
134.2154309999999
 21
16.36773599999999
 72
     1
 10
134.2154309999999
 20
16.36773599999999
 11
130.941884
 21
16.36773599999999
 72
     1
 10
130.941884
 20
16.36773599999999
 11
130.3466939999999
 21
13.689379
 72
     1
 10
130.3466939999999
 20
13.689379
 11
130.3466939999999
 21
13.39178399999999
 72
     1
 10
130.3466939999999
 20
13.39178399999999
 11
128.8587179999999
 21
13.39178399999999
 72
     1
 10
128.8587179999999
 20
13.39178399999999
 11
128.561123
 21
11.903808
 72
     1
 10
128.561123
 20
11.903808
 11
130.049099
 21
11.903808
 72
     1
 10
130.049099
 20
11.903808
 11
128.8587179999999
 21
4.463928
 72
     1
 10
128.8587179999999
 20
4.463928
 11
128.8587179999999
 21
3.571143
 72
     1
 10
128.8587179999999
 20
3.571143
 11
129.1563129999999
 21
2.975951999999999
 72
     1
 10
129.1563129999999
 20
2.975951999999999
 11
130.049099
 21
2.678357
 72
     1
 10
130.049099
 20
2.678357
 11
131.5370749999999
 21
2.380761999999999
 72
     1
 10
131.5370749999999
 20
2.380761999999999
 11
132.42986
 21
2.380761999999999
 72
     1
 10
132.42986
 20
2.380761999999999
 11
133.620241
 21
2.678357
 72
     1
 10
133.620241
 20
2.678357
 11
133.917836
 21
4.463928
 72
     1
 10
133.917836
 20
4.463928
 11
133.0250509999999
 21
4.463928
 72
     1
 10
133.0250509999999
 20
4.463928
 11
132.727455
 21
4.463928
 72
     1
 10
132.727455
 20
4.463928
 11
132.42986
 21
4.761523
 72
     1
 10
132.42986
 20
4.761523
 11
132.42986
 21
5.059117999999999
 72
     1
 10
132.42986
 20
5.059117999999999
 11
133.620241
 21
11.903808
 72
     1
 10
133.620241
 20
11.903808
 11
135.1082169999999
 21
11.903808
 72
     1
 10
135.1082169999999
 20
11.903808
 11
135.4058119999999
 21
13.39178399999999
 72
     1
 10
135.4058119999999
 20
13.39178399999999
 11
133.917836
 21
13.39178399999999
 97
        0
 92
        1
 93
        4
 72
     1
 10
136.893788
 20
13.39178399999999
 11
135.1082169999999
 21
2.678357
 72
     1
 10
135.1082169999999
 20
2.678357
 11
138.3817639999999
 21
2.678357
 72
     1
 10
138.3817639999999
 20
2.678357
 11
140.167335
 21
13.39178399999999
 72
     1
 10
140.167335
 20
13.39178399999999
 11
136.893788
 21
13.39178399999999
 97
        0
 92
        1
 93
        4
 72
     1
 10
137.4889779999999
 20
17.260521
 11
137.191383
 21
14.58216499999999
 72
     1
 10
137.191383
 20
14.58216499999999
 11
140.46493
 21
14.58216499999999
 72
     1
 10
140.46493
 20
14.58216499999999
 11
140.762525
 21
17.260521
 72
     1
 10
140.762525
 20
17.260521
 11
137.4889779999999
 21
17.260521
 97
        0
 92
        1
 93
       31
 72
     1
 10
166.0581169999999
 20
12.796593
 11
164.867736
 21
13.39178399999999
 72
     1
 10
164.867736
 20
13.39178399999999
 11
163.37976
 21
13.689379
 72
     1
 10
163.37976
 20
13.689379
 11
162.189379
 21
13.689379
 72
     1
 10
162.189379
 20
13.689379
 11
160.9989979999999
 21
13.39178399999999
 72
     1
 10
160.9989979999999
 20
13.39178399999999
 11
160.106213
 21
12.796593
 72
     1
 10
160.106213
 20
12.796593
 11
158.9158319999999
 21
12.20140299999999
 72
     1
 10
158.9158319999999
 20
12.20140299999999
 11
159.213427
 21
13.689379
 72
     1
 10
159.213427
 20
13.689379
 11
155.93988
 21
13.689379
 72
     1
 10
155.93988
 20
13.689379
 11
154.154309
 21
2.678357
 72
     1
 10
154.154309
 20
2.678357
 11
157.427856
 21
2.678357
 72
     1
 10
157.427856
 20
2.678357
 11
158.618237
 21
9.820641999999999
 72
     1
 10
158.618237
 20
9.820641999999999
 11
159.213427
 21
10.415832
 72
     1
 10
159.213427
 20
10.415832
 11
159.8086179999999
 21
11.011022
 72
     1
 10
159.8086179999999
 20
11.011022
 11
160.403808
 21
11.308617
 72
     1
 10
160.403808
 20
11.308617
 11
161.594189
 21
11.308617
 72
     1
 10
161.594189
 20
11.308617
 11
162.486974
 21
11.011022
 72
     1
 10
162.486974
 20
11.011022
 11
163.082165
 21
10.713427
 72
     1
 10
163.082165
 20
10.713427
 11
163.082165
 21
10.11823699999999
 72
     1
 10
163.082165
 20
10.11823699999999
 11
163.082165
 21
9.523046
 72
     1
 10
163.082165
 20
9.523046
 11
161.8917839999999
 21
2.678357
 72
     1
 10
161.8917839999999
 20
2.678357
 11
165.462926
 21
2.678357
 72
     1
 10
165.462926
 20
2.678357
 11
165.462926
 21
2.975951999999999
 72
     1
 10
165.462926
 20
2.975951999999999
 11
165.7605209999999
 21
3.868737999999999
 72
     1
 10
165.7605209999999
 20
3.868737999999999
 11
165.7605209999999
 21
5.059117999999999
 72
     1
 10
165.7605209999999
 20
5.059117999999999
 11
166.0581169999999
 21
6.547094
 72
     1
 10
166.0581169999999
 20
6.547094
 11
166.355712
 21
8.035069999999999
 72
     1
 10
166.355712
 20
8.035069999999999
 11
166.355712
 21
9.225450999999999
 72
     1
 10
166.355712
 20
9.225450999999999
 11
166.653307
 21
10.11823699999999
 72
     1
 10
166.653307
 20
10.11823699999999
 11
166.653307
 21
10.415832
 72
     1
 10
166.653307
 20
10.415832
 11
166.653307
 21
11.903808
 72
     1
 10
166.653307
 20
11.903808
 11
166.0581169999999
 21
12.796593
 97
        0
 92
        1
 93
       28
 72
     1
 10
71.125251
 20
10.713427
 11
70.232465
 21
12.498998
 72
     1
 10
70.232465
 20
12.498998
 11
69.33968
 21
13.094189
 72
     1
 10
69.33968
 20
13.094189
 11
68.446894
 21
13.39178399999999
 72
     1
 10
68.446894
 20
13.39178399999999
 11
67.25651299999999
 21
13.689379
 72
     1
 10
67.25651299999999
 20
13.689379
 11
65.76853800000001
 21
13.98697399999999
 72
     1
 10
65.76853800000001
 20
13.98697399999999
 11
64.57815699999999
 21
13.689379
 72
     1
 10
64.57815699999999
 20
13.689379
 11
63.387776
 21
13.39178399999999
 72
     1
 10
63.387776
 20
13.39178399999999
 11
62.19739499999999
 21
13.094189
 72
     1
 10
62.19739499999999
 20
13.094189
 11
61.007014
 21
12.498998
 72
     1
 10
61.007014
 20
12.498998
 11
60.114229
 21
11.606213
 72
     1
 10
60.114229
 20
11.606213
 11
59.519039
 21
10.713427
 72
     1
 10
59.519039
 20
10.713427
 11
58.62625300000001
 21
8.035069999999999
 72
     1
 10
58.62625300000001
 20
8.035069999999999
 11
58.62625300000001
 21
6.844689999999999
 72
     1
 10
58.62625300000001
 20
6.844689999999999
 11
58.62625300000001
 21
5.654308999999999
 72
     1
 10
58.62625300000001
 20
5.654308999999999
 11
59.519039
 21
3.868737999999999
 72
     1
 10
59.519039
 20
3.868737999999999
 11
60.411824
 21
3.273547
 72
     1
 10
60.411824
 20
3.273547
 11
61.30461
 21
2.975951999999999
 72
     1
 10
61.30461
 20
2.975951999999999
 11
62.792586
 21
2.678357
 72
     1
 10
62.792586
 20
2.678357
 11
63.982966
 21
2.380761999999999
 72
     1
 10
63.982966
 20
2.380761999999999
 11
65.17334699999999
 21
2.678357
 72
     1
 10
65.17334699999999
 20
2.678357
 11
66.36372800000001
 21
2.975951999999999
 72
     1
 10
66.36372800000001
 20
2.975951999999999
 11
67.554109
 21
3.273547
 72
     1
 10
67.554109
 20
3.273547
 11
68.744489
 21
3.868737999999999
 72
     1
 10
68.744489
 20
3.868737999999999
 11
69.637275
 21
4.761523
 72
     1
 10
69.637275
 20
4.761523
 11
70.232465
 21
5.654308999999999
 72
     1
 10
70.232465
 20
5.654308999999999
 11
70.827656
 21
6.844689999999999
 72
     1
 10
70.827656
 20
6.844689999999999
 11
71.125251
 21
8.035069999999999
 72
     1
 10
71.125251
 20
8.035069999999999
 11
71.125251
 21
10.713427
 97
        0
 92
       16
 93
       16
 72
     1
 10
67.554109
 20
8.035069999999999
 11
67.25651299999999
 21
6.547094
 72
     1
 10
67.25651299999999
 20
6.547094
 11
66.06613299999999
 21
5.356714
 72
     1
 10
66.06613299999999
 20
5.356714
 11
65.17334699999999
 21
5.059117999999999
 72
     1
 10
65.17334699999999
 20
5.059117999999999
 11
64.280562
 21
4.761523
 72
     1
 10
64.280562
 20
4.761523
 11
63.387776
 21
5.059117999999999
 72
     1
 10
63.387776
 20
5.059117999999999
 11
62.49499
 21
5.356714
 72
     1
 10
62.49499
 20
5.356714
 11
62.19739499999999
 21
6.547094
 72
     1
 10
62.19739499999999
 20
6.547094
 11
62.19739499999999
 21
8.035069999999999
 72
     1
 10
62.19739499999999
 20
8.035069999999999
 11
62.49499
 21
9.523046
 72
     1
 10
62.49499
 20
9.523046
 11
63.685371
 21
10.713427
 72
     1
 10
63.685371
 20
10.713427
 11
64.57815699999999
 21
11.308617
 72
     1
 10
64.57815699999999
 20
11.308617
 11
65.470942
 21
11.308617
 72
     1
 10
65.470942
 20
11.308617
 11
66.36372800000001
 21
11.308617
 72
     1
 10
66.36372800000001
 20
11.308617
 11
67.25651299999999
 21
10.713427
 72
     1
 10
67.25651299999999
 20
10.713427
 11
67.554109
 21
9.523046
 72
     1
 10
67.554109
 20
9.523046
 11
67.554109
 21
8.035069999999999
 97
        0
 92
        1
 93
       24
 72
     1
 10
93.147295
 20
10.713427
 11
92.55210500000002
 21
11.903808
 72
     1
 10
92.55210500000002
 20
11.903808
 11
91.95691399999999
 21
12.796593
 72
     1
 10
91.95691399999999
 20
12.796593
 11
90.766533
 21
13.39178399999999
 72
     1
 10
90.766533
 20
13.39178399999999
 11
88.98096200000001
 21
13.689379
 72
     1
 10
88.98096200000001
 20
13.689379
 11
87.79058199999999
 21
13.689379
 72
     1
 10
87.79058199999999
 20
13.689379
 11
86.89779599999999
 21
13.39178399999999
 72
     1
 10
86.89779599999999
 20
13.39178399999999
 11
86.00500999999999
 21
12.796593
 72
     1
 10
86.00500999999999
 20
12.796593
 11
85.112225
 21
12.20140299999999
 72
     1
 10
85.112225
 20
12.20140299999999
 11
85.40981999999999
 21
13.689379
 72
     1
 10
85.40981999999999
 20
13.689379
 11
82.136273
 21
13.689379
 72
     1
 10
82.136273
 20
13.689379
 11
79.755511
 21
0.0
 72
     1
 10
79.755511
 20
0.0
 11
83.029059
 21
0.0
 72
     1
 10
83.029059
 20
0.0
 11
83.624249
 21
3.868737999999999
 72
     1
 10
83.624249
 20
3.868737999999999
 11
84.219439
 21
3.273547
 72
     1
 10
84.219439
 20
3.273547
 11
84.81463000000001
 21
2.678357
 72
     1
 10
84.81463000000001
 20
2.678357
 11
85.707415
 21
2.380761999999999
 72
     1
 10
85.707415
 20
2.380761999999999
 11
86.600201
 21
2.380761999999999
 72
     1
 10
86.600201
 20
2.380761999999999
 11
88.683367
 21
2.678357
 72
     1
 10
88.683367
 20
2.678357
 11
90.46893799999999
 21
3.571143
 72
     1
 10
90.46893799999999
 20
3.571143
 11
92.254509
 21
5.356714
 72
     1
 10
92.254509
 20
5.356714
 11
92.55210500000002
 21
6.547094
 72
     1
 10
92.55210500000002
 20
6.547094
 11
92.84969999999999
 21
7.737474999999999
 72
     1
 10
92.84969999999999
 20
7.737474999999999
 11
93.147295
 21
9.225450999999999
 72
     1
 10
93.147295
 20
9.225450999999999
 11
93.147295
 21
10.713427
 97
        0
 92
       16
 93
       16
 72
     1
 10
89.576153
 20
8.035069999999999
 11
89.27855799999999
 21
6.249499
 72
     1
 10
89.27855799999999
 20
6.249499
 11
88.088177
 21
5.059117999999999
 72
     1
 10
88.088177
 20
5.059117999999999
 11
87.49298600000001
 21
4.761523
 72
     1
 10
87.49298600000001
 20
4.761523
 11
86.30260600000001
 21
4.463928
 72
     1
 10
86.30260600000001
 20
4.463928
 11
85.40981999999999
 21
4.761523
 72
     1
 10
85.40981999999999
 20
4.761523
 11
84.81463000000001
 21
5.059117999999999
 72
     1
 10
84.81463000000001
 20
5.059117999999999
 11
84.219439
 21
6.249499
 72
     1
 10
84.219439
 20
6.249499
 11
84.219439
 21
8.035069999999999
 72
     1
 10
84.219439
 20
8.035069999999999
 11
84.81463000000001
 21
9.523046
 72
     1
 10
84.81463000000001
 20
9.523046
 11
86.00500999999999
 21
10.713427
 72
     1
 10
86.00500999999999
 20
10.713427
 11
86.600201
 21
11.011022
 72
     1
 10
86.600201
 20
11.011022
 11
87.49298600000001
 21
11.308617
 72
     1
 10
87.49298600000001
 20
11.308617
 11
88.683367
 21
11.011022
 72
     1
 10
88.683367
 20
11.011022
 11
89.27855799999999
 21
10.713427
 72
     1
 10
89.27855799999999
 20
10.713427
 11
89.87374799999999
 21
9.523046
 72
     1
 10
89.87374799999999
 20
9.523046
 11
89.576153
 21
8.035069999999999
 97
        0
 92
        1
 93
       31
 72
     1
 10
106.241483
 20
10.713427
 11
105.9438879999999
 21
11.606213
 72
     1
 10
105.9438879999999
 20
11.606213
 11
105.3486979999999
 21
12.498998
 72
     1
 10
105.3486979999999
 20
12.498998
 11
104.7535069999999
 21
13.094189
 72
     1
 10
104.7535069999999
 20
13.094189
 11
103.563127
 21
13.39178399999999
 72
     1
 10
103.563127
 20
13.39178399999999
 11
102.3727459999999
 21
13.689379
 72
     1
 10
102.3727459999999
 20
13.689379
 11
101.1823649999999
 21
13.98697399999999
 72
     1
 10
101.1823649999999
 20
13.98697399999999
 11
99.991984
 21
13.689379
 72
     1
 10
99.991984
 20
13.689379
 11
98.504008
 21
13.39178399999999
 72
     1
 10
98.504008
 20
13.39178399999999
 11
97.611223
 21
13.094189
 72
     1
 10
97.611223
 20
13.094189
 11
96.42084200000001
 21
12.498998
 72
     1
 10
96.42084200000001
 20
12.498998
 11
95.52805699999998
 21
11.606213
 72
     1
 10
95.52805699999998
 20
11.606213
 11
94.93286600000001
 21
10.713427
 72
     1
 10
94.93286600000001
 20
10.713427
 11
94.33767600000001
 21
9.225450999999999
 72
     1
 10
94.33767600000001
 20
9.225450999999999
 11
94.040081
 21
8.035069999999999
 72
     1
 10
94.040081
 20
8.035069999999999
 11
93.742485
 21
6.844689999999999
 72
     1
 10
93.742485
 20
6.844689999999999
 11
94.040081
 21
5.654308999999999
 72
     1
 10
94.040081
 20
5.654308999999999
 11
94.33767600000001
 21
4.761523
 72
     1
 10
94.33767600000001
 20
4.761523
 11
94.93286600000001
 21
3.868737999999999
 72
     1
 10
94.93286600000001
 20
3.868737999999999
 11
95.82565200000001
 21
3.273547
 72
     1
 10
95.82565200000001
 20
3.273547
 11
96.718437
 21
2.975951999999999
 72
     1
 10
96.718437
 20
2.975951999999999
 11
97.90881800000001
 21
2.678357
 72
     1
 10
97.90881800000001
 20
2.678357
 11
99.099199
 21
2.380761999999999
 72
     1
 10
99.099199
 20
2.380761999999999
 11
100.587175
 21
2.678357
 72
     1
 10
100.587175
 20
2.678357
 11
101.777556
 21
2.975951999999999
 72
     1
 10
101.777556
 20
2.975951999999999
 11
102.967936
 21
3.273547
 72
     1
 10
102.967936
 20
3.273547
 11
103.860722
 21
3.868737999999999
 72
     1
 10
103.860722
 20
3.868737999999999
 11
105.6462929999999
 21
5.654308999999999
 72
     1
 10
105.6462929999999
 20
5.654308999999999
 11
105.9438879999999
 21
6.844689999999999
 72
     1
 10
105.9438879999999
 20
6.844689999999999
 11
106.241483
 21
8.035069999999999
 72
     1
 10
106.241483
 20
8.035069999999999
 11
106.5390789999999
 21
9.225450999999999
 72
     1
 10
106.5390789999999
 20
9.225450999999999
 11
106.241483
 21
10.713427
 97
        0
 92
       16
 93
       16
 72
     1
 10
102.967936
 20
8.035069999999999
 11
102.3727459999999
 21
6.547094
 72
     1
 10
102.3727459999999
 20
6.547094
 11
101.4799599999999
 21
5.356714
 72
     1
 10
101.4799599999999
 20
5.356714
 11
100.587175
 21
5.059117999999999
 72
     1
 10
100.587175
 20
5.059117999999999
 11
99.694389
 21
4.761523
 72
     1
 10
99.694389
 20
4.761523
 11
98.504008
 21
5.059117999999999
 72
     1
 10
98.504008
 20
5.059117999999999
 11
97.90881800000001
 21
5.356714
 72
     1
 10
97.90881800000001
 20
5.356714
 11
97.31362800000001
 21
6.547094
 72
     1
 10
97.31362800000001
 20
6.547094
 11
97.31362800000001
 21
8.035069999999999
 72
     1
 10
97.31362800000001
 20
8.035069999999999
 11
97.90881800000001
 21
9.523046
 72
     1
 10
97.90881800000001
 20
9.523046
 11
98.80160400000001
 21
10.713427
 72
     1
 10
98.80160400000001
 20
10.713427
 11
99.694389
 21
11.308617
 72
     1
 10
99.694389
 20
11.308617
 11
100.88477
 21
11.308617
 72
     1
 10
100.88477
 20
11.308617
 11
101.777556
 21
11.308617
 72
     1
 10
101.777556
 20
11.308617
 11
102.3727459999999
 21
10.713427
 72
     1
 10
102.3727459999999
 20
10.713427
 11
102.967936
 21
9.523046
 72
     1
 10
102.967936
 20
9.523046
 11
102.967936
 21
8.035069999999999
 97
        0
 92
        1
 93
       50
 72
     1
 10
127.0731469999999
 20
10.415832
 11
127.0731469999999
 21
11.606213
 72
     1
 10
127.0731469999999
 20
11.606213
 11
126.477956
 21
12.796593
 72
     1
 10
126.477956
 20
12.796593
 11
125.8827659999999
 21
13.094189
 72
     1
 10
125.8827659999999
 20
13.094189
 11
124.98998
 21
13.39178399999999
 72
     1
 10
124.98998
 20
13.39178399999999
 11
122.6092189999999
 21
13.689379
 72
     1
 10
122.6092189999999
 20
13.689379
 11
121.4188379999999
 21
13.689379
 72
     1
 10
121.4188379999999
 20
13.689379
 11
120.2284569999999
 21
13.39178399999999
 72
     1
 10
120.2284569999999
 20
13.39178399999999
 11
119.0380769999999
 21
13.094189
 72
     1
 10
119.0380769999999
 20
13.094189
 11
118.1452909999999
 21
12.498998
 72
     1
 10
118.1452909999999
 20
12.498998
 11
116.95491
 21
11.308617
 72
     1
 10
116.95491
 20
11.308617
 11
116.3597199999999
 21
9.820641999999999
 72
     1
 10
116.3597199999999
 20
9.820641999999999
 11
119.6332669999999
 21
9.820641999999999
 72
     1
 10
119.6332669999999
 20
9.820641999999999
 11
119.930862
 21
10.713427
 72
     1
 10
119.930862
 20
10.713427
 11
120.526053
 21
11.308617
 72
     1
 10
120.526053
 20
11.308617
 11
121.121243
 21
11.606213
 72
     1
 10
121.121243
 20
11.606213
 11
122.3116239999999
 21
11.606213
 72
     1
 10
122.3116239999999
 20
11.606213
 11
123.204409
 21
11.606213
 72
     1
 10
123.204409
 20
11.606213
 11
123.7996
 21
11.308617
 72
     1
 10
123.7996
 20
11.308617
 11
124.097195
 21
11.011022
 72
     1
 10
124.097195
 20
11.011022
 11
124.097195
 21
10.713427
 72
     1
 10
124.097195
 20
10.713427
 11
123.5020039999999
 21
9.820641999999999
 72
     1
 10
123.5020039999999
 20
9.820641999999999
 11
122.3116239999999
 21
9.225450999999999
 72
     1
 10
122.3116239999999
 20
9.225450999999999
 11
120.8236479999999
 21
8.927856
 72
     1
 10
120.8236479999999
 20
8.927856
 11
119.335672
 21
8.927856
 72
     1
 10
119.335672
 20
8.927856
 11
117.847696
 21
8.332665999999999
 72
     1
 10
117.847696
 20
8.332665999999999
 11
116.657315
 21
7.737474999999999
 72
     1
 10
116.657315
 20
7.737474999999999
 11
115.764529
 21
6.844689999999999
 72
     1
 10
115.764529
 20
6.844689999999999
 11
115.1693389999999
 21
5.356714
 72
     1
 10
115.1693389999999
 20
5.356714
 11
115.1693389999999
 21
4.166332999999999
 72
     1
 10
115.1693389999999
 20
4.166332999999999
 11
115.764529
 21
3.273547
 72
     1
 10
115.764529
 20
3.273547
 11
116.95491
 21
2.678357
 72
     1
 10
116.95491
 20
2.678357
 11
118.442886
 21
2.380761999999999
 72
     1
 10
118.442886
 20
2.380761999999999
 11
120.8236479999999
 21
2.678357
 72
     1
 10
120.8236479999999
 20
2.678357
 11
122.9068139999999
 21
3.868737999999999
 72
     1
 10
122.9068139999999
 20
3.868737999999999
 11
122.9068139999999
 21
3.273547
 72
     1
 10
122.9068139999999
 20
3.273547
 11
122.9068139999999
 21
2.678357
 72
     1
 10
122.9068139999999
 20
2.678357
 11
126.180361
 21
2.678357
 72
     1
 10
126.180361
 20
2.678357
 11
126.180361
 21
2.975951999999999
 72
     1
 10
126.180361
 20
2.975951999999999
 11
126.180361
 21
3.273547
 72
     1
 10
126.180361
 20
3.273547
 11
125.8827659999999
 21
3.273547
 72
     1
 10
125.8827659999999
 20
3.273547
 11
125.8827659999999
 21
3.571143
 72
     1
 10
125.8827659999999
 20
3.571143
 11
125.8827659999999
 21
3.868737999999999
 72
     1
 10
125.8827659999999
 20
3.868737999999999
 11
125.8827659999999
 21
4.166332999999999
 72
     1
 10
125.8827659999999
 20
4.166332999999999
 11
126.180361
 21
4.761523
 72
     1
 10
126.180361
 20
4.761523
 11
126.180361
 21
5.951903999999999
 72
     1
 10
126.180361
 20
5.951903999999999
 11
126.477956
 21
7.142285
 72
     1
 10
126.477956
 20
7.142285
 11
126.775552
 21
8.332665999999999
 72
     1
 10
126.775552
 20
8.332665999999999
 11
126.775552
 21
9.523046
 72
     1
 10
126.775552
 20
9.523046
 11
127.0731469999999
 21
10.11823699999999
 72
     1
 10
127.0731469999999
 20
10.11823699999999
 11
127.0731469999999
 21
10.415832
 97
        0
 92
       16
 93
       15
 72
     1
 10
123.5020039999999
 20
7.737474999999999
 11
123.5020039999999
 21
7.142285
 72
     1
 10
123.5020039999999
 20
7.142285
 11
122.9068139999999
 21
5.951903999999999
 72
     1
 10
122.9068139999999
 20
5.951903999999999
 11
122.3116239999999
 21
5.059117999999999
 72
     1
 10
122.3116239999999
 20
5.059117999999999
 11
121.4188379999999
 21
4.761523
 72
     1
 10
121.4188379999999
 20
4.761523
 11
119.930862
 21
4.463928
 72
     1
 10
119.930862
 20
4.463928
 11
119.335672
 21
4.463928
 72
     1
 10
119.335672
 20
4.463928
 11
119.0380769999999
 21
4.761523
 72
     1
 10
119.0380769999999
 20
4.761523
 11
118.740481
 21
5.356714
 72
     1
 10
118.740481
 20
5.356714
 11
118.740481
 21
5.951903999999999
 72
     1
 10
118.740481
 20
5.951903999999999
 11
119.0380769999999
 21
6.249499
 72
     1
 10
119.0380769999999
 20
6.249499
 11
119.335672
 21
6.844689999999999
 72
     1
 10
119.335672
 20
6.844689999999999
 11
119.930862
 21
7.142285
 72
     1
 10
119.930862
 20
7.142285
 11
120.8236479999999
 21
7.142285
 72
     1
 10
120.8236479999999
 20
7.142285
 11
122.3116239999999
 21
7.43988
 72
     1
 10
122.3116239999999
 20
7.43988
 11
123.5020039999999
 21
7.737474999999999
 97
        0
 92
        1
 93
       31
 72
     1
 10
153.261523
 20
10.713427
 11
152.963928
 21
11.606213
 72
     1
 10
152.963928
 20
11.606213
 11
152.3687379999999
 21
12.498998
 72
     1
 10
152.3687379999999
 20
12.498998
 11
151.7735479999999
 21
13.094189
 72
     1
 10
151.7735479999999
 20
13.094189
 11
150.583167
 21
13.39178399999999
 72
     1
 10
150.583167
 20
13.39178399999999
 11
149.392786
 21
13.689379
 72
     1
 10
149.392786
 20
13.689379
 11
148.2024049999999
 21
13.98697399999999
 72
     1
 10
148.2024049999999
 20
13.98697399999999
 11
147.0120239999999
 21
13.689379
 72
     1
 10
147.0120239999999
 20
13.689379
 11
145.5240489999999
 21
13.39178399999999
 72
     1
 10
145.5240489999999
 20
13.39178399999999
 11
144.6312629999999
 21
13.094189
 72
     1
 10
144.6312629999999
 20
13.094189
 11
143.440882
 21
12.498998
 72
     1
 10
143.440882
 20
12.498998
 11
142.5480969999999
 21
11.606213
 72
     1
 10
142.5480969999999
 20
11.606213
 11
141.952906
 21
10.713427
 72
     1
 10
141.952906
 20
10.713427
 11
141.3577159999999
 21
9.225450999999999
 72
     1
 10
141.3577159999999
 20
9.225450999999999
 11
141.060121
 21
8.035069999999999
 72
     1
 10
141.060121
 20
8.035069999999999
 11
140.762525
 21
6.844689999999999
 72
     1
 10
140.762525
 20
6.844689999999999
 11
141.060121
 21
5.654308999999999
 72
     1
 10
141.060121
 20
5.654308999999999
 11
141.3577159999999
 21
4.761523
 72
     1
 10
141.3577159999999
 20
4.761523
 11
141.952906
 21
3.868737999999999
 72
     1
 10
141.952906
 20
3.868737999999999
 11
142.8456919999999
 21
3.273547
 72
     1
 10
142.8456919999999
 20
3.273547
 11
143.7384769999999
 21
2.975951999999999
 72
     1
 10
143.7384769999999
 20
2.975951999999999
 11
144.928858
 21
2.678357
 72
     1
 10
144.928858
 20
2.678357
 11
146.1192389999999
 21
2.380761999999999
 72
     1
 10
146.1192389999999
 20
2.380761999999999
 11
147.607215
 21
2.678357
 72
     1
 10
147.607215
 20
2.678357
 11
148.7975959999999
 21
2.975951999999999
 72
     1
 10
148.7975959999999
 20
2.975951999999999
 11
149.9879759999999
 21
3.273547
 72
     1
 10
149.9879759999999
 20
3.273547
 11
150.8807619999999
 21
3.868737999999999
 72
     1
 10
150.8807619999999
 20
3.868737999999999
 11
152.666333
 21
5.654308999999999
 72
     1
 10
152.666333
 20
5.654308999999999
 11
152.963928
 21
6.844689999999999
 72
     1
 10
152.963928
 20
6.844689999999999
 11
153.261523
 21
8.035069999999999
 72
     1
 10
153.261523
 20
8.035069999999999
 11
153.5591189999999
 21
9.225450999999999
 72
     1
 10
153.5591189999999
 20
9.225450999999999
 11
153.261523
 21
10.713427
 97
        0
 92
       16
 93
       16
 72
     1
 10
149.9879759999999
 20
8.035069999999999
 11
149.392786
 21
6.547094
 72
     1
 10
149.392786
 20
6.547094
 11
148.5
 21
5.356714
 72
     1
 10
148.5
 20
5.356714
 11
147.607215
 21
5.059117999999999
 72
     1
 10
147.607215
 20
5.059117999999999
 11
146.714429
 21
4.761523
 72
     1
 10
146.714429
 20
4.761523
 11
145.5240489999999
 21
5.059117999999999
 72
     1
 10
145.5240489999999
 20
5.059117999999999
 11
144.928858
 21
5.356714
 72
     1
 10
144.928858
 20
5.356714
 11
144.3336679999999
 21
6.547094
 72
     1
 10
144.3336679999999
 20
6.547094
 11
144.3336679999999
 21
8.035069999999999
 72
     1
 10
144.3336679999999
 20
8.035069999999999
 11
144.928858
 21
9.523046
 72
     1
 10
144.928858
 20
9.523046
 11
145.8216439999999
 21
10.713427
 72
     1
 10
145.8216439999999
 20
10.713427
 11
146.714429
 21
11.308617
 72
     1
 10
146.714429
 20
11.308617
 11
147.9048099999999
 21
11.308617
 72
     1
 10
147.9048099999999
 20
11.308617
 11
148.7975959999999
 21
11.308617
 72
     1
 10
148.7975959999999
 20
11.308617
 11
149.392786
 21
10.713427
 72
     1
 10
149.392786
 20
10.713427
 11
149.9879759999999
 21
9.523046
 72
     1
 10
149.9879759999999
 20
9.523046
 11
149.9879759999999
 21
8.035069999999999
 97
        0
 75
     0
 76
     1
 98
        1
 10
-385.39247
 20
-115.107298
  0
ENDBLK
  5
2D
330
2A
100
AcDbEntity
  8
0
100
AcDbBlockEnd
  0
BLOCK
  5
D916
330
D7E3
100
AcDbEntity
  8
0
100
AcDbBlockBegin
  2
A$C35844AFD
 70
     0
 10
0.0
 20
0.0
 30
0.0
  3
A$C35844AFD
  1
A$C35844AFD
  0
LINE
  5
D7E4
330
D7E3
100
AcDbEntity
  8
0
100
AcDbLine
 10
26.70871065379236
 20
4.379166399082009
 30
0.0
 11
26.70871065379236
 21
21.97381495444608
 31
0.0
  0
LINE
  5
D7E5
330
D7E3
100
AcDbEntity
  8
0
100
AcDbLine
 10
31.2912863487474
 20
4.259167431349055
 30
0.0
 11
31.2912863487474
 21
21.97381495444506
 31
0.0
  0
LINE
  5
D7E6
330
D7E3
100
AcDbEntity
  8
0
100
AcDbLine
 10
5.999998501270397
 20
4.921443111307041
 30
0.0
 11
5.999998501270397
 21
20.97381495444506
 31
0.0
  0
LINE
  5
D7E7
330
D7E3
100
AcDbEntity
  8
0
100
AcDbLine
 10
4.999998501270397
 20
21.00000087601404
 30
0.0
 11
4.999998501270397
 21
4.973814954444037
 31
0.0
  0
LINE
  5
D7E8
330
D7E3
100
AcDbEntity
  8
0
100
AcDbLine
 10
-0.0000014987296026
 20
21.419667635221
 30
0.0
 11
-0.0000014987296026
 21
0.0000008760140418
 31
0.0
  0
LINE
  5
D7E9
330
D7E3
100
AcDbEntity
  8
0
100
AcDbLine
 10
57.9999985012704
 20
3.585961111277015
 30
0.0
 11
57.9999985012704
 21
120.973814954445
 31
0.0
  0
LINE
  5
D7EA
330
D7E3
100
AcDbEntity
  8
0
100
AcDbLine
 10
53.4999985012704
 20
86.97381495444506
 30
0.0
 11
53.4999985012704
 21
91.97381495444506
 31
0.0
  0
LINE
  5
D7EB
330
D7E3
100
AcDbEntity
  8
0
100
AcDbLine
 10
54.49999850127039
 20
96.97381495444506
 30
0.0
 11
54.49999850127039
 21
70.97381495444506
 31
0.0
  0
LINE
  5
D7EC
330
D7E3
100
AcDbEntity
  8
0
100
AcDbLine
 10
33.49999850127039
 20
70.97381495444506
 30
0.0
 11
33.49999850127039
 21
96.97381495444506
 31
0.0
  0
ARC
  5
D7ED
330
D7E3
100
AcDbEntity
  8
0
100
AcDbCircle
 10
2.399998501270374
 20
89.31966763522103
 30
0.0
 40
0.6
100
AcDbArc
 50
0.0
 51
88.09084756699943
  0
LINE
  5
D7EE
330
D7E3
100
AcDbEntity
  8
0
100
AcDbLine
 10
5.999998501270397
 20
82.97381495444602
 30
0.0
 11
5.999998501270397
 21
109.605734381143
 31
0.0
  0
LINE
  5
D7EF
330
D7E3
100
AcDbEntity
  8
0
100
AcDbLine
 10
4.999998501270397
 20
110.471019933888
 30
0.0
 11
4.999998501270397
 21
83.00000087601404
 31
0.0
  0
LINE
  5
D7F0
330
D7E3
100
AcDbEntity
  8
0
100
AcDbLine
 10
56.99999850127039
 20
21.97381495444506
 30
0.0
 11
56.99999850127039
 21
103.973814954445
 31
0.0
  0
LINE
  5
D7F1
330
D7E3
100
AcDbEntity
  8
0
100
AcDbLine
 10
15.99999850127039
 20
103.973814954445
 30
0.0
 11
15.99999850127039
 21
21.97381495444506
 31
0.0
  0
LINE
  5
D7F2
330
D7E3
100
AcDbEntity
  8
0
100
AcDbLine
 10
28.19999850127038
 20
105.473814954445
 30
0.0
 11
19.99999850127039
 21
105.473814954445
 31
0.0
  0
LINE
  5
D7F3
330
D7E3
100
AcDbEntity
  8
0
100
AcDbLine
 10
19.99999850127039
 20
117.473814954445
 30
0.0
 11
28.19999850127038
 21
117.473814954445
 31
0.0
  0
LINE
  5
D7F4
330
D7E3
100
AcDbEntity
  8
0
100
AcDbLine
 10
19.99999850127039
 20
109.473814954445
 30
0.0
 11
23.19999850127038
 21
109.473814954445
 31
0.0
  0
LINE
  5
D7F5
330
D7E3
100
AcDbEntity
  8
0
100
AcDbLine
 10
19.99999850127039
 20
113.473814954445
 30
0.0
 11
23.19999850127038
 21
113.473814954445
 31
0.0
  0
LINE
  5
D7F6
330
D7E3
100
AcDbEntity
  8
0
100
AcDbLine
 10
32.9999985012704
 20
89.97381495444505
 30
0.0
 11
15.99999850127039
 21
89.97381495444505
 31
0.0
  0
LINE
  5
D7F7
330
D7E3
100
AcDbEntity
  8
0
100
AcDbLine
 10
32.9999985012704
 20
91.97381495444506
 30
0.0
 11
15.99999850127039
 21
91.97381495444506
 31
0.0
  0
LINE
  5
D7F8
330
D7E3
100
AcDbEntity
  8
0
100
AcDbLine
 10
56.99999850127039
 20
96.97381495444506
 30
0.0
 11
53.44722031511543
 21
96.97381495444506
 31
0.0
  0
LINE
  5
D7F9
330
D7E3
100
AcDbEntity
  8
0
100
AcDbLine
 10
56.99999850127039
 20
98.97381495444506
 30
0.0
 11
53.44722031511543
 21
98.97381495444506
 31
0.0
  0
LINE
  5
D7FA
330
D7E3
100
AcDbEntity
  8
0
100
AcDbLine
 10
15.99999850127039
 20
103.973814954445
 30
0.0
 11
57.9999985012704
 21
103.973814954445
 31
0.0
  0
LINE
  5
D7FB
330
D7E3
100
AcDbEntity
  8
0
100
AcDbLine
 10
5.999998501270397
 20
120.973814954445
 30
0.0
 11
57.9999985012704
 21
120.973814954445
 31
0.0
  0
LINE
  5
D7FC
330
D7E3
100
AcDbEntity
  8
0
100
AcDbLine
 10
19.99999850127039
 20
109.473814954445
 30
0.0
 11
19.99999850127039
 21
105.473814954445
 31
0.0
  0
LINE
  5
D7FD
330
D7E3
100
AcDbEntity
  8
0
100
AcDbLine
 10
-0.0000014987296026
 20
90.58033411680606
 30
0.0
 11
-0.0000014987296026
 21
120.895257189737
 31
0.0
  0
LINE
  5
D7FE
330
D7E3
100
AcDbEntity
  8
0
100
AcDbLine
 10
7.999998501270397
 20
120.473814954445
 30
0.0
 11
7.999998501270397
 21
110.973814954446
 31
0.0
  0
LINE
  5
D7FF
330
D7E3
100
AcDbEntity
  8
0
100
AcDbLine
 10
8.999998501270397
 20
120.973814954445
 30
0.0
 11
8.999998501270397
 21
110.134715323268
 31
0.0
  0
LINE
  5
D800
330
D7E3
100
AcDbEntity
  8
0
100
AcDbLine
 10
7.999998501270397
 20
111.000000876014
 30
0.0
 11
7.999998501270397
 21
120.895257189737
 31
0.0
  0
LINE
  5
D801
330
D7E3
100
AcDbEntity
  8
0
100
AcDbLine
 10
5.999998501270397
 20
120.973814954445
 30
0.0
 11
5.999998501270397
 21
120.9476290328755
 31
0.0
  0
LINE
  5
D802
330
D7E3
100
AcDbEntity
  8
0
100
AcDbLine
 10
5.999998501270397
 20
120.973814954445
 30
0.0
 11
5.999998501270397
 21
120.947629032876
 31
0.0
  0
LINE
  5
D803
330
D7E3
100
AcDbEntity
  8
0
100
AcDbLine
 10
7.999998501270397
 20
120.473814954445
 30
0.0
 11
8.999998501270397
 21
120.473814954445
 31
0.0
  0
LINE
  5
D804
330
D7E3
100
AcDbEntity
  8
0
100
AcDbLine
 10
3.999998501270397
 20
121.000000876014
 30
0.0
 11
7.999998501270397
 21
120.895257189737
 31
0.0
  0
LINE
  5
D805
330
D7E3
100
AcDbEntity
  8
0
100
AcDbLine
 10
-0.0000014987296026
 20
120.895257189737
 30
0.0
 11
3.999998501270397
 21
121.000000876014
 31
0.0
  0
LINE
  5
D806
330
D7E3
100
AcDbEntity
  8
0
100
AcDbLine
 10
4.999998501270397
 20
110.44483401232
 30
0.0
 11
7.999998501270397
 21
110.973814954446
 31
0.0
  0
LINE
  5
D807
330
D7E3
100
AcDbEntity
  8
0
100
AcDbLine
 10
8.999998501270397
 20
110.134715323268
 30
0.0
 11
5.999998501270397
 21
109.605734381143
 31
0.0
  0
LINE
  5
D808
330
D7E3
100
AcDbEntity
  8
0
100
AcDbLine
 10
7.999998501270397
 20
111.000000876014
 30
0.0
 11
4.999998501270397
 21
110.471019933888
 31
0.0
  0
LINE
  5
D809
330
D7E3
100
AcDbEntity
  8
0
100
AcDbLine
 10
19.99999850127039
 20
113.473814954445
 30
0.0
 11
19.99999850127039
 21
117.473814954445
 31
0.0
  0
LINE
  5
D80A
330
D7E3
100
AcDbEntity
  8
0
100
AcDbLine
 10
-0.0000014987296026
 20
98.41966763522107
 30
0.0
 11
-0.0000014987296026
 21
97.58033411680607
 31
0.0
  0
POINT
  5
D80B
330
D7E3
100
AcDbEntity
  8
0
100
AcDbPoint
 10
-0.0000014987296026
 20
99.00000087601302
 30
0.0
  0
POINT
  5
D80C
330
D7E3
100
AcDbEntity
  8
0
100
AcDbPoint
 10
2.999998501270397
 20
99.10000087601304
 30
0.0
  0
ARC
  5
D80D
330
D7E3
100
AcDbEntity
  8
0
100
AcDbCircle
 10
2.399998501270374
 20
99.68033411680506
 30
0.0
 40
0.6
100
AcDbArc
 50
271.909152432994
 51
0.0
  0
ARC
  5
D80E
330
D7E3
100
AcDbEntity
  8
0
100
AcDbCircle
 10
0.5999985012704201
 20
98.41966763522107
 30
0.0
 40
0.6
100
AcDbArc
 50
91.90915243299405
 51
180.0
  0
LINE
  5
D80F
330
D7E3
100
AcDbEntity
  8
0
100
AcDbLine
 10
2.419987399409365
 20
99.08066717261807
 30
0.0
 11
0.5800096031304065
 21
99.01933457940902
 31
0.0
  0
LINE
  5
D810
330
D7E3
100
AcDbEntity
  8
0
100
AcDbLine
 10
2.999998501270397
 20
103.319667635221
 30
0.0
 11
2.999998501270397
 21
99.68033411680506
 31
0.0
  0
POINT
  5
D811
330
D7E3
100
AcDbEntity
  8
0
100
AcDbPoint
 10
2.999998501270397
 20
103.9000008760129
 30
0.0
  0
ARC
  5
D812
330
D7E3
100
AcDbEntity
  8
0
100
AcDbCircle
 10
0.5999985012704201
 20
104.580334116806
 30
0.0
 40
0.6
100
AcDbArc
 50
180.0
 51
268.0908475670059
  0
LINE
  5
D813
330
D7E3
100
AcDbEntity
  8
0
100
AcDbLine
 10
0.5800096031304065
 20
103.980667172618
 30
0.0
 11
2.419987399409365
 21
103.919334579409
 31
0.0
  0
ARC
  5
D814
330
D7E3
100
AcDbEntity
  8
0
100
AcDbCircle
 10
2.399998501270374
 20
103.319667635221
 30
0.0
 40
0.6
100
AcDbArc
 50
0.0
 51
88.09084756699943
  0
POINT
  5
D815
330
D7E3
100
AcDbEntity
  8
0
100
AcDbPoint
 10
-0.0000014987296026
 20
90.00000087601405
 30
0.0
  0
ARC
  5
D816
330
D7E3
100
AcDbEntity
  8
0
100
AcDbCircle
 10
2.399998501270374
 20
92.68033411680505
 30
0.0
 40
0.6
100
AcDbArc
 50
271.909152432994
 51
0.0
  0
ARC
  5
D817
330
D7E3
100
AcDbEntity
  8
0
100
AcDbCircle
 10
0.5999985012704201
 20
91.41966763522106
 30
0.0
 40
0.6
100
AcDbArc
 50
91.90915243299405
 51
180.0
  0
ARC
  5
D818
330
D7E3
100
AcDbEntity
  8
0
100
AcDbCircle
 10
0.5999985012693969
 20
90.58033411680606
 30
0.0
 40
0.6
100
AcDbArc
 50
180.0
 51
268.0908475670059
  0
LINE
  5
D819
330
D7E3
100
AcDbEntity
  8
0
100
AcDbLine
 10
-0.0000014987296026
 20
91.41966763522106
 30
0.0
 11
-0.0000014987296026
 21
90.58033411680606
 31
0.0
  0
LINE
  5
D81A
330
D7E3
100
AcDbEntity
  8
0
100
AcDbLine
 10
0.5800096031304065
 20
89.98066717261805
 30
0.0
 11
2.419987399409365
 21
89.91933457940906
 31
0.0
  0
LINE
  5
D81B
330
D7E3
100
AcDbEntity
  8
0
100
AcDbLine
 10
2.419987399409365
 20
92.08066717261806
 30
0.0
 11
0.5800096031304065
 21
92.01933457940901
 31
0.0
  0
POINT
  5
D81C
330
D7E3
100
AcDbEntity
  8
0
100
AcDbPoint
 10
2.999998501270397
 20
96.90000087601299
 30
0.0
  0
POINT
  5
D81D
330
D7E3
100
AcDbEntity
  8
0
100
AcDbPoint
 10
-0.0000014987296026
 20
97.00000087601303
 30
0.0
  0
ARC
  5
D81E
330
D7E3
100
AcDbEntity
  8
0
100
AcDbCircle
 10
2.399998501270374
 20
96.31966763522104
 30
0.0
 40
0.6
100
AcDbArc
 50
0.0
 51
88.09084756699943
  0
ARC
  5
D81F
330
D7E3
100
AcDbEntity
  8
0
100
AcDbCircle
 10
0.5999985012704201
 20
97.58033411680607
 30
0.0
 40
0.6
100
AcDbArc
 50
180.0
 51
268.0908475670059
  0
LINE
  5
D820
330
D7E3
100
AcDbEntity
  8
0
100
AcDbLine
 10
0.5800096031304065
 20
96.98066717261804
 30
0.0
 11
2.419987399409365
 21
96.91933457940905
 31
0.0
  0
LINE
  5
D821
330
D7E3
100
AcDbEntity
  8
0
100
AcDbLine
 10
2.999998501270397
 20
96.31966763522104
 30
0.0
 11
2.999998501270397
 21
92.68033411680505
 31
0.0
  0
LINE
  5
D822
330
D7E3
100
AcDbEntity
  8
0
100
AcDbLine
 10
28.19999850127038
 20
105.473814954445
 30
0.0
 11
28.19999850127038
 21
117.473814954445
 31
0.0
  0
LINE
  5
D823
330
D7E3
100
AcDbEntity
  8
0
100
AcDbLine
 10
23.19999850127038
 20
107.473814954445
 30
0.0
 11
25.19999850127038
 21
107.473814954445
 31
0.0
  0
LINE
  5
D824
330
D7E3
100
AcDbEntity
  8
0
100
AcDbLine
 10
23.19999850127038
 20
109.473814954445
 30
0.0
 11
23.19999850127038
 21
107.473814954445
 31
0.0
  0
LINE
  5
D825
330
D7E3
100
AcDbEntity
  8
0
100
AcDbLine
 10
23.19999850127038
 20
115.473814954445
 30
0.0
 11
25.19999850127038
 21
115.473814954445
 31
0.0
  0
LINE
  5
D826
330
D7E3
100
AcDbEntity
  8
0
100
AcDbLine
 10
23.19999850127038
 20
113.473814954445
 30
0.0
 11
23.19999850127038
 21
115.473814954445
 31
0.0
  0
LINE
  5
D827
330
D7E3
100
AcDbEntity
  8
0
100
AcDbLine
 10
25.19999850127038
 20
107.473814954445
 30
0.0
 11
25.19999850127038
 21
115.473814954445
 31
0.0
  0
LINE
  5
D828
330
D7E3
100
AcDbEntity
  8
0
100
AcDbLine
 10
33.49999850127039
 20
98.97381495444506
 30
0.0
 11
33.49999850127039
 21
103.973814954445
 31
0.0
  0
LINE
  5
D829
330
D7E3
100
AcDbEntity
  8
0
100
AcDbLine
 10
32.9999985012704
 20
89.97381495444505
 30
0.0
 11
32.9999985012704
 21
91.97381495444506
 31
0.0
  0
LINE
  5
D82A
330
D7E3
100
AcDbEntity
  8
0
100
AcDbLine
 10
55.9999985012704
 20
96.97381495444506
 30
0.0
 11
55.9999985012704
 21
98.97381495444506
 31
0.0
  0
LINE
  5
D82B
330
D7E3
100
AcDbEntity
  8
0
100
AcDbLine
 10
54.99999850127039
 20
96.97381495444506
 30
0.0
 11
54.99999850127039
 21
98.97381495444506
 31
0.0
  0
LINE
  5
D82C
330
D7E3
100
AcDbEntity
  8
0
100
AcDbLine
 10
54.49999850127039
 20
103.973814954445
 30
0.0
 11
54.49999850127039
 21
98.97381495444506
 31
0.0
  0
ARC
  5
D82D
330
D7E3
100
AcDbEntity
  8
0
100
AcDbCircle
 10
52.9999985012704
 20
91.97381495444503
 30
0.0
 40
0.5
100
AcDbArc
 50
0.0
 51
26.56294527600439
  0
LINE
  5
D82E
330
D7E3
100
AcDbEntity
  8
0
100
AcDbLine
 10
55.9999985012704
 20
89.97381495444505
 30
0.0
 11
55.9999985012704
 21
91.97381495444506
 31
0.0
  0
LINE
  5
D82F
330
D7E3
100
AcDbEntity
  8
0
100
AcDbLine
 10
54.99999850127039
 20
89.97381495444505
 30
0.0
 11
54.99999850127039
 21
91.97381495444506
 31
0.0
  0
LINE
  5
D830
330
D7E3
100
AcDbEntity
  8
0
100
AcDbLine
 10
56.99999850127039
 20
89.97381495444505
 30
0.0
 11
54.99999850127039
 21
89.97381495444505
 31
0.0
  0
LINE
  5
D831
330
D7E3
100
AcDbEntity
  8
0
100
AcDbLine
 10
56.99999850127039
 20
91.97381495444506
 30
0.0
 11
54.99999850127039
 21
91.97381495444506
 31
0.0
  0
LINE
  5
D832
330
D7E3
100
AcDbEntity
  8
0
100
AcDbLine
 10
32.9999985012704
 20
47.97381495444506
 30
0.0
 11
15.99999850127039
 21
47.97381495444506
 31
0.0
  0
LINE
  5
D833
330
D7E3
100
AcDbEntity
  8
0
100
AcDbLine
 10
32.9999985012704
 20
49.97381495444506
 30
0.0
 11
15.99999850127039
 21
49.97381495444506
 31
0.0
  0
LINE
  5
D834
330
D7E3
100
AcDbEntity
  8
0
100
AcDbLine
 10
56.99999850127039
 20
26.97381495444506
 30
0.0
 11
15.99999850127039
 21
26.97381495444506
 31
0.0
  0
LINE
  5
D835
330
D7E3
100
AcDbEntity
  8
0
100
AcDbLine
 10
56.99999850127039
 20
28.97381495444506
 30
0.0
 11
15.99999850127039
 21
28.97381495444506
 31
0.0
  0
LINE
  5
D836
330
D7E3
100
AcDbEntity
  8
0
100
AcDbLine
 10
56.99999850127039
 20
33.97381495444506
 30
0.0
 11
15.99999850127039
 21
33.97381495444506
 31
0.0
  0
LINE
  5
D837
330
D7E3
100
AcDbEntity
  8
0
100
AcDbLine
 10
56.99999850127039
 20
35.97381495444506
 30
0.0
 11
15.99999850127039
 21
35.97381495444506
 31
0.0
  0
LINE
  5
D838
330
D7E3
100
AcDbEntity
  8
0
100
AcDbLine
 10
56.99999850127039
 20
40.97381495444506
 30
0.0
 11
15.99999850127039
 21
40.97381495444506
 31
0.0
  0
LINE
  5
D839
330
D7E3
100
AcDbEntity
  8
0
100
AcDbLine
 10
56.99999850127039
 20
42.97381495444506
 30
0.0
 11
15.99999850127039
 21
42.97381495444506
 31
0.0
  0
LINE
  5
D83A
330
D7E3
100
AcDbEntity
  8
0
100
AcDbLine
 10
56.99999850127039
 20
54.97381495444506
 30
0.0
 11
53.49999850127034
 21
54.97381495444506
 31
0.0
  0
LINE
  5
D83B
330
D7E3
100
AcDbEntity
  8
0
100
AcDbLine
 10
56.99999850127039
 20
56.97381495444506
 30
0.0
 11
53.49999850127034
 21
56.97381495444506
 31
0.0
  0
LINE
  5
D83C
330
D7E3
100
AcDbEntity
  8
0
100
AcDbLine
 10
56.99999850127039
 20
61.97381495444506
 30
0.0
 11
53.49999850127034
 21
61.97381495444506
 31
0.0
  0
LINE
  5
D83D
330
D7E3
100
AcDbEntity
  8
0
100
AcDbLine
 10
15.99999850127039
 20
21.97381495444506
 30
0.0
 11
57.9999985012704
 21
21.97381495444506
 31
0.0
  0
LINE
  5
D83E
330
D7E3
100
AcDbEntity
  8
0
100
AcDbLine
 10
32.9999985012704
 20
75.97381495444506
 30
0.0
 11
15.99999850127039
 21
75.97381495444506
 31
0.0
  0
LINE
  5
D83F
330
D7E3
100
AcDbEntity
  8
0
100
AcDbLine
 10
32.9999985012704
 20
77.97381495444506
 30
0.0
 11
15.99999850127039
 21
77.97381495444506
 31
0.0
  0
LINE
  5
D840
330
D7E3
100
AcDbEntity
  8
0
100
AcDbLine
 10
32.9999985012704
 20
82.97381495444506
 30
0.0
 11
15.99999850127039
 21
82.97381495444506
 31
0.0
  0
LINE
  5
D841
330
D7E3
100
AcDbEntity
  8
0
100
AcDbLine
 10
32.9999985012704
 20
84.97381495444505
 30
0.0
 11
15.99999850127039
 21
84.97381495444505
 31
0.0
  0
LINE
  5
D842
330
D7E3
100
AcDbEntity
  8
0
100
AcDbLine
 10
56.99999850127039
 20
63.97381495444506
 30
0.0
 11
53.49999850127034
 21
63.97381495444506
 31
0.0
  0
LINE
  5
D843
330
D7E3
100
AcDbEntity
  8
0
100
AcDbLine
 10
56.99999850127039
 20
68.97381495444506
 30
0.0
 11
53.49999850127034
 21
68.97381495444506
 31
0.0
  0
LINE
  5
D844
330
D7E3
100
AcDbEntity
  8
0
100
AcDbLine
 10
56.99999850127039
 20
70.97381495444506
 30
0.0
 11
53.49999850127034
 21
70.97381495444506
 31
0.0
  0
LINE
  5
D845
330
D7E3
100
AcDbEntity
  8
0
100
AcDbLine
 10
2.999998501270397
 20
54.31966763522104
 30
0.0
 11
2.999998501270397
 21
50.68033411680506
 31
0.0
  0
LINE
  5
D846
330
D7E3
100
AcDbEntity
  8
0
100
AcDbLine
 10
5.999998501270397
 20
32.97381495444602
 30
0.0
 11
5.999998501270397
 21
70.97381495444506
 31
0.0
  0
LINE
  5
D847
330
D7E3
100
AcDbEntity
  8
0
100
AcDbLine
 10
4.999998501270397
 20
71.00000087601404
 30
0.0
 11
4.999998501270397
 21
33.00000087601404
 31
0.0
  0
LINE
  5
D848
330
D7E3
100
AcDbEntity
  8
0
100
AcDbLine
 10
2.999998501270397
 20
75.31966763522103
 30
0.0
 11
2.999998501270397
 21
71.68033411680506
 31
0.0
  0
LINE
  5
D849
330
D7E3
100
AcDbEntity
  8
0
100
AcDbLine
 10
4.999998501270397
 20
71.00000087601301
 30
0.0
 11
4.999998501270397
 21
83.00000087601404
 31
0.0
  0
LINE
  5
D84A
330
D7E3
100
AcDbEntity
  8
0
100
AcDbLine
 10
4.499998501270397
 20
83.00000087601404
 30
0.0
 11
4.499998501270397
 21
71.00000087601404
 31
0.0
  0
LINE
  5
D84B
330
D7E3
100
AcDbEntity
  8
0
100
AcDbLine
 10
3.699998501270329
 20
83.00000087601404
 30
0.0
 11
3.699998501270329
 21
71.10000087601304
 31
0.0
  0
LINE
  5
D84C
330
D7E3
100
AcDbEntity
  8
0
100
AcDbLine
 10
9.699998501269419
 20
81.47381495444506
 30
0.0
 11
9.699998501269419
 21
72.47381495444506
 31
0.0
  0
LINE
  5
D84D
330
D7E3
100
AcDbEntity
  8
0
100
AcDbLine
 10
7.999998501269374
 20
81.47381495444506
 30
0.0
 11
7.999998501269374
 21
72.47381495444506
 31
0.0
  0
LINE
  5
D84E
330
D7E3
100
AcDbEntity
  8
0
100
AcDbLine
 10
9.499998501270397
 20
81.00000087601404
 30
0.0
 11
9.499998501270397
 21
73.00000087601404
 31
0.0
  0
LINE
  5
D84F
330
D7E3
100
AcDbEntity
  8
0
100
AcDbLine
 10
8.699998501270329
 20
81.00000087601404
 30
0.0
 11
8.699998501270329
 21
73.00000087601404
 31
0.0
  0
LINE
  5
D850
330
D7E3
100
AcDbEntity
  8
0
100
AcDbLine
 10
8.09999850127042
 20
81.00000087601404
 30
0.0
 11
8.09999850127042
 21
73.00000087601404
 31
0.0
  0
LINE
  5
D851
330
D7E3
100
AcDbEntity
  8
0
100
AcDbLine
 10
2.999998501270397
 20
82.31966763522104
 30
0.0
 11
2.999998501270397
 21
78.68033411680506
 31
0.0
  0
LINE
  5
D852
330
D7E3
100
AcDbEntity
  8
0
100
AcDbLine
 10
5.999998501270397
 20
82.97381495444602
 30
0.0
 11
4.999998501270397
 21
82.97381495444602
 31
0.0
  0
LINE
  5
D853
330
D7E3
100
AcDbEntity
  8
0
100
AcDbLine
 10
9.699998501269419
 20
81.47381495444506
 30
0.0
 11
7.999998501269374
 21
81.47381495444506
 31
0.0
  0
LINE
  5
D854
330
D7E3
100
AcDbEntity
  8
0
100
AcDbLine
 10
4.999998501270397
 20
83.00000087601404
 30
0.0
 11
3.699998501270329
 21
83.00000087601404
 31
0.0
  0
POINT
  5
D855
330
D7E3
100
AcDbEntity
  8
0
100
AcDbPoint
 10
-0.0000014987296026
 20
83.00000087601404
 30
0.0
  0
ARC
  5
D856
330
D7E3
100
AcDbEntity
  8
0
100
AcDbCircle
 10
2.399998501270374
 20
82.31966763522104
 30
0.0
 40
0.6
100
AcDbArc
 50
0.0
 51
88.09084756699943
  0
ARC
  5
D857
330
D7E3
100
AcDbEntity
  8
0
100
AcDbCircle
 10
2.399998501270374
 20
85.68033411680506
 30
0.0
 40
0.6
100
AcDbArc
 50
271.909152432994
 51
0.0
  0
LINE
  5
D858
330
D7E3
100
AcDbEntity
  8
0
100
AcDbLine
 10
9.499998501270397
 20
81.00000087601404
 30
0.0
 11
7.999998501269374
 21
81.00000087601404
 31
0.0
  0
ARC
  5
D859
330
D7E3
100
AcDbEntity
  8
0
100
AcDbCircle
 10
0.5999985012704201
 20
84.41966763522106
 30
0.0
 40
0.6
100
AcDbArc
 50
91.90915243299405
 51
180.0
  0
ARC
  5
D85A
330
D7E3
100
AcDbEntity
  8
0
100
AcDbCircle
 10
0.5999985012704201
 20
83.58033411680606
 30
0.0
 40
0.6
100
AcDbArc
 50
180.0
 51
268.0908475670059
  0
LINE
  5
D85B
330
D7E3
100
AcDbEntity
  8
0
100
AcDbLine
 10
-0.0000014987296026
 20
84.41966763522106
 30
0.0
 11
-0.0000014987296026
 21
83.58033411680606
 31
0.0
  0
LINE
  5
D85C
330
D7E3
100
AcDbEntity
  8
0
100
AcDbLine
 10
0.5800096031304065
 20
82.98066717261804
 30
0.0
 11
2.419987399409365
 21
82.91933457940904
 31
0.0
  0
LINE
  5
D85D
330
D7E3
100
AcDbEntity
  8
0
100
AcDbLine
 10
2.419987399409365
 20
85.08066717261806
 30
0.0
 11
0.5800096031304065
 21
85.01933457940902
 31
0.0
  0
LINE
  5
D85E
330
D7E3
100
AcDbEntity
  8
0
100
AcDbLine
 10
2.999998501270397
 20
89.31966763522103
 30
0.0
 11
2.999998501270397
 21
85.68033411680506
 31
0.0
  0
LINE
  5
D85F
330
D7E3
100
AcDbEntity
  8
0
100
AcDbLine
 10
9.699998501269419
 20
72.47381495444506
 30
0.0
 11
7.999998501269374
 21
72.47381495444506
 31
0.0
  0
POINT
  5
D860
330
D7E3
100
AcDbEntity
  8
0
100
AcDbPoint
 10
-0.0000014987296026
 20
76.00000087601404
 30
0.0
  0
ARC
  5
D861
330
D7E3
100
AcDbEntity
  8
0
100
AcDbCircle
 10
2.399998501270374
 20
75.31966763522103
 30
0.0
 40
0.6
100
AcDbArc
 50
0.0
 51
88.09084756699943
  0
ARC
  5
D862
330
D7E3
100
AcDbEntity
  8
0
100
AcDbCircle
 10
2.399998501270374
 20
78.68033411680506
 30
0.0
 40
0.6
100
AcDbArc
 50
271.909152432994
 51
0.0
  0
LINE
  5
D863
330
D7E3
100
AcDbEntity
  8
0
100
AcDbLine
 10
9.499998501270397
 20
73.00000087601404
 30
0.0
 11
7.999998501269374
 21
73.00000087601404
 31
0.0
  0
ARC
  5
D864
330
D7E3
100
AcDbEntity
  8
0
100
AcDbCircle
 10
0.5999985012704201
 20
77.41966763522106
 30
0.0
 40
0.6
100
AcDbArc
 50
91.90915243299405
 51
180.0
  0
ARC
  5
D865
330
D7E3
100
AcDbEntity
  8
0
100
AcDbCircle
 10
0.5999985012704201
 20
76.58033411680605
 30
0.0
 40
0.6
100
AcDbArc
 50
180.0
 51
268.0908475670059
  0
LINE
  5
D866
330
D7E3
100
AcDbEntity
  8
0
100
AcDbLine
 10
-0.0000014987296026
 20
77.41966763522106
 30
0.0
 11
-0.0000014987296026
 21
76.58033411680605
 31
0.0
  0
LINE
  5
D867
330
D7E3
100
AcDbEntity
  8
0
100
AcDbLine
 10
0.5800096031304065
 20
75.98066717261804
 30
0.0
 11
2.419987399409365
 21
75.91933457940905
 31
0.0
  0
LINE
  5
D868
330
D7E3
100
AcDbEntity
  8
0
100
AcDbLine
 10
2.419987399409365
 20
78.08066717261806
 30
0.0
 11
0.5800096031304065
 21
78.01933457940902
 31
0.0
  0
LINE
  5
D869
330
D7E3
100
AcDbEntity
  8
0
100
AcDbLine
 10
-0.0000014987296026
 20
64.61966763522207
 30
0.0
 11
-0.0000014987296026
 21
59.58033411680503
 31
0.0
  0
ARC
  5
D86A
330
D7E3
100
AcDbEntity
  8
0
100
AcDbCircle
 10
0.5999985012693969
 20
64.41966763522106
 30
0.0
 40
0.6
100
AcDbArc
 50
91.90915243299405
 51
180.0
  0
LINE
  5
D86B
330
D7E3
100
AcDbEntity
  8
0
100
AcDbLine
 10
0.5800096031304065
 20
65.01933457940902
 30
0.0
 11
2.999998501269374
 21
65.10000087601304
 31
0.0
  0
ARC
  5
D86C
330
D7E3
100
AcDbEntity
  8
0
100
AcDbCircle
 10
0.5999985012693969
 20
64.61966763522207
 30
0.0
 40
0.6
100
AcDbArc
 50
91.90915243299405
 51
180.0
  0
LINE
  5
D86D
330
D7E3
100
AcDbEntity
  8
0
100
AcDbLine
 10
0.5800096031304065
 20
65.21933457940907
 30
0.0
 11
2.999998501269374
 21
65.30000087601405
 31
0.0
  0
POINT
  5
D86E
330
D7E3
100
AcDbEntity
  8
0
100
AcDbPoint
 10
-0.0000014987296026
 20
69.00000087601404
 30
0.0
  0
ARC
  5
D86F
330
D7E3
100
AcDbEntity
  8
0
100
AcDbCircle
 10
2.399998501270374
 20
64.68033411680505
 30
0.0
 40
0.6
100
AcDbArc
 50
271.9091524329875
 51
0.0
  0
ARC
  5
D870
330
D7E3
100
AcDbEntity
  8
0
100
AcDbCircle
 10
2.399998501270374
 20
68.31966763522103
 30
0.0
 40
0.6
100
AcDbArc
 50
0.0
 51
88.09084756699943
  0
ARC
  5
D871
330
D7E3
100
AcDbEntity
  8
0
100
AcDbCircle
 10
0.5999985012704201
 20
69.58033411680606
 30
0.0
 40
0.6
100
AcDbArc
 50
180.0
 51
268.0908475670059
  0
ARC
  5
D872
330
D7E3
100
AcDbEntity
  8
0
100
AcDbCircle
 10
0.5999985012704201
 20
63.41966763522106
 30
0.0
 40
0.6
100
AcDbArc
 50
91.90915243299405
 51
180.0
  0
LINE
  5
D873
330
D7E3
100
AcDbEntity
  8
0
100
AcDbLine
 10
-0.0000014987296026
 20
70.41966763522106
 30
0.0
 11
-0.0000014987296026
 21
69.58033411680606
 31
0.0
  0
LINE
  5
D874
330
D7E3
100
AcDbEntity
  8
0
100
AcDbLine
 10
2.419987399409365
 20
64.08066717261807
 30
0.0
 11
0.5800096031304065
 21
64.01933457940902
 31
0.0
  0
LINE
  5
D875
330
D7E3
100
AcDbEntity
  8
0
100
AcDbLine
 10
2.999998501270397
 20
68.31966763522103
 30
0.0
 11
2.999998501270397
 21
64.68033411680505
 31
0.0
  0
LINE
  5
D876
330
D7E3
100
AcDbEntity
  8
0
100
AcDbLine
 10
0.5800096031304065
 20
68.98066717261804
 30
0.0
 11
2.419987399409365
 21
68.91933457940905
 31
0.0
  0
LINE
  5
D877
330
D7E3
100
AcDbEntity
  8
0
100
AcDbLine
 10
5.999998501270397
 20
70.97381495444506
 30
0.0
 11
4.999998501270397
 21
70.97381495444506
 31
0.0
  0
LINE
  5
D878
330
D7E3
100
AcDbEntity
  8
0
100
AcDbLine
 10
4.999998501270397
 20
71.00000087601404
 30
0.0
 11
3.699998501270329
 21
71.00000087601404
 31
0.0
  0
ARC
  5
D879
330
D7E3
100
AcDbEntity
  8
0
100
AcDbCircle
 10
2.399998501270374
 20
71.68033411680506
 30
0.0
 40
0.6
100
AcDbArc
 50
271.909152432994
 51
0.0
  0
LINE
  5
D87A
330
D7E3
100
AcDbEntity
  8
0
100
AcDbLine
 10
2.419987399409365
 20
71.08066717261806
 30
0.0
 11
0.5800096031304065
 21
71.01933457940901
 31
0.0
  0
ARC
  5
D87B
330
D7E3
100
AcDbEntity
  8
0
100
AcDbCircle
 10
0.5999985012693969
 20
70.41966763522106
 30
0.0
 40
0.6
100
AcDbArc
 50
91.90915243299405
 51
180.0
  0
ARC
  5
D87C
330
D7E3
100
AcDbEntity
  8
0
100
AcDbCircle
 10
0.5999985012693969
 20
59.58033411680503
 30
0.0
 40
0.6
100
AcDbArc
 50
180.0
 51
268.0908475670059
  0
LINE
  5
D87D
330
D7E3
100
AcDbEntity
  8
0
100
AcDbLine
 10
0.5800096031304065
 20
58.98066717261804
 30
0.0
 11
2.999998501269374
 21
58.90000087601305
 31
0.0
  0
POINT
  5
D87E
330
D7E3
100
AcDbEntity
  8
0
100
AcDbPoint
 10
-0.0000014987296026
 20
55.00000087601302
 30
0.0
  0
POINT
  5
D87F
330
D7E3
100
AcDbEntity
  8
0
100
AcDbPoint
 10
-0.0000014987296026
 20
62.00000087601302
 30
0.0
  0
ARC
  5
D880
330
D7E3
100
AcDbEntity
  8
0
100
AcDbCircle
 10
2.399998501270374
 20
57.68033411680505
 30
0.0
 40
0.6
100
AcDbArc
 50
271.909152432994
 51
0.0
  0
ARC
  5
D881
330
D7E3
100
AcDbEntity
  8
0
100
AcDbCircle
 10
2.399998501270374
 20
61.31966763522104
 30
0.0
 40
0.6
100
AcDbArc
 50
0.0
 51
88.09084756699943
  0
ARC
  5
D882
330
D7E3
100
AcDbEntity
  8
0
100
AcDbCircle
 10
0.5999985012704201
 20
62.58033411680606
 30
0.0
 40
0.6
100
AcDbArc
 50
180.0
 51
268.0908475670059
  0
ARC
  5
D883
330
D7E3
100
AcDbEntity
  8
0
100
AcDbCircle
 10
0.5999985012704201
 20
56.41966763522106
 30
0.0
 40
0.6
100
AcDbArc
 50
91.90915243299405
 51
180.0
  0
ARC
  5
D884
330
D7E3
100
AcDbEntity
  8
0
100
AcDbCircle
 10
0.5999985012704201
 20
55.58033411680606
 30
0.0
 40
0.6
100
AcDbArc
 50
180.0
 51
268.0908475670059
  0
LINE
  5
D885
330
D7E3
100
AcDbEntity
  8
0
100
AcDbLine
 10
-0.0000014987296026
 20
56.41966763522106
 30
0.0
 11
-0.0000014987296026
 21
55.58033411680606
 31
0.0
  0
LINE
  5
D886
330
D7E3
100
AcDbEntity
  8
0
100
AcDbLine
 10
0.5800096031304065
 20
54.98066717261804
 30
0.0
 11
2.419987399409365
 21
54.91933457940906
 31
0.0
  0
LINE
  5
D887
330
D7E3
100
AcDbEntity
  8
0
100
AcDbLine
 10
2.419987399409365
 20
57.08066717261806
 30
0.0
 11
0.5800096031304065
 21
57.01933457940902
 31
0.0
  0
LINE
  5
D888
330
D7E3
100
AcDbEntity
  8
0
100
AcDbLine
 10
2.999998501270397
 20
61.31966763522104
 30
0.0
 11
2.999998501270397
 21
57.68033411680505
 31
0.0
  0
LINE
  5
D889
330
D7E3
100
AcDbEntity
  8
0
100
AcDbLine
 10
0.5800096031304065
 20
61.98066717261804
 30
0.0
 11
2.419987399409365
 21
61.91933457940905
 31
0.0
  0
ARC
  5
D88A
330
D7E3
100
AcDbEntity
  8
0
100
AcDbCircle
 10
2.399998501270374
 20
54.31966763522104
 30
0.0
 40
0.6
100
AcDbArc
 50
0.0
 51
88.09084756699943
  0
ARC
  5
D88B
330
D7E3
100
AcDbEntity
  8
0
100
AcDbCircle
 10
2.399998501270374
 20
36.68033411680506
 30
0.0
 40
0.6
100
AcDbArc
 50
271.909152432994
 51
0.0
  0
LINE
  5
D88C
330
D7E3
100
AcDbEntity
  8
0
100
AcDbLine
 10
2.999998501270397
 20
47.31966763522104
 30
0.0
 11
2.999998501270397
 21
43.68033411680506
 31
0.0
  0
POINT
  5
D88D
330
D7E3
100
AcDbEntity
  8
0
100
AcDbPoint
 10
-0.0000014987296026
 20
48.00000087601404
 30
0.0
  0
ARC
  5
D88E
330
D7E3
100
AcDbEntity
  8
0
100
AcDbCircle
 10
2.399998501270374
 20
47.31966763522104
 30
0.0
 40
0.6
100
AcDbArc
 50
0.0
 51
88.09084756699943
  0
ARC
  5
D88F
330
D7E3
100
AcDbEntity
  8
0
100
AcDbCircle
 10
2.399998501270374
 20
50.68033411680506
 30
0.0
 40
0.6
100
AcDbArc
 50
271.909152432994
 51
0.0
  0
ARC
  5
D890
330
D7E3
100
AcDbEntity
  8
0
100
AcDbCircle
 10
0.5999985012693969
 20
49.41966763522106
 30
0.0
 40
0.6
100
AcDbArc
 50
91.90915243299405
 51
180.0
  0
ARC
  5
D891
330
D7E3
100
AcDbEntity
  8
0
100
AcDbCircle
 10
0.5999985012704201
 20
48.58033411680605
 30
0.0
 40
0.6
100
AcDbArc
 50
180.0
 51
268.0908475670059
  0
LINE
  5
D892
330
D7E3
100
AcDbEntity
  8
0
100
AcDbLine
 10
-0.0000014987296026
 20
49.41966763522106
 30
0.0
 11
-0.0000014987296026
 21
48.58033411680605
 31
0.0
  0
LINE
  5
D893
330
D7E3
100
AcDbEntity
  8
0
100
AcDbLine
 10
0.5800096031304065
 20
47.98066717261804
 30
0.0
 11
2.419987399409365
 21
47.91933457940905
 31
0.0
  0
LINE
  5
D894
330
D7E3
100
AcDbEntity
  8
0
100
AcDbLine
 10
2.419987399409365
 20
50.08066717261806
 30
0.0
 11
0.5800096031304065
 21
50.01933457940902
 31
0.0
  0
POINT
  5
D895
330
D7E3
100
AcDbEntity
  8
0
100
AcDbPoint
 10
-0.0000014987296026
 20
41.00000087601301
 30
0.0
  0
ARC
  5
D896
330
D7E3
100
AcDbEntity
  8
0
100
AcDbCircle
 10
2.399998501270374
 20
40.31966763522103
 30
0.0
 40
0.6
100
AcDbArc
 50
0.0
 51
88.09084756699943
  0
ARC
  5
D897
330
D7E3
100
AcDbEntity
  8
0
100
AcDbCircle
 10
2.399998501270374
 20
43.68033411680506
 30
0.0
 40
0.6
100
AcDbArc
 50
271.909152432994
 51
0.0
  0
ARC
  5
D898
330
D7E3
100
AcDbEntity
  8
0
100
AcDbCircle
 10
0.5999985012693969
 20
42.41966763522106
 30
0.0
 40
0.6
100
AcDbArc
 50
91.90915243299405
 51
180.0
  0
ARC
  5
D899
330
D7E3
100
AcDbEntity
  8
0
100
AcDbCircle
 10
0.5999985012693969
 20
41.58033411680605
 30
0.0
 40
0.6
100
AcDbArc
 50
180.0
 51
268.0908475670059
  0
LINE
  5
D89A
330
D7E3
100
AcDbEntity
  8
0
100
AcDbLine
 10
-0.0000014987296026
 20
42.41966763522106
 30
0.0
 11
-0.0000014987296026
 21
41.58033411680605
 31
0.0
  0
LINE
  5
D89B
330
D7E3
100
AcDbEntity
  8
0
100
AcDbLine
 10
0.5800096031304065
 20
40.98066717261803
 30
0.0
 11
2.419987399409365
 21
40.91933457940905
 31
0.0
  0
LINE
  5
D89C
330
D7E3
100
AcDbEntity
  8
0
100
AcDbLine
 10
2.419987399409365
 20
43.08066717261806
 30
0.0
 11
0.5800096031304065
 21
43.01933457940902
 31
0.0
  0
LINE
  5
D89D
330
D7E3
100
AcDbEntity
  8
0
100
AcDbLine
 10
2.999998501270397
 20
40.31966763522103
 30
0.0
 11
2.999998501270397
 21
36.68033411680506
 31
0.0
  0
ARC
  5
D89E
330
D7E3
100
AcDbEntity
  8
0
100
AcDbCircle
 10
0.5999985012693969
 20
27.58033411680605
 30
0.0
 40
0.6
100
AcDbArc
 50
180.0
 51
268.0908475670059
  0
LINE
  5
D89F
330
D7E3
100
AcDbEntity
  8
0
100
AcDbLine
 10
9.699998501269419
 20
31.47381495444506
 30
0.0
 11
9.699998501269419
 21
22.47381495444506
 31
0.0
  0
LINE
  5
D8A0
330
D7E3
100
AcDbEntity
  8
0
100
AcDbLine
 10
7.999998501269374
 20
31.47381495444506
 30
0.0
 11
7.999998501269374
 21
22.47381495444506
 31
0.0
  0
LINE
  5
D8A1
330
D7E3
100
AcDbEntity
  8
0
100
AcDbLine
 10
4.999998501270397
 20
33.00000087601404
 30
0.0
 11
4.999998501270397
 21
21.00000087601301
 31
0.0
  0
LINE
  5
D8A2
330
D7E3
100
AcDbEntity
  8
0
100
AcDbLine
 10
4.499998501270397
 20
33.00000087601404
 30
0.0
 11
4.499998501270397
 21
21.00000087601404
 31
0.0
  0
LINE
  5
D8A3
330
D7E3
100
AcDbEntity
  8
0
100
AcDbLine
 10
3.699998501270329
 20
33.00000087601404
 30
0.0
 11
3.699998501270329
 21
21.10000087601304
 31
0.0
  0
LINE
  5
D8A4
330
D7E3
100
AcDbEntity
  8
0
100
AcDbLine
 10
9.499998501270397
 20
31.00000087601404
 30
0.0
 11
9.499998501270397
 21
23.00000087601404
 31
0.0
  0
LINE
  5
D8A5
330
D7E3
100
AcDbEntity
  8
0
100
AcDbLine
 10
8.699998501270329
 20
31.00000087601404
 30
0.0
 11
8.699998501270329
 21
23.00000087601404
 31
0.0
  0
LINE
  5
D8A6
330
D7E3
100
AcDbEntity
  8
0
100
AcDbLine
 10
8.09999850127042
 20
31.00000087601404
 30
0.0
 11
8.09999850127042
 21
23.00000087601404
 31
0.0
  0
ARC
  5
D8A7
330
D7E3
100
AcDbEntity
  8
0
100
AcDbCircle
 10
2.399998501270374
 20
29.68033411680505
 30
0.0
 40
0.6
100
AcDbArc
 50
271.909152432994
 51
0.0
  0
ARC
  5
D8A8
330
D7E3
100
AcDbEntity
  8
0
100
AcDbCircle
 10
0.5999985012704201
 20
28.419667635221
 30
0.0
 40
0.6
100
AcDbArc
 50
91.90915243299405
 51
180.0
  0
LINE
  5
D8A9
330
D7E3
100
AcDbEntity
  8
0
100
AcDbLine
 10
-0.0000014987296026
 20
28.419667635221
 30
0.0
 11
-0.0000014987296026
 21
27.58033411680605
 31
0.0
  0
LINE
  5
D8AA
330
D7E3
100
AcDbEntity
  8
0
100
AcDbLine
 10
2.419987399409365
 20
29.08066717261806
 30
0.0
 11
0.5800096031304065
 21
29.01933457940902
 31
0.0
  0
LINE
  5
D8AB
330
D7E3
100
AcDbEntity
  8
0
100
AcDbLine
 10
5.999998501270397
 20
32.97381495444602
 30
0.0
 11
4.999998501270397
 21
32.97381495444602
 31
0.0
  0
LINE
  5
D8AC
330
D7E3
100
AcDbEntity
  8
0
100
AcDbLine
 10
9.699998501269419
 20
31.47381495444506
 30
0.0
 11
7.999998501269374
 21
31.47381495444506
 31
0.0
  0
LINE
  5
D8AD
330
D7E3
100
AcDbEntity
  8
0
100
AcDbLine
 10
4.999998501270397
 20
33.00000087601404
 30
0.0
 11
3.699998501270329
 21
33.00000087601404
 31
0.0
  0
POINT
  5
D8AE
330
D7E3
100
AcDbEntity
  8
0
100
AcDbPoint
 10
-0.0000014987296026
 20
34.00000087601404
 30
0.0
  0
ARC
  5
D8AF
330
D7E3
100
AcDbEntity
  8
0
100
AcDbCircle
 10
2.399998501270374
 20
33.31966763522103
 30
0.0
 40
0.6
100
AcDbArc
 50
0.0
 51
88.09084756699943
  0
LINE
  5
D8B0
330
D7E3
100
AcDbEntity
  8
0
100
AcDbLine
 10
9.499998501270397
 20
31.00000087601404
 30
0.0
 11
7.999998501269374
 21
31.00000087601404
 31
0.0
  0
ARC
  5
D8B1
330
D7E3
100
AcDbEntity
  8
0
100
AcDbCircle
 10
0.5999985012693969
 20
35.41966763522106
 30
0.0
 40
0.6
100
AcDbArc
 50
91.90915243299405
 51
180.0
  0
ARC
  5
D8B2
330
D7E3
100
AcDbEntity
  8
0
100
AcDbCircle
 10
0.5999985012704201
 20
34.58033411680605
 30
0.0
 40
0.6
100
AcDbArc
 50
180.0
 51
268.0908475670059
  0
LINE
  5
D8B3
330
D7E3
100
AcDbEntity
  8
0
100
AcDbLine
 10
-0.0000014987296026
 20
35.41966763522106
 30
0.0
 11
-0.0000014987296026
 21
34.58033411680605
 31
0.0
  0
LINE
  5
D8B4
330
D7E3
100
AcDbEntity
  8
0
100
AcDbLine
 10
0.5800096031304065
 20
33.98066717261804
 30
0.0
 11
2.419987399409365
 21
33.91933457940905
 31
0.0
  0
LINE
  5
D8B5
330
D7E3
100
AcDbEntity
  8
0
100
AcDbLine
 10
2.419987399409365
 20
36.08066717261806
 30
0.0
 11
0.5800096031304065
 21
36.01933457940901
 31
0.0
  0
LINE
  5
D8B6
330
D7E3
100
AcDbEntity
  8
0
100
AcDbLine
 10
2.999998501270397
 20
33.31966763522103
 30
0.0
 11
2.999998501270397
 21
29.68033411680505
 31
0.0
  0
LINE
  5
D8B7
330
D7E3
100
AcDbEntity
  8
0
100
AcDbLine
 10
5.999998501270397
 20
20.97381495444506
 30
0.0
 11
4.999998501270397
 21
20.97381495444506
 31
0.0
  0
LINE
  5
D8B8
330
D7E3
100
AcDbEntity
  8
0
100
AcDbLine
 10
4.999998501270397
 20
21.00000087601404
 30
0.0
 11
3.699998501270329
 21
21.00000087601404
 31
0.0
  0
LINE
  5
D8B9
330
D7E3
100
AcDbEntity
  8
0
100
AcDbLine
 10
9.699998501269419
 20
22.47381495444506
 30
0.0
 11
7.999998501269374
 21
22.47381495444506
 31
0.0
  0
POINT
  5
D8BA
330
D7E3
100
AcDbEntity
  8
0
100
AcDbPoint
 10
-0.0000014987296026
 20
22.00000087601301
 30
0.0
  0
POINT
  5
D8BB
330
D7E3
100
AcDbEntity
  8
0
100
AcDbPoint
 10
-0.0000014987296026
 20
27.00000087601301
 30
0.0
  0
ARC
  5
D8BC
330
D7E3
100
AcDbEntity
  8
0
100
AcDbCircle
 10
2.499998501270397
 20
22.58361191000705
 30
0.0
 40
0.5
100
AcDbArc
 50
271.909152432994
 51
0.0
  0
ARC
  5
D8BD
330
D7E3
100
AcDbEntity
  8
0
100
AcDbCircle
 10
2.399998501270374
 20
26.31966763522104
 30
0.0
 40
0.6
100
AcDbArc
 50
0.0
 51
88.09084756699943
  0
LINE
  5
D8BE
330
D7E3
100
AcDbEntity
  8
0
100
AcDbLine
 10
9.499998501270397
 20
23.00000087601404
 30
0.0
 11
7.999998501269374
 21
23.00000087601404
 31
0.0
  0
LINE
  5
D8BF
330
D7E3
100
AcDbEntity
  8
0
100
AcDbLine
 10
2.516655916386412
 20
22.08388945651705
 30
0.0
 11
0.5800096031304065
 21
22.01933457940902
 31
0.0
  0
LINE
  5
D8C0
330
D7E3
100
AcDbEntity
  8
0
100
AcDbLine
 10
2.999998501270397
 20
26.31966763522104
 30
0.0
 11
2.999998501270397
 21
22.58361191000705
 31
0.0
  0
LINE
  5
D8C1
330
D7E3
100
AcDbEntity
  8
0
100
AcDbLine
 10
0.5800096031304065
 20
26.98066717261804
 30
0.0
 11
2.419987399409365
 21
26.91933457940905
 31
0.0
  0
ARC
  5
D8C2
330
D7E3
100
AcDbEntity
  8
0
100
AcDbCircle
 10
0.5999985012704201
 20
21.419667635221
 30
0.0
 40
0.6
100
AcDbArc
 50
91.90915243299405
 51
180.0
  0
LINE
  5
D8C3
330
D7E3
100
AcDbEntity
  8
0
100
AcDbLine
 10
54.49999850127039
 20
54.97381495444506
 30
0.0
 11
54.49999850127039
 21
48.97381495444506
 31
0.0
  0
LINE
  5
D8C4
330
D7E3
100
AcDbEntity
  8
0
100
AcDbLine
 10
33.49999850127039
 20
48.97381495444506
 30
0.0
 11
33.49999850127039
 21
54.97381495444506
 31
0.0
  0
LINE
  5
D8C5
330
D7E3
100
AcDbEntity
  8
0
100
AcDbLine
 10
32.9999985012704
 20
82.97381495444506
 30
0.0
 11
32.9999985012704
 21
84.97381495444505
 31
0.0
  0
LINE
  5
D8C6
330
D7E3
100
AcDbEntity
  8
0
100
AcDbLine
 10
32.9999985012704
 20
75.97381495444506
 30
0.0
 11
32.9999985012704
 21
77.97381495444506
 31
0.0
  0
LINE
  5
D8C7
330
D7E3
100
AcDbEntity
  8
0
100
AcDbLine
 10
33.49999850127039
 20
63.97381495444506
 30
0.0
 11
33.49999850127039
 21
68.97381495444506
 31
0.0
  0
LINE
  5
D8C8
330
D7E3
100
AcDbEntity
  8
0
100
AcDbLine
 10
33.49999850127039
 20
56.97381495444506
 30
0.0
 11
33.49999850127039
 21
61.97381495444506
 31
0.0
  0
LINE
  5
D8C9
330
D7E3
100
AcDbEntity
  8
0
100
AcDbLine
 10
55.9999985012704
 20
82.97381495444506
 30
0.0
 11
55.9999985012704
 21
84.97381495444505
 31
0.0
  0
LINE
  5
D8CA
330
D7E3
100
AcDbEntity
  8
0
100
AcDbLine
 10
54.99999850127039
 20
82.97381495444506
 30
0.0
 11
54.99999850127039
 21
84.97381495444505
 31
0.0
  0
LINE
  5
D8CB
330
D7E3
100
AcDbEntity
  8
0
100
AcDbLine
 10
56.99999850127039
 20
82.97381495444506
 30
0.0
 11
54.99999850127039
 21
82.97381495444506
 31
0.0
  0
LINE
  5
D8CC
330
D7E3
100
AcDbEntity
  8
0
100
AcDbLine
 10
56.99999850127039
 20
84.97381495444505
 30
0.0
 11
54.99999850127039
 21
84.97381495444505
 31
0.0
  0
LINE
  5
D8CD
330
D7E3
100
AcDbEntity
  8
0
100
AcDbLine
 10
55.9999985012704
 20
75.97381495444506
 30
0.0
 11
55.9999985012704
 21
77.97381495444506
 31
0.0
  0
LINE
  5
D8CE
330
D7E3
100
AcDbEntity
  8
0
100
AcDbLine
 10
54.99999850127039
 20
75.97381495444506
 30
0.0
 11
54.99999850127039
 21
77.97381495444506
 31
0.0
  0
LINE
  5
D8CF
330
D7E3
100
AcDbEntity
  8
0
100
AcDbLine
 10
56.99999850127039
 20
75.97381495444506
 30
0.0
 11
54.99999850127039
 21
75.97381495444506
 31
0.0
  0
LINE
  5
D8D0
330
D7E3
100
AcDbEntity
  8
0
100
AcDbLine
 10
56.99999850127039
 20
77.97381495444506
 30
0.0
 11
54.99999850127039
 21
77.97381495444506
 31
0.0
  0
LINE
  5
D8D1
330
D7E3
100
AcDbEntity
  8
0
100
AcDbLine
 10
55.9999985012704
 20
61.97381495444506
 30
0.0
 11
55.9999985012704
 21
63.97381495444506
 31
0.0
  0
LINE
  5
D8D2
330
D7E3
100
AcDbEntity
  8
0
100
AcDbLine
 10
54.99999850127039
 20
61.97381495444506
 30
0.0
 11
54.99999850127039
 21
63.97381495444506
 31
0.0
  0
LINE
  5
D8D3
330
D7E3
100
AcDbEntity
  8
0
100
AcDbLine
 10
54.49999850127039
 20
68.97381495444506
 30
0.0
 11
54.49999850127039
 21
63.97381495444506
 31
0.0
  0
LINE
  5
D8D4
330
D7E3
100
AcDbEntity
  8
0
100
AcDbLine
 10
55.9999985012704
 20
68.97381495444506
 30
0.0
 11
55.9999985012704
 21
70.97381495444506
 31
0.0
  0
LINE
  5
D8D5
330
D7E3
100
AcDbEntity
  8
0
100
AcDbLine
 10
54.99999850127039
 20
68.97381495444506
 30
0.0
 11
54.99999850127039
 21
70.97381495444506
 31
0.0
  0
LINE
  5
D8D6
330
D7E3
100
AcDbEntity
  8
0
100
AcDbLine
 10
54.49999850127039
 20
61.97381495444506
 30
0.0
 11
54.49999850127039
 21
56.97381495444506
 31
0.0
  0
LINE
  5
D8D7
330
D7E3
100
AcDbEntity
  8
0
100
AcDbLine
 10
55.9999985012704
 20
54.97381495444506
 30
0.0
 11
55.9999985012704
 21
56.97381495444506
 31
0.0
  0
LINE
  5
D8D8
330
D7E3
100
AcDbEntity
  8
0
100
AcDbLine
 10
54.99999850127039
 20
54.97381495444506
 30
0.0
 11
54.99999850127039
 21
56.97381495444506
 31
0.0
  0
LINE
  5
D8D9
330
D7E3
100
AcDbEntity
  8
0
100
AcDbLine
 10
38.9999985012704
 20
49.97381495444506
 30
0.0
 11
48.9999985012704
 21
49.97381495444506
 31
0.0
  0
LINE
  5
D8DA
330
D7E3
100
AcDbEntity
  8
0
100
AcDbLine
 10
54.49999850127039
 20
48.97381495444506
 30
0.0
 11
33.49999850127039
 21
48.97381495444506
 31
0.0
  0
LINE
  5
D8DB
330
D7E3
100
AcDbEntity
  8
0
100
AcDbLine
 10
32.9999985012704
 20
47.97381495444506
 30
0.0
 11
32.9999985012704
 21
49.97381495444506
 31
0.0
  0
ARC
  5
D8DC
330
D7E3
100
AcDbEntity
  8
0
100
AcDbCircle
 10
38.9999985012704
 20
50.47381495444506
 30
0.0
 40
0.5
100
AcDbArc
 50
251.374822272642
 51
270.0
  0
ARC
  5
D8DD
330
D7E3
100
AcDbEntity
  8
0
100
AcDbCircle
 10
48.9999985012704
 20
50.47381495444506
 30
0.0
 40
0.5
100
AcDbArc
 50
270.0
 51
288.6251777273579
  0
LINE
  5
D8DE
330
D7E3
100
AcDbEntity
  8
0
100
AcDbLine
 10
55.9999985012704
 20
47.97381495444506
 30
0.0
 11
55.9999985012704
 21
49.97381495444506
 31
0.0
  0
LINE
  5
D8DF
330
D7E3
100
AcDbEntity
  8
0
100
AcDbLine
 10
54.99999850127039
 20
47.97381495444506
 30
0.0
 11
54.99999850127039
 21
49.97381495444506
 31
0.0
  0
LINE
  5
D8E0
330
D7E3
100
AcDbEntity
  8
0
100
AcDbLine
 10
56.99999850127039
 20
47.97381495444506
 30
0.0
 11
54.99999850127039
 21
47.97381495444506
 31
0.0
  0
LINE
  5
D8E1
330
D7E3
100
AcDbEntity
  8
0
100
AcDbLine
 10
56.99999850127039
 20
49.97381495444506
 30
0.0
 11
54.99999850127039
 21
49.97381495444506
 31
0.0
  0
LINE
  5
D8E2
330
D7E3
100
AcDbEntity
  8
0
100
AcDbLine
 10
55.9999985012704
 20
40.97381495444506
 30
0.0
 11
55.9999985012704
 21
42.97381495444506
 31
0.0
  0
LINE
  5
D8E3
330
D7E3
100
AcDbEntity
  8
0
100
AcDbLine
 10
54.99999850127039
 20
40.97381495444506
 30
0.0
 11
54.99999850127039
 21
42.97381495444506
 31
0.0
  0
LINE
  5
D8E4
330
D7E3
100
AcDbEntity
  8
0
100
AcDbLine
 10
55.9999985012704
 20
26.97381495444506
 30
0.0
 11
55.9999985012704
 21
28.97381495444506
 31
0.0
  0
LINE
  5
D8E5
330
D7E3
100
AcDbEntity
  8
0
100
AcDbLine
 10
54.99999850127039
 20
26.97381495444506
 30
0.0
 11
54.99999850127039
 21
28.97381495444506
 31
0.0
  0
LINE
  5
D8E6
330
D7E3
100
AcDbEntity
  8
0
100
AcDbLine
 10
55.9999985012704
 20
33.97381495444506
 30
0.0
 11
55.9999985012704
 21
35.97381495444506
 31
0.0
  0
LINE
  5
D8E7
330
D7E3
100
AcDbEntity
  8
0
100
AcDbLine
 10
54.99999850127039
 20
33.97381495444506
 30
0.0
 11
54.99999850127039
 21
35.97381495444506
 31
0.0
  0
LINE
  5
D8E8
330
D7E3
100
AcDbEntity
  8
0
100
AcDbLine
 10
57.9999985012704
 20
3.585961111277015
 30
0.0
 11
4.999998501270397
 21
4.97381495444506
 31
0.0
  0
LINE
  5
D8E9
330
D7E3
100
AcDbEntity
  8
0
100
AcDbLine
 10
3.999998501270397
 20
5.000000876014041
 30
0.0
 11
57.9999985012704
 21
3.585961111277015
 31
0.0
  0
LINE
  5
D8EA
330
D7E3
100
AcDbEntity
  8
0
100
AcDbLine
 10
-0.0000014987296026
 20
0.0000008760140418
 30
0.0
 11
57.9999985012704
 21
0.0000008760140418
 31
0.0
  0
LINE
  5
D8EB
330
D7E3
100
AcDbEntity
  8
0
100
AcDbLine
 10
3.999998501270397
 20
5.000000876014041
 30
0.0
 11
-0.0000014987296026
 21
4.895257189737037
 31
0.0
  0
LINE
  5
D8EC
330
D7E3
100
AcDbEntity
  8
0
100
AcDbLine
 10
31.09999850127036
 20
3.800000876013029
 30
0.0
 11
31.09999850127036
 21
0.0000008760140418
 31
0.0
  0
LINE
  5
D8ED
330
D7E3
100
AcDbEntity
  8
0
100
AcDbLine
 10
26.89999850126941
 20
3.800000876013029
 30
0.0
 11
26.89999850126941
 21
0.0000008760140418
 31
0.0
  0
LINE
  5
D8EE
330
D7E3
100
AcDbEntity
  8
0
100
AcDbLine
 10
23.49999850127039
 20
3.800000876013029
 30
0.0
 11
34.49999850127039
 21
3.800000876013029
 31
0.0
  0
LINE
  5
D8EF
330
D7E3
100
AcDbEntity
  8
0
100
AcDbLine
 10
23.49999850127039
 20
4.489375405414079
 30
0.0
 11
23.49999850127039
 21
3.800000876013029
 31
0.0
  0
LINE
  5
D8F0
330
D7E3
100
AcDbEntity
  8
0
100
AcDbLine
 10
34.49999850127039
 20
4.201330268154038
 30
0.0
 11
34.49999850127039
 21
3.800000876013029
 31
0.0
  0
LINE
  5
D8F1
330
D7E3
100
AcDbEntity
  8
0
100
AcDbLine
 10
57.9999985012704
 20
0.0000008760140418
 30
0.0
 11
57.9999985012704
 21
3.585961111277015
 31
0.0
  0
LINE
  5
D8F2
330
D7E3
100
AcDbEntity
  8
0
100
AcDbLine
 10
41.14999850127043
 20
120.973814954445
 30
0.0
 11
41.14999850127043
 21
124.373814954445
 31
0.0
  0
LINE
  5
D8F3
330
D7E3
100
AcDbEntity
  8
0
100
AcDbLine
 10
41.14999850127043
 20
124.373814954445
 30
0.0
 11
47.44999850127044
 21
124.373814954445
 31
0.0
  0
LINE
  5
D8F4
330
D7E3
100
AcDbEntity
  8
0
100
AcDbLine
 10
47.44999850127044
 20
124.373814954445
 30
0.0
 11
47.44999850127044
 21
120.973814954445
 31
0.0
  0
LINE
  5
D8F5
330
D7E3
100
AcDbEntity
  8
0
100
AcDbLine
 10
15.59999850126939
 20
126.273814954445
 30
0.0
 11
15.59999850126939
 21
127.573814954445
 31
0.0
  0
LINE
  5
D8F6
330
D7E3
100
AcDbEntity
  8
0
100
AcDbLine
 10
15.59999850126939
 20
127.573814954445
 30
0.0
 11
24.94499850126948
 21
127.573814954445
 31
0.0
  0
LINE
  5
D8F7
330
D7E3
100
AcDbEntity
  8
0
100
AcDbLine
 10
24.94499850126948
 20
127.573814954445
 30
0.0
 11
24.94499850126948
 21
120.973814954445
 31
0.0
  0
LINE
  5
D8F8
330
D7E3
100
AcDbEntity
  8
0
100
AcDbLine
 10
15.19999850126942
 20
121.973814954445
 30
0.0
 11
15.19999850126942
 21
126.273814954445
 31
0.0
  0
LINE
  5
D8F9
330
D7E3
100
AcDbEntity
  8
0
100
AcDbLine
 10
15.19999850126942
 20
126.273814954445
 30
0.0
 11
21.09999850126945
 21
126.273814954445
 31
0.0
  0
LINE
  5
D8FA
330
D7E3
100
AcDbEntity
  8
0
100
AcDbLine
 10
21.09999850126945
 20
126.273814954445
 30
0.0
 11
21.09999850126945
 21
121.973814954445
 31
0.0
  0
LINE
  5
D8FB
330
D7E3
100
AcDbEntity
  8
0
100
AcDbLine
 10
14.09999850127042
 20
120.973814954445
 30
0.0
 11
14.09999850127042
 21
121.973814954445
 31
0.0
  0
LINE
  5
D8FC
330
D7E3
100
AcDbEntity
  8
0
100
AcDbLine
 10
14.09999850127042
 20
121.973814954445
 30
0.0
 11
22.69999850126947
 21
121.973814954445
 31
0.0
  0
LINE
  5
D8FD
330
D7E3
100
AcDbEntity
  8
0
100
AcDbLine
 10
22.69999850126947
 20
121.973814954445
 30
0.0
 11
22.69999850126947
 21
120.973814954445
 31
0.0
  0
LINE
  5
D8FE
330
D7E3
100
AcDbEntity
  8
0
100
AcDbLine
 10
48.9999985012704
 20
50.00000087601303
 30
0.0
 11
38.9999985012704
 21
50.00000087601304
 31
0.0
  0
LINE
  5
D8FF
330
D7E3
100
AcDbEntity
  8
0
100
AcDbLine
 10
51.4999985012704
 20
102.000000876013
 30
0.0
 11
49.99999850127039
 21
102.000000876013
 31
0.0
  0
LINE
  5
D900
330
D7E3
100
AcDbEntity
  8
0
100
AcDbLine
 10
53.4999985012704
 20
52.00000087601302
 30
0.0
 11
34.49999850127039
 21
52.00000087601303
 31
0.0
  0
LINE
  5
D901
330
D7E3
100
AcDbEntity
  8
0
100
AcDbLine
 10
34.49999850127039
 20
90.00000087601303
 30
0.0
 11
53.4999985012704
 21
90.00000087601302
 31
0.0
  0
LINE
  5
D902
330
D7E3
100
AcDbEntity
  8
0
100
AcDbLine
 10
34.49999850127039
 20
92.00000087601303
 30
0.0
 11
53.4999985012704
 21
92.00000087601301
 31
0.0
  0
LINE
  5
D903
330
D7E3
100
AcDbEntity
  8
0
100
AcDbLine
 10
34.55277668742439
 20
102.000000876013
 30
0.0
 11
53.44722031511543
 21
102.000000876013
 31
0.0
  0
LINE
  5
D904
330
D7E3
100
AcDbEntity
  8
0
100
AcDbLine
 10
34.55277668742439
 20
102.000000876013
 30
0.0
 11
34.55277668742439
 21
92.00000087601303
 31
0.0
  0
LINE
  5
D905
330
D7E3
100
AcDbEntity
  8
0
100
AcDbLine
 10
53.44722031511543
 20
102.000000876013
 30
0.0
 11
53.44722031511543
 21
92.00000087601301
 31
0.0
  0
LINE
  5
D906
330
D7E3
100
AcDbEntity
  8
0
100
AcDbLine
 10
53.4999985012704
 20
92.00000087601301
 30
0.0
 11
53.4999985012704
 21
50.00000087601303
 31
0.0
  0
LINE
  5
D907
330
D7E3
100
AcDbEntity
  8
0
100
AcDbLine
 10
53.4999985012704
 20
50.00000087601303
 30
0.0
 11
34.49999850127039
 21
50.00000087601304
 31
0.0
  0
LINE
  5
D908
330
D7E3
100
AcDbEntity
  8
0
100
AcDbLine
 10
34.49999850127039
 20
50.00000087601304
 30
0.0
 11
34.49999850127039
 21
92.00000087601303
 31
0.0
  0
LINE
  5
D909
330
D7E3
100
AcDbEntity
  8
0
100
AcDbLine
 10
38.9999985012704
 20
52.00000087601303
 30
0.0
 11
38.9999985012704
 21
49.97381495444506
 31
0.0
  0
ARC
  5
D90A
330
D7E3
100
AcDbEntity
  8
0
100
AcDbCircle
 10
35.2999985012704
 20
82.00000087601303
 30
0.0
 40
1.05
100
AcDbArc
 50
139.6324064558198
 51
220.3675935441801
  0
LINE
  5
D90B
330
D7E3
100
AcDbEntity
  8
0
100
AcDbLine
 10
48.9999985012704
 20
49.97381495444506
 30
0.0
 11
48.9999985012704
 21
52.00000087601302
 31
0.0
  0
LINE
  5
D90C
330
D7E3
100
AcDbEntity
  8
0
100
AcDbLine
 10
34.55277668742439
 20
98.97381495444506
 30
0.0
 11
15.99999850127039
 21
98.97381495444506
 31
0.0
  0
LINE
  5
D90D
330
D7E3
100
AcDbEntity
  8
0
100
AcDbLine
 10
34.55277668742439
 20
96.97381495444506
 30
0.0
 11
15.99999850127039
 21
96.97381495444506
 31
0.0
  0
LINE
  5
D90E
330
D7E3
100
AcDbEntity
  8
0
100
AcDbLine
 10
34.49999850127034
 20
70.97381495444506
 30
0.0
 11
15.99999850127039
 21
70.97381495444506
 31
0.0
  0
LINE
  5
D90F
330
D7E3
100
AcDbEntity
  8
0
100
AcDbLine
 10
34.49999850127034
 20
68.97381495444506
 30
0.0
 11
15.99999850127039
 21
68.97381495444506
 31
0.0
  0
LINE
  5
D910
330
D7E3
100
AcDbEntity
  8
0
100
AcDbLine
 10
34.49999850127034
 20
63.97381495444506
 30
0.0
 11
15.99999850127039
 21
63.97381495444506
 31
0.0
  0
LINE
  5
D911
330
D7E3
100
AcDbEntity
  8
0
100
AcDbLine
 10
34.49999850127034
 20
61.97381495444506
 30
0.0
 11
15.99999850127039
 21
61.97381495444506
 31
0.0
  0
LINE
  5
D912
330
D7E3
100
AcDbEntity
  8
0
100
AcDbLine
 10
34.49999850127034
 20
56.97381495444506
 30
0.0
 11
15.99999850127039
 21
56.97381495444506
 31
0.0
  0
LINE
  5
D913
330
D7E3
100
AcDbEntity
  8
0
100
AcDbLine
 10
34.49999850127034
 20
54.97381495444506
 30
0.0
 11
15.99999850127039
 21
54.97381495444506
 31
0.0
  0
LINE
  5
D914
330
D7E3
100
AcDbEntity
  8
0
100
AcDbLine
 10
48.9999985012704
 20
50.00000087601303
 30
0.0
 11
53.4999985012704
 21
50.00000087601303
 31
0.0
  0
LINE
  5
D915
330
D7E3
100
AcDbEntity
  8
0
100
AcDbLine
 10
53.4999985012704
 20
50.00000087601303
 30
0.0
 11
53.4999985012704
 21
50.00000087601303
 31
0.0
  0
ENDBLK
  5
D917
330
D7E3
100
AcDbEntity
  8
0
100
AcDbBlockEnd
  0
BLOCK
  5
FE15
330
FD45
100
AcDbEntity
  8
0
100
AcDbBlockBegin
  2
A$C413B70EE
 70
     0
 10
0.0
 20
0.0
 30
0.0
  3
A$C413B70EE
  1
A$C413B70EE
  0
LINE
  5
FD46
330
FD45
100
AcDbEntity
  8
0
100
AcDbLine
 10
127.5999998339284
 20
200.369072730639
 30
0.0
 11
127.5999998339284
 21
6.63093194633106
 31
0.0
  0
LINE
  5
FD47
330
FD45
100
AcDbEntity
  8
0
100
AcDbLine
 10
122.5999998339284
 20
6.500002338485046
 30
0.0
 11
122.5999998339284
 21
16.50000233848504
 31
0.0
  0
LINE
  5
FD48
330
FD45
100
AcDbEntity
  8
0
100
AcDbLine
 10
6.599999833929359
 20
16.50000233848504
 30
0.0
 11
6.599999833929359
 21
190.500002338485
 31
0.0
  0
LINE
  5
FD49
330
FD45
100
AcDbEntity
  8
0
100
AcDbLine
 10
6.599999833929359
 20
190.500002338485
 30
0.0
 11
122.5999998339284
 21
190.500002338485
 31
0.0
  0
LINE
  5
FD4A
330
FD45
100
AcDbEntity
  8
0
100
AcDbLine
 10
6.599999833929359
 20
16.50000233848504
 30
0.0
 11
122.5999998339284
 21
16.50000233848504
 31
0.0
  0
LINE
  5
FD4B
330
FD45
100
AcDbEntity
  8
0
100
AcDbLine
 10
122.5999998339284
 20
200.500002338485
 30
0.0
 11
127.5999998339284
 21
200.369072730639
 31
0.0
  0
LINE
  5
FD4C
330
FD45
100
AcDbEntity
  8
0
100
AcDbLine
 10
124.0140395986652
 20
200.46297440411
 30
0.0
 11
124.0140395986643
 21
6.537030272860022
 31
0.0
  0
LINE
  5
FD4D
330
FD45
100
AcDbEntity
  8
0
100
AcDbLine
 10
122.5999998339284
 20
6.500002338485046
 30
0.0
 11
127.5999998339284
 21
6.63093194633106
 31
0.0
  0
LINE
  5
FD4E
330
FD45
100
AcDbEntity
  8
0
100
AcDbLine
 10
6.599999833929359
 20
16.50000233848504
 30
0.0
 11
6.599999833929359
 21
190.500002338485
 31
0.0
  0
LINE
  5
FD4F
330
FD45
100
AcDbEntity
  8
0
100
AcDbLine
 10
6.599999833929359
 20
190.500002338485
 30
0.0
 11
123.9878536770973
 21
190.500002338485
 31
0.0
  0
LINE
  5
FD50
330
FD45
100
AcDbEntity
  8
0
100
AcDbLine
 10
23.59999983392936
 20
16.50000233848504
 30
0.0
 11
23.59999983392936
 21
190.500002338485
 31
0.0
  0
LINE
  5
FD51
330
FD45
100
AcDbEntity
  8
0
100
AcDbLine
 10
105.5999998339293
 20
16.50000233848504
 30
0.0
 11
105.5999998339293
 21
190.500002338485
 31
0.0
  0
LINE
  5
FD52
330
FD45
100
AcDbEntity
  8
0
100
AcDbLine
 10
23.59999983392936
 20
189.500002338485
 30
0.0
 11
105.5999998339293
 21
189.500002338485
 31
0.0
  0
LINE
  5
FD53
330
FD45
100
AcDbEntity
  8
0
100
AcDbLine
 10
28.59999983392936
 20
187.500002338485
 30
0.0
 11
30.59999983392936
 21
187.500002338485
 31
0.0
  0
LINE
  5
FD54
330
FD45
100
AcDbEntity
  8
0
100
AcDbLine
 10
28.59999983392936
 20
17.50000233848504
 30
0.0
 11
28.59999983392936
 21
70.75000233848505
 31
0.0
  0
LINE
  5
FD55
330
FD45
100
AcDbEntity
  8
0
100
AcDbLine
 10
30.59999983392936
 20
17.50000233848504
 30
0.0
 11
30.59999983392936
 21
70.75000233848505
 31
0.0
  0
LINE
  5
FD56
330
FD45
100
AcDbEntity
  8
0
100
AcDbLine
 10
28.59999983392936
 20
136.250002338485
 30
0.0
 11
30.59999983392936
 21
136.250002338485
 31
0.0
  0
LINE
  5
FD57
330
FD45
100
AcDbEntity
  8
0
100
AcDbLine
 10
28.59999983392936
 20
70.75000233848505
 30
0.0
 11
30.59999983392936
 21
70.75000233848505
 31
0.0
  0
LINE
  5
FD58
330
FD45
100
AcDbEntity
  8
0
100
AcDbLine
 10
23.59999983392936
 20
17.50000233848504
 30
0.0
 11
105.5999998339293
 21
17.50000233848504
 31
0.0
  0
LINE
  5
FD59
330
FD45
100
AcDbEntity
  8
0
100
AcDbLine
 10
28.59999983392936
 20
19.50000233848504
 30
0.0
 11
30.59999983392936
 21
19.50000233848504
 31
0.0
  0
LINE
  5
FD5A
330
FD45
100
AcDbEntity
  8
0
100
AcDbLine
 10
28.59999983392936
 20
136.250002338485
 30
0.0
 11
28.59999983392936
 21
189.500002338485
 31
0.0
  0
LINE
  5
FD5B
330
FD45
100
AcDbEntity
  8
0
100
AcDbLine
 10
30.59999983392936
 20
136.250002338485
 30
0.0
 11
30.59999983392936
 21
189.500002338485
 31
0.0
  0
LINE
  5
FD5C
330
FD45
100
AcDbEntity
  8
0
100
AcDbLine
 10
35.59999983392936
 20
187.500002338485
 30
0.0
 11
37.59999983392936
 21
187.500002338485
 31
0.0
  0
LINE
  5
FD5D
330
FD45
100
AcDbEntity
  8
0
100
AcDbLine
 10
35.59999983392936
 20
17.50000233848504
 30
0.0
 11
35.59999983392936
 21
70.75000233848505
 31
0.0
  0
LINE
  5
FD5E
330
FD45
100
AcDbEntity
  8
0
100
AcDbLine
 10
37.59999983392936
 20
17.50000233848504
 30
0.0
 11
37.59999983392936
 21
70.75000233848505
 31
0.0
  0
LINE
  5
FD5F
330
FD45
100
AcDbEntity
  8
0
100
AcDbLine
 10
35.59999983392936
 20
136.250002338485
 30
0.0
 11
37.59999983392936
 21
136.250002338485
 31
0.0
  0
LINE
  5
FD60
330
FD45
100
AcDbEntity
  8
0
100
AcDbLine
 10
35.59999983392936
 20
70.75000233848505
 30
0.0
 11
37.59999983392936
 21
70.75000233848505
 31
0.0
  0
LINE
  5
FD61
330
FD45
100
AcDbEntity
  8
0
100
AcDbLine
 10
35.59999983392936
 20
19.50000233848504
 30
0.0
 11
37.59999983392936
 21
19.50000233848504
 31
0.0
  0
LINE
  5
FD62
330
FD45
100
AcDbEntity
  8
0
100
AcDbLine
 10
35.59999983392936
 20
136.250002338485
 30
0.0
 11
35.59999983392936
 21
189.500002338485
 31
0.0
  0
LINE
  5
FD63
330
FD45
100
AcDbEntity
  8
0
100
AcDbLine
 10
37.59999983392936
 20
136.250002338485
 30
0.0
 11
37.59999983392936
 21
189.500002338485
 31
0.0
  0
LINE
  5
FD64
330
FD45
100
AcDbEntity
  8
0
100
AcDbLine
 10
42.59999983392936
 20
187.500002338485
 30
0.0
 11
44.59999983392935
 21
187.500002338485
 31
0.0
  0
LINE
  5
FD65
330
FD45
100
AcDbEntity
  8
0
100
AcDbLine
 10
42.59999983392936
 20
17.50000233848504
 30
0.0
 11
42.59999983392936
 21
70.75000233848505
 31
0.0
  0
LINE
  5
FD66
330
FD45
100
AcDbEntity
  8
0
100
AcDbLine
 10
44.59999983392935
 20
17.50000233848504
 30
0.0
 11
44.59999983392935
 21
70.75000233848505
 31
0.0
  0
LINE
  5
FD67
330
FD45
100
AcDbEntity
  8
0
100
AcDbLine
 10
42.59999983392936
 20
136.250002338485
 30
0.0
 11
44.59999983392935
 21
136.250002338485
 31
0.0
  0
LINE
  5
FD68
330
FD45
100
AcDbEntity
  8
0
100
AcDbLine
 10
42.59999983392936
 20
70.75000233848505
 30
0.0
 11
44.59999983392935
 21
70.75000233848505
 31
0.0
  0
LINE
  5
FD69
330
FD45
100
AcDbEntity
  8
0
100
AcDbLine
 10
42.59999983392936
 20
19.50000233848504
 30
0.0
 11
44.59999983392935
 21
19.50000233848504
 31
0.0
  0
LINE
  5
FD6A
330
FD45
100
AcDbEntity
  8
0
100
AcDbLine
 10
42.59999983392936
 20
136.250002338485
 30
0.0
 11
42.59999983392936
 21
189.500002338485
 31
0.0
  0
LINE
  5
FD6B
330
FD45
100
AcDbEntity
  8
0
100
AcDbLine
 10
44.59999983392935
 20
136.250002338485
 30
0.0
 11
44.59999983392935
 21
189.500002338485
 31
0.0
  0
LINE
  5
FD6C
330
FD45
100
AcDbEntity
  8
0
100
AcDbLine
 10
49.59999983392936
 20
17.50000233848504
 30
0.0
 11
49.59999983392936
 21
70.75000233848505
 31
0.0
  0
LINE
  5
FD6D
330
FD45
100
AcDbEntity
  8
0
100
AcDbLine
 10
51.59999983392935
 20
17.50000233848504
 30
0.0
 11
51.59999983392935
 21
70.75000233848505
 31
0.0
  0
LINE
  5
FD6E
330
FD45
100
AcDbEntity
  8
0
100
AcDbLine
 10
49.59999983392936
 20
136.250002338485
 30
0.0
 11
51.59999983392935
 21
136.250002338485
 31
0.0
  0
LINE
  5
FD6F
330
FD45
100
AcDbEntity
  8
0
100
AcDbLine
 10
49.59999983392936
 20
70.75000233848505
 30
0.0
 11
51.59999983392935
 21
70.75000233848505
 31
0.0
  0
LINE
  5
FD70
330
FD45
100
AcDbEntity
  8
0
100
AcDbLine
 10
49.59999983392936
 20
19.50000233848504
 30
0.0
 11
51.59999983392935
 21
19.50000233848504
 31
0.0
  0
LINE
  5
FD71
330
FD45
100
AcDbEntity
  8
0
100
AcDbLine
 10
49.59999983392936
 20
136.250002338485
 30
0.0
 11
49.59999983392936
 21
189.500002338485
 31
0.0
  0
LINE
  5
FD72
330
FD45
100
AcDbEntity
  8
0
100
AcDbLine
 10
51.59999983392935
 20
136.250002338485
 30
0.0
 11
51.59999983392935
 21
189.500002338485
 31
0.0
  0
LINE
  5
FD73
330
FD45
100
AcDbEntity
  8
0
100
AcDbLine
 10
56.59999983392935
 20
187.500002338485
 30
0.0
 11
58.59999983392936
 21
187.500002338485
 31
0.0
  0
LINE
  5
FD74
330
FD45
100
AcDbEntity
  8
0
100
AcDbLine
 10
56.59999983392935
 20
17.50000233848504
 30
0.0
 11
56.59999983392935
 21
70.75000233848505
 31
0.0
  0
LINE
  5
FD75
330
FD45
100
AcDbEntity
  8
0
100
AcDbLine
 10
58.59999983392936
 20
17.50000233848504
 30
0.0
 11
58.59999983392936
 21
70.75000233848505
 31
0.0
  0
LINE
  5
FD76
330
FD45
100
AcDbEntity
  8
0
100
AcDbLine
 10
56.59999983392935
 20
136.250002338485
 30
0.0
 11
58.59999983392936
 21
136.250002338485
 31
0.0
  0
LINE
  5
FD77
330
FD45
100
AcDbEntity
  8
0
100
AcDbLine
 10
56.59999983392935
 20
70.75000233848505
 30
0.0
 11
58.59999983392936
 21
70.75000233848505
 31
0.0
  0
LINE
  5
FD78
330
FD45
100
AcDbEntity
  8
0
100
AcDbLine
 10
56.59999983392935
 20
19.50000233848504
 30
0.0
 11
58.59999983392936
 21
19.50000233848504
 31
0.0
  0
LINE
  5
FD79
330
FD45
100
AcDbEntity
  8
0
100
AcDbLine
 10
56.59999983392935
 20
136.250002338485
 30
0.0
 11
56.59999983392935
 21
189.500002338485
 31
0.0
  0
LINE
  5
FD7A
330
FD45
100
AcDbEntity
  8
0
100
AcDbLine
 10
58.59999983392936
 20
136.250002338485
 30
0.0
 11
58.59999983392936
 21
189.500002338485
 31
0.0
  0
LINE
  5
FD7B
330
FD45
100
AcDbEntity
  8
0
100
AcDbLine
 10
63.59999983392936
 20
187.500002338485
 30
0.0
 11
65.59999983392936
 21
187.500002338485
 31
0.0
  0
LINE
  5
FD7C
330
FD45
100
AcDbEntity
  8
0
100
AcDbLine
 10
63.59999983392936
 20
17.50000233848504
 30
0.0
 11
63.59999983392936
 21
70.75000233848505
 31
0.0
  0
LINE
  5
FD7D
330
FD45
100
AcDbEntity
  8
0
100
AcDbLine
 10
65.59999983392936
 20
17.50000233848504
 30
0.0
 11
65.59999983392936
 21
70.75000233848505
 31
0.0
  0
LINE
  5
FD7E
330
FD45
100
AcDbEntity
  8
0
100
AcDbLine
 10
63.59999983392936
 20
136.250002338485
 30
0.0
 11
65.59999983392936
 21
136.250002338485
 31
0.0
  0
LINE
  5
FD7F
330
FD45
100
AcDbEntity
  8
0
100
AcDbLine
 10
63.59999983392936
 20
70.75000233848505
 30
0.0
 11
65.59999983392936
 21
70.75000233848505
 31
0.0
  0
LINE
  5
FD80
330
FD45
100
AcDbEntity
  8
0
100
AcDbLine
 10
63.59999983392936
 20
19.50000233848504
 30
0.0
 11
65.59999983392936
 21
19.50000233848504
 31
0.0
  0
LINE
  5
FD81
330
FD45
100
AcDbEntity
  8
0
100
AcDbLine
 10
63.59999983392936
 20
136.250002338485
 30
0.0
 11
63.59999983392936
 21
189.500002338485
 31
0.0
  0
LINE
  5
FD82
330
FD45
100
AcDbEntity
  8
0
100
AcDbLine
 10
65.59999983392936
 20
136.250002338485
 30
0.0
 11
65.59999983392936
 21
189.500002338485
 31
0.0
  0
LINE
  5
FD83
330
FD45
100
AcDbEntity
  8
0
100
AcDbLine
 10
70.59999983392936
 20
187.500002338485
 30
0.0
 11
72.59999983392936
 21
187.500002338485
 31
0.0
  0
LINE
  5
FD84
330
FD45
100
AcDbEntity
  8
0
100
AcDbLine
 10
70.59999983392936
 20
17.50000233848504
 30
0.0
 11
70.59999983392936
 21
70.75000233848505
 31
0.0
  0
LINE
  5
FD85
330
FD45
100
AcDbEntity
  8
0
100
AcDbLine
 10
72.59999983392936
 20
17.50000233848504
 30
0.0
 11
72.59999983392936
 21
70.75000233848505
 31
0.0
  0
LINE
  5
FD86
330
FD45
100
AcDbEntity
  8
0
100
AcDbLine
 10
70.59999983392936
 20
136.250002338485
 30
0.0
 11
72.59999983392936
 21
136.250002338485
 31
0.0
  0
LINE
  5
FD87
330
FD45
100
AcDbEntity
  8
0
100
AcDbLine
 10
70.59999983392936
 20
70.75000233848505
 30
0.0
 11
72.59999983392936
 21
70.75000233848505
 31
0.0
  0
LINE
  5
FD88
330
FD45
100
AcDbEntity
  8
0
100
AcDbLine
 10
70.59999983392936
 20
19.50000233848504
 30
0.0
 11
72.59999983392936
 21
19.50000233848504
 31
0.0
  0
LINE
  5
FD89
330
FD45
100
AcDbEntity
  8
0
100
AcDbLine
 10
70.59999983392936
 20
136.250002338485
 30
0.0
 11
70.59999983392936
 21
189.500002338485
 31
0.0
  0
LINE
  5
FD8A
330
FD45
100
AcDbEntity
  8
0
100
AcDbLine
 10
72.59999983392936
 20
136.250002338485
 30
0.0
 11
72.59999983392936
 21
189.500002338485
 31
0.0
  0
LINE
  5
FD8B
330
FD45
100
AcDbEntity
  8
0
100
AcDbLine
 10
77.59999983392936
 20
187.500002338485
 30
0.0
 11
79.59999983392936
 21
187.500002338485
 31
0.0
  0
LINE
  5
FD8C
330
FD45
100
AcDbEntity
  8
0
100
AcDbLine
 10
77.59999983392936
 20
17.50000233848504
 30
0.0
 11
77.59999983392936
 21
70.75000233848505
 31
0.0
  0
LINE
  5
FD8D
330
FD45
100
AcDbEntity
  8
0
100
AcDbLine
 10
79.59999983392936
 20
17.50000233848504
 30
0.0
 11
79.59999983392936
 21
70.75000233848505
 31
0.0
  0
LINE
  5
FD8E
330
FD45
100
AcDbEntity
  8
0
100
AcDbLine
 10
77.59999983392936
 20
136.250002338485
 30
0.0
 11
79.59999983392936
 21
136.250002338485
 31
0.0
  0
LINE
  5
FD8F
330
FD45
100
AcDbEntity
  8
0
100
AcDbLine
 10
77.59999983392936
 20
70.75000233848505
 30
0.0
 11
79.59999983392936
 21
70.75000233848505
 31
0.0
  0
LINE
  5
FD90
330
FD45
100
AcDbEntity
  8
0
100
AcDbLine
 10
77.59999983392936
 20
19.50000233848504
 30
0.0
 11
79.59999983392936
 21
19.50000233848504
 31
0.0
  0
LINE
  5
FD91
330
FD45
100
AcDbEntity
  8
0
100
AcDbLine
 10
77.59999983392936
 20
136.250002338485
 30
0.0
 11
77.59999983392936
 21
189.500002338485
 31
0.0
  0
LINE
  5
FD92
330
FD45
100
AcDbEntity
  8
0
100
AcDbLine
 10
79.59999983392936
 20
136.250002338485
 30
0.0
 11
79.59999983392936
 21
189.500002338485
 31
0.0
  0
LINE
  5
FD93
330
FD45
100
AcDbEntity
  8
0
100
AcDbLine
 10
84.59999983392936
 20
187.500002338485
 30
0.0
 11
86.59999983392935
 21
187.500002338485
 31
0.0
  0
LINE
  5
FD94
330
FD45
100
AcDbEntity
  8
0
100
AcDbLine
 10
84.59999983392936
 20
17.50000233848504
 30
0.0
 11
84.59999983392936
 21
70.75000233848505
 31
0.0
  0
LINE
  5
FD95
330
FD45
100
AcDbEntity
  8
0
100
AcDbLine
 10
86.59999983392935
 20
17.50000233848504
 30
0.0
 11
86.59999983392935
 21
70.75000233848505
 31
0.0
  0
LINE
  5
FD96
330
FD45
100
AcDbEntity
  8
0
100
AcDbLine
 10
84.59999983392936
 20
136.250002338485
 30
0.0
 11
86.59999983392935
 21
136.250002338485
 31
0.0
  0
LINE
  5
FD97
330
FD45
100
AcDbEntity
  8
0
100
AcDbLine
 10
84.59999983392936
 20
70.75000233848505
 30
0.0
 11
86.59999983392935
 21
70.75000233848505
 31
0.0
  0
LINE
  5
FD98
330
FD45
100
AcDbEntity
  8
0
100
AcDbLine
 10
84.59999983392936
 20
19.50000233848504
 30
0.0
 11
86.59999983392935
 21
19.50000233848504
 31
0.0
  0
LINE
  5
FD99
330
FD45
100
AcDbEntity
  8
0
100
AcDbLine
 10
84.59999983392936
 20
136.250002338485
 30
0.0
 11
84.59999983392936
 21
189.500002338485
 31
0.0
  0
LINE
  5
FD9A
330
FD45
100
AcDbEntity
  8
0
100
AcDbLine
 10
86.59999983392935
 20
136.250002338485
 30
0.0
 11
86.59999983392935
 21
189.500002338485
 31
0.0
  0
LINE
  5
FD9B
330
FD45
100
AcDbEntity
  8
0
100
AcDbLine
 10
91.59999983392935
 20
187.500002338485
 30
0.0
 11
93.59999983392937
 21
187.500002338485
 31
0.0
  0
LINE
  5
FD9C
330
FD45
100
AcDbEntity
  8
0
100
AcDbLine
 10
91.59999983392935
 20
17.50000233848504
 30
0.0
 11
91.59999983392935
 21
70.75000233848505
 31
0.0
  0
LINE
  5
FD9D
330
FD45
100
AcDbEntity
  8
0
100
AcDbLine
 10
93.59999983392937
 20
17.50000233848504
 30
0.0
 11
93.59999983392937
 21
70.75000233848505
 31
0.0
  0
LINE
  5
FD9E
330
FD45
100
AcDbEntity
  8
0
100
AcDbLine
 10
91.59999983392935
 20
136.250002338485
 30
0.0
 11
93.59999983392937
 21
136.250002338485
 31
0.0
  0
LINE
  5
FD9F
330
FD45
100
AcDbEntity
  8
0
100
AcDbLine
 10
91.59999983392935
 20
70.75000233848505
 30
0.0
 11
93.59999983392937
 21
70.75000233848505
 31
0.0
  0
LINE
  5
FDA0
330
FD45
100
AcDbEntity
  8
0
100
AcDbLine
 10
91.59999983392935
 20
19.50000233848504
 30
0.0
 11
93.59999983392937
 21
19.50000233848504
 31
0.0
  0
LINE
  5
FDA1
330
FD45
100
AcDbEntity
  8
0
100
AcDbLine
 10
91.59999983392935
 20
136.250002338485
 30
0.0
 11
91.59999983392935
 21
189.500002338485
 31
0.0
  0
LINE
  5
FDA2
330
FD45
100
AcDbEntity
  8
0
100
AcDbLine
 10
93.59999983392937
 20
136.250002338485
 30
0.0
 11
93.59999983392937
 21
189.500002338485
 31
0.0
  0
LINE
  5
FDA3
330
FD45
100
AcDbEntity
  8
0
100
AcDbLine
 10
98.59999983392937
 20
187.500002338485
 30
0.0
 11
100.5999998339293
 21
187.500002338485
 31
0.0
  0
LINE
  5
FDA4
330
FD45
100
AcDbEntity
  8
0
100
AcDbLine
 10
98.59999983392937
 20
17.50000233848504
 30
0.0
 11
98.59999983392937
 21
70.75000233848505
 31
0.0
  0
LINE
  5
FDA5
330
FD45
100
AcDbEntity
  8
0
100
AcDbLine
 10
100.5999998339293
 20
17.50000233848504
 30
0.0
 11
100.5999998339293
 21
70.75000233848505
 31
0.0
  0
LINE
  5
FDA6
330
FD45
100
AcDbEntity
  8
0
100
AcDbLine
 10
98.59999983392937
 20
136.250002338485
 30
0.0
 11
100.5999998339293
 21
136.250002338485
 31
0.0
  0
LINE
  5
FDA7
330
FD45
100
AcDbEntity
  8
0
100
AcDbLine
 10
98.59999983392937
 20
70.75000233848505
 30
0.0
 11
100.5999998339293
 21
70.75000233848505
 31
0.0
  0
LINE
  5
FDA8
330
FD45
100
AcDbEntity
  8
0
100
AcDbLine
 10
98.59999983392937
 20
19.50000233848504
 30
0.0
 11
100.5999998339293
 21
19.50000233848504
 31
0.0
  0
LINE
  5
FDA9
330
FD45
100
AcDbEntity
  8
0
100
AcDbLine
 10
98.59999983392937
 20
136.250002338485
 30
0.0
 11
98.59999983392937
 21
189.500002338485
 31
0.0
  0
LINE
  5
FDAA
330
FD45
100
AcDbEntity
  8
0
100
AcDbLine
 10
100.5999998339293
 20
136.250002338485
 30
0.0
 11
100.5999998339293
 21
189.500002338485
 31
0.0
  0
LINE
  5
FDAB
330
FD45
100
AcDbEntity
  8
0
100
AcDbLine
 10
28.59999983392936
 20
165.000002338485
 30
0.0
 11
30.59999983392936
 21
165.000002338485
 31
0.0
  0
LINE
  5
FDAC
330
FD45
100
AcDbEntity
  8
0
100
AcDbLine
 10
28.59999983392936
 20
162.000002338485
 30
0.0
 11
30.59999983392936
 21
162.000002338485
 31
0.0
  0
LINE
  5
FDAD
330
FD45
100
AcDbEntity
  8
0
100
AcDbLine
 10
28.59999983392936
 20
45.00000233848505
 30
0.0
 11
30.59999983392936
 21
45.00000233848505
 31
0.0
  0
LINE
  5
FDAE
330
FD45
100
AcDbEntity
  8
0
100
AcDbLine
 10
28.59999983392936
 20
42.00000233848505
 30
0.0
 11
30.59999983392936
 21
42.00000233848505
 31
0.0
  0
LINE
  5
FDAF
330
FD45
100
AcDbEntity
  8
0
100
AcDbLine
 10
35.59999983392936
 20
165.000002338485
 30
0.0
 11
37.59999983392936
 21
165.000002338485
 31
0.0
  0
LINE
  5
FDB0
330
FD45
100
AcDbEntity
  8
0
100
AcDbLine
 10
35.59999983392936
 20
162.000002338485
 30
0.0
 11
37.59999983392936
 21
162.000002338485
 31
0.0
  0
LINE
  5
FDB1
330
FD45
100
AcDbEntity
  8
0
100
AcDbLine
 10
35.59999983392936
 20
45.00000233848505
 30
0.0
 11
37.59999983392936
 21
45.00000233848505
 31
0.0
  0
LINE
  5
FDB2
330
FD45
100
AcDbEntity
  8
0
100
AcDbLine
 10
35.59999983392936
 20
42.00000233848505
 30
0.0
 11
37.59999983392936
 21
42.00000233848505
 31
0.0
  0
LINE
  5
FDB3
330
FD45
100
AcDbEntity
  8
0
100
AcDbLine
 10
42.59999983392936
 20
165.000002338485
 30
0.0
 11
44.59999983392935
 21
165.000002338485
 31
0.0
  0
LINE
  5
FDB4
330
FD45
100
AcDbEntity
  8
0
100
AcDbLine
 10
42.59999983392936
 20
162.000002338485
 30
0.0
 11
44.59999983392935
 21
162.000002338485
 31
0.0
  0
LINE
  5
FDB5
330
FD45
100
AcDbEntity
  8
0
100
AcDbLine
 10
42.59999983392936
 20
45.00000233848505
 30
0.0
 11
44.59999983392935
 21
45.00000233848505
 31
0.0
  0
LINE
  5
FDB6
330
FD45
100
AcDbEntity
  8
0
100
AcDbLine
 10
42.59999983392936
 20
42.00000233848505
 30
0.0
 11
44.59999983392935
 21
42.00000233848505
 31
0.0
  0
LINE
  5
FDB7
330
FD45
100
AcDbEntity
  8
0
100
AcDbLine
 10
49.59999983392936
 20
165.000002338485
 30
0.0
 11
51.59999983392935
 21
165.000002338485
 31
0.0
  0
LINE
  5
FDB8
330
FD45
100
AcDbEntity
  8
0
100
AcDbLine
 10
49.59999983392936
 20
162.000002338485
 30
0.0
 11
51.59999983392935
 21
162.000002338485
 31
0.0
  0
LINE
  5
FDB9
330
FD45
100
AcDbEntity
  8
0
100
AcDbLine
 10
49.59999983392936
 20
45.00000233848505
 30
0.0
 11
51.59999983392935
 21
45.00000233848505
 31
0.0
  0
LINE
  5
FDBA
330
FD45
100
AcDbEntity
  8
0
100
AcDbLine
 10
49.59999983392936
 20
42.00000233848505
 30
0.0
 11
51.59999983392935
 21
42.00000233848505
 31
0.0
  0
LINE
  5
FDBB
330
FD45
100
AcDbEntity
  8
0
100
AcDbLine
 10
56.59999983392935
 20
165.000002338485
 30
0.0
 11
58.59999983392936
 21
165.000002338485
 31
0.0
  0
LINE
  5
FDBC
330
FD45
100
AcDbEntity
  8
0
100
AcDbLine
 10
56.59999983392935
 20
162.000002338485
 30
0.0
 11
58.59999983392936
 21
162.000002338485
 31
0.0
  0
LINE
  5
FDBD
330
FD45
100
AcDbEntity
  8
0
100
AcDbLine
 10
56.59999983392935
 20
45.00000233848505
 30
0.0
 11
58.59999983392936
 21
45.00000233848505
 31
0.0
  0
LINE
  5
FDBE
330
FD45
100
AcDbEntity
  8
0
100
AcDbLine
 10
56.59999983392935
 20
42.00000233848505
 30
0.0
 11
58.59999983392936
 21
42.00000233848505
 31
0.0
  0
LINE
  5
FDBF
330
FD45
100
AcDbEntity
  8
0
100
AcDbLine
 10
63.59999983392936
 20
165.000002338485
 30
0.0
 11
65.59999983392936
 21
165.000002338485
 31
0.0
  0
LINE
  5
FDC0
330
FD45
100
AcDbEntity
  8
0
100
AcDbLine
 10
63.59999983392936
 20
162.000002338485
 30
0.0
 11
65.59999983392936
 21
162.000002338485
 31
0.0
  0
LINE
  5
FDC1
330
FD45
100
AcDbEntity
  8
0
100
AcDbLine
 10
63.59999983392936
 20
45.00000233848505
 30
0.0
 11
65.59999983392936
 21
45.00000233848505
 31
0.0
  0
LINE
  5
FDC2
330
FD45
100
AcDbEntity
  8
0
100
AcDbLine
 10
63.59999983392936
 20
42.00000233848505
 30
0.0
 11
65.59999983392936
 21
42.00000233848505
 31
0.0
  0
LINE
  5
FDC3
330
FD45
100
AcDbEntity
  8
0
100
AcDbLine
 10
70.59999983392936
 20
165.000002338485
 30
0.0
 11
72.59999983392936
 21
165.000002338485
 31
0.0
  0
LINE
  5
FDC4
330
FD45
100
AcDbEntity
  8
0
100
AcDbLine
 10
70.59999983392936
 20
162.000002338485
 30
0.0
 11
72.59999983392936
 21
162.000002338485
 31
0.0
  0
LINE
  5
FDC5
330
FD45
100
AcDbEntity
  8
0
100
AcDbLine
 10
70.59999983392936
 20
45.00000233848505
 30
0.0
 11
72.59999983392936
 21
45.00000233848505
 31
0.0
  0
LINE
  5
FDC6
330
FD45
100
AcDbEntity
  8
0
100
AcDbLine
 10
70.59999983392936
 20
42.00000233848505
 30
0.0
 11
72.59999983392936
 21
42.00000233848505
 31
0.0
  0
LINE
  5
FDC7
330
FD45
100
AcDbEntity
  8
0
100
AcDbLine
 10
77.59999983392936
 20
165.000002338485
 30
0.0
 11
79.59999983392936
 21
165.000002338485
 31
0.0
  0
LINE
  5
FDC8
330
FD45
100
AcDbEntity
  8
0
100
AcDbLine
 10
77.59999983392936
 20
162.000002338485
 30
0.0
 11
79.59999983392936
 21
162.000002338485
 31
0.0
  0
LINE
  5
FDC9
330
FD45
100
AcDbEntity
  8
0
100
AcDbLine
 10
77.59999983392936
 20
45.00000233848505
 30
0.0
 11
79.59999983392936
 21
45.00000233848505
 31
0.0
  0
LINE
  5
FDCA
330
FD45
100
AcDbEntity
  8
0
100
AcDbLine
 10
77.59999983392936
 20
42.00000233848505
 30
0.0
 11
79.59999983392936
 21
42.00000233848505
 31
0.0
  0
LINE
  5
FDCB
330
FD45
100
AcDbEntity
  8
0
100
AcDbLine
 10
84.59999983392936
 20
165.000002338485
 30
0.0
 11
86.59999983392935
 21
165.000002338485
 31
0.0
  0
LINE
  5
FDCC
330
FD45
100
AcDbEntity
  8
0
100
AcDbLine
 10
84.59999983392936
 20
162.000002338485
 30
0.0
 11
86.59999983392935
 21
162.000002338485
 31
0.0
  0
LINE
  5
FDCD
330
FD45
100
AcDbEntity
  8
0
100
AcDbLine
 10
84.59999983392936
 20
45.00000233848505
 30
0.0
 11
86.59999983392935
 21
45.00000233848505
 31
0.0
  0
LINE
  5
FDCE
330
FD45
100
AcDbEntity
  8
0
100
AcDbLine
 10
84.59999983392936
 20
42.00000233848505
 30
0.0
 11
86.59999983392935
 21
42.00000233848505
 31
0.0
  0
LINE
  5
FDCF
330
FD45
100
AcDbEntity
  8
0
100
AcDbLine
 10
91.59999983392935
 20
165.000002338485
 30
0.0
 11
93.59999983392937
 21
165.000002338485
 31
0.0
  0
LINE
  5
FDD0
330
FD45
100
AcDbEntity
  8
0
100
AcDbLine
 10
91.59999983392935
 20
162.000002338485
 30
0.0
 11
93.59999983392937
 21
162.000002338485
 31
0.0
  0
LINE
  5
FDD1
330
FD45
100
AcDbEntity
  8
0
100
AcDbLine
 10
91.59999983392935
 20
45.00000233848505
 30
0.0
 11
93.59999983392937
 21
45.00000233848505
 31
0.0
  0
LINE
  5
FDD2
330
FD45
100
AcDbEntity
  8
0
100
AcDbLine
 10
91.59999983392935
 20
42.00000233848505
 30
0.0
 11
93.59999983392937
 21
42.00000233848505
 31
0.0
  0
LINE
  5
FDD3
330
FD45
100
AcDbEntity
  8
0
100
AcDbLine
 10
98.59999983392937
 20
165.000002338485
 30
0.0
 11
100.5999998339293
 21
165.000002338485
 31
0.0
  0
LINE
  5
FDD4
330
FD45
100
AcDbEntity
  8
0
100
AcDbLine
 10
98.59999983392937
 20
162.000002338485
 30
0.0
 11
100.5999998339293
 21
162.000002338485
 31
0.0
  0
LINE
  5
FDD5
330
FD45
100
AcDbEntity
  8
0
100
AcDbLine
 10
98.59999983392937
 20
45.00000233848505
 30
0.0
 11
100.5999998339293
 21
45.00000233848505
 31
0.0
  0
LINE
  5
FDD6
330
FD45
100
AcDbEntity
  8
0
100
AcDbLine
 10
98.59999983392937
 20
42.00000233848505
 30
0.0
 11
100.5999998339293
 21
42.00000233848505
 31
0.0
  0
LINE
  5
FDD7
330
FD45
100
AcDbEntity
  8
0
100
AcDbLine
 10
78.59999983392936
 20
17.50000233848504
 30
0.0
 11
78.59999983392834
 21
17.00000233848504
 31
0.0
  0
LINE
  5
FDD8
330
FD45
100
AcDbEntity
  8
0
100
AcDbLine
 10
23.59999983392936
 20
17.00000233848504
 30
0.0
 11
78.59999983392936
 21
17.00000233848504
 31
0.0
  0
LINE
  5
FDD9
330
FD45
100
AcDbEntity
  8
0
100
AcDbLine
 10
123.9878536770963
 20
16.50000233848504
 30
0.0
 11
123.9878536770973
 21
190.500002338485
 31
0.0
  0
LINE
  5
FDDA
330
FD45
100
AcDbEntity
  8
0
100
AcDbLine
 10
3.199999833929496
 20
57.20000307217538
 30
0.0
 11
3.199999833929496
 21
37.00000307217533
 31
0.0
  0
LINE
  5
FDDB
330
FD45
100
AcDbEntity
  8
0
100
AcDbLine
 10
4.099999833929359
 20
33.50000307217533
 30
0.0
 11
3.599999833929359
 21
34.00000307217533
 31
0.0
  0
LINE
  5
FDDC
330
FD45
100
AcDbEntity
  8
0
100
AcDbLine
 10
3.599999833929473
 20
34.90000307217542
 30
0.0
 11
3.599999833929359
 21
34.00000307217533
 31
0.0
  0
LINE
  5
FDDD
330
FD45
100
AcDbEntity
  8
0
100
AcDbLine
 10
4.899999833929541
 20
33.50000307217533
 30
0.0
 11
4.099999833929359
 21
33.50000307217533
 31
0.0
  0
ARC
  5
FDDE
330
FD45
100
AcDbEntity
  8
0
100
AcDbCircle
 10
4.599999833929473
 20
34.90000307217531
 30
0.0
 40
1.0
100
AcDbArc
 50
90.0
 51
180.0
  0
LINE
  5
FDDF
330
FD45
100
AcDbEntity
  8
0
100
AcDbLine
 10
6.599999833929359
 20
35.90000307217539
 30
0.0
 11
4.599999833929473
 21
35.90000307217531
 31
0.0
  0
LINE
  5
FDE0
330
FD45
100
AcDbEntity
  8
0
100
AcDbLine
 10
6.599999833929359
 20
34.70000307217537
 30
0.0
 11
4.899999833929655
 21
34.70000307217537
 31
0.0
  0
LINE
  5
FDE1
330
FD45
100
AcDbEntity
  8
0
100
AcDbLine
 10
6.599999833929359
 20
37.0000030721753
 30
0.0
 11
3.199999833929496
 21
37.00000307217533
 31
0.0
  0
LINE
  5
FDE2
330
FD45
100
AcDbEntity
  8
0
100
AcDbLine
 10
4.899999833929541
 20
33.50000307217533
 30
0.0
 11
4.899999833929541
 21
34.70000307217537
 31
0.0
  0
LINE
  5
FDE3
330
FD45
100
AcDbEntity
  8
0
100
AcDbLine
 10
4.099999833929587
 20
60.70000307217537
 30
0.0
 11
3.599999833929587
 21
60.20000307217538
 31
0.0
  0
LINE
  5
FDE4
330
FD45
100
AcDbEntity
  8
0
100
AcDbLine
 10
3.599999833929587
 20
60.20000307217538
 30
0.0
 11
3.599999833929587
 21
59.30000307217529
 31
0.0
  0
LINE
  5
FDE5
330
FD45
100
AcDbEntity
  8
0
100
AcDbLine
 10
4.899999833929541
 20
60.70000307217537
 30
0.0
 11
4.099999833929587
 21
60.70000307217537
 31
0.0
  0
ARC
  5
FDE6
330
FD45
100
AcDbEntity
  8
0
100
AcDbCircle
 10
4.599999833929587
 20
59.3000030721754
 30
0.0
 40
1.0
100
AcDbArc
 50
180.0
 51
270.0
  0
LINE
  5
FDE7
330
FD45
100
AcDbEntity
  8
0
100
AcDbLine
 10
6.599999833929359
 20
58.3000030721754
 30
0.0
 11
4.599999833929587
 21
58.3000030721754
 31
0.0
  0
LINE
  5
FDE8
330
FD45
100
AcDbEntity
  8
0
100
AcDbLine
 10
3.199999833929496
 20
57.20000307217538
 30
0.0
 11
6.599999833929359
 21
57.20000307217538
 31
0.0
  0
LINE
  5
FDE9
330
FD45
100
AcDbEntity
  8
0
100
AcDbLine
 10
6.599999833929359
 20
59.50000307217544
 30
0.0
 11
4.899999833929427
 21
59.50000307217544
 31
0.0
  0
LINE
  5
FDEA
330
FD45
100
AcDbEntity
  8
0
100
AcDbLine
 10
4.899999833929541
 20
59.50000307217533
 30
0.0
 11
4.899999833929541
 21
60.70000307217537
 31
0.0
  0
LINE
  5
FDEB
330
FD45
100
AcDbEntity
  8
0
100
AcDbLine
 10
6.599999833929359
 20
21.50000307217533
 30
0.0
 11
4.099999833929246
 21
21.50000307217533
 31
0.0
  0
LINE
  5
FDEC
330
FD45
100
AcDbEntity
  8
0
100
AcDbLine
 10
4.099999833929246
 20
21.50000307217533
 30
0.0
 11
4.099999833929246
 21
27.00000307217533
 31
0.0
  0
LINE
  5
FDED
330
FD45
100
AcDbEntity
  8
0
100
AcDbLine
 10
4.099999833929246
 20
27.00000307217533
 30
0.0
 11
6.599999833929359
 21
27.00000307217533
 31
0.0
  0
LINE
  5
FDEE
330
FD45
100
AcDbEntity
  8
0
100
AcDbLine
 10
6.599999833929359
 20
62.14000233848515
 30
0.0
 11
5.599999833929359
 21
62.14000233848515
 31
0.0
  0
LINE
  5
FDEF
330
FD45
100
AcDbEntity
  8
0
100
AcDbLine
 10
5.599999833929359
 20
62.14000233848515
 30
0.0
 11
5.599999833929359
 21
59.50000307217544
 31
0.0
  0
LINE
  5
FDF0
330
FD45
100
AcDbEntity
  8
0
100
AcDbLine
 10
-0.000000166070663
 20
112.500002338485
 30
0.0
 11
6.599999833929359
 21
112.500002338485
 31
0.0
  0
LINE
  5
FDF1
330
FD45
100
AcDbEntity
  8
0
100
AcDbLine
 10
6.599999833929359
 20
136.6600023384851
 30
0.0
 11
-0.000000166070663
 21
136.6600023384851
 31
0.0
  0
LINE
  5
FDF2
330
FD45
100
AcDbEntity
  8
0
100
AcDbLine
 10
-0.000000166070663
 20
136.6600023384851
 30
0.0
 11
-0.000000166070663
 21
112.500002338485
 31
0.0
  0
LINE
  5
FDF3
330
FD45
100
AcDbEntity
  8
0
100
AcDbLine
 10
1.299999833929405
 20
71.34000233848508
 30
0.0
 11
1.299999833929405
 21
99.80000233848512
 31
0.0
  0
LINE
  5
FDF4
330
FD45
100
AcDbEntity
  8
0
100
AcDbLine
 10
1.299999833929405
 20
75.45000233848509
 30
0.0
 11
5.599999833929246
 21
75.45000233848509
 31
0.0
  0
LINE
  5
FDF5
330
FD45
100
AcDbEntity
  8
0
100
AcDbLine
 10
5.599999833929359
 20
71.34000233848508
 30
0.0
 11
1.299999833929405
 21
71.34000233848508
 31
0.0
  0
LINE
  5
FDF6
330
FD45
100
AcDbEntity
  8
0
100
AcDbLine
 10
1.299999833929405
 20
95.69000233848511
 30
0.0
 11
6.599999833929359
 21
95.69000233848511
 31
0.0
  0
LINE
  5
FDF7
330
FD45
100
AcDbEntity
  8
0
100
AcDbLine
 10
1.299999833929405
 20
90.69000233848511
 30
0.0
 11
6.599999833929359
 21
90.69000233848511
 31
0.0
  0
LINE
  5
FDF8
330
FD45
100
AcDbEntity
  8
0
100
AcDbLine
 10
1.299999833929405
 20
83.0700023384851
 30
0.0
 11
6.599999833929359
 21
83.0700023384851
 31
0.0
  0
LINE
  5
FDF9
330
FD45
100
AcDbEntity
  8
0
100
AcDbLine
 10
1.299999833929405
 20
88.0700023384851
 30
0.0
 11
6.599999833929359
 21
88.0700023384851
 31
0.0
  0
LINE
  5
FDFA
330
FD45
100
AcDbEntity
  8
0
100
AcDbLine
 10
1.299999833929405
 20
80.4500023384851
 30
0.0
 11
5.799999833929632
 21
80.4500023384851
 31
0.0
  0
LINE
  5
FDFB
330
FD45
100
AcDbEntity
  8
0
100
AcDbLine
 10
5.799999833929632
 20
99.80000233848512
 30
0.0
 11
1.299999833929405
 21
99.80000233848512
 31
0.0
  0
LINE
  5
FDFC
330
FD45
100
AcDbEntity
  8
0
100
AcDbLine
 10
49.59999983392936
 20
187.500002338485
 30
0.0
 11
51.59999983392935
 21
187.500002338485
 31
0.0
  0
LINE
  5
FDFD
330
FD45
100
AcDbEntity
  8
0
100
AcDbLine
 10
122.5999998339284
 20
190.500002338485
 30
0.0
 11
122.5999998339284
 21
200.500002338485
 31
0.0
  0
LINE
  5
FDFE
330
FD45
100
AcDbEntity
  8
0
100
AcDbLine
 10
6.599999833929359
 20
16.50000233848504
 30
0.0
 11
123.9878536770973
 21
16.50000233848504
 31
0.0
  0
LINE
  5
FDFF
330
FD45
100
AcDbEntity
  8
0
100
AcDbLine
 10
25.59999983392936
 20
0.0000023384850465
 30
0.0
 11
25.59999983392936
 21
8.500002338485046
 31
0.0
  0
LINE
  5
FE00
330
FD45
100
AcDbEntity
  8
0
100
AcDbLine
 10
77.59999983392834
 20
0.0000023384850465
 30
0.0
 11
77.59999983392834
 21
16.50000233848504
 31
0.0
  0
LINE
  5
FE01
330
FD45
100
AcDbEntity
  8
0
100
AcDbLine
 10
25.59999983392936
 20
0.0000023384850465
 30
0.0
 11
77.59999983392834
 21
0.0000023384850465
 31
0.0
  0
LINE
  5
FE02
330
FD45
100
AcDbEntity
  8
0
100
AcDbLine
 10
35.59999983392936
 20
0.0000023384850465
 30
0.0
 11
35.59999983392936
 21
16.50000233848504
 31
0.0
  0
LINE
  5
FE03
330
FD45
100
AcDbEntity
  8
0
100
AcDbLine
 10
25.59999983392936
 20
8.500002338485046
 30
0.0
 11
35.59999983392936
 21
8.500002338485046
 31
0.0
  0
LINE
  5
FE04
330
FD45
100
AcDbEntity
  8
0
100
AcDbLine
 10
37.59999983392936
 20
9.500002338485046
 30
0.0
 11
37.59999983392936
 21
0.0000023384850465
 31
0.0
  0
LINE
  5
FE05
330
FD45
100
AcDbEntity
  8
0
100
AcDbLine
 10
75.59999983392834
 20
9.500002338485046
 30
0.0
 11
75.59999983392834
 21
0.0000023384850465
 31
0.0
  0
LINE
  5
FE06
330
FD45
100
AcDbEntity
  8
0
100
AcDbLine
 10
5.599999833929359
 20
58.3000030721754
 30
0.0
 11
5.599999833929359
 21
57.20000307217538
 31
0.0
  0
LINE
  5
FE07
330
FD45
100
AcDbEntity
  8
0
100
AcDbLine
 10
5.599999833929359
 20
37.00000307217533
 30
0.0
 11
5.599999833929359
 21
35.90000307217533
 31
0.0
  0
LINE
  5
FE08
330
FD45
100
AcDbEntity
  8
0
100
AcDbLine
 10
5.599999833929359
 20
34.70000307217537
 30
0.0
 11
5.599999833929359
 21
27.00000307217533
 31
0.0
  0
LINE
  5
FE09
330
FD45
100
AcDbEntity
  8
0
100
AcDbLine
 10
6.599999833929359
 20
157.9400023384851
 30
0.0
 11
5.595637893078333
 21
157.9400023384851
 31
0.0
  0
LINE
  5
FE0A
330
FD45
100
AcDbEntity
  8
0
100
AcDbLine
 10
6.599999833929359
 20
68.70000307217537
 30
0.0
 11
5.599999833929359
 21
68.70000307217537
 31
0.0
  0
LINE
  5
FE0B
330
FD45
100
AcDbEntity
  8
0
100
AcDbLine
 10
5.599999833929359
 20
68.70000307217537
 30
0.0
 11
5.599999833929246
 21
77.10000307217547
 31
0.0
  0
LINE
  5
FE0C
330
FD45
100
AcDbEntity
  8
0
100
AcDbLine
 10
5.599999833929246
 20
77.10000307217547
 30
0.0
 11
6.599999833929359
 21
77.10000307217547
 31
0.0
  0
LINE
  5
FE0D
330
FD45
100
AcDbEntity
  8
0
100
AcDbLine
 10
6.599999833929359
 20
78.60000307217546
 30
0.0
 11
5.799999833929632
 21
78.60000307217546
 31
0.0
  0
LINE
  5
FE0E
330
FD45
100
AcDbEntity
  8
0
100
AcDbLine
 10
5.799999833929632
 20
78.60000307217546
 30
0.0
 11
5.799999833929632
 21
81.60000307217547
 31
0.0
  0
LINE
  5
FE0F
330
FD45
100
AcDbEntity
  8
0
100
AcDbLine
 10
5.799999833929632
 20
81.60000307217547
 30
0.0
 11
6.599999833929359
 21
81.60000307217547
 31
0.0
  0
LINE
  5
FE10
330
FD45
100
AcDbEntity
  8
0
100
AcDbLine
 10
6.599999833929359
 20
98.60000307217546
 30
0.0
 11
5.799999833929632
 21
98.60000307217546
 31
0.0
  0
LINE
  5
FE11
330
FD45
100
AcDbEntity
  8
0
100
AcDbLine
 10
5.799999833929632
 20
98.60000307217546
 30
0.0
 11
5.799999833929632
 21
101.6000030721754
 31
0.0
  0
LINE
  5
FE12
330
FD45
100
AcDbEntity
  8
0
100
AcDbLine
 10
5.799999833929632
 20
101.6000030721754
 30
0.0
 11
6.599999833929359
 21
101.6000030721754
 31
0.0
  0
LINE
  5
FE13
330
FD45
100
AcDbEntity
  8
0
  6
Continuous
100
AcDbLine
 10
5.595637893078333
 20
157.9400023384851
 30
0.0
 11
5.595637893078333
 21
142.5400023384851
 31
0.0
  0
LINE
  5
FE14
330
FD45
100
AcDbEntity
  8
0
  6
Continuous
100
AcDbLine
 10
5.595637893078333
 20
142.5400023384851
 30
0.0
 11
6.599999833929359
 21
142.5400023384851
 31
0.0
  0
ENDBLK
  5
FE16
330
FD45
100
AcDbEntity
  8
0
100
AcDbBlockEnd
  0
BLOCK
  5
FE1B
330
FE19
100
AcDbEntity
  8
0
100
AcDbBlockBegin
  2
A$C40301A48
 70
     0
 10
0.0
 20
0.0
 30
0.0
  3
A$C40301A48
  1
A$C40301A48
  0
INSERT
  5
FE1A
330
FE19
100
AcDbEntity
  8
0
100
AcDbBlockReference
  2
A$C413B70EE
 10
-6.599999833929359
 20
-190.500002338485
 30
0.0
  0
ENDBLK
  5
FE1C
330
FE19
100
AcDbEntity
  8
0
100
AcDbBlockEnd
  0
BLOCK
  5
19FF1
330
19F7E
100
AcDbEntity
  8
0
100
AcDbBlockBegin
  2
A$C60EC01A6
 70
     0
 10
0.0
 20
0.0
 30
0.0
  3
A$C60EC01A6
  1
A$C60EC01A6
  0
LINE
  5
19F7F
330
19F7E
100
AcDbEntity
  8
0
  6
Continuous
100
AcDbLine
 10
4.90000012191831
 20
88.20000090088797
 30
0.0
 11
4.90000012191831
 21
1.900000900887789
 31
0.0
  0
LINE
  5
19F80
330
19F7E
100
AcDbEntity
  8
0
  6
Continuous
100
AcDbLine
 10
15.50000012191822
 20
56.30000090088742
 30
0.0
 11
15.50000012191822
 21
1.900000900887789
 31
0.0
  0
LINE
  5
19F81
330
19F7E
100
AcDbEntity
  8
0
  6
Continuous
370
     9
100
AcDbLine
 10
47.40000000000009
 20
169.4000010602317
 30
0.0
 11
47.40000000000009
 21
0.0000010602316252
 31
0.0
  0
LINE
  5
19F82
330
19F7E
100
AcDbEntity
  8
0
  6
Continuous
370
     9
100
AcDbLine
 10
47.40000000000009
 20
169.4000010602317
 30
0.0
 11
0.0
 21
169.4000010602317
 31
0.0
  0
LINE
  5
19F83
330
19F7E
100
AcDbEntity
  8
0
  6
Continuous
100
AcDbLine
 10
17.50000012191821
 20
118.9000009008877
 30
0.0
 11
17.50000012191821
 21
92.70000090088798
 31
0.0
  0
LINE
  5
19F84
330
19F7E
100
AcDbEntity
  8
0
  6
Continuous
100
AcDbLine
 10
4.90000012191831
 20
118.9000009008877
 30
0.0
 11
4.90000012191831
 21
92.70000090088798
 31
0.0
  0
LINE
  5
19F85
330
19F7E
100
AcDbEntity
  8
0
  6
Continuous
100
AcDbLine
 10
0.0
 20
169.4000010602317
 30
0.0
 11
0.0
 21
20.32227817897546
 31
0.0
  0
LINE
  5
19F86
330
19F7E
100
AcDbEntity
  8
0
  6
Continuous
100
AcDbLine
 10
4.90000012191831
 20
155.8000009008874
 30
0.0
 11
4.90000012191831
 21
122.8000009008874
 31
0.0
  0
LINE
  5
19F87
330
19F7E
100
AcDbEntity
  8
0
  6
Continuous
100
AcDbLine
 10
14.80000012191794
 20
155.8000009008874
 30
0.0
 11
14.80000012191794
 21
147.8000009008874
 31
0.0
  0
LINE
  5
19F88
330
19F7E
100
AcDbEntity
  8
0
  6
Continuous
100
AcDbLine
 10
14.20000012191803
 20
139.6000009008876
 30
0.0
 11
14.20000012191803
 21
122.8000009008874
 31
0.0
  0
LINE
  5
19F89
330
19F7E
100
AcDbEntity
  8
0
  6
Continuous
100
AcDbLine
 10
4.90000012191831
 20
118.9000009008877
 30
0.0
 11
17.50000012191821
 21
118.9000009008877
 31
0.0
  0
LINE
  5
19F8A
330
19F7E
100
AcDbEntity
  8
0
  6
Continuous
100
AcDbLine
 10
4.90000012191831
 20
122.8000009008874
 30
0.0
 11
14.20000012191803
 21
122.8000009008874
 31
0.0
  0
LINE
  5
19F8B
330
19F7E
100
AcDbEntity
  8
0
  6
Continuous
100
AcDbLine
 10
17.80000012191794
 20
147.8000009008874
 30
0.0
 11
17.80000012191794
 21
139.6000009008876
 31
0.0
  0
LINE
  5
19F8C
330
19F7E
100
AcDbEntity
  8
0
  6
Continuous
100
AcDbLine
 10
14.20000012191803
 20
139.6000009008876
 30
0.0
 11
17.80000012191794
 21
139.6000009008876
 31
0.0
  0
LINE
  5
19F8D
330
19F7E
100
AcDbEntity
  8
0
  6
Continuous
100
AcDbLine
 10
14.80000012191794
 20
147.8000009008874
 30
0.0
 11
17.80000012191794
 21
147.8000009008874
 31
0.0
  0
CIRCLE
  5
19F8E
330
19F7E
100
AcDbEntity
  8
0
  6
Continuous
100
AcDbCircle
 10
13.50000012191822
 20
164.5000009008876
 30
0.0
 40
1.399999999999999
  0
CIRCLE
  5
19F8F
330
19F7E
100
AcDbEntity
  8
0
  6
Continuous
100
AcDbCircle
 10
8.40000012191831
 20
164.5000009008876
 30
0.0
 40
1.399999999999999
  0
CIRCLE
  5
19F90
330
19F7E
100
AcDbEntity
  8
0
  6
Continuous
100
AcDbCircle
 10
13.50000012191822
 20
159.7000009008879
 30
0.0
 40
1.399999999999999
  0
LINE
  5
19F91
330
19F7E
100
AcDbEntity
  8
0
  6
Continuous
100
AcDbLine
 10
14.80000012191794
 20
155.8000009008874
 30
0.0
 11
4.90000012191831
 21
155.8000009008874
 31
0.0
  0
CIRCLE
  5
19F92
330
19F7E
100
AcDbEntity
  8
0
  6
Continuous
100
AcDbCircle
 10
8.40000012191831
 20
159.7000009008879
 30
0.0
 40
1.399999999999999
  0
LINE
  5
19F93
330
19F7E
100
AcDbEntity
  8
0
  6
Continuous
100
AcDbLine
 10
30.50000012191822
 20
47.30000090088788
 30
0.0
 11
30.50000012191822
 21
1.900000900887789
 31
0.0
  0
LINE
  5
19F94
330
19F7E
100
AcDbEntity
  8
0
  6
Continuous
100
AcDbLine
 10
41.90000012191922
 20
47.30000090088788
 30
0.0
 11
41.90000012191922
 21
1.900000900887789
 31
0.0
  0
LINE
  5
19F95
330
19F7E
100
AcDbEntity
  8
0
  6
Continuous
100
AcDbLine
 10
4.90000012191831
 20
88.20000090088797
 30
0.0
 11
4.90000012191831
 21
1.900000900887789
 31
0.0
  0
LINE
  5
19F96
330
19F7E
100
AcDbEntity
  8
0
  6
Continuous
100
AcDbLine
 10
15.50000012191822
 20
56.30000090088742
 30
0.0
 11
15.50000012191822
 21
1.900000900887789
 31
0.0
  0
LINE
  5
19F97
330
19F7E
100
AcDbEntity
  8
0
  6
Continuous
100
AcDbLine
 10
2.899999999996907
 20
14.70000106023144
 30
0.0
 11
2.899999999995998
 21
0.0000010602316252
 31
0.0
  0
LINE
  5
19F98
330
19F7E
100
AcDbEntity
  8
0
  6
Continuous
100
AcDbLine
 10
47.40000000000009
 20
169.4000010602317
 30
0.0
 11
47.40000000000009
 21
0.0000010602316252
 31
0.0
  0
LINE
  5
19F99
330
19F7E
100
AcDbEntity
  8
0
  6
Continuous
100
AcDbLine
 10
2.899999999995998
 20
0.0000010602316252
 30
0.0
 11
47.40000000000009
 21
0.0000010602316252
 31
0.0
  0
LINE
  5
19F9A
330
19F7E
100
AcDbEntity
  8
0
  6
Continuous
100
AcDbLine
 10
41.90000012191922
 20
1.900000900887789
 30
0.0
 11
30.50000012191822
 21
1.900000900887789
 31
0.0
  0
LINE
  5
19F9B
330
19F7E
100
AcDbEntity
  8
0
  6
Continuous
100
AcDbLine
 10
15.50000012191822
 20
1.900000900887789
 30
0.0
 11
4.90000012191831
 21
1.900000900887789
 31
0.0
  0
LINE
  5
19F9C
330
19F7E
100
AcDbEntity
  8
0
  6
Continuous
100
AcDbLine
 10
41.90000012191922
 20
84.20000090088752
 30
0.0
 11
30.50000012191822
 21
84.20000090088752
 31
0.0
  0
LINE
  5
19F9D
330
19F7E
100
AcDbEntity
  8
0
  6
Continuous
100
AcDbLine
 10
41.90000012191922
 20
49.5000009008877
 30
0.0
 11
30.50000012191822
 21
49.5000009008877
 31
0.0
  0
LINE
  5
19F9E
330
19F7E
100
AcDbEntity
  8
0
  6
Continuous
100
AcDbLine
 10
41.90000012191922
 20
47.30000090088788
 30
0.0
 11
30.50000012191822
 21
47.30000090088788
 31
0.0
  0
LINE
  5
19F9F
330
19F7E
100
AcDbEntity
  8
0
  6
Continuous
100
AcDbLine
 10
47.40000000000009
 20
169.4000010602317
 30
0.0
 11
0.0
 21
169.4000010602317
 31
0.0
  0
LINE
  5
19FA0
330
19F7E
100
AcDbEntity
  8
0
  6
Continuous
100
AcDbLine
 10
17.50000012191821
 20
118.9000009008877
 30
0.0
 11
17.50000012191821
 21
92.70000090088798
 31
0.0
  0
LINE
  5
19FA1
330
19F7E
100
AcDbEntity
  8
0
  6
Continuous
100
AcDbLine
 10
4.90000012191831
 20
118.9000009008877
 30
0.0
 11
4.90000012191831
 21
92.70000090088798
 31
0.0
  0
LINE
  5
19FA2
330
19F7E
100
AcDbEntity
  8
0
  6
Continuous
100
AcDbLine
 10
0.0
 20
169.4000010602317
 30
0.0
 11
0.0
 21
20.32227817897546
 31
0.0
  0
LINE
  5
19FA3
330
19F7E
100
AcDbEntity
  8
0
  6
Continuous
100
AcDbLine
 10
15.50000012191822
 20
73.30000090088742
 30
0.0
 11
15.50000012191822
 21
59.90000090088779
 31
0.0
  0
LINE
  5
19FA4
330
19F7E
100
AcDbEntity
  8
0
  6
Continuous
100
AcDbLine
 10
30.50000012191822
 20
63.80000090088742
 30
0.0
 11
30.50000012191822
 21
49.5000009008877
 31
0.0
  0
LINE
  5
19FA5
330
19F7E
100
AcDbEntity
  8
0
  6
Continuous
100
AcDbLine
 10
17.10000012191812
 20
59.90000090088779
 30
0.0
 11
17.10000012191812
 21
56.30000090088742
 31
0.0
  0
LINE
  5
19FA6
330
19F7E
100
AcDbEntity
  8
0
  6
Continuous
100
AcDbLine
 10
15.50000012191822
 20
59.90000090088779
 30
0.0
 11
17.10000012191812
 21
59.90000090088779
 31
0.0
  0
LINE
  5
19FA7
330
19F7E
100
AcDbEntity
  8
0
  6
Continuous
100
AcDbLine
 10
15.50000012191822
 20
56.30000090088742
 30
0.0
 11
17.10000012191812
 21
56.30000090088742
 31
0.0
  0
LINE
  5
19FA8
330
19F7E
100
AcDbEntity
  8
0
  6
Continuous
100
AcDbLine
 10
15.50000012191822
 20
88.20000090088797
 30
0.0
 11
15.50000012191822
 21
76.90000090088779
 31
0.0
  0
LINE
  5
19FA9
330
19F7E
100
AcDbEntity
  8
0
  6
Continuous
100
AcDbLine
 10
30.50000012191822
 20
79.80000090088743
 30
0.0
 11
30.50000012191822
 21
84.20000090088752
 31
0.0
  0
LINE
  5
19FAA
330
19F7E
100
AcDbEntity
  8
0
  6
Continuous
100
AcDbLine
 10
15.50000012191822
 20
76.90000090088779
 30
0.0
 11
17.10000012191812
 21
76.90000090088779
 31
0.0
  0
LINE
  5
19FAB
330
19F7E
100
AcDbEntity
  8
0
  6
Continuous
100
AcDbLine
 10
15.50000012191822
 20
73.30000090088742
 30
0.0
 11
17.10000012191812
 21
73.30000090088742
 31
0.0
  0
LINE
  5
19FAC
330
19F7E
100
AcDbEntity
  8
0
  6
Continuous
100
AcDbLine
 10
17.10000012191812
 20
76.90000090088779
 30
0.0
 11
17.10000012191812
 21
73.30000090088742
 31
0.0
  0
LINE
  5
19FAD
330
19F7E
100
AcDbEntity
  8
0
  6
Continuous
100
AcDbLine
 10
26.90000012191831
 20
79.80000090088743
 30
0.0
 11
26.90000012191831
 21
63.80000090088742
 31
0.0
  0
LINE
  5
19FAE
330
19F7E
100
AcDbEntity
  8
0
  6
Continuous
100
AcDbLine
 10
30.50000012191822
 20
63.80000090088742
 30
0.0
 11
26.90000012191831
 21
63.80000090088742
 31
0.0
  0
LINE
  5
19FAF
330
19F7E
100
AcDbEntity
  8
0
  6
Continuous
100
AcDbLine
 10
30.50000012191822
 20
79.80000090088743
 30
0.0
 11
26.90000012191831
 21
79.80000090088743
 31
0.0
  0
LINE
  5
19FB0
330
19F7E
100
AcDbEntity
  8
0
  6
Continuous
100
AcDbLine
 10
4.90000012191831
 20
92.70000090088798
 30
0.0
 11
17.50000012191821
 21
92.70000090088798
 31
0.0
  0
LINE
  5
19FB1
330
19F7E
100
AcDbEntity
  8
0
  6
Continuous
100
AcDbLine
 10
4.90000012191831
 20
88.20000090088797
 30
0.0
 11
15.50000012191822
 21
88.20000090088797
 31
0.0
  0
LINE
  5
19FB2
330
19F7E
100
AcDbEntity
  8
0
  6
Continuous
100
AcDbLine
 10
4.90000012191831
 20
155.8000009008874
 30
0.0
 11
4.90000012191831
 21
122.8000009008874
 31
0.0
  0
LINE
  5
19FB3
330
19F7E
100
AcDbEntity
  8
0
  6
Continuous
100
AcDbLine
 10
14.80000012191794
 20
155.8000009008874
 30
0.0
 11
14.80000012191794
 21
147.8000009008874
 31
0.0
  0
LINE
  5
19FB4
330
19F7E
100
AcDbEntity
  8
0
  6
Continuous
100
AcDbLine
 10
14.20000012191803
 20
139.6000009008876
 30
0.0
 11
14.20000012191803
 21
122.8000009008874
 31
0.0
  0
LINE
  5
19FB5
330
19F7E
100
AcDbEntity
  8
0
  6
Continuous
100
AcDbLine
 10
4.90000012191831
 20
118.9000009008877
 30
0.0
 11
17.50000012191821
 21
118.9000009008877
 31
0.0
  0
LINE
  5
19FB6
330
19F7E
100
AcDbEntity
  8
0
  6
Continuous
100
AcDbLine
 10
4.90000012191831
 20
122.8000009008874
 30
0.0
 11
14.20000012191803
 21
122.8000009008874
 31
0.0
  0
LINE
  5
19FB7
330
19F7E
100
AcDbEntity
  8
0
  6
Continuous
100
AcDbLine
 10
17.80000012191794
 20
147.8000009008874
 30
0.0
 11
17.80000012191794
 21
139.6000009008876
 31
0.0
  0
LINE
  5
19FB8
330
19F7E
100
AcDbEntity
  8
0
  6
Continuous
100
AcDbLine
 10
14.20000012191803
 20
139.6000009008876
 30
0.0
 11
17.80000012191794
 21
139.6000009008876
 31
0.0
  0
LINE
  5
19FB9
330
19F7E
100
AcDbEntity
  8
0
  6
Continuous
100
AcDbLine
 10
14.80000012191794
 20
147.8000009008874
 30
0.0
 11
17.80000012191794
 21
147.8000009008874
 31
0.0
  0
CIRCLE
  5
19FBA
330
19F7E
100
AcDbEntity
  8
0
  6
Continuous
100
AcDbCircle
 10
13.50000012191822
 20
164.5000009008876
 30
0.0
 40
1.399999999999999
  0
CIRCLE
  5
19FBB
330
19F7E
100
AcDbEntity
  8
0
  6
Continuous
100
AcDbCircle
 10
8.40000012191831
 20
164.5000009008876
 30
0.0
 40
1.399999999999999
  0
CIRCLE
  5
19FBC
330
19F7E
100
AcDbEntity
  8
0
  6
Continuous
100
AcDbCircle
 10
13.50000012191822
 20
159.7000009008879
 30
0.0
 40
1.399999999999999
  0
LINE
  5
19FBD
330
19F7E
100
AcDbEntity
  8
0
  6
Continuous
100
AcDbLine
 10
14.80000012191794
 20
155.8000009008874
 30
0.0
 11
4.90000012191831
 21
155.8000009008874
 31
0.0
  0
CIRCLE
  5
19FBE
330
19F7E
100
AcDbEntity
  8
0
  6
Continuous
100
AcDbCircle
 10
8.40000012191831
 20
159.7000009008879
 30
0.0
 40
1.399999999999999
  0
LINE
  5
19FBF
330
19F7E
100
AcDbEntity
  8
0
  6
Continuous
100
AcDbLine
 10
41.90000012191922
 20
84.20000090088752
 30
0.0
 11
41.90000012191922
 21
49.5000009008877
 31
0.0
  0
ARC
  5
19FC0
330
19F7E
100
AcDbEntity
  8
0
  6
Continuous
100
AcDbCircle
 10
-3.999999999998181
 20
14.70000106023189
 30
0.0
 40
6.899999999995543
100
AcDbArc
 50
0.0
 51
54.56984163989043
  0
LINE
  5
19FC1
330
19F7E
100
AcDbEntity
  8
0
100
AcDbLine
 10
28.59985163883129
 20
112.0199993142769
 30
0.0
 11
36.59985163883129
 21
112.0199993142769
 31
0.0
  0
ARC
  5
19FC2
330
19F7E
100
AcDbEntity
  8
0
100
AcDbCircle
 10
39.59985163883129
 20
115.5199993142768
 30
0.0
 40
1.0
100
AcDbArc
 50
270.0
 51
0.0
  0
LINE
  5
19FC3
330
19F7E
100
AcDbEntity
  8
0
100
AcDbLine
 10
40.59985163883129
 20
115.5199993142768
 30
0.0
 11
40.59985163883129
 21
120.5199993142769
 31
0.0
  0
ARC
  5
19FC4
330
19F7E
100
AcDbEntity
  8
0
100
AcDbCircle
 10
39.59985163883129
 20
120.5199993142769
 30
0.0
 40
1.0
100
AcDbArc
 50
0.0
 51
90.0
  0
LINE
  5
19FC5
330
19F7E
100
AcDbEntity
  8
0
100
AcDbLine
 10
28.09985163883129
 20
112.0199993142769
 30
0.0
 11
37.09985163883129
 21
112.0199993142769
 31
0.0
  0
LINE
  5
19FC6
330
19F7E
100
AcDbEntity
  8
0
100
AcDbLine
 10
39.09985163883084
 20
114.5199993142768
 30
0.0
 11
39.59985163883129
 21
114.5199993142768
 31
0.0
  0
ARC
  5
19FC7
330
19F7E
100
AcDbEntity
  8
0
100
AcDbCircle
 10
39.59985163883129
 20
115.5199993142768
 30
0.0
 40
1.0
100
AcDbArc
 50
270.0
 51
0.0
  0
LINE
  5
19FC8
330
19F7E
100
AcDbEntity
  8
0
100
AcDbLine
 10
40.59985163883129
 20
115.5199993142768
 30
0.0
 11
40.59985163883129
 21
120.5199993142769
 31
0.0
  0
ARC
  5
19FC9
330
19F7E
100
AcDbEntity
  8
0
100
AcDbCircle
 10
39.59985163883129
 20
120.5199993142769
 30
0.0
 40
1.0
100
AcDbArc
 50
0.0
 51
90.0
  0
LINE
  5
19FCA
330
19F7E
100
AcDbEntity
  8
0
100
AcDbLine
 10
39.59985163883129
 20
121.5199993142769
 30
0.0
 11
39.09985163883175
 21
121.5199993142769
 31
0.0
  0
LINE
  5
19FCB
330
19F7E
100
AcDbEntity
  8
0
100
AcDbLine
 10
38.09985163883175
 20
122.5199993142769
 30
0.0
 11
38.09985163883129
 21
124.0199993142768
 31
0.0
  0
LINE
  5
19FCC
330
19F7E
100
AcDbEntity
  8
0
100
AcDbLine
 10
37.09985163883129
 20
125.0199993142768
 30
0.0
 11
28.09985163883129
 21
125.0199993142768
 31
0.0
  0
LINE
  5
19FCD
330
19F7E
100
AcDbEntity
  8
0
100
AcDbLine
 10
27.09985163883129
 20
124.0199993142768
 30
0.0
 11
27.09985163883129
 21
113.0199993142769
 31
0.0
  0
LINE
  5
19FCE
330
19F7E
100
AcDbEntity
  8
0
 48
5.0
100
AcDbLine
 10
38.09985163883084
 20
113.5199993142768
 30
0.0
 11
38.09985163883129
 21
113.0199993142769
 31
0.0
  0
ARC
  5
19FCF
330
19F7E
100
AcDbEntity
  8
0
100
AcDbCircle
 10
28.09985163883129
 20
124.0199993142768
 30
0.0
 40
1.0
100
AcDbArc
 50
90.0
 51
180.0
  0
ARC
  5
19FD0
330
19F7E
100
AcDbEntity
  8
0
100
AcDbCircle
 10
28.09985163883129
 20
113.0199993142769
 30
0.0
 40
1.0
100
AcDbArc
 50
180.0
 51
270.0
  0
ARC
  5
19FD1
330
19F7E
100
AcDbEntity
  8
0
100
AcDbCircle
 10
37.09985163883129
 20
124.0199993142768
 30
0.0
 40
1.0
100
AcDbArc
 50
0.0
 51
90.0
  0
ARC
  5
19FD2
330
19F7E
100
AcDbEntity
  8
0
100
AcDbCircle
 10
37.09985163883129
 20
113.0199993142769
 30
0.0
 40
1.0
100
AcDbArc
 50
270.0
 51
0.0
  0
ARC
  5
19FD3
330
19F7E
100
AcDbEntity
  8
0
100
AcDbCircle
 10
39.09985163883084
 20
113.5199993142768
 30
0.0
 40
1.0
100
AcDbArc
 50
90.0
 51
180.0
  0
ARC
  5
19FD4
330
19F7E
100
AcDbEntity
  8
0
100
AcDbCircle
 10
39.09985163883175
 20
122.5199993142769
 30
0.0
 40
1.0
100
AcDbArc
 50
180.0
 51
270.0
  0
LINE
  5
19FD5
330
19F7E
100
AcDbEntity
  8
0
100
AcDbLine
 10
28.59985163883038
 20
105.2299993142764
 30
0.0
 11
36.59985163883038
 21
105.2299993142764
 31
0.0
  0
ARC
  5
19FD6
330
19F7E
100
AcDbEntity
  8
0
100
AcDbCircle
 10
39.59985163883038
 20
101.7299993142764
 30
0.0
 40
1.0
100
AcDbArc
 50
0.0
 51
90.0
  0
LINE
  5
19FD7
330
19F7E
100
AcDbEntity
  8
0
100
AcDbLine
 10
40.59985163883038
 20
101.7299993142764
 30
0.0
 11
40.59985163883038
 21
96.72999931427648
 31
0.0
  0
ARC
  5
19FD8
330
19F7E
100
AcDbEntity
  8
0
100
AcDbCircle
 10
39.59985163883038
 20
96.72999931427648
 30
0.0
 40
1.0
100
AcDbArc
 50
270.0
 51
0.0
  0
LINE
  5
19FD9
330
19F7E
100
AcDbEntity
  8
0
100
AcDbLine
 10
28.09985163883038
 20
105.2299993142764
 30
0.0
 11
37.09985163883038
 21
105.2299993142764
 31
0.0
  0
LINE
  5
19FDA
330
19F7E
100
AcDbEntity
  8
0
100
AcDbLine
 10
39.09985163882993
 20
102.7299993142764
 30
0.0
 11
39.59985163883038
 21
102.7299993142764
 31
0.0
  0
ARC
  5
19FDB
330
19F7E
100
AcDbEntity
  8
0
100
AcDbCircle
 10
39.59985163883038
 20
101.7299993142764
 30
0.0
 40
1.0
100
AcDbArc
 50
0.0
 51
90.0
  0
LINE
  5
19FDC
330
19F7E
100
AcDbEntity
  8
0
100
AcDbLine
 10
40.59985163883038
 20
101.7299993142764
 30
0.0
 11
40.59985163883038
 21
96.72999931427648
 31
0.0
  0
ARC
  5
19FDD
330
19F7E
100
AcDbEntity
  8
0
100
AcDbCircle
 10
39.59985163883038
 20
96.72999931427648
 30
0.0
 40
1.0
100
AcDbArc
 50
270.0
 51
0.0
  0
LINE
  5
19FDE
330
19F7E
100
AcDbEntity
  8
0
100
AcDbLine
 10
39.59985163883038
 20
95.72999931427649
 30
0.0
 11
39.09985163883084
 21
95.72999931427649
 31
0.0
  0
LINE
  5
19FDF
330
19F7E
100
AcDbEntity
  8
0
100
AcDbLine
 10
38.09985163883084
 20
94.72999931427649
 30
0.0
 11
38.09985163883038
 21
93.22999931427649
 31
0.0
  0
LINE
  5
19FE0
330
19F7E
100
AcDbEntity
  8
0
100
AcDbLine
 10
37.09985163883038
 20
92.22999931427649
 30
0.0
 11
28.09985163883038
 21
92.22999931427649
 31
0.0
  0
LINE
  5
19FE1
330
19F7E
100
AcDbEntity
  8
0
100
AcDbLine
 10
27.09985163883038
 20
93.22999931427649
 30
0.0
 11
27.09985163883038
 21
104.2299993142764
 31
0.0
  0
LINE
  5
19FE2
330
19F7E
100
AcDbEntity
  8
0
 48
5.0
100
AcDbLine
 10
38.09985163882993
 20
103.7299993142764
 30
0.0
 11
38.09985163883038
 21
104.2299993142764
 31
0.0
  0
ARC
  5
19FE3
330
19F7E
100
AcDbEntity
  8
0
100
AcDbCircle
 10
28.09985163883038
 20
93.22999931427649
 30
0.0
 40
1.0
100
AcDbArc
 50
180.0
 51
270.0
  0
ARC
  5
19FE4
330
19F7E
100
AcDbEntity
  8
0
100
AcDbCircle
 10
28.09985163883038
 20
104.2299993142764
 30
0.0
 40
1.0
100
AcDbArc
 50
90.0
 51
180.0
  0
ARC
  5
19FE5
330
19F7E
100
AcDbEntity
  8
0
100
AcDbCircle
 10
37.09985163883038
 20
93.22999931427649
 30
0.0
 40
1.0
100
AcDbArc
 50
270.0
 51
0.0
  0
ARC
  5
19FE6
330
19F7E
100
AcDbEntity
  8
0
100
AcDbCircle
 10
37.09985163883038
 20
104.2299993142764
 30
0.0
 40
1.0
100
AcDbArc
 50
0.0
 51
90.0
  0
ARC
  5
19FE7
330
19F7E
100
AcDbEntity
  8
0
100
AcDbCircle
 10
39.09985163882993
 20
103.7299993142764
 30
0.0
 40
1.0
100
AcDbArc
 50
180.0
 51
270.0
  0
ARC
  5
19FE8
330
19F7E
100
AcDbEntity
  8
0
100
AcDbCircle
 10
39.09985163883084
 20
94.72999931427649
 30
0.0
 40
1.0
100
AcDbArc
 50
90.0
 51
180.0
  0
LINE
  5
19FE9
330
19F7E
100
AcDbEntity
  8
0
 62
     0
100
AcDbLine
 10
40.89985163883102
 20
135.174999314278
 30
0.0
 11
40.89985163883102
 21
132.4749993142772
 31
0.0
  0
LINE
  5
19FEA
330
19F7E
100
AcDbEntity
  8
0
 62
     0
100
AcDbLine
 10
39.29985163883065
 20
132.4749993142772
 30
0.0
 11
39.29985163883065
 21
135.174999314278
 31
0.0
  0
LINE
  5
19FEB
330
19F7E
100
AcDbEntity
  8
0
 62
     0
100
AcDbLine
 10
40.89985163883102
 20
135.174999314278
 30
0.0
 11
39.29985163883065
 21
135.174999314278
 31
0.0
  0
LINE
  5
19FEC
330
19F7E
100
AcDbEntity
  8
0
 62
     0
100
AcDbLine
 10
40.89985163883102
 20
132.4749993142772
 30
0.0
 11
39.29985163883065
 21
132.4749993142772
 31
0.0
  0
LINE
  5
19FED
330
19F7E
100
AcDbEntity
  8
0
 62
     0
100
AcDbLine
 10
40.89985163883102
 20
129.6750033143175
 30
0.0
 11
40.89985163883102
 21
126.9750033143168
 31
0.0
  0
LINE
  5
19FEE
330
19F7E
100
AcDbEntity
  8
0
 62
     0
100
AcDbLine
 10
39.29985163883065
 20
126.9750033143168
 30
0.0
 11
39.29985163883065
 21
129.6750033143175
 31
0.0
  0
LINE
  5
19FEF
330
19F7E
100
AcDbEntity
  8
0
 62
     0
100
AcDbLine
 10
40.89985163883102
 20
129.6750033143175
 30
0.0
 11
39.29985163883065
 21
129.6750033143175
 31
0.0
  0
LINE
  5
19FF0
330
19F7E
100
AcDbEntity
  8
0
 62
     0
100
AcDbLine
 10
40.89985163883102
 20
126.9750033143168
 30
0.0
 11
39.29985163883065
 21
126.9750033143168
 31
0.0
  0
ENDBLK
  5
19FF2
330
19F7E
100
AcDbEntity
  8
0
100
AcDbBlockEnd
  0
BLOCK
  5
1A35E
330
1A1B9
100
AcDbEntity
  8
0
100
AcDbBlockBegin
  2
A$C582506EE
 70
     0
 10
0.0
 20
0.0
 30
0.0
  3
A$C582506EE
  1
A$C582506EE
  0
LINE
  5
1A1BA
330
1A1B9
100
AcDbEntity
  8
0
100
AcDbLine
 10
7.73000137968529
 20
29.59999664164252
 30
0.0
 11
7.380001379684927
 21
29.59999664164252
 31
0.0
  0
LINE
  5
1A1BB
330
1A1B9
100
AcDbEntity
  8
0
100
AcDbLine
 10
7.73000137968529
 20
9.809996641642555
 30
0.0
 11
7.380001379684927
 21
9.809996641642555
 31
0.0
  0
LINE
  5
1A1BC
330
1A1B9
100
AcDbEntity
  8
0
100
AcDbLine
 10
6.780001379684563
 20
7.859996641642737
 30
0.0
 11
7.73000137968529
 21
7.859996641642737
 31
0.0
  0
ARC
  5
1A1BD
330
1A1B9
100
AcDbEntity
  8
0
100
AcDbCircle
 10
7.330001379684745
 20
9.009996641642374
 30
0.0
 40
0.4
100
AcDbArc
 50
270.0
 51
0.0
  0
LINE
  5
1A1BE
330
1A1B9
100
AcDbEntity
  8
0
100
AcDbLine
 10
7.73000137968529
 20
9.609996641642737
 30
0.0
 11
7.380001379684927
 21
9.609996641642737
 31
0.0
  0
LINE
  5
1A1BF
330
1A1B9
100
AcDbEntity
  8
0
100
AcDbLine
 10
7.250001379684817
 20
8.559996641642555
 30
0.0
 11
7.73000137968529
 21
8.559996641642555
 31
0.0
  0
ARC
  5
1A1C0
330
1A1B9
100
AcDbEntity
  8
0
100
AcDbCircle
 10
7.330001379684745
 20
0.7999966416423377
 30
0.0
 40
0.4
100
AcDbArc
 50
0.0
 51
90.0
  0
LINE
  5
1A1C1
330
1A1B9
100
AcDbEntity
  8
0
100
AcDbLine
 10
7.250001379684817
 20
1.249996641642155
 30
0.0
 11
7.73000137968529
 21
1.249996641642155
 31
0.0
  0
LINE
  5
1A1C2
330
1A1B9
100
AcDbEntity
  8
0
100
AcDbLine
 10
7.380001379684927
 20
0.1999966416428833
 30
0.0
 11
7.73000137968529
 21
0.1999966416428833
 31
0.0
  0
LINE
  5
1A1C3
330
1A1B9
100
AcDbEntity
  8
0
100
AcDbLine
 10
7.380001379684927
 20
-0.0000033583578443
 30
0.0
 11
7.73000137968529
 21
-0.0000033583578443
 31
0.0
  0
LINE
  5
1A1C4
330
1A1B9
100
AcDbEntity
  8
0
100
AcDbLine
 10
7.73000137968529
 20
1.949996641642883
 30
0.0
 11
6.780001379684563
 21
1.949996641642883
 31
0.0
  0
LINE
  5
1A1C5
330
1A1B9
100
AcDbEntity
  8
0
100
AcDbLine
 10
7.36000137968449
 20
4.204996641642082
 30
0.0
 11
7.73000137968529
 21
4.204996641642082
 31
0.0
  0
LINE
  5
1A1C6
330
1A1B9
100
AcDbEntity
  8
0
100
AcDbLine
 10
7.73000137968529
 20
5.604996641642628
 30
0.0
 11
7.36000137968449
 21
5.604996641642628
 31
0.0
  0
LINE
  5
1A1C7
330
1A1B9
100
AcDbEntity
  8
0
100
AcDbLine
 10
7.36000137968449
 20
5.304996641642446
 30
0.0
 11
7.73000137968529
 21
5.304996641642446
 31
0.0
  0
LINE
  5
1A1C8
330
1A1B9
100
AcDbEntity
  8
0
100
AcDbLine
 10
7.36000137968449
 20
4.504996641642264
 30
0.0
 11
7.73000137968529
 21
4.504996641642264
 31
0.0
  0
LINE
  5
1A1C9
330
1A1B9
100
AcDbEntity
  8
0
100
AcDbLine
 10
7.73000137968529
 20
25.39499664164259
 30
0.0
 11
7.36000137968449
 21
25.39499664164259
 31
0.0
  0
LINE
  5
1A1CA
330
1A1B9
100
AcDbEntity
  8
0
100
AcDbLine
 10
7.36000137968449
 20
25.09499664164241
 30
0.0
 11
7.73000137968529
 21
25.09499664164241
 31
0.0
  0
LINE
  5
1A1CB
330
1A1B9
100
AcDbEntity
  8
0
100
AcDbLine
 10
6.780001379684563
 20
27.64999664164179
 30
0.0
 11
7.73000137968529
 21
27.64999664164179
 31
0.0
  0
ARC
  5
1A1CC
330
1A1B9
100
AcDbEntity
  8
0
100
AcDbCircle
 10
7.330001379684745
 20
28.79999664164234
 30
0.0
 40
0.4
100
AcDbArc
 50
270.0
 51
0.0
  0
LINE
  5
1A1CD
330
1A1B9
100
AcDbEntity
  8
0
100
AcDbLine
 10
7.73000137968529
 20
29.39999664164179
 30
0.0
 11
7.380001379684927
 21
29.39999664164179
 31
0.0
  0
LINE
  5
1A1CE
330
1A1B9
100
AcDbEntity
  8
0
100
AcDbLine
 10
7.250001379684817
 20
28.34999664164252
 30
0.0
 11
7.73000137968529
 21
28.34999664164252
 31
0.0
  0
ARC
  5
1A1CF
330
1A1B9
100
AcDbEntity
  8
0
100
AcDbCircle
 10
7.330001379684745
 20
20.5899966416423
 30
0.0
 40
0.4
100
AcDbArc
 50
0.0
 51
90.0
  0
LINE
  5
1A1D0
330
1A1B9
100
AcDbEntity
  8
0
100
AcDbLine
 10
7.250001379684817
 20
21.03999664164212
 30
0.0
 11
7.73000137968529
 21
21.03999664164212
 31
0.0
  0
LINE
  5
1A1D1
330
1A1B9
100
AcDbEntity
  8
0
100
AcDbLine
 10
7.380001379684927
 20
19.98999664164193
 30
0.0
 11
7.73000137968529
 21
19.98999664164193
 31
0.0
  0
LINE
  5
1A1D2
330
1A1B9
100
AcDbEntity
  8
0
100
AcDbLine
 10
7.380001379684927
 20
19.78999664164211
 30
0.0
 11
7.73000137968529
 21
19.78999664164211
 31
0.0
  0
LINE
  5
1A1D3
330
1A1B9
100
AcDbEntity
  8
0
100
AcDbLine
 10
7.73000137968529
 20
21.73999664164193
 30
0.0
 11
6.780001379684563
 21
21.73999664164193
 31
0.0
  0
LINE
  5
1A1D4
330
1A1B9
100
AcDbEntity
  8
0
100
AcDbLine
 10
7.36000137968449
 20
24.29499664164223
 30
0.0
 11
7.73000137968529
 21
24.29499664164223
 31
0.0
  0
LINE
  5
1A1D5
330
1A1B9
100
AcDbEntity
  8
0
100
AcDbLine
 10
7.36000137968449
 20
23.99499664164204
 30
0.0
 11
7.73000137968529
 21
23.99499664164204
 31
0.0
  0
LINE
  5
1A1D6
330
1A1B9
100
AcDbEntity
  8
0
100
AcDbLine
 10
7.73000137968529
 20
1.249996641642155
 30
0.0
 11
7.73000137968529
 21
8.559996641642555
 31
0.0
  0
LINE
  5
1A1D7
330
1A1B9
100
AcDbEntity
  8
0
100
AcDbLine
 10
7.73000137968529
 20
21.03999664164212
 30
0.0
 11
7.73000137968529
 21
28.34999664164252
 31
0.0
  0
LINE
  5
1A1D8
330
1A1B9
100
AcDbEntity
  8
0
100
AcDbLine
 10
7.73000137968529
 20
28.79999664164234
 30
0.0
 11
7.73000137968529
 21
29.59999664164252
 31
0.0
  0
LINE
  5
1A1D9
330
1A1B9
100
AcDbEntity
  8
0
100
AcDbLine
 10
7.73000137968529
 20
9.009996641642374
 30
0.0
 11
7.73000137968529
 21
9.809996641642555
 31
0.0
  0
LINE
  5
1A1DA
330
1A1B9
100
AcDbEntity
  8
0
100
AcDbLine
 10
7.73000137968529
 20
19.78999664164211
 30
0.0
 11
7.73000137968529
 21
20.5899966416423
 31
0.0
  0
LINE
  5
1A1DB
330
1A1B9
100
AcDbEntity
  8
0
100
AcDbLine
 10
7.73000137968529
 20
-0.0000033583578443
 30
0.0
 11
7.73000137968529
 21
0.7999966416423377
 31
0.0
  0
LINE
  5
1A1DC
330
1A1B9
100
AcDbEntity
  8
0
100
AcDbLine
 10
4.166515116909522
 20
8.2416630610428
 30
0.0
 11
4.680001379685108
 21
8.609996641642737
 31
0.0
  0
LINE
  5
1A1DD
330
1A1B9
100
AcDbEntity
  8
0
100
AcDbLine
 10
0.680001379685109
 20
8.509996641642374
 30
0.0
 11
0.680001379685109
 21
7.994996641642046
 31
0.0
  0
LINE
  5
1A1DE
330
1A1B9
100
AcDbEntity
  8
0
100
AcDbLine
 10
1.030001379684563
 20
6.65499664164281
 30
0.0
 11
1.030001379684563
 21
8.509996641642374
 31
0.0
  0
LINE
  5
1A1DF
330
1A1B9
100
AcDbEntity
  8
0
100
AcDbLine
 10
3.193487642459786
 20
8.2416630610428
 30
0.0
 11
2.701770289134856
 21
8.594381383842573
 31
0.0
  0
ARC
  5
1A1E0
330
1A1B9
100
AcDbEntity
  8
0
100
AcDbCircle
 10
1.680001379685108
 20
8.059996641642555
 30
0.0
 40
0.5
100
AcDbArc
 50
90.0
 51
180.0
  0
LINE
  5
1A1E1
330
1A1B9
100
AcDbEntity
  8
0
100
AcDbLine
 10
5.23000137968529
 20
8.554996641642446
 30
0.0
 11
6.23000137968529
 21
7.554996641642446
 31
0.0
  0
LINE
  5
1A1E2
330
1A1B9
100
AcDbEntity
  8
0
100
AcDbLine
 10
6.680001379685108
 20
7.204996641642082
 30
0.0
 11
6.680001379685108
 21
8.509996641642374
 31
0.0
  0
LINE
  5
1A1E3
330
1A1B9
100
AcDbEntity
  8
0
100
AcDbLine
 10
7.250001379684817
 20
7.859996641642737
 30
0.0
 11
7.250001379684817
 21
8.559996641642555
 31
0.0
  0
LINE
  5
1A1E4
330
1A1B9
100
AcDbEntity
  8
0
100
AcDbLine
 10
4.390001379685145
 20
23.90999664164201
 30
0.0
 11
4.390001379685145
 21
22.93999664164175
 31
0.0
  0
LINE
  5
1A1E5
330
1A1B9
100
AcDbEntity
  8
0
100
AcDbLine
 10
2.970001379685072
 20
23.90999664164201
 30
0.0
 11
2.970001379685072
 21
22.93999664164175
 31
0.0
  0
LINE
  5
1A1E6
330
1A1B9
100
AcDbEntity
  8
0
100
AcDbLine
 10
4.290001379684781
 20
27.09999664164252
 30
0.0
 11
4.290001379684781
 21
22.28999664164212
 31
0.0
  0
LINE
  5
1A1E7
330
1A1B9
100
AcDbEntity
  8
0
100
AcDbLine
 10
0.3000013796849998
 20
23.24499664164204
 30
0.0
 11
0.3000013796849998
 21
26.14499664164259
 31
0.0
  0
LINE
  5
1A1E8
330
1A1B9
100
AcDbEntity
  8
0
100
AcDbLine
 10
0.3409535863352175
 20
23.24499664164204
 30
0.0
 11
0.3409535863352175
 21
26.14499664164259
 31
0.0
  0
LINE
  5
1A1E9
330
1A1B9
100
AcDbEntity
  8
0
100
AcDbLine
 10
1.23000137968529
 20
22.94499664164186
 30
0.0
 11
1.23000137968529
 21
26.44499664164186
 31
0.0
  0
LINE
  5
1A1EA
330
1A1B9
100
AcDbEntity
  8
0
100
AcDbLine
 10
1.48000137968529
 20
28.04999664164233
 30
0.0
 11
1.48000137968529
 21
21.3399966416423
 31
0.0
  0
LINE
  5
1A1EB
330
1A1B9
100
AcDbEntity
  8
0
100
AcDbLine
 10
3.070001379684526
 20
27.09999664164252
 30
0.0
 11
3.070001379684526
 21
22.28999664164212
 31
0.0
  0
LINE
  5
1A1EC
330
1A1B9
100
AcDbEntity
  8
0
100
AcDbLine
 10
6.330001379684745
 20
22.04499664164222
 30
0.0
 11
6.330001379684745
 21
27.34499664164241
 31
0.0
  0
LINE
  5
1A1ED
330
1A1B9
100
AcDbEntity
  8
0
100
AcDbLine
 10
7.02522767595974
 20
26.99499664164204
 30
0.0
 11
7.02522767595974
 21
22.39499664164259
 31
0.0
  0
LINE
  5
1A1EE
330
1A1B9
100
AcDbEntity
  8
0
100
AcDbLine
 10
7.36000137968449
 20
26.69499664164186
 30
0.0
 11
7.36000137968449
 21
22.69499664164186
 31
0.0
  0
LINE
  5
1A1EF
330
1A1B9
100
AcDbEntity
  8
0
100
AcDbLine
 10
4.73000137968529
 20
29.42999664164244
 30
0.0
 11
1.830001379684745
 21
29.42999664164244
 31
0.0
  0
LINE
  5
1A1F0
330
1A1B9
100
AcDbEntity
  8
0
100
AcDbLine
 10
4.166515116909522
 20
28.03166306104185
 30
0.0
 11
3.193487642459786
 21
28.03166306104185
 31
0.0
  0
LINE
  5
1A1F1
330
1A1B9
100
AcDbEntity
  8
0
100
AcDbLine
 10
4.161873148035283
 20
28.0299966416419
 30
0.0
 11
3.198129611334934
 21
28.0299966416419
 31
0.0
  0
LINE
  5
1A1F2
330
1A1B9
100
AcDbEntity
  8
0
100
AcDbLine
 10
2.970001379685072
 20
27.29999664164234
 30
0.0
 11
4.390001379685145
 21
27.29999664164234
 31
0.0
  0
LINE
  5
1A1F3
330
1A1B9
100
AcDbEntity
  8
0
100
AcDbLine
 10
3.070001379684526
 20
27.09999664164252
 30
0.0
 11
4.290001379684781
 21
27.09999664164252
 31
0.0
  0
LINE
  5
1A1F4
330
1A1B9
100
AcDbEntity
  8
0
100
AcDbLine
 10
4.390001379685145
 20
26.44999664164197
 30
0.0
 11
4.390001379685145
 21
25.47999664164263
 31
0.0
  0
LINE
  5
1A1F5
330
1A1B9
100
AcDbEntity
  8
0
100
AcDbLine
 10
4.341589232209571
 20
25.47999664164263
 30
0.0
 11
4.73995266276006
 21
25.47999664164263
 31
0.0
  0
LINE
  5
1A1F6
330
1A1B9
100
AcDbEntity
  8
0
100
AcDbLine
 10
4.341589232209571
 20
25.17999664164245
 30
0.0
 11
4.341589232209571
 21
25.47999664164263
 31
0.0
  0
LINE
  5
1A1F7
330
1A1B9
100
AcDbEntity
  8
0
100
AcDbLine
 10
4.488572808259505
 20
25.17999664164245
 30
0.0
 11
4.488572808259505
 21
25.47999664164263
 31
0.0
  0
LINE
  5
1A1F8
330
1A1B9
100
AcDbEntity
  8
0
100
AcDbLine
 10
4.341589232209571
 20
25.17999664164245
 30
0.0
 11
4.73995266276006
 21
25.17999664164245
 31
0.0
  0
LINE
  5
1A1F9
330
1A1B9
100
AcDbEntity
  8
0
100
AcDbLine
 10
4.740001379684599
 20
25.17999664164245
 30
0.0
 11
4.740001379684599
 21
25.47999664164263
 31
0.0
  0
LINE
  5
1A1FA
330
1A1B9
100
AcDbEntity
  8
0
100
AcDbLine
 10
4.390001379685145
 20
27.29999664164234
 30
0.0
 11
4.390001379685145
 21
26.74999664164215
 31
0.0
  0
LINE
  5
1A1FB
330
1A1B9
100
AcDbEntity
  8
0
100
AcDbLine
 10
4.341589232209571
 20
26.74999664164215
 30
0.0
 11
4.73995266276006
 21
26.74999664164215
 31
0.0
  0
LINE
  5
1A1FC
330
1A1B9
100
AcDbEntity
  8
0
100
AcDbLine
 10
4.341589232209571
 20
26.44999664164197
 30
0.0
 11
4.73995266276006
 21
26.44999664164197
 31
0.0
  0
LINE
  5
1A1FD
330
1A1B9
100
AcDbEntity
  8
0
100
AcDbLine
 10
4.341589232209571
 20
26.44999664164197
 30
0.0
 11
4.341589232209571
 21
26.74999664164215
 31
0.0
  0
LINE
  5
1A1FE
330
1A1B9
100
AcDbEntity
  8
0
100
AcDbLine
 10
4.488572808259505
 20
26.44999664164197
 30
0.0
 11
4.488572808259505
 21
26.74999664164215
 31
0.0
  0
LINE
  5
1A1FF
330
1A1B9
100
AcDbEntity
  8
0
100
AcDbLine
 10
4.740001379684599
 20
26.44999664164197
 30
0.0
 11
4.740001379684599
 21
26.74999664164215
 31
0.0
  0
LINE
  5
1A200
330
1A1B9
100
AcDbEntity
  8
0
100
AcDbLine
 10
4.390001379685145
 20
27.29999664164234
 30
0.0
 11
4.290001379684781
 21
27.09999664164252
 31
0.0
  0
LINE
  5
1A201
330
1A1B9
100
AcDbEntity
  8
0
100
AcDbLine
 10
4.161819134534653
 20
28.0300507838424
 30
0.0
 11
4.166515116909522
 21
28.03166306104185
 31
0.0
  0
LINE
  5
1A202
330
1A1B9
100
AcDbEntity
  8
0
100
AcDbLine
 10
4.166515116909522
 20
28.03166306104185
 30
0.0
 11
4.680001379685108
 21
28.39999664164179
 31
0.0
  0
ARC
  5
1A203
330
1A1B9
100
AcDbEntity
  8
0
100
AcDbCircle
 10
0.3000013796849998
 20
27.48499664164274
 30
0.0
 40
0.3
100
AcDbArc
 50
90.0
 51
180.0
  0
LINE
  5
1A204
330
1A1B9
100
AcDbEntity
  8
0
100
AcDbLine
 10
0.680001379685109
 20
28.29999664164233
 30
0.0
 11
0.680001379685109
 21
27.78499664164201
 31
0.0
  0
LINE
  5
1A205
330
1A1B9
100
AcDbEntity
  8
0
100
AcDbLine
 10
1.030001379684563
 20
26.44499664164186
 30
0.0
 11
1.030001379684563
 21
28.29999664164233
 31
0.0
  0
LINE
  5
1A206
330
1A1B9
100
AcDbEntity
  8
0
100
AcDbLine
 10
1.180001379685108
 20
27.84999664164252
 30
0.0
 11
1.180001379685108
 21
26.44499664164186
 31
0.0
  0
SPLINE
  5
1A207
330
1A1B9
100
AcDbEntity
  8
0
100
AcDbSpline
210
0.0
220
0.0
230
1.0
 70
     8
 71
     3
 72
    15
 73
    11
 74
     9
 42
0.0000000001
 43
0.0000000001
 44
0.0000000001
 12
-1.0
 22
0.0000000000000003
 32
0.0
 13
-0.0000000000000003
 23
-1.0
 33
0.0
 40
0.0
 40
0.0
 40
0.0
 40
0.0
 40
0.0549104034383483
 40
0.1112943695380107
 40
0.1688458398557608
 40
0.2272617165085018
 40
0.2861891301455971
 40
0.3453715916121558
 40
0.4047062933587064
 40
0.4640323935828287
 40
0.4640323935828287
 40
0.4640323935828287
 40
0.4640323935828287
 10
0.6335375942103383
 20
26.44499664164186
 30
0.0
 10
0.6152341263975555
 20
26.44499664164186
 30
0.0
 10
0.5780376369881808
 20
26.44125323776591
 30
0.0
 10
0.5239010772917283
 20
26.42463025459774
 30
0.0
 10
0.4730043104716762
 20
26.39718646788169
 30
0.0
 10
0.4277546370649393
 20
26.35984219381551
 30
0.0
 10
0.3902612208789354
 20
26.3140092466633
 30
0.0
 10
0.3622024247632241
 20
26.26150620282421
 30
0.0
 10
0.3448735061397613
 20
26.20443393884813
 30
0.0
 10
0.3409535863352175
 20
26.16477200838396
 30
0.0
 10
0.3409535863352175
 20
26.14499664164259
 30
0.0
 11
0.6335375942103383
 21
26.44499664164186
 31
0.0
 11
0.5788983036850368
 21
26.4395468401176
 31
0.0
 11
0.5249818861097993
 21
26.4230492175925
 31
0.0
 11
0.474304435985232
 21
26.39577344474173
 31
0.0
 11
0.429234255935171
 21
26.35861037819222
 31
0.0
 11
0.391910911035211
 21
26.31300985184179
 31
0.0
 11
0.3640200186596303
 21
26.26081155811744
 31
0.0
 11
0.3467835206852214
 21
26.20403559516716
 31
0.0
 11
0.3409535863352175
 21
26.14499664164259
 31
0.0
  0
SPLINE
  5
1A208
330
1A1B9
100
AcDbEntity
  8
0
100
AcDbSpline
210
0.0
220
0.0
230
1.0
 70
     8
 71
     3
 72
    15
 73
    11
 74
     9
 42
0.0000000001
 43
0.0000000001
 44
0.0000000001
 12
0.0000000000000003
 22
1.0
 32
0.0
 13
1.0
 23
-0.0000000000000003
 33
0.0
 40
0.0
 40
0.0
 40
0.0
 40
0.0
 40
0.0601976440144101
 40
0.1203434046987003
 40
0.1802921062117081
 40
0.2397999660839145
 40
0.2983669952289781
 40
0.3552634378523416
 40
0.409714363644495
 40
0.4611969379708673
 40
0.4611969379708673
 40
0.4611969379708673
 40
0.4611969379708673
 10
0.3000013796849998
 20
26.14499664164259
 30
0.0
 10
0.3000013796849998
 20
26.16506252298073
 30
0.0
 10
0.3040322359781408
 20
26.20529065598226
 30
0.0
 10
0.3218421192807477
 20
26.26308352409739
 30
0.0
 10
0.3505584473514864
 20
26.31606209040948
 30
0.0
 10
0.3887041939523532
 20
26.36201269892053
 30
0.0
 10
0.4342489482939742
 20
26.39903800023683
 30
0.0
 10
0.4846131778883207
 20
26.42573755708336
 30
0.0
 10
0.5368957597006454
 20
26.44149507385642
 30
0.0
 10
0.5722928914012942
 20
26.44499664164186
 30
0.0
 10
0.5894537495100849
 20
26.44499664164186
 30
0.0
 11
0.3000013796849998
 21
26.14499664164259
 31
0.0
 11
0.3059999391348356
 21
26.20489466856679
 31
0.0
 11
0.3237022014350259
 21
26.26237633901701
 31
0.0
 11
0.3522651082598713
 21
26.315083142817
 31
0.0
 11
0.3902861203600878
 21
26.36086073586693
 31
0.0
 11
0.4357565575351146
 21
26.3977732844919
 31
0.0
 11
0.4860555045602269
 21
26.42436691364173
 31
0.0
 11
0.5382143252850256
 21
26.43999895574188
 31
0.0
 11
0.5894537495100849
 21
26.44499664164186
 31
0.0
  0
LINE
  5
1A209
330
1A1B9
100
AcDbEntity
  8
0
100
AcDbLine
 10
0.3000013796849998
 20
27.78499664164201
 30
0.0
 11
1.030001379684563
 21
27.78499664164201
 31
0.0
  0
LINE
  5
1A20A
330
1A1B9
100
AcDbEntity
  8
0
100
AcDbLine
 10
0.3000013796849998
 20
26.79499664164223
 30
0.0
 11
1.030001379684563
 21
26.79499664164223
 31
0.0
  0
LINE
  5
1A20B
330
1A1B9
100
AcDbEntity
  8
0
100
AcDbLine
 10
2.970001379685072
 20
26.44999664164197
 30
0.0
 11
2.970001379685072
 21
25.47999664164263
 31
0.0
  0
LINE
  5
1A20C
330
1A1B9
100
AcDbEntity
  8
0
100
AcDbLine
 10
2.620001379684708
 20
25.17999664164245
 30
0.0
 11
2.620001379684708
 21
25.47999664164263
 31
0.0
  0
LINE
  5
1A20D
330
1A1B9
100
AcDbEntity
  8
0
100
AcDbLine
 10
2.871429951109803
 20
25.17999664164245
 30
0.0
 11
2.871429951109803
 21
25.47999664164263
 31
0.0
  0
LINE
  5
1A20E
330
1A1B9
100
AcDbEntity
  8
0
100
AcDbLine
 10
3.018413527159736
 20
25.17999664164245
 30
0.0
 11
3.018413527159736
 21
25.47999664164263
 31
0.0
  0
LINE
  5
1A20F
330
1A1B9
100
AcDbEntity
  8
0
100
AcDbLine
 10
2.620050096610157
 20
25.47999664164263
 30
0.0
 11
3.018413527159736
 21
25.47999664164263
 31
0.0
  0
LINE
  5
1A210
330
1A1B9
100
AcDbEntity
  8
0
100
AcDbLine
 10
2.620050096610157
 20
25.17999664164245
 30
0.0
 11
3.018413527159736
 21
25.17999664164245
 31
0.0
  0
LINE
  5
1A211
330
1A1B9
100
AcDbEntity
  8
0
100
AcDbLine
 10
2.970001379685072
 20
27.29999664164234
 30
0.0
 11
2.970001379685072
 21
26.74999664164215
 31
0.0
  0
LINE
  5
1A212
330
1A1B9
100
AcDbEntity
  8
0
100
AcDbLine
 10
2.620001379684708
 20
26.44999664164197
 30
0.0
 11
2.620001379684708
 21
26.74999664164215
 31
0.0
  0
LINE
  5
1A213
330
1A1B9
100
AcDbEntity
  8
0
100
AcDbLine
 10
2.620050096610157
 20
26.74999664164215
 30
0.0
 11
3.018413527159736
 21
26.74999664164215
 31
0.0
  0
LINE
  5
1A214
330
1A1B9
100
AcDbEntity
  8
0
100
AcDbLine
 10
2.871429951109803
 20
26.44999664164197
 30
0.0
 11
2.871429951109803
 21
26.74999664164215
 31
0.0
  0
LINE
  5
1A215
330
1A1B9
100
AcDbEntity
  8
0
100
AcDbLine
 10
3.018413527159736
 20
26.44999664164197
 30
0.0
 11
3.018413527159736
 21
26.74999664164215
 31
0.0
  0
LINE
  5
1A216
330
1A1B9
100
AcDbEntity
  8
0
100
AcDbLine
 10
2.620050096610157
 20
26.44999664164197
 30
0.0
 11
3.018413527159736
 21
26.44999664164197
 31
0.0
  0
LINE
  5
1A217
330
1A1B9
100
AcDbEntity
  8
0
100
AcDbLine
 10
3.070001379684526
 20
27.09999664164252
 30
0.0
 11
2.970001379685072
 21
27.29999664164234
 31
0.0
  0
LINE
  5
1A218
330
1A1B9
100
AcDbEntity
  8
0
100
AcDbLine
 10
0.680001379685109
 20
26.79499664164223
 30
0.0
 11
0.680001379685109
 21
26.44499664164186
 31
0.0
  0
LINE
  5
1A219
330
1A1B9
100
AcDbEntity
  8
0
100
AcDbLine
 10
0.6335375942094288
 20
26.44499664164186
 30
0.0
 11
1.229926632410297
 21
26.44499664164186
 31
0.0
  0
ARC
  5
1A21A
330
1A1B9
100
AcDbEntity
  8
0
100
AcDbCircle
 10
0.3000013796849998
 20
27.09499664164241
 30
0.0
 40
0.3
100
AcDbArc
 50
180.0
 51
270.0
  0
LINE
  5
1A21B
330
1A1B9
100
AcDbEntity
  8
0
100
AcDbLine
 10
0.3000013796849998
 20
26.14499664164259
 30
0.0
 11
0.3409535863352175
 21
26.14499664164259
 31
0.0
  0
LINE
  5
1A21C
330
1A1B9
100
AcDbEntity
  8
0
100
AcDbLine
 10
0.0000013796848179
 20
27.09499664164241
 30
0.0
 11
0.0000013796848179
 21
27.48499664164183
 31
0.0
  0
LINE
  5
1A21D
330
1A1B9
100
AcDbEntity
  8
0
100
AcDbLine
 10
0.3347750834095677
 20
26.79499664164223
 30
0.0
 11
0.3347750834095677
 21
27.78499664164201
 31
0.0
  0
LINE
  5
1A21E
330
1A1B9
100
AcDbEntity
  8
0
100
AcDbLine
 10
1.680001379685108
 20
28.34999664164252
 30
0.0
 11
2.749705350459862
 21
28.34999664164252
 31
0.0
  0
LINE
  5
1A21F
330
1A1B9
100
AcDbEntity
  8
0
100
AcDbLine
 10
1.48000137968529
 20
28.04999664164233
 30
0.0
 11
3.167929175110202
 21
28.04999664164233
 31
0.0
  0
ELLIPSE
  5
1A220
330
1A1B9
100
AcDbEntity
  8
0
100
AcDbEllipse
 10
2.452921693959524
 20
28.38272571269181
 30
0.0
 11
-0.25
 21
0.0000000000000001
 31
0.0
210
0.0
220
0.0
230
1.0
 40
0.0690837158
 41
-3.045580582599999
 42
-1.570805125099999
  0
LINE
  5
1A221
330
1A1B9
100
AcDbEntity
  8
0
100
AcDbLine
 10
3.198183624834655
 20
28.0300507838424
 30
0.0
 11
3.193487642459786
 21
28.03166306104185
 31
0.0
  0
LINE
  5
1A222
330
1A1B9
100
AcDbEntity
  8
0
100
AcDbLine
 10
2.600001379685181
 20
28.34999664164252
 30
0.0
 11
2.600001379685181
 21
28.39657378294259
 31
0.0
  0
LINE
  5
1A223
330
1A1B9
100
AcDbEntity
  8
0
100
AcDbLine
 10
3.193487642459786
 20
28.03166306104185
 30
0.0
 11
2.701770289134856
 21
28.38438138384253
 31
0.0
  0
ARC
  5
1A224
330
1A1B9
100
AcDbEntity
  8
0
100
AcDbCircle
 10
1.130001379684927
 20
28.29999664164233
 30
0.0
 40
0.45
100
AcDbArc
 50
90.0
 51
180.0
  0
LINE
  5
1A225
330
1A1B9
100
AcDbEntity
  8
0
100
AcDbLine
 10
1.530001379684563
 20
28.39999664164179
 30
0.0
 11
1.530001379684563
 21
29.12999664164226
 31
0.0
  0
ARC
  5
1A226
330
1A1B9
100
AcDbEntity
  8
0
100
AcDbCircle
 10
1.130001379684927
 20
28.29999664164233
 30
0.0
 40
0.1
100
AcDbArc
 50
90.0
 51
180.0
  0
ARC
  5
1A227
330
1A1B9
100
AcDbEntity
  8
0
100
AcDbCircle
 10
1.680001379685108
 20
27.84999664164252
 30
0.0
 40
0.5
100
AcDbArc
 50
90.0
 51
180.0
  0
LINE
  5
1A228
330
1A1B9
100
AcDbEntity
  8
0
100
AcDbLine
 10
1.530001379684563
 20
28.74999664164215
 30
0.0
 11
1.130001379684927
 21
28.74999664164215
 31
0.0
  0
LINE
  5
1A229
330
1A1B9
100
AcDbEntity
  8
0
100
AcDbLine
 10
1.48000137968529
 20
28.04999664164233
 30
0.0
 11
1.326447989084499
 21
28.20355003224221
 31
0.0
  0
ARC
  5
1A22A
330
1A1B9
100
AcDbEntity
  8
0
100
AcDbCircle
 10
1.830001379684745
 20
29.12999664164226
 30
0.0
 40
0.3
100
AcDbArc
 50
90.0
 51
180.0
  0
LINE
  5
1A22B
330
1A1B9
100
AcDbEntity
  8
0
100
AcDbLine
 10
4.341589232209571
 20
23.90999664164201
 30
0.0
 11
4.341589232209571
 21
24.20999664164219
 31
0.0
  0
LINE
  5
1A22C
330
1A1B9
100
AcDbEntity
  8
0
100
AcDbLine
 10
4.488572808259505
 20
23.90999664164201
 30
0.0
 11
4.488572808259505
 21
24.20999664164219
 31
0.0
  0
LINE
  5
1A22D
330
1A1B9
100
AcDbEntity
  8
0
100
AcDbLine
 10
4.740001379684599
 20
23.90999664164201
 30
0.0
 11
4.740001379684599
 21
24.20999664164219
 31
0.0
  0
LINE
  5
1A22E
330
1A1B9
100
AcDbEntity
  8
0
100
AcDbLine
 10
4.341589232209571
 20
24.20999664164219
 30
0.0
 11
4.73995266276006
 21
24.20999664164219
 31
0.0
  0
LINE
  5
1A22F
330
1A1B9
100
AcDbEntity
  8
0
100
AcDbLine
 10
4.341589232209571
 20
23.90999664164201
 30
0.0
 11
4.73995266276006
 21
23.90999664164201
 31
0.0
  0
LINE
  5
1A230
330
1A1B9
100
AcDbEntity
  8
0
100
AcDbLine
 10
2.620001379684708
 20
23.90999664164201
 30
0.0
 11
2.620001379684708
 21
24.20999664164219
 31
0.0
  0
LINE
  5
1A231
330
1A1B9
100
AcDbEntity
  8
0
100
AcDbLine
 10
2.871429951109803
 20
23.90999664164201
 30
0.0
 11
2.871429951109803
 21
24.20999664164219
 31
0.0
  0
LINE
  5
1A232
330
1A1B9
100
AcDbEntity
  8
0
100
AcDbLine
 10
3.018413527159736
 20
23.90999664164201
 30
0.0
 11
3.018413527159736
 21
24.20999664164219
 31
0.0
  0
LINE
  5
1A233
330
1A1B9
100
AcDbEntity
  8
0
100
AcDbLine
 10
2.620050096610157
 20
24.20999664164219
 30
0.0
 11
3.018413527159736
 21
24.20999664164219
 31
0.0
  0
LINE
  5
1A234
330
1A1B9
100
AcDbEntity
  8
0
100
AcDbLine
 10
2.620050096610157
 20
23.90999664164201
 30
0.0
 11
3.018413527159736
 21
23.90999664164201
 31
0.0
  0
LINE
  5
1A235
330
1A1B9
100
AcDbEntity
  8
0
100
AcDbLine
 10
4.390001379685145
 20
25.17999664164245
 30
0.0
 11
4.390001379685145
 21
24.20999664164219
 31
0.0
  0
LINE
  5
1A236
330
1A1B9
100
AcDbEntity
  8
0
100
AcDbLine
 10
2.970001379685072
 20
25.17999664164245
 30
0.0
 11
2.970001379685072
 21
24.20999664164219
 31
0.0
  0
LINE
  5
1A237
330
1A1B9
100
AcDbEntity
  8
0
100
AcDbLine
 10
5.23000137968529
 20
28.34499664164241
 30
0.0
 11
6.23000137968529
 21
27.34499664164241
 31
0.0
  0
LINE
  5
1A238
330
1A1B9
100
AcDbEntity
  8
0
100
AcDbLine
 10
6.680001379685108
 20
26.99499664164204
 30
0.0
 11
6.680001379685108
 21
28.29999664164233
 31
0.0
  0
LINE
  5
1A239
330
1A1B9
100
AcDbEntity
  8
0
100
AcDbLine
 10
7.250001379684817
 20
27.64999664164179
 30
0.0
 11
7.250001379684817
 21
28.34999664164252
 31
0.0
  0
LINE
  5
1A23A
330
1A1B9
100
AcDbEntity
  8
0
100
AcDbLine
 10
6.23000137968529
 20
27.34499664164241
 30
0.0
 11
6.680001379685108
 21
27.34499664164241
 31
0.0
  0
ARC
  5
1A23B
330
1A1B9
100
AcDbEntity
  8
0
100
AcDbCircle
 10
7.060001379685218
 20
26.69499664164277
 30
0.0
 40
0.3
100
AcDbArc
 50
0.0
 51
90.0
  0
LINE
  5
1A23C
330
1A1B9
100
AcDbEntity
  8
0
100
AcDbLine
 10
6.330001379684745
 20
26.99499664164204
 30
0.0
 11
7.060001379685218
 21
26.99499664164204
 31
0.0
  0
LINE
  5
1A23D
330
1A1B9
100
AcDbEntity
  8
0
100
AcDbLine
 10
6.780001379684563
 20
26.99499664164204
 30
0.0
 11
6.780001379684563
 21
27.64999664164179
 31
0.0
  0
LINE
  5
1A23E
330
1A1B9
100
AcDbEntity
  8
0
100
AcDbLine
 10
7.080001379684745
 20
26.99499664164204
 30
0.0
 11
7.080001379684745
 21
27.64999664164179
 31
0.0
  0
ARC
  5
1A23F
330
1A1B9
100
AcDbEntity
  8
0
100
AcDbCircle
 10
6.230001379684381
 20
28.29999664164233
 30
0.0
 40
0.1
100
AcDbArc
 50
0.0
 51
90.0
  0
ARC
  5
1A240
330
1A1B9
100
AcDbEntity
  8
0
100
AcDbCircle
 10
5.930001379685108
 20
28.75999664164237
 30
0.0
 40
0.3
100
AcDbArc
 50
0.0
 51
90.0
  0
ARC
  5
1A241
330
1A1B9
100
AcDbEntity
  8
0
100
AcDbCircle
 10
6.230001379684381
 20
28.29999664164233
 30
0.0
 40
0.45
100
AcDbArc
 50
0.0
 51
90.0
  0
LINE
  5
1A242
330
1A1B9
100
AcDbEntity
  8
0
100
AcDbLine
 10
7.330001379684745
 20
28.74999664164215
 30
0.0
 11
6.23000137968529
 21
28.74999664164215
 31
0.0
  0
LINE
  5
1A243
330
1A1B9
100
AcDbEntity
  8
0
100
AcDbLine
 10
6.23000137968529
 20
28.34999664164252
 30
0.0
 11
6.3145504905101
 21
28.34999664164252
 31
0.0
  0
LINE
  5
1A244
330
1A1B9
100
AcDbEntity
  8
0
100
AcDbLine
 10
6.680001379685108
 20
28.29999664164233
 30
0.0
 11
6.23000137968529
 21
28.29999664164233
 31
0.0
  0
LINE
  5
1A245
330
1A1B9
100
AcDbEntity
  8
0
100
AcDbLine
 10
7.380001379684927
 20
28.79999664164234
 30
0.0
 11
7.380001379684927
 21
29.59999664164252
 31
0.0
  0
ARC
  5
1A246
330
1A1B9
100
AcDbEntity
  8
0
100
AcDbCircle
 10
7.330001379684745
 20
28.79999664164234
 30
0.0
 40
0.05
100
AcDbArc
 50
270.0
 51
0.0
  0
LINE
  5
1A247
330
1A1B9
100
AcDbEntity
  8
0
100
AcDbLine
 10
6.666836129934836
 20
28.39999664164179
 30
0.0
 11
7.430001379685108
 21
28.39999664164179
 31
0.0
  0
LINE
  5
1A248
330
1A1B9
100
AcDbEntity
  8
0
100
AcDbLine
 10
6.673418754809517
 20
28.34999664164252
 30
0.0
 11
7.250001379684817
 21
28.34999664164252
 31
0.0
  0
LINE
  5
1A249
330
1A1B9
100
AcDbEntity
  8
0
100
AcDbLine
 10
6.680001379685108
 20
28.04999664164233
 30
0.0
 11
7.250001379684817
 21
28.04999664164233
 31
0.0
  0
LINE
  5
1A24A
330
1A1B9
100
AcDbEntity
  8
0
100
AcDbLine
 10
7.430001379685108
 20
28.41316189139206
 30
0.0
 11
7.430001379685108
 21
28.39999664164179
 31
0.0
  0
ARC
  5
1A24B
330
1A1B9
100
AcDbEntity
  8
0
100
AcDbCircle
 10
5.530001379684563
 20
28.75999664164237
 30
0.0
 40
0.3
100
AcDbArc
 50
90.0
 51
180.0
  0
LINE
  5
1A24C
330
1A1B9
100
AcDbEntity
  8
0
100
AcDbLine
 10
5.030001379684563
 20
28.39999664164179
 30
0.0
 11
5.030001379684563
 21
29.12999664164226
 31
0.0
  0
LINE
  5
1A24D
330
1A1B9
100
AcDbEntity
  8
0
100
AcDbLine
 10
5.23000137968529
 20
28.74999664164215
 30
0.0
 11
5.030001379684563
 21
28.74999664164215
 31
0.0
  0
LINE
  5
1A24E
330
1A1B9
100
AcDbEntity
  8
0
100
AcDbLine
 10
5.23000137968529
 20
28.75999664164237
 30
0.0
 11
5.23000137968529
 21
28.34499664164241
 31
0.0
  0
LINE
  5
1A24F
330
1A1B9
100
AcDbEntity
  8
0
100
AcDbLine
 10
6.23000137968529
 20
28.29999664164233
 30
0.0
 11
6.23000137968529
 21
28.75999664164237
 31
0.0
  0
LINE
  5
1A250
330
1A1B9
100
AcDbEntity
  8
0
100
AcDbLine
 10
5.930001379685108
 20
29.05999664164255
 30
0.0
 11
5.530001379684563
 21
29.05999664164255
 31
0.0
  0
LINE
  5
1A251
330
1A1B9
100
AcDbEntity
  8
0
100
AcDbLine
 10
5.030001379684563
 20
29.09522293791678
 30
0.0
 11
1.530001379684563
 21
29.09522293791678
 31
0.0
  0
LINE
  5
1A252
330
1A1B9
100
AcDbEntity
  8
0
100
AcDbLine
 10
5.23000137968529
 20
28.39999664164179
 30
0.0
 11
1.130001379684927
 21
28.39999664164179
 31
0.0
  0
ARC
  5
1A253
330
1A1B9
100
AcDbEntity
  8
0
100
AcDbCircle
 10
4.730001379684381
 20
29.12999664164226
 30
0.0
 40
0.3
100
AcDbArc
 50
0.0
 51
90.0
  0
LINE
  5
1A254
330
1A1B9
100
AcDbEntity
  8
0
100
AcDbLine
 10
4.610297408909445
 20
28.34999664164252
 30
0.0
 11
5.23000137968529
 21
28.34999664164252
 31
0.0
  0
LINE
  5
1A255
330
1A1B9
100
AcDbEntity
  8
0
100
AcDbLine
 10
4.192073584260015
 20
28.04999664164233
 30
0.0
 11
5.525001379684454
 21
28.04999664164233
 31
0.0
  0
LINE
  5
1A256
330
1A1B9
100
AcDbEntity
  8
0
100
AcDbLine
 10
4.73000137968529
 20
9.639996641642483
 30
0.0
 11
1.830001379684745
 21
9.639996641642483
 31
0.0
  0
LINE
  5
1A257
330
1A1B9
100
AcDbEntity
  8
0
100
AcDbLine
 10
1.680001379685108
 20
8.559996641642555
 30
0.0
 11
2.749705350459862
 21
8.559996641642555
 31
0.0
  0
ELLIPSE
  5
1A258
330
1A1B9
100
AcDbEntity
  8
0
100
AcDbEllipse
 10
2.452921693959524
 20
8.592725712692754
 30
0.0
 11
-0.25
 21
0.0000000000000001
 31
0.0
210
0.0
220
0.0
230
1.0
 40
0.0690837158
 41
-3.045580582599999
 42
-1.570805125099999
  0
LINE
  5
1A259
330
1A1B9
100
AcDbEntity
  8
0
100
AcDbLine
 10
2.600001379685181
 20
8.559996641642555
 30
0.0
 11
2.600001379685181
 21
8.606573782942632
 31
0.0
  0
ARC
  5
1A25A
330
1A1B9
100
AcDbEntity
  8
0
100
AcDbCircle
 10
1.130001379684927
 20
8.509996641642374
 30
0.0
 40
0.45
100
AcDbArc
 50
90.0
 51
180.0
  0
LINE
  5
1A25B
330
1A1B9
100
AcDbEntity
  8
0
100
AcDbLine
 10
1.530001379684563
 20
8.609996641642737
 30
0.0
 11
1.530001379684563
 21
9.339996641642301
 31
0.0
  0
ARC
  5
1A25C
330
1A1B9
100
AcDbEntity
  8
0
100
AcDbCircle
 10
1.130001379684927
 20
8.509996641642374
 30
0.0
 40
0.1
100
AcDbArc
 50
90.0
 51
180.0
  0
LINE
  5
1A25D
330
1A1B9
100
AcDbEntity
  8
0
100
AcDbLine
 10
1.530001379684563
 20
8.959996641642192
 30
0.0
 11
1.130001379684927
 21
8.959996641642192
 31
0.0
  0
ARC
  5
1A25E
330
1A1B9
100
AcDbEntity
  8
0
100
AcDbCircle
 10
1.830001379684745
 20
9.339996641642301
 30
0.0
 40
0.3
100
AcDbArc
 50
90.0
 51
180.0
  0
ARC
  5
1A25F
330
1A1B9
100
AcDbEntity
  8
0
100
AcDbCircle
 10
6.230001379684381
 20
8.509996641642374
 30
0.0
 40
0.1
100
AcDbArc
 50
0.0
 51
90.0
  0
ARC
  5
1A260
330
1A1B9
100
AcDbEntity
  8
0
100
AcDbCircle
 10
5.930001379685108
 20
8.96999664164241
 30
0.0
 40
0.3
100
AcDbArc
 50
0.0
 51
90.0
  0
ARC
  5
1A261
330
1A1B9
100
AcDbEntity
  8
0
100
AcDbCircle
 10
6.230001379684381
 20
8.509996641642374
 30
0.0
 40
0.45
100
AcDbArc
 50
0.0
 51
90.0
  0
LINE
  5
1A262
330
1A1B9
100
AcDbEntity
  8
0
100
AcDbLine
 10
7.330001379684745
 20
8.959996641642192
 30
0.0
 11
6.23000137968529
 21
8.959996641642192
 31
0.0
  0
LINE
  5
1A263
330
1A1B9
100
AcDbEntity
  8
0
100
AcDbLine
 10
6.23000137968529
 20
8.559996641642555
 30
0.0
 11
6.3145504905101
 21
8.559996641642555
 31
0.0
  0
LINE
  5
1A264
330
1A1B9
100
AcDbEntity
  8
0
100
AcDbLine
 10
6.680001379685108
 20
8.509996641642374
 30
0.0
 11
6.23000137968529
 21
8.509996641642374
 31
0.0
  0
LINE
  5
1A265
330
1A1B9
100
AcDbEntity
  8
0
100
AcDbLine
 10
7.380001379684927
 20
9.009996641642374
 30
0.0
 11
7.380001379684927
 21
9.809996641642555
 31
0.0
  0
ARC
  5
1A266
330
1A1B9
100
AcDbEntity
  8
0
100
AcDbCircle
 10
7.330001379684745
 20
9.009996641642374
 30
0.0
 40
0.05
100
AcDbArc
 50
270.0
 51
0.0
  0
LINE
  5
1A267
330
1A1B9
100
AcDbEntity
  8
0
100
AcDbLine
 10
6.666836129934836
 20
8.609996641642737
 30
0.0
 11
7.430001379685108
 21
8.609996641642737
 31
0.0
  0
LINE
  5
1A268
330
1A1B9
100
AcDbEntity
  8
0
100
AcDbLine
 10
6.673418754809517
 20
8.559996641642555
 30
0.0
 11
7.250001379684817
 21
8.559996641642555
 31
0.0
  0
LINE
  5
1A269
330
1A1B9
100
AcDbEntity
  8
0
100
AcDbLine
 10
7.430001379685108
 20
8.623161891392101
 30
0.0
 11
7.430001379685108
 21
8.609996641642737
 31
0.0
  0
ARC
  5
1A26A
330
1A1B9
100
AcDbEntity
  8
0
100
AcDbCircle
 10
5.530001379684563
 20
8.96999664164241
 30
0.0
 40
0.3
100
AcDbArc
 50
90.0
 51
180.0
  0
LINE
  5
1A26B
330
1A1B9
100
AcDbEntity
  8
0
100
AcDbLine
 10
5.030001379684563
 20
8.609996641642737
 30
0.0
 11
5.030001379684563
 21
9.339996641642301
 31
0.0
  0
LINE
  5
1A26C
330
1A1B9
100
AcDbEntity
  8
0
100
AcDbLine
 10
5.23000137968529
 20
8.959996641642192
 30
0.0
 11
5.030001379684563
 21
8.959996641642192
 31
0.0
  0
LINE
  5
1A26D
330
1A1B9
100
AcDbEntity
  8
0
100
AcDbLine
 10
5.23000137968529
 20
8.96999664164241
 30
0.0
 11
5.23000137968529
 21
8.554996641642446
 31
0.0
  0
LINE
  5
1A26E
330
1A1B9
100
AcDbEntity
  8
0
100
AcDbLine
 10
6.23000137968529
 20
8.509996641642374
 30
0.0
 11
6.23000137968529
 21
8.96999664164241
 31
0.0
  0
LINE
  5
1A26F
330
1A1B9
100
AcDbEntity
  8
0
100
AcDbLine
 10
5.930001379685108
 20
9.269996641642592
 30
0.0
 11
5.530001379684563
 21
9.269996641642592
 31
0.0
  0
LINE
  5
1A270
330
1A1B9
100
AcDbEntity
  8
0
100
AcDbLine
 10
5.030001379684563
 20
9.305222937917733
 30
0.0
 11
1.530001379684563
 21
9.305222937917733
 31
0.0
  0
LINE
  5
1A271
330
1A1B9
100
AcDbEntity
  8
0
100
AcDbLine
 10
5.23000137968529
 20
8.609996641642737
 30
0.0
 11
1.130001379684927
 21
8.609996641642737
 31
0.0
  0
ARC
  5
1A272
330
1A1B9
100
AcDbEntity
  8
0
100
AcDbCircle
 10
4.730001379684381
 20
9.339996641642301
 30
0.0
 40
0.3
100
AcDbArc
 50
0.0
 51
90.0
  0
LINE
  5
1A273
330
1A1B9
100
AcDbEntity
  8
0
100
AcDbLine
 10
4.610297408909445
 20
8.559996641642555
 30
0.0
 11
5.23000137968529
 21
8.559996641642555
 31
0.0
  0
LINE
  5
1A274
330
1A1B9
100
AcDbEntity
  8
0
100
AcDbLine
 10
4.290001379684781
 20
22.28999664164212
 30
0.0
 11
3.070001379684526
 21
22.28999664164212
 31
0.0
  0
LINE
  5
1A275
330
1A1B9
100
AcDbEntity
  8
0
100
AcDbLine
 10
4.390001379685145
 20
22.0899966416423
 30
0.0
 11
2.970001379685072
 21
22.0899966416423
 31
0.0
  0
LINE
  5
1A276
330
1A1B9
100
AcDbEntity
  8
0
100
AcDbLine
 10
4.161873148035283
 20
21.35999664164182
 30
0.0
 11
3.198129611334934
 21
21.35999664164182
 31
0.0
  0
LINE
  5
1A277
330
1A1B9
100
AcDbEntity
  8
0
100
AcDbLine
 10
4.166515116909522
 20
21.35833022224187
 30
0.0
 11
3.193487642459786
 21
21.35833022224187
 31
0.0
  0
LINE
  5
1A278
330
1A1B9
100
AcDbEntity
  8
0
100
AcDbLine
 10
4.73000137968529
 20
19.95999664164219
 30
0.0
 11
1.830001379684745
 21
19.95999664164219
 31
0.0
  0
LINE
  5
1A279
330
1A1B9
100
AcDbEntity
  8
0
100
AcDbLine
 10
4.658232470234452
 20
21.0056118994421
 30
0.0
 11
4.166515116909522
 21
21.35833022224187
 31
0.0
  0
LINE
  5
1A27A
330
1A1B9
100
AcDbEntity
  8
0
100
AcDbLine
 10
4.166515116909522
 20
21.35833022224187
 30
0.0
 11
4.161819134534653
 21
21.35994249944224
 31
0.0
  0
LINE
  5
1A27B
330
1A1B9
100
AcDbEntity
  8
0
100
AcDbLine
 10
4.341589232209571
 20
22.63999664164248
 30
0.0
 11
4.341589232209571
 21
22.93999664164175
 31
0.0
  0
LINE
  5
1A27C
330
1A1B9
100
AcDbEntity
  8
0
100
AcDbLine
 10
4.488572808259505
 20
22.63999664164248
 30
0.0
 11
4.488572808259505
 21
22.93999664164175
 31
0.0
  0
LINE
  5
1A27D
330
1A1B9
100
AcDbEntity
  8
0
100
AcDbLine
 10
4.740001379684599
 20
22.63999664164248
 30
0.0
 11
4.740001379684599
 21
22.93999664164175
 31
0.0
  0
LINE
  5
1A27E
330
1A1B9
100
AcDbEntity
  8
0
100
AcDbLine
 10
4.390001379685145
 20
22.63999664164248
 30
0.0
 11
4.390001379685145
 21
22.0899966416423
 31
0.0
  0
LINE
  5
1A27F
330
1A1B9
100
AcDbEntity
  8
0
100
AcDbLine
 10
4.290001379684781
 20
22.28999664164212
 30
0.0
 11
4.390001379685145
 21
22.0899966416423
 31
0.0
  0
LINE
  5
1A280
330
1A1B9
100
AcDbEntity
  8
0
100
AcDbLine
 10
4.341589232209571
 20
22.63999664164248
 30
0.0
 11
4.73995266276006
 21
22.63999664164248
 31
0.0
  0
LINE
  5
1A281
330
1A1B9
100
AcDbEntity
  8
0
100
AcDbLine
 10
4.341589232209571
 20
22.93999664164175
 30
0.0
 11
4.73995266276006
 21
22.93999664164175
 31
0.0
  0
SPLINE
  5
1A282
330
1A1B9
100
AcDbEntity
  8
0
100
AcDbSpline
210
0.0
220
0.0
230
1.0
 70
     8
 71
     3
 72
    15
 73
    11
 74
     9
 42
0.0000000001
 43
0.0000000001
 44
0.0000000001
 12
-0.0000000000000003
 22
-1.0
 32
0.0
 13
1.0
 23
-0.0000000000000003
 33
0.0
 40
0.0
 40
0.0
 40
0.0
 40
0.0
 40
0.0593261002241222
 40
0.1186608019706727
 40
0.1778432634380336
 40
0.2367706770744251
 40
0.2951865537277448
 40
0.3527380240450639
 40
0.4091219901447263
 40
0.4640323935831649
 40
0.4640323935831649
 40
0.4640323935831649
 40
0.4640323935831649
 10
0.3409535863352175
 20
23.24499664164204
 30
0.0
 10
0.3409535863352175
 20
23.22522127490067
 30
0.0
 10
0.3448735061396992
 20
23.18555934443646
 30
0.0
 10
0.3622024247635202
 20
23.1284870804603
 30
0.0
 10
0.3902612208782966
 20
23.07598403662055
 30
0.0
 10
0.4277546370656406
 20
23.03015108946923
 30
0.0
 10
0.4730043104710485
 20
22.99280681540177
 30
0.0
 10
0.5239010772920403
 20
22.96536302868703
 30
0.0
 10
0.5780376369882016
 20
22.94874004551907
 30
0.0
 10
0.6152341263975254
 20
22.94499664164186
 30
0.0
 10
0.6335375942103383
 20
22.94499664164186
 30
0.0
 11
0.3409535863352175
 21
23.24499664164204
 31
0.0
 11
0.3467835206852214
 21
23.18595768811746
 31
0.0
 11
0.3640200186596303
 21
23.1291817251672
 31
0.0
 11
0.391910911035211
 21
23.07698343144193
 31
0.0
 11
0.429234255935171
 21
23.03138290509241
 31
0.0
 11
0.474304435985232
 21
22.99421983854199
 31
0.0
 11
0.5249818861097993
 21
22.96694406569213
 31
0.0
 11
0.5788983036850368
 21
22.95044644316703
 31
0.0
 11
0.6335375942103383
 21
22.94499664164186
 31
0.0
  0
SPLINE
  5
1A283
330
1A1B9
100
AcDbEntity
  8
0
100
AcDbSpline
210
0.0
220
0.0
230
1.0
 70
     8
 71
     3
 72
    15
 73
    11
 74
     9
 42
0.0000000001
 43
0.0000000001
 44
0.0000000001
 12
-1.0
 22
0.0000000000000003
 32
0.0
 13
0.0000000000000003
 23
1.0
 33
0.0
 40
0.0
 40
0.0
 40
0.0
 40
0.0
 40
0.0514825650951296
 40
0.1059334599722235
 40
0.1628298698746586
 40
0.2213968778993326
 40
0.2809047422607355
 40
0.3408534599842663
 40
0.4009992673993743
 40
0.4611969358587337
 40
0.4611969358587337
 40
0.4611969358587337
 40
0.4611969358587337
 10
0.5894537495100849
 20
22.94499664164186
 30
0.0
 10
0.5722928944783751
 20
22.94499664164186
 30
0.0
 10
0.5368957761326183
 20
22.94849820712837
 30
0.0
 10
0.4846132170050974
 20
22.96425571355062
 30
0.0
 10
0.4342490084239299
 20
22.99095524794079
 30
0.0
 10
0.3887042555712235
 20
23.02798052493331
 30
0.0
 10
0.3505584986080525
 20
23.07393112417022
 30
0.0
 10
0.321842138711332
 20
23.12690969965113
 30
0.0
 10
0.3040322468040371
 20
23.18470259639784
 30
0.0
 10
0.3000013796849998
 20
23.22493075215559
 30
0.0
 10
0.3000013796849998
 20
23.24499664164204
 30
0.0
 11
0.5894537495100849
 21
22.94499664164186
 31
0.0
 11
0.5382143343845201
 21
22.94999432574195
 31
0.0
 11
0.4860555422096695
 21
22.9656263554175
 31
0.0
 11
0.4357566193098137
 21
22.99221996019196
 31
0.0
 11
0.3902861881101671
 21
23.02913248266713
 31
0.0
 11
0.3522651602847873
 21
23.07491006849204
 31
0.0
 11
0.323702229310129
 21
23.12761687764259
 31
0.0
 11
0.3059999475349286
 21
23.18509859099185
 31
0.0
 11
0.3000013796849998
 21
23.24499664164204
 31
0.0
  0
LINE
  5
1A284
330
1A1B9
100
AcDbEntity
  8
0
100
AcDbLine
 10
0.3000013796849998
 20
22.59499664164241
 30
0.0
 11
1.030001379684563
 21
22.59499664164241
 31
0.0
  0
LINE
  5
1A285
330
1A1B9
100
AcDbEntity
  8
0
100
AcDbLine
 10
0.3000013796849998
 20
21.60499664164262
 30
0.0
 11
1.030001379684563
 21
21.60499664164262
 31
0.0
  0
LINE
  5
1A286
330
1A1B9
100
AcDbEntity
  8
0
100
AcDbLine
 10
1.030001379684563
 20
21.0899966416423
 30
0.0
 11
1.030001379684563
 21
22.94499664164186
 31
0.0
  0
LINE
  5
1A287
330
1A1B9
100
AcDbEntity
  8
0
100
AcDbLine
 10
1.180001379685108
 20
22.94499664164186
 30
0.0
 11
1.180001379685108
 21
21.53999664164211
 31
0.0
  0
LINE
  5
1A288
330
1A1B9
100
AcDbEntity
  8
0
100
AcDbLine
 10
3.167929175110202
 20
21.3399966416423
 30
0.0
 11
1.48000137968529
 21
21.3399966416423
 31
0.0
  0
LINE
  5
1A289
330
1A1B9
100
AcDbEntity
  8
0
100
AcDbLine
 10
2.749705350459862
 20
21.03999664164212
 30
0.0
 11
1.680001379685108
 21
21.03999664164212
 31
0.0
  0
LINE
  5
1A28A
330
1A1B9
100
AcDbEntity
  8
0
100
AcDbLine
 10
2.600001379685181
 20
20.98999664164193
 30
0.0
 11
2.600001379685181
 21
21.03999664164212
 31
0.0
  0
LINE
  5
1A28B
330
1A1B9
100
AcDbEntity
  8
0
100
AcDbLine
 10
2.680001379685108
 20
20.98999664164193
 30
0.0
 11
3.193487642459786
 21
21.35833022224187
 31
0.0
  0
LINE
  5
1A28C
330
1A1B9
100
AcDbEntity
  8
0
100
AcDbLine
 10
3.193487642459786
 20
21.35833022224187
 30
0.0
 11
3.198183624834655
 21
21.35994249944224
 31
0.0
  0
ARC
  5
1A28D
330
1A1B9
100
AcDbEntity
  8
0
100
AcDbCircle
 10
1.130001379684927
 20
21.0899966416423
 30
0.0
 40
0.45
100
AcDbArc
 50
180.0
 51
270.0
  0
LINE
  5
1A28E
330
1A1B9
100
AcDbEntity
  8
0
100
AcDbLine
 10
1.530001379684563
 20
20.25999664164237
 30
0.0
 11
1.530001379684563
 21
20.98999664164193
 31
0.0
  0
ARC
  5
1A28F
330
1A1B9
100
AcDbEntity
  8
0
100
AcDbCircle
 10
1.830001379684745
 20
20.25999664164237
 30
0.0
 40
0.3
100
AcDbArc
 50
180.0
 51
270.0
  0
ARC
  5
1A290
330
1A1B9
100
AcDbEntity
  8
0
100
AcDbCircle
 10
1.130001379684927
 20
21.0899966416423
 30
0.0
 40
0.1
100
AcDbArc
 50
180.0
 51
270.0
  0
ARC
  5
1A291
330
1A1B9
100
AcDbEntity
  8
0
100
AcDbCircle
 10
1.680001379685108
 20
21.53999664164211
 30
0.0
 40
0.5
100
AcDbArc
 50
180.0
 51
270.0
  0
LINE
  5
1A292
330
1A1B9
100
AcDbEntity
  8
0
100
AcDbLine
 10
0.680001379685109
 20
21.60499664164262
 30
0.0
 11
0.680001379685109
 21
21.0899966416423
 31
0.0
  0
LINE
  5
1A293
330
1A1B9
100
AcDbEntity
  8
0
100
AcDbLine
 10
1.48000137968529
 20
21.3399966416423
 30
0.0
 11
1.326447989084499
 21
21.18644325104241
 31
0.0
  0
LINE
  5
1A294
330
1A1B9
100
AcDbEntity
  8
0
100
AcDbLine
 10
1.130001379684927
 20
20.63999664164248
 30
0.0
 11
1.530001379684563
 21
20.63999664164248
 31
0.0
  0
LINE
  5
1A295
330
1A1B9
100
AcDbEntity
  8
0
100
AcDbLine
 10
2.620001379684708
 20
22.63999664164248
 30
0.0
 11
2.620001379684708
 21
22.93999664164175
 31
0.0
  0
LINE
  5
1A296
330
1A1B9
100
AcDbEntity
  8
0
100
AcDbLine
 10
2.871429951109803
 20
22.63999664164248
 30
0.0
 11
2.871429951109803
 21
22.93999664164175
 31
0.0
  0
LINE
  5
1A297
330
1A1B9
100
AcDbEntity
  8
0
100
AcDbLine
 10
3.018413527159736
 20
22.63999664164248
 30
0.0
 11
3.018413527159736
 21
22.93999664164175
 31
0.0
  0
LINE
  5
1A298
330
1A1B9
100
AcDbEntity
  8
0
100
AcDbLine
 10
2.970001379685072
 20
22.63999664164248
 30
0.0
 11
2.970001379685072
 21
22.0899966416423
 31
0.0
  0
LINE
  5
1A299
330
1A1B9
100
AcDbEntity
  8
0
100
AcDbLine
 10
3.070001379684526
 20
22.28999664164212
 30
0.0
 11
2.970001379685072
 21
22.0899966416423
 31
0.0
  0
LINE
  5
1A29A
330
1A1B9
100
AcDbEntity
  8
0
100
AcDbLine
 10
2.620050096610157
 20
22.63999664164248
 30
0.0
 11
3.018413527159736
 21
22.63999664164248
 31
0.0
  0
LINE
  5
1A29B
330
1A1B9
100
AcDbEntity
  8
0
100
AcDbLine
 10
2.620050096610157
 20
22.93999664164175
 30
0.0
 11
3.018413527159736
 21
22.93999664164175
 31
0.0
  0
LINE
  5
1A29C
330
1A1B9
100
AcDbEntity
  8
0
100
AcDbLine
 10
0.680001379685109
 20
22.94499664164186
 30
0.0
 11
0.680001379685109
 21
22.59499664164241
 31
0.0
  0
LINE
  5
1A29D
330
1A1B9
100
AcDbEntity
  8
0
100
AcDbLine
 10
0.6335375942094288
 20
22.94499664164186
 30
0.0
 11
1.229926632410297
 21
22.94499664164186
 31
0.0
  0
ARC
  5
1A29E
330
1A1B9
100
AcDbEntity
  8
0
100
AcDbCircle
 10
0.3000013796849998
 20
21.90499664164281
 30
0.0
 40
0.3
100
AcDbArc
 50
180.0
 51
270.0
  0
LINE
  5
1A29F
330
1A1B9
100
AcDbEntity
  8
0
100
AcDbLine
 10
0.3347750834095677
 20
22.59499664164241
 30
0.0
 11
0.3347750834095677
 21
21.60499664164262
 31
0.0
  0
ARC
  5
1A2A0
330
1A1B9
100
AcDbEntity
  8
0
100
AcDbCircle
 10
0.3000013796849998
 20
22.29499664164222
 30
0.0
 40
0.3
100
AcDbArc
 50
90.0
 51
180.0
  0
LINE
  5
1A2A1
330
1A1B9
100
AcDbEntity
  8
0
100
AcDbLine
 10
0.0000013796848179
 20
22.29499664164222
 30
0.0
 11
0.0000013796848179
 21
21.9049966416419
 31
0.0
  0
LINE
  5
1A2A2
330
1A1B9
100
AcDbEntity
  8
0
100
AcDbLine
 10
0.3409535863352175
 20
23.24499664164204
 30
0.0
 11
0.3000013796849998
 21
23.24499664164204
 31
0.0
  0
ARC
  5
1A2A3
330
1A1B9
100
AcDbEntity
  8
0
100
AcDbCircle
 10
6.230001379684381
 20
21.0899966416423
 30
0.0
 40
0.1
100
AcDbArc
 50
270.0
 51
0.0
  0
ARC
  5
1A2A4
330
1A1B9
100
AcDbEntity
  8
0
100
AcDbCircle
 10
5.930001379685108
 20
20.62999664164226
 30
0.0
 40
0.3
100
AcDbArc
 50
270.0
 51
0.0
  0
ARC
  5
1A2A5
330
1A1B9
100
AcDbEntity
  8
0
100
AcDbCircle
 10
6.230001379684381
 20
21.0899966416423
 30
0.0
 40
0.45
100
AcDbArc
 50
270.0
 51
0.0
  0
LINE
  5
1A2A6
330
1A1B9
100
AcDbEntity
  8
0
100
AcDbLine
 10
6.680001379685108
 20
22.04499664164222
 30
0.0
 11
6.23000137968529
 21
22.04499664164222
 31
0.0
  0
LINE
  5
1A2A7
330
1A1B9
100
AcDbEntity
  8
0
100
AcDbLine
 10
6.23000137968529
 20
21.0899966416423
 30
0.0
 11
6.680001379685108
 21
21.0899966416423
 31
0.0
  0
LINE
  5
1A2A8
330
1A1B9
100
AcDbEntity
  8
0
100
AcDbLine
 10
6.3145504905101
 20
21.03999664164212
 30
0.0
 11
6.23000137968529
 21
21.03999664164212
 31
0.0
  0
LINE
  5
1A2A9
330
1A1B9
100
AcDbEntity
  8
0
100
AcDbLine
 10
6.23000137968529
 20
20.63999664164248
 30
0.0
 11
7.330001379684745
 21
20.63999664164248
 31
0.0
  0
LINE
  5
1A2AA
330
1A1B9
100
AcDbEntity
  8
0
100
AcDbLine
 10
6.680001379685108
 20
21.0899966416423
 30
0.0
 11
6.680001379685108
 21
22.39499664164259
 31
0.0
  0
LINE
  5
1A2AB
330
1A1B9
100
AcDbEntity
  8
0
100
AcDbLine
 10
7.250001379684817
 20
21.03999664164212
 30
0.0
 11
7.250001379684817
 21
21.73999664164193
 31
0.0
  0
ARC
  5
1A2AC
330
1A1B9
100
AcDbEntity
  8
0
100
AcDbCircle
 10
7.330001379684745
 20
20.5899966416423
 30
0.0
 40
0.05
100
AcDbArc
 50
0.0
 51
90.0
  0
LINE
  5
1A2AD
330
1A1B9
100
AcDbEntity
  8
0
100
AcDbLine
 10
7.380001379684927
 20
19.78999664164211
 30
0.0
 11
7.380001379684927
 21
20.5899966416423
 31
0.0
  0
LINE
  5
1A2AE
330
1A1B9
100
AcDbEntity
  8
0
100
AcDbLine
 10
7.430001379685108
 20
20.97683139189257
 30
0.0
 11
7.430001379685108
 21
20.98999664164193
 31
0.0
  0
LINE
  5
1A2AF
330
1A1B9
100
AcDbEntity
  8
0
100
AcDbLine
 10
7.250001379684817
 20
21.3399966416423
 30
0.0
 11
6.680001379685108
 21
21.3399966416423
 31
0.0
  0
LINE
  5
1A2B0
330
1A1B9
100
AcDbEntity
  8
0
100
AcDbLine
 10
7.250001379684817
 20
21.03999664164212
 30
0.0
 11
6.673418754809517
 21
21.03999664164212
 31
0.0
  0
LINE
  5
1A2B1
330
1A1B9
100
AcDbEntity
  8
0
100
AcDbLine
 10
7.430001379685108
 20
20.98999664164193
 30
0.0
 11
6.666836129934836
 21
20.98999664164193
 31
0.0
  0
ARC
  5
1A2B2
330
1A1B9
100
AcDbEntity
  8
0
100
AcDbCircle
 10
7.060001379685218
 20
22.69499664164277
 30
0.0
 40
0.3
100
AcDbArc
 50
270.0
 51
0.0
  0
LINE
  5
1A2B3
330
1A1B9
100
AcDbEntity
  8
0
100
AcDbLine
 10
6.780001379684563
 20
21.73999664164193
 30
0.0
 11
6.780001379684563
 21
22.39499664164259
 31
0.0
  0
LINE
  5
1A2B4
330
1A1B9
100
AcDbEntity
  8
0
100
AcDbLine
 10
7.080001379684745
 20
21.73999664164193
 30
0.0
 11
7.080001379684745
 21
22.39499664164259
 31
0.0
  0
LINE
  5
1A2B5
330
1A1B9
100
AcDbEntity
  8
0
100
AcDbLine
 10
6.330001379684745
 20
22.39499664164259
 30
0.0
 11
7.060001379685218
 21
22.39499664164259
 31
0.0
  0
LINE
  5
1A2B6
330
1A1B9
100
AcDbEntity
  8
0
100
AcDbLine
 10
6.23000137968529
 20
22.04499664164222
 30
0.0
 11
5.23000137968529
 21
21.04499664164222
 31
0.0
  0
LINE
  5
1A2B7
330
1A1B9
100
AcDbEntity
  8
0
100
AcDbLine
 10
5.030001379684563
 20
20.25999664164237
 30
0.0
 11
5.030001379684563
 21
20.98999664164193
 31
0.0
  0
LINE
  5
1A2B8
330
1A1B9
100
AcDbEntity
  8
0
100
AcDbLine
 10
5.23000137968529
 20
21.04499664164222
 30
0.0
 11
5.23000137968529
 21
20.62999664164226
 31
0.0
  0
LINE
  5
1A2B9
330
1A1B9
100
AcDbEntity
  8
0
100
AcDbLine
 10
6.23000137968529
 20
20.62999664164226
 30
0.0
 11
6.23000137968529
 21
21.0899966416423
 31
0.0
  0
ARC
  5
1A2BA
330
1A1B9
100
AcDbEntity
  8
0
100
AcDbCircle
 10
5.530001379684563
 20
20.62999664164226
 30
0.0
 40
0.3
100
AcDbArc
 50
180.0
 51
270.0
  0
LINE
  5
1A2BB
330
1A1B9
100
AcDbEntity
  8
0
100
AcDbLine
 10
5.530001379684563
 20
20.32999664164208
 30
0.0
 11
5.930001379685108
 21
20.32999664164208
 31
0.0
  0
LINE
  5
1A2BC
330
1A1B9
100
AcDbEntity
  8
0
100
AcDbLine
 10
5.030001379684563
 20
20.63999664164248
 30
0.0
 11
5.23000137968529
 21
20.63999664164248
 31
0.0
  0
LINE
  5
1A2BD
330
1A1B9
100
AcDbEntity
  8
0
100
AcDbLine
 10
5.23000137968529
 20
20.98999664164193
 30
0.0
 11
1.130001379684927
 21
20.98999664164193
 31
0.0
  0
LINE
  5
1A2BE
330
1A1B9
100
AcDbEntity
  8
0
100
AcDbLine
 10
5.030001379684563
 20
20.29477034536694
 30
0.0
 11
1.530001379684563
 21
20.29477034536694
 31
0.0
  0
ELLIPSE
  5
1A2BF
330
1A1B9
100
AcDbEntity
  8
0
100
AcDbEllipse
 10
4.907081065409784
 20
21.00726757059192
 30
0.0
 11
-0.25
 21
0.0000000000000001
 31
0.0
210
0.0
220
0.0
230
1.0
 40
0.0690837158
 41
0.096012071
 42
1.570787529499999
  0
ARC
  5
1A2C0
330
1A1B9
100
AcDbEntity
  8
0
100
AcDbCircle
 10
4.730001379684381
 20
20.25999664164237
 30
0.0
 40
0.3
100
AcDbArc
 50
270.0
 51
0.0
  0
LINE
  5
1A2C1
330
1A1B9
100
AcDbEntity
  8
0
100
AcDbLine
 10
5.525001379684454
 20
21.3399966416423
 30
0.0
 11
4.192073584260015
 21
21.3399966416423
 31
0.0
  0
LINE
  5
1A2C2
330
1A1B9
100
AcDbEntity
  8
0
100
AcDbLine
 10
5.23000137968529
 20
21.03999664164212
 30
0.0
 11
4.610297408909445
 21
21.03999664164212
 31
0.0
  0
LINE
  5
1A2C3
330
1A1B9
100
AcDbEntity
  8
0
100
AcDbLine
 10
4.166515116909522
 20
8.2416630610428
 30
0.0
 11
3.193487642459786
 21
8.2416630610428
 31
0.0
  0
LINE
  5
1A2C4
330
1A1B9
100
AcDbEntity
  8
0
100
AcDbLine
 10
4.161873148035283
 20
8.239996641642846
 30
0.0
 11
3.198129611334934
 21
8.239996641642846
 31
0.0
  0
LINE
  5
1A2C5
330
1A1B9
100
AcDbEntity
  8
0
100
AcDbLine
 10
2.970001379685072
 20
7.509996641642374
 30
0.0
 11
4.390001379685145
 21
7.509996641642374
 31
0.0
  0
LINE
  5
1A2C6
330
1A1B9
100
AcDbEntity
  8
0
100
AcDbLine
 10
3.070001379684526
 20
7.309996641642555
 30
0.0
 11
4.290001379684781
 21
7.309996641642555
 31
0.0
  0
LINE
  5
1A2C7
330
1A1B9
100
AcDbEntity
  8
0
100
AcDbLine
 10
4.390001379685145
 20
7.509996641642374
 30
0.0
 11
4.390001379685145
 21
6.959996641642192
 31
0.0
  0
LINE
  5
1A2C8
330
1A1B9
100
AcDbEntity
  8
0
100
AcDbLine
 10
4.341589232209571
 20
6.959996641642192
 30
0.0
 11
4.73995266276006
 21
6.959996641642192
 31
0.0
  0
LINE
  5
1A2C9
330
1A1B9
100
AcDbEntity
  8
0
100
AcDbLine
 10
4.341589232209571
 20
6.659996641642919
 30
0.0
 11
4.73995266276006
 21
6.659996641642919
 31
0.0
  0
LINE
  5
1A2CA
330
1A1B9
100
AcDbEntity
  8
0
100
AcDbLine
 10
4.341589232209571
 20
6.659996641642919
 30
0.0
 11
4.341589232209571
 21
6.959996641642192
 31
0.0
  0
LINE
  5
1A2CB
330
1A1B9
100
AcDbEntity
  8
0
100
AcDbLine
 10
4.488572808259505
 20
6.659996641642919
 30
0.0
 11
4.488572808259505
 21
6.959996641642192
 31
0.0
  0
LINE
  5
1A2CC
330
1A1B9
100
AcDbEntity
  8
0
100
AcDbLine
 10
4.740001379684599
 20
6.659996641642919
 30
0.0
 11
4.740001379684599
 21
6.959996641642192
 31
0.0
  0
LINE
  5
1A2CD
330
1A1B9
100
AcDbEntity
  8
0
100
AcDbLine
 10
4.390001379685145
 20
7.509996641642374
 30
0.0
 11
4.290001379684781
 21
7.309996641642555
 31
0.0
  0
LINE
  5
1A2CE
330
1A1B9
100
AcDbEntity
  8
0
100
AcDbLine
 10
4.161819134534653
 20
8.240050783842434
 30
0.0
 11
4.166515116909522
 21
8.2416630610428
 31
0.0
  0
ARC
  5
1A2CF
330
1A1B9
100
AcDbEntity
  8
0
100
AcDbCircle
 10
0.3000013796849998
 20
7.694996641642774
 30
0.0
 40
0.3
100
AcDbArc
 50
90.0
 51
180.0
  0
LINE
  5
1A2D0
330
1A1B9
100
AcDbEntity
  8
0
100
AcDbLine
 10
1.180001379685108
 20
8.059996641642555
 30
0.0
 11
1.180001379685108
 21
6.65499664164281
 31
0.0
  0
SPLINE
  5
1A2D1
330
1A1B9
100
AcDbEntity
  8
0
100
AcDbSpline
210
0.0
220
0.0
230
1.0
 70
     8
 71
     3
 72
    15
 73
    11
 74
     9
 42
0.0000000001
 43
0.0000000001
 44
0.0000000001
 12
-1.0
 22
0.0000000000000003
 32
0.0
 13
-0.0000000000000003
 23
-1.0
 33
0.0
 40
0.0
 40
0.0
 40
0.0
 40
0.0
 40
0.0549104034384386
 40
0.1112943695381009
 40
0.16884583985542
 40
0.2272617165087397
 40
0.2861891301451311
 40
0.345371591612492
 40
0.4047062933590426
 40
0.4640323935831649
 40
0.4640323935831649
 40
0.4640323935831649
 40
0.4640323935831649
 10
0.6335375942103383
 20
6.65499664164281
 30
0.0
 10
0.6152341263975254
 20
6.65499664164281
 30
0.0
 10
0.5780376369882016
 20
6.651253237765599
 30
0.0
 10
0.5239010772920402
 20
6.634630254597635
 30
0.0
 10
0.4730043104710487
 20
6.607186467882911
 30
0.0
 10
0.4277546370656406
 20
6.56984219381544
 30
0.0
 10
0.3902612208782967
 20
6.524009246664121
 30
0.0
 10
0.3622024247635201
 20
6.471506202824361
 30
0.0
 10
0.3448735061396992
 20
6.414433938848222
 30
0.0
 10
0.3409535863352175
 20
6.374772008384002
 30
0.0
 10
0.3409535863352175
 20
6.354996641642628
 30
0.0
 11
0.6335375942103383
 21
6.65499664164281
 31
0.0
 11
0.5788983036850368
 21
6.649546840117636
 31
0.0
 11
0.5249818861097993
 21
6.633049217592542
 31
0.0
 11
0.474304435985232
 21
6.605773444742681
 31
0.0
 11
0.429234255935171
 21
6.568610378192261
 31
0.0
 11
0.391910911035211
 21
6.523009851842743
 31
0.0
 11
0.3640200186596303
 21
6.470811558117475
 31
0.0
 11
0.3467835206852214
 21
6.414035595167206
 31
0.0
 11
0.3409535863352175
 21
6.354996641642628
 31
0.0
  0
SPLINE
  5
1A2D2
330
1A1B9
100
AcDbEntity
  8
0
100
AcDbSpline
210
0.0
220
0.0
230
1.0
 70
     8
 71
     3
 72
    15
 73
    11
 74
     9
 42
0.0000000001
 43
0.0000000001
 44
0.0000000001
 12
0.0000000000000003
 22
1.0
 32
0.0
 13
1.0
 23
-0.0000000000000003
 33
0.0
 40
0.0
 40
0.0
 40
0.0
 40
0.0
 40
0.060197644015315
 40
0.1203434046987361
 40
0.1802921062117438
 40
0.2397999660846499
 40
0.2983669952297135
 40
0.355263437853077
 40
0.4097143636452304
 40
0.4611969379716027
 40
0.4611969379716027
 40
0.4611969379716027
 40
0.4611969379716027
 10
0.3000013796849998
 20
6.354996641642628
 30
0.0
 10
0.3000013796849998
 20
6.375062522981067
 30
0.0
 10
0.3040322359778884
 20
6.415290655982655
 30
0.0
 10
0.3218421192809247
 20
6.473083524097699
 30
0.0
 10
0.3505584473517525
 20
6.52606209040959
 30
0.0
 10
0.3887041939520267
 20
6.572012698921454
 30
0.0
 10
0.4342489482940114
 20
6.609038000237749
 30
0.0
 10
0.4846131778883113
 20
6.635737557084316
 30
0.0
 10
0.5368957597006478
 20
6.651495073857362
 30
0.0
 10
0.5722928914012942
 20
6.65499664164281
 30
0.0
 10
0.5894537495100849
 20
6.65499664164281
 30
0.0
 11
0.3000013796849998
 21
6.354996641642628
 31
0.0
 11
0.3059999391348356
 21
6.41489466856774
 31
0.0
 11
0.3237022014350259
 21
6.472376339017046
 31
0.0
 11
0.3522651082598713
 21
6.525083142817038
 31
0.0
 11
0.3902861203600878
 21
6.570860735867881
 31
0.0
 11
0.4357565575351146
 21
6.60777328449285
 31
0.0
 11
0.4860555045602269
 21
6.634366913642679
 31
0.0
 11
0.5382143252850256
 21
6.64999895574283
 31
0.0
 11
0.5894537495100849
 21
6.65499664164281
 31
0.0
  0
LINE
  5
1A2D3
330
1A1B9
100
AcDbEntity
  8
0
100
AcDbLine
 10
0.3000013796849998
 20
7.994996641642046
 30
0.0
 11
1.030001379684563
 21
7.994996641642046
 31
0.0
  0
LINE
  5
1A2D4
330
1A1B9
100
AcDbEntity
  8
0
100
AcDbLine
 10
0.3000013796849998
 20
7.004996641642264
 30
0.0
 11
1.030001379684563
 21
7.004996641642264
 31
0.0
  0
LINE
  5
1A2D5
330
1A1B9
100
AcDbEntity
  8
0
100
AcDbLine
 10
2.970001379685072
 20
7.509996641642374
 30
0.0
 11
2.970001379685072
 21
6.959996641642192
 31
0.0
  0
LINE
  5
1A2D6
330
1A1B9
100
AcDbEntity
  8
0
100
AcDbLine
 10
2.620001379684708
 20
6.659996641642919
 30
0.0
 11
2.620001379684708
 21
6.959996641642192
 31
0.0
  0
LINE
  5
1A2D7
330
1A1B9
100
AcDbEntity
  8
0
100
AcDbLine
 10
2.620050096610157
 20
6.959996641642192
 30
0.0
 11
3.018413527159736
 21
6.959996641642192
 31
0.0
  0
LINE
  5
1A2D8
330
1A1B9
100
AcDbEntity
  8
0
100
AcDbLine
 10
2.871429951109803
 20
6.659996641642919
 30
0.0
 11
2.871429951109803
 21
6.959996641642192
 31
0.0
  0
LINE
  5
1A2D9
330
1A1B9
100
AcDbEntity
  8
0
100
AcDbLine
 10
3.018413527159736
 20
6.659996641642919
 30
0.0
 11
3.018413527159736
 21
6.959996641642192
 31
0.0
  0
LINE
  5
1A2DA
330
1A1B9
100
AcDbEntity
  8
0
100
AcDbLine
 10
2.620050096610157
 20
6.659996641642919
 30
0.0
 11
3.018413527159736
 21
6.659996641642919
 31
0.0
  0
LINE
  5
1A2DB
330
1A1B9
100
AcDbEntity
  8
0
100
AcDbLine
 10
3.070001379684526
 20
7.309996641642555
 30
0.0
 11
2.970001379685072
 21
7.509996641642374
 31
0.0
  0
LINE
  5
1A2DC
330
1A1B9
100
AcDbEntity
  8
0
100
AcDbLine
 10
0.680001379685109
 20
7.004996641642264
 30
0.0
 11
0.680001379685109
 21
6.65499664164281
 31
0.0
  0
LINE
  5
1A2DD
330
1A1B9
100
AcDbEntity
  8
0
100
AcDbLine
 10
0.6335375942094288
 20
6.65499664164281
 30
0.0
 11
1.229926632410297
 21
6.65499664164281
 31
0.0
  0
ARC
  5
1A2DE
330
1A1B9
100
AcDbEntity
  8
0
100
AcDbCircle
 10
0.3000013796849998
 20
7.304996641642446
 30
0.0
 40
0.3
100
AcDbArc
 50
180.0
 51
270.0
  0
LINE
  5
1A2DF
330
1A1B9
100
AcDbEntity
  8
0
100
AcDbLine
 10
0.3000013796849998
 20
6.354996641642628
 30
0.0
 11
0.3409535863352175
 21
6.354996641642628
 31
0.0
  0
LINE
  5
1A2E0
330
1A1B9
100
AcDbEntity
  8
0
100
AcDbLine
 10
0.0000013796848179
 20
7.304996641642446
 30
0.0
 11
0.0000013796848179
 21
7.694996641642774
 31
0.0
  0
LINE
  5
1A2E1
330
1A1B9
100
AcDbEntity
  8
0
100
AcDbLine
 10
0.3347750834095677
 20
7.004996641642264
 30
0.0
 11
0.3347750834095677
 21
7.994996641642046
 31
0.0
  0
LINE
  5
1A2E2
330
1A1B9
100
AcDbEntity
  8
0
100
AcDbLine
 10
1.48000137968529
 20
8.259996641642374
 30
0.0
 11
3.167929175110202
 21
8.259996641642374
 31
0.0
  0
LINE
  5
1A2E3
330
1A1B9
100
AcDbEntity
  8
0
100
AcDbLine
 10
3.198183624834655
 20
8.240050783842434
 30
0.0
 11
3.193487642459786
 21
8.2416630610428
 31
0.0
  0
LINE
  5
1A2E4
330
1A1B9
100
AcDbEntity
  8
0
100
AcDbLine
 10
1.48000137968529
 20
8.259996641642374
 30
0.0
 11
1.326447989084499
 21
8.413550032242255
 31
0.0
  0
LINE
  5
1A2E5
330
1A1B9
100
AcDbEntity
  8
0
100
AcDbLine
 10
6.23000137968529
 20
7.554996641642446
 30
0.0
 11
6.680001379685108
 21
7.554996641642446
 31
0.0
  0
ARC
  5
1A2E6
330
1A1B9
100
AcDbEntity
  8
0
100
AcDbCircle
 10
7.060001379685218
 20
6.90499664164281
 30
0.0
 40
0.3
100
AcDbArc
 50
0.0
 51
90.0
  0
LINE
  5
1A2E7
330
1A1B9
100
AcDbEntity
  8
0
100
AcDbLine
 10
6.330001379684745
 20
7.204996641642082
 30
0.0
 11
7.060001379685218
 21
7.204996641642082
 31
0.0
  0
LINE
  5
1A2E8
330
1A1B9
100
AcDbEntity
  8
0
100
AcDbLine
 10
6.780001379684563
 20
7.204996641642082
 30
0.0
 11
6.780001379684563
 21
7.859996641642737
 31
0.0
  0
LINE
  5
1A2E9
330
1A1B9
100
AcDbEntity
  8
0
100
AcDbLine
 10
7.080001379684745
 20
7.204996641642082
 30
0.0
 11
7.080001379684745
 21
7.859996641642737
 31
0.0
  0
LINE
  5
1A2EA
330
1A1B9
100
AcDbEntity
  8
0
100
AcDbLine
 10
6.680001379685108
 20
8.259996641642374
 30
0.0
 11
7.250001379684817
 21
8.259996641642374
 31
0.0
  0
LINE
  5
1A2EB
330
1A1B9
100
AcDbEntity
  8
0
100
AcDbLine
 10
4.192073584260015
 20
8.259996641642374
 30
0.0
 11
5.525001379684454
 21
8.259996641642374
 31
0.0
  0
LINE
  5
1A2EC
330
1A1B9
100
AcDbEntity
  8
0
100
AcDbLine
 10
4.341589232209571
 20
4.119996641642046
 30
0.0
 11
4.341589232209571
 21
4.419996641642228
 31
0.0
  0
LINE
  5
1A2ED
330
1A1B9
100
AcDbEntity
  8
0
100
AcDbLine
 10
4.488572808259505
 20
4.119996641642046
 30
0.0
 11
4.488572808259505
 21
4.419996641642228
 31
0.0
  0
LINE
  5
1A2EE
330
1A1B9
100
AcDbEntity
  8
0
100
AcDbLine
 10
4.740001379684599
 20
4.119996641642046
 30
0.0
 11
4.740001379684599
 21
4.419996641642228
 31
0.0
  0
LINE
  5
1A2EF
330
1A1B9
100
AcDbEntity
  8
0
100
AcDbLine
 10
2.620001379684708
 20
4.119996641642046
 30
0.0
 11
2.620001379684708
 21
4.419996641642228
 31
0.0
  0
LINE
  5
1A2F0
330
1A1B9
100
AcDbEntity
  8
0
100
AcDbLine
 10
2.871429951109803
 20
4.119996641642046
 30
0.0
 11
2.871429951109803
 21
4.419996641642228
 31
0.0
  0
LINE
  5
1A2F1
330
1A1B9
100
AcDbEntity
  8
0
100
AcDbLine
 10
3.018413527159736
 20
4.119996641642046
 30
0.0
 11
3.018413527159736
 21
4.419996641642228
 31
0.0
  0
LINE
  5
1A2F2
330
1A1B9
100
AcDbEntity
  8
0
100
AcDbLine
 10
4.290001379684781
 20
2.499996641642155
 30
0.0
 11
3.070001379684526
 21
2.499996641642155
 31
0.0
  0
LINE
  5
1A2F3
330
1A1B9
100
AcDbEntity
  8
0
100
AcDbLine
 10
4.390001379685145
 20
2.299996641642337
 30
0.0
 11
2.970001379685072
 21
2.299996641642337
 31
0.0
  0
LINE
  5
1A2F4
330
1A1B9
100
AcDbEntity
  8
0
100
AcDbLine
 10
4.161873148035283
 20
1.569996641642774
 30
0.0
 11
3.198129611334934
 21
1.569996641642774
 31
0.0
  0
LINE
  5
1A2F5
330
1A1B9
100
AcDbEntity
  8
0
100
AcDbLine
 10
4.166515116909522
 20
1.568330222242821
 30
0.0
 11
3.193487642459786
 21
1.568330222242821
 31
0.0
  0
LINE
  5
1A2F6
330
1A1B9
100
AcDbEntity
  8
0
100
AcDbLine
 10
4.73000137968529
 20
0.1699966416422285
 30
0.0
 11
1.830001379684745
 21
0.1699966416422285
 31
0.0
  0
LINE
  5
1A2F7
330
1A1B9
100
AcDbEntity
  8
0
100
AcDbLine
 10
4.390001379685145
 20
4.119996641642046
 30
0.0
 11
4.390001379685145
 21
3.149996641642701
 31
0.0
  0
LINE
  5
1A2F8
330
1A1B9
100
AcDbEntity
  8
0
100
AcDbLine
 10
4.658232470234452
 20
1.215611899442137
 30
0.0
 11
4.166515116909522
 21
1.568330222242821
 31
0.0
  0
LINE
  5
1A2F9
330
1A1B9
100
AcDbEntity
  8
0
100
AcDbLine
 10
4.166515116909522
 20
1.568330222242821
 30
0.0
 11
4.161819134534653
 21
1.569942499442277
 31
0.0
  0
LINE
  5
1A2FA
330
1A1B9
100
AcDbEntity
  8
0
100
AcDbLine
 10
4.341589232209571
 20
2.849996641642519
 30
0.0
 11
4.341589232209571
 21
3.149996641642701
 31
0.0
  0
LINE
  5
1A2FB
330
1A1B9
100
AcDbEntity
  8
0
100
AcDbLine
 10
4.488572808259505
 20
2.849996641642519
 30
0.0
 11
4.488572808259505
 21
3.149996641642701
 31
0.0
  0
LINE
  5
1A2FC
330
1A1B9
100
AcDbEntity
  8
0
100
AcDbLine
 10
4.740001379684599
 20
2.849996641642519
 30
0.0
 11
4.740001379684599
 21
3.149996641642701
 31
0.0
  0
LINE
  5
1A2FD
330
1A1B9
100
AcDbEntity
  8
0
100
AcDbLine
 10
4.390001379685145
 20
2.849996641642519
 30
0.0
 11
4.390001379685145
 21
2.299996641642337
 31
0.0
  0
LINE
  5
1A2FE
330
1A1B9
100
AcDbEntity
  8
0
100
AcDbLine
 10
4.290001379684781
 20
2.499996641642155
 30
0.0
 11
4.390001379685145
 21
2.299996641642337
 31
0.0
  0
LINE
  5
1A2FF
330
1A1B9
100
AcDbEntity
  8
0
100
AcDbLine
 10
4.341589232209571
 20
2.849996641642519
 30
0.0
 11
4.73995266276006
 21
2.849996641642519
 31
0.0
  0
LINE
  5
1A300
330
1A1B9
100
AcDbEntity
  8
0
100
AcDbLine
 10
4.341589232209571
 20
3.149996641642701
 30
0.0
 11
4.73995266276006
 21
3.149996641642701
 31
0.0
  0
LINE
  5
1A301
330
1A1B9
100
AcDbEntity
  8
0
100
AcDbLine
 10
4.341589232209571
 20
4.119996641642046
 30
0.0
 11
4.73995266276006
 21
4.119996641642046
 31
0.0
  0
LINE
  5
1A302
330
1A1B9
100
AcDbEntity
  8
0
100
AcDbLine
 10
2.970001379685072
 20
4.119996641642046
 30
0.0
 11
2.970001379685072
 21
3.149996641642701
 31
0.0
  0
SPLINE
  5
1A303
330
1A1B9
100
AcDbEntity
  8
0
100
AcDbSpline
210
0.0
220
0.0
230
1.0
 70
     8
 71
     3
 72
    15
 73
    11
 74
     9
 42
0.0000000001
 43
0.0000000001
 44
0.0000000001
 12
-0.0000000000000003
 22
-1.0
 32
0.0
 13
1.0
 23
-0.0000000000000003
 33
0.0
 40
0.0
 40
0.0
 40
0.0
 40
0.0
 40
0.0593261002241222
 40
0.1186608019706727
 40
0.1778432634372315
 40
0.2367706770743267
 40
0.2951865537270678
 40
0.3527380240448179
 40
0.4091219901444803
 40
0.4640323935828287
 40
0.4640323935828287
 40
0.4640323935828287
 40
0.4640323935828287
 10
0.3409535863352175
 20
3.454996641642082
 30
0.0
 10
0.3409535863352175
 20
3.435221274900708
 30
0.0
 10
0.3448735061397614
 20
3.39555934443653
 30
0.0
 10
0.3622024247632243
 20
3.338487080460465
 30
0.0
 10
0.3902612208789354
 20
3.285984036621367
 30
0.0
 10
0.4277546370649393
 20
3.240151089469156
 30
0.0
 10
0.4730043104716762
 20
3.202806815402988
 30
0.0
 10
0.5239010772917283
 20
3.17536302868693
 30
0.0
 10
0.5780376369881808
 20
3.158740045518776
 30
0.0
 10
0.6152341263975555
 20
3.15499664164281
 30
0.0
 10
0.6335375942103383
 20
3.15499664164281
 30
0.0
 11
0.3409535863352175
 21
3.454996641642082
 31
0.0
 11
0.3467835206852214
 21
3.395957688117505
 31
0.0
 11
0.3640200186596303
 21
3.339181725167236
 31
0.0
 11
0.391910911035211
 21
3.286983431442877
 31
0.0
 11
0.429234255935171
 21
3.24138290509245
 31
0.0
 11
0.474304435985232
 21
3.20421983854294
 31
0.0
 11
0.5249818861097993
 21
3.176944065692168
 31
0.0
 11
0.5788983036850368
 21
3.160446443167074
 31
0.0
 11
0.6335375942103383
 21
3.15499664164281
 31
0.0
  0
SPLINE
  5
1A304
330
1A1B9
100
AcDbEntity
  8
0
100
AcDbSpline
210
0.0
220
0.0
230
1.0
 70
     8
 71
     3
 72
    15
 73
    11
 74
     9
 42
0.0000000001
 43
0.0000000001
 44
0.0000000001
 12
-1.0
 22
0.0000000000000003
 32
0.0
 13
0.0000000000000003
 23
1.0
 33
0.0
 40
0.0
 40
0.0
 40
0.0
 40
0.0
 40
0.0514825650951296
 40
0.1059334599719624
 40
0.1628298698748226
 40
0.2213968778989234
 40
0.2809047422603262
 40
0.340853459983857
 40
0.4009992673998343
 40
0.4611969358582888
 40
0.4611969358582888
 40
0.4611969358582888
 40
0.4611969358582888
 10
0.5894537495100849
 20
3.15499664164281
 30
0.0
 10
0.5722928944783751
 20
3.15499664164281
 30
0.0
 10
0.5368957761328405
 20
3.158498207129698
 30
0.0
 10
0.4846132170046161
 20
3.174255713550117
 30
0.0
 10
0.4342490084245389
 20
3.200955247942125
 30
0.0
 10
0.3887042555708718
 20
3.237980524933181
 30
0.0
 10
0.3505584986081358
 20
3.283931124170349
 30
0.0
 10
0.3218421387110907
 20
3.336909699651387
 30
0.0
 10
0.304032246804308
 20
3.394702596398251
 30
0.0
 10
0.3000013796849998
 20
3.434930752155931
 30
0.0
 10
0.3000013796849998
 20
3.454996641642082
 30
0.0
 11
0.5894537495100849
 21
3.15499664164281
 31
0.0
 11
0.5382143343845201
 21
3.1599943257429
 31
0.0
 11
0.4860555422096695
 21
3.175626355417534
 31
0.0
 11
0.4357566193098137
 21
3.202219960192906
 31
0.0
 11
0.3902861881101671
 21
3.239132482667173
 31
0.0
 11
0.3522651602847873
 21
3.284910068492081
 31
0.0
 11
0.323702229310129
 21
3.337616877642631
 31
0.0
 11
0.3059999475349286
 21
3.395098590992802
 31
0.0
 11
0.3000013796849998
 21
3.454996641642082
 31
0.0
  0
LINE
  5
1A305
330
1A1B9
100
AcDbEntity
  8
0
100
AcDbLine
 10
0.3000013796849998
 20
2.804996641642446
 30
0.0
 11
1.030001379684563
 21
2.804996641642446
 31
0.0
  0
LINE
  5
1A306
330
1A1B9
100
AcDbEntity
  8
0
100
AcDbLine
 10
0.3000013796849998
 20
1.814996641642665
 30
0.0
 11
1.030001379684563
 21
1.814996641642665
 31
0.0
  0
LINE
  5
1A307
330
1A1B9
100
AcDbEntity
  8
0
100
AcDbLine
 10
1.030001379684563
 20
1.299996641642337
 30
0.0
 11
1.030001379684563
 21
3.15499664164281
 31
0.0
  0
LINE
  5
1A308
330
1A1B9
100
AcDbEntity
  8
0
100
AcDbLine
 10
1.180001379685108
 20
3.15499664164281
 30
0.0
 11
1.180001379685108
 21
1.749996641642155
 31
0.0
  0
LINE
  5
1A309
330
1A1B9
100
AcDbEntity
  8
0
100
AcDbLine
 10
3.167929175110202
 20
1.549996641642337
 30
0.0
 11
1.48000137968529
 21
1.549996641642337
 31
0.0
  0
LINE
  5
1A30A
330
1A1B9
100
AcDbEntity
  8
0
100
AcDbLine
 10
2.749705350459862
 20
1.249996641642155
 30
0.0
 11
1.680001379685108
 21
1.249996641642155
 31
0.0
  0
LINE
  5
1A30B
330
1A1B9
100
AcDbEntity
  8
0
100
AcDbLine
 10
2.600001379685181
 20
1.199996641642883
 30
0.0
 11
2.600001379685181
 21
1.249996641642155
 31
0.0
  0
LINE
  5
1A30C
330
1A1B9
100
AcDbEntity
  8
0
100
AcDbLine
 10
2.680001379685108
 20
1.199996641642883
 30
0.0
 11
3.193487642459786
 21
1.568330222242821
 31
0.0
  0
LINE
  5
1A30D
330
1A1B9
100
AcDbEntity
  8
0
100
AcDbLine
 10
3.193487642459786
 20
1.568330222242821
 30
0.0
 11
3.198183624834655
 21
1.569942499442277
 31
0.0
  0
ARC
  5
1A30E
330
1A1B9
100
AcDbEntity
  8
0
100
AcDbCircle
 10
1.130001379684927
 20
1.299996641642337
 30
0.0
 40
0.45
100
AcDbArc
 50
180.0
 51
270.0
  0
LINE
  5
1A30F
330
1A1B9
100
AcDbEntity
  8
0
100
AcDbLine
 10
1.530001379684563
 20
0.4699966416424104
 30
0.0
 11
1.530001379684563
 21
1.199996641642883
 31
0.0
  0
ARC
  5
1A310
330
1A1B9
100
AcDbEntity
  8
0
100
AcDbCircle
 10
1.830001379684745
 20
0.4699966416424104
 30
0.0
 40
0.3
100
AcDbArc
 50
180.0
 51
270.0
  0
ARC
  5
1A311
330
1A1B9
100
AcDbEntity
  8
0
100
AcDbCircle
 10
1.130001379684927
 20
1.299996641642337
 30
0.0
 40
0.1
100
AcDbArc
 50
180.0
 51
270.0
  0
ARC
  5
1A312
330
1A1B9
100
AcDbEntity
  8
0
100
AcDbCircle
 10
1.680001379685108
 20
1.749996641643065
 30
0.0
 40
0.5
100
AcDbArc
 50
180.0
 51
270.0
  0
LINE
  5
1A313
330
1A1B9
100
AcDbEntity
  8
0
100
AcDbLine
 10
0.680001379685109
 20
1.814996641642665
 30
0.0
 11
0.680001379685109
 21
1.299996641642337
 31
0.0
  0
LINE
  5
1A314
330
1A1B9
100
AcDbEntity
  8
0
100
AcDbLine
 10
1.48000137968529
 20
1.549996641642337
 30
0.0
 11
1.326447989084499
 21
1.396443251042455
 31
0.0
  0
LINE
  5
1A315
330
1A1B9
100
AcDbEntity
  8
0
100
AcDbLine
 10
1.130001379684927
 20
0.8499966416425195
 30
0.0
 11
1.530001379684563
 21
0.8499966416425195
 31
0.0
  0
LINE
  5
1A316
330
1A1B9
100
AcDbEntity
  8
0
100
AcDbLine
 10
2.620001379684708
 20
2.849996641642519
 30
0.0
 11
2.620001379684708
 21
3.149996641642701
 31
0.0
  0
LINE
  5
1A317
330
1A1B9
100
AcDbEntity
  8
0
100
AcDbLine
 10
2.871429951109803
 20
2.849996641642519
 30
0.0
 11
2.871429951109803
 21
3.149996641642701
 31
0.0
  0
LINE
  5
1A318
330
1A1B9
100
AcDbEntity
  8
0
100
AcDbLine
 10
3.018413527159736
 20
2.849996641642519
 30
0.0
 11
3.018413527159736
 21
3.149996641642701
 31
0.0
  0
LINE
  5
1A319
330
1A1B9
100
AcDbEntity
  8
0
100
AcDbLine
 10
2.970001379685072
 20
2.849996641642519
 30
0.0
 11
2.970001379685072
 21
2.299996641642337
 31
0.0
  0
LINE
  5
1A31A
330
1A1B9
100
AcDbEntity
  8
0
100
AcDbLine
 10
3.070001379684526
 20
2.499996641642155
 30
0.0
 11
2.970001379685072
 21
2.299996641642337
 31
0.0
  0
LINE
  5
1A31B
330
1A1B9
100
AcDbEntity
  8
0
100
AcDbLine
 10
2.620050096610157
 20
2.849996641642519
 30
0.0
 11
3.018413527159736
 21
2.849996641642519
 31
0.0
  0
LINE
  5
1A31C
330
1A1B9
100
AcDbEntity
  8
0
100
AcDbLine
 10
2.620050096610157
 20
3.149996641642701
 30
0.0
 11
3.018413527159736
 21
3.149996641642701
 31
0.0
  0
LINE
  5
1A31D
330
1A1B9
100
AcDbEntity
  8
0
100
AcDbLine
 10
0.680001379685109
 20
3.15499664164281
 30
0.0
 11
0.680001379685109
 21
2.804996641642446
 31
0.0
  0
LINE
  5
1A31E
330
1A1B9
100
AcDbEntity
  8
0
100
AcDbLine
 10
0.6335375942094288
 20
3.15499664164281
 30
0.0
 11
1.229926632410297
 21
3.15499664164281
 31
0.0
  0
ARC
  5
1A31F
330
1A1B9
100
AcDbEntity
  8
0
100
AcDbCircle
 10
0.3000013796849998
 20
2.114996641642846
 30
0.0
 40
0.3
100
AcDbArc
 50
180.0
 51
270.0
  0
LINE
  5
1A320
330
1A1B9
100
AcDbEntity
  8
0
100
AcDbLine
 10
0.3347750834095677
 20
2.804996641642446
 30
0.0
 11
0.3347750834095677
 21
1.814996641642665
 31
0.0
  0
ARC
  5
1A321
330
1A1B9
100
AcDbEntity
  8
0
100
AcDbCircle
 10
0.3000013796849998
 20
2.504996641642264
 30
0.0
 40
0.3
100
AcDbArc
 50
90.0
 51
180.0
  0
LINE
  5
1A322
330
1A1B9
100
AcDbEntity
  8
0
100
AcDbLine
 10
0.0000013796848179
 20
2.504996641642264
 30
0.0
 11
0.0000013796848179
 21
2.114996641642846
 31
0.0
  0
LINE
  5
1A323
330
1A1B9
100
AcDbEntity
  8
0
100
AcDbLine
 10
0.3409535863352175
 20
3.454996641642082
 30
0.0
 11
0.3000013796849998
 21
3.454996641642082
 31
0.0
  0
LINE
  5
1A324
330
1A1B9
100
AcDbEntity
  8
0
100
AcDbLine
 10
2.620050096610157
 20
4.119996641642046
 30
0.0
 11
3.018413527159736
 21
4.119996641642046
 31
0.0
  0
ARC
  5
1A325
330
1A1B9
100
AcDbEntity
  8
0
100
AcDbCircle
 10
6.230001379684381
 20
1.299996641642337
 30
0.0
 40
0.1
100
AcDbArc
 50
270.0
 51
0.0
  0
ARC
  5
1A326
330
1A1B9
100
AcDbEntity
  8
0
100
AcDbCircle
 10
5.930001379685108
 20
0.8399966416423012
 30
0.0
 40
0.3
100
AcDbArc
 50
270.0
 51
0.0
  0
ARC
  5
1A327
330
1A1B9
100
AcDbEntity
  8
0
100
AcDbCircle
 10
6.230001379684381
 20
1.299996641642337
 30
0.0
 40
0.45
100
AcDbArc
 50
270.0
 51
0.0
  0
LINE
  5
1A328
330
1A1B9
100
AcDbEntity
  8
0
100
AcDbLine
 10
6.680001379685108
 20
2.254996641642264
 30
0.0
 11
6.23000137968529
 21
2.254996641642264
 31
0.0
  0
LINE
  5
1A329
330
1A1B9
100
AcDbEntity
  8
0
100
AcDbLine
 10
6.23000137968529
 20
1.299996641642337
 30
0.0
 11
6.680001379685108
 21
1.299996641642337
 31
0.0
  0
LINE
  5
1A32A
330
1A1B9
100
AcDbEntity
  8
0
100
AcDbLine
 10
6.3145504905101
 20
1.249996641642155
 30
0.0
 11
6.23000137968529
 21
1.249996641642155
 31
0.0
  0
LINE
  5
1A32B
330
1A1B9
100
AcDbEntity
  8
0
100
AcDbLine
 10
6.23000137968529
 20
0.8499966416425195
 30
0.0
 11
7.330001379684745
 21
0.8499966416425195
 31
0.0
  0
LINE
  5
1A32C
330
1A1B9
100
AcDbEntity
  8
0
100
AcDbLine
 10
6.680001379685108
 20
1.299996641642337
 30
0.0
 11
6.680001379685108
 21
2.604996641642628
 31
0.0
  0
LINE
  5
1A32D
330
1A1B9
100
AcDbEntity
  8
0
100
AcDbLine
 10
7.250001379684817
 20
1.249996641642155
 30
0.0
 11
7.250001379684817
 21
1.949996641642883
 31
0.0
  0
ARC
  5
1A32E
330
1A1B9
100
AcDbEntity
  8
0
100
AcDbCircle
 10
7.330001379684745
 20
0.7999966416423377
 30
0.0
 40
0.05
100
AcDbArc
 50
0.0
 51
90.0
  0
LINE
  5
1A32F
330
1A1B9
100
AcDbEntity
  8
0
100
AcDbLine
 10
7.380001379684927
 20
-0.0000033583578443
 30
0.0
 11
7.380001379684927
 21
0.7999966416423377
 31
0.0
  0
LINE
  5
1A330
330
1A1B9
100
AcDbEntity
  8
0
100
AcDbLine
 10
7.430001379685108
 20
1.18683139189261
 30
0.0
 11
7.430001379685108
 21
1.199996641642883
 31
0.0
  0
LINE
  5
1A331
330
1A1B9
100
AcDbEntity
  8
0
100
AcDbLine
 10
7.250001379684817
 20
1.549996641642337
 30
0.0
 11
6.680001379685108
 21
1.549996641642337
 31
0.0
  0
LINE
  5
1A332
330
1A1B9
100
AcDbEntity
  8
0
100
AcDbLine
 10
7.250001379684817
 20
1.249996641642155
 30
0.0
 11
6.673418754809517
 21
1.249996641642155
 31
0.0
  0
LINE
  5
1A333
330
1A1B9
100
AcDbEntity
  8
0
100
AcDbLine
 10
7.430001379685108
 20
1.199996641642883
 30
0.0
 11
6.666836129934836
 21
1.199996641642883
 31
0.0
  0
ARC
  5
1A334
330
1A1B9
100
AcDbEntity
  8
0
100
AcDbCircle
 10
7.060001379685218
 20
2.90499664164281
 30
0.0
 40
0.3
100
AcDbArc
 50
270.0
 51
0.0
  0
LINE
  5
1A335
330
1A1B9
100
AcDbEntity
  8
0
100
AcDbLine
 10
6.780001379684563
 20
1.949996641642883
 30
0.0
 11
6.780001379684563
 21
2.604996641642628
 31
0.0
  0
LINE
  5
1A336
330
1A1B9
100
AcDbEntity
  8
0
100
AcDbLine
 10
7.080001379684745
 20
1.949996641642883
 30
0.0
 11
7.080001379684745
 21
2.604996641642628
 31
0.0
  0
LINE
  5
1A337
330
1A1B9
100
AcDbEntity
  8
0
100
AcDbLine
 10
6.330001379684745
 20
2.604996641642628
 30
0.0
 11
7.060001379685218
 21
2.604996641642628
 31
0.0
  0
LINE
  5
1A338
330
1A1B9
100
AcDbEntity
  8
0
100
AcDbLine
 10
6.23000137968529
 20
2.254996641642264
 30
0.0
 11
5.23000137968529
 21
1.254996641642264
 31
0.0
  0
LINE
  5
1A339
330
1A1B9
100
AcDbEntity
  8
0
100
AcDbLine
 10
5.030001379684563
 20
0.4699966416424104
 30
0.0
 11
5.030001379684563
 21
1.199996641642883
 31
0.0
  0
LINE
  5
1A33A
330
1A1B9
100
AcDbEntity
  8
0
100
AcDbLine
 10
5.23000137968529
 20
1.254996641642264
 30
0.0
 11
5.23000137968529
 21
0.8399966416423012
 31
0.0
  0
LINE
  5
1A33B
330
1A1B9
100
AcDbEntity
  8
0
100
AcDbLine
 10
6.23000137968529
 20
0.8399966416423012
 30
0.0
 11
6.23000137968529
 21
1.299996641642337
 31
0.0
  0
ARC
  5
1A33C
330
1A1B9
100
AcDbEntity
  8
0
100
AcDbCircle
 10
5.530001379684563
 20
0.8399966416423012
 30
0.0
 40
0.3
100
AcDbArc
 50
180.0
 51
270.0
  0
LINE
  5
1A33D
330
1A1B9
100
AcDbEntity
  8
0
100
AcDbLine
 10
5.530001379684563
 20
0.5399966416421194
 30
0.0
 11
5.930001379685108
 21
0.5399966416421194
 31
0.0
  0
LINE
  5
1A33E
330
1A1B9
100
AcDbEntity
  8
0
100
AcDbLine
 10
5.030001379684563
 20
0.8499966416425195
 30
0.0
 11
5.23000137968529
 21
0.8499966416425195
 31
0.0
  0
LINE
  5
1A33F
330
1A1B9
100
AcDbEntity
  8
0
100
AcDbLine
 10
5.23000137968529
 20
1.199996641642883
 30
0.0
 11
1.130001379684927
 21
1.199996641642883
 31
0.0
  0
LINE
  5
1A340
330
1A1B9
100
AcDbEntity
  8
0
100
AcDbLine
 10
5.030001379684563
 20
0.5047703453678878
 30
0.0
 11
1.530001379684563
 21
0.5047703453678878
 31
0.0
  0
ELLIPSE
  5
1A341
330
1A1B9
100
AcDbEntity
  8
0
100
AcDbEllipse
 10
4.907081065409784
 20
1.217267570592866
 30
0.0
 11
-0.25
 21
0.0000000000000001
 31
0.0
210
0.0
220
0.0
230
1.0
 40
0.0690837158
 41
0.096012071
 42
1.570787529499999
  0
ARC
  5
1A342
330
1A1B9
100
AcDbEntity
  8
0
100
AcDbCircle
 10
4.730001379684381
 20
0.4699966416424104
 30
0.0
 40
0.3
100
AcDbArc
 50
270.0
 51
0.0
  0
LINE
  5
1A343
330
1A1B9
100
AcDbEntity
  8
0
100
AcDbLine
 10
5.525001379684454
 20
1.549996641642337
 30
0.0
 11
4.192073584260015
 21
1.549996641642337
 31
0.0
  0
LINE
  5
1A344
330
1A1B9
100
AcDbEntity
  8
0
100
AcDbLine
 10
5.23000137968529
 20
1.249996641642155
 30
0.0
 11
4.610297408909445
 21
1.249996641642155
 31
0.0
  0
LINE
  5
1A345
330
1A1B9
100
AcDbEntity
  8
0
100
AcDbLine
 10
4.341589232209571
 20
5.689996641642665
 30
0.0
 11
4.73995266276006
 21
5.689996641642665
 31
0.0
  0
LINE
  5
1A346
330
1A1B9
100
AcDbEntity
  8
0
100
AcDbLine
 10
4.341589232209571
 20
5.389996641642483
 30
0.0
 11
4.341589232209571
 21
5.689996641642665
 31
0.0
  0
LINE
  5
1A347
330
1A1B9
100
AcDbEntity
  8
0
100
AcDbLine
 10
4.488572808259505
 20
5.389996641642483
 30
0.0
 11
4.488572808259505
 21
5.689996641642665
 31
0.0
  0
LINE
  5
1A348
330
1A1B9
100
AcDbEntity
  8
0
100
AcDbLine
 10
4.341589232209571
 20
5.389996641642483
 30
0.0
 11
4.73995266276006
 21
5.389996641642483
 31
0.0
  0
LINE
  5
1A349
330
1A1B9
100
AcDbEntity
  8
0
100
AcDbLine
 10
4.740001379684599
 20
5.389996641642483
 30
0.0
 11
4.740001379684599
 21
5.689996641642665
 31
0.0
  0
LINE
  5
1A34A
330
1A1B9
100
AcDbEntity
  8
0
100
AcDbLine
 10
2.620001379684708
 20
5.389996641642483
 30
0.0
 11
2.620001379684708
 21
5.689996641642665
 31
0.0
  0
LINE
  5
1A34B
330
1A1B9
100
AcDbEntity
  8
0
100
AcDbLine
 10
2.871429951109803
 20
5.389996641642483
 30
0.0
 11
2.871429951109803
 21
5.689996641642665
 31
0.0
  0
LINE
  5
1A34C
330
1A1B9
100
AcDbEntity
  8
0
100
AcDbLine
 10
3.018413527159736
 20
5.389996641642483
 30
0.0
 11
3.018413527159736
 21
5.689996641642665
 31
0.0
  0
LINE
  5
1A34D
330
1A1B9
100
AcDbEntity
  8
0
100
AcDbLine
 10
2.620050096610157
 20
5.689996641642665
 30
0.0
 11
3.018413527159736
 21
5.689996641642665
 31
0.0
  0
LINE
  5
1A34E
330
1A1B9
100
AcDbEntity
  8
0
100
AcDbLine
 10
2.620050096610157
 20
5.389996641642483
 30
0.0
 11
3.018413527159736
 21
5.389996641642483
 31
0.0
  0
LINE
  5
1A34F
330
1A1B9
100
AcDbEntity
  8
0
100
AcDbLine
 10
4.341589232209571
 20
4.419996641642228
 30
0.0
 11
4.73995266276006
 21
4.419996641642228
 31
0.0
  0
LINE
  5
1A350
330
1A1B9
100
AcDbEntity
  8
0
100
AcDbLine
 10
2.620050096610157
 20
4.419996641642228
 30
0.0
 11
3.018413527159736
 21
4.419996641642228
 31
0.0
  0
LINE
  5
1A351
330
1A1B9
100
AcDbEntity
  8
0
100
AcDbLine
 10
4.390001379685145
 20
5.389996641642483
 30
0.0
 11
4.390001379685145
 21
4.419996641642228
 31
0.0
  0
LINE
  5
1A352
330
1A1B9
100
AcDbEntity
  8
0
100
AcDbLine
 10
2.970001379685072
 20
5.389996641642483
 30
0.0
 11
2.970001379685072
 21
4.419996641642228
 31
0.0
  0
LINE
  5
1A353
330
1A1B9
100
AcDbEntity
  8
0
100
AcDbLine
 10
4.290001379684781
 20
7.309996641642555
 30
0.0
 11
4.290001379684781
 21
2.499996641642155
 31
0.0
  0
LINE
  5
1A354
330
1A1B9
100
AcDbEntity
  8
0
100
AcDbLine
 10
0.3000013796849998
 20
3.454996641642082
 30
0.0
 11
0.3000013796849998
 21
6.354996641642628
 31
0.0
  0
LINE
  5
1A355
330
1A1B9
100
AcDbEntity
  8
0
100
AcDbLine
 10
0.3409535863352175
 20
3.454996641642082
 30
0.0
 11
0.3409535863352175
 21
6.354996641642628
 31
0.0
  0
LINE
  5
1A356
330
1A1B9
100
AcDbEntity
  8
0
100
AcDbLine
 10
1.23000137968529
 20
3.15499664164281
 30
0.0
 11
1.23000137968529
 21
6.65499664164281
 31
0.0
  0
LINE
  5
1A357
330
1A1B9
100
AcDbEntity
  8
0
100
AcDbLine
 10
1.48000137968529
 20
8.259996641642374
 30
0.0
 11
1.48000137968529
 21
1.549996641642337
 31
0.0
  0
LINE
  5
1A358
330
1A1B9
100
AcDbEntity
  8
0
100
AcDbLine
 10
3.070001379684526
 20
7.309996641642555
 30
0.0
 11
3.070001379684526
 21
2.499996641642155
 31
0.0
  0
LINE
  5
1A359
330
1A1B9
100
AcDbEntity
  8
0
100
AcDbLine
 10
6.330001379684745
 20
2.254996641642264
 30
0.0
 11
6.330001379684745
 21
7.554996641642446
 31
0.0
  0
LINE
  5
1A35A
330
1A1B9
100
AcDbEntity
  8
0
100
AcDbLine
 10
7.02522767595974
 20
7.204996641642082
 30
0.0
 11
7.02522767595974
 21
2.604996641642628
 31
0.0
  0
LINE
  5
1A35B
330
1A1B9
100
AcDbEntity
  8
0
100
AcDbLine
 10
7.36000137968449
 20
6.90499664164281
 30
0.0
 11
7.36000137968449
 21
2.90499664164281
 31
0.0
  0
LINE
  5
1A35C
330
1A1B9
100
AcDbEntity
  8
0
100
AcDbLine
 10
4.390001379685145
 20
6.659996641642919
 30
0.0
 11
4.390001379685145
 21
5.689996641642665
 31
0.0
  0
LINE
  5
1A35D
330
1A1B9
100
AcDbEntity
  8
0
100
AcDbLine
 10
2.970001379685072
 20
6.659996641642919
 30
0.0
 11
2.970001379685072
 21
5.689996641642665
 31
0.0
  0
ENDBLK
  5
1A35F
330
1A1B9
100
AcDbEntity
  8
0
100
AcDbBlockEnd
  0
BLOCK
  5
1AA05
330
1AA01
100
AcDbEntity
  8
0
100
AcDbBlockBegin
  2
_Open
 70
     0
 10
0.0
 20
0.0
 30
0.0
  3
_Open
  1

  0
LINE
  5
1AA02
330
1AA01
100
AcDbEntity
  8
0
  6
ByBlock
 62
     0
370
    -2
100
AcDbLine
 10
-1.0
 20
0.1666666666666666
 30
0.0
 11
0.0
 21
0.0
 31
0.0
  0
LINE
  5
1AA03
330
1AA01
100
AcDbEntity
  8
0
  6
ByBlock
 62
     0
370
    -2
100
AcDbLine
 10
-1.0
 20
-0.1666666666666666
 30
0.0
 11
0.0
 21
0.0
 31
0.0
  0
LINE
  5
1AA04
330
1AA01
100
AcDbEntity
  8
0
  6
ByBlock
 62
     0
370
    -2
100
AcDbLine
 10
0.0
 20
0.0
 30
0.0
 11
-1.0
 21
0.0
 31
0.0
  0
ENDBLK
  5
1AA06
330
1AA01
100
AcDbEntity
  8
0
100
AcDbBlockEnd
  0
ENDSEC
  0
SECTION
  2
ENTITIES
  0
LINE
  5
18075
330
18
100
AcDbEntity
  8
1
100
AcDbLine
 10
1362.090850515365
 20
-3251.501904147465
 30
0.0
 11
1377.090850515364
 21
-3251.501904147465
 31
0.0
  0
LINE
  5
18076
330
18
100
AcDbEntity
  8
1
100
AcDbLine
 10
1362.090850515365
 20
-3435.501904147466
 30
0.0
 11
1377.090850515364
 21
-3435.501904147466
 31
0.0
  0
LINE
  5
18077
330
18
100
AcDbEntity
  8
1
100
AcDbLine
 10
1369.590850515364
 20
-3259.001904147466
 30
0.0
 11
1369.590850515364
 21
-3244.001904147466
 31
0.0
  0
LINE
  5
18078
330
18
100
AcDbEntity
  8
1
100
AcDbLine
 10
1369.590850515364
 20
-3443.001904147466
 30
0.0
 11
1369.590850515364
 21
-3428.001904147466
 31
0.0
  0
INSERT
  5
18084
330
18
100
AcDbEntity
  8
0
100
AcDbBlockReference
  2
A$C35844AFD
 10
1340.590852014094
 20
-3611.475719101911
 30
0.0
  0
INSERT
  5
18085
330
18
100
AcDbEntity
  8
0
100
AcDbBlockReference
  2
A$C40301A48
 10
1498.590850515364
 20
-3256.501904147466
 30
0.0
  0
LINE
  5
18087
330
18
100
AcDbEntity
  8
0
100
AcDbLine
 10
1340.590850515364
 20
-3247.580804704664
 30
0.0
 11
1340.590850515364
 21
-3439.423003590267
 31
0.0
  0
LINE
  5
18088
330
18
100
AcDbEntity
  8
0
100
AcDbLine
 10
1398.590850515364
 20
-3247.501904147465
 30
0.0
 11
1398.590850515364
 21
-3439.501904147466
 31
0.0
  0
LINE
  5
18089
330
18
100
AcDbEntity
  8
0
100
AcDbLine
 10
1341.564673567056
 20
-3246.581147379689
 30
0.0
 11
1344.590850515364
 21
-3246.501904147466
 31
0.0
  0
LINE
  5
1808A
330
18
100
AcDbEntity
  8
0
100
AcDbLine
 10
1367.490850515364
 20
-3435.501904147466
 30
0.0
 11
1367.490850515364
 21
-3440.501904147466
 31
0.0
  0
LINE
  5
1808B
330
18
100
AcDbEntity
  8
0
100
AcDbLine
 10
1341.07776204121
 20
-3256.593897606716
 30
0.0
 11
1344.590850515364
 21
-3256.501904147466
 31
0.0
  0
LINE
  5
1808C
330
18
100
AcDbEntity
  8
0
100
AcDbLine
 10
1341.07776204121
 20
-3430.409910688216
 30
0.0
 11
1344.590850515364
 21
-3430.501904147466
 31
0.0
  0
LINE
  5
1808D
330
18
100
AcDbEntity
  8
0
100
AcDbLine
 10
1345.590850515364
 20
-3409.868723722553
 30
0.0
 11
1345.590850515364
 21
-3256.528090069035
 31
0.0
  0
ARC
  5
1808E
330
18
100
AcDbEntity
  8
0
100
AcDbCircle
 10
1344.890850515364
 20
-3413.501904147466
 30
0.0
 40
3.699999999995999
100
AcDbArc
 50
0.0
 51
79.09453000325761
  0
LINE
  5
1808F
330
18
100
AcDbEntity
  8
0
100
AcDbLine
 10
1348.59085051536
 20
-3413.501904147466
 30
0.0
 11
1348.590850515359
 21
-3430.397160461189
 31
0.0
  0
LINE
  5
18090
330
18
100
AcDbEntity
  8
0
100
AcDbLine
 10
1341.564673567056
 20
-3440.422660915243
 30
0.0
 11
1344.590850515364
 21
-3440.501904147466
 31
0.0
  0
LINE
  5
18091
330
18
100
AcDbEntity
  8
0
100
AcDbLine
 10
1345.590850515364
 20
-3260.501904147466
 30
0.0
 11
1345.603938989517
 21
-3260.501561413708
 31
0.0
  0
LINE
  5
18092
330
18
100
AcDbEntity
  8
0
100
AcDbLine
 10
1344.590850515364
 20
-3246.501904147466
 30
0.0
 11
1397.590850515364
 21
-3246.501904147466
 31
0.0
  0
LINE
  5
18093
330
18
100
AcDbEntity
  8
0
100
AcDbLine
 10
1344.590850515364
 20
-3256.501904147466
 30
0.0
 11
1345.590850515364
 21
-3256.528090069035
 31
0.0
  0
LINE
  5
18094
330
18
100
AcDbEntity
  8
0
100
AcDbLine
 10
1344.590850515364
 20
-3430.501904147466
 30
0.0
 11
1348.590850515359
 21
-3430.397160461189
 31
0.0
  0
LINE
  5
18095
330
18
100
AcDbEntity
  8
0
100
AcDbLine
 10
1344.590850515364
 20
-3440.501904147466
 30
0.0
 11
1367.490850515364
 21
-3440.501904147466
 31
0.0
  0
CIRCLE
  5
18096
330
18
100
AcDbEntity
  8
0
100
AcDbCircle
 10
1369.590850515364
 20
-3251.501904147465
 30
0.0
 40
2.1
  0
ARC
  5
18097
330
18
100
AcDbEntity
  8
0
100
AcDbCircle
 10
1369.590850515364
 20
-3251.501904147465
 30
0.0
 40
5.5
100
AcDbArc
 50
180.0
 51
245.3800226713519
  0
ARC
  5
18098
330
18
100
AcDbEntity
  8
0
100
AcDbCircle
 10
1369.590850515364
 20
-3435.501904147466
 30
0.0
 40
5.5
100
AcDbArc
 50
0.0
 51
65.3800226713519
  0
ARC
  5
18099
330
18
100
AcDbEntity
  8
0
100
AcDbCircle
 10
1369.590850515364
 20
-3435.501904147466
 30
0.0
 40
2.1
100
AcDbArc
 50
0.0
 51
180.0
  0
LINE
  5
1809A
330
18
100
AcDbEntity
  8
0
100
AcDbLine
 10
1371.690850515364
 20
-3440.501904147466
 30
0.0
 11
1375.090850515363
 21
-3440.501904147466
 31
0.0
  0
LINE
  5
1809B
330
18
100
AcDbEntity
  8
0
100
AcDbLine
 10
1375.090850515364
 20
-3251.501904147465
 30
0.0
 11
1375.090850515364
 21
-3246.501904147466
 31
0.0
  0
LINE
  5
1809C
330
18
100
AcDbEntity
  8
0
100
AcDbLine
 10
1364.090850515364
 20
-3251.501904147465
 30
0.0
 11
1364.090850515364
 21
-3246.501904147466
 31
0.0
  0
LINE
  5
1809D
330
18
100
AcDbEntity
  8
0
100
AcDbLine
 10
1364.090850515364
 20
-3435.501904147466
 30
0.0
 11
1364.090850515364
 21
-3440.501904147466
 31
0.0
  0
LINE
  5
1809E
330
18
100
AcDbEntity
  8
0
100
AcDbLine
 10
1371.690850515364
 20
-3435.501904147466
 30
0.0
 11
1371.690850515364
 21
-3440.501904147466
 31
0.0
  0
LINE
  5
1809F
330
18
100
AcDbEntity
  8
0
100
AcDbLine
 10
1375.090850515364
 20
-3435.501904147466
 30
0.0
 11
1375.090850515364
 21
-3440.501904147466
 31
0.0
  0
CIRCLE
  5
180A0
330
18
100
AcDbEntity
  8
0
100
AcDbCircle
 10
1344.590850515364
 20
-3415.501904147466
 30
0.0
 40
2.0
  0
CIRCLE
  5
180A1
330
18
100
AcDbEntity
  8
0
100
AcDbCircle
 10
1344.590850515364
 20
-3415.501904147466
 30
0.0
 40
1.6
  0
CIRCLE
  5
180A2
330
18
100
AcDbEntity
  8
0
100
AcDbCircle
 10
1344.590850515364
 20
-3425.501904147466
 30
0.0
 40
2.0
  0
CIRCLE
  5
180A3
330
18
100
AcDbEntity
  8
0
100
AcDbCircle
 10
1344.590850515364
 20
-3425.501904147466
 30
0.0
 40
1.6
  0
ARC
  5
180A4
330
18
100
AcDbEntity
  8
0
100
AcDbCircle
 10
1341.590850515364
 20
-3247.580804704664
 30
0.0
 40
1.0
100
AcDbArc
 50
91.50000000000281
 51
180.0
  0
ARC
  5
180A5
330
18
100
AcDbEntity
  8
0
100
AcDbCircle
 10
1397.590850515364
 20
-3247.501904147465
 30
0.0
 40
1.0
100
AcDbArc
 50
0.0
 51
90.0
  0
ARC
  5
180A6
330
18
100
AcDbEntity
  8
0
100
AcDbCircle
 10
1341.590850515364
 20
-3439.423003590267
 30
0.0
 40
1.0
100
AcDbArc
 50
180.0
 51
268.4999999999972
  0
ARC
  5
180A7
330
18
100
AcDbEntity
  8
0
100
AcDbCircle
 10
1397.590850515364
 20
-3439.501904147466
 30
0.0
 40
1.0
100
AcDbArc
 50
270.0
 51
0.0
  0
ARC
  5
180A8
330
18
100
AcDbEntity
  8
0
100
AcDbCircle
 10
1341.090850515364
 20
-3257.093726269203
 30
0.0
 40
0.5
100
AcDbArc
 50
91.50000000000281
 51
180.0
  0
ARC
  5
180A9
330
18
100
AcDbEntity
  8
0
100
AcDbCircle
 10
1341.090850515364
 20
-3429.910082025728
 30
0.0
 40
0.5
100
AcDbArc
 50
180.0
 51
268.4999999999972
  0
LINE
  5
180AA
330
18
100
AcDbEntity
  8
0
100
AcDbLine
 10
1346.590850515363
 20
-3430.501904147466
 30
0.0
 11
1398.590850515364
 21
-3430.501904147466
 31
0.0
  0
LINE
  5
180AB
330
18
100
AcDbEntity
  8
0
100
AcDbLine
 10
1346.590850515364
 20
-3257.001904147466
 30
0.0
 11
1345.590850515364
 21
-3257.001904147466
 31
0.0
  0
LINE
  5
180AC
330
18
100
AcDbEntity
  8
0
100
AcDbLine
 10
1346.590850515364
 20
-3256.501904147466
 30
0.0
 11
1346.590850515363
 21
-3409.120123687428
 31
0.0
  0
LINE
  5
180AD
330
18
100
AcDbEntity
  8
0
100
AcDbLine
 10
1346.590850515364
 20
-3256.501904147466
 30
0.0
 11
1398.590850515364
 21
-3256.501904147466
 31
0.0
  0
ARC
  5
180AE
330
18
100
AcDbEntity
  8
0
100
AcDbCircle
 10
1344.890850515364
 20
-3413.501904147466
 30
0.0
 40
4.699999999995999
100
AcDbArc
 50
0.0
 51
68.79523363710617
  0
LINE
  5
180AF
330
18
100
AcDbEntity
  8
0
100
AcDbLine
 10
1349.59085051536
 20
-3413.501904147466
 30
0.0
 11
1349.590850515359
 21
-3430.501904147466
 31
0.0
  0
LINE
  5
180B0
330
18
100
AcDbEntity
  8
0
100
AcDbLine
 10
1349.590850515359
 20
-3430.001904147466
 30
0.0
 11
1348.590850515359
 21
-3430.001904147466
 31
0.0
  0
LINE
  5
180B1
330
18
100
AcDbEntity
  8
0
100
AcDbLine
 10
1396.590850515364
 20
-3428.501904147466
 30
0.0
 11
1396.590850515364
 21
-3258.501904147466
 31
0.0
  0
LINE
  5
180B2
330
18
100
AcDbEntity
  8
0
100
AcDbLine
 10
1396.590850515364
 20
-3258.501904147466
 30
0.0
 11
1348.590850515364
 21
-3258.501904147466
 31
0.0
  0
ARC
  5
180B3
330
18
100
AcDbEntity
  8
0
100
AcDbCircle
 10
1344.890850515364
 20
-3413.501904147466
 30
0.0
 40
6.699999999996
100
AcDbArc
 50
0.0
 51
56.47925960399649
  0
LINE
  5
180B4
330
18
100
AcDbEntity
  8
0
100
AcDbLine
 10
1351.59085051536
 20
-3413.501904147466
 30
0.0
 11
1351.590850515359
 21
-3428.501904147466
 31
0.0
  0
LINE
  5
180B5
330
18
100
AcDbEntity
  8
0
100
AcDbLine
 10
1396.590850515364
 20
-3428.501904147466
 30
0.0
 11
1351.590850515359
 21
-3428.501904147466
 31
0.0
  0
LINE
  5
180B6
330
18
100
AcDbEntity
  8
0
100
AcDbLine
 10
1348.590850515364
 20
-3258.501904147466
 30
0.0
 11
1348.590850515363
 21
-3407.916208129962
 31
0.0
  0
LINE
  5
180B7
330
18
100
AcDbEntity
  8
0
100
AcDbLine
 10
1398.590850515364
 20
-3430.501904147466
 30
0.0
 11
1398.590850515364
 21
-3256.501904147466
 31
0.0
  0
LINE
  5
180B8
330
18
100
AcDbEntity
  8
0
100
AcDbLine
 10
1345.590850515364
 20
-3409.868723722552
 30
0.0
 11
1345.590850515364
 21
-3257.001904147466
 31
0.0
  0
LINE
  5
180B9
330
18
100
AcDbEntity
  8
0
100
AcDbLine
 10
1348.59085051536
 20
-3413.501904147466
 30
0.0
 11
1348.590850515359
 21
-3430.001904147466
 31
0.0
  0
ARC
  5
180BA
330
18
100
AcDbEntity
  8
0
100
AcDbCircle
 10
1344.890850515364
 20
-3413.501904147466
 30
0.0
 40
3.699999999995999
100
AcDbArc
 50
0.0
 51
79.09453000325761
  0
LINE
  5
180BB
330
18
100
AcDbEntity
  8
0
100
AcDbLine
 10
1346.590850515362
 20
-3430.449532304328
 30
0.0
 11
1346.590850515363
 21
-3430.501904147466
 31
0.0
  0
LINE
  5
180C8
330
18
100
AcDbEntity
  8
0
100
AcDbLine
 10
1365.790850637281
 20
-3351.30190430681
 30
0.0
 11
1365.790850637281
 21
-3354.90190430681
 31
0.0
  0
LINE
  5
180C9
330
18
100
AcDbEntity
  8
0
100
AcDbLine
 10
1364.190850637281
 20
-3340.001904306809
 30
0.0
 11
1364.190850637281
 21
-3351.30190430681
 31
0.0
  0
LINE
  5
180CB
330
18
100
AcDbEntity
  8
0
100
AcDbLine
 10
1364.190850637281
 20
-3371.90190430681
 30
0.0
 11
1365.790850637281
 21
-3371.90190430681
 31
0.0
  0
LINE
  5
180CC
330
18
100
AcDbEntity
  8
0
100
AcDbLine
 10
1364.190850637281
 20
-3354.90190430681
 30
0.0
 11
1365.790850637281
 21
-3354.90190430681
 31
0.0
  0
LINE
  5
180CD
330
18
100
AcDbEntity
  8
0
100
AcDbLine
 10
1364.190850637281
 20
-3351.30190430681
 30
0.0
 11
1365.790850637281
 21
-3351.30190430681
 31
0.0
  0
LINE
  5
180CE
330
18
100
AcDbEntity
  8
0
100
AcDbLine
 10
1364.190850637281
 20
-3368.30190430681
 30
0.0
 11
1365.790850637281
 21
-3368.30190430681
 31
0.0
  0
LINE
  5
180CF
330
18
100
AcDbEntity
  8
0
100
AcDbLine
 10
1365.790850637281
 20
-3368.30190430681
 30
0.0
 11
1365.790850637281
 21
-3371.90190430681
 31
0.0
  0
LINE
  5
180D0
330
18
100
AcDbEntity
  8
0
100
AcDbLine
 10
1364.190850637281
 20
-3354.90190430681
 30
0.0
 11
1364.190850637281
 21
-3368.30190430681
 31
0.0
  0
LINE
  5
180D3
330
18
100
AcDbEntity
  8
0
100
AcDbLine
 10
1353.590850637281
 20
-3340.001904306809
 30
0.0
 11
1353.590850637281
 21
-3426.30190430681
 31
0.0
  0
LINE
  5
180D5
330
18
100
AcDbEntity
  8
0
100
AcDbLine
 10
1363.490850637281
 20
-3272.40190430681
 30
0.0
 11
1363.490850637281
 21
-3280.40190430681
 31
0.0
  0
LINE
  5
180DA
330
18
100
AcDbEntity
  8
0
100
AcDbLine
 10
1363.490850637281
 20
-3280.40190430681
 30
0.0
 11
1366.490850637281
 21
-3280.40190430681
 31
0.0
  0
LINE
  5
180DE
330
18
100
AcDbEntity
  8
0
100
AcDbLine
 10
1366.490850637281
 20
-3280.40190430681
 30
0.0
 11
1366.490850637281
 21
-3288.60190430681
 31
0.0
  0
CIRCLE
  5
180E9
330
18
100
AcDbEntity
  8
0
100
AcDbCircle
 10
1358.840850515363
 20
-3276.671904147466
 30
0.0
 40
1.290290050200999
  0
LINE
  5
180EA
330
18
100
AcDbEntity
  8
0
100
AcDbLine
 10
1362.590850515363
 20
-3272.921904147466
 30
0.0
 11
1354.690850515363
 21
-3272.921904147466
 31
0.0
  0
LINE
  5
180EB
330
18
100
AcDbEntity
  8
0
100
AcDbLine
 10
1362.590850515363
 20
-3280.421904147465
 30
0.0
 11
1354.690850515363
 21
-3280.421904147465
 31
0.0
  0
LINE
  5
180EC
330
18
100
AcDbEntity
  8
0
100
AcDbLine
 10
1362.590850515363
 20
-3280.421904147465
 30
0.0
 11
1362.590850515363
 21
-3272.921904147466
 31
0.0
  0
LINE
  5
180ED
330
18
100
AcDbEntity
  8
0
100
AcDbLine
 10
1355.090850515363
 20
-3280.421904147465
 30
0.0
 11
1355.090850515363
 21
-3272.921904147466
 31
0.0
  0
LINE
  5
180EE
330
18
100
AcDbEntity
  8
0
100
AcDbLine
 10
1354.690850515363
 20
-3273.831904147466
 30
0.0
 11
1354.690850515363
 21
-3272.921904147466
 31
0.0
  0
LINE
  5
180EF
330
18
100
AcDbEntity
  8
0
100
AcDbLine
 10
1354.690850515364
 20
-3273.831904147465
 30
0.0
 11
1355.090850515363
 21
-3273.831904147465
 31
0.0
  0
LINE
  5
180F0
330
18
100
AcDbEntity
  8
0
100
AcDbLine
 10
1354.690850515364
 20
-3274.431904147465
 30
0.0
 11
1355.090850515363
 21
-3274.431904147465
 31
0.0
  0
LINE
  5
180F1
330
18
100
AcDbEntity
  8
0
100
AcDbLine
 10
1354.690850515364
 20
-3279.511904147465
 30
0.0
 11
1355.090850515363
 21
-3279.511904147465
 31
0.0
  0
LINE
  5
180F2
330
18
100
AcDbEntity
  8
0
100
AcDbLine
 10
1354.690850515364
 20
-3278.911904147465
 30
0.0
 11
1355.090850515363
 21
-3278.911904147465
 31
0.0
  0
LINE
  5
180F3
330
18
100
AcDbEntity
  8
0
100
AcDbLine
 10
1354.690850515364
 20
-3276.371904147465
 30
0.0
 11
1355.090850515363
 21
-3276.371904147465
 31
0.0
  0
LINE
  5
180F4
330
18
100
AcDbEntity
  8
0
100
AcDbLine
 10
1354.690850515364
 20
-3276.971904147465
 30
0.0
 11
1355.090850515363
 21
-3276.971904147465
 31
0.0
  0
LINE
  5
180F5
330
18
100
AcDbEntity
  8
0
100
AcDbLine
 10
1354.690850515363
 20
-3280.421904147465
 30
0.0
 11
1354.690850515363
 21
-3279.511904147465
 31
0.0
  0
LINE
  5
180F6
330
18
100
AcDbEntity
  8
0
100
AcDbLine
 10
1354.690850515363
 20
-3304.461904147466
 30
0.0
 11
1361.940850515364
 21
-3304.461904147466
 31
0.0
  0
CIRCLE
  5
180F7
330
18
100
AcDbEntity
  8
0
100
AcDbCircle
 10
1358.190850515363
 20
-3291.511904147466
 30
0.0
 40
1.0
  0
CIRCLE
  5
180F8
330
18
100
AcDbEntity
  8
0
100
AcDbCircle
 10
1358.190850515363
 20
-3295.011904147466
 30
0.0
 40
1.0
  0
CIRCLE
  5
180F9
330
18
100
AcDbEntity
  8
0
100
AcDbCircle
 10
1358.190850515363
 20
-3298.511904147466
 30
0.0
 40
1.0
  0
CIRCLE
  5
180FA
330
18
100
AcDbEntity
  8
0
100
AcDbCircle
 10
1358.190850515363
 20
-3302.011904147466
 30
0.0
 40
1.0
  0
LINE
  5
180FB
330
18
100
AcDbEntity
  8
0
100
AcDbLine
 10
1361.940850515364
 20
-3304.461904147466
 30
0.0
 11
1361.940850515364
 21
-3289.061904147466
 31
0.0
  0
LINE
  5
180FC
330
18
100
AcDbEntity
  8
0
100
AcDbLine
 10
1361.940850515364
 20
-3289.061904147466
 30
0.0
 11
1354.690850515363
 21
-3289.061904147466
 31
0.0
  0
LINE
  5
180FD
330
18
100
AcDbEntity
  8
0
100
AcDbLine
 10
1354.690850515363
 20
-3289.061904147466
 30
0.0
 11
1354.690850515363
 21
-3304.461904147466
 31
0.0
  0
LINE
  5
180FE
330
18
100
AcDbEntity
  8
0
100
AcDbLine
 10
1364.890850515364
 20
-3286.611904147466
 30
0.0
 11
1360.115355586372
 21
-3286.611904147466
 31
0.0
  0
LINE
  5
180FF
330
18
100
AcDbEntity
  8
0
100
AcDbLine
 10
1364.890850515364
 20
-3282.871904147466
 30
0.0
 11
1360.115355586372
 21
-3282.871904147466
 31
0.0
  0
LINE
  5
18100
330
18
100
AcDbEntity
  8
0
100
AcDbLine
 10
1364.890850515364
 20
-3288.061904147466
 30
0.0
 11
1354.690850515364
 21
-3288.061904147466
 31
0.0
  0
LINE
  5
18101
330
18
100
AcDbEntity
  8
0
100
AcDbLine
 10
1364.890850515364
 20
-3281.421904147466
 30
0.0
 11
1354.690850515364
 21
-3281.421904147466
 31
0.0
  0
LINE
  5
18102
330
18
100
AcDbEntity
  8
0
100
AcDbLine
 10
1364.890850515364
 20
-3284.071904147466
 30
0.0
 11
1361.890850515364
 21
-3284.071904147466
 31
0.0
  0
LINE
  5
18103
330
18
100
AcDbEntity
  8
0
100
AcDbLine
 10
1364.890850515364
 20
-3285.411904147466
 30
0.0
 11
1361.890850515364
 21
-3285.411904147466
 31
0.0
  0
LINE
  5
18104
330
18
100
AcDbEntity
  8
0
100
AcDbLine
 10
1364.890850515364
 20
-3286.611904147466
 30
0.0
 11
1361.890850515364
 21
-3286.611904147466
 31
0.0
  0
LINE
  5
18105
330
18
100
AcDbEntity
  8
0
100
AcDbLine
 10
1361.890850515364
 20
-3284.071904147466
 30
0.0
 11
1361.890850515364
 21
-3282.871904147466
 31
0.0
  0
LINE
  5
18106
330
18
100
AcDbEntity
  8
0
100
AcDbLine
 10
1361.890850515364
 20
-3286.611904147466
 30
0.0
 11
1361.890850515364
 21
-3285.411904147466
 31
0.0
  0
LINE
  5
18107
330
18
100
AcDbEntity
  8
0
100
AcDbLine
 10
1363.390850515364
 20
-3285.411904147466
 30
0.0
 11
1363.390850515364
 21
-3284.071904147466
 31
0.0
  0
LINE
  5
18108
330
18
100
AcDbEntity
  8
0
100
AcDbLine
 10
1363.890850515364
 20
-3284.071904147466
 30
0.0
 11
1363.890850515364
 21
-3282.871904147466
 31
0.0
  0
LINE
  5
18109
330
18
100
AcDbEntity
  8
0
100
AcDbLine
 10
1363.890850515364
 20
-3286.611904147466
 30
0.0
 11
1363.890850515364
 21
-3285.411904147466
 31
0.0
  0
LINE
  5
1810A
330
18
100
AcDbEntity
  8
0
100
AcDbLine
 10
1364.890850515364
 20
-3288.061904147466
 30
0.0
 11
1364.890850515364
 21
-3281.421904147466
 31
0.0
  0
LINE
  5
1810B
330
18
100
AcDbEntity
  8
0
100
AcDbLine
 10
1360.115355586372
 20
-3282.871904147466
 30
0.0
 11
1360.115355586372
 21
-3286.611904147466
 31
0.0
  0
LINE
  5
1810C
330
18
100
AcDbEntity
  8
0
100
AcDbLine
 10
1354.690850515364
 20
-3288.061904147466
 30
0.0
 11
1354.690850515364
 21
-3281.421904147466
 31
0.0
  0
LINE
  5
1810D
330
18
100
AcDbEntity
  8
0
100
AcDbLine
 10
1354.690850515364
 20
-3317.841904147466
 30
0.0
 11
1356.190850515363
 21
-3317.841904147466
 31
0.0
  0
LINE
  5
1810E
330
18
100
AcDbEntity
  8
0
100
AcDbLine
 10
1354.690850515364
 20
-3322.921904147466
 30
0.0
 11
1356.190850515363
 21
-3322.921904147466
 31
0.0
  0
LINE
  5
1810F
330
18
100
AcDbEntity
  8
0
100
AcDbLine
 10
1354.690850515364
 20
-3328.001904147466
 30
0.0
 11
1356.190850515363
 21
-3328.001904147466
 31
0.0
  0
LINE
  5
18110
330
18
100
AcDbEntity
  8
0
100
AcDbLine
 10
1354.690850515363
 20
-3313.341904147466
 30
0.0
 11
1356.190850515363
 21
-3313.341904147466
 31
0.0
  0
LINE
  5
18111
330
18
100
AcDbEntity
  8
0
100
AcDbLine
 10
1354.690850515363
 20
-3334.501904147466
 30
0.0
 11
1356.190850515363
 21
-3334.501904147466
 31
0.0
  0
LINE
  5
18112
330
18
100
AcDbEntity
  8
0
100
AcDbLine
 10
1360.190850515363
 20
-3318.341904147466
 30
0.0
 11
1361.190850515363
 21
-3318.341904147466
 31
0.0
  0
LINE
  5
18113
330
18
100
AcDbEntity
  8
0
100
AcDbLine
 10
1360.190850515363
 20
-3323.421904147465
 30
0.0
 11
1361.190850515363
 21
-3323.421904147465
 31
0.0
  0
LINE
  5
18114
330
18
100
AcDbEntity
  8
0
100
AcDbLine
 10
1360.190850515363
 20
-3328.501904147466
 30
0.0
 11
1361.190850515363
 21
-3328.501904147466
 31
0.0
  0
LINE
  5
18115
330
18
100
AcDbEntity
  8
0
100
AcDbLine
 10
1356.190850515363
 20
-3310.341904147466
 30
0.0
 11
1357.190850515364
 21
-3310.341904147466
 31
0.0
  0
LINE
  5
18116
330
18
100
AcDbEntity
  8
0
100
AcDbLine
 10
1357.190850515364
 20
-3310.341904147466
 30
0.0
 11
1357.190850515364
 21
-3334.501904147466
 31
0.0
  0
LINE
  5
18117
330
18
100
AcDbEntity
  8
0
100
AcDbLine
 10
1364.675850515363
 20
-3310.341904147466
 30
0.0
 11
1364.175850515363
 21
-3310.341904147466
 31
0.0
  0
LINE
  5
18118
330
18
100
AcDbEntity
  8
0
100
AcDbLine
 10
1364.175850515363
 20
-3310.341904147466
 30
0.0
 11
1364.175850515363
 21
-3334.501904147466
 31
0.0
  0
LINE
  5
18119
330
18
100
AcDbEntity
  8
0
100
AcDbLine
 10
1365.535850515363
 20
-3310.341904147466
 30
0.0
 11
1365.535850515363
 21
-3334.501904147466
 31
0.0
  0
LINE
  5
1811A
330
18
100
AcDbEntity
  8
0
100
AcDbLine
 10
1356.190850515363
 20
-3310.341904147466
 30
0.0
 11
1356.190850515363
 21
-3311.341904147466
 31
0.0
  0
LINE
  5
1811B
330
18
100
AcDbEntity
  8
0
100
AcDbLine
 10
1357.190850515364
 20
-3311.341904147466
 30
0.0
 11
1364.175850515363
 21
-3311.341904147466
 31
0.0
  0
LINE
  5
1811C
330
18
100
AcDbEntity
  8
0
100
AcDbLine
 10
1356.190850515363
 20
-3334.501904147466
 30
0.0
 11
1356.190850515363
 21
-3333.501904147466
 31
0.0
  0
LINE
  5
1811D
330
18
100
AcDbEntity
  8
0
100
AcDbLine
 10
1357.190850515364
 20
-3333.501904147466
 30
0.0
 11
1364.175850515363
 21
-3333.501904147466
 31
0.0
  0
LINE
  5
1811E
330
18
100
AcDbEntity
  8
0
100
AcDbLine
 10
1356.190850515363
 20
-3334.501904147466
 30
0.0
 11
1365.535850515363
 21
-3334.501904147466
 31
0.0
  0
LINE
  5
1811F
330
18
100
AcDbEntity
  8
0
100
AcDbLine
 10
1365.535850515363
 20
-3310.341904147466
 30
0.0
 11
1356.190850515363
 21
-3310.341904147466
 31
0.0
  0
LINE
  5
18120
330
18
100
AcDbEntity
  8
0
100
AcDbLine
 10
1356.190850515363
 20
-3310.341904147466
 30
0.0
 11
1356.190850515363
 21
-3334.501904147466
 31
0.0
  0
LINE
  5
18121
330
18
100
AcDbEntity
  8
0
100
AcDbLine
 10
1361.190850515363
 20
-3318.341904147466
 30
0.0
 11
1361.190850515363
 21
-3316.341904147466
 31
0.0
  0
LINE
  5
18122
330
18
100
AcDbEntity
  8
0
100
AcDbLine
 10
1361.190850515363
 20
-3316.341904147466
 30
0.0
 11
1360.190850515363
 21
-3316.341904147466
 31
0.0
  0
LINE
  5
18123
330
18
100
AcDbEntity
  8
0
100
AcDbLine
 10
1360.190850515363
 20
-3316.341904147466
 30
0.0
 11
1360.190850515363
 21
-3318.341904147466
 31
0.0
  0
LINE
  5
18124
330
18
100
AcDbEntity
  8
0
100
AcDbLine
 10
1361.190850515363
 20
-3323.421904147465
 30
0.0
 11
1361.190850515363
 21
-3321.421904147466
 31
0.0
  0
LINE
  5
18125
330
18
100
AcDbEntity
  8
0
100
AcDbLine
 10
1361.190850515363
 20
-3321.421904147466
 30
0.0
 11
1360.190850515363
 21
-3321.421904147466
 31
0.0
  0
LINE
  5
18126
330
18
100
AcDbEntity
  8
0
100
AcDbLine
 10
1360.190850515363
 20
-3321.421904147466
 30
0.0
 11
1360.190850515363
 21
-3323.421904147465
 31
0.0
  0
LINE
  5
18127
330
18
100
AcDbEntity
  8
0
100
AcDbLine
 10
1361.190850515363
 20
-3328.501904147466
 30
0.0
 11
1361.190850515363
 21
-3326.501904147466
 31
0.0
  0
LINE
  5
18128
330
18
100
AcDbEntity
  8
0
100
AcDbLine
 10
1361.190850515363
 20
-3326.501904147466
 30
0.0
 11
1360.190850515363
 21
-3326.501904147466
 31
0.0
  0
LINE
  5
18129
330
18
100
AcDbEntity
  8
0
100
AcDbLine
 10
1360.190850515363
 20
-3326.501904147466
 30
0.0
 11
1360.190850515363
 21
-3328.501904147466
 31
0.0
  0
LINE
  5
1812A
330
18
100
AcDbEntity
  8
0
100
AcDbLine
 10
1356.190850515363
 20
-3334.501904147466
 30
0.0
 11
1356.190850515363
 21
-3331.501904147466
 31
0.0
  0
LINE
  5
1812B
330
18
100
AcDbEntity
  8
0
100
AcDbLine
 10
1356.190850515363
 20
-3331.501904147466
 30
0.0
 11
1354.690850515363
 21
-3331.501904147466
 31
0.0
  0
LINE
  5
1812C
330
18
100
AcDbEntity
  8
0
100
AcDbLine
 10
1354.690850515363
 20
-3331.501904147466
 30
0.0
 11
1354.690850515363
 21
-3334.501904147466
 31
0.0
  0
LINE
  5
1812D
330
18
100
AcDbEntity
  8
0
100
AcDbLine
 10
1356.190850515363
 20
-3328.001904147466
 30
0.0
 11
1356.190850515363
 21
-3327.001904147466
 31
0.0
  0
LINE
  5
1812E
330
18
100
AcDbEntity
  8
0
100
AcDbLine
 10
1356.190850515363
 20
-3327.001904147466
 30
0.0
 11
1354.690850515364
 21
-3327.001904147466
 31
0.0
  0
LINE
  5
1812F
330
18
100
AcDbEntity
  8
0
100
AcDbLine
 10
1356.190850515363
 20
-3322.921904147466
 30
0.0
 11
1356.190850515363
 21
-3321.921904147465
 31
0.0
  0
LINE
  5
18130
330
18
100
AcDbEntity
  8
0
100
AcDbLine
 10
1356.190850515363
 20
-3321.921904147465
 30
0.0
 11
1354.690850515364
 21
-3321.921904147465
 31
0.0
  0
LINE
  5
18131
330
18
100
AcDbEntity
  8
0
100
AcDbLine
 10
1356.190850515363
 20
-3317.841904147466
 30
0.0
 11
1356.190850515363
 21
-3316.841904147466
 31
0.0
  0
LINE
  5
18132
330
18
100
AcDbEntity
  8
0
100
AcDbLine
 10
1356.190850515363
 20
-3316.841904147466
 30
0.0
 11
1354.690850515364
 21
-3316.841904147466
 31
0.0
  0
LINE
  5
18133
330
18
100
AcDbEntity
  8
0
100
AcDbLine
 10
1356.190850515363
 20
-3313.341904147466
 30
0.0
 11
1356.190850515363
 21
-3310.341904147466
 31
0.0
  0
LINE
  5
18134
330
18
100
AcDbEntity
  8
0
100
AcDbLine
 10
1356.190850515363
 20
-3310.341904147466
 30
0.0
 11
1354.690850515363
 21
-3310.341904147466
 31
0.0
  0
LINE
  5
18135
330
18
100
AcDbEntity
  8
0
100
AcDbLine
 10
1354.690850515363
 20
-3310.341904147466
 30
0.0
 11
1354.690850515363
 21
-3313.341904147466
 31
0.0
  0
LINE
  5
18136
330
18
100
AcDbEntity
  8
0
100
AcDbLine
 10
1354.690850515363
 20
-3425.501904147466
 30
0.0
 11
1363.290850515363
 21
-3425.501904147466
 31
0.0
  0
CIRCLE
  5
18137
330
18
100
AcDbEntity
  8
0
100
AcDbCircle
 10
1358.690850515363
 20
-3417.881904147466
 30
0.0
 40
2.0
  0
CIRCLE
  5
18138
330
18
100
AcDbEntity
  8
0
100
AcDbCircle
 10
1358.690850515363
 20
-3412.801904147466
 30
0.0
 40
2.0
  0
CIRCLE
  5
18139
330
18
100
AcDbEntity
  8
0
100
AcDbCircle
 10
1358.690850515363
 20
-3412.801904147466
 30
0.0
 40
2.0
  0
CIRCLE
  5
1813A
330
18
100
AcDbEntity
  8
0
100
AcDbCircle
 10
1358.690850515363
 20
-3407.721904147465
 30
0.0
 40
2.0
  0
CIRCLE
  5
1813B
330
18
100
AcDbEntity
  8
0
100
AcDbCircle
 10
1358.690850515363
 20
-3407.721904147465
 30
0.0
 40
2.0
  0
CIRCLE
  5
1813C
330
18
100
AcDbEntity
  8
0
100
AcDbCircle
 10
1358.690850515363
 20
-3397.561904147465
 30
0.0
 40
2.0
  0
CIRCLE
  5
1813D
330
18
100
AcDbEntity
  8
0
100
AcDbCircle
 10
1358.690850515363
 20
-3397.561904147465
 30
0.0
 40
2.0
  0
CIRCLE
  5
1813E
330
18
100
AcDbEntity
  8
0
100
AcDbCircle
 10
1358.690850515363
 20
-3392.481904147465
 30
0.0
 40
2.0
  0
CIRCLE
  5
1813F
330
18
100
AcDbEntity
  8
0
100
AcDbCircle
 10
1358.690850515363
 20
-3422.631904147466
 30
0.0
 40
1.0
  0
CIRCLE
  5
18140
330
18
100
AcDbEntity
  8
0
100
AcDbCircle
 10
1358.690850515363
 20
-3422.631904147466
 30
0.0
 40
1.5
  0
CIRCLE
  5
18141
330
18
100
AcDbEntity
  8
0
100
AcDbCircle
 10
1358.690850515363
 20
-3387.731904147464
 30
0.0
 40
1.0
  0
CIRCLE
  5
18142
330
18
100
AcDbEntity
  8
0
100
AcDbCircle
 10
1358.690850515363
 20
-3387.731904147464
 30
0.0
 40
1.5
  0
CIRCLE
  5
18143
330
18
100
AcDbEntity
  8
0
100
AcDbCircle
 10
1358.690850515363
 20
-3402.641904147467
 30
0.0
 40
2.0
  0
LINE
  5
18144
330
18
100
AcDbEntity
  8
0
100
AcDbLine
 10
1363.290850515363
 20
-3425.501904147466
 30
0.0
 11
1363.290850515363
 21
-3384.861904147466
 31
0.0
  0
LINE
  5
18145
330
18
100
AcDbEntity
  8
0
100
AcDbLine
 10
1363.290850515363
 20
-3384.861904147466
 30
0.0
 11
1354.690850515363
 21
-3384.861904147466
 31
0.0
  0
LINE
  5
18146
330
18
100
AcDbEntity
  8
0
100
AcDbLine
 10
1354.690850515363
 20
-3384.861904147466
 30
0.0
 11
1354.690850515363
 21
-3425.501904147466
 31
0.0
  0
LINE
  5
18147
330
18
100
AcDbEntity
  8
0
100
AcDbLine
 10
1388.040850515364
 20
-3407.385621004874
 30
0.0
 11
1388.040850515364
 21
-3392.418187290057
 31
0.0
  0
LINE
  5
18148
330
18
100
AcDbEntity
  8
0
100
AcDbLine
 10
1381.740850515364
 20
-3391.801904147466
 30
0.0
 11
1381.740850515364
 21
-3408.001904147466
 31
0.0
  0
LINE
  5
18149
330
18
100
AcDbEntity
  8
0
100
AcDbLine
 10
1383.290850515364
 20
-3391.301904147466
 30
0.0
 11
1383.290850515364
 21
-3408.501904147466
 31
0.0
  0
LINE
  5
1814A
330
18
100
AcDbEntity
  8
0
100
AcDbLine
 10
1386.490850515364
 20
-3408.501904147466
 30
0.0
 11
1386.490850515364
 21
-3391.301904147466
 31
0.0
  0
LINE
  5
1814B
330
18
100
AcDbEntity
  8
0
100
AcDbLine
 10
1380.290850515364
 20
-3382.301904147466
 30
0.0
 11
1380.290850515364
 21
-3417.501904147466
 31
0.0
  0
LINE
  5
1814C
330
18
100
AcDbEntity
  8
0
100
AcDbLine
 10
1389.390850515364
 20
-3418.501904147466
 30
0.0
 11
1389.390850515364
 21
-3381.301904147466
 31
0.0
  0
LINE
  5
1814D
330
18
100
AcDbEntity
  8
0
100
AcDbLine
 10
1389.690850515364
 20
-3411.101904147466
 30
0.0
 11
1389.690850515364
 21
-3418.201904147466
 31
0.0
  0
CIRCLE
  5
1814E
330
18
100
AcDbEntity
  8
0
100
AcDbCircle
 10
1384.890850515364
 20
-3415.531904147466
 30
0.0
 40
1.399999999999999
  0
ARC
  5
1814F
330
18
100
AcDbEntity
  8
0
100
AcDbCircle
 10
1389.390850515364
 20
-3418.201904147466
 30
0.0
 40
0.3
100
AcDbArc
 50
270.0
 51
0.0
  0
LINE
  5
18150
330
18
100
AcDbEntity
  8
0
100
AcDbLine
 10
1381.090850515364
 20
-3418.501904147466
 30
0.0
 11
1389.390850515364
 21
-3418.501904147466
 31
0.0
  0
ARC
  5
18151
330
18
100
AcDbEntity
  8
0
100
AcDbCircle
 10
1381.090850515364
 20
-3418.001904147466
 30
0.0
 40
0.5
100
AcDbArc
 50
180.0
 51
270.0
  0
LINE
  5
18152
330
18
100
AcDbEntity
  8
0
100
AcDbLine
 10
1380.590850515364
 20
-3417.501904147466
 30
0.0
 11
1380.590850515364
 21
-3418.001904147466
 31
0.0
  0
LINE
  5
18153
330
18
100
AcDbEntity
  8
0
100
AcDbLine
 10
1380.290850515364
 20
-3417.501904147466
 30
0.0
 11
1389.390850515364
 21
-3417.501904147466
 31
0.0
  0
ARC
  5
18154
330
18
100
AcDbEntity
  8
0
100
AcDbCircle
 10
1386.040850515364
 20
-3407.385621004874
 30
0.0
 40
2.0
100
AcDbArc
 50
284.9999999999944
 51
0.0
  0
LINE
  5
18155
330
18
100
AcDbEntity
  8
0
100
AcDbLine
 10
1384.258488605569
 20
-3409.933755800044
 30
0.0
 11
1386.558488605569
 21
-3409.317472657453
 31
0.0
  0
ARC
  5
18156
330
18
100
AcDbEntity
  8
0
100
AcDbCircle
 10
1383.740850515364
 20
-3408.001904147466
 30
0.0
 40
2.0
100
AcDbArc
 50
180.0
 51
284.9999999999944
  0
LINE
  5
18157
330
18
100
AcDbEntity
  8
0
100
AcDbLine
 10
1383.290850515364
 20
-3408.501904147466
 30
0.0
 11
1386.490850515364
 21
-3408.501904147466
 31
0.0
  0
LINE
  5
18158
330
18
100
AcDbEntity
  8
0
100
AcDbLine
 10
1389.390850515364
 20
-3411.101904147466
 30
0.0
 11
1389.690850515364
 21
-3411.101904147466
 31
0.0
  0
LINE
  5
18159
330
18
100
AcDbEntity
  8
0
100
AcDbLine
 10
1388.040850515364
 20
-3413.501904147466
 30
0.0
 11
1388.040850515364
 21
-3411.101904147466
 31
0.0
  0
LINE
  5
1815A
330
18
100
AcDbEntity
  8
0
100
AcDbLine
 10
1381.740850515364
 20
-3411.101904147466
 30
0.0
 11
1381.740850515364
 21
-3413.501904147466
 31
0.0
  0
LINE
  5
1815B
330
18
100
AcDbEntity
  8
0
100
AcDbLine
 10
1381.740850515364
 20
-3411.101904147466
 30
0.0
 11
1388.040850515364
 21
-3411.101904147466
 31
0.0
  0
LINE
  5
1815C
330
18
100
AcDbEntity
  8
0
100
AcDbLine
 10
1381.740850515364
 20
-3413.001904147466
 30
0.0
 11
1388.040850515364
 21
-3413.001904147466
 31
0.0
  0
LINE
  5
1815D
330
18
100
AcDbEntity
  8
0
100
AcDbLine
 10
1381.740850515364
 20
-3413.501904147466
 30
0.0
 11
1388.040850515364
 21
-3413.501904147466
 31
0.0
  0
ARC
  5
1815E
330
18
100
AcDbEntity
  8
0
100
AcDbCircle
 10
1389.390850515364
 20
-3381.601904147465
 30
0.0
 40
0.3
100
AcDbArc
 50
0.0
 51
90.0
  0
LINE
  5
1815F
330
18
100
AcDbEntity
  8
0
100
AcDbLine
 10
1389.690850515364
 20
-3381.601904147465
 30
0.0
 11
1389.690850515364
 21
-3388.701904147466
 31
0.0
  0
LINE
  5
18160
330
18
100
AcDbEntity
  8
0
100
AcDbLine
 10
1381.090850515364
 20
-3381.301904147466
 30
0.0
 11
1389.390850515364
 21
-3381.301904147465
 31
0.0
  0
ARC
  5
18161
330
18
100
AcDbEntity
  8
0
100
AcDbCircle
 10
1386.040850515364
 20
-3392.418187290057
 30
0.0
 40
2.0
100
AcDbArc
 50
0.0
 51
75.00000000000554
  0
LINE
  5
18162
330
18
100
AcDbEntity
  8
0
100
AcDbLine
 10
1384.258488605569
 20
-3389.870052494888
 30
0.0
 11
1386.558488605569
 21
-3390.486335637479
 31
0.0
  0
ARC
  5
18163
330
18
100
AcDbEntity
  8
0
100
AcDbCircle
 10
1383.740850515364
 20
-3391.801904147466
 30
0.0
 40
2.0
100
AcDbArc
 50
75.00000000000554
 51
180.0
  0
LINE
  5
18164
330
18
100
AcDbEntity
  8
0
100
AcDbLine
 10
1386.490850515364
 20
-3391.301904147466
 30
0.0
 11
1383.290850515364
 21
-3391.301904147465
 31
0.0
  0
ARC
  5
18165
330
18
100
AcDbEntity
  8
0
100
AcDbCircle
 10
1381.090850515364
 20
-3381.801904147466
 30
0.0
 40
0.5
100
AcDbArc
 50
90.0
 51
180.0
  0
LINE
  5
18166
330
18
100
AcDbEntity
  8
0
100
AcDbLine
 10
1380.590850515364
 20
-3381.801904147466
 30
0.0
 11
1380.590850515364
 21
-3382.301904147466
 31
0.0
  0
LINE
  5
18167
330
18
100
AcDbEntity
  8
0
100
AcDbLine
 10
1380.290850515364
 20
-3382.301904147466
 30
0.0
 11
1389.390850515364
 21
-3382.301904147466
 31
0.0
  0
LINE
  5
18168
330
18
100
AcDbEntity
  8
0
100
AcDbLine
 10
1389.390850515364
 20
-3388.701904147466
 30
0.0
 11
1389.690850515364
 21
-3388.701904147466
 31
0.0
  0
LINE
  5
18169
330
18
100
AcDbEntity
  8
0
100
AcDbLine
 10
1388.040850515364
 20
-3388.701904147466
 30
0.0
 11
1388.040850515364
 21
-3386.301904147465
 31
0.0
  0
LINE
  5
1816A
330
18
100
AcDbEntity
  8
0
100
AcDbLine
 10
1381.740850515364
 20
-3386.301904147465
 30
0.0
 11
1381.740850515364
 21
-3388.701904147466
 31
0.0
  0
LINE
  5
1816B
330
18
100
AcDbEntity
  8
0
100
AcDbLine
 10
1381.740850515364
 20
-3388.701904147466
 30
0.0
 11
1388.040850515364
 21
-3388.701904147466
 31
0.0
  0
LINE
  5
1816C
330
18
100
AcDbEntity
  8
0
100
AcDbLine
 10
1381.740850515364
 20
-3386.801904147466
 30
0.0
 11
1388.040850515364
 21
-3386.801904147466
 31
0.0
  0
LINE
  5
1816D
330
18
100
AcDbEntity
  8
0
100
AcDbLine
 10
1381.740850515364
 20
-3386.301904147466
 30
0.0
 11
1388.040850515364
 21
-3386.301904147466
 31
0.0
  0
CIRCLE
  5
1816E
330
18
100
AcDbEntity
  8
0
100
AcDbCircle
 10
1384.890850515364
 20
-3384.271904147466
 30
0.0
 40
1.399999999999999
  0
LINE
  5
1816F
330
18
100
AcDbEntity
  8
0
100
AcDbLine
 10
1389.390850515364
 20
-3396.091904147465
 30
0.0
 11
1389.690850515364
 21
-3396.091904147465
 31
0.0
  0
LINE
  5
18170
330
18
100
AcDbEntity
  8
0
100
AcDbLine
 10
1389.390850515364
 20
-3397.361904147465
 30
0.0
 11
1389.690850515364
 21
-3397.361904147465
 31
0.0
  0
LINE
  5
18171
330
18
100
AcDbEntity
  8
0
100
AcDbLine
 10
1389.390850515364
 20
-3398.631904147465
 30
0.0
 11
1389.690850515364
 21
-3398.631904147465
 31
0.0
  0
LINE
  5
18172
330
18
100
AcDbEntity
  8
0
100
AcDbLine
 10
1389.390850515364
 20
-3399.901904147465
 30
0.0
 11
1389.690850515364
 21
-3399.901904147465
 31
0.0
  0
LINE
  5
18173
330
18
100
AcDbEntity
  8
0
100
AcDbLine
 10
1389.390850515364
 20
-3401.171904147465
 30
0.0
 11
1389.690850515364
 21
-3401.171904147465
 31
0.0
  0
LINE
  5
18174
330
18
100
AcDbEntity
  8
0
100
AcDbLine
 10
1389.390850515364
 20
-3402.441904147465
 30
0.0
 11
1389.690850515364
 21
-3402.441904147465
 31
0.0
  0
LINE
  5
18175
330
18
100
AcDbEntity
  8
0
100
AcDbLine
 10
1389.390850515364
 20
-3403.711904147465
 30
0.0
 11
1389.690850515364
 21
-3403.711904147465
 31
0.0
  0
LINE
  5
18176
330
18
100
AcDbEntity
  8
0
100
AcDbLine
 10
1389.390850515364
 20
-3393.551904147465
 30
0.0
 11
1389.690850515364
 21
-3393.551904147465
 31
0.0
  0
LINE
  5
18177
330
18
100
AcDbEntity
  8
0
100
AcDbLine
 10
1389.390850515364
 20
-3394.821904147465
 30
0.0
 11
1389.690850515364
 21
-3394.821904147465
 31
0.0
  0
LINE
  5
18178
330
18
100
AcDbEntity
  8
0
100
AcDbLine
 10
1389.390850515364
 20
-3396.091904147465
 30
0.0
 11
1389.690850515364
 21
-3396.091904147465
 31
0.0
  0
LINE
  5
18179
330
18
100
AcDbEntity
  8
0
100
AcDbLine
 10
1389.390850515364
 20
-3392.281904147466
 30
0.0
 11
1389.690850515364
 21
-3392.281904147466
 31
0.0
  0
LINE
  5
1817A
330
18
100
AcDbEntity
  8
0
100
AcDbLine
 10
1389.390850515364
 20
-3393.551904147465
 30
0.0
 11
1389.690850515364
 21
-3393.551904147465
 31
0.0
  0
LINE
  5
1817B
330
18
100
AcDbEntity
  8
0
100
AcDbLine
 10
1389.390850515364
 20
-3403.711904147465
 30
0.0
 11
1389.690850515364
 21
-3403.711904147465
 31
0.0
  0
LINE
  5
1817C
330
18
100
AcDbEntity
  8
0
100
AcDbLine
 10
1389.390850515364
 20
-3404.981904147465
 30
0.0
 11
1389.690850515364
 21
-3404.981904147465
 31
0.0
  0
LINE
  5
1817D
330
18
100
AcDbEntity
  8
0
100
AcDbLine
 10
1389.390850515364
 20
-3406.251904147465
 30
0.0
 11
1389.690850515364
 21
-3406.251904147465
 31
0.0
  0
LINE
  5
1817E
330
18
100
AcDbEntity
  8
0
100
AcDbLine
 10
1389.390850515364
 20
-3407.521904147465
 30
0.0
 11
1389.690850515364
 21
-3407.521904147465
 31
0.0
  0
LINE
  5
1817F
330
18
100
AcDbEntity
  8
0
100
AcDbLine
 10
1354.690850515364
 20
-3426.30190430681
 30
0.0
 11
1354.690850515364
 21
-3340.001904306809
 31
0.0
  0
LINE
  5
18180
330
18
100
AcDbEntity
  8
0
100
AcDbLine
 10
1394.038072329209
 20
-3438.501904147466
 30
0.0
 11
1392.023884889023
 21
-3438.501904147466
 31
0.0
  0
LINE
  5
18181
330
18
100
AcDbEntity
  8
0
100
AcDbLine
 10
1377.157816141704
 20
-3438.501904147466
 30
0.0
 11
1375.143628701518
 21
-3438.501904147466
 31
0.0
  0
LINE
  5
18182
330
18
100
AcDbEntity
  8
0
100
AcDbLine
 10
1377.090850515363
 20
-3430.501904147466
 30
0.0
 11
1377.090850515363
 21
-3437.501904147466
 31
0.0
  0
LINE
  5
18183
330
18
100
AcDbEntity
  8
0
100
AcDbLine
 10
1394.090850515363
 20
-3447.001904147466
 30
0.0
 11
1375.090850515363
 21
-3447.001904147466
 31
0.0
  0
ARC
  5
18184
330
18
100
AcDbEntity
  8
0
100
AcDbCircle
 10
1384.590850515363
 20
-3437.501904147466
 30
0.0
 40
7.5
100
AcDbArc
 50
180.0
 51
0.0
  0
ARC
  5
18185
330
18
100
AcDbEntity
  8
0
100
AcDbCircle
 10
1384.590850515363
 20
-3437.501904147466
 30
0.0
 40
9.5
100
AcDbArc
 50
186.0423284190442
 51
353.9576715809299
  0
LINE
  5
18186
330
18
100
AcDbEntity
  8
0
100
AcDbLine
 10
1375.090850515363
 20
-3447.001904147466
 30
0.0
 11
1375.090850515363
 21
-3430.501904147466
 31
0.0
  0
LINE
  5
18187
330
18
100
AcDbEntity
  8
0
100
AcDbLine
 10
1394.090850515363
 20
-3447.001904147466
 30
0.0
 11
1394.090850515363
 21
-3430.501904147466
 31
0.0
  0
LINE
  5
18188
330
18
100
AcDbEntity
  8
0
100
AcDbLine
 10
1392.090850515363
 20
-3430.501904147466
 30
0.0
 11
1392.090850515363
 21
-3437.501904147466
 31
0.0
  0
LINE
  5
18189
330
18
100
AcDbEntity
  8
0
100
AcDbLine
 10
1389.690850515363
 20
-3425.501904147466
 30
0.0
 11
1389.690850515363
 21
-3420.001904147466
 31
0.0
  0
CIRCLE
  5
1818A
330
18
100
AcDbEntity
  8
0
100
AcDbCircle
 10
1386.260850515363
 20
-3424.001904147466
 30
0.0
 40
0.32
  0
CIRCLE
  5
1818B
330
18
100
AcDbEntity
  8
0
100
AcDbCircle
 10
1386.260850515363
 20
-3421.501904147466
 30
0.0
 40
0.32
  0
LINE
  5
1818C
330
18
100
AcDbEntity
  8
0
100
AcDbLine
 10
1383.190850515363
 20
-3425.501904147466
 30
0.0
 11
1384.190850515363
 21
-3425.501904147466
 31
0.0
  0
LINE
  5
1818D
330
18
100
AcDbEntity
  8
0
100
AcDbLine
 10
1384.190850515363
 20
-3425.501904147466
 30
0.0
 11
1384.190850515363
 21
-3420.001904147466
 31
0.0
  0
LINE
  5
1818E
330
18
100
AcDbEntity
  8
0
100
AcDbLine
 10
1384.190850515363
 20
-3423.501904147466
 30
0.0
 11
1384.190850515363
 21
-3422.001904147466
 31
0.0
  0
LINE
  5
1818F
330
18
100
AcDbEntity
  8
0
100
AcDbLine
 10
1384.190850515363
 20
-3422.001904147466
 30
0.0
 11
1383.190850515363
 21
-3422.001904147466
 31
0.0
  0
LINE
  5
18190
330
18
100
AcDbEntity
  8
0
100
AcDbLine
 10
1383.190850515363
 20
-3422.001904147466
 30
0.0
 11
1383.190850515363
 21
-3423.501904147466
 31
0.0
  0
LINE
  5
18191
330
18
100
AcDbEntity
  8
0
100
AcDbLine
 10
1383.190850515363
 20
-3423.501904147466
 30
0.0
 11
1384.190850515363
 21
-3423.501904147466
 31
0.0
  0
LINE
  5
18192
330
18
100
AcDbEntity
  8
0
100
AcDbLine
 10
1389.690850515363
 20
-3420.001904147466
 30
0.0
 11
1383.190850515363
 21
-3420.001904147466
 31
0.0
  0
LINE
  5
18193
330
18
100
AcDbEntity
  8
0
100
AcDbLine
 10
1383.190850515363
 20
-3420.001904147466
 30
0.0
 11
1383.190850515363
 21
-3425.501904147466
 31
0.0
  0
LINE
  5
18194
330
18
100
AcDbEntity
  8
0
100
AcDbLine
 10
1383.190850515363
 20
-3425.501904147466
 30
0.0
 11
1389.690850515363
 21
-3425.501904147466
 31
0.0
  0
CIRCLE
  5
18195
330
18
100
AcDbEntity
  8
0
100
AcDbCircle
 10
1358.690850515363
 20
-3372.861904147466
 30
0.0
 40
0.75
  0
LINE
  5
18196
330
18
100
AcDbEntity
  8
0
100
AcDbLine
 10
1363.190850515363
 20
-3376.861904147466
 30
0.0
 11
1363.190850515363
 21
-3346.361904147466
 31
0.0
  0
LINE
  5
18197
330
18
100
AcDbEntity
  8
0
100
AcDbLine
 10
1354.690850515363
 20
-3341.001904147466
 30
0.0
 11
1354.690850515363
 21
-3381.861904147466
 31
0.0
  0
LINE
  5
18198
330
18
100
AcDbEntity
  8
0
100
AcDbLine
 10
1360.890850515363
 20
-3371.551904147466
 30
0.0
 11
1360.890850515363
 21
-3374.171904147466
 31
0.0
  0
ARC
  5
18199
330
18
100
AcDbEntity
  8
0
100
AcDbCircle
 10
1358.690850515363
 20
-3372.861904147466
 30
0.0
 40
2.9
100
AcDbArc
 50
133.6028189727031
 51
226.3971810272968
  0
CIRCLE
  5
1819A
330
18
100
AcDbEntity
  8
0
100
AcDbCircle
 10
1358.690850515363
 20
-3372.861904147466
 30
0.0
 40
1.5
  0
CIRCLE
  5
1819B
330
18
100
AcDbEntity
  8
0
100
AcDbCircle
 10
1358.65446445496
 20
-3378.961904147466
 30
0.0
 40
2.0
  0
LINE
  5
1819C
330
18
100
AcDbEntity
  8
0
100
AcDbLine
 10
1354.690850515363
 20
-3381.861904147466
 30
0.0
 11
1361.690850515363
 21
-3381.861904147466
 31
0.0
  0
LINE
  5
1819D
330
18
100
AcDbEntity
  8
0
100
AcDbLine
 10
1356.690850515363
 20
-3375.861904147466
 30
0.0
 11
1361.690850515363
 21
-3375.861904147466
 31
0.0
  0
LINE
  5
1819E
330
18
100
AcDbEntity
  8
0
100
AcDbLine
 10
1356.690850515363
 20
-3374.961904147466
 30
0.0
 11
1356.690850515363
 21
-3375.861904147466
 31
0.0
  0
LINE
  5
1819F
330
18
100
AcDbEntity
  8
0
100
AcDbLine
 10
1361.690850515363
 20
-3381.861904147466
 30
0.0
 11
1361.690850515363
 21
-3376.861904147466
 31
0.0
  0
CIRCLE
  5
181A0
330
18
100
AcDbEntity
  8
0
100
AcDbCircle
 10
1358.65446445496
 20
-3378.961904147466
 30
0.0
 40
0.9
  0
LINE
  5
181A1
330
18
100
AcDbEntity
  8
0
100
AcDbLine
 10
1361.690850515363
 20
-3376.861904147466
 30
0.0
 11
1363.190850515363
 21
-3376.861904147466
 31
0.0
  0
LINE
  5
181A2
330
18
100
AcDbEntity
  8
0
100
AcDbLine
 10
1360.890850515363
 20
-3374.171904147466
 30
0.0
 11
1361.690850515363
 21
-3374.171904147466
 31
0.0
  0
LINE
  5
181A3
330
18
100
AcDbEntity
  8
0
100
AcDbLine
 10
1361.690850515363
 20
-3374.171904147466
 30
0.0
 11
1361.690850515363
 21
-3375.861904147466
 31
0.0
  0
ARC
  5
181A4
330
18
100
AcDbEntity
  8
0
100
AcDbCircle
 10
1358.690850515363
 20
-3350.001904147466
 30
0.0
 40
2.9
100
AcDbArc
 50
133.6028189727031
 51
226.3971810272968
  0
LINE
  5
181A5
330
18
100
AcDbEntity
  8
0
100
AcDbLine
 10
1361.690850515363
 20
-3351.311904147466
 30
0.0
 11
1361.690850515363
 21
-3356.311904147466
 31
0.0
  0
LINE
  5
181A6
330
18
100
AcDbEntity
  8
0
100
AcDbLine
 10
1361.690850515363
 20
-3358.931904147466
 30
0.0
 11
1361.690850515363
 21
-3363.931904147466
 31
0.0
  0
LINE
  5
181A7
330
18
100
AcDbEntity
  8
0
100
AcDbLine
 10
1356.690850515363
 20
-3359.721904147466
 30
0.0
 11
1356.690850515363
 21
-3363.141904147466
 31
0.0
  0
ARC
  5
181A8
330
18
100
AcDbEntity
  8
0
100
AcDbCircle
 10
1358.690850515363
 20
-3365.241904147466
 30
0.0
 40
2.9
100
AcDbArc
 50
133.6028189727031
 51
226.3971810272968
  0
LINE
  5
181A9
330
18
100
AcDbEntity
  8
0
100
AcDbLine
 10
1356.690850515363
 20
-3367.341904147466
 30
0.0
 11
1356.690850515363
 21
-3370.761904147466
 31
0.0
  0
CIRCLE
  5
181AA
330
18
100
AcDbEntity
  8
0
100
AcDbCircle
 10
1358.690850515363
 20
-3365.241904147466
 30
0.0
 40
1.5
  0
LINE
  5
181AB
330
18
100
AcDbEntity
  8
0
100
AcDbLine
 10
1361.690850515363
 20
-3366.551904147466
 30
0.0
 11
1361.690850515363
 21
-3371.551904147466
 31
0.0
  0
LINE
  5
181AC
330
18
100
AcDbEntity
  8
0
100
AcDbLine
 10
1360.890850515363
 20
-3371.551904147466
 30
0.0
 11
1361.690850515363
 21
-3371.551904147466
 31
0.0
  0
LINE
  5
181AD
330
18
100
AcDbEntity
  8
0
100
AcDbLine
 10
1363.190850515363
 20
-3369.311904147465
 30
0.0
 11
1364.890850515363
 21
-3369.311904147465
 31
0.0
  0
LINE
  5
181AE
330
18
100
AcDbEntity
  8
0
100
AcDbLine
 10
1364.890850515363
 20
-3370.911904147465
 30
0.0
 11
1363.190850515363
 21
-3370.911904147465
 31
0.0
  0
LINE
  5
181AF
330
18
100
AcDbEntity
  8
0
100
AcDbLine
 10
1364.890850515363
 20
-3369.311904147465
 30
0.0
 11
1364.890850515363
 21
-3370.911904147465
 31
0.0
  0
CIRCLE
  5
181B0
330
18
100
AcDbEntity
  8
0
100
AcDbCircle
 10
1358.690850515363
 20
-3365.241904147466
 30
0.0
 40
0.75
  0
LINE
  5
181B1
330
18
100
AcDbEntity
  8
0
100
AcDbLine
 10
1360.890850515363
 20
-3366.551904147466
 30
0.0
 11
1361.690850515363
 21
-3366.551904147466
 31
0.0
  0
LINE
  5
181B2
330
18
100
AcDbEntity
  8
0
100
AcDbLine
 10
1360.890850515363
 20
-3363.931904147466
 30
0.0
 11
1361.690850515363
 21
-3363.931904147466
 31
0.0
  0
LINE
  5
181B3
330
18
100
AcDbEntity
  8
0
100
AcDbLine
 10
1360.890850515363
 20
-3363.931904147466
 30
0.0
 11
1360.890850515363
 21
-3366.551904147466
 31
0.0
  0
ARC
  5
181B4
330
18
100
AcDbEntity
  8
0
100
AcDbCircle
 10
1358.690850515363
 20
-3357.621904147466
 30
0.0
 40
2.9
100
AcDbArc
 50
133.6028189727031
 51
226.3971810272968
  0
LINE
  5
181B5
330
18
100
AcDbEntity
  8
0
100
AcDbLine
 10
1356.690850515363
 20
-3352.101904147466
 30
0.0
 11
1356.690850515363
 21
-3355.521904147466
 31
0.0
  0
LINE
  5
181B6
330
18
100
AcDbEntity
  8
0
100
AcDbLine
 10
1364.890850515363
 20
-3353.911904147466
 30
0.0
 11
1363.190850515363
 21
-3353.911904147466
 31
0.0
  0
LINE
  5
181B7
330
18
100
AcDbEntity
  8
0
100
AcDbLine
 10
1364.890850515363
 20
-3352.311904147466
 30
0.0
 11
1363.190850515363
 21
-3352.311904147466
 31
0.0
  0
LINE
  5
181B8
330
18
100
AcDbEntity
  8
0
100
AcDbLine
 10
1364.890850515363
 20
-3352.311904147466
 30
0.0
 11
1364.890850515363
 21
-3353.911904147466
 31
0.0
  0
LINE
  5
181B9
330
18
100
AcDbEntity
  8
0
100
AcDbLine
 10
1360.890850515363
 20
-3356.311904147466
 30
0.0
 11
1361.690850515363
 21
-3356.311904147466
 31
0.0
  0
CIRCLE
  5
181BA
330
18
100
AcDbEntity
  8
0
100
AcDbCircle
 10
1358.690850515363
 20
-3357.621904147466
 30
0.0
 40
0.75
  0
LINE
  5
181BB
330
18
100
AcDbEntity
  8
0
100
AcDbLine
 10
1360.890850515363
 20
-3358.931904147466
 30
0.0
 11
1361.690850515363
 21
-3358.931904147466
 31
0.0
  0
CIRCLE
  5
181BC
330
18
100
AcDbEntity
  8
0
100
AcDbCircle
 10
1358.690850515363
 20
-3357.621904147466
 30
0.0
 40
1.5
  0
LINE
  5
181BD
330
18
100
AcDbEntity
  8
0
100
AcDbLine
 10
1360.890850515363
 20
-3356.311904147466
 30
0.0
 11
1360.890850515363
 21
-3358.931904147466
 31
0.0
  0
LINE
  5
181BE
330
18
100
AcDbEntity
  8
0
100
AcDbLine
 10
1361.690850515363
 20
-3346.001904147466
 30
0.0
 11
1361.690850515363
 21
-3341.001904147466
 31
0.0
  0
CIRCLE
  5
181BF
330
18
100
AcDbEntity
  8
0
100
AcDbCircle
 10
1358.690850515363
 20
-3343.901904147466
 30
0.0
 40
2.0
  0
LINE
  5
181C0
330
18
100
AcDbEntity
  8
0
100
AcDbLine
 10
1361.690850515363
 20
-3347.361904147466
 30
0.0
 11
1356.690850515363
 21
-3347.361904147466
 31
0.0
  0
LINE
  5
181C1
330
18
100
AcDbEntity
  8
0
100
AcDbLine
 10
1356.690850515363
 20
-3347.361904147466
 30
0.0
 11
1356.690850515363
 21
-3347.901904147466
 31
0.0
  0
LINE
  5
181C2
330
18
100
AcDbEntity
  8
0
100
AcDbLine
 10
1361.690850515363
 20
-3346.001904147466
 30
0.0
 11
1363.190850515363
 21
-3346.001904147466
 31
0.0
  0
CIRCLE
  5
181C3
330
18
100
AcDbEntity
  8
0
100
AcDbCircle
 10
1358.690850515363
 20
-3343.901904147466
 30
0.0
 40
0.9
  0
LINE
  5
181C4
330
18
100
AcDbEntity
  8
0
100
AcDbLine
 10
1360.890850515363
 20
-3348.691904147466
 30
0.0
 11
1361.690850515363
 21
-3348.691904147466
 31
0.0
  0
LINE
  5
181C5
330
18
100
AcDbEntity
  8
0
100
AcDbLine
 10
1361.690850515363
 20
-3347.361904147466
 30
0.0
 11
1361.690850515363
 21
-3348.691904147466
 31
0.0
  0
LINE
  5
181C6
330
18
100
AcDbEntity
  8
0
100
AcDbLine
 10
1360.890850515363
 20
-3351.311904147466
 30
0.0
 11
1361.690850515363
 21
-3351.311904147466
 31
0.0
  0
CIRCLE
  5
181C7
330
18
100
AcDbEntity
  8
0
100
AcDbCircle
 10
1358.690850515363
 20
-3350.001904147466
 30
0.0
 40
0.75
  0
LINE
  5
181C8
330
18
100
AcDbEntity
  8
0
100
AcDbLine
 10
1360.890850515363
 20
-3348.691904147466
 30
0.0
 11
1360.890850515363
 21
-3351.311904147466
 31
0.0
  0
CIRCLE
  5
181C9
330
18
100
AcDbEntity
  8
0
100
AcDbCircle
 10
1358.690850515363
 20
-3350.001904147466
 30
0.0
 40
1.5
  0
LINE
  5
181CA
330
18
100
AcDbEntity
  8
0
100
AcDbLine
 10
1363.190850515363
 20
-3346.001904147466
 30
0.0
 11
1363.190850515363
 21
-3346.361904147466
 31
0.0
  0
LINE
  5
181CB
330
18
100
AcDbEntity
  8
0
100
AcDbLine
 10
1354.690850515363
 20
-3341.001904147466
 30
0.0
 11
1361.690850515363
 21
-3341.001904147466
 31
0.0
  0
LINE
  5
181CC
330
18
100
AcDbEntity
  8
0
100
AcDbLine
 10
1354.690850515363
 20
-3346.241904147466
 30
0.0
 11
1354.690850515363
 21
-3341.001904147466
 31
0.0
  0
LINE
  5
181CD
330
18
100
AcDbEntity
  8
0
100
AcDbLine
 10
1354.690850515363
 20
-3341.001904147466
 30
0.0
 11
1361.690850515363
 21
-3341.001904147466
 31
0.0
  0
LINE
  5
181CE
330
18
100
AcDbEntity
  8
0
100
AcDbLine
 10
1361.690850515363
 20
-3341.001904147466
 30
0.0
 11
1361.690850515363
 21
-3346.241904147466
 31
0.0
  0
LINE
  5
181CF
330
18
100
AcDbEntity
  8
0
100
AcDbLine
 10
1354.690850515363
 20
-3376.621904147466
 30
0.0
 11
1354.690850515363
 21
-3381.861904147466
 31
0.0
  0
LINE
  5
181D0
330
18
100
AcDbEntity
  8
0
100
AcDbLine
 10
1354.690850515363
 20
-3381.861904147466
 30
0.0
 11
1361.690850515363
 21
-3381.861904147466
 31
0.0
  0
LINE
  5
181D1
330
18
100
AcDbEntity
  8
0
100
AcDbLine
 10
1361.690850515363
 20
-3381.861904147466
 30
0.0
 11
1361.690850515363
 21
-3376.621904147466
 31
0.0
  0
LINE
  5
181D2
330
18
100
AcDbEntity
  8
0
100
AcDbLine
 10
1381.790850515363
 20
-3369.401904147466
 30
0.0
 11
1389.690850515363
 21
-3369.401904147466
 31
0.0
  0
LINE
  5
181D3
330
18
100
AcDbEntity
  8
0
100
AcDbLine
 10
1382.740850515363
 20
-3368.401904147466
 30
0.0
 11
1388.740850515363
 21
-3368.401904147466
 31
0.0
  0
LINE
  5
181D4
330
18
100
AcDbEntity
  8
0
100
AcDbLine
 10
1383.740850515363
 20
-3368.401904147466
 30
0.0
 11
1384.740850515363
 21
-3368.401904147466
 31
0.0
  0
LINE
  5
181D5
330
18
100
AcDbEntity
  8
0
100
AcDbLine
 10
1385.540850515363
 20
-3368.401904147466
 30
0.0
 11
1385.540850515363
 21
-3365.401904147466
 31
0.0
  0
LINE
  5
181D6
330
18
100
AcDbEntity
  8
0
100
AcDbLine
 10
1388.740850515363
 20
-3368.401904147466
 30
0.0
 11
1388.740850515363
 21
-3365.401904147466
 31
0.0
  0
LINE
  5
181D7
330
18
100
AcDbEntity
  8
0
100
AcDbLine
 10
1388.740850515363
 20
-3365.401904147466
 30
0.0
 11
1382.740850515363
 21
-3365.401904147466
 31
0.0
  0
LINE
  5
181D8
330
18
100
AcDbEntity
  8
0
100
AcDbLine
 10
1382.740850515363
 20
-3365.401904147466
 30
0.0
 11
1382.740850515363
 21
-3368.401904147466
 31
0.0
  0
LINE
  5
181D9
330
18
100
AcDbEntity
  8
0
100
AcDbLine
 10
1384.740850515363
 20
-3368.401904147466
 30
0.0
 11
1384.740850515363
 21
-3365.401904147466
 31
0.0
  0
LINE
  5
181DA
330
18
100
AcDbEntity
  8
0
100
AcDbLine
 10
1384.740850515363
 20
-3365.401904147466
 30
0.0
 11
1383.740850515363
 21
-3365.401904147466
 31
0.0
  0
LINE
  5
181DB
330
18
100
AcDbEntity
  8
0
100
AcDbLine
 10
1383.740850515363
 20
-3365.401904147466
 30
0.0
 11
1383.740850515363
 21
-3368.401904147466
 31
0.0
  0
LINE
  5
181DC
330
18
100
AcDbEntity
  8
0
100
AcDbLine
 10
1389.690850515363
 20
-3369.401904147466
 30
0.0
 11
1389.690850515363
 21
-3364.401904147466
 31
0.0
  0
LINE
  5
181DD
330
18
100
AcDbEntity
  8
0
100
AcDbLine
 10
1389.690850515363
 20
-3364.401904147466
 30
0.0
 11
1381.790850515363
 21
-3364.401904147466
 31
0.0
  0
LINE
  5
181DE
330
18
100
AcDbEntity
  8
0
100
AcDbLine
 10
1381.790850515363
 20
-3364.401904147466
 30
0.0
 11
1381.790850515363
 21
-3369.401904147466
 31
0.0
  0
CIRCLE
  5
181DF
330
18
100
AcDbEntity
  8
0
100
AcDbCircle
 10
1343.090850515364
 20
-3407.501904147466
 30
0.0
 40
2.149999999999999
  0
CIRCLE
  5
181E0
330
18
100
AcDbEntity
  8
0
100
AcDbCircle
 10
1343.090850515364
 20
-3407.501904147466
 30
0.0
 40
1.85
  0
LINE
  5
181E1
330
18
100
AcDbEntity
  8
0
100
AcDbLine
 10
1341.740850515364
 20
-3407.801904147466
 30
0.0
 11
1344.440850515364
 21
-3407.801904147466
 31
0.0
  0
LINE
  5
181E2
330
18
100
AcDbEntity
  8
0
100
AcDbLine
 10
1342.940850515364
 20
-3407.501904147466
 30
0.0
 11
1342.940850515364
 21
-3406.151904147466
 31
0.0
  0
LINE
  5
181E3
330
18
100
AcDbEntity
  8
0
100
AcDbLine
 10
1343.240850515363
 20
-3407.501904147466
 30
0.0
 11
1343.240850515363
 21
-3406.151904147466
 31
0.0
  0
ARC
  5
181E4
330
18
100
AcDbEntity
  8
0
100
AcDbCircle
 10
1343.090850515364
 20
-3406.151904147466
 30
0.0
 40
0.15
100
AcDbArc
 50
0.0
 51
180.0
  0
ARC
  5
181E5
330
18
100
AcDbEntity
  8
0
100
AcDbCircle
 10
1341.740850515364
 20
-3407.651904147466
 30
0.0
 40
0.15
100
AcDbArc
 50
90.0
 51
270.0
  0
ARC
  5
181E6
330
18
100
AcDbEntity
  8
0
100
AcDbCircle
 10
1344.440850515364
 20
-3407.651904147466
 30
0.0
 40
0.15
100
AcDbArc
 50
270.0
 51
90.0
  0
LINE
  5
181E7
330
18
100
AcDbEntity
  8
0
100
AcDbLine
 10
1341.740850515364
 20
-3407.501904147466
 30
0.0
 11
1342.940850515364
 21
-3407.501904147466
 31
0.0
  0
LINE
  5
181E8
330
18
100
AcDbEntity
  8
0
100
AcDbLine
 10
1343.240850515363
 20
-3407.501904147466
 30
0.0
 11
1344.440850515364
 21
-3407.501904147466
 31
0.0
  0
LINE
  5
181E9
330
18
100
AcDbEntity
  8
0
100
AcDbLine
 10
1342.140850515364
 20
-3408.151904147466
 30
0.0
 11
1344.040850515363
 21
-3408.151904147466
 31
0.0
  0
LINE
  5
181EA
330
18
100
AcDbEntity
  8
0
100
AcDbLine
 10
1342.140850515364
 20
-3408.451904147466
 30
0.0
 11
1344.040850515363
 21
-3408.451904147466
 31
0.0
  0
LINE
  5
181EB
330
18
100
AcDbEntity
  8
0
100
AcDbLine
 10
1342.540850515364
 20
-3408.801904147466
 30
0.0
 11
1343.640850515363
 21
-3408.801904147466
 31
0.0
  0
LINE
  5
181EC
330
18
100
AcDbEntity
  8
0
100
AcDbLine
 10
1342.540850515364
 20
-3409.101904147466
 30
0.0
 11
1343.640850515363
 21
-3409.101904147466
 31
0.0
  0
ARC
  5
181ED
330
18
100
AcDbEntity
  8
0
100
AcDbCircle
 10
1342.540850515364
 20
-3408.951904147466
 30
0.0
 40
0.15
100
AcDbArc
 50
90.0
 51
270.0
  0
ARC
  5
181EE
330
18
100
AcDbEntity
  8
0
100
AcDbCircle
 10
1343.640850515363
 20
-3408.951904147466
 30
0.0
 40
0.15
100
AcDbArc
 50
270.0
 51
90.0
  0
ARC
  5
181EF
330
18
100
AcDbEntity
  8
0
100
AcDbCircle
 10
1342.140850515364
 20
-3408.301904147466
 30
0.0
 40
0.15
100
AcDbArc
 50
90.0
 51
270.0
  0
ARC
  5
181F0
330
18
100
AcDbEntity
  8
0
100
AcDbCircle
 10
1344.040850515363
 20
-3408.301904147466
 30
0.0
 40
0.15
100
AcDbArc
 50
270.0
 51
90.0
  0
LINE
  5
181F1
330
18
100
AcDbEntity
  8
0
100
AcDbLine
 10
1389.690850515363
 20
-3369.901904147466
 30
0.0
 11
1382.440850515363
 21
-3369.901904147466
 31
0.0
  0
CIRCLE
  5
181F2
330
18
100
AcDbEntity
  8
0
100
AcDbCircle
 10
1386.190850515363
 20
-3375.851904147466
 30
0.0
 40
1.0
  0
CIRCLE
  5
181F3
330
18
100
AcDbEntity
  8
0
100
AcDbCircle
 10
1386.190850515363
 20
-3372.351904147466
 30
0.0
 40
1.0
  0
LINE
  5
181F4
330
18
100
AcDbEntity
  8
0
100
AcDbLine
 10
1382.440850515363
 20
-3369.901904147466
 30
0.0
 11
1382.440850515363
 21
-3378.301904147466
 31
0.0
  0
LINE
  5
181F5
330
18
100
AcDbEntity
  8
0
100
AcDbLine
 10
1382.440850515363
 20
-3378.301904147466
 30
0.0
 11
1389.690850515363
 21
-3378.301904147466
 31
0.0
  0
LINE
  5
181F6
330
18
100
AcDbEntity
  8
0
100
AcDbLine
 10
1389.690850515363
 20
-3378.301904147466
 30
0.0
 11
1389.690850515363
 21
-3369.901904147466
 31
0.0
  0
LINE
  5
181F7
330
18
100
AcDbEntity
  8
0
100
AcDbLine
 10
1381.790850515363
 20
-3349.401904147466
 30
0.0
 11
1389.690850515363
 21
-3349.401904147466
 31
0.0
  0
LINE
  5
181F8
330
18
100
AcDbEntity
  8
0
100
AcDbLine
 10
1382.740850515363
 20
-3348.401904147466
 30
0.0
 11
1388.740850515363
 21
-3348.401904147466
 31
0.0
  0
LINE
  5
181F9
330
18
100
AcDbEntity
  8
0
100
AcDbLine
 10
1383.740850515363
 20
-3348.401904147466
 30
0.0
 11
1384.740850515363
 21
-3348.401904147466
 31
0.0
  0
LINE
  5
181FA
330
18
100
AcDbEntity
  8
0
100
AcDbLine
 10
1385.540850515363
 20
-3348.401904147466
 30
0.0
 11
1385.540850515363
 21
-3345.401904147466
 31
0.0
  0
LINE
  5
181FB
330
18
100
AcDbEntity
  8
0
100
AcDbLine
 10
1389.690850515363
 20
-3349.401904147466
 30
0.0
 11
1389.690850515363
 21
-3344.401904147466
 31
0.0
  0
LINE
  5
181FC
330
18
100
AcDbEntity
  8
0
100
AcDbLine
 10
1389.690850515363
 20
-3344.401904147466
 30
0.0
 11
1381.790850515363
 21
-3344.401904147466
 31
0.0
  0
LINE
  5
181FD
330
18
100
AcDbEntity
  8
0
100
AcDbLine
 10
1381.790850515363
 20
-3344.401904147466
 30
0.0
 11
1381.790850515363
 21
-3349.401904147466
 31
0.0
  0
LINE
  5
181FE
330
18
100
AcDbEntity
  8
0
100
AcDbLine
 10
1384.740850515363
 20
-3348.401904147466
 30
0.0
 11
1384.740850515363
 21
-3345.401904147466
 31
0.0
  0
LINE
  5
181FF
330
18
100
AcDbEntity
  8
0
100
AcDbLine
 10
1384.740850515363
 20
-3345.401904147466
 30
0.0
 11
1383.740850515363
 21
-3345.401904147466
 31
0.0
  0
LINE
  5
18200
330
18
100
AcDbEntity
  8
0
100
AcDbLine
 10
1383.740850515363
 20
-3345.401904147466
 30
0.0
 11
1383.740850515363
 21
-3348.401904147466
 31
0.0
  0
LINE
  5
18201
330
18
100
AcDbEntity
  8
0
100
AcDbLine
 10
1388.740850515363
 20
-3348.401904147466
 30
0.0
 11
1388.740850515363
 21
-3345.401904147466
 31
0.0
  0
LINE
  5
18202
330
18
100
AcDbEntity
  8
0
100
AcDbLine
 10
1388.740850515363
 20
-3345.401904147466
 30
0.0
 11
1382.740850515363
 21
-3345.401904147466
 31
0.0
  0
LINE
  5
18203
330
18
100
AcDbEntity
  8
0
100
AcDbLine
 10
1382.740850515363
 20
-3345.401904147466
 30
0.0
 11
1382.740850515363
 21
-3348.401904147466
 31
0.0
  0
CIRCLE
  5
18204
330
18
100
AcDbEntity
  8
0
100
AcDbCircle
 10
1383.190850515364
 20
-3356.901904147466
 30
0.0
 40
5.5
  0
LINE
  5
18205
330
18
100
AcDbEntity
  8
0
100
AcDbLine
 10
1376.890850515363
 20
-3363.901904147466
 30
0.0
 11
1376.890850515363
 21
-3349.901904147466
 31
0.0
  0
LINE
  5
18206
330
18
100
AcDbEntity
  8
0
100
AcDbLine
 10
1389.690850515364
 20
-3363.901904147466
 30
0.0
 11
1389.690850515364
 21
-3358.001904147466
 31
0.0
  0
LINE
  5
18207
330
18
100
AcDbEntity
  8
0
100
AcDbLine
 10
1389.690850515364
 20
-3363.901904147466
 30
0.0
 11
1376.890850515363
 21
-3363.901904147466
 31
0.0
  0
LINE
  5
18208
330
18
100
AcDbEntity
  8
0
100
AcDbLine
 10
1389.690850515364
 20
-3349.901904147466
 30
0.0
 11
1376.890850515363
 21
-3349.901904147466
 31
0.0
  0
LINE
  5
18209
330
18
100
AcDbEntity
  8
0
100
AcDbLine
 10
1389.690850515364
 20
-3355.801904147466
 30
0.0
 11
1389.690850515364
 21
-3349.901904147466
 31
0.0
  0
LINE
  5
1820A
330
18
100
AcDbEntity
  8
0
100
AcDbLine
 10
1354.690850515364
 20
-3305.40190430681
 30
0.0
 11
1354.690850515364
 21
-3272.40190430681
 31
0.0
  0
LINE
  5
1820B
330
18
100
AcDbEntity
  8
0
100
AcDbLine
 10
1354.690850515364
 20
-3335.50190430681
 30
0.0
 11
1354.690850515364
 21
-3309.30190430681
 31
0.0
  0
LINE
  5
1820C
330
18
100
AcDbEntity
  8
0
100
AcDbLine
 10
1389.690850515364
 20
-3343.90190430681
 30
0.0
 11
1389.690850515364
 21
-3378.70190430681
 31
0.0
  0
LINE
  5
1820D
330
18
100
AcDbEntity
  8
0
100
AcDbLine
 10
1389.690850515364
 20
-3380.90190430681
 30
0.0
 11
1389.690850515364
 21
-3426.30190430681
 31
0.0
  0
ARC
  5
1820E
330
18
100
AcDbEntity
  8
0
100
AcDbCircle
 10
1369.590850515364
 20
-3251.501904147465
 30
0.0
 40
5.5
100
AcDbArc
 50
294.619977328648
 51
0.0
  0
ARC
  5
1820F
330
18
100
AcDbEntity
  8
0
100
AcDbCircle
 10
1369.590850515364
 20
-3435.501904147466
 30
0.0
 40
5.5
100
AcDbArc
 50
114.6199773286481
 51
180.0
  0
LINE
  5
18210
330
18
100
AcDbEntity
  8
0
100
AcDbLine
 10
1394.090850515363
 20
-3440.501904147466
 30
0.0
 11
1397.590850515364
 21
-3440.501904147466
 31
0.0
  0
LINE
  5
18826
330
18
100
AcDbEntity
  8
外形
 62
     0
100
AcDbLine
 10
1385.490702154195
 20
-3303.276905893421
 30
0.0
 11
1386.216113719622
 21
-3303.276905893421
 31
0.0
  0
LINE
  5
18838
330
18
100
AcDbEntity
  8
0
100
AcDbLine
 10
1385.490702154195
 20
-3322.971905893421
 30
0.0
 11
1385.490702154195
 21
-3335.971905893421
 31
0.0
  0
LINE
  5
18839
330
18
100
AcDbEntity
  8
0
100
AcDbLine
 10
1387.090702154194
 20
-3325.186048736277
 30
0.0
 11
1387.090702154194
 21
-3332.757763050566
 31
0.0
  0
LINE
  5
18841
330
18
100
AcDbEntity
  8
0
100
AcDbLine
 10
1385.490702154195
 20
-3303.18190589342
 30
0.0
 11
1385.490702154195
 21
-3316.18190589342
 31
0.0
  0
LINE
  5
18842
330
18
100
AcDbEntity
  8
0
100
AcDbLine
 10
1387.090702154194
 20
-3306.396048736274
 30
0.0
 11
1387.090702154194
 21
-3313.967763050566
 31
0.0
  0
LINE
  5
18843
330
18
100
AcDbEntity
  8
0
100
AcDbLine
 10
1387.590702154194
 20
-3313.702109996307
 30
0.0
 11
1387.590702154194
 21
-3306.661701790533
 31
0.0
  0
LINE
  5
18845
330
18
100
AcDbEntity
  8
0
100
AcDbLine
 10
1387.590702154195
 20
-3332.492109996307
 30
0.0
 11
1387.590702154194
 21
-3325.451701790534
 31
0.0
  0
HATCH
  5
18C8B
330
18
100
AcDbEntity
  8
0
100
AcDbHatch
 10
0.0
 20
0.0
 30
0.0
210
0.0
220
0.0
230
1.0
  2
ANSI37
 70
     0
 71
     0
 91
        1
 92
        7
 72
     1
 73
     1
 93
        8
 10
1389.190702154195
 20
-3307.246015999067
 42
0.2874919409690145
 10
1388.290702154194
 20
-3306.68190589342
 42
0.0
 10
1387.790702154195
 20
-3306.68190589342
 42
-0.0503820444849587
 10
1387.590702154194
 20
-3306.661701790533
 42
0.0
 10
1387.590702154194
 20
-3313.702109996307
 42
-0.0503820444846053
 10
1387.790702154193
 20
-3313.681905893421
 42
0.0
 10
1388.290702154194
 20
-3313.681905893421
 42
0.2874919409690145
 10
1389.190702154195
 20
-3313.117795787773
 42
0.0
 97
        0
 75
     0
 76
     1
 52
0.0
 41
0.2
 77
     0
 78
     2
 53
45.0
 43
0.0
 44
0.0
 45
-0.4490128060534576
 46
0.4490128060534577
 79
     0
 53
135.0
 43
0.0
 44
0.0
 45
-0.4490128060534577
 46
-0.4490128060534576
 79
     0
 47
0.0643847009913141
 98
        2
 10
1388.406046589894
 20
-3309.1480913471
 10
1388.607456321598
 20
-3310.447132986917
  0
HATCH
  5
1959A
330
18
100
AcDbEntity
  8
0
100
AcDbHatch
 10
0.0
 20
0.0
 30
0.0
210
0.0
220
0.0
230
1.0
  2
ANSI37
 70
     0
 71
     0
 91
        1
 92
        7
 72
     1
 73
     1
 93
        8
 10
1389.190702154195
 20
-3326.03601599907
 42
0.2874919409695692
 10
1388.290702154193
 20
-3325.471905893421
 42
0.0
 10
1387.790702154193
 20
-3325.471905893421
 42
-0.0503820444844913
 10
1387.590702154194
 20
-3325.451701790534
 42
0.0
 10
1387.590702154194
 20
-3332.492109996307
 42
-0.0503820444846053
 10
1387.790702154193
 20
-3332.471905893421
 42
0.0
 10
1388.290702154193
 20
-3332.471905893421
 42
0.2874919409695692
 10
1389.190702154195
 20
-3331.907795787772
 42
0.0
 97
        0
 75
     0
 76
     1
 52
0.0
 41
0.2
 77
     0
 78
     2
 53
45.0
 43
0.0
 44
0.0
 45
-0.4490128060534576
 46
0.4490128060534577
 79
     0
 53
135.0
 43
0.0
 44
0.0
 45
-0.4490128060534577
 46
-0.4490128060534576
 79
     0
 47
0.0157775037873861
 98
        1
 10
1388.57226262111
 20
-3326.721468760513
  0
LINE
  5
1959F
330
18
100
AcDbEntity
  8
3_表示パネル
  6
Continuous
 62
    40
100
AcDbLine
 10
1353.590850637281
 20
-3340.001904306809
 30
0.0
 11
1353.590850637281
 21
-3426.301904306809
 31
0.0
  0
LINE
  5
195A7
330
18
100
AcDbEntity
  8
3_表示パネル
  6
Continuous
 62
    40
100
AcDbLine
 10
1363.490850637281
 20
-3272.40190430681
 30
0.0
 11
1363.490850637281
 21
-3280.40190430681
 31
0.0
  0
LINE
  5
195AB
330
18
100
AcDbEntity
  8
3_表示パネル
  6
Continuous
 62
    40
100
AcDbLine
 10
1366.490850637281
 20
-3280.40190430681
 30
0.0
 11
1366.490850637281
 21
-3288.60190430681
 31
0.0
  0
LINE
  5
195AD
330
18
100
AcDbEntity
  8
3_表示パネル
  6
Continuous
 62
    40
100
AcDbLine
 10
1363.490850637281
 20
-3280.40190430681
 30
0.0
 11
1366.490850637281
 21
-3280.40190430681
 31
0.0
  0
LINE
  5
195B5
330
18
100
AcDbEntity
  8
3_表示パネル
  6
Continuous
 62
    40
100
AcDbLine
 10
1353.590850637281
 20
-3340.001904306809
 30
0.0
 11
1353.590850637281
 21
-3426.301904306809
 31
0.0
  0
LINE
  5
195C3
330
18
100
AcDbEntity
  8
3_表示パネル
  6
Continuous
 62
    40
100
AcDbLine
 10
1364.190850637281
 20
-3354.90190430681
 30
0.0
 11
1364.190850637281
 21
-3368.30190430681
 31
0.0
  0
LINE
  5
195C5
330
18
100
AcDbEntity
  8
3_表示パネル
  6
Continuous
 62
    40
100
AcDbLine
 10
1365.790850637281
 20
-3368.30190430681
 30
0.0
 11
1365.790850637281
 21
-3371.90190430681
 31
0.0
  0
LINE
  5
195C6
330
18
100
AcDbEntity
  8
3_表示パネル
  6
Continuous
 62
    40
100
AcDbLine
 10
1364.190850637281
 20
-3368.30190430681
 30
0.0
 11
1365.790850637281
 21
-3368.30190430681
 31
0.0
  0
LINE
  5
195C7
330
18
100
AcDbEntity
  8
3_表示パネル
  6
Continuous
 62
    40
100
AcDbLine
 10
1364.190850637281
 20
-3371.90190430681
 30
0.0
 11
1365.790850637281
 21
-3371.90190430681
 31
0.0
  0
LINE
  5
195C8
330
18
100
AcDbEntity
  8
3_表示パネル
  6
Continuous
 62
    40
100
AcDbLine
 10
1364.190850637281
 20
-3340.001904306809
 30
0.0
 11
1364.190850637281
 21
-3351.30190430681
 31
0.0
  0
LINE
  5
195CA
330
18
100
AcDbEntity
  8
3_表示パネル
  6
Continuous
 62
    40
100
AcDbLine
 10
1364.190850637281
 20
-3351.30190430681
 30
0.0
 11
1365.790850637281
 21
-3351.30190430681
 31
0.0
  0
LINE
  5
195CB
330
18
100
AcDbEntity
  8
3_表示パネル
  6
Continuous
 62
    40
100
AcDbLine
 10
1364.190850637281
 20
-3354.90190430681
 30
0.0
 11
1365.790850637281
 21
-3354.90190430681
 31
0.0
  0
LINE
  5
195CC
330
18
100
AcDbEntity
  8
3_表示パネル
  6
Continuous
 62
    40
100
AcDbLine
 10
1365.790850637281
 20
-3351.30190430681
 30
0.0
 11
1365.790850637281
 21
-3354.90190430681
 31
0.0
  0
LINE
  5
19D02
330
18
100
AcDbEntity
  8
0
100
AcDbLine
 10
1389.190702154195
 20
-3331.907795787772
 30
0.0
 11
1389.190702154195
 21
-3326.03601599907
 31
0.0
  0
INSERT
  5
19FF3
330
18
100
AcDbEntity
  8
0
100
AcDbBlockReference
  2
A$C60EC01A6
 10
1348.690850515363
 20
-3428.201905207697
 30
0.0
  0
INSERT
  5
1A360
330
18
100
AcDbEntity
  8
0
100
AcDbBlockReference
  2
A$C582506EE
 10
1377.76070077451
 20
-3334.376902535063
 30
0.0
  0
LINE
  5
1A361
330
18
100
AcDbEntity
  8
0
100
AcDbLine
 10
1389.190702154195
 20
-3313.117795787773
 30
0.0
 11
1389.190702154195
 21
-3307.246015999071
 31
0.0
  0
TEXT
  5
1A9EF
330
18
100
AcDbEntity
  8
0
100
AcDbText
 10
1338.706656603361
 20
-3171.994990278253
 30
0.0
 40
10.0
  1
SCON-CA-12A~200A-ML3-*-1/2
100
AcDbText
  0
VIEWPORT
  5
1A4AA
330
1A4A9
100
AcDbEntity
 67
     1
  8
0
100
AcDbViewport
 10
283.6615861025954
 20
142.5657786364348
 30
0.0
 40
620.548073837105
 41
291.4287591881414
 68
     1
 69
     1
 12
283.6615861025954
 22
142.5657786364348
 13
0.0
 23
0.0
 14
10.0
 24
10.0
 15
10.0
 25
10.0
 16
0.0
 26
0.0
 36
1.0
 17
0.0
 27
0.0
 37
0.0
 42
50.0
 43
0.0
 44
0.0
 45
291.4287591881414
 50
0.0
 51
0.0
 72
   100
 90
    32864
  1

281
     0
 71
     1
 74
     0
110
0.0
120
0.0
130
0.0
111
1.0
121
0.0
131
0.0
112
0.0
122
1.0
132
0.0
 79
     0
146
0.0
  0
LWPOLYLINE
  5
1A4AB
330
1A4A9
100
AcDbEntity
 67
     1
  8
図面範囲
100
AcDbPolyline
 90
        4
 70
     1
 43
0.0
 10
0.0
 20
0.0
 10
420.0
 20
0.0
 10
420.0
 20
297.0
 10
0.0
 20
297.0
  0
LINE
  5
1A4AC
330
1A4A9
100
AcDbEntity
 67
     1
  8
外枠
100
AcDbLine
 10
19.798574
 20
6.680242999999999
 30
0.0
 11
19.798574
 21
278.680243
 31
0.0
  0
LINE
  5
1A4AD
330
1A4A9
100
AcDbEntity
 67
     1
  8
外枠
100
AcDbLine
 10
19.798574
 20
278.680243
 30
0.0
 11
403.798574
 21
278.680243
 31
0.0
  0
LINE
  5
1A4AE
330
1A4A9
100
AcDbEntity
 67
     1
  8
外枠
100
AcDbLine
 10
403.798574
 20
278.680243
 30
0.0
 11
403.798574
 21
6.680242999999999
 31
0.0
  0
LINE
  5
1A4AF
330
1A4A9
100
AcDbEntity
 67
     1
  8
外枠
100
AcDbLine
 10
403.798574
 20
6.680242999999999
 30
0.0
 11
19.798574
 21
6.680242999999999
 31
0.0
  0
LINE
  5
1A4B0
330
1A4A9
100
AcDbEntity
 67
     1
  8
外枠
100
AcDbLine
 10
19.798574
 20
30.680243
 30
0.0
 11
403.798574
 21
30.680243
 31
0.0
  0
LINE
  5
1A4B1
330
1A4A9
100
AcDbEntity
 67
     1
  8
外枠
100
AcDbLine
 10
28.798574
 20
30.680243
 30
0.0
 11
28.798574
 21
6.680242999999999
 31
0.0
  0
LINE
  5
1A4B2
330
1A4A9
100
AcDbEntity
 67
     1
  8
外枠
100
AcDbLine
 10
139.7985739999999
 20
30.680243
 30
0.0
 11
139.7985739999999
 21
6.680242999999999
 31
0.0
  0
LINE
  5
1A4B3
330
1A4A9
100
AcDbEntity
 67
     1
  8
外枠
100
AcDbLine
 10
158.798574
 20
30.680243
 30
0.0
 11
158.798574
 21
6.680242999999999
 31
0.0
  0
LINE
  5
1A4B4
330
1A4A9
100
AcDbEntity
 67
     1
  8
外枠
100
AcDbLine
 10
19.798574
 20
30.680243
 30
0.0
 11
167.798574
 21
30.680243
 31
0.0
  0
LINE
  5
1A4B5
330
1A4A9
100
AcDbEntity
 67
     1
  8
外枠
100
AcDbLine
 10
167.798574
 20
30.680243
 30
0.0
 11
167.798574
 21
6.680242999999999
 31
0.0
  0
LINE
  5
1A4B6
330
1A4A9
100
AcDbEntity
 67
     1
  8
外枠
100
AcDbLine
 10
176.798574
 20
30.680243
 30
0.0
 11
176.798574
 21
6.680242999999999
 31
0.0
  0
LINE
  5
1A4B7
330
1A4A9
100
AcDbEntity
 67
     1
  8
外枠
100
AcDbLine
 10
185.798574
 20
30.680243
 30
0.0
 11
185.798574
 21
6.680242999999999
 31
0.0
  0
LINE
  5
1A4B8
330
1A4A9
100
AcDbEntity
 67
     1
  8
外枠
100
AcDbLine
 10
208.798574
 20
30.680243
 30
0.0
 11
208.798574
 21
6.680242999999999
 31
0.0
  0
LINE
  5
1A4B9
330
1A4A9
100
AcDbEntity
 67
     1
  8
外枠
100
AcDbLine
 10
231.798574
 20
6.680242999999999
 30
0.0
 11
231.798574
 21
30.680243
 31
0.0
  0
LINE
  5
1A4BA
330
1A4A9
100
AcDbEntity
 67
     1
  8
外枠
100
AcDbLine
 10
316.798574
 20
18.680243
 30
0.0
 11
316.798574
 21
6.680242999999999
 31
0.0
  0
LINE
  5
1A4BB
330
1A4A9
100
AcDbEntity
 67
     1
  8
外枠
100
AcDbLine
 10
19.798574
 20
30.680243
 30
0.0
 11
356.798574
 21
30.680243
 31
0.0
  0
LINE
  5
1A4BC
330
1A4A9
100
AcDbEntity
 67
     1
  8
外枠
100
AcDbLine
 10
374.798574
 20
30.680243
 30
0.0
 11
374.798574
 21
6.680242999999999
 31
0.0
  0
LINE
  5
1A4BD
330
1A4A9
100
AcDbEntity
 67
     1
  8
外枠
100
AcDbLine
 10
389.798574
 20
30.680243
 30
0.0
 11
389.798574
 21
18.680243
 31
0.0
  0
LINE
  5
1A4BE
330
1A4A9
100
AcDbEntity
 67
     1
  8
外枠
100
AcDbLine
 10
403.798574
 20
18.680243
 30
0.0
 11
231.798574
 21
18.680243
 31
0.0
  0
LINE
  5
1A4BF
330
1A4A9
100
AcDbEntity
 67
     1
  8
外枠
100
AcDbLine
 10
19.798574
 20
26.680243
 30
0.0
 11
185.798574
 21
26.680243
 31
0.0
  0
LINE
  5
1A4C0
330
1A4A9
100
AcDbEntity
 67
     1
  8
外枠
100
AcDbLine
 10
19.798574
 20
22.68024299999999
 30
0.0
 11
185.798574
 21
22.68024299999999
 31
0.0
  0
LINE
  5
1A4C1
330
1A4A9
100
AcDbEntity
 67
     1
  8
外枠
100
AcDbLine
 10
19.798574
 20
18.680243
 30
0.0
 11
185.798574
 21
18.680243
 31
0.0
  0
LINE
  5
1A4C2
330
1A4A9
100
AcDbEntity
 67
     1
  8
外枠
100
AcDbLine
 10
19.798574
 20
14.68024299999999
 30
0.0
 11
185.798574
 21
14.68024299999999
 31
0.0
  0
LINE
  5
1A4C3
330
1A4A9
100
AcDbEntity
 67
     1
  8
外枠
100
AcDbLine
 10
19.798574
 20
10.680243
 30
0.0
 11
185.798574
 21
10.680243
 31
0.0
  0
LINE
  5
1A4C4
330
1A4A9
100
AcDbEntity
 67
     1
  8
外枠
100
AcDbLine
 10
231.798574
 20
22.68024299999999
 30
0.0
 11
185.798574
 21
22.68024299999999
 31
0.0
  0
LINE
  5
1A4C5
330
1A4A9
100
AcDbEntity
 67
     1
  8
外枠
100
AcDbLine
 10
185.798574
 20
14.68024299999999
 30
0.0
 11
231.798574
 21
14.68024299999999
 31
0.0
  0
LINE
  5
1A4C6
330
1A4A9
100
AcDbEntity
 67
     1
  8
外枠
100
AcDbLine
 10
19.798574
 20
30.680243
 30
0.0
 11
13.79857399999999
 21
30.680243
 31
0.0
  0
LINE
  5
1A4C7
330
1A4A9
100
AcDbEntity
 67
     1
  8
外枠
100
AcDbLine
 10
409.798574
 20
30.680243
 30
0.0
 11
403.798574
 21
30.680243
 31
0.0
  0
LINE
  5
1A4C8
330
1A4A9
100
AcDbEntity
 67
     1
  8
外枠
100
AcDbLine
 10
83.798574
 20
278.680243
 30
0.0
 11
83.798574
 21
284.680243
 31
0.0
  0
MTEXT
  5
1A4C9
330
1A4A9
100
AcDbEntity
 67
     1
  8
外枠
100
AcDbMText
 10
24.29857399999999
 20
8.680242999999999
 30
0.0
 40
2.0
 41
23.0
 71
     5
 72
     5
  1
REV.
 73
     1
 44
1.0
  0
MTEXT
  5
1A4CA
330
1A4A9
100
AcDbEntity
 67
     1
  8
外枠
100
AcDbMText
 10
88.798574
 20
8.680242999999999
 30
0.0
 40
2.0
 41
23.0
 71
     5
 72
     5
  1
CONTENT
 73
     1
 44
1.0
  0
MTEXT
  5
1A4CB
330
1A4A9
100
AcDbEntity
 67
     1
  8
外枠
100
AcDbMText
 10
149.2985739999999
 20
8.680242999999999
 30
0.0
 40
2.0
 41
11.0
 71
     5
 72
     5
  1
DATE
 73
     1
 44
1.0
  0
MTEXT
  5
1A4CC
330
1A4A9
100
AcDbEntity
 67
     1
  8
外枠
100
AcDbMText
 10
163.298574
 20
8.680242999999999
 30
0.0
 40
2.0
 41
10.0
 71
     5
 72
     5
  1
DRW
 73
     1
 44
1.0
  0
MTEXT
  5
1A4CD
330
1A4A9
100
AcDbEntity
 67
     1
  8
外枠
100
AcDbMText
 10
172.298574
 20
8.680242999999999
 30
0.0
 40
2.0
 41
10.0
 71
     5
 72
     5
  1
CHK
 73
     1
 44
1.0
  0
MTEXT
  5
1A4CE
330
1A4A9
100
AcDbEntity
 67
     1
  8
外枠
100
AcDbMText
 10
181.298574
 20
8.680242999999999
 30
0.0
 40
2.0
 41
10.0
 71
     5
 72
     5
  1
APR
 73
     1
 44
1.0
  0
MTEXT
  5
1A4CF
330
1A4A9
100
AcDbEntity
 67
     1
  8
外枠
100
AcDbMText
 10
186.7985739999999
 20
28.680243
 30
0.0
 40
1.5
 41
10.38739999999999
 71
     4
 72
     5
  1
DRAWN
 73
     1
 44
1.0
  0
MTEXT
  5
1A4D0
330
1A4A9
100
AcDbEntity
 67
     1
  8
外枠
100
AcDbMText
 10
209.798574
 20
28.680243
 30
0.0
 40
1.5
 41
10.38739999999999
 71
     4
 72
     5
  1
DATE
 73
     1
 44
1.0
  0
MTEXT
  5
1A4D1
330
1A4A9
100
AcDbEntity
 67
     1
  8
外枠
100
AcDbMText
 10
186.7985739999999
 20
20.680243
 30
0.0
 40
1.5
 41
10.38739999999999
 71
     4
 72
     5
  1
CHECKED
 73
     1
 44
1.0
  0
MTEXT
  5
1A4D2
330
1A4A9
100
AcDbEntity
 67
     1
  8
外枠
100
AcDbMText
 10
209.798574
 20
20.680243
 30
0.0
 40
1.5
 41
10.38739999999999
 71
     4
 72
     5
  1
DATE
 73
     1
 44
1.0
  0
MTEXT
  5
1A4D3
330
1A4A9
100
AcDbEntity
 67
     1
  8
外枠
100
AcDbMText
 10
186.7985739999999
 20
12.68024299999999
 30
0.0
 40
1.5
 41
10.38739999999999
 71
     4
 72
     5
  1
APPROVED
 73
     1
 44
1.0
  0
MTEXT
  5
1A4D4
330
1A4A9
100
AcDbEntity
 67
     1
  8
外枠
100
AcDbMText
 10
209.798574
 20
12.68024299999999
 30
0.0
 40
1.5
 41
10.38739999999999
 71
     4
 72
     5
  1
DATE
 73
     1
 44
1.0
  0
MTEXT
  5
1A4D5
330
1A4A9
100
AcDbEntity
 67
     1
  8
外枠
100
AcDbMText
 10
236.514215
 20
28.680243
 30
0.0
 40
2.0
 41
13.5309
 71
     4
 72
     5
  1
TITLE
 73
     1
 44
1.0
  0
MTEXT
  5
1A4D6
330
1A4A9
100
AcDbEntity
 67
     1
  8
外枠
100
AcDbMText
 10
318.298574
 20
16.680243
 30
0.0
 40
2.0
 41
30.5046
 71
     4
 72
     5
  1
DRAWNIG No.
 73
     1
 44
1.0
  0
MTEXT
  5
1A4D7
330
1A4A9
100
AcDbEntity
 67
     1
  8
外枠
100
AcDbMText
 10
375.798574
 20
28.680243
 30
0.0
 40
2.0
 41
12.0
 71
     4
 72
     5
  1
SCALE
 73
     1
 44
1.0
  0
MTEXT
  5
1A4D8
330
1A4A9
100
AcDbEntity
 67
     1
  8
外枠
100
AcDbMText
 10
390.798574
 20
28.680243
 30
0.0
 40
2.0
 41
10.0
 71
     4
 72
     5
  1
SIZE
 73
     1
 44
1.0
  0
MTEXT
  5
1A4D9
330
1A4A9
100
AcDbEntity
 67
     1
  8
外枠
100
AcDbMText
 10
375.798574
 20
16.680243
 30
0.0
 40
2.0
 41
20.0
 71
     4
 72
     5
  1
SHEET
 73
     1
 44
1.0
  0
MTEXT
  5
1A4DA
330
1A4A9
100
AcDbEntity
 67
     1
  8
外枠
100
AcDbMText
 10
51.798574
 20
281.680243
 30
0.0
 40
3.0
 41
24.4503
 71
     5
 72
     5
  1
1
 73
     1
 44
1.0
  0
MTEXT
  5
1A4DB
330
1A4A9
100
AcDbEntity
 67
     1
  8
外枠
100
AcDbMText
 10
17.298574
 20
62.180243
 30
0.0
 40
3.0
 41
5.0
 71
     5
 72
     5
  1
A
 73
     1
 44
1.0
  0
MTEXT
  5
1A4DC
330
1A4A9
100
AcDbEntity
 67
     1
  8
外枠
100
AcDbMText
 10
406.298574
 20
62.180243
 30
0.0
 40
3.0
 41
5.0
 71
     5
 72
     5
  1
A
 73
     1
 44
1.0
  0
MTEXT
  5
1A4DD
330
1A4A9
100
AcDbEntity
 67
     1
  8
外枠
100
AcDbMText
 10
389.798574
 20
11.18024299999999
 30
0.0
 40
5.5
 41
25.0
 71
     5
 72
     5
  1
1/1
 73
     1
 44
1.0
  0
MTEXT
  5
1A4DE
330
1A4A9
100
AcDbEntity
 67
     1
  8
外枠
100
AcDbMText
 10
397.798574
 20
23.180243
 30
0.0
 40
5.0
 41
12.0
 71
     5
 72
     5
  1
A3
 73
     1
 44
1.0
  0
MTEXT
  5
1A4DF
330
1A4A9
100
AcDbEntity
 67
     1
  8
外枠
100
AcDbMText
 10
346.798574
 20
11.18024299999999
 30
0.0
 40
3.5
 41
50.0
 71
     5
 72
     5
  1
ED-056-0-004-H-**A-0
 73
     1
 44
1.0
  0
MTEXT
  5
1A4E0
330
1A4A9
100
AcDbEntity
 67
     1
  8
外枠
100
AcDbMText
 10
6.798574
 20
122.6802429999999
 30
0.0
 40
1.5
 41
90.0
 71
     4
 72
     5
  3
This material and the information herein is the property of IAI Corp..\PThey shall be neither reproduced, copied, lent, or disclosed in any way\Pwhatever for the use of any third party, nor used for the manufacturing\Ppurposes without the express wri
  1
tten consent of IAI Corp..
 11
0.0
 21
1.0
 31
0.0
 73
     1
 44
1.0
  0
LINE
  5
1A4E1
330
1A4A9
100
AcDbEntity
 67
     1
  8
外枠
100
AcDbLine
 10
19.798574
 20
92.680243
 30
0.0
 11
13.79857399999999
 21
92.680243
 31
0.0
  0
LINE
  5
1A4E2
330
1A4A9
100
AcDbEntity
 67
     1
  8
外枠
100
AcDbLine
 10
19.798574
 20
154.6802429999999
 30
0.0
 11
13.79857399999999
 21
154.6802429999999
 31
0.0
  0
LINE
  5
1A4E3
330
1A4A9
100
AcDbEntity
 67
     1
  8
外枠
100
AcDbLine
 10
19.798574
 20
216.680243
 30
0.0
 11
13.79857399999999
 21
216.680243
 31
0.0
  0
MTEXT
  5
1A4E4
330
1A4A9
100
AcDbEntity
 67
     1
  8
外枠
100
AcDbMText
 10
17.298574
 20
124.1802429999999
 30
0.0
 40
3.0
 41
5.0
 71
     5
 72
     5
  1
B
 73
     1
 44
1.0
  0
MTEXT
  5
1A4E5
330
1A4A9
100
AcDbEntity
 67
     1
  8
外枠
100
AcDbMText
 10
17.298574
 20
186.180243
 30
0.0
 40
3.0
 41
5.0
 71
     5
 72
     5
  1
C
 73
     1
 44
1.0
  0
MTEXT
  5
1A4E6
330
1A4A9
100
AcDbEntity
 67
     1
  8
外枠
100
AcDbMText
 10
17.298574
 20
248.180243
 30
0.0
 40
3.0
 41
5.0
 71
     5
 72
     5
  1
D
 73
     1
 44
1.0
  0
LINE
  5
1A4E7
330
1A4A9
100
AcDbEntity
 67
     1
  8
外枠
100
AcDbLine
 10
409.798574
 20
92.680243
 30
0.0
 11
403.798574
 21
92.680243
 31
0.0
  0
LINE
  5
1A4E8
330
1A4A9
100
AcDbEntity
 67
     1
  8
外枠
100
AcDbLine
 10
409.798574
 20
154.6802429999999
 30
0.0
 11
403.798574
 21
154.6802429999999
 31
0.0
  0
LINE
  5
1A4E9
330
1A4A9
100
AcDbEntity
 67
     1
  8
外枠
100
AcDbLine
 10
409.798574
 20
216.680243
 30
0.0
 11
403.798574
 21
216.680243
 31
0.0
  0
MTEXT
  5
1A4EA
330
1A4A9
100
AcDbEntity
 67
     1
  8
外枠
100
AcDbMText
 10
406.298574
 20
124.1802429999999
 30
0.0
 40
3.0
 41
5.0
 71
     5
 72
     5
  1
B
 73
     1
 44
1.0
  0
MTEXT
  5
1A4EB
330
1A4A9
100
AcDbEntity
 67
     1
  8
外枠
100
AcDbMText
 10
406.298574
 20
186.180243
 30
0.0
 40
3.0
 41
5.0
 71
     5
 72
     5
  1
C
 73
     1
 44
1.0
  0
MTEXT
  5
1A4EC
330
1A4A9
100
AcDbEntity
 67
     1
  8
外枠
100
AcDbMText
 10
406.298574
 20
248.180243
 30
0.0
 40
3.0
 41
5.0
 71
     5
 72
     5
  1
D
 73
     1
 44
1.0
  0
LINE
  5
1A4ED
330
1A4A9
100
AcDbEntity
 67
     1
  8
外枠
100
AcDbLine
 10
147.798574
 20
278.680243
 30
0.0
 11
147.798574
 21
284.680243
 31
0.0
  0
LINE
  5
1A4EE
330
1A4A9
100
AcDbEntity
 67
     1
  8
外枠
100
AcDbLine
 10
211.798574
 20
278.680243
 30
0.0
 11
211.798574
 21
284.680243
 31
0.0
  0
LINE
  5
1A4EF
330
1A4A9
100
AcDbEntity
 67
     1
  8
外枠
100
AcDbLine
 10
275.798574
 20
278.680243
 30
0.0
 11
275.798574
 21
284.680243
 31
0.0
  0
LINE
  5
1A4F0
330
1A4A9
100
AcDbEntity
 67
     1
  8
外枠
100
AcDbLine
 10
339.798574
 20
278.680243
 30
0.0
 11
339.798574
 21
284.680243
 31
0.0
  0
MTEXT
  5
1A4F1
330
1A4A9
100
AcDbEntity
 67
     1
  8
外枠
100
AcDbMText
 10
115.7985739999999
 20
281.680243
 30
0.0
 40
3.0
 41
24.4503
 71
     5
 72
     5
  1
2
 73
     1
 44
1.0
  0
MTEXT
  5
1A4F2
330
1A4A9
100
AcDbEntity
 67
     1
  8
外枠
100
AcDbMText
 10
179.798574
 20
281.680243
 30
0.0
 40
3.0
 41
24.4503
 71
     5
 72
     5
  1
3
 73
     1
 44
1.0
  0
MTEXT
  5
1A4F3
330
1A4A9
100
AcDbEntity
 67
     1
  8
外枠
100
AcDbMText
 10
243.798574
 20
281.680243
 30
0.0
 40
3.0
 41
24.4503
 71
     5
 72
     5
  1
4
 73
     1
 44
1.0
  0
MTEXT
  5
1A4F4
330
1A4A9
100
AcDbEntity
 67
     1
  8
外枠
100
AcDbMText
 10
307.798574
 20
281.680243
 30
0.0
 40
3.0
 41
24.4503
 71
     5
 72
     5
  1
5
 73
     1
 44
1.0
  0
MTEXT
  5
1A4F5
330
1A4A9
100
AcDbEntity
 67
     1
  8
外枠
100
AcDbMText
 10
371.798574
 20
281.680243
 30
0.0
 40
3.0
 41
24.4503
 71
     5
 72
     5
  1
6
 73
     1
 44
1.0
  0
VIEWPORT
  5
1A4F6
330
1A4A9
100
AcDbEntity
 67
     1
  8
外枠
100
AcDbViewport
 10
211.798574
 20
154.6802429999999
 30
0.0
 40
384.0
 41
248.0
 68
     0
 69
     2
 12
-634.996612
 22
-60.852076
 13
0.0
 23
0.0
 14
10.0
 24
10.0
 15
10.0
 25
10.0
 16
0.0
 26
0.0
 36
1.0
 17
0.0
 27
0.0
 37
0.0
 42
50.0
 43
0.0
 44
0.0
 45
268.5818659999999
 50
0.0
 51
0.0
 72
   100
 90
   163872
  1

281
     0
 71
     1
 74
     0
110
0.0
120
0.0
130
0.0
111
1.0
121
0.0
131
0.0
112
0.0
122
1.0
132
0.0
 79
     0
146
0.0
  0
MTEXT
  5
1A4F7
330
1A4A9
100
AcDbEntity
 67
     1
  8
外枠
100
AcDbMText
 10
244.7189378805147
 20
23.980581
 30
0.0
 40
3.5
 41
131.0347708727171
 71
     4
 72
     5
  1
nSCON　400W以上製品外形図（MECHATROLINK III仕様）
  7
BIGFONT
 73
     1
 44
1.0
  0
MTEXT
  5
1A4F8
330
1A4A9
100
AcDbEntity
 67
     1
  8
外枠
100
AcDbMText
 10
197.163861
 20
24.81272399999999
 30
0.0
 40
2.299999999999999
 41
23.6281
 71
     5
 72
     5
  1
H.Suzukake
  7
BIGFONT
 73
     1
 44
1.0
  0
MTEXT
  5
1A4F9
330
1A4A9
100
AcDbEntity
 67
     1
  8
外枠
100
AcDbMText
 10
211.6997779999999
 20
24.92512
 30
0.0
 40
2.5
 41
23.178
 71
     4
 72
     5
  1
13.03.25
  7
BIGFONT
 73
     1
 44
1.0
  0
INSERT
  5
1A4FA
330
1A4A9
100
AcDbEntity
 67
     1
  8
外枠
100
AcDbBlockReference
  2
A$C338010C9
 10
237.527872
 20
8.609218999999999
 30
0.0
 41
0.45
 42
0.45
 43
0.45
  0
MTEXT
  5
1A4FB
330
1A4A9
100
AcDbEntity
 67
     1
  8
外枠
100
AcDbMText
 10
382.662601
 20
23.012086
 30
0.0
 40
4.0
 41
25.0
 71
     5
 72
     5
  1
1/2
 73
     1
 44
1.0
  0
VIEWPORT
  5
1A4FC
330
1A4A9
100
AcDbEntity
 67
     1
  8
VIEWPORT枠
100
AcDbViewport
 10
211.798574
 20
154.6802429999999
 30
0.0
 40
384.0
 41
248.0
 68
     2
 69
     3
 12
692.2455801950818
 22
-3414.031092387519
 13
0.0
 23
0.0
 14
10.0
 24
10.0
 15
10.0
 25
10.0
 16
0.0
 26
0.0
 36
1.0
 17
0.0
 27
0.0
 37
0.0
 42
50.0
 43
0.0
 44
0.0
 45
496.000028161151
 50
0.0
 51
0.0
 72
   100
 90
    32800
  1

281
     0
 71
     1
 74
     0
110
0.0
120
0.0
130
0.0
111
1.0
121
0.0
131
0.0
112
0.0
122
1.0
132
0.0
 79
     0
146
0.0
  0
ENDSEC
  0
SECTION
  2
OBJECTS
  0
DICTIONARY
  5
C
330
0
100
AcDbDictionary
281
     1
  3
ACAD_GROUP
350
D
  3
ACAD_IMAGE_VARS
350
1A9BF
  3
ACAD_LAYOUT
350
1B73
  3
ACAD_MLINESTYLE
350
1B
  3
ACAD_PLOTSETTINGS
350
1B74
  3
ACAD_PLOTSTYLENAME
350
1B71
  3
ACAD_SCALELIST
350
1A995
  3
ACDBHEADERROUNDTRIPXREC
350
1AF09
  3
AcDbVariableDictionary
350
1B7B
  3
APPDATA
350
1A9BD
  3
CONTENTDICTIONARY
350
30A
  3
DWGPROPS
350
1A9D0
  0
DICTIONARY
  5
10A43
330
2
100
AcDbDictionary
280
     1
281
     1
  3
ACAD_LAYERSTATES
360
10A44
  0
DICTIONARY
  5
87B9
330
18
100
AcDbDictionary
280
     1
281
     1
  3
ACAD_SORTENTS
360
CCB0
  0
DICTIONARY
  5
D
102
{ACAD_REACTORS
330
C
102
}
330
C
100
AcDbDictionary
281
     1
  3
*A1
350
7261
  3
*A10
350
8744
  3
*A11
350
8766
  3
*A12
350
8891
  3
*A13
350
BDEB
  3
*A14
350
BDEC
  3
*A15
350
170FA
  3
*A2
350
BDED
  3
*A3
350
BDEE
  3
*A4
350
BDEF
  3
*A5
350
870A
  3
*A6
350
871A
  3
*A7
350
872B
  3
*A8
350
8730
  3
*A9
350
8739
  0
RASTERVARIABLES
  5
1A9BF
102
{ACAD_REACTORS
330
C
102
}
330
C
100
AcDbRasterVariables
 90
        0
 70
     1
 71
     1
 72
     0
  0
DICTIONARY
  5
1B73
102
{ACAD_REACTORS
330
C
102
}
330
C
100
AcDbDictionary
281
     1
  3
MECHATROLINK3
350
1A501
  3
Model
350
1B75
  0
DICTIONARY
  5
1B
102
{ACAD_REACTORS
330
C
102
}
330
C
100
AcDbDictionary
281
     1
  3
STANDARD
350
1C
  0
DICTIONARY
  5
1B74
102
{ACAD_REACTORS
330
C
102
}
330
C
100
AcDbDictionary
281
     1
  0
ACDBDICTIONARYWDFLT
  5
1B71
102
{ACAD_REACTORS
330
C
102
}
330
C
100
AcDbDictionary
281
     1
  3
Normal
350
1B72
100
AcDbDictionaryWithDefault
340
1B72
  0
DICTIONARY
  5
1A995
102
{ACAD_REACTORS
330
C
102
}
330
C
100
AcDbDictionary
281
     1
  3
A0
350
1A996
  3
A1
350
1A997
  3
A2
350
1A998
  3
A3
350
1A999
  3
A4
350
1A99A
  3
A5
350
1A99B
  3
A6
350
1A99C
  3
A7
350
1A99D
  3
A8
350
1A99E
  3
A9
350
1A99F
  3
B0
350
1A9A0
  3
B1
350
1A9A1
  3
B2
350
1A9A2
  3
B3
350
1A9A3
  3
B4
350
1A9A4
  3
B5
350
1A9A5
  3
B6
350
1A9A6
  3
B7
350
1A9A7
  3
B8
350
1A9A8
  3
B9
350
1A9A9
  3
C0
350
1A9AA
  3
C1
350
1A9AB
  3
C2
350
1A9AC
  3
C3
350
1A9AD
  3
C4
350
1A9AE
  3
C5
350
1A9AF
  3
C6
350
1A9B0
  3
C7
350
1A9B1
  3
C8
350
1A9B2
  3
C9
350
1A9B3
  3
D0
350
1A9B4
  3
D1
350
1A9B5
  3
D2
350
1A9B6
  0
DICTIONARY
  5
1AF09
102
{ACAD_REACTORS
330
C
102
}
330
C
100
AcDbDictionary
281
     1
  3
CEPSNTYPE
350
1AF13
  3
DIMSTYLEDATA
350
1AF17
  3
FINGERPRINTGUID
350
1AF14
  3
HYPERLINKBASE
350
1AF0C
  3
INSUNITS
350
1AF12
  3
LAYOUTDICT
350
1AF0E
  3
LWETCUNION
350
1AF11
  3
PLOTSETDICT
350
1AF0F
  3
PLOTSTYLNAMDICT
350
1AF10
  3
PSVPSCALE
350
1AF16
  3
PUCSBASE
350
1AF1A
  3
PUCSORGBACK
350
1AF20
  3
PUCSORGBOTTOM
350
1AF1C
  3
PUCSORGFRONT
350
1AF1F
  3
PUCSORGLEFT
350
1AF1D
  3
PUCSORGRIGHT
350
1AF1E
  3
PUCSORGTOP
350
1AF1B
  3
PUCSORTHOREF
350
1AF18
  3
PUCSORTHOVIEW
350
1AF19
  3
STYLESHEET
350
1AF0D
  3
TSTACKALIGN
350
1AF0A
  3
TSTACKSIZE
350
1AF0B
  3
UCSBASE
350
1AF23
  3
UCSORGBACK
350
1AF29
  3
UCSORGBOTTOM
350
1AF25
  3
UCSORGFRONT
350
1AF28
  3
UCSORGLEFT
350
1AF26
  3
UCSORGRIGHT
350
1AF27
  3
UCSORGTOP
350
1AF24
  3
UCSORTHOREF
350
1AF21
  3
UCSORTHOVIEW
350
1AF22
  3
VERSIONGUID
350
1AF15
  0
DICTIONARY
  5
1B7B
102
{ACAD_REACTORS
330
C
102
}
330
C
100
AcDbDictionary
281
     1
  3
DIMASSOC
350
1B7C
  3
SORTENTS
350
A7B4
  0
DICTIONARY
  5
1A9BD
102
{ACAD_REACTORS
330
C
102
}
330
C
100
AcDbDictionary
281
     1
  0
DICTIONARY
  5
30A
102
{ACAD_REACTORS
330
C
102
}
330
C
100
AcDbDictionary
281
     1
  0
XRECORD
  5
1A9D0
102
{ACAD_REACTORS
330
C
102
}
330
C
100
AcDbXrecord
280
     1
  1
DWGPROPS COOKIE
  2

  3

  4

  6

  7

  8
848
  9

300
=
301
=
302
=
303
=
304
=
305
=
306
=
307
=
308
=
309
=
 40
0.0
 41
2452240.268004375
 42
2456868.161064595
  1

 90
        0
  0
DICTIONARY
  5
10A44
102
{ACAD_REACTORS
330
10A43
102
}
330
10A43
100
AcDbDictionary
281
     1
  0
SORTENTSTABLE
  5
CCB0
102
{ACAD_REACTORS
330
87B9
102
}
330
87B9
100
AcDbSortentsTable
330
18
  0
GROUP
  5
7261
102
{ACAD_REACTORS
330
D
102
}
330
D
100
AcDbGroup
300

 70
     1
 71
     1
  0
GROUP
  5
8744
102
{ACAD_REACTORS
330
D
102
}
330
D
100
AcDbGroup
300

 70
     1
 71
     1
  0
GROUP
  5
8766
102
{ACAD_REACTORS
330
D
102
}
330
D
100
AcDbGroup
300

 70
     1
 71
     1
  0
GROUP
  5
8891
102
{ACAD_REACTORS
330
D
102
}
330
D
100
AcDbGroup
300

 70
     1
 71
     1
  0
GROUP
  5
BDEB
102
{ACAD_REACTORS
330
D
102
}
330
D
100
AcDbGroup
300

 70
     1
 71
     1
  0
GROUP
  5
BDEC
102
{ACAD_REACTORS
330
D
102
}
330
D
100
AcDbGroup
300

 70
     1
 71
     1
  0
GROUP
  5
170FA
102
{ACAD_REACTORS
330
D
102
}
330
D
100
AcDbGroup
300

 70
     1
 71
     1
  0
GROUP
  5
BDED
102
{ACAD_REACTORS
330
D
102
}
330
D
100
AcDbGroup
300

 70
     1
 71
     1
  0
GROUP
  5
BDEE
102
{ACAD_REACTORS
330
D
102
}
330
D
100
AcDbGroup
300

 70
     1
 71
     1
  0
GROUP
  5
BDEF
102
{ACAD_REACTORS
330
D
102
}
330
D
100
AcDbGroup
300

 70
     1
 71
     1
  0
GROUP
  5
870A
102
{ACAD_REACTORS
330
D
102
}
330
D
100
AcDbGroup
300

 70
     1
 71
     1
  0
GROUP
  5
871A
102
{ACAD_REACTORS
330
D
102
}
330
D
100
AcDbGroup
300

 70
     1
 71
     1
  0
GROUP
  5
872B
102
{ACAD_REACTORS
330
D
102
}
330
D
100
AcDbGroup
300

 70
     1
 71
     1
  0
GROUP
  5
8730
102
{ACAD_REACTORS
330
D
102
}
330
D
100
AcDbGroup
300

 70
     1
 71
     1
  0
GROUP
  5
8739
102
{ACAD_REACTORS
330
D
102
}
330
D
100
AcDbGroup
300

 70
     1
 71
     1
  0
LAYOUT
  5
1A501
102
{ACAD_REACTORS
330
1B73
102
}
330
1B73
100
AcDbPlotSettings
  1

  2
7F大型複合機_AP7080
  4
A3
  6

 40
4.900083065032958
 41
4.857729434967041
 42
4.900054931640625
 43
4.90008544921875
 44
297.0106506347656
 45
419.9889831542968
 46
0.0
 47
0.0
 48
0.0
 49
0.0
140
0.0
141
0.0
142
1.0
143
1.0
 70
   688
 72
     1
 73
     1
 74
     1
  7

 75
    16
147
1.0
148
0.0109582953936069
149
0.0210675970057537
100
AcDbLayout
  1
MECHATROLINK3
 70
     1
 71
     1
 10
-4.911043744612356
 20
-4.921150662038712
 11
415.0779394096844
 21
292.0894999727268
 12
0.0
 22
0.0
 32
0.0
 14
0.0
 24
0.0
 34
0.0
 15
420.0
 25
297.0
 35
0.0
146
0.0
 13
0.0
 23
0.0
 33
0.0
 16
1.0
 26
0.0
 36
0.0
 17
0.0
 27
1.0
 37
0.0
 76
     0
330
1A4A9
331
1A4AA
  0
LAYOUT
  5
1B75
102
{ACAD_REACTORS
330
1B73
102
}
330
1B73
100
AcDbPlotSettings
  1

  2
Acrobat PDFWriter
  4
A3
  6

 40
7.143749713897705
 41
7.143756389617919
 42
7.143768310546875
 43
7.14373779296875
 44
297.1270751953125
 45
420.1583251953125
 46
50.91
 47
66.15000000000001
 48
0.0
 49
0.0
140
0.0
141
0.0
142
1.0
143
1.0
 70
 11956
 72
     1
 73
     1
 74
     0
  7

 75
    16
147
1.0
148
123.9234986176679
149
8.627310359533112
100
AcDbLayout
  1
Model
 70
     1
 71
     0
 10
0.0
 20
0.0
 11
12.0
 21
9.0
 12
0.0
 22
0.0
 32
0.0
 14
0.0
 24
0.0
 34
0.0
 15
0.0
 25
0.0
 35
0.0
146
0.0
 13
0.0
 23
0.0
 33
0.0
 16
1.0
 26
0.0
 36
0.0
 17
0.0
 27
1.0
 37
0.0
 76
     0
330
18
  0
MLINESTYLE
  5
1C
102
{ACAD_REACTORS
330
1B
102
}
330
1B
100
AcDbMlineStyle
  2
STANDARD
 70
     0
  3

 62
   256
 51
90.0
 52
90.0
 71
     2
 49
0.5
 62
   256
  6
BYLAYER
 49
-0.5
 62
   256
  6
BYLAYER
  0
ACDBPLACEHOLDER
  5
1B72
102
{ACAD_REACTORS
330
1B71
102
}
330
1B71
  0
SCALE
  5
1A996
102
{ACAD_REACTORS
330
1A995
102
}
330
1A995
100
AcDbScale
 70
     0
300
1:1
140
1.0
141
1.0
290
     1
  0
SCALE
  5
1A997
102
{ACAD_REACTORS
330
1A995
102
}
330
1A995
100
AcDbScale
 70
     0
300
1:2
140
1.0
141
2.0
290
     0
  0
SCALE
  5
1A998
102
{ACAD_REACTORS
330
1A995
102
}
330
1A995
100
AcDbScale
 70
     0
300
1:4
140
1.0
141
4.0
290
     0
  0
SCALE
  5
1A999
102
{ACAD_REACTORS
330
1A995
102
}
330
1A995
100
AcDbScale
 70
     0
300
1:5
140
1.0
141
5.0
290
     0
  0
SCALE
  5
1A99A
102
{ACAD_REACTORS
330
1A995
102
}
330
1A995
100
AcDbScale
 70
     0
300
1:8
140
1.0
141
8.0
290
     0
  0
SCALE
  5
1A99B
102
{ACAD_REACTORS
330
1A995
102
}
330
1A995
100
AcDbScale
 70
     0
300
1:10
140
1.0
141
10.0
290
     0
  0
SCALE
  5
1A99C
102
{ACAD_REACTORS
330
1A995
102
}
330
1A995
100
AcDbScale
 70
     0
300
1:16
140
1.0
141
16.0
290
     0
  0
SCALE
  5
1A99D
102
{ACAD_REACTORS
330
1A995
102
}
330
1A995
100
AcDbScale
 70
     0
300
1:20
140
1.0
141
20.0
290
     0
  0
SCALE
  5
1A99E
102
{ACAD_REACTORS
330
1A995
102
}
330
1A995
100
AcDbScale
 70
     0
300
1:30
140
1.0
141
30.0
290
     0
  0
SCALE
  5
1A99F
102
{ACAD_REACTORS
330
1A995
102
}
330
1A995
100
AcDbScale
 70
     0
300
1:40
140
1.0
141
40.0
290
     0
  0
SCALE
  5
1A9A0
102
{ACAD_REACTORS
330
1A995
102
}
330
1A995
100
AcDbScale
 70
     0
300
1:50
140
1.0
141
50.0
290
     0
  0
SCALE
  5
1A9A1
102
{ACAD_REACTORS
330
1A995
102
}
330
1A995
100
AcDbScale
 70
     0
300
1:100
140
1.0
141
100.0
290
     0
  0
SCALE
  5
1A9A2
102
{ACAD_REACTORS
330
1A995
102
}
330
1A995
100
AcDbScale
 70
     0
300
2:1
140
2.0
141
1.0
290
     0
  0
SCALE
  5
1A9A3
102
{ACAD_REACTORS
330
1A995
102
}
330
1A995
100
AcDbScale
 70
     0
300
4:1
140
4.0
141
1.0
290
     0
  0
SCALE
  5
1A9A4
102
{ACAD_REACTORS
330
1A995
102
}
330
1A995
100
AcDbScale
 70
     0
300
8:1
140
8.0
141
1.0
290
     0
  0
SCALE
  5
1A9A5
102
{ACAD_REACTORS
330
1A995
102
}
330
1A995
100
AcDbScale
 70
     0
300
10:1
140
10.0
141
1.0
290
     0
  0
SCALE
  5
1A9A6
102
{ACAD_REACTORS
330
1A995
102
}
330
1A995
100
AcDbScale
 70
     0
300
100:1
140
100.0
141
1.0
290
     0
  0
SCALE
  5
1A9A7
102
{ACAD_REACTORS
330
1A995
102
}
330
1A995
100
AcDbScale
 70
     0
300
1/128" = 1'-0"
140
0.0078125
141
12.0
290
     0
  0
SCALE
  5
1A9A8
102
{ACAD_REACTORS
330
1A995
102
}
330
1A995
100
AcDbScale
 70
     0
300
1/64" = 1'-0"
140
0.015625
141
12.0
290
     0
  0
SCALE
  5
1A9A9
102
{ACAD_REACTORS
330
1A995
102
}
330
1A995
100
AcDbScale
 70
     0
300
1/32" = 1'-0"
140
0.03125
141
12.0
290
     0
  0
SCALE
  5
1A9AA
102
{ACAD_REACTORS
330
1A995
102
}
330
1A995
100
AcDbScale
 70
     0
300
1/16" = 1'-0"
140
0.0625
141
12.0
290
     0
  0
SCALE
  5
1A9AB
102
{ACAD_REACTORS
330
1A995
102
}
330
1A995
100
AcDbScale
 70
     0
300
3/32" = 1'-0"
140
0.09375
141
12.0
290
     0
  0
SCALE
  5
1A9AC
102
{ACAD_REACTORS
330
1A995
102
}
330
1A995
100
AcDbScale
 70
     0
300
1/8" = 1'-0"
140
0.125
141
12.0
290
     0
  0
SCALE
  5
1A9AD
102
{ACAD_REACTORS
330
1A995
102
}
330
1A995
100
AcDbScale
 70
     0
300
3/16" = 1'-0"
140
0.1875
141
12.0
290
     0
  0
SCALE
  5
1A9AE
102
{ACAD_REACTORS
330
1A995
102
}
330
1A995
100
AcDbScale
 70
     0
300
1/4" = 1'-0"
140
0.25
141
12.0
290
     0
  0
SCALE
  5
1A9AF
102
{ACAD_REACTORS
330
1A995
102
}
330
1A995
100
AcDbScale
 70
     0
300
3/8" = 1'-0"
140
0.375
141
12.0
290
     0
  0
SCALE
  5
1A9B0
102
{ACAD_REACTORS
330
1A995
102
}
330
1A995
100
AcDbScale
 70
     0
300
1/2" = 1'-0"
140
0.5
141
12.0
290
     0
  0
SCALE
  5
1A9B1
102
{ACAD_REACTORS
330
1A995
102
}
330
1A995
100
AcDbScale
 70
     0
300
3/4" = 1'-0"
140
0.75
141
12.0
290
     0
  0
SCALE
  5
1A9B2
102
{ACAD_REACTORS
330
1A995
102
}
330
1A995
100
AcDbScale
 70
     0
300
1" = 1'-0"
140
1.0
141
12.0
290
     0
  0
SCALE
  5
1A9B3
102
{ACAD_REACTORS
330
1A995
102
}
330
1A995
100
AcDbScale
 70
     0
300
1-1/2" = 1'-0"
140
1.5
141
12.0
290
     0
  0
SCALE
  5
1A9B4
102
{ACAD_REACTORS
330
1A995
102
}
330
1A995
100
AcDbScale
 70
     0
300
3" = 1'-0"
140
3.0
141
12.0
290
     0
  0
SCALE
  5
1A9B5
102
{ACAD_REACTORS
330
1A995
102
}
330
1A995
100
AcDbScale
 70
     0
300
6" = 1'-0"
140
6.0
141
12.0
290
     0
  0
SCALE
  5
1A9B6
102
{ACAD_REACTORS
330
1A995
102
}
330
1A995
100
AcDbScale
 70
     0
300
1'-0" = 1'-0"
140
12.0
141
12.0
290
     0
  0
XRECORD
  5
1AF13
102
{ACAD_REACTORS
330
1AF09
102
}
330
1AF09
100
AcDbXrecord
280
     1
 90
        0
  0
XRECORD
  5
1AF17
102
{ACAD_REACTORS
330
1AF09
102
}
330
1AF09
100
AcDbXrecord
280
     1
1000
DSTYLE
1002
{
1070
    79
 70
     2
1070
   179
 70
     5
1070
   276
 70
     2
1070
   341
340
1AA01
1070
   342
340
1AA01
1070
   371
 70
    -1
1070
   372
 70
    -1
1002
}
  0
XRECORD
  5
1AF14
102
{ACAD_REACTORS
330
1AF09
102
}
330
1AF09
100
AcDbXrecord
280
     1
  1
{6FDF5DD9-E1C4-4B83-93D0-8D8DAA8CABC8}
  0
XRECORD
  5
1AF0C
102
{ACAD_REACTORS
330
1AF09
102
}
330
1AF09
100
AcDbXrecord
280
     1
  1

  0
XRECORD
  5
1AF12
102
{ACAD_REACTORS
330
1AF09
102
}
330
1AF09
100
AcDbXrecord
280
     1
 90
        0
  0
XRECORD
  5
1AF0E
102
{ACAD_REACTORS
330
1AF09
102
}
330
1AF09
100
AcDbXrecord
280
     1
340
1B73
  0
XRECORD
  5
1AF11
102
{ACAD_REACTORS
330
1AF09
102
}
330
1AF09
100
AcDbXrecord
280
     1
 90
    10781
  0
XRECORD
  5
1AF0F
102
{ACAD_REACTORS
330
1AF09
102
}
330
1AF09
100
AcDbXrecord
280
     1
340
1B74
  0
XRECORD
  5
1AF10
102
{ACAD_REACTORS
330
1AF09
102
}
330
1AF09
100
AcDbXrecord
280
     1
340
1B71
  0
XRECORD
  5
1AF16
102
{ACAD_REACTORS
330
1AF09
102
}
330
1AF09
100
AcDbXrecord
280
     1
 40
0.0
  0
XRECORD
  5
1AF1A
102
{ACAD_REACTORS
330
1AF09
102
}
330
1AF09
100
AcDbXrecord
280
     1
340
0
  0
XRECORD
  5
1AF20
102
{ACAD_REACTORS
330
1AF09
102
}
330
1AF09
100
AcDbXrecord
280
     1
 10
0.0
 20
0.0
 30
0.0
  0
XRECORD
  5
1AF1C
102
{ACAD_REACTORS
330
1AF09
102
}
330
1AF09
100
AcDbXrecord
280
     1
 10
0.0
 20
0.0
 30
0.0
  0
XRECORD
  5
1AF1F
102
{ACAD_REACTORS
330
1AF09
102
}
330
1AF09
100
AcDbXrecord
280
     1
 10
0.0
 20
0.0
 30
0.0
  0
XRECORD
  5
1AF1D
102
{ACAD_REACTORS
330
1AF09
102
}
330
1AF09
100
AcDbXrecord
280
     1
 10
0.0
 20
0.0
 30
0.0
  0
XRECORD
  5
1AF1E
102
{ACAD_REACTORS
330
1AF09
102
}
330
1AF09
100
AcDbXrecord
280
     1
 10
0.0
 20
0.0
 30
0.0
  0
XRECORD
  5
1AF1B
102
{ACAD_REACTORS
330
1AF09
102
}
330
1AF09
100
AcDbXrecord
280
     1
 10
0.0
 20
0.0
 30
0.0
  0
XRECORD
  5
1AF18
102
{ACAD_REACTORS
330
1AF09
102
}
330
1AF09
100
AcDbXrecord
280
     1
340
0
  0
XRECORD
  5
1AF19
102
{ACAD_REACTORS
330
1AF09
102
}
330
1AF09
100
AcDbXrecord
280
     1
 70
     0
  0
XRECORD
  5
1AF0D
102
{ACAD_REACTORS
330
1AF09
102
}
330
1AF09
100
AcDbXrecord
280
     1
  1

  0
XRECORD
  5
1AF0A
102
{ACAD_REACTORS
330
1AF09
102
}
330
1AF09
100
AcDbXrecord
280
     1
 90
        1
  0
XRECORD
  5
1AF0B
102
{ACAD_REACTORS
330
1AF09
102
}
330
1AF09
100
AcDbXrecord
280
     1
 90
       70
  0
XRECORD
  5
1AF23
102
{ACAD_REACTORS
330
1AF09
102
}
330
1AF09
100
AcDbXrecord
280
     1
340
0
  0
XRECORD
  5
1AF29
102
{ACAD_REACTORS
330
1AF09
102
}
330
1AF09
100
AcDbXrecord
280
     1
 10
0.0
 20
0.0
 30
0.0
  0
XRECORD
  5
1AF25
102
{ACAD_REACTORS
330
1AF09
102
}
330
1AF09
100
AcDbXrecord
280
     1
 10
0.0
 20
0.0
 30
0.0
  0
XRECORD
  5
1AF28
102
{ACAD_REACTORS
330
1AF09
102
}
330
1AF09
100
AcDbXrecord
280
     1
 10
0.0
 20
0.0
 30
0.0
  0
XRECORD
  5
1AF26
102
{ACAD_REACTORS
330
1AF09
102
}
330
1AF09
100
AcDbXrecord
280
     1
 10
0.0
 20
0.0
 30
0.0
  0
XRECORD
  5
1AF27
102
{ACAD_REACTORS
330
1AF09
102
}
330
1AF09
100
AcDbXrecord
280
     1
 10
0.0
 20
0.0
 30
0.0
  0
XRECORD
  5
1AF24
102
{ACAD_REACTORS
330
1AF09
102
}
330
1AF09
100
AcDbXrecord
280
     1
 10
0.0
 20
0.0
 30
0.0
  0
XRECORD
  5
1AF21
102
{ACAD_REACTORS
330
1AF09
102
}
330
1AF09
100
AcDbXrecord
280
     1
340
0
  0
XRECORD
  5
1AF22
102
{ACAD_REACTORS
330
1AF09
102
}
330
1AF09
100
AcDbXrecord
280
     1
 70
     0
  0
XRECORD
  5
1AF15
102
{ACAD_REACTORS
330
1AF09
102
}
330
1AF09
100
AcDbXrecord
280
     1
  1
{711B51D3-04CD-4E16-97BD-C97BF3C59690}
  0
DICTIONARYVAR
  5
1B7C
102
{ACAD_REACTORS
330
1B7B
102
}
330
1B7B
100
DictionaryVariables
280
     0
  1
1
  0
DICTIONARYVAR
  5
A7B4
102
{ACAD_REACTORS
330
1B7B
102
}
330
1B7B
100
DictionaryVariables
280
     0
  1
127
  0
ENDSEC
  0
EOF
