  0
SECTION
  2
HEADER
  9
$ACADVER
  1
AC1014
  9
$ACADMAINTVER
 70
     9
  9
$DWGCODEPAGE
  3
ANSI_932
  9
$INSBASE
 10
0.0
 20
0.0
 30
0.0
  9
$EXTMIN
 10
-6.715080903645699
 20
-0.0000007790208656
 30
0.0
  9
$EXTMAX
 10
279.0000042398298
 20
411.5129945001136
 30
0.0
  9
$LIMMIN
 10
0.0
 20
0.0
  9
$LIMMAX
 10
420.0
 20
297.0
  9
$ORTHOMODE
 70
     0
  9
$REGENMODE
 70
     1
  9
$FILLMODE
 70
     1
  9
$QTEXTMODE
 70
     0
  9
$MIRRTEXT
 70
     1
  9
$DRAGMODE
 70
     2
  9
$LTSCALE
 40
1.0
  9
$OSMODE
 70
    55
  9
$ATTMODE
 70
     1
  9
$TEXTSIZE
 40
2.5
  9
$TRACEWID
 40
1.0
  9
$TEXTSTYLE
  7
STANDARD
  9
$CLAYER
  8
0
  9
$CELTYPE
  6
BYLAYER
  9
$CECOLOR
 62
   256
  9
$CELTSCALE
 40
1.0
  9
$DELOBJ
 70
     1
  9
$DISPSILH
 70
     0
  9
$DIMSCALE
 40
1.0
  9
$DIMASZ
 40
2.5
  9
$DIMEXO
 40
0.625
  9
$DIMDLI
 40
3.75
  9
$DIMRND
 40
0.0
  9
$DIMDLE
 40
0.0
  9
$DIMEXE
 40
1.25
  9
$DIMTP
 40
0.0
  9
$DIMTM
 40
0.0
  9
$DIMTXT
 40
2.5
  9
$DIMCEN
 40
2.5
  9
$DIMTSZ
 40
0.0
  9
$DIMTOL
 70
     0
  9
$DIMLIM
 70
     0
  9
$DIMTIH
 70
     0
  9
$DIMTOH
 70
     0
  9
$DIMSE1
 70
     0
  9
$DIMSE2
 70
     0
  9
$DIMTAD
 70
     1
  9
$DIMZIN
 70
     8
  9
$DIMBLK
  1

  9
$DIMASO
 70
     1
  9
$DIMSHO
 70
     1
  9
$DIMPOST
  1

  9
$DIMAPOST
  1

  9
$DIMALT
 70
     0
  9
$DIMALTD
 70
     3
  9
$DIMALTF
 40
0.03937007874016
  9
$DIMLFAC
 40
1.0
  9
$DIMTOFL
 70
     1
  9
$DIMTVP
 40
0.0
  9
$DIMTIX
 70
     0
  9
$DIMSOXD
 70
     0
  9
$DIMSAH
 70
     0
  9
$DIMBLK1
  1

  9
$DIMBLK2
  1

  9
$DIMSTYLE
  2
ISO-25
  9
$DIMCLRD
 70
     0
  9
$DIMCLRE
 70
     0
  9
$DIMCLRT
 70
     0
  9
$DIMTFAC
 40
1.0
  9
$DIMGAP
 40
0.625
  9
$DIMJUST
 70
     0
  9
$DIMSD1
 70
     0
  9
$DIMSD2
 70
     0
  9
$DIMTOLJ
 70
     0
  9
$DIMTZIN
 70
     8
  9
$DIMALTZ
 70
     0
  9
$DIMALTTZ
 70
     0
  9
$DIMFIT
 70
     3
  9
$DIMUPT
 70
     0
  9
$DIMUNIT
 70
     2
  9
$DIMDEC
 70
     2
  9
$DIMTDEC
 70
     2
  9
$DIMALTU
 70
     2
  9
$DIMALTTD
 70
     3
  9
$DIMTXSTY
  7
STANDARD
  9
$DIMAUNIT
 70
     0
  9
$LUNITS
 70
     2
  9
$LUPREC
 70
     4
  9
$SKETCHINC
 40
1.0
  9
$FILLETRAD
 40
10.0
  9
$AUNITS
 70
     0
  9
$AUPREC
 70
     0
  9
$MENU
  1
.
  9
$ELEVATION
 40
0.0
  9
$PELEVATION
 40
0.0
  9
$THICKNESS
 40
0.0
  9
$LIMCHECK
 70
     0
  9
$BLIPMODE
 70
     0
  9
$CHAMFERA
 40
10.0
  9
$CHAMFERB
 40
10.0
  9
$CHAMFERC
 40
20.0
  9
$CHAMFERD
 40
0.0
  9
$SKPOLY
 70
     0
  9
$TDCREATE
 40
2455874.714611643
  9
$TDUPDATE
 40
2456013.762958541
  9
$TDINDWG
 40
0.0020689005
  9
$TDUSRTIMER
 40
0.0020683681
  9
$USRTIMER
 70
     1
  9
$ANGBASE
 50
0.0
  9
$ANGDIR
 70
     0
  9
$PDMODE
 70
     0
  9
$PDSIZE
 40
0.0
  9
$PLINEWID
 40
0.0
  9
$COORDS
 70
     1
  9
$SPLFRAME
 70
     0
  9
$SPLINETYPE
 70
     6
  9
$SPLINESEGS
 70
     8
  9
$ATTDIA
 70
     0
  9
$ATTREQ
 70
     1
  9
$HANDLING
 70
 22529
  9
$HANDSEED
  5
AAF
  9
$SURFTAB1
 70
     6
  9
$SURFTAB2
 70
     6
  9
$SURFTYPE
 70
     6
  9
$SURFU
 70
     6
  9
$SURFV
 70
     6
  9
$UCSNAME
  2

  9
$UCSORG
 10
0.0
 20
0.0
 30
0.0
  9
$UCSXDIR
 10
1.0
 20
0.0
 30
0.0
  9
$UCSYDIR
 10
0.0
 20
1.0
 30
0.0
  9
$PUCSNAME
  2

  9
$PUCSORG
 10
0.0
 20
0.0
 30
0.0
  9
$PUCSXDIR
 10
1.0
 20
0.0
 30
0.0
  9
$PUCSYDIR
 10
0.0
 20
1.0
 30
0.0
  9
$USERI1
 70
     0
  9
$USERI2
 70
     0
  9
$USERI3
 70
     0
  9
$USERI4
 70
     0
  9
$USERI5
 70
     0
  9
$USERR1
 40
0.0
  9
$USERR2
 40
0.0
  9
$USERR3
 40
0.0
  9
$USERR4
 40
0.0
  9
$USERR5
 40
0.0
  9
$WORLDVIEW
 70
     1
  9
$SHADEDGE
 70
     3
  9
$SHADEDIF
 70
    70
  9
$TILEMODE
 70
     1
  9
$MAXACTVP
 70
    64
  9
$PINSBASE
 10
0.0
 20
0.0
 30
0.0
  9
$PLIMCHECK
 70
     0
  9
$PEXTMIN
 10
1.000000000000000E+20
 20
1.000000000000000E+20
 30
1.000000000000000E+20
  9
$PEXTMAX
 10
-1.000000000000000E+20
 20
-1.000000000000000E+20
 30
-1.000000000000000E+20
  9
$PLIMMIN
 10
0.0
 20
0.0
  9
$PLIMMAX
 10
420.0
 20
297.0
  9
$UNITMODE
 70
     0
  9
$VISRETAIN
 70
     1
  9
$PLINEGEN
 70
     0
  9
$PSLTSCALE
 70
     1
  9
$TREEDEPTH
 70
  3020
  9
$PICKSTYLE
 70
     1
  9
$CMLSTYLE
  2
STANDARD
  9
$CMLJUST
 70
     0
  9
$CMLSCALE
 40
20.0
  9
$PROXYGRAPHICS
 70
     1
  9
$MEASUREMENT
 70
     1
  0
ENDSEC
  0
SECTION
  2
CLASSES
  0
CLASS
  1
ACDBDICTIONARYWDFLT
  2
AcDbDictionaryWithDefault
  3
AutoCAD 2000
 90
        0
280
     0
281
     0
  0
CLASS
  1
ACDBPLACEHOLDER
  2
AcDbPlaceHolder
  3
AutoCAD 2000
 90
        0
280
     0
281
     0
  0
CLASS
  1
LAYOUT
  2
AcDbLayout
  3
AutoCAD 2000
 90
        0
280
     0
281
     0
  0
CLASS
  1
DICTIONARYVAR
  2
AcDbDictionaryVar
  3
AutoCAD 2000
 90
        0
280
     0
281
     0
  0
CLASS
  1
LONG_TRANSACTION
  2
AcDbLongTransaction
  3
AutoCAD 2000
 90
        0
280
     0
281
     0
  0
CLASS
  1
LWPOLYLINE
  2
AcDbPolyline
  3
AutoCAD 2000
 90
        0
280
     0
281
     1
  0
CLASS
  1
HATCH
  2
AcDbHatch
  3
AutoCAD 2000
 90
        0
280
     0
281
     1
  0
CLASS
  1
XRECORD
  2
AcDbXrecord
  3
AutoCAD 2000
 90
        0
280
     0
281
     0
  0
CLASS
  1
LONG_TRANSACTION
  2
AcDbLongTransaction
  3
AutoCAD 2000
 90
        0
280
     0
281
     0
  0
CLASS
  1
LWPOLYLINE
  2
AcDbPolyline
  3
AutoCAD 2000
 90
        0
280
     0
281
     1
  0
CLASS
  1
HATCH
  2
AcDbHatch
  3
AutoCAD 2000
 90
        0
280
     0
281
     1
  0
CLASS
  1
XRECORD
  2
AcDbXrecord
  3
AutoCAD 2000
 90
        0
280
     0
281
     0
  0
CLASS
  1
LONG_TRANSACTION
  2
AcDbLongTransaction
  3
AutoCAD 2000
 90
        0
280
     0
281
     0
  0
CLASS
  1
LWPOLYLINE
  2
AcDbPolyline
  3
AutoCAD 2000
 90
        0
280
     0
281
     1
  0
CLASS
  1
HATCH
  2
AcDbHatch
  3
AutoCAD 2000
 90
        0
280
     0
281
     1
  0
CLASS
  1
XRECORD
  2
AcDbXrecord
  3
AutoCAD 2000
 90
        0
280
     0
281
     0
  0
CLASS
  1
LONG_TRANSACTION
  2
AcDbLongTransaction
  3
AutoCAD 2000
 90
        0
280
     0
281
     0
  0
CLASS
  1
LWPOLYLINE
  2
AcDbPolyline
  3
AutoCAD 2000
 90
        0
280
     0
281
     1
  0
CLASS
  1
HATCH
  2
AcDbHatch
  3
AutoCAD 2000
 90
        0
280
     0
281
     1
  0
CLASS
  1
XRECORD
  2
AcDbXrecord
  3
AutoCAD 2000
 90
        0
280
     0
281
     0
  0
ENDSEC
  0
SECTION
  2
TABLES
  0
TABLE
  2
VPORT
  5
8
330
0
100
AcDbSymbolTable
 70
     2
  0
VPORT
  5
A8C
330
8
100
AcDbSymbolTableRecord
100
AcDbViewportTableRecord
  2
*ACTIVE
 70
     0
 10
0.0
 20
0.0
 11
1.0
 21
1.0
 12
136.1398324348731
 22
205.7600563001585
 13
0.0
 23
0.0
 14
10.0
 24
10.0
 15
10.0
 25
10.0
 16
0.0
 26
0.0
 36
1.0
 17
0.0
 27
0.0
 37
0.0
 40
414.5348763188668
 41
1.46415552855407
 42
50.0
 43
0.0
 44
0.0
 50
0.0
 51
0.0
 71
     0
 72
   100
 73
     1
 74
     3
 75
     0
 76
     0
 77
     0
 78
     0
  0
ENDTAB
  0
TABLE
  2
LTYPE
  5
5
330
0
100
AcDbSymbolTable
 70
     2
  0
LTYPE
  5
14
330
5
100
AcDbSymbolTableRecord
100
AcDbLinetypeTableRecord
  2
BYBLOCK
 70
     0
  3

 72
    65
 73
     0
 40
0.0
  0
LTYPE
  5
15
330
5
100
AcDbSymbolTableRecord
100
AcDbLinetypeTableRecord
  2
BYLAYER
 70
     0
  3

 72
    65
 73
     0
 40
0.0
  0
LTYPE
  5
16
330
5
100
AcDbSymbolTableRecord
100
AcDbLinetypeTableRecord
  2
CONTINUOUS
 70
     0
  3
Solid line
 72
    65
 73
     0
 40
0.0
  0
LTYPE
  5
1A2
330
5
100
AcDbSymbolTableRecord
100
AcDbLinetypeTableRecord
  2
CENTER
 70
     0
  3
__ . __ . __ . __ . __ . __ . __ . __ . __ . __
 72
    65
 73
     4
 40
1.0
 49
0.5
 74
     0
 49
-0.25
 74
     0
 49
0.0
 74
     0
 49
-0.25
 74
     0
  0
ENDTAB
  0
TABLE
  2
LAYER
  5
2
102
{ACAD_XDICTIONARY
360
1AA
102
}
330
0
100
AcDbSymbolTable
 70
     5
  0
LAYER
  5
10
330
2
100
AcDbSymbolTableRecord
100
AcDbLayerTableRecord
  2
0
 70
     0
 62
     7
  6
CONTINUOUS
  0
LAYER
  5
1A4
330
2
100
AcDbSymbolTableRecord
100
AcDbLayerTableRecord
  2
DEFPOINTS
 70
     0
 62
    -7
  6
CONTINUOUS
  0
LAYER
  5
1A5
330
2
100
AcDbSymbolTableRecord
100
AcDbLayerTableRecord
  2
1
 70
     0
 62
     3
  6
CONTINUOUS
  0
LAYER
  5
1A6
330
2
100
AcDbSymbolTableRecord
100
AcDbLayerTableRecord
  2
部品
 70
     0
 62
     7
  6
CONTINUOUS
  0
LAYER
  5
1A7
330
2
100
AcDbSymbolTableRecord
100
AcDbLayerTableRecord
  2
3_表示パネル
 70
     0
 62
     7
  6
CONTINUOUS
  0
ENDTAB
  0
TABLE
  2
STYLE
  5
3
330
0
100
AcDbSymbolTable
 70
     1
  0
STYLE
  5
11
330
3
100
AcDbSymbolTableRecord
100
AcDbTextStyleTableRecord
  2
STANDARD
 70
     0
 40
0.0
 41
1.0
 50
0.0
 71
     0
 42
2.5
  3
txt
  4

  0
ENDTAB
  0
TABLE
  2
VIEW
  5
6
330
0
100
AcDbSymbolTable
 70
     0
  0
ENDTAB
  0
TABLE
  2
UCS
  5
7
330
0
100
AcDbSymbolTable
 70
     0
  0
ENDTAB
  0
TABLE
  2
APPID
  5
9
330
0
100
AcDbSymbolTable
 70
     1
  0
APPID
  5
12
330
9
100
AcDbSymbolTableRecord
100
AcDbRegAppTableRecord
  2
ACAD
 70
     0
  0
ENDTAB
  0
TABLE
  2
DIMSTYLE
  5
A
330
0
100
AcDbSymbolTable
 70
     2
  0
DIMSTYLE
105
27
330
A
100
AcDbSymbolTableRecord
100
AcDbDimStyleTableRecord
  2
ISO-25
 70
     0
  3

  4

  5

  6

  7

 40
1.0
 41
2.5
 42
0.625
 43
3.75
 44
1.25
 45
0.0
 46
0.0
 47
0.0
 48
0.0
140
2.5
141
2.5
142
0.0
143
0.03937007874016
144
1.0
145
0.0
146
1.0
147
0.625
 71
     0
 72
     0
 73
     0
 74
     0
 75
     0
 76
     0
 77
     1
 78
     8
170
     0
171
     3
172
     1
173
     0
174
     0
175
     0
176
     0
177
     0
178
     0
270
     2
271
     2
272
     2
273
     2
274
     3
340
11
275
     0
280
     0
281
     0
282
     0
283
     0
284
     8
285
     0
286
     0
287
     3
288
     0
  0
DIMSTYLE
105
1A9
330
A
100
AcDbSymbolTableRecord
100
AcDbDimStyleTableRecord
  2
STANDARD
 70
     0
  3

  4

  5

  6

  7

 40
1.0
 41
2.5
 42
0.625
 43
3.75
 44
1.25
 45
0.0
 46
0.0
 47
0.0
 48
0.0
140
2.5
141
2.5
142
0.0
143
0.0394
144
1.0
145
0.0
146
1.0
147
0.625
 71
     0
 72
     0
 73
     0
 74
     0
 75
     0
 76
     0
 77
     1
 78
     8
170
     0
171
     4
172
     1
173
     0
174
     0
175
     0
176
     0
177
     0
178
     0
270
     2
271
     4
272
     4
273
     8
274
     4
340
11
275
     0
280
     0
281
     0
282
     0
283
     1
284
     0
285
     0
286
     0
287
     3
288
     0
  0
ENDTAB
  0
TABLE
  2
BLOCK_RECORD
  5
1
330
0
100
AcDbSymbolTable
 70
     1
  0
BLOCK_RECORD
  5
1F
102
{ACAD_XDICTIONARY
360
A30
102
}
330
1
100
AcDbSymbolTableRecord
100
AcDbBlockTableRecord
  2
*MODEL_SPACE
  0
BLOCK_RECORD
  5
1B
102
{ACAD_XDICTIONARY
360
A2E
102
}
330
1
100
AcDbSymbolTableRecord
100
AcDbBlockTableRecord
  2
*PAPER_SPACE
  0
BLOCK_RECORD
  5
2B
330
1
100
AcDbSymbolTableRecord
100
AcDbBlockTableRecord
  2
A$C2A5F753D
  0
ENDTAB
  0
ENDSEC
  0
SECTION
  2
BLOCKS
  0
BLOCK
  5
20
330
1F
100
AcDbEntity
  8
0
100
AcDbBlockBegin
  2
*MODEL_SPACE
 70
     0
 10
0.0
 20
0.0
 30
0.0
  3
*MODEL_SPACE
  1

  0
ENDBLK
  5
21
330
1F
100
AcDbEntity
  8
0
100
AcDbBlockEnd
  0
BLOCK
  5
1C
330
1B
100
AcDbEntity
 67
     1
  8
0
100
AcDbBlockBegin
  2
*PAPER_SPACE
 70
     0
 10
0.0
 20
0.0
 30
0.0
  3
*PAPER_SPACE
  1

  0
ENDBLK
  5
1D
330
1B
100
AcDbEntity
 67
     1
  8
0
100
AcDbBlockEnd
  0
BLOCK
  5
131
330
2B
100
AcDbEntity
  8
0
100
AcDbBlockBegin
  2
A$C2A5F753D
 70
     0
 10
0.0
 20
0.0
 30
0.0
  3
A$C2A5F753D
  1

  0
LINE
  5
2C
330
2B
100
AcDbEntity
  8
3_表示パネル
 62
    40
100
AcDbLine
 10
20.09985163882992
 20
-41.52500174595388
 30
0.0
 11
20.09985163882992
 21
-44.22500174595461
 31
0.0
  0
LINE
  5
2D
330
2B
100
AcDbEntity
  8
3_表示パネル
 62
    40
100
AcDbLine
 10
18.49985163882957
 20
-44.22500174595461
 30
0.0
 11
18.49985163882957
 21
-41.52500174595388
 31
0.0
  0
LINE
  5
2E
330
2B
100
AcDbEntity
  8
3_表示パネル
  6
CENTER
 62
    40
100
AcDbLine
 10
20.09985163882992
 20
-41.52500174595388
 30
0.0
 11
18.49985163882957
 21
-41.52500174595388
 31
0.0
  0
LINE
  5
2F
330
2B
100
AcDbEntity
  8
3_表示パネル
  6
CENTER
 62
    40
100
AcDbLine
 10
20.09985163882992
 20
-44.22500174595461
 30
0.0
 11
18.49985163882957
 21
-44.22500174595461
 31
0.0
  0
LINE
  5
30
330
2B
100
AcDbEntity
  8
3_表示パネル
 62
    40
100
AcDbLine
 10
20.09985163882992
 20
-47.02499774591433
 30
0.0
 11
20.09985163882992
 21
-49.72499774591506
 31
0.0
  0
LINE
  5
31
330
2B
100
AcDbEntity
  8
3_表示パネル
 62
    40
100
AcDbLine
 10
18.49985163882957
 20
-49.72499774591506
 30
0.0
 11
18.49985163882957
 21
-47.02499774591433
 31
0.0
  0
LINE
  5
32
330
2B
100
AcDbEntity
  8
3_表示パネル
  6
CENTER
 62
    40
100
AcDbLine
 10
20.09985163882992
 20
-47.02499774591433
 30
0.0
 11
18.49985163882957
 21
-47.02499774591433
 31
0.0
  0
LINE
  5
33
330
2B
100
AcDbEntity
  8
3_表示パネル
  6
CENTER
 62
    40
100
AcDbLine
 10
20.09985163882992
 20
-49.72499774591506
 30
0.0
 11
18.49985163882957
 21
-49.72499774591506
 31
0.0
  0
LINE
  5
34
330
2B
100
AcDbEntity
  8
0
100
AcDbLine
 10
20.09985163882992
 20
-41.52500174595365
 30
0.0
 11
20.09985163882992
 21
-44.22500174595437
 31
0.0
  0
LINE
  5
35
330
2B
100
AcDbEntity
  8
0
100
AcDbLine
 10
18.49985163882957
 20
-44.22500174595437
 30
0.0
 11
18.49985163882957
 21
-41.52500174595365
 31
0.0
  0
LINE
  5
36
330
2B
100
AcDbEntity
  8
0
  6
CENTER
100
AcDbLine
 10
20.09985163882992
 20
-41.52500174595365
 30
0.0
 11
18.49985163882957
 21
-41.52500174595365
 31
0.0
  0
LINE
  5
37
330
2B
100
AcDbEntity
  8
0
  6
CENTER
100
AcDbLine
 10
20.09985163882992
 20
-44.22500174595437
 30
0.0
 11
18.49985163882957
 21
-44.22500174595437
 31
0.0
  0
LINE
  5
38
330
2B
100
AcDbEntity
  8
0
100
AcDbLine
 10
20.09985163882992
 20
-47.0249977459141
 30
0.0
 11
20.09985163882992
 21
-49.72499774591483
 31
0.0
  0
LINE
  5
39
330
2B
100
AcDbEntity
  8
0
100
AcDbLine
 10
18.49985163882957
 20
-49.72499774591483
 30
0.0
 11
18.49985163882957
 21
-47.0249977459141
 31
0.0
  0
LINE
  5
3A
330
2B
100
AcDbEntity
  8
0
  6
CENTER
100
AcDbLine
 10
20.09985163882992
 20
-47.0249977459141
 30
0.0
 11
18.49985163882957
 21
-47.0249977459141
 31
0.0
  0
LINE
  5
3B
330
2B
100
AcDbEntity
  8
0
  6
CENTER
100
AcDbLine
 10
20.09985163882992
 20
-49.72499774591483
 30
0.0
 11
18.49985163882957
 21
-49.72499774591483
 31
0.0
  0
LINE
  5
3C
330
2B
100
AcDbEntity
  8
0
100
AcDbLine
 10
17.00000011174958
 20
-50.24505853127175
 30
0.0
 11
17.00000011174958
 21
-85.90494146872812
 31
0.0
  0
LINE
  5
3D
330
2B
100
AcDbEntity
  8
0
100
AcDbLine
 10
13.80000011175001
 20
-50.24505853127175
 30
0.0
 11
17.00000011174958
 21
-50.24505853127175
 31
0.0
  0
LINE
  5
3E
330
2B
100
AcDbEntity
  8
0
100
AcDbLine
 10
13.80000011175001
 20
-47.24505853127197
 30
0.0
 11
13.80000011175001
 21
-50.24505853127175
 31
0.0
  0
LINE
  5
3F
330
2B
100
AcDbEntity
  8
0
100
AcDbLine
 10
7.200000111750112
 20
-47.24505853127197
 30
0.0
 11
13.80000011175001
 21
-47.24505853127197
 31
0.0
  0
LINE
  5
40
330
2B
100
AcDbEntity
  8
0
100
AcDbLine
 10
7.200000111750112
 20
-50.24667519510468
 30
0.0
 11
7.200000111750112
 21
-47.24505853127197
 31
0.0
  0
LINE
  5
41
330
2B
100
AcDbEntity
  8
0
100
AcDbLine
 10
7.200000111750112
 20
-50.24667519510468
 30
0.0
 11
4.598606297407513
 21
-50.24667519510468
 31
0.0
  0
LINE
  5
42
330
2B
100
AcDbEntity
  8
0
100
AcDbLine
 10
13.80000026392667
 20
-85.90494146872812
 30
0.0
 11
17.00000011174958
 21
-85.90494146872812
 31
0.0
  0
LINE
  5
43
330
2B
100
AcDbEntity
  8
0
100
AcDbLine
 10
13.80000026392667
 20
-88.90494146872809
 30
0.0
 11
13.80000026392667
 21
-85.90494146872812
 31
0.0
  0
LINE
  5
44
330
2B
100
AcDbEntity
  8
0
100
AcDbLine
 10
7.200000263926766
 20
-88.90494146872809
 30
0.0
 11
13.80000026392667
 21
-88.90494146872809
 31
0.0
  0
LINE
  5
45
330
2B
100
AcDbEntity
  8
0
100
AcDbLine
 10
7.200000263926766
 20
-85.90494146872812
 30
0.0
 11
7.200000263926766
 21
-88.90494146872809
 31
0.0
  0
LINE
  5
46
330
2B
100
AcDbEntity
  8
0
100
AcDbLine
 10
7.200000263926766
 20
-85.90494146872812
 30
0.0
 11
4.598606297407741
 21
-85.90484374061245
 31
0.0
  0
LINE
  5
47
330
2B
100
AcDbEntity
  8
0
 48
5.0
100
AcDbLine
 10
4.598606297407741
 20
-85.90484374061245
 30
0.0
 11
4.598606262804196
 21
-50.24578999719347
 31
0.0
  0
LINE
  5
48
330
2B
100
AcDbEntity
  8
部品
  6
CONTINUOUS
100
AcDbLine
 10
7.450000088650082
 20
-59.22500013259969
 30
0.0
 11
7.450000088650082
 21
-76.92499986739972
 31
0.0
  0
LINE
  5
49
330
2B
100
AcDbEntity
  8
部品
  6
CONTINUOUS
100
AcDbLine
 10
6.000000223500137
 20
-59.22500013259969
 30
0.0
 11
6.000000223500137
 21
-76.92499986739972
 31
0.0
  0
LINE
  5
4A
330
2B
100
AcDbEntity
  8
部品
  6
CONTINUOUS
100
AcDbLine
 10
7.150000132600097
 20
-76.92499986739972
 30
0.0
 11
7.150000132600097
 21
-59.22500013259969
 31
0.0
  0
LINE
  5
4B
330
2B
100
AcDbEntity
  8
部品
  6
CONTINUOUS
100
AcDbLine
 10
14.55000013485005
 20
-61.57499986589982
 30
0.0
 11
14.55000013485005
 21
-60.22500029654975
 31
0.0
  0
LINE
  5
4C
330
2B
100
AcDbEntity
  8
部品
  6
CONTINUOUS
100
AcDbLine
 10
14.85000009090003
 20
-59.9249998748496
 30
0.0
 11
14.85000009090003
 21
-61.27499990984961
 31
0.0
  0
LINE
  5
4D
330
2B
100
AcDbEntity
  8
部品
  6
CONTINUOUS
100
AcDbLine
 10
16.0
 20
-61.27499990984961
 30
0.0
 11
16.0
 21
-55.77500040529979
 31
0.0
  0
LINE
  5
4E
330
2B
100
AcDbEntity
  8
部品
  6
CONTINUOUS
100
AcDbLine
 10
12.75000016574995
 20
-78.37500019819981
 30
0.0
 11
12.75000016574995
 21
-75.92499970344966
 31
0.0
  0
LINE
  5
4F
330
2B
100
AcDbEntity
  8
部品
  6
CONTINUOUS
100
AcDbLine
 10
9.250000057749957
 20
-76.92499986739972
 30
0.0
 11
9.250000057749957
 21
-78.37500019819981
 31
0.0
  0
LINE
  5
50
330
2B
100
AcDbEntity
  8
部品
  6
CONTINUOUS
100
AcDbLine
 10
6.000000223500137
 20
-77.22500028909962
 30
0.0
 11
6.000000223500137
 21
-76.92499986739972
 31
0.0
  0
LINE
  5
51
330
2B
100
AcDbEntity
  8
部品
  6
CONTINUOUS
100
AcDbLine
 10
8.95000010169997
 20
-77.22500028909962
 30
0.0
 11
9.250000057749957
 21
-76.92499986739972
 31
0.0
  0
LINE
  5
52
330
2B
100
AcDbEntity
  8
部品
  6
CONTINUOUS
100
AcDbLine
 10
16.0
 20
-80.37499959469959
 30
0.0
 11
16.0
 21
-74.87500009014979
 31
0.0
  0
LINE
  5
53
330
2B
100
AcDbEntity
  8
部品
  6
CONTINUOUS
100
AcDbLine
 10
13.05000012179992
 20
-76.22500012514979
 30
0.0
 11
13.05000012179992
 21
-78.67499968854962
 31
0.0
  0
LINE
  5
54
330
2B
100
AcDbEntity
  8
部品
  6
CONTINUOUS
100
AcDbLine
 10
6.300000179550124
 20
-84.70499950349973
 30
0.0
 11
15.70000004395001
 21
-84.70499950349973
 31
0.0
  0
LINE
  5
55
330
2B
100
AcDbEntity
  8
部品
  6
CONTINUOUS
100
AcDbLine
 10
16.0
 20
-80.37499959469959
 30
0.0
 11
6.000000223500137
 21
-80.37499959469959
 31
0.0
  0
LINE
  5
56
330
2B
100
AcDbEntity
  8
部品
  6
CONTINUOUS
100
AcDbLine
 10
16.0
 20
-84.40500001309967
 30
0.0
 11
16.0
 21
-80.37499959469959
 31
0.0
  0
LINE
  5
57
330
2B
100
AcDbEntity
  8
部品
  6
CONTINUOUS
100
AcDbLine
 10
15.70000004395001
 20
-84.70499950349973
 30
0.0
 11
16.0
 21
-84.40500001309967
 31
0.0
  0
LINE
  5
58
330
2B
100
AcDbEntity
  8
部品
  6
CONTINUOUS
100
AcDbLine
 10
8.95000010169997
 20
-77.22500028909962
 30
0.0
 11
6.000000223500137
 21
-77.22500028909962
 31
0.0
  0
LINE
  5
59
330
2B
100
AcDbEntity
  8
部品
  6
CONTINUOUS
100
AcDbLine
 10
9.250000057749957
 20
-78.37500019819981
 30
0.0
 11
12.75000016574995
 21
-78.37500019819981
 31
0.0
  0
LINE
  5
5A
330
2B
100
AcDbEntity
  8
部品
  6
CONTINUOUS
100
AcDbLine
 10
13.05000012179992
 20
-78.67499968854962
 30
0.0
 11
8.95000010169997
 21
-78.67499968854962
 31
0.0
  0
LINE
  5
5B
330
2B
100
AcDbEntity
  8
部品
  6
CONTINUOUS
100
AcDbLine
 10
13.05000012179992
 20
-78.67499968854962
 30
0.0
 11
12.75000016574995
 21
-78.37500019819981
 31
0.0
  0
LINE
  5
5C
330
2B
100
AcDbEntity
  8
部品
  6
CONTINUOUS
100
AcDbLine
 10
8.95000010169997
 20
-78.67499968854962
 30
0.0
 11
9.250000057749957
 21
-78.37500019819981
 31
0.0
  0
LINE
  5
5D
330
2B
100
AcDbEntity
  8
部品
  6
CONTINUOUS
100
AcDbLine
 10
8.95000010169997
 20
-78.67499968854962
 30
0.0
 11
8.95000010169997
 21
-77.22500028909962
 31
0.0
  0
LINE
  5
5E
330
2B
100
AcDbEntity
  8
部品
  6
CONTINUOUS
100
AcDbLine
 10
6.000000223500137
 20
-80.37499959469959
 30
0.0
 11
6.000000223499909
 21
-84.40500001309967
 31
0.0
  0
LINE
  5
5F
330
2B
100
AcDbEntity
  8
部品
  6
CONTINUOUS
100
AcDbLine
 10
6.000000223499909
 20
-84.40500001309967
 30
0.0
 11
6.300000179550124
 21
-84.70499950349973
 31
0.0
  0
LINE
  5
60
330
2B
100
AcDbEntity
  8
部品
  6
CONTINUOUS
100
AcDbLine
 10
6.000000223500137
 20
-77.22500028909962
 30
0.0
 11
6.000000223500137
 21
-80.37499959469959
 31
0.0
  0
LINE
  5
61
330
2B
100
AcDbEntity
  8
部品
  6
CONTINUOUS
100
AcDbLine
 10
12.75000016574995
 20
-75.92499970344966
 30
0.0
 11
14.55000013485005
 21
-75.92499970344966
 31
0.0
  0
LINE
  5
62
330
2B
100
AcDbEntity
  8
部品
  6
CONTINUOUS
100
AcDbLine
 10
14.85000009090003
 20
-76.22500012514979
 30
0.0
 11
13.05000012179992
 21
-76.22500012514979
 31
0.0
  0
LINE
  5
63
330
2B
100
AcDbEntity
  8
部品
  6
CONTINUOUS
100
AcDbLine
 10
16.0
 20
-74.57500013409981
 30
0.0
 11
16.0
 21
-61.57499986589982
 31
0.0
  0
LINE
  5
64
330
2B
100
AcDbEntity
  8
部品
  6
CONTINUOUS
100
AcDbLine
 10
14.55000013485005
 20
-74.57500013409981
 30
0.0
 11
14.55000013485005
 21
-61.57499986589982
 31
0.0
  0
LINE
  5
65
330
2B
100
AcDbEntity
  8
部品
  6
CONTINUOUS
100
AcDbLine
 10
14.85000009090003
 20
-61.57499986589982
 30
0.0
 11
14.85000009090003
 21
-74.57500013409981
 31
0.0
  0
LINE
  5
66
330
2B
100
AcDbEntity
  8
部品
  6
CONTINUOUS
100
AcDbLine
 10
14.55000013485005
 20
-75.92499970344966
 30
0.0
 11
14.55000013485005
 21
-74.57500013409981
 31
0.0
  0
LINE
  5
67
330
2B
100
AcDbEntity
  8
部品
  6
CONTINUOUS
100
AcDbLine
 10
14.85000009090003
 20
-74.87500009014979
 30
0.0
 11
14.85000009090003
 21
-76.22500012514979
 31
0.0
  0
LINE
  5
68
330
2B
100
AcDbEntity
  8
部品
  6
CONTINUOUS
100
AcDbLine
 10
14.85000009090003
 20
-76.22500012514979
 30
0.0
 11
14.55000013485005
 21
-75.92499970344966
 31
0.0
  0
LINE
  5
69
330
2B
100
AcDbEntity
  8
部品
  6
CONTINUOUS
100
AcDbLine
 10
16.0
 20
-74.57500013409981
 30
0.0
 11
16.0
 21
-74.87500009014979
 31
0.0
  0
LINE
  5
6A
330
2B
100
AcDbEntity
  8
部品
  6
CONTINUOUS
100
AcDbLine
 10
14.55000013485005
 20
-74.57500013409981
 30
0.0
 11
16.0
 21
-74.57500013409981
 31
0.0
  0
LINE
  5
6B
330
2B
100
AcDbEntity
  8
部品
  6
CONTINUOUS
100
AcDbLine
 10
14.85000009090003
 20
-74.87500009014979
 30
0.0
 11
14.55000013485005
 21
-74.57500013409981
 31
0.0
  0
LINE
  5
6C
330
2B
100
AcDbEntity
  8
部品
  6
CONTINUOUS
100
AcDbLine
 10
16.0
 20
-74.87500009014979
 30
0.0
 11
14.85000009090003
 21
-74.87500009014979
 31
0.0
  0
LINE
  5
6D
330
2B
100
AcDbEntity
  8
部品
  6
CONTINUOUS
100
AcDbLine
 10
16.0
 20
-61.27499990984961
 30
0.0
 11
16.0
 21
-61.57499986589982
 31
0.0
  0
LINE
  5
6E
330
2B
100
AcDbEntity
  8
部品
  6
CONTINUOUS
100
AcDbLine
 10
16.0
 20
-61.57499986589982
 30
0.0
 11
14.55000013485005
 21
-61.57499986589982
 31
0.0
  0
LINE
  5
6F
330
2B
100
AcDbEntity
  8
部品
  6
CONTINUOUS
100
AcDbLine
 10
14.55000013485005
 20
-61.57499986589982
 30
0.0
 11
14.85000009090003
 21
-61.27499990984961
 31
0.0
  0
LINE
  5
70
330
2B
100
AcDbEntity
  8
部品
  6
CONTINUOUS
100
AcDbLine
 10
14.85000009090003
 20
-61.27499990984961
 30
0.0
 11
16.0
 21
-61.27499990984961
 31
0.0
  0
LINE
  5
71
330
2B
100
AcDbEntity
  8
部品
  6
CONTINUOUS
100
AcDbLine
 10
10.40000008325
 20
-68.44499999429968
 30
0.0
 11
10.70000009750015
 21
-68.74499997944963
 31
0.0
  0
LINE
  5
72
330
2B
100
AcDbEntity
  8
部品
  6
CONTINUOUS
100
AcDbLine
 10
11.60000014025013
 20
-68.44499999429968
 30
0.0
 11
11.30000012599998
 21
-68.74499997944986
 31
0.0
  0
LINE
  5
73
330
2B
100
AcDbEntity
  8
部品
  6
CONTINUOUS
100
AcDbLine
 10
12.92500010130015
 20
-61.52499995084962
 30
0.0
 11
12.92500010130015
 21
-74.62500004914978
 31
0.0
  0
LINE
  5
74
330
2B
100
AcDbEntity
  8
部品
  6
CONTINUOUS
100
AcDbLine
 10
12.62500014524992
 20
-74.32500009314981
 30
0.0
 11
12.62500014524992
 21
-61.82499990684982
 31
0.0
  0
LINE
  5
75
330
2B
100
AcDbEntity
  8
部品
  6
CONTINUOUS
100
AcDbLine
 10
11.60000014025013
 20
-68.44499999429968
 30
0.0
 11
11.60000014025013
 21
-70.24499999249974
 31
0.0
  0
LINE
  5
76
330
2B
100
AcDbEntity
  8
部品
  6
CONTINUOUS
100
AcDbLine
 10
10.40000008325
 20
-70.24499999249974
 30
0.0
 11
10.40000008325
 21
-68.44499999429968
 31
0.0
  0
LINE
  5
77
330
2B
100
AcDbEntity
  8
部品
  6
CONTINUOUS
100
AcDbLine
 10
9.375000078199946
 20
-61.82499990684982
 30
0.0
 11
9.375000078199946
 21
-74.32500009314981
 31
0.0
  0
LINE
  5
78
330
2B
100
AcDbEntity
  8
部品
  6
CONTINUOUS
100
AcDbLine
 10
9.075000122199979
 20
-74.62500004914978
 30
0.0
 11
9.075000122199979
 21
-61.52499995084962
 31
0.0
  0
LINE
  5
79
330
2B
100
AcDbEntity
  8
部品
  6
CONTINUOUS
100
AcDbLine
 10
6.000000223500137
 20
-76.92499986739972
 30
0.0
 11
9.250000057749957
 21
-76.92499986739972
 31
0.0
  0
LINE
  5
7A
330
2B
100
AcDbEntity
  8
部品
  6
CONTINUOUS
100
AcDbLine
 10
12.75000016574995
 20
-76.92499986739972
 30
0.0
 11
9.250000057749957
 21
-76.92499986739972
 31
0.0
  0
LINE
  5
7B
330
2B
100
AcDbEntity
  8
部品
  6
CONTINUOUS
100
AcDbLine
 10
12.92500010130015
 20
-74.62500004914978
 30
0.0
 11
9.075000122199979
 21
-74.62500004914978
 31
0.0
  0
LINE
  5
7C
330
2B
100
AcDbEntity
  8
部品
  6
CONTINUOUS
100
AcDbLine
 10
9.375000078199946
 20
-74.32500009314981
 30
0.0
 11
12.62500014524992
 21
-74.32500009314981
 31
0.0
  0
LINE
  5
7D
330
2B
100
AcDbEntity
  8
部品
  6
CONTINUOUS
100
AcDbLine
 10
13.05000012179992
 20
-76.22500012514979
 30
0.0
 11
12.75000016574995
 21
-75.92499970344966
 31
0.0
  0
LINE
  5
7E
330
2B
100
AcDbEntity
  8
部品
  6
CONTINUOUS
100
AcDbLine
 10
12.62500014524992
 20
-74.32500009314981
 30
0.0
 11
12.92500010130015
 21
-74.62500004914978
 31
0.0
  0
LINE
  5
7F
330
2B
100
AcDbEntity
  8
部品
  6
CONTINUOUS
100
AcDbLine
 10
9.075000122199979
 20
-74.62500004914978
 30
0.0
 11
9.375000078199946
 21
-74.32500009314981
 31
0.0
  0
LINE
  5
80
330
2B
100
AcDbEntity
  8
部品
  6
CONTINUOUS
100
AcDbLine
 10
10.70000009750015
 20
-72.4850000522997
 30
0.0
 11
11.30000012599998
 21
-72.4850000522997
 31
0.0
  0
LINE
  5
81
330
2B
100
AcDbEntity
  8
部品
  6
CONTINUOUS
100
AcDbLine
 10
11.30000012599998
 20
-71.28499999529982
 30
0.0
 11
10.70000009750015
 21
-71.28499999529982
 31
0.0
  0
LINE
  5
82
330
2B
100
AcDbEntity
  8
部品
  6
CONTINUOUS
100
AcDbLine
 10
10.70000009750015
 20
-69.94500003644976
 30
0.0
 11
11.30000012599998
 21
-69.94500003644976
 31
0.0
  0
LINE
  5
83
330
2B
100
AcDbEntity
  8
部品
  6
CONTINUOUS
100
AcDbLine
 10
11.30000012599998
 20
-68.74499997944986
 30
0.0
 11
10.70000009750015
 21
-68.74499997944963
 31
0.0
  0
LINE
  5
84
330
2B
100
AcDbEntity
  8
部品
  6
CONTINUOUS
100
AcDbLine
 10
11.60000014025013
 20
-70.24499999249974
 30
0.0
 11
10.40000008325
 21
-70.24499999249974
 31
0.0
  0
LINE
  5
85
330
2B
100
AcDbEntity
  8
部品
  6
CONTINUOUS
100
AcDbLine
 10
10.40000008325
 20
-70.9850000392496
 30
0.0
 11
11.60000014025013
 21
-70.98500003924981
 31
0.0
  0
LINE
  5
86
330
2B
100
AcDbEntity
  8
部品
  6
CONTINUOUS
100
AcDbLine
 10
11.60000014025013
 20
-72.7850000083497
 30
0.0
 11
10.40000008325
 21
-72.7850000083497
 31
0.0
  0
ARC
  5
87
330
2B
100
AcDbEntity
  8
部品
  6
CONTINUOUS
100
AcDbCircle
 10
10.7000001117501
 20
-69.65499999999974
 30
0.0
 40
0.1000000000000041
100
AcDbArc
 50
303.1270179968066
 51
0.0
  0
LINE
  5
88
330
2B
100
AcDbEntity
  8
部品
  6
CONTINUOUS
100
AcDbLine
 10
10.75327695835017
 20
-69.75499998664964
 30
0.0
 11
10.90794863230007
 21
-69.75499998664964
 31
0.0
  0
LINE
  5
89
330
2B
100
AcDbEntity
  8
部品
  6
CONTINUOUS
100
AcDbLine
 10
10.88000011479994
 20
-69.1549999581498
 30
0.0
 11
10.7324359673
 21
-69.1549999581498
 31
0.0
  0
LINE
  5
8A
330
2B
100
AcDbEntity
  8
部品
  6
CONTINUOUS
100
AcDbLine
 10
10.88000011479994
 20
-69.55499997714969
 30
0.0
 11
10.7324359673
 21
-69.55499997714969
 31
0.0
  0
ARC
  5
8B
330
2B
100
AcDbEntity
  8
部品
  6
CONTINUOUS
100
AcDbCircle
 10
10.7000001117501
 20
-72.19499999999971
 30
0.0
 40
0.1000000000000041
100
AcDbArc
 50
303.1270179968066
 51
0.0
  0
LINE
  5
8C
330
2B
100
AcDbEntity
  8
部品
  6
CONTINUOUS
100
AcDbLine
 10
10.75327695835017
 20
-72.29500000254962
 30
0.0
 11
10.90794863230007
 21
-72.29500000254962
 31
0.0
  0
LINE
  5
8D
330
2B
100
AcDbEntity
  8
部品
  6
CONTINUOUS
100
AcDbLine
 10
10.88000011479994
 20
-71.69500009044964
 30
0.0
 11
10.7324359673
 21
-71.69500009044964
 31
0.0
  0
LINE
  5
8E
330
2B
100
AcDbEntity
  8
部品
  6
CONTINUOUS
100
AcDbLine
 10
10.88000011479994
 20
-72.09499987659978
 30
0.0
 11
10.7324359673
 21
-72.09499987659978
 31
0.0
  0
LINE
  5
8F
330
2B
100
AcDbEntity
  8
部品
  6
CONTINUOUS
100
AcDbLine
 10
11.30000012599998
 20
-72.4850000522997
 30
0.0
 11
11.30000012599998
 21
-71.28499999529982
 31
0.0
  0
LINE
  5
90
330
2B
100
AcDbEntity
  8
部品
  6
CONTINUOUS
100
AcDbLine
 10
11.30000012599998
 20
-72.4850000522997
 30
0.0
 11
11.60000014025013
 21
-72.7850000083497
 31
0.0
  0
LINE
  5
91
330
2B
100
AcDbEntity
  8
部品
  6
CONTINUOUS
100
AcDbLine
 10
11.60000014025013
 20
-70.98500003924981
 30
0.0
 11
11.30000012599998
 21
-71.28499999529982
 31
0.0
  0
LINE
  5
92
330
2B
100
AcDbEntity
  8
部品
  6
CONTINUOUS
100
AcDbLine
 10
11.60000014025013
 20
-70.98500003924981
 30
0.0
 11
11.60000014025013
 21
-72.7850000083497
 31
0.0
  0
LINE
  5
93
330
2B
100
AcDbEntity
  8
部品
  6
CONTINUOUS
100
AcDbLine
 10
11.20000010670014
 20
-71.48499988839967
 30
0.0
 11
11.30000012599998
 21
-71.48499988839967
 31
0.0
  0
LINE
  5
94
330
2B
100
AcDbEntity
  8
部品
  6
CONTINUOUS
100
AcDbLine
 10
11.20000010670014
 20
-72.28499992639966
 30
0.0
 11
11.24587864290015
 21
-72.28499992639966
 31
0.0
  0
LINE
  5
95
330
2B
100
AcDbEntity
  8
部品
  6
CONTINUOUS
100
AcDbLine
 10
10.80000011679999
 20
-71.48499988839967
 30
0.0
 11
11.20000010670014
 21
-71.48499988839967
 31
0.0
  0
LINE
  5
96
330
2B
100
AcDbEntity
  8
部品
  6
CONTINUOUS
100
AcDbLine
 10
10.80000011679999
 20
-71.69500009044964
 30
0.0
 11
10.80000011679999
 21
-71.48499988839967
 31
0.0
  0
LINE
  5
97
330
2B
100
AcDbEntity
  8
部品
  6
CONTINUOUS
100
AcDbLine
 10
10.80000011679999
 20
-72.19500017239965
 30
0.0
 11
10.80000011679999
 21
-72.09499987659978
 31
0.0
  0
LINE
  5
98
330
2B
100
AcDbEntity
  8
部品
  6
CONTINUOUS
100
AcDbLine
 10
11.19183341179996
 20
-72.28499992639966
 30
0.0
 11
11.18989806529998
 21
-72.29500000254962
 31
0.0
  0
LINE
  5
99
330
2B
100
AcDbEntity
  8
部品
  6
CONTINUOUS
100
AcDbLine
 10
11.20000010670014
 20
-72.28499992639966
 30
0.0
 11
11.19183341179996
 21
-72.28499992639966
 31
0.0
  0
LINE
  5
9A
330
2B
100
AcDbEntity
  8
部品
  6
CONTINUOUS
100
AcDbLine
 10
11.20000010670014
 20
-71.69500009044964
 30
0.0
 11
11.20000010670014
 21
-71.48499988839967
 31
0.0
  0
LINE
  5
9B
330
2B
100
AcDbEntity
  8
部品
  6
CONTINUOUS
100
AcDbLine
 10
11.20000010670014
 20
-72.28499992639966
 30
0.0
 11
11.20000010670014
 21
-72.09499987659978
 31
0.0
  0
LINE
  5
9C
330
2B
100
AcDbEntity
  8
部品
  6
CONTINUOUS
100
AcDbLine
 10
11.09205159120006
 20
-72.29500000254962
 30
0.0
 11
10.90794863230007
 21
-72.29500000254962
 31
0.0
  0
LINE
  5
9D
330
2B
100
AcDbEntity
  8
部品
  6
CONTINUOUS
100
AcDbLine
 10
11.09205159120006
 20
-72.29500000254962
 30
0.0
 11
11.24672326514996
 21
-72.29500000254962
 31
0.0
  0
LINE
  5
9E
330
2B
100
AcDbEntity
  8
部品
  6
CONTINUOUS
100
AcDbLine
 10
11.26277129189998
 20
-72.4850000522997
 30
0.0
 11
11.22983061615013
 21
-72.09499987659978
 31
0.0
  0
LINE
  5
9F
330
2B
100
AcDbEntity
  8
部品
  6
CONTINUOUS
100
AcDbLine
 10
11.12000010869997
 20
-71.69500009044964
 30
0.0
 11
11.26756425620007
 21
-71.69500009044964
 31
0.0
  0
LINE
  5
A0
330
2B
100
AcDbEntity
  8
部品
  6
CONTINUOUS
100
AcDbLine
 10
11.12000010869997
 20
-72.09499987659978
 30
0.0
 11
11.26756425620007
 21
-72.09499987659978
 31
0.0
  0
LINE
  5
A1
330
2B
100
AcDbEntity
  8
部品
  6
CONTINUOUS
100
AcDbLine
 10
11.26756425620007
 20
-71.69500009044964
 30
0.0
 11
11.30000012599998
 21
-71.69500009044964
 31
0.0
  0
LINE
  5
A2
330
2B
100
AcDbEntity
  8
部品
  6
CONTINUOUS
100
AcDbLine
 10
11.26756425620007
 20
-72.09499987659978
 30
0.0
 11
11.30000012599998
 21
-72.09499987659978
 31
0.0
  0
LINE
  5
A3
330
2B
100
AcDbEntity
  8
部品
  6
CONTINUOUS
100
AcDbLine
 10
11.12000010869997
 20
-71.69500009044964
 30
0.0
 11
11.12000010869997
 21
-72.09499987659978
 31
0.0
  0
LINE
  5
A4
330
2B
100
AcDbEntity
  8
部品
  6
CONTINUOUS
100
AcDbLine
 10
10.88000011479994
 20
-72.09499987659978
 30
0.0
 11
10.88000011479994
 21
-71.69500009044964
 31
0.0
  0
LINE
  5
A5
330
2B
100
AcDbEntity
  8
部品
  6
CONTINUOUS
100
AcDbLine
 10
11.30000012599998
 20
-69.94500003644976
 30
0.0
 11
11.30000012599998
 21
-68.74499997944986
 31
0.0
  0
LINE
  5
A6
330
2B
100
AcDbEntity
  8
部品
  6
CONTINUOUS
100
AcDbLine
 10
11.30000012599998
 20
-69.94500003644976
 30
0.0
 11
11.60000014025013
 21
-70.24499999249974
 31
0.0
  0
LINE
  5
A7
330
2B
100
AcDbEntity
  8
部品
  6
CONTINUOUS
100
AcDbLine
 10
11.20000010670014
 20
-68.94499998894978
 30
0.0
 11
11.30000012599998
 21
-68.94499998894978
 31
0.0
  0
LINE
  5
A8
330
2B
100
AcDbEntity
  8
部品
  6
CONTINUOUS
100
AcDbLine
 10
11.20000010670014
 20
-69.74500002694981
 30
0.0
 11
11.24587864290015
 21
-69.74500002694981
 31
0.0
  0
LINE
  5
A9
330
2B
100
AcDbEntity
  8
部品
  6
CONTINUOUS
100
AcDbLine
 10
10.80000011679999
 20
-68.94499998894978
 30
0.0
 11
11.20000010670014
 21
-68.94499998894978
 31
0.0
  0
LINE
  5
AA
330
2B
100
AcDbEntity
  8
部品
  6
CONTINUOUS
100
AcDbLine
 10
10.80000011679999
 20
-69.1549999581498
 30
0.0
 11
10.80000011679999
 21
-68.94499998894978
 31
0.0
  0
LINE
  5
AB
330
2B
100
AcDbEntity
  8
部品
  6
CONTINUOUS
100
AcDbLine
 10
10.80000011679999
 20
-69.65500004009959
 30
0.0
 11
10.80000011679999
 21
-69.55499997714969
 31
0.0
  0
LINE
  5
AC
330
2B
100
AcDbEntity
  8
部品
  6
CONTINUOUS
100
AcDbLine
 10
11.19183341179996
 20
-69.74500002694981
 30
0.0
 11
11.18989806529998
 21
-69.75499998664964
 31
0.0
  0
LINE
  5
AD
330
2B
100
AcDbEntity
  8
部品
  6
CONTINUOUS
100
AcDbLine
 10
11.20000010670014
 20
-69.74500002694981
 30
0.0
 11
11.19183341179996
 21
-69.74500002694981
 31
0.0
  0
LINE
  5
AE
330
2B
100
AcDbEntity
  8
部品
  6
CONTINUOUS
100
AcDbLine
 10
11.20000010670014
 20
-69.1549999581498
 30
0.0
 11
11.20000010670014
 21
-68.94499998894978
 31
0.0
  0
LINE
  5
AF
330
2B
100
AcDbEntity
  8
部品
  6
CONTINUOUS
100
AcDbLine
 10
11.20000010670014
 20
-69.74500002694981
 30
0.0
 11
11.20000010670014
 21
-69.55499997714969
 31
0.0
  0
LINE
  5
B0
330
2B
100
AcDbEntity
  8
部品
  6
CONTINUOUS
100
AcDbLine
 10
11.09205159120006
 20
-69.75499998664964
 30
0.0
 11
10.90794863230007
 21
-69.75499998664964
 31
0.0
  0
LINE
  5
B1
330
2B
100
AcDbEntity
  8
部品
  6
CONTINUOUS
100
AcDbLine
 10
11.09205159120006
 20
-69.75499998664964
 30
0.0
 11
11.24672326514996
 21
-69.75499998664964
 31
0.0
  0
LINE
  5
B2
330
2B
100
AcDbEntity
  8
部品
  6
CONTINUOUS
100
AcDbLine
 10
11.26277129189998
 20
-69.94500003644976
 30
0.0
 11
11.22983061615013
 21
-69.55499997714969
 31
0.0
  0
LINE
  5
B3
330
2B
100
AcDbEntity
  8
部品
  6
CONTINUOUS
100
AcDbLine
 10
11.12000010869997
 20
-69.1549999581498
 30
0.0
 11
11.26756425620007
 21
-69.1549999581498
 31
0.0
  0
LINE
  5
B4
330
2B
100
AcDbEntity
  8
部品
  6
CONTINUOUS
100
AcDbLine
 10
11.12000010869997
 20
-69.55499997714969
 30
0.0
 11
11.26756425620007
 21
-69.55499997714969
 31
0.0
  0
LINE
  5
B5
330
2B
100
AcDbEntity
  8
部品
  6
CONTINUOUS
100
AcDbLine
 10
11.26756425620007
 20
-69.1549999581498
 30
0.0
 11
11.30000012599998
 21
-69.1549999581498
 31
0.0
  0
LINE
  5
B6
330
2B
100
AcDbEntity
  8
部品
  6
CONTINUOUS
100
AcDbLine
 10
11.26756425620007
 20
-69.55499997714969
 30
0.0
 11
11.30000012599998
 21
-69.55499997714969
 31
0.0
  0
LINE
  5
B7
330
2B
100
AcDbEntity
  8
部品
  6
CONTINUOUS
100
AcDbLine
 10
11.12000010869997
 20
-69.1549999581498
 30
0.0
 11
11.12000010869997
 21
-69.55499997714969
 31
0.0
  0
LINE
  5
B8
330
2B
100
AcDbEntity
  8
部品
  6
CONTINUOUS
100
AcDbLine
 10
10.88000011479994
 20
-69.55499997714969
 30
0.0
 11
10.88000011479994
 21
-69.1549999581498
 31
0.0
  0
LINE
  5
B9
330
2B
100
AcDbEntity
  8
部品
  6
CONTINUOUS
100
AcDbLine
 10
10.70000009750015
 20
-72.4850000522997
 30
0.0
 11
10.40000008325
 21
-72.7850000083497
 31
0.0
  0
LINE
  5
BA
330
2B
100
AcDbEntity
  8
部品
  6
CONTINUOUS
100
AcDbLine
 10
10.70000009750015
 20
-71.28499999529982
 30
0.0
 11
10.70000009750015
 21
-72.4850000522997
 31
0.0
  0
LINE
  5
BB
330
2B
100
AcDbEntity
  8
部品
  6
CONTINUOUS
100
AcDbLine
 10
10.40000008325
 20
-70.9850000392496
 30
0.0
 11
10.70000009750015
 21
-71.28499999529982
 31
0.0
  0
LINE
  5
BC
330
2B
100
AcDbEntity
  8
部品
  6
CONTINUOUS
100
AcDbLine
 10
10.40000008325
 20
-72.7850000083497
 30
0.0
 11
10.40000008325
 21
-70.9850000392496
 31
0.0
  0
LINE
  5
BD
330
2B
100
AcDbEntity
  8
部品
  6
CONTINUOUS
100
AcDbLine
 10
10.73722893160015
 20
-72.4850000522997
 30
0.0
 11
10.77016960734999
 21
-72.09499987659978
 31
0.0
  0
LINE
  5
BE
330
2B
100
AcDbEntity
  8
部品
  6
CONTINUOUS
100
AcDbLine
 10
10.7324359673
 20
-71.69500009044964
 30
0.0
 11
10.70000009750015
 21
-71.69500009044964
 31
0.0
  0
LINE
  5
BF
330
2B
100
AcDbEntity
  8
部品
  6
CONTINUOUS
100
AcDbLine
 10
10.7324359673
 20
-72.09499987659978
 30
0.0
 11
10.70000009750015
 21
-72.09499987659978
 31
0.0
  0
LINE
  5
C0
330
2B
100
AcDbEntity
  8
部品
  6
CONTINUOUS
100
AcDbLine
 10
10.70000009750015
 20
-69.94500003644976
 30
0.0
 11
10.40000008325
 21
-70.24499999249974
 31
0.0
  0
LINE
  5
C1
330
2B
100
AcDbEntity
  8
部品
  6
CONTINUOUS
100
AcDbLine
 10
10.70000009750015
 20
-68.74499997944963
 30
0.0
 11
10.70000009750015
 21
-69.94500003644976
 31
0.0
  0
LINE
  5
C2
330
2B
100
AcDbEntity
  8
部品
  6
CONTINUOUS
100
AcDbLine
 10
10.73722893160015
 20
-69.94500003644976
 30
0.0
 11
10.77016960734999
 21
-69.55499997714969
 31
0.0
  0
LINE
  5
C3
330
2B
100
AcDbEntity
  8
部品
  6
CONTINUOUS
100
AcDbLine
 10
10.7324359673
 20
-69.1549999581498
 30
0.0
 11
10.70000009750015
 21
-69.1549999581498
 31
0.0
  0
LINE
  5
C4
330
2B
100
AcDbEntity
  8
部品
  6
CONTINUOUS
100
AcDbLine
 10
10.7324359673
 20
-69.55499997714969
 30
0.0
 11
10.70000009750015
 21
-69.55499997714969
 31
0.0
  0
LINE
  5
C5
330
2B
100
AcDbEntity
  8
部品
  6
CONTINUOUS
100
AcDbLine
 10
11.30000012599998
 20
-64.86500000469982
 30
0.0
 11
11.30000012599998
 21
-63.6649999476997
 31
0.0
  0
LINE
  5
C6
330
2B
100
AcDbEntity
  8
部品
  6
CONTINUOUS
100
AcDbLine
 10
10.70000009750015
 20
-63.6649999476997
 30
0.0
 11
10.70000009750015
 21
-64.86500000469982
 31
0.0
  0
LINE
  5
C7
330
2B
100
AcDbEntity
  8
部品
  6
CONTINUOUS
100
AcDbLine
 10
11.60000014025013
 20
-63.36499999164971
 30
0.0
 11
11.60000014025013
 21
-65.16499996074981
 31
0.0
  0
LINE
  5
C8
330
2B
100
AcDbEntity
  8
部品
  6
CONTINUOUS
100
AcDbLine
 10
10.40000008325
 20
-65.16499996074981
 30
0.0
 11
10.40000008325
 21
-63.36499999164971
 31
0.0
  0
ARC
  5
C9
330
2B
100
AcDbEntity
  8
部品
  6
CONTINUOUS
100
AcDbCircle
 10
10.7000001117501
 20
-64.5749999999998
 30
0.0
 40
0.0999999999999804
100
AcDbArc
 50
303.1270179968066
 51
0.0
  0
LINE
  5
CA
330
2B
100
AcDbEntity
  8
部品
  6
CONTINUOUS
100
AcDbLine
 10
11.20000010670014
 20
-64.66500011159974
 30
0.0
 11
11.20000010670014
 21
-64.47500006184964
 31
0.0
  0
LINE
  5
CB
330
2B
100
AcDbEntity
  8
部品
  6
CONTINUOUS
100
AcDbLine
 10
11.26277129189998
 20
-64.86500000469982
 30
0.0
 11
11.22983061615013
 21
-64.47500006184964
 31
0.0
  0
LINE
  5
CC
330
2B
100
AcDbEntity
  8
部品
  6
CONTINUOUS
100
AcDbLine
 10
10.73722893160015
 20
-64.86500000469982
 30
0.0
 11
10.77016960734999
 21
-64.47500006184964
 31
0.0
  0
LINE
  5
CD
330
2B
100
AcDbEntity
  8
部品
  6
CONTINUOUS
100
AcDbLine
 10
10.70000009750015
 20
-67.40500002054978
 30
0.0
 11
11.30000012599998
 21
-67.40500002054978
 31
0.0
  0
LINE
  5
CE
330
2B
100
AcDbEntity
  8
部品
  6
CONTINUOUS
100
AcDbLine
 10
11.30000012599998
 20
-66.20499996354965
 30
0.0
 11
10.70000009750015
 21
-66.20499996354965
 31
0.0
  0
LINE
  5
CF
330
2B
100
AcDbEntity
  8
部品
  6
CONTINUOUS
100
AcDbLine
 10
10.70000009750015
 20
-64.86500000469982
 30
0.0
 11
11.30000012599998
 21
-64.86500000469982
 31
0.0
  0
LINE
  5
D0
330
2B
100
AcDbEntity
  8
部品
  6
CONTINUOUS
100
AcDbLine
 10
11.60000014025013
 20
-65.16499996074981
 30
0.0
 11
10.40000008325
 21
-65.16499996074981
 31
0.0
  0
LINE
  5
D1
330
2B
100
AcDbEntity
  8
部品
  6
CONTINUOUS
100
AcDbLine
 10
10.40000008325
 20
-65.90500000754969
 30
0.0
 11
11.60000014025013
 21
-65.90500000754969
 31
0.0
  0
LINE
  5
D2
330
2B
100
AcDbEntity
  8
部品
  6
CONTINUOUS
100
AcDbLine
 10
11.60000014025013
 20
-67.70500000569973
 30
0.0
 11
10.40000008325
 21
-67.70500000569973
 31
0.0
  0
LINE
  5
D3
330
2B
100
AcDbEntity
  8
部品
  6
CONTINUOUS
100
AcDbLine
 10
10.40000008325
 20
-68.44499999429968
 30
0.0
 11
11.60000014025013
 21
-68.44499999429968
 31
0.0
  0
ARC
  5
D4
330
2B
100
AcDbEntity
  8
部品
  6
CONTINUOUS
100
AcDbCircle
 10
10.7000001117501
 20
-67.11499999999978
 30
0.0
 40
0.1000000000000041
100
AcDbArc
 50
303.1270179968066
 51
0.0
  0
LINE
  5
D5
330
2B
100
AcDbEntity
  8
部品
  6
CONTINUOUS
100
AcDbLine
 10
10.75327695835017
 20
-67.21500002899961
 30
0.0
 11
10.90794863230007
 21
-67.21500002899961
 31
0.0
  0
LINE
  5
D6
330
2B
100
AcDbEntity
  8
部品
  6
CONTINUOUS
100
AcDbLine
 10
10.88000011479994
 20
-66.61499994229962
 30
0.0
 11
10.7324359673
 21
-66.61499994229962
 31
0.0
  0
LINE
  5
D7
330
2B
100
AcDbEntity
  8
部品
  6
CONTINUOUS
100
AcDbLine
 10
10.88000011479994
 20
-67.01499996129975
 30
0.0
 11
10.7324359673
 21
-67.01499996129975
 31
0.0
  0
LINE
  5
D8
330
2B
100
AcDbEntity
  8
部品
  6
CONTINUOUS
100
AcDbLine
 10
10.75327695835017
 20
-64.6749999548997
 30
0.0
 11
10.90794863230007
 21
-64.6749999548997
 31
0.0
  0
LINE
  5
D9
330
2B
100
AcDbEntity
  8
部品
  6
CONTINUOUS
100
AcDbLine
 10
11.30000012599998
 20
-67.40500002054978
 30
0.0
 11
11.30000012599998
 21
-66.20499996354965
 31
0.0
  0
LINE
  5
DA
330
2B
100
AcDbEntity
  8
部品
  6
CONTINUOUS
100
AcDbLine
 10
11.60000014025013
 20
-65.90500000754969
 30
0.0
 11
11.60000014025013
 21
-67.70500000569973
 31
0.0
  0
LINE
  5
DB
330
2B
100
AcDbEntity
  8
部品
  6
CONTINUOUS
100
AcDbLine
 10
11.12000010869997
 20
-66.61499994229962
 30
0.0
 11
11.12000010869997
 21
-67.01499996129975
 31
0.0
  0
LINE
  5
DC
330
2B
100
AcDbEntity
  8
部品
  6
CONTINUOUS
100
AcDbLine
 10
10.88000011479994
 20
-67.01499996129975
 30
0.0
 11
10.88000011479994
 21
-66.61499994229962
 31
0.0
  0
LINE
  5
DD
330
2B
100
AcDbEntity
  8
部品
  6
CONTINUOUS
100
AcDbLine
 10
11.30000012599998
 20
-67.40500002054978
 30
0.0
 11
11.60000014025013
 21
-67.70500000569973
 31
0.0
  0
LINE
  5
DE
330
2B
100
AcDbEntity
  8
部品
  6
CONTINUOUS
100
AcDbLine
 10
11.20000010670014
 20
-67.20500001104984
 30
0.0
 11
11.24587864290015
 21
-67.20500001104984
 31
0.0
  0
LINE
  5
DF
330
2B
100
AcDbEntity
  8
部品
  6
CONTINUOUS
100
AcDbLine
 10
10.80000011679999
 20
-67.11500002424964
 30
0.0
 11
10.80000011679999
 21
-67.01499996129975
 31
0.0
  0
LINE
  5
E0
330
2B
100
AcDbEntity
  8
部品
  6
CONTINUOUS
100
AcDbLine
 10
11.19183341179996
 20
-67.20500001104984
 30
0.0
 11
11.18989806529998
 21
-67.21500002899984
 31
0.0
  0
LINE
  5
E1
330
2B
100
AcDbEntity
  8
部品
  6
CONTINUOUS
100
AcDbLine
 10
11.20000010670014
 20
-67.20500001104984
 30
0.0
 11
11.19183341179996
 21
-67.20500001104984
 31
0.0
  0
LINE
  5
E2
330
2B
100
AcDbEntity
  8
部品
  6
CONTINUOUS
100
AcDbLine
 10
11.20000010670014
 20
-67.20500001104984
 30
0.0
 11
11.20000010670014
 21
-67.01499996129975
 31
0.0
  0
LINE
  5
E3
330
2B
100
AcDbEntity
  8
部品
  6
CONTINUOUS
100
AcDbLine
 10
11.09205159120006
 20
-67.21500002899984
 30
0.0
 11
10.90794863230007
 21
-67.21500002899961
 31
0.0
  0
LINE
  5
E4
330
2B
100
AcDbEntity
  8
部品
  6
CONTINUOUS
100
AcDbLine
 10
11.09205159120006
 20
-67.21500002899984
 30
0.0
 11
11.24672326514996
 21
-67.21500002899984
 31
0.0
  0
LINE
  5
E5
330
2B
100
AcDbEntity
  8
部品
  6
CONTINUOUS
100
AcDbLine
 10
11.26277129189998
 20
-67.40500002054978
 30
0.0
 11
11.22983061615013
 21
-67.01499996129975
 31
0.0
  0
LINE
  5
E6
330
2B
100
AcDbEntity
  8
部品
  6
CONTINUOUS
100
AcDbLine
 10
11.12000010869997
 20
-67.01499996129975
 30
0.0
 11
11.26756425620007
 21
-67.01499996129975
 31
0.0
  0
LINE
  5
E7
330
2B
100
AcDbEntity
  8
部品
  6
CONTINUOUS
100
AcDbLine
 10
11.26756425620007
 20
-67.01499996129975
 30
0.0
 11
11.30000012599998
 21
-67.01499996129975
 31
0.0
  0
LINE
  5
E8
330
2B
100
AcDbEntity
  8
部品
  6
CONTINUOUS
100
AcDbLine
 10
11.60000014025013
 20
-65.90500000754969
 30
0.0
 11
11.30000012599998
 21
-66.20499996354965
 31
0.0
  0
LINE
  5
E9
330
2B
100
AcDbEntity
  8
部品
  6
CONTINUOUS
100
AcDbLine
 10
11.30000012599998
 20
-64.86500000469982
 30
0.0
 11
11.60000014025013
 21
-65.16499996074981
 31
0.0
  0
LINE
  5
EA
330
2B
100
AcDbEntity
  8
部品
  6
CONTINUOUS
100
AcDbLine
 10
11.20000010670014
 20
-66.4049999730496
 30
0.0
 11
11.30000012599998
 21
-66.4049999730496
 31
0.0
  0
LINE
  5
EB
330
2B
100
AcDbEntity
  8
部品
  6
CONTINUOUS
100
AcDbLine
 10
10.80000011679999
 20
-66.4049999730496
 30
0.0
 11
11.20000010670014
 21
-66.4049999730496
 31
0.0
  0
LINE
  5
EC
330
2B
100
AcDbEntity
  8
部品
  6
CONTINUOUS
100
AcDbLine
 10
10.80000011679999
 20
-66.61499994229962
 30
0.0
 11
10.80000011679999
 21
-66.4049999730496
 31
0.0
  0
LINE
  5
ED
330
2B
100
AcDbEntity
  8
部品
  6
CONTINUOUS
100
AcDbLine
 10
11.20000010670014
 20
-66.61499994229962
 30
0.0
 11
11.20000010670014
 21
-66.4049999730496
 31
0.0
  0
LINE
  5
EE
330
2B
100
AcDbEntity
  8
部品
  6
CONTINUOUS
100
AcDbLine
 10
11.12000010869997
 20
-66.61499994229962
 30
0.0
 11
11.26756425620007
 21
-66.61499994229962
 31
0.0
  0
LINE
  5
EF
330
2B
100
AcDbEntity
  8
部品
  6
CONTINUOUS
100
AcDbLine
 10
11.26756425620007
 20
-66.61499994229962
 30
0.0
 11
11.30000012599998
 21
-66.61499994229962
 31
0.0
  0
LINE
  5
F0
330
2B
100
AcDbEntity
  8
部品
  6
CONTINUOUS
100
AcDbLine
 10
11.20000010670014
 20
-64.66500011159974
 30
0.0
 11
11.24587864290015
 21
-64.66500011159974
 31
0.0
  0
LINE
  5
F1
330
2B
100
AcDbEntity
  8
部品
  6
CONTINUOUS
100
AcDbLine
 10
11.19183341179996
 20
-64.66500011159974
 30
0.0
 11
11.18989806529998
 21
-64.6749999548997
 31
0.0
  0
LINE
  5
F2
330
2B
100
AcDbEntity
  8
部品
  6
CONTINUOUS
100
AcDbLine
 10
11.20000010670014
 20
-64.66500011159974
 30
0.0
 11
11.19183341179996
 21
-64.66500011159974
 31
0.0
  0
LINE
  5
F3
330
2B
100
AcDbEntity
  8
部品
  6
CONTINUOUS
100
AcDbLine
 10
11.09205159120006
 20
-64.6749999548997
 30
0.0
 11
10.90794863230007
 21
-64.6749999548997
 31
0.0
  0
LINE
  5
F4
330
2B
100
AcDbEntity
  8
部品
  6
CONTINUOUS
100
AcDbLine
 10
11.09205159120006
 20
-64.6749999548997
 30
0.0
 11
11.24672326514996
 21
-64.6749999548997
 31
0.0
  0
LINE
  5
F5
330
2B
100
AcDbEntity
  8
部品
  6
CONTINUOUS
100
AcDbLine
 10
10.70000009750015
 20
-66.20499996354965
 30
0.0
 11
10.70000009750015
 21
-67.40500002054978
 31
0.0
  0
LINE
  5
F6
330
2B
100
AcDbEntity
  8
部品
  6
CONTINUOUS
100
AcDbLine
 10
10.40000008325
 20
-67.70500000569973
 30
0.0
 11
10.40000008325
 21
-65.90500000754969
 31
0.0
  0
LINE
  5
F7
330
2B
100
AcDbEntity
  8
部品
  6
CONTINUOUS
100
AcDbLine
 10
10.70000009750015
 20
-67.40500002054978
 30
0.0
 11
10.40000008325
 21
-67.70500000569973
 31
0.0
  0
LINE
  5
F8
330
2B
100
AcDbEntity
  8
部品
  6
CONTINUOUS
100
AcDbLine
 10
10.73722893160015
 20
-67.40500002054978
 30
0.0
 11
10.77016960734999
 21
-67.01499996129975
 31
0.0
  0
LINE
  5
F9
330
2B
100
AcDbEntity
  8
部品
  6
CONTINUOUS
100
AcDbLine
 10
10.7324359673
 20
-67.01499996129975
 30
0.0
 11
10.70000009750015
 21
-67.01499996129975
 31
0.0
  0
LINE
  5
FA
330
2B
100
AcDbEntity
  8
部品
  6
CONTINUOUS
100
AcDbLine
 10
10.40000008325
 20
-65.90500000754969
 30
0.0
 11
10.70000009750015
 21
-66.20499996354965
 31
0.0
  0
LINE
  5
FB
330
2B
100
AcDbEntity
  8
部品
  6
CONTINUOUS
100
AcDbLine
 10
10.70000009750015
 20
-64.86500000469982
 30
0.0
 11
10.40000008325
 21
-65.16499996074981
 31
0.0
  0
LINE
  5
FC
330
2B
100
AcDbEntity
  8
部品
  6
CONTINUOUS
100
AcDbLine
 10
10.7324359673
 20
-66.61499994229962
 30
0.0
 11
10.70000009750015
 21
-66.61499994229962
 31
0.0
  0
LINE
  5
FD
330
2B
100
AcDbEntity
  8
部品
  6
CONTINUOUS
100
AcDbLine
 10
11.30000012599998
 20
-63.6649999476997
 30
0.0
 11
10.70000009750015
 21
-63.6649999476997
 31
0.0
  0
LINE
  5
FE
330
2B
100
AcDbEntity
  8
部品
  6
CONTINUOUS
100
AcDbLine
 10
10.40000008325
 20
-63.36499999164971
 30
0.0
 11
11.60000014025013
 21
-63.36499999164971
 31
0.0
  0
LINE
  5
FF
330
2B
100
AcDbEntity
  8
部品
  6
CONTINUOUS
100
AcDbLine
 10
9.075000122199979
 20
-61.52499995084962
 30
0.0
 11
12.92500010130015
 21
-61.52499995084962
 31
0.0
  0
LINE
  5
100
330
2B
100
AcDbEntity
  8
部品
  6
CONTINUOUS
100
AcDbLine
 10
12.62500014524992
 20
-61.82499990684982
 30
0.0
 11
9.375000078199946
 21
-61.82499990684982
 31
0.0
  0
LINE
  5
101
330
2B
100
AcDbEntity
  8
部品
  6
CONTINUOUS
100
AcDbLine
 10
10.88000011479994
 20
-64.07499980999978
 30
0.0
 11
10.7324359673
 21
-64.07499980999978
 31
0.0
  0
LINE
  5
102
330
2B
100
AcDbEntity
  8
部品
  6
CONTINUOUS
100
AcDbLine
 10
10.88000011479994
 20
-64.47500006184964
 30
0.0
 11
10.7324359673
 21
-64.47500006184964
 31
0.0
  0
LINE
  5
103
330
2B
100
AcDbEntity
  8
部品
  6
CONTINUOUS
100
AcDbLine
 10
11.60000014025013
 20
-63.36499999164971
 30
0.0
 11
11.30000012599998
 21
-63.6649999476997
 31
0.0
  0
LINE
  5
104
330
2B
100
AcDbEntity
  8
部品
  6
CONTINUOUS
100
AcDbLine
 10
11.20000010670014
 20
-63.86500007359973
 30
0.0
 11
11.30000012599998
 21
-63.86500007359973
 31
0.0
  0
LINE
  5
105
330
2B
100
AcDbEntity
  8
部品
  6
CONTINUOUS
100
AcDbLine
 10
10.80000011679999
 20
-63.86500007359973
 30
0.0
 11
11.20000010670014
 21
-63.86500007359973
 31
0.0
  0
LINE
  5
106
330
2B
100
AcDbEntity
  8
部品
  6
CONTINUOUS
100
AcDbLine
 10
10.80000011679999
 20
-64.07499980999978
 30
0.0
 11
10.80000011679999
 21
-63.86500007359973
 31
0.0
  0
LINE
  5
107
330
2B
100
AcDbEntity
  8
部品
  6
CONTINUOUS
100
AcDbLine
 10
10.80000011679999
 20
-64.5749998919498
 30
0.0
 11
10.80000011679999
 21
-64.47500006184964
 31
0.0
  0
LINE
  5
108
330
2B
100
AcDbEntity
  8
部品
  6
CONTINUOUS
100
AcDbLine
 10
11.20000010670014
 20
-64.07499980999978
 30
0.0
 11
11.20000010670014
 21
-63.86500007359973
 31
0.0
  0
LINE
  5
109
330
2B
100
AcDbEntity
  8
部品
  6
CONTINUOUS
100
AcDbLine
 10
11.12000010869997
 20
-64.07499980999978
 30
0.0
 11
11.26756425620007
 21
-64.07499980999978
 31
0.0
  0
LINE
  5
10A
330
2B
100
AcDbEntity
  8
部品
  6
CONTINUOUS
100
AcDbLine
 10
11.12000010869997
 20
-64.47500006184964
 30
0.0
 11
11.26756425620007
 21
-64.47500006184964
 31
0.0
  0
LINE
  5
10B
330
2B
100
AcDbEntity
  8
部品
  6
CONTINUOUS
100
AcDbLine
 10
11.26756425620007
 20
-64.07499980999978
 30
0.0
 11
11.30000012599998
 21
-64.07499980999978
 31
0.0
  0
LINE
  5
10C
330
2B
100
AcDbEntity
  8
部品
  6
CONTINUOUS
100
AcDbLine
 10
11.26756425620007
 20
-64.47500006184964
 30
0.0
 11
11.30000012599998
 21
-64.47500006184964
 31
0.0
  0
LINE
  5
10D
330
2B
100
AcDbEntity
  8
部品
  6
CONTINUOUS
100
AcDbLine
 10
11.12000010869997
 20
-64.07499980999978
 30
0.0
 11
11.12000010869997
 21
-64.47500006184964
 31
0.0
  0
LINE
  5
10E
330
2B
100
AcDbEntity
  8
部品
  6
CONTINUOUS
100
AcDbLine
 10
10.88000011479994
 20
-64.47500006184964
 30
0.0
 11
10.88000011479994
 21
-64.07499980999978
 31
0.0
  0
LINE
  5
10F
330
2B
100
AcDbEntity
  8
部品
  6
CONTINUOUS
100
AcDbLine
 10
12.62500014524992
 20
-61.82499990684982
 30
0.0
 11
12.92500010130015
 21
-61.52499995084962
 31
0.0
  0
LINE
  5
110
330
2B
100
AcDbEntity
  8
部品
  6
CONTINUOUS
100
AcDbLine
 10
10.40000008325
 20
-63.36499999164971
 30
0.0
 11
10.70000009750015
 21
-63.6649999476997
 31
0.0
  0
LINE
  5
111
330
2B
100
AcDbEntity
  8
部品
  6
CONTINUOUS
100
AcDbLine
 10
10.7324359673
 20
-64.07499980999978
 30
0.0
 11
10.70000009750015
 21
-64.07499980999978
 31
0.0
  0
LINE
  5
112
330
2B
100
AcDbEntity
  8
部品
  6
CONTINUOUS
100
AcDbLine
 10
10.7324359673
 20
-64.47500006184964
 30
0.0
 11
10.70000009750015
 21
-64.47500006184964
 31
0.0
  0
LINE
  5
113
330
2B
100
AcDbEntity
  8
部品
  6
CONTINUOUS
100
AcDbLine
 10
9.075000122199979
 20
-61.52499995084962
 30
0.0
 11
9.375000078199946
 21
-61.82499990684982
 31
0.0
  0
LINE
  5
114
330
2B
100
AcDbEntity
  8
部品
  6
CONTINUOUS
100
AcDbLine
 10
15.70000004395001
 20
-51.44500049649969
 30
0.0
 11
6.300000179550124
 21
-51.44500049649969
 31
0.0
  0
LINE
  5
115
330
2B
100
AcDbEntity
  8
部品
  6
CONTINUOUS
100
AcDbLine
 10
14.55000013485005
 20
-60.22500029654975
 30
0.0
 11
12.75000016574995
 21
-60.22500029654975
 31
0.0
  0
LINE
  5
116
330
2B
100
AcDbEntity
  8
部品
  6
CONTINUOUS
100
AcDbLine
 10
13.05000012179992
 20
-59.9249998748496
 30
0.0
 11
14.85000009090003
 21
-59.9249998748496
 31
0.0
  0
LINE
  5
117
330
2B
100
AcDbEntity
  8
部品
  6
CONTINUOUS
100
AcDbLine
 10
6.000000223500137
 20
-55.77500040529979
 30
0.0
 11
16.0
 21
-55.77500040529979
 31
0.0
  0
LINE
  5
118
330
2B
100
AcDbEntity
  8
部品
  6
CONTINUOUS
100
AcDbLine
 10
16.0
 20
-55.77500040529979
 30
0.0
 11
16.0
 21
-51.74499998689976
 31
0.0
  0
LINE
  5
119
330
2B
100
AcDbEntity
  8
部品
  6
CONTINUOUS
100
AcDbLine
 10
14.55000013485005
 20
-60.22500029654975
 30
0.0
 11
14.85000009090003
 21
-59.9249998748496
 31
0.0
  0
LINE
  5
11A
330
2B
100
AcDbEntity
  8
部品
  6
CONTINUOUS
100
AcDbLine
 10
16.0
 20
-51.74499998689976
 30
0.0
 11
15.70000004395001
 21
-51.44500049649969
 31
0.0
  0
LINE
  5
11B
330
2B
100
AcDbEntity
  8
部品
  6
CONTINUOUS
100
AcDbLine
 10
6.000000223500137
 20
-51.74499998689976
 30
0.0
 11
6.000000223500137
 21
-55.77500040529979
 31
0.0
  0
LINE
  5
11C
330
2B
100
AcDbEntity
  8
部品
  6
CONTINUOUS
100
AcDbLine
 10
9.250000057749957
 20
-59.22500013259969
 30
0.0
 11
6.000000223500137
 21
-59.22500013259969
 31
0.0
  0
LINE
  5
11D
330
2B
100
AcDbEntity
  8
部品
  6
CONTINUOUS
100
AcDbLine
 10
6.000000223500137
 20
-58.92499971089979
 30
0.0
 11
8.95000010169997
 21
-58.92499971089979
 31
0.0
  0
LINE
  5
11E
330
2B
100
AcDbEntity
  8
部品
  6
CONTINUOUS
100
AcDbLine
 10
12.75000016574995
 20
-59.22500013259969
 30
0.0
 11
9.250000057749957
 21
-59.22500013259969
 31
0.0
  0
LINE
  5
11F
330
2B
100
AcDbEntity
  8
部品
  6
CONTINUOUS
100
AcDbLine
 10
12.75000016574995
 20
-57.77499980179982
 30
0.0
 11
9.250000057749957
 21
-57.77499980179982
 31
0.0
  0
LINE
  5
120
330
2B
100
AcDbEntity
  8
部品
  6
CONTINUOUS
100
AcDbLine
 10
8.95000010169997
 20
-57.47500031144977
 30
0.0
 11
13.05000012179992
 21
-57.47500031144977
 31
0.0
  0
LINE
  5
121
330
2B
100
AcDbEntity
  8
部品
  6
CONTINUOUS
100
AcDbLine
 10
12.75000016574995
 20
-60.22500029654975
 30
0.0
 11
12.75000016574995
 21
-57.77499980179982
 31
0.0
  0
LINE
  5
122
330
2B
100
AcDbEntity
  8
部品
  6
CONTINUOUS
100
AcDbLine
 10
13.05000012179992
 20
-57.47500031144977
 30
0.0
 11
13.05000012179992
 21
-59.9249998748496
 31
0.0
  0
LINE
  5
123
330
2B
100
AcDbEntity
  8
部品
  6
CONTINUOUS
100
AcDbLine
 10
12.75000016574995
 20
-60.22500029654975
 30
0.0
 11
13.05000012179992
 21
-59.9249998748496
 31
0.0
  0
LINE
  5
124
330
2B
100
AcDbEntity
  8
部品
  6
CONTINUOUS
100
AcDbLine
 10
12.75000016574995
 20
-57.77499980179982
 30
0.0
 11
13.05000012179992
 21
-57.47500031144977
 31
0.0
  0
LINE
  5
125
330
2B
100
AcDbEntity
  8
部品
  6
CONTINUOUS
100
AcDbLine
 10
9.250000057749957
 20
-57.77499980179982
 30
0.0
 11
9.250000057749957
 21
-59.22500013259969
 31
0.0
  0
LINE
  5
126
330
2B
100
AcDbEntity
  8
部品
  6
CONTINUOUS
100
AcDbLine
 10
8.95000010169997
 20
-58.92499971089979
 30
0.0
 11
8.95000010169997
 21
-57.47500031144977
 31
0.0
  0
LINE
  5
127
330
2B
100
AcDbEntity
  8
部品
  6
CONTINUOUS
100
AcDbLine
 10
9.250000057749957
 20
-59.22500013259969
 30
0.0
 11
8.95000010169997
 21
-58.92499971089979
 31
0.0
  0
LINE
  5
128
330
2B
100
AcDbEntity
  8
部品
  6
CONTINUOUS
100
AcDbLine
 10
9.250000057749957
 20
-57.77499980179982
 30
0.0
 11
8.95000010169997
 21
-57.47500031144977
 31
0.0
  0
LINE
  5
129
330
2B
100
AcDbEntity
  8
部品
  6
CONTINUOUS
100
AcDbLine
 10
6.000000223500137
 20
-55.77500040529979
 30
0.0
 11
6.000000223500137
 21
-58.92499971089979
 31
0.0
  0
LINE
  5
12A
330
2B
100
AcDbEntity
  8
部品
  6
CONTINUOUS
100
AcDbLine
 10
6.000000223500137
 20
-59.22500013259969
 30
0.0
 11
6.000000223500137
 21
-58.92499971089979
 31
0.0
  0
LINE
  5
12B
330
2B
100
AcDbEntity
  8
部品
  6
CONTINUOUS
100
AcDbLine
 10
6.300000179550124
 20
-51.44500049649969
 30
0.0
 11
6.000000223500137
 21
-51.74499998689976
 31
0.0
  0
LWPOLYLINE
  5
12C
330
2B
100
AcDbEntity
  8
0
100
AcDbPolyline
 90
        4
 70
     1
 43
0.0
 10
16.0
 20
-50.24505853127175
 10
17.00000011174958
 20
-50.24505853127175
 10
17.00000011174958
 20
-50.24505853127175
 10
16.0
 20
-50.24505853127175
  0
LWPOLYLINE
  5
12D
330
2B
100
AcDbEntity
  8
0
100
AcDbPolyline
 90
        4
 70
     1
 43
0.0
 10
17.00000011174958
 20
-84.37500000000024
 10
16.0
 20
-84.37500000000024
 10
16.0
 20
-51.74499998689976
 10
17.00000011174958
 20
-51.74499998689976
  0
LWPOLYLINE
  5
12E
330
2B
100
AcDbEntity
  8
0
100
AcDbPolyline
 90
        4
 70
     1
 43
0.0
 10
17.00000011174958
 20
-85.90494146872812
 10
16.0
 20
-85.90494146872812
 10
16.0
 20
-50.24505853127175
 10
17.00000011174958
 20
-50.24505853127175
  0
LWPOLYLINE
  5
12F
330
2B
100
AcDbEntity
  8
0
100
AcDbPolyline
 90
        4
 70
     1
 43
0.0
 10
18.49985163882957
 20
-41.52500174595388
 10
20.09985163882992
 20
-41.52500174595388
 10
20.09985163882992
 20
-44.22500174595461
 10
18.49985163882957
 20
-44.22500174595461
  0
LWPOLYLINE
  5
130
330
2B
100
AcDbEntity
  8
0
100
AcDbPolyline
 90
        4
 70
     1
 43
0.0
 10
18.49985163882957
 20
-47.02499774591433
 10
20.09985163882992
 20
-47.02499774591433
 10
20.09985163882992
 20
-49.72499774591506
 10
18.49985163882957
 20
-49.72499774591506
  0
ENDBLK
  5
132
330
2B
100
AcDbEntity
  8
0
100
AcDbBlockEnd
  0
ENDSEC
  0
SECTION
  2
ENTITIES
  0
LINE
  5
579
330
1F
100
AcDbEntity
  8
1
100
AcDbLine
 10
21.50000423983077
 20
359.9738132994104
 30
0.0
 11
36.50000423983078
 21
359.9738132994104
 31
0.0
  0
LINE
  5
57A
330
1F
100
AcDbEntity
  8
1
100
AcDbLine
 10
21.50000423983077
 20
175.9738132994105
 30
0.0
 11
36.50000423983078
 21
175.9738132994105
 31
0.0
  0
LINE
  5
57B
330
1F
100
AcDbEntity
  8
1
100
AcDbLine
 10
29.00000423982987
 20
352.4738132994105
 30
0.0
 11
29.00000423982987
 21
367.4738132994105
 31
0.0
  0
LINE
  5
57C
330
1F
100
AcDbEntity
  8
1
100
AcDbLine
 10
29.00000423983078
 20
168.4738132994104
 30
0.0
 11
29.00000423983078
 21
183.4738132994105
 31
0.0
  0
LINE
  5
588
330
1F
100
AcDbEntity
  8
0
100
AcDbLine
 10
0.0000042398307869
 20
363.8949127422113
 30
0.0
 11
0.0000042398307869
 21
172.0527138566094
 31
0.0
  0
LINE
  5
589
330
1F
100
AcDbEntity
  8
0
100
AcDbLine
 10
58.00000423983078
 20
363.9738132994104
 30
0.0
 11
58.00000423983078
 21
171.9738132994105
 31
0.0
  0
LINE
  5
58A
330
1F
100
AcDbEntity
  8
0
100
AcDbLine
 10
0.9738272915217294
 20
364.8945700671863
 30
0.0
 11
4.000004239829877
 21
364.9738132994105
 31
0.0
  0
LINE
  5
58B
330
1F
100
AcDbEntity
  8
0
100
AcDbLine
 10
26.90000423982997
 20
175.9738132994105
 30
0.0
 11
26.90000423982997
 21
170.9738132994105
 31
0.0
  0
LINE
  5
58C
330
1F
100
AcDbEntity
  8
0
100
AcDbLine
 10
0.4869157656758035
 20
354.8818198401602
 30
0.0
 11
4.000004239829877
 21
354.9738132994105
 31
0.0
  0
LINE
  5
58D
330
1F
100
AcDbEntity
  8
0
100
AcDbLine
 10
0.4869157656758035
 20
181.0658067586603
 30
0.0
 11
4.000004239829877
 21
180.9738132994104
 31
0.0
  0
LINE
  5
58E
330
1F
100
AcDbEntity
  8
0
100
AcDbLine
 10
5.000004239830786
 20
201.6069937243234
 30
0.0
 11
5.000004239830786
 21
354.9476273778416
 31
0.0
  0
ARC
  5
58F
330
1F
100
AcDbEntity
  8
0
100
AcDbCircle
 10
4.300004239830741
 20
197.9738132994105
 30
0.0
 40
3.699999999995998
100
AcDbArc
 50
0.0
 51
79.09453000325759
  0
LINE
  5
590
330
1F
100
AcDbEntity
  8
0
100
AcDbLine
 10
8.000004239825784
 20
197.9738132994105
 30
0.0
 11
8.000004239824875
 21
181.0785569856875
 31
0.0
  0
LINE
  5
591
330
1F
100
AcDbEntity
  8
0
100
AcDbLine
 10
0.9738272915217294
 20
171.0530565316323
 30
0.0
 11
4.000004239829877
 21
170.9738132994105
 31
0.0
  0
LINE
  5
592
330
1F
100
AcDbEntity
  8
0
100
AcDbLine
 10
5.000004239830786
 20
350.9738132994105
 30
0.0
 11
5.013092713983723
 21
350.9741560331673
 31
0.0
  0
LINE
  5
593
330
1F
100
AcDbEntity
  8
0
100
AcDbLine
 10
4.000004239829877
 20
364.9738132994105
 30
0.0
 11
57.00000423983079
 21
364.9738132994105
 31
0.0
  0
LINE
  5
594
330
1F
100
AcDbEntity
  8
0
100
AcDbLine
 10
4.000004239829877
 20
354.9738132994105
 30
0.0
 11
5.000004239830786
 21
354.9476273778416
 31
0.0
  0
LINE
  5
595
330
1F
100
AcDbEntity
  8
0
100
AcDbLine
 10
4.000004239829877
 20
180.9738132994104
 30
0.0
 11
8.000004239824875
 21
181.0785569856875
 31
0.0
  0
LINE
  5
596
330
1F
100
AcDbEntity
  8
0
100
AcDbLine
 10
4.000004239829877
 20
170.9738132994105
 30
0.0
 11
26.90000423982997
 21
170.9738132994105
 31
0.0
  0
CIRCLE
  5
597
330
1F
100
AcDbEntity
  8
0
100
AcDbCircle
 10
29.00000423983078
 20
359.9738132994104
 30
0.0
 40
2.1
  0
ARC
  5
598
330
1F
100
AcDbEntity
  8
0
100
AcDbCircle
 10
29.00000423983078
 20
359.9738132994104
 30
0.0
 40
5.5
100
AcDbArc
 50
180.0
 51
245.3800226713518
  0
ARC
  5
599
330
1F
100
AcDbEntity
  8
0
100
AcDbCircle
 10
29.00000423983078
 20
175.9738132994105
 30
0.0
 40
5.5
100
AcDbArc
 50
0.0
 51
65.3800226713519
  0
ARC
  5
59A
330
1F
100
AcDbEntity
  8
0
100
AcDbCircle
 10
29.00000423983078
 20
175.9738132994105
 30
0.0
 40
2.1
100
AcDbArc
 50
0.0
 51
180.0
  0
LINE
  5
59B
330
1F
100
AcDbEntity
  8
0
100
AcDbLine
 10
31.10000423982978
 20
170.9738132994105
 30
0.0
 11
34.50000423982988
 21
170.9738132994105
 31
0.0
  0
LINE
  5
59C
330
1F
100
AcDbEntity
  8
0
100
AcDbLine
 10
34.50000423982988
 20
359.9738132994104
 30
0.0
 11
34.50000423982988
 21
364.9738132994105
 31
0.0
  0
LINE
  5
59D
330
1F
100
AcDbEntity
  8
0
100
AcDbLine
 10
23.50000423983078
 20
359.9738132994104
 30
0.0
 11
23.50000423983078
 21
364.9738132994105
 31
0.0
  0
LINE
  5
59E
330
1F
100
AcDbEntity
  8
0
100
AcDbLine
 10
23.50000423983078
 20
175.9738132994105
 30
0.0
 11
23.50000423983078
 21
170.9738132994105
 31
0.0
  0
LINE
  5
59F
330
1F
100
AcDbEntity
  8
0
100
AcDbLine
 10
31.10000423982978
 20
175.9738132994105
 30
0.0
 11
31.10000423982978
 21
170.9738132994105
 31
0.0
  0
LINE
  5
5A0
330
1F
100
AcDbEntity
  8
0
100
AcDbLine
 10
34.50000423982988
 20
175.9738132994105
 30
0.0
 11
34.50000423982988
 21
170.9738132994105
 31
0.0
  0
CIRCLE
  5
5A1
330
1F
100
AcDbEntity
  8
0
100
AcDbCircle
 10
4.000004239829877
 20
195.9738132994105
 30
0.0
 40
2.0
  0
CIRCLE
  5
5A2
330
1F
100
AcDbEntity
  8
0
100
AcDbCircle
 10
4.000004239829877
 20
195.9738132994105
 30
0.0
 40
1.6
  0
CIRCLE
  5
5A3
330
1F
100
AcDbEntity
  8
0
100
AcDbCircle
 10
4.000004239829877
 20
185.9738132994104
 30
0.0
 40
2.0
  0
CIRCLE
  5
5A4
330
1F
100
AcDbEntity
  8
0
100
AcDbCircle
 10
4.000004239829877
 20
185.9738132994104
 30
0.0
 40
1.6
  0
ARC
  5
5A5
330
1F
100
AcDbEntity
  8
0
100
AcDbCircle
 10
1.000004239830785
 20
363.8949127422113
 30
0.0
 40
1.0
100
AcDbArc
 50
91.50000000000281
 51
180.0
  0
ARC
  5
5A6
330
1F
100
AcDbEntity
  8
0
100
AcDbCircle
 10
57.00000423983079
 20
363.9738132994104
 30
0.0
 40
1.0
100
AcDbArc
 50
0.0
 51
90.0
  0
ARC
  5
5A7
330
1F
100
AcDbEntity
  8
0
100
AcDbCircle
 10
1.000004239830785
 20
172.0527138566094
 30
0.0
 40
1.0
100
AcDbArc
 50
180.0
 51
268.4999999999971
  0
ARC
  5
5A8
330
1F
100
AcDbEntity
  8
0
100
AcDbCircle
 10
57.00000423983079
 20
171.9738132994105
 30
0.0
 40
1.0
100
AcDbArc
 50
270.0
 51
0.0
  0
ARC
  5
5A9
330
1F
100
AcDbEntity
  8
0
100
AcDbCircle
 10
0.5000042398307869
 20
354.3819911776733
 30
0.0
 40
0.5
100
AcDbArc
 50
91.50000000000281
 51
180.0
  0
ARC
  5
5AA
330
1F
100
AcDbEntity
  8
0
100
AcDbCircle
 10
0.5000042398307869
 20
181.5656354211484
 30
0.0
 40
0.5
100
AcDbArc
 50
180.0
 51
268.4999999999971
  0
LINE
  5
5AB
330
1F
100
AcDbEntity
  8
0
100
AcDbLine
 10
6.00000423982874
 20
180.9738132994104
 30
0.0
 11
58.00000423983078
 21
180.9738132994104
 31
0.0
  0
LINE
  5
5AC
330
1F
100
AcDbEntity
  8
0
100
AcDbLine
 10
6.000004239829877
 20
354.4738132994105
 30
0.0
 11
5.000004239830786
 21
354.4738132994105
 31
0.0
  0
LINE
  5
5AD
330
1F
100
AcDbEntity
  8
0
100
AcDbLine
 10
6.000004239829877
 20
354.9738132994105
 30
0.0
 11
6.00000423982874
 21
202.3555937594485
 31
0.0
  0
LINE
  5
5AE
330
1F
100
AcDbEntity
  8
0
100
AcDbLine
 10
6.000004239829877
 20
354.9738132994105
 30
0.0
 11
58.00000423983078
 21
354.9738132994105
 31
0.0
  0
ARC
  5
5AF
330
1F
100
AcDbEntity
  8
0
100
AcDbCircle
 10
4.300004239830741
 20
197.9738132994105
 30
0.0
 40
4.699999999995998
100
AcDbArc
 50
0.0
 51
68.79523363710617
  0
LINE
  5
5B0
330
1F
100
AcDbEntity
  8
0
100
AcDbLine
 10
9.000004239826921
 20
197.9738132994105
 30
0.0
 11
9.000004239824875
 21
180.9738132994104
 31
0.0
  0
LINE
  5
5B1
330
1F
100
AcDbEntity
  8
0
100
AcDbLine
 10
9.000004239824875
 20
181.4738132994104
 30
0.0
 11
8.000004239824875
 21
181.4738132994094
 31
0.0
  0
LINE
  5
5B2
330
1F
100
AcDbEntity
  8
0
100
AcDbLine
 10
56.00000423983079
 20
182.9738132994105
 30
0.0
 11
56.00000423983079
 21
352.9738132994105
 31
0.0
  0
LINE
  5
5B3
330
1F
100
AcDbEntity
  8
0
100
AcDbLine
 10
56.00000423983079
 20
352.9738132994105
 30
0.0
 11
8.000004239830785
 21
352.9738132994105
 31
0.0
  0
ARC
  5
5B4
330
1F
100
AcDbEntity
  8
0
100
AcDbCircle
 10
4.300004239830741
 20
197.9738132994105
 30
0.0
 40
6.699999999996
100
AcDbArc
 50
0.0
 51
56.4792596039965
  0
LINE
  5
5B5
330
1F
100
AcDbEntity
  8
0
100
AcDbLine
 10
11.00000423982691
 20
197.9738132994105
 30
0.0
 11
11.00000423982486
 21
182.9738132994105
 31
0.0
  0
LINE
  5
5B6
330
1F
100
AcDbEntity
  8
0
100
AcDbLine
 10
56.00000423983079
 20
182.9738132994105
 30
0.0
 11
11.00000423982486
 21
182.9738132994105
 31
0.0
  0
LINE
  5
5B7
330
1F
100
AcDbEntity
  8
0
100
AcDbLine
 10
8.000004239830785
 20
352.9738132994105
 30
0.0
 11
8.00000423982874
 21
203.5595093169134
 31
0.0
  0
LINE
  5
5B8
330
1F
100
AcDbEntity
  8
0
100
AcDbLine
 10
58.00000423983078
 20
180.9738132994104
 30
0.0
 11
58.00000423983078
 21
354.9738132994105
 31
0.0
  0
LINE
  5
5B9
330
1F
100
AcDbEntity
  8
0
100
AcDbLine
 10
5.000004239830786
 20
201.6069937243244
 30
0.0
 11
5.000004239830786
 21
354.4738132994105
 31
0.0
  0
LINE
  5
5BA
330
1F
100
AcDbEntity
  8
0
100
AcDbLine
 10
8.000004239825784
 20
197.9738132994105
 30
0.0
 11
8.000004239824875
 21
181.4738132994104
 31
0.0
  0
ARC
  5
5BB
330
1F
100
AcDbEntity
  8
0
100
AcDbCircle
 10
4.300004239830741
 20
197.9738132994105
 30
0.0
 40
3.699999999995998
100
AcDbArc
 50
0.0
 51
79.09453000325759
  0
LINE
  5
5BC
330
1F
100
AcDbEntity
  8
0
100
AcDbLine
 10
6.000004239827831
 20
181.0261851425486
 30
0.0
 11
6.00000423982874
 21
180.9738132994104
 31
0.0
  0
LINE
  5
5BD
330
1F
100
AcDbEntity
  8
0
100
AcDbLine
 10
35.2000043617479
 20
263.0738131400665
 30
0.0
 11
35.2000043617479
 21
247.0738131400664
 31
0.0
  0
LINE
  5
5BE
330
1F
100
AcDbEntity
  8
0
100
AcDbLine
 10
38.60000436174664
 20
247.0738131400664
 30
0.0
 11
35.2000043617479
 21
247.0738131400664
 31
0.0
  0
LINE
  5
5BF
330
1F
100
AcDbEntity
  8
0
100
AcDbLine
 10
38.60000436174664
 20
263.0738131400665
 30
0.0
 11
35.2000043617479
 21
263.0738131400665
 31
0.0
  0
LINE
  5
5C0
330
1F
100
AcDbEntity
  8
0
100
AcDbLine
 10
38.60000436174664
 20
263.0738131400665
 30
0.0
 11
38.60000436174664
 21
267.5738131400664
 31
0.0
  0
LINE
  5
5C1
330
1F
100
AcDbEntity
  8
0
100
AcDbLine
 10
50.00000436174786
 20
185.1738131400666
 30
0.0
 11
38.60000436174664
 21
185.1738131400666
 31
0.0
  0
LINE
  5
5C2
330
1F
100
AcDbEntity
  8
0
100
AcDbLine
 10
38.60000436174664
 20
247.0738131400664
 30
0.0
 11
38.60000436174664
 21
232.673813140065
 31
0.0
  0
LINE
  5
5C3
330
1F
100
AcDbEntity
  8
0
100
AcDbLine
 10
11.10000423982477
 20
183.1738132994105
 30
0.0
 11
55.70000423982856
 21
183.1738132994105
 31
0.0
  0
LINE
  5
5C4
330
1F
100
AcDbEntity
  8
0
100
AcDbLine
 10
55.70000423982856
 20
352.7738132994095
 30
0.0
 11
55.70000423982856
 21
183.1738132994105
 31
0.0
  0
LINE
  5
5C5
330
1F
100
AcDbEntity
  8
0
100
AcDbLine
 10
11.10000423982569
 20
197.9738132994105
 30
0.0
 11
11.10000423982477
 21
183.1738132994105
 31
0.0
  0
ARC
  5
5C6
330
1F
100
AcDbEntity
  8
0
100
AcDbCircle
 10
4.200004239829921
 20
197.9738132994105
 30
0.0
 40
6.899999999996
100
AcDbArc
 50
0.0
 51
55.58261128955511
  0
LINE
  5
5C7
330
1F
100
AcDbEntity
  8
0
100
AcDbLine
 10
8.100004239829786
 20
352.7738132994095
 30
0.0
 11
8.100004239829786
 21
203.6659130877092
 31
0.0
  0
LINE
  5
5C8
330
1F
100
AcDbEntity
  8
0
100
AcDbLine
 10
55.70000423982856
 20
352.7738132994095
 30
0.0
 11
8.100004239829786
 21
352.7738132994095
 31
0.0
  0
LINE
  5
5C9
330
1F
100
AcDbEntity
  8
0
100
AcDbLine
 10
25.20000436174768
 20
260.1738131400666
 30
0.0
 11
25.20000436174768
 21
256.5738131400664
 31
0.0
  0
LINE
  5
5CA
330
1F
100
AcDbEntity
  8
0
100
AcDbLine
 10
23.60000436174686
 20
271.4738131400665
 30
0.0
 11
23.60000436174686
 21
260.1738131400666
 31
0.0
  0
LINE
  5
5CB
330
1F
100
AcDbEntity
  8
0
100
AcDbLine
 10
13.00000436174764
 20
271.4738131400665
 30
0.0
 11
23.60000436174686
 21
271.4738131400665
 31
0.0
  0
LINE
  5
5CC
330
1F
100
AcDbEntity
  8
0
100
AcDbLine
 10
23.60000436174686
 20
239.5738131400664
 30
0.0
 11
25.20000436174768
 21
239.5738131400664
 31
0.0
  0
LINE
  5
5CD
330
1F
100
AcDbEntity
  8
0
100
AcDbLine
 10
23.60000436174686
 20
256.5738131400664
 30
0.0
 11
25.20000436174768
 21
256.5738131400664
 31
0.0
  0
LINE
  5
5CE
330
1F
100
AcDbEntity
  8
0
100
AcDbLine
 10
23.60000436174686
 20
260.1738131400666
 30
0.0
 11
25.20000436174768
 21
260.1738131400666
 31
0.0
  0
LINE
  5
5CF
330
1F
100
AcDbEntity
  8
0
100
AcDbLine
 10
23.60000436174686
 20
243.1738131400666
 30
0.0
 11
25.20000436174768
 21
243.1738131400666
 31
0.0
  0
LINE
  5
5D0
330
1F
100
AcDbEntity
  8
0
100
AcDbLine
 10
25.20000436174768
 20
243.1738131400666
 30
0.0
 11
25.20000436174768
 21
239.5738131400664
 31
0.0
  0
LINE
  5
5D1
330
1F
100
AcDbEntity
  8
0
100
AcDbLine
 10
23.60000436174686
 20
256.5738131400664
 30
0.0
 11
23.60000436174686
 21
243.1738131400666
 31
0.0
  0
LINE
  5
5D2
330
1F
100
AcDbEntity
  8
0
100
AcDbLine
 10
23.60000436174686
 20
185.1738131400666
 30
0.0
 11
13.00000436174764
 21
185.1738131400666
 31
0.0
  0
LINE
  5
5D3
330
1F
100
AcDbEntity
  8
0
100
AcDbLine
 10
23.60000436174686
 20
239.5738131400664
 30
0.0
 11
23.60000436174686
 21
185.1738131400666
 31
0.0
  0
LINE
  5
5D4
330
1F
100
AcDbEntity
  8
0
100
AcDbLine
 10
13.00000436174764
 20
271.4738131400665
 30
0.0
 11
13.00000436174764
 21
185.1738131400666
 31
0.0
  0
LINE
  5
5D5
330
1F
100
AcDbEntity
  8
0
100
AcDbLine
 10
13.00000436174764
 20
275.9738131400665
 30
0.0
 11
25.40000436174682
 21
275.9738131400665
 31
0.0
  0
LINE
  5
5D6
330
1F
100
AcDbEntity
  8
0
100
AcDbLine
 10
22.90000436174773
 20
339.0738131400663
 30
0.0
 11
22.90000436174773
 21
331.0738131400662
 31
0.0
  0
LINE
  5
5D7
330
1F
100
AcDbEntity
  8
0
100
AcDbLine
 10
13.00000436174764
 20
306.0738131400662
 30
0.0
 11
22.30000436174691
 21
306.0738131400662
 31
0.0
  0
LINE
  5
5D8
330
1F
100
AcDbEntity
  8
0
100
AcDbLine
 10
22.30000436174691
 20
322.8738131400652
 30
0.0
 11
25.90000436174773
 21
322.8738131400652
 31
0.0
  0
CIRCLE
  5
5D9
330
1F
100
AcDbEntity
  8
0
100
AcDbCircle
 10
16.60000436174685
 20
342.9738131400664
 30
0.0
 40
1.399999999999999
  0
LINE
  5
5DA
330
1F
100
AcDbEntity
  8
0
100
AcDbLine
 10
13.00000436174764
 20
302.1738131400666
 30
0.0
 11
13.00000436174764
 21
275.9738131400665
 31
0.0
  0
LINE
  5
5DB
330
1F
100
AcDbEntity
  8
0
100
AcDbLine
 10
22.90000436174773
 20
331.0738131400662
 30
0.0
 11
25.90000436174773
 21
331.0738131400662
 31
0.0
  0
LINE
  5
5DC
330
1F
100
AcDbEntity
  8
0
100
AcDbLine
 10
13.00000436174764
 20
302.1738131400666
 30
0.0
 11
25.40000436174682
 21
302.1738131400666
 31
0.0
  0
CIRCLE
  5
5DD
330
1F
100
AcDbEntity
  8
0
100
AcDbCircle
 10
16.60000436174685
 20
347.7738131400653
 30
0.0
 40
1.399999999999999
  0
CIRCLE
  5
5DE
330
1F
100
AcDbEntity
  8
0
100
AcDbCircle
 10
21.70000436174768
 20
347.7738131400653
 30
0.0
 40
1.399999999999999
  0
LINE
  5
5DF
330
1F
100
AcDbEntity
  8
0
100
AcDbLine
 10
25.90000436174773
 20
331.0738131400662
 30
0.0
 11
25.90000436174773
 21
322.8738131400652
 31
0.0
  0
LINE
  5
5E0
330
1F
100
AcDbEntity
  8
0
100
AcDbLine
 10
22.90000436174773
 20
339.0738131400663
 30
0.0
 11
13.00000436174764
 21
339.0738131400663
 31
0.0
  0
LINE
  5
5E1
330
1F
100
AcDbEntity
  8
0
100
AcDbLine
 10
13.00000436174764
 20
339.0738131400663
 30
0.0
 11
13.00000436174764
 21
306.0738131400662
 31
0.0
  0
CIRCLE
  5
5E2
330
1F
100
AcDbEntity
  8
0
100
AcDbCircle
 10
21.70000436174768
 20
342.9738131400664
 30
0.0
 40
1.399999999999999
  0
LINE
  5
5E3
330
1F
100
AcDbEntity
  8
0
100
AcDbLine
 10
22.30000436174691
 20
322.8738131400652
 30
0.0
 11
22.30000436174691
 21
306.0738131400662
 31
0.0
  0
LINE
  5
5E4
330
1F
100
AcDbEntity
  8
0
100
AcDbLine
 10
50.00000436174786
 20
230.673813140065
 30
0.0
 11
38.60000436174664
 21
230.673813140065
 31
0.0
  0
LINE
  5
5E5
330
1F
100
AcDbEntity
  8
0
100
AcDbLine
 10
50.00000436174786
 20
232.673813140065
 30
0.0
 11
38.60000436174664
 21
232.673813140065
 31
0.0
  0
LINE
  5
5E6
330
1F
100
AcDbEntity
  8
0
100
AcDbLine
 10
50.00000436174786
 20
267.5738131400664
 30
0.0
 11
38.60000436174664
 21
267.5738131400664
 31
0.0
  0
LINE
  5
5E7
330
1F
100
AcDbEntity
  8
0
100
AcDbLine
 10
50.00000436174786
 20
267.5738131400664
 30
0.0
 11
50.00000436174786
 21
232.673813140065
 31
0.0
  0
LINE
  5
5E8
330
1F
100
AcDbEntity
  8
0
100
AcDbLine
 10
50.00000436174786
 20
230.673813140065
 30
0.0
 11
50.00000436174786
 21
185.1738131400666
 31
0.0
  0
LINE
  5
5E9
330
1F
100
AcDbEntity
  8
0
100
AcDbLine
 10
38.60000436174664
 20
230.673813140065
 30
0.0
 11
38.60000436174664
 21
185.1738131400666
 31
0.0
  0
LINE
  5
5EA
330
1F
100
AcDbEntity
  8
0
100
AcDbLine
 10
25.40000436174682
 20
302.1738131400666
 30
0.0
 11
25.40000436174682
 21
275.9738131400665
 31
0.0
  0
CIRCLE
  5
5EB
330
1F
100
AcDbEntity
  8
0
100
AcDbCircle
 10
18.25000423982874
 20
334.8038132994103
 30
0.0
 40
1.290290050200999
  0
LINE
  5
5EC
330
1F
100
AcDbEntity
  8
0
100
AcDbLine
 10
22.00000423982874
 20
338.5538132994103
 30
0.0
 11
14.10000423982975
 21
338.5538132994103
 31
0.0
  0
LINE
  5
5ED
330
1F
100
AcDbEntity
  8
0
100
AcDbLine
 10
22.00000423982874
 20
331.0538132994103
 30
0.0
 11
14.10000423982975
 21
331.0538132994103
 31
0.0
  0
LINE
  5
5EE
330
1F
100
AcDbEntity
  8
0
100
AcDbLine
 10
22.00000423982874
 20
331.0538132994103
 30
0.0
 11
22.00000423982874
 21
338.5538132994103
 31
0.0
  0
LINE
  5
5EF
330
1F
100
AcDbEntity
  8
0
100
AcDbLine
 10
14.50000423982985
 20
331.0538132994103
 30
0.0
 11
14.50000423982985
 21
338.5538132994103
 31
0.0
  0
LINE
  5
5F0
330
1F
100
AcDbEntity
  8
0
100
AcDbLine
 10
14.10000423982975
 20
337.6438132994103
 30
0.0
 11
14.10000423982975
 21
338.5538132994103
 31
0.0
  0
LINE
  5
5F1
330
1F
100
AcDbEntity
  8
0
100
AcDbLine
 10
14.10000423982975
 20
337.6438132994114
 30
0.0
 11
14.50000423982985
 21
337.6438132994114
 31
0.0
  0
LINE
  5
5F2
330
1F
100
AcDbEntity
  8
0
100
AcDbLine
 10
14.10000423982975
 20
337.0438132994113
 30
0.0
 11
14.50000423982985
 21
337.0438132994113
 31
0.0
  0
LINE
  5
5F3
330
1F
100
AcDbEntity
  8
0
100
AcDbLine
 10
14.10000423982975
 20
331.9638132994104
 30
0.0
 11
14.50000423982985
 21
331.9638132994104
 31
0.0
  0
LINE
  5
5F4
330
1F
100
AcDbEntity
  8
0
100
AcDbLine
 10
14.10000423982975
 20
332.5638132994113
 30
0.0
 11
14.50000423982985
 21
332.5638132994113
 31
0.0
  0
LINE
  5
5F5
330
1F
100
AcDbEntity
  8
0
100
AcDbLine
 10
14.10000423982975
 20
335.1038132994113
 30
0.0
 11
14.50000423982985
 21
335.1038132994113
 31
0.0
  0
LINE
  5
5F6
330
1F
100
AcDbEntity
  8
0
100
AcDbLine
 10
14.10000423982975
 20
334.5038132994113
 30
0.0
 11
14.50000423982985
 21
334.5038132994113
 31
0.0
  0
LINE
  5
5F7
330
1F
100
AcDbEntity
  8
0
100
AcDbLine
 10
14.10000423982975
 20
331.0538132994103
 30
0.0
 11
14.10000423982975
 21
331.9638132994104
 31
0.0
  0
LINE
  5
5F8
330
1F
100
AcDbEntity
  8
0
100
AcDbLine
 10
14.10000423982975
 20
307.0138132994103
 30
0.0
 11
21.35000423982976
 21
307.0138132994103
 31
0.0
  0
CIRCLE
  5
5F9
330
1F
100
AcDbEntity
  8
0
100
AcDbCircle
 10
17.60000423982978
 20
319.9638132994095
 30
0.0
 40
1.0
  0
CIRCLE
  5
5FA
330
1F
100
AcDbEntity
  8
0
100
AcDbCircle
 10
17.60000423982978
 20
316.4638132994093
 30
0.0
 40
1.0
  0
CIRCLE
  5
5FB
330
1F
100
AcDbEntity
  8
0
100
AcDbCircle
 10
17.60000423982978
 20
312.9638132994096
 30
0.0
 40
1.0
  0
CIRCLE
  5
5FC
330
1F
100
AcDbEntity
  8
0
100
AcDbCircle
 10
17.60000423982978
 20
309.4638132994095
 30
0.0
 40
1.0
  0
LINE
  5
5FD
330
1F
100
AcDbEntity
  8
0
100
AcDbLine
 10
21.35000423982976
 20
307.0138132994103
 30
0.0
 11
21.35000423982976
 21
322.4138132994105
 31
0.0
  0
LINE
  5
5FE
330
1F
100
AcDbEntity
  8
0
100
AcDbLine
 10
21.35000423982976
 20
322.4138132994105
 30
0.0
 11
14.10000423982975
 21
322.4138132994105
 31
0.0
  0
LINE
  5
5FF
330
1F
100
AcDbEntity
  8
0
100
AcDbLine
 10
14.10000423982975
 20
322.4138132994105
 30
0.0
 11
14.10000423982975
 21
307.0138132994103
 31
0.0
  0
LINE
  5
600
330
1F
100
AcDbEntity
  8
0
100
AcDbLine
 10
24.30000423982982
 20
324.8638132994102
 30
0.0
 11
19.52450931083784
 21
324.8638132994102
 31
0.0
  0
LINE
  5
601
330
1F
100
AcDbEntity
  8
0
100
AcDbLine
 10
24.30000423982982
 20
328.6038132994103
 30
0.0
 11
19.52450931083784
 21
328.6038132994103
 31
0.0
  0
LINE
  5
602
330
1F
100
AcDbEntity
  8
0
100
AcDbLine
 10
24.30000423982982
 20
323.4138132994103
 30
0.0
 11
14.10000423982975
 21
323.4138132994103
 31
0.0
  0
LINE
  5
603
330
1F
100
AcDbEntity
  8
0
100
AcDbLine
 10
24.30000423982982
 20
330.0538132994103
 30
0.0
 11
14.10000423982975
 21
330.0538132994103
 31
0.0
  0
LINE
  5
604
330
1F
100
AcDbEntity
  8
0
100
AcDbLine
 10
24.30000423982982
 20
327.4038132994093
 30
0.0
 11
21.30000423983071
 21
327.4038132994093
 31
0.0
  0
LINE
  5
605
330
1F
100
AcDbEntity
  8
0
100
AcDbLine
 10
24.30000423982982
 20
326.0638132994094
 30
0.0
 11
21.30000423983071
 21
326.0638132994094
 31
0.0
  0
LINE
  5
606
330
1F
100
AcDbEntity
  8
0
100
AcDbLine
 10
24.30000423982982
 20
324.8638132994102
 30
0.0
 11
21.30000423983071
 21
324.8638132994102
 31
0.0
  0
LINE
  5
607
330
1F
100
AcDbEntity
  8
0
100
AcDbLine
 10
21.30000423983071
 20
327.4038132994093
 30
0.0
 11
21.30000423983071
 21
328.6038132994103
 31
0.0
  0
LINE
  5
608
330
1F
100
AcDbEntity
  8
0
100
AcDbLine
 10
21.30000423983071
 20
324.8638132994102
 30
0.0
 11
21.30000423983071
 21
326.0638132994094
 31
0.0
  0
LINE
  5
609
330
1F
100
AcDbEntity
  8
0
100
AcDbLine
 10
22.80000423983073
 20
326.0638132994094
 30
0.0
 11
22.80000423983073
 21
327.4038132994093
 31
0.0
  0
LINE
  5
60A
330
1F
100
AcDbEntity
  8
0
100
AcDbLine
 10
23.30000423983074
 20
327.4038132994093
 30
0.0
 11
23.30000423983074
 21
328.6038132994103
 31
0.0
  0
LINE
  5
60B
330
1F
100
AcDbEntity
  8
0
100
AcDbLine
 10
23.30000423983074
 20
324.8638132994102
 30
0.0
 11
23.30000423983074
 21
326.0638132994094
 31
0.0
  0
LINE
  5
60C
330
1F
100
AcDbEntity
  8
0
100
AcDbLine
 10
24.30000423982982
 20
323.4138132994103
 30
0.0
 11
24.30000423982982
 21
330.0538132994103
 31
0.0
  0
LINE
  5
60D
330
1F
100
AcDbEntity
  8
0
100
AcDbLine
 10
19.52450931083784
 20
328.6038132994103
 30
0.0
 11
19.52450931083784
 21
324.8638132994102
 31
0.0
  0
LINE
  5
60E
330
1F
100
AcDbEntity
  8
0
100
AcDbLine
 10
14.10000423982975
 20
323.4138132994103
 30
0.0
 11
14.10000423982975
 21
330.0538132994103
 31
0.0
  0
LINE
  5
60F
330
1F
100
AcDbEntity
  8
0
100
AcDbLine
 10
14.10000423982975
 20
293.6338132994103
 30
0.0
 11
15.60000423982978
 21
293.6338132994103
 31
0.0
  0
LINE
  5
610
330
1F
100
AcDbEntity
  8
0
100
AcDbLine
 10
14.10000423982975
 20
288.5538132994103
 30
0.0
 11
15.60000423982978
 21
288.5538132994103
 31
0.0
  0
LINE
  5
611
330
1F
100
AcDbEntity
  8
0
100
AcDbLine
 10
14.10000423982975
 20
283.4738132994104
 30
0.0
 11
15.60000423982978
 21
283.4738132994104
 31
0.0
  0
LINE
  5
612
330
1F
100
AcDbEntity
  8
0
100
AcDbLine
 10
14.10000423982975
 20
298.1338132994103
 30
0.0
 11
15.60000423982978
 21
298.1338132994103
 31
0.0
  0
LINE
  5
613
330
1F
100
AcDbEntity
  8
0
100
AcDbLine
 10
14.10000423982975
 20
276.9738132994103
 30
0.0
 11
15.60000423982978
 21
276.9738132994103
 31
0.0
  0
LINE
  5
614
330
1F
100
AcDbEntity
  8
0
100
AcDbLine
 10
19.60000423982976
 20
293.1338132994091
 30
0.0
 11
20.60000423982978
 21
293.1338132994091
 31
0.0
  0
LINE
  5
615
330
1F
100
AcDbEntity
  8
0
100
AcDbLine
 10
19.60000423982976
 20
288.0538132994095
 30
0.0
 11
20.60000423982978
 21
288.0538132994095
 31
0.0
  0
LINE
  5
616
330
1F
100
AcDbEntity
  8
0
100
AcDbLine
 10
19.60000423982976
 20
282.9738132994105
 30
0.0
 11
20.60000423982978
 21
282.9738132994105
 31
0.0
  0
LINE
  5
617
330
1F
100
AcDbEntity
  8
0
100
AcDbLine
 10
15.60000423982978
 20
301.1338132994103
 30
0.0
 11
16.60000423982975
 21
301.1338132994103
 31
0.0
  0
LINE
  5
618
330
1F
100
AcDbEntity
  8
0
100
AcDbLine
 10
16.60000423982975
 20
301.1338132994103
 30
0.0
 11
16.60000423982975
 21
276.9738132994103
 31
0.0
  0
LINE
  5
619
330
1F
100
AcDbEntity
  8
0
100
AcDbLine
 10
24.08500423982876
 20
301.1338132994103
 30
0.0
 11
23.58500423982991
 21
301.1338132994103
 31
0.0
  0
LINE
  5
61A
330
1F
100
AcDbEntity
  8
0
100
AcDbLine
 10
23.58500423982991
 20
301.1338132994103
 30
0.0
 11
23.58500423982991
 21
276.9738132994103
 31
0.0
  0
LINE
  5
61B
330
1F
100
AcDbEntity
  8
0
100
AcDbLine
 10
24.9450042398289
 20
301.1338132994103
 30
0.0
 11
24.9450042398289
 21
276.9738132994103
 31
0.0
  0
LINE
  5
61C
330
1F
100
AcDbEntity
  8
0
100
AcDbLine
 10
15.60000423982978
 20
301.1338132994103
 30
0.0
 11
15.60000423982978
 21
300.1338132994094
 31
0.0
  0
LINE
  5
61D
330
1F
100
AcDbEntity
  8
0
100
AcDbLine
 10
16.60000423982975
 20
300.1338132994094
 30
0.0
 11
23.58500423982991
 21
300.1338132994094
 31
0.0
  0
LINE
  5
61E
330
1F
100
AcDbEntity
  8
0
100
AcDbLine
 10
15.60000423982978
 20
276.9738132994103
 30
0.0
 11
15.60000423982978
 21
277.9738132994105
 31
0.0
  0
LINE
  5
61F
330
1F
100
AcDbEntity
  8
0
100
AcDbLine
 10
16.60000423982975
 20
277.9738132994105
 30
0.0
 11
23.58500423982991
 21
277.9738132994105
 31
0.0
  0
LINE
  5
620
330
1F
100
AcDbEntity
  8
0
100
AcDbLine
 10
15.60000423982978
 20
276.9738132994103
 30
0.0
 11
24.9450042398289
 21
276.9738132994103
 31
0.0
  0
LINE
  5
621
330
1F
100
AcDbEntity
  8
0
100
AcDbLine
 10
24.9450042398289
 20
301.1338132994103
 30
0.0
 11
15.60000423982978
 21
301.1338132994103
 31
0.0
  0
LINE
  5
622
330
1F
100
AcDbEntity
  8
0
100
AcDbLine
 10
15.60000423982978
 20
301.1338132994103
 30
0.0
 11
15.60000423982978
 21
276.9738132994103
 31
0.0
  0
LINE
  5
623
330
1F
100
AcDbEntity
  8
0
100
AcDbLine
 10
20.60000423982978
 20
293.1338132994091
 30
0.0
 11
20.60000423982978
 21
295.1338132994103
 31
0.0
  0
LINE
  5
624
330
1F
100
AcDbEntity
  8
0
100
AcDbLine
 10
20.60000423982978
 20
295.1338132994103
 30
0.0
 11
19.60000423982976
 21
295.1338132994103
 31
0.0
  0
LINE
  5
625
330
1F
100
AcDbEntity
  8
0
100
AcDbLine
 10
19.60000423982976
 20
295.1338132994103
 30
0.0
 11
19.60000423982976
 21
293.1338132994091
 31
0.0
  0
LINE
  5
626
330
1F
100
AcDbEntity
  8
0
100
AcDbLine
 10
20.60000423982978
 20
288.0538132994095
 30
0.0
 11
20.60000423982978
 21
290.0538132994095
 31
0.0
  0
LINE
  5
627
330
1F
100
AcDbEntity
  8
0
100
AcDbLine
 10
20.60000423982978
 20
290.0538132994095
 30
0.0
 11
19.60000423982976
 21
290.0538132994095
 31
0.0
  0
LINE
  5
628
330
1F
100
AcDbEntity
  8
0
100
AcDbLine
 10
19.60000423982976
 20
290.0538132994095
 30
0.0
 11
19.60000423982976
 21
288.0538132994095
 31
0.0
  0
LINE
  5
629
330
1F
100
AcDbEntity
  8
0
100
AcDbLine
 10
20.60000423982978
 20
282.9738132994105
 30
0.0
 11
20.60000423982978
 21
284.9738132994096
 31
0.0
  0
LINE
  5
62A
330
1F
100
AcDbEntity
  8
0
100
AcDbLine
 10
20.60000423982978
 20
284.9738132994096
 30
0.0
 11
19.60000423982976
 21
284.9738132994096
 31
0.0
  0
LINE
  5
62B
330
1F
100
AcDbEntity
  8
0
100
AcDbLine
 10
19.60000423982976
 20
284.9738132994096
 30
0.0
 11
19.60000423982976
 21
282.9738132994105
 31
0.0
  0
LINE
  5
62C
330
1F
100
AcDbEntity
  8
0
100
AcDbLine
 10
15.60000423982978
 20
276.9738132994103
 30
0.0
 11
15.60000423982978
 21
279.9738132994105
 31
0.0
  0
LINE
  5
62D
330
1F
100
AcDbEntity
  8
0
100
AcDbLine
 10
15.60000423982978
 20
279.9738132994105
 30
0.0
 11
14.10000423982975
 21
279.9738132994105
 31
0.0
  0
LINE
  5
62E
330
1F
100
AcDbEntity
  8
0
100
AcDbLine
 10
14.10000423982975
 20
279.9738132994105
 30
0.0
 11
14.10000423982975
 21
276.9738132994103
 31
0.0
  0
LINE
  5
62F
330
1F
100
AcDbEntity
  8
0
100
AcDbLine
 10
15.60000423982978
 20
283.4738132994104
 30
0.0
 11
15.60000423982978
 21
284.4738132994105
 31
0.0
  0
LINE
  5
630
330
1F
100
AcDbEntity
  8
0
100
AcDbLine
 10
15.60000423982978
 20
284.4738132994105
 30
0.0
 11
14.10000423982975
 21
284.4738132994105
 31
0.0
  0
LINE
  5
631
330
1F
100
AcDbEntity
  8
0
100
AcDbLine
 10
15.60000423982978
 20
288.5538132994103
 30
0.0
 11
15.60000423982978
 21
289.5538132994095
 31
0.0
  0
LINE
  5
632
330
1F
100
AcDbEntity
  8
0
100
AcDbLine
 10
15.60000423982978
 20
289.5538132994095
 30
0.0
 11
14.10000423982975
 21
289.5538132994095
 31
0.0
  0
LINE
  5
633
330
1F
100
AcDbEntity
  8
0
100
AcDbLine
 10
15.60000423982978
 20
293.6338132994103
 30
0.0
 11
15.60000423982978
 21
294.6338132994103
 31
0.0
  0
LINE
  5
634
330
1F
100
AcDbEntity
  8
0
100
AcDbLine
 10
15.60000423982978
 20
294.6338132994103
 30
0.0
 11
14.10000423982975
 21
294.6338132994103
 31
0.0
  0
LINE
  5
635
330
1F
100
AcDbEntity
  8
0
100
AcDbLine
 10
15.60000423982978
 20
298.1338132994103
 30
0.0
 11
15.60000423982978
 21
301.1338132994103
 31
0.0
  0
LINE
  5
636
330
1F
100
AcDbEntity
  8
0
100
AcDbLine
 10
15.60000423982978
 20
301.1338132994103
 30
0.0
 11
14.10000423982975
 21
301.1338132994103
 31
0.0
  0
LINE
  5
637
330
1F
100
AcDbEntity
  8
0
100
AcDbLine
 10
14.10000423982975
 20
301.1338132994103
 30
0.0
 11
14.10000423982975
 21
298.1338132994103
 31
0.0
  0
LINE
  5
638
330
1F
100
AcDbEntity
  8
0
100
AcDbLine
 10
14.10000423982975
 20
185.9738132994104
 30
0.0
 11
22.70000423982992
 21
185.9738132994104
 31
0.0
  0
CIRCLE
  5
639
330
1F
100
AcDbEntity
  8
0
100
AcDbCircle
 10
18.10000423982978
 20
193.5938132994103
 30
0.0
 40
2.0
  0
CIRCLE
  5
63A
330
1F
100
AcDbEntity
  8
0
100
AcDbCircle
 10
18.10000423982978
 20
198.6738132994105
 30
0.0
 40
2.0
  0
CIRCLE
  5
63B
330
1F
100
AcDbEntity
  8
0
100
AcDbCircle
 10
18.10000423982978
 20
198.6738132994105
 30
0.0
 40
2.0
  0
CIRCLE
  5
63C
330
1F
100
AcDbEntity
  8
0
100
AcDbCircle
 10
18.10000423982978
 20
203.7538132994104
 30
0.0
 40
2.0
  0
CIRCLE
  5
63D
330
1F
100
AcDbEntity
  8
0
100
AcDbCircle
 10
18.10000423982978
 20
203.7538132994104
 30
0.0
 40
2.0
  0
CIRCLE
  5
63E
330
1F
100
AcDbEntity
  8
0
100
AcDbCircle
 10
18.10000423982978
 20
213.9138132994105
 30
0.0
 40
2.0
  0
CIRCLE
  5
63F
330
1F
100
AcDbEntity
  8
0
100
AcDbCircle
 10
18.10000423982978
 20
213.9138132994105
 30
0.0
 40
2.0
  0
CIRCLE
  5
640
330
1F
100
AcDbEntity
  8
0
100
AcDbCircle
 10
18.10000423982978
 20
218.9938132994114
 30
0.0
 40
2.0
  0
CIRCLE
  5
641
330
1F
100
AcDbEntity
  8
0
100
AcDbCircle
 10
18.10000423982978
 20
188.8438132994103
 30
0.0
 40
1.0
  0
CIRCLE
  5
642
330
1F
100
AcDbEntity
  8
0
100
AcDbCircle
 10
18.10000423982978
 20
188.8438132994103
 30
0.0
 40
1.5
  0
CIRCLE
  5
643
330
1F
100
AcDbEntity
  8
0
100
AcDbCircle
 10
18.10000423982978
 20
223.7438132994103
 30
0.0
 40
1.0
  0
CIRCLE
  5
644
330
1F
100
AcDbEntity
  8
0
100
AcDbCircle
 10
18.10000423982978
 20
223.7438132994103
 30
0.0
 40
1.5
  0
CIRCLE
  5
645
330
1F
100
AcDbEntity
  8
0
100
AcDbCircle
 10
18.10000423982978
 20
208.8338132994095
 30
0.0
 40
2.0
  0
LINE
  5
646
330
1F
100
AcDbEntity
  8
0
100
AcDbLine
 10
22.70000423982992
 20
185.9738132994104
 30
0.0
 11
22.70000423982992
 21
226.6138132994103
 31
0.0
  0
LINE
  5
647
330
1F
100
AcDbEntity
  8
0
100
AcDbLine
 10
22.70000423982992
 20
226.6138132994103
 30
0.0
 11
14.10000423982975
 21
226.6138132994103
 31
0.0
  0
LINE
  5
648
330
1F
100
AcDbEntity
  8
0
100
AcDbLine
 10
14.10000423982975
 20
226.6138132994103
 30
0.0
 11
14.10000423982975
 21
185.9738132994104
 31
0.0
  0
LINE
  5
649
330
1F
100
AcDbEntity
  8
0
100
AcDbLine
 10
47.45000423982992
 20
204.0900964420024
 30
0.0
 11
47.45000423982992
 21
219.0575301568194
 31
0.0
  0
LINE
  5
64A
330
1F
100
AcDbEntity
  8
0
100
AcDbLine
 10
41.15000423982997
 20
219.6738132994096
 30
0.0
 11
41.15000423982997
 21
203.4738132994104
 31
0.0
  0
LINE
  5
64B
330
1F
100
AcDbEntity
  8
0
100
AcDbLine
 10
42.70000423982992
 20
220.1738132994105
 30
0.0
 11
42.70000423982992
 21
202.9738132994105
 31
0.0
  0
LINE
  5
64C
330
1F
100
AcDbEntity
  8
0
100
AcDbLine
 10
45.90000423983085
 20
202.9738132994105
 30
0.0
 11
45.90000423983085
 21
220.1738132994105
 31
0.0
  0
LINE
  5
64D
330
1F
100
AcDbEntity
  8
0
100
AcDbLine
 10
39.70000423983082
 20
229.1738132994105
 30
0.0
 11
39.70000423983082
 21
193.9738132994094
 31
0.0
  0
LINE
  5
64E
330
1F
100
AcDbEntity
  8
0
100
AcDbLine
 10
48.80000423983074
 20
192.9738132994105
 30
0.0
 11
48.80000423983074
 21
230.1738132994096
 31
0.0
  0
LINE
  5
64F
330
1F
100
AcDbEntity
  8
0
100
AcDbLine
 10
49.10000423982978
 20
200.3738132994094
 30
0.0
 11
49.10000423982978
 21
193.2738132994094
 31
0.0
  0
CIRCLE
  5
650
330
1F
100
AcDbEntity
  8
0
100
AcDbCircle
 10
44.30000423983074
 20
195.9438132994105
 30
0.0
 40
1.399999999999999
  0
ARC
  5
651
330
1F
100
AcDbEntity
  8
0
100
AcDbCircle
 10
48.80000423983074
 20
193.2738132994094
 30
0.0
 40
0.3
100
AcDbArc
 50
270.0
 51
0.0
  0
LINE
  5
652
330
1F
100
AcDbEntity
  8
0
100
AcDbLine
 10
40.50000423983077
 20
192.9738132994105
 30
0.0
 11
48.80000423983074
 21
192.9738132994105
 31
0.0
  0
ARC
  5
653
330
1F
100
AcDbEntity
  8
0
100
AcDbCircle
 10
40.50000423983077
 20
193.4738132994104
 30
0.0
 40
0.5
100
AcDbArc
 50
180.0
 51
270.0
  0
LINE
  5
654
330
1F
100
AcDbEntity
  8
0
100
AcDbLine
 10
40.00000423983077
 20
193.9738132994094
 30
0.0
 11
40.00000423983077
 21
193.4738132994104
 31
0.0
  0
LINE
  5
655
330
1F
100
AcDbEntity
  8
0
100
AcDbLine
 10
39.70000423983082
 20
193.9738132994094
 30
0.0
 11
48.80000423983074
 21
193.9738132994094
 31
0.0
  0
ARC
  5
656
330
1F
100
AcDbEntity
  8
0
100
AcDbCircle
 10
45.45000423982992
 20
204.0900964420024
 30
0.0
 40
2.0
100
AcDbArc
 50
284.9999999999943
 51
0.0
  0
LINE
  5
657
330
1F
100
AcDbEntity
  8
0
100
AcDbLine
 10
43.66764233003595
 20
201.5419616468323
 30
0.0
 11
45.96764233003589
 21
202.1582447894219
 31
0.0
  0
ARC
  5
658
330
1F
100
AcDbEntity
  8
0
100
AcDbCircle
 10
43.15000423983089
 20
203.4738132994104
 30
0.0
 40
2.0
100
AcDbArc
 50
180.0
 51
284.9999999999943
  0
LINE
  5
659
330
1F
100
AcDbEntity
  8
0
100
AcDbLine
 10
42.70000423982992
 20
202.9738132994105
 30
0.0
 11
45.90000423983085
 21
202.9738132994105
 31
0.0
  0
LINE
  5
65A
330
1F
100
AcDbEntity
  8
0
100
AcDbLine
 10
48.80000423983074
 20
200.3738132994094
 30
0.0
 11
49.10000423982978
 21
200.3738132994094
 31
0.0
  0
LINE
  5
65B
330
1F
100
AcDbEntity
  8
0
100
AcDbLine
 10
47.45000423982992
 20
197.9738132994105
 30
0.0
 11
47.45000423982992
 21
200.3738132994094
 31
0.0
  0
LINE
  5
65C
330
1F
100
AcDbEntity
  8
0
100
AcDbLine
 10
41.15000423982997
 20
200.3738132994094
 30
0.0
 11
41.15000423982997
 21
197.9738132994105
 31
0.0
  0
LINE
  5
65D
330
1F
100
AcDbEntity
  8
0
100
AcDbLine
 10
41.15000423982997
 20
200.3738132994094
 30
0.0
 11
47.45000423982992
 21
200.3738132994094
 31
0.0
  0
LINE
  5
65E
330
1F
100
AcDbEntity
  8
0
100
AcDbLine
 10
41.15000423982997
 20
198.4738132994104
 30
0.0
 11
47.45000423982992
 21
198.4738132994104
 31
0.0
  0
LINE
  5
65F
330
1F
100
AcDbEntity
  8
0
100
AcDbLine
 10
41.15000423982997
 20
197.9738132994105
 30
0.0
 11
47.45000423982992
 21
197.9738132994105
 31
0.0
  0
ARC
  5
660
330
1F
100
AcDbEntity
  8
0
100
AcDbCircle
 10
48.80000423983074
 20
229.8738132994112
 30
0.0
 40
0.3
100
AcDbArc
 50
0.0
 51
90.0
  0
LINE
  5
661
330
1F
100
AcDbEntity
  8
0
100
AcDbLine
 10
49.10000423982978
 20
229.8738132994112
 30
0.0
 11
49.10000423982978
 21
222.7738132994104
 31
0.0
  0
LINE
  5
662
330
1F
100
AcDbEntity
  8
0
100
AcDbLine
 10
40.50000423983077
 20
230.1738132994096
 30
0.0
 11
48.80000423983074
 21
230.1738132994105
 31
0.0
  0
ARC
  5
663
330
1F
100
AcDbEntity
  8
0
100
AcDbCircle
 10
45.45000423982992
 20
219.0575301568194
 30
0.0
 40
2.0
100
AcDbArc
 50
0.0
 51
75.00000000000555
  0
LINE
  5
664
330
1F
100
AcDbEntity
  8
0
100
AcDbLine
 10
43.66764233003595
 20
221.6056649519873
 30
0.0
 11
45.96764233003589
 21
220.9893818093965
 31
0.0
  0
ARC
  5
665
330
1F
100
AcDbEntity
  8
0
100
AcDbCircle
 10
43.15000423983089
 20
219.6738132994096
 30
0.0
 40
2.0
100
AcDbArc
 50
75.00000000000555
 51
180.0
  0
LINE
  5
666
330
1F
100
AcDbEntity
  8
0
100
AcDbLine
 10
45.90000423983085
 20
220.1738132994105
 30
0.0
 11
42.70000423982992
 21
220.1738132994105
 31
0.0
  0
ARC
  5
667
330
1F
100
AcDbEntity
  8
0
100
AcDbCircle
 10
40.50000423983077
 20
229.6738132994105
 30
0.0
 40
0.5
100
AcDbArc
 50
90.0
 51
180.0
  0
LINE
  5
668
330
1F
100
AcDbEntity
  8
0
100
AcDbLine
 10
40.00000423983077
 20
229.6738132994105
 30
0.0
 11
40.00000423983077
 21
229.1738132994105
 31
0.0
  0
LINE
  5
669
330
1F
100
AcDbEntity
  8
0
100
AcDbLine
 10
39.70000423983082
 20
229.1738132994105
 30
0.0
 11
48.80000423983074
 21
229.1738132994105
 31
0.0
  0
LINE
  5
66A
330
1F
100
AcDbEntity
  8
0
100
AcDbLine
 10
48.80000423983074
 20
222.7738132994104
 30
0.0
 11
49.10000423982978
 21
222.7738132994104
 31
0.0
  0
LINE
  5
66B
330
1F
100
AcDbEntity
  8
0
100
AcDbLine
 10
47.45000423982992
 20
222.7738132994104
 30
0.0
 11
47.45000423982992
 21
225.1738132994105
 31
0.0
  0
LINE
  5
66C
330
1F
100
AcDbEntity
  8
0
100
AcDbLine
 10
41.15000423982997
 20
225.1738132994105
 30
0.0
 11
41.15000423982997
 21
222.7738132994104
 31
0.0
  0
LINE
  5
66D
330
1F
100
AcDbEntity
  8
0
100
AcDbLine
 10
41.15000423982997
 20
222.7738132994104
 30
0.0
 11
47.45000423982992
 21
222.7738132994104
 31
0.0
  0
LINE
  5
66E
330
1F
100
AcDbEntity
  8
0
100
AcDbLine
 10
41.15000423982997
 20
224.6738132994105
 30
0.0
 11
47.45000423982992
 21
224.6738132994105
 31
0.0
  0
LINE
  5
66F
330
1F
100
AcDbEntity
  8
0
100
AcDbLine
 10
41.15000423982997
 20
225.1738132994105
 30
0.0
 11
47.45000423982992
 21
225.1738132994105
 31
0.0
  0
CIRCLE
  5
670
330
1F
100
AcDbEntity
  8
0
100
AcDbCircle
 10
44.30000423983074
 20
227.2038132994105
 30
0.0
 40
1.399999999999999
  0
LINE
  5
671
330
1F
100
AcDbEntity
  8
0
100
AcDbLine
 10
48.80000423983074
 20
215.3838132994112
 30
0.0
 11
49.10000423982978
 21
215.3838132994112
 31
0.0
  0
LINE
  5
672
330
1F
100
AcDbEntity
  8
0
100
AcDbLine
 10
48.80000423983074
 20
214.1138132994111
 30
0.0
 11
49.10000423982978
 21
214.1138132994111
 31
0.0
  0
LINE
  5
673
330
1F
100
AcDbEntity
  8
0
100
AcDbLine
 10
48.80000423983074
 20
212.8438132994103
 30
0.0
 11
49.10000423982978
 21
212.8438132994103
 31
0.0
  0
LINE
  5
674
330
1F
100
AcDbEntity
  8
0
100
AcDbLine
 10
48.80000423983074
 20
211.5738132994112
 30
0.0
 11
49.10000423982978
 21
211.5738132994112
 31
0.0
  0
LINE
  5
675
330
1F
100
AcDbEntity
  8
0
100
AcDbLine
 10
48.80000423983074
 20
210.3038132994113
 30
0.0
 11
49.10000423982978
 21
210.3038132994113
 31
0.0
  0
LINE
  5
676
330
1F
100
AcDbEntity
  8
0
100
AcDbLine
 10
48.80000423983074
 20
209.0338132994113
 30
0.0
 11
49.10000423982978
 21
209.0338132994113
 31
0.0
  0
LINE
  5
677
330
1F
100
AcDbEntity
  8
0
100
AcDbLine
 10
48.80000423983074
 20
207.7638132994104
 30
0.0
 11
49.10000423982978
 21
207.7638132994104
 31
0.0
  0
LINE
  5
678
330
1F
100
AcDbEntity
  8
0
100
AcDbLine
 10
48.80000423983074
 20
217.9238132994114
 30
0.0
 11
49.10000423982978
 21
217.9238132994114
 31
0.0
  0
LINE
  5
679
330
1F
100
AcDbEntity
  8
0
100
AcDbLine
 10
48.80000423983074
 20
216.6538132994105
 30
0.0
 11
49.10000423982978
 21
216.6538132994105
 31
0.0
  0
LINE
  5
67A
330
1F
100
AcDbEntity
  8
0
100
AcDbLine
 10
48.80000423983074
 20
215.3838132994112
 30
0.0
 11
49.10000423982978
 21
215.3838132994112
 31
0.0
  0
LINE
  5
67B
330
1F
100
AcDbEntity
  8
0
100
AcDbLine
 10
48.80000423983074
 20
219.1938132994096
 30
0.0
 11
49.10000423982978
 21
219.1938132994096
 31
0.0
  0
LINE
  5
67C
330
1F
100
AcDbEntity
  8
0
100
AcDbLine
 10
48.80000423983074
 20
217.9238132994114
 30
0.0
 11
49.10000423982978
 21
217.9238132994114
 31
0.0
  0
LINE
  5
67D
330
1F
100
AcDbEntity
  8
0
100
AcDbLine
 10
48.80000423983074
 20
207.7638132994104
 30
0.0
 11
49.10000423982978
 21
207.7638132994104
 31
0.0
  0
LINE
  5
67E
330
1F
100
AcDbEntity
  8
0
100
AcDbLine
 10
48.80000423983074
 20
206.4938132994103
 30
0.0
 11
49.10000423982978
 21
206.4938132994103
 31
0.0
  0
LINE
  5
67F
330
1F
100
AcDbEntity
  8
0
100
AcDbLine
 10
48.80000423983074
 20
205.2238132994113
 30
0.0
 11
49.10000423982978
 21
205.2238132994113
 31
0.0
  0
LINE
  5
680
330
1F
100
AcDbEntity
  8
0
100
AcDbLine
 10
48.80000423983074
 20
203.9538132994112
 30
0.0
 11
49.10000423982978
 21
203.9538132994112
 31
0.0
  0
LINE
  5
681
330
1F
100
AcDbEntity
  8
0
100
AcDbLine
 10
14.10000423982975
 20
185.1738131400666
 30
0.0
 11
14.10000423982975
 21
271.4738131400665
 31
0.0
  0
LINE
  5
682
330
1F
100
AcDbEntity
  8
0
100
AcDbLine
 10
53.44722605367564
 20
172.9738132994105
 30
0.0
 11
51.43303861348885
 21
172.9738132994105
 31
0.0
  0
LINE
  5
683
330
1F
100
AcDbEntity
  8
0
100
AcDbLine
 10
36.56696986616998
 20
172.9738132994105
 30
0.0
 11
34.55278242598365
 21
172.9738132994105
 31
0.0
  0
LINE
  5
684
330
1F
100
AcDbEntity
  8
0
100
AcDbLine
 10
36.50000423982874
 20
180.9738132994104
 30
0.0
 11
36.50000423982874
 21
173.9738132994105
 31
0.0
  0
LINE
  5
685
330
1F
100
AcDbEntity
  8
0
100
AcDbLine
 10
53.50000423982874
 20
164.4738132994104
 30
0.0
 11
34.50000423982988
 21
164.4738132994104
 31
0.0
  0
ARC
  5
686
330
1F
100
AcDbEntity
  8
0
100
AcDbCircle
 10
44.00000423982985
 20
173.9738132994105
 30
0.0
 40
7.5
100
AcDbArc
 50
180.0
 51
0.0
  0
ARC
  5
687
330
1F
100
AcDbEntity
  8
0
100
AcDbCircle
 10
44.00000423982985
 20
173.9738132994105
 30
0.0
 40
9.5
100
AcDbArc
 50
186.0423284190442
 51
353.9576715809556
  0
LINE
  5
688
330
1F
100
AcDbEntity
  8
0
100
AcDbLine
 10
34.50000423982988
 20
164.4738132994104
 30
0.0
 11
34.50000423982988
 21
180.9738132994104
 31
0.0
  0
LINE
  5
689
330
1F
100
AcDbEntity
  8
0
100
AcDbLine
 10
53.50000423982874
 20
164.4738132994104
 30
0.0
 11
53.50000423982874
 21
180.9738132994104
 31
0.0
  0
LINE
  5
68A
330
1F
100
AcDbEntity
  8
0
100
AcDbLine
 10
51.50000423982874
 20
180.9738132994104
 30
0.0
 11
51.50000423982874
 21
173.9738132994105
 31
0.0
  0
LINE
  5
68B
330
1F
100
AcDbEntity
  8
0
100
AcDbLine
 10
49.10000423982864
 20
185.9738132994104
 30
0.0
 11
49.10000423982864
 21
191.4738132994104
 31
0.0
  0
CIRCLE
  5
68C
330
1F
100
AcDbEntity
  8
0
100
AcDbCircle
 10
45.67000423982856
 20
187.4738132994105
 30
0.0
 40
0.32
  0
CIRCLE
  5
68D
330
1F
100
AcDbEntity
  8
0
100
AcDbCircle
 10
45.67000423982856
 20
189.9738132994104
 30
0.0
 40
0.32
  0
LINE
  5
68E
330
1F
100
AcDbEntity
  8
0
100
AcDbLine
 10
42.60000423982979
 20
185.9738132994104
 30
0.0
 11
43.60000423982977
 21
185.9738132994104
 31
0.0
  0
LINE
  5
68F
330
1F
100
AcDbEntity
  8
0
100
AcDbLine
 10
43.60000423982977
 20
185.9738132994104
 30
0.0
 11
43.60000423982977
 21
191.4738132994104
 31
0.0
  0
LINE
  5
690
330
1F
100
AcDbEntity
  8
0
100
AcDbLine
 10
43.60000423982977
 20
187.9738132994105
 30
0.0
 11
43.60000423982977
 21
189.4738132994104
 31
0.0
  0
LINE
  5
691
330
1F
100
AcDbEntity
  8
0
100
AcDbLine
 10
43.60000423982977
 20
189.4738132994104
 30
0.0
 11
42.60000423982979
 21
189.4738132994104
 31
0.0
  0
LINE
  5
692
330
1F
100
AcDbEntity
  8
0
100
AcDbLine
 10
42.60000423982979
 20
189.4738132994104
 30
0.0
 11
42.60000423982979
 21
187.9738132994105
 31
0.0
  0
LINE
  5
693
330
1F
100
AcDbEntity
  8
0
100
AcDbLine
 10
42.60000423982979
 20
187.9738132994105
 30
0.0
 11
43.60000423982977
 21
187.9738132994105
 31
0.0
  0
LINE
  5
694
330
1F
100
AcDbEntity
  8
0
100
AcDbLine
 10
49.10000423982864
 20
191.4738132994104
 30
0.0
 11
42.60000423982979
 21
191.4738132994104
 31
0.0
  0
LINE
  5
695
330
1F
100
AcDbEntity
  8
0
100
AcDbLine
 10
42.60000423982979
 20
191.4738132994104
 30
0.0
 11
42.60000423982979
 21
185.9738132994104
 31
0.0
  0
LINE
  5
696
330
1F
100
AcDbEntity
  8
0
100
AcDbLine
 10
42.60000423982979
 20
185.9738132994104
 30
0.0
 11
49.10000423982864
 21
185.9738132994104
 31
0.0
  0
CIRCLE
  5
697
330
1F
100
AcDbEntity
  8
0
100
AcDbCircle
 10
18.10000423982978
 20
238.6138132994103
 30
0.0
 40
0.75
  0
LINE
  5
698
330
1F
100
AcDbEntity
  8
0
100
AcDbLine
 10
22.60000423982978
 20
234.6138132994103
 30
0.0
 11
22.60000423982978
 21
265.1138132994103
 31
0.0
  0
LINE
  5
699
330
1F
100
AcDbEntity
  8
0
100
AcDbLine
 10
14.10000423982975
 20
270.4738132994104
 30
0.0
 11
14.10000423982975
 21
229.6138132994103
 31
0.0
  0
LINE
  5
69A
330
1F
100
AcDbEntity
  8
0
100
AcDbLine
 10
20.30000423982869
 20
239.9238132994105
 30
0.0
 11
20.30000423982869
 21
237.3038132994095
 31
0.0
  0
ARC
  5
69B
330
1F
100
AcDbEntity
  8
0
100
AcDbCircle
 10
18.10000423982978
 20
238.6138132994103
 30
0.0
 40
2.9
100
AcDbArc
 50
133.602818972703
 51
226.3971810273058
  0
CIRCLE
  5
69C
330
1F
100
AcDbEntity
  8
0
100
AcDbCircle
 10
18.10000423982978
 20
238.6138132994103
 30
0.0
 40
1.5
  0
CIRCLE
  5
69D
330
1F
100
AcDbEntity
  8
0
100
AcDbCircle
 10
18.06361817942593
 20
232.5138132994104
 30
0.0
 40
2.0
  0
LINE
  5
69E
330
1F
100
AcDbEntity
  8
0
100
AcDbLine
 10
14.10000423982975
 20
229.6138132994103
 30
0.0
 11
21.10000423982977
 21
229.6138132994103
 31
0.0
  0
LINE
  5
69F
330
1F
100
AcDbEntity
  8
0
100
AcDbLine
 10
16.10000423982977
 20
235.6138132994094
 30
0.0
 11
21.10000423982977
 21
235.6138132994094
 31
0.0
  0
LINE
  5
6A0
330
1F
100
AcDbEntity
  8
0
100
AcDbLine
 10
16.10000423982977
 20
236.5138132994104
 30
0.0
 11
16.10000423982977
 21
235.6138132994094
 31
0.0
  0
LINE
  5
6A1
330
1F
100
AcDbEntity
  8
0
100
AcDbLine
 10
21.10000423982977
 20
229.6138132994103
 30
0.0
 11
21.10000423982977
 21
234.6138132994103
 31
0.0
  0
CIRCLE
  5
6A2
330
1F
100
AcDbEntity
  8
0
100
AcDbCircle
 10
18.06361817942593
 20
232.5138132994104
 30
0.0
 40
0.9
  0
LINE
  5
6A3
330
1F
100
AcDbEntity
  8
0
100
AcDbLine
 10
21.10000423982977
 20
234.6138132994103
 30
0.0
 11
22.60000423982978
 21
234.6138132994103
 31
0.0
  0
LINE
  5
6A4
330
1F
100
AcDbEntity
  8
0
100
AcDbLine
 10
20.30000423982869
 20
237.3038132994095
 30
0.0
 11
21.10000423982977
 21
237.3038132994095
 31
0.0
  0
LINE
  5
6A5
330
1F
100
AcDbEntity
  8
0
100
AcDbLine
 10
21.10000423982977
 20
237.3038132994095
 30
0.0
 11
21.10000423982977
 21
235.6138132994094
 31
0.0
  0
ARC
  5
6A6
330
1F
100
AcDbEntity
  8
0
100
AcDbCircle
 10
18.10000423982978
 20
261.4738132994105
 30
0.0
 40
2.9
100
AcDbArc
 50
133.602818972703
 51
226.3971810273058
  0
LINE
  5
6A7
330
1F
100
AcDbEntity
  8
0
100
AcDbLine
 10
21.10000423982977
 20
260.1638132994103
 30
0.0
 11
21.10000423982977
 21
255.1638132994105
 31
0.0
  0
LINE
  5
6A8
330
1F
100
AcDbEntity
  8
0
100
AcDbLine
 10
21.10000423982977
 20
252.5438132994104
 30
0.0
 11
21.10000423982977
 21
247.5438132994104
 31
0.0
  0
LINE
  5
6A9
330
1F
100
AcDbEntity
  8
0
100
AcDbLine
 10
16.10000423982977
 20
251.7538132994094
 30
0.0
 11
16.10000423982977
 21
248.3338132994095
 31
0.0
  0
ARC
  5
6AA
330
1F
100
AcDbEntity
  8
0
100
AcDbCircle
 10
18.10000423982978
 20
246.2338132994104
 30
0.0
 40
2.9
100
AcDbArc
 50
133.602818972703
 51
226.3971810273058
  0
LINE
  5
6AB
330
1F
100
AcDbEntity
  8
0
100
AcDbLine
 10
16.10000423982977
 20
244.1338132994093
 30
0.0
 11
16.10000423982977
 21
240.7138132994095
 31
0.0
  0
CIRCLE
  5
6AC
330
1F
100
AcDbEntity
  8
0
100
AcDbCircle
 10
18.10000423982978
 20
246.2338132994104
 30
0.0
 40
1.5
  0
LINE
  5
6AD
330
1F
100
AcDbEntity
  8
0
100
AcDbLine
 10
21.10000423982977
 20
244.9238132994105
 30
0.0
 11
21.10000423982977
 21
239.9238132994105
 31
0.0
  0
LINE
  5
6AE
330
1F
100
AcDbEntity
  8
0
100
AcDbLine
 10
20.30000423982869
 20
239.9238132994105
 30
0.0
 11
21.10000423982977
 21
239.9238132994105
 31
0.0
  0
LINE
  5
6AF
330
1F
100
AcDbEntity
  8
0
100
AcDbLine
 10
22.60000423982978
 20
242.1638132994105
 30
0.0
 11
24.30000423982869
 21
242.1638132994105
 31
0.0
  0
LINE
  5
6B0
330
1F
100
AcDbEntity
  8
0
100
AcDbLine
 10
24.30000423982869
 20
240.5638132994095
 30
0.0
 11
22.60000423982978
 21
240.5638132994095
 31
0.0
  0
LINE
  5
6B1
330
1F
100
AcDbEntity
  8
0
100
AcDbLine
 10
24.30000423982869
 20
242.1638132994105
 30
0.0
 11
24.30000423982869
 21
240.5638132994095
 31
0.0
  0
CIRCLE
  5
6B2
330
1F
100
AcDbEntity
  8
0
100
AcDbCircle
 10
18.10000423982978
 20
246.2338132994104
 30
0.0
 40
0.75
  0
LINE
  5
6B3
330
1F
100
AcDbEntity
  8
0
100
AcDbLine
 10
20.30000423982869
 20
244.9238132994105
 30
0.0
 11
21.10000423982977
 21
244.9238132994105
 31
0.0
  0
LINE
  5
6B4
330
1F
100
AcDbEntity
  8
0
100
AcDbLine
 10
20.30000423982869
 20
247.5438132994104
 30
0.0
 11
21.10000423982977
 21
247.5438132994104
 31
0.0
  0
LINE
  5
6B5
330
1F
100
AcDbEntity
  8
0
100
AcDbLine
 10
20.30000423982869
 20
247.5438132994104
 30
0.0
 11
20.30000423982869
 21
244.9238132994105
 31
0.0
  0
ARC
  5
6B6
330
1F
100
AcDbEntity
  8
0
100
AcDbCircle
 10
18.10000423982978
 20
253.8538132994094
 30
0.0
 40
2.9
100
AcDbArc
 50
133.602818972703
 51
226.3971810273058
  0
LINE
  5
6B7
330
1F
100
AcDbEntity
  8
0
100
AcDbLine
 10
16.10000423982977
 20
259.3738132994094
 30
0.0
 11
16.10000423982977
 21
255.9538132994105
 31
0.0
  0
LINE
  5
6B8
330
1F
100
AcDbEntity
  8
0
100
AcDbLine
 10
24.30000423982869
 20
257.5638132994104
 30
0.0
 11
22.60000423982978
 21
257.5638132994104
 31
0.0
  0
LINE
  5
6B9
330
1F
100
AcDbEntity
  8
0
100
AcDbLine
 10
24.30000423982869
 20
259.1638132994105
 30
0.0
 11
22.60000423982978
 21
259.1638132994105
 31
0.0
  0
LINE
  5
6BA
330
1F
100
AcDbEntity
  8
0
100
AcDbLine
 10
24.30000423982869
 20
259.1638132994105
 30
0.0
 11
24.30000423982869
 21
257.5638132994104
 31
0.0
  0
LINE
  5
6BB
330
1F
100
AcDbEntity
  8
0
100
AcDbLine
 10
20.30000423982869
 20
255.1638132994105
 30
0.0
 11
21.10000423982977
 21
255.1638132994105
 31
0.0
  0
CIRCLE
  5
6BC
330
1F
100
AcDbEntity
  8
0
100
AcDbCircle
 10
18.10000423982978
 20
253.8538132994094
 30
0.0
 40
0.75
  0
LINE
  5
6BD
330
1F
100
AcDbEntity
  8
0
100
AcDbLine
 10
20.30000423982869
 20
252.5438132994104
 30
0.0
 11
21.10000423982977
 21
252.5438132994104
 31
0.0
  0
CIRCLE
  5
6BE
330
1F
100
AcDbEntity
  8
0
100
AcDbCircle
 10
18.10000423982978
 20
253.8538132994094
 30
0.0
 40
1.5
  0
LINE
  5
6BF
330
1F
100
AcDbEntity
  8
0
100
AcDbLine
 10
20.30000423982869
 20
255.1638132994105
 30
0.0
 11
20.30000423982869
 21
252.5438132994104
 31
0.0
  0
LINE
  5
6C0
330
1F
100
AcDbEntity
  8
0
100
AcDbLine
 10
21.10000423982977
 20
265.4738132994105
 30
0.0
 11
21.10000423982977
 21
270.4738132994104
 31
0.0
  0
CIRCLE
  5
6C1
330
1F
100
AcDbEntity
  8
0
100
AcDbCircle
 10
18.10000423982978
 20
267.5738132994104
 30
0.0
 40
2.0
  0
LINE
  5
6C2
330
1F
100
AcDbEntity
  8
0
100
AcDbLine
 10
21.10000423982977
 20
264.1138132994103
 30
0.0
 11
16.10000423982977
 21
264.1138132994103
 31
0.0
  0
LINE
  5
6C3
330
1F
100
AcDbEntity
  8
0
100
AcDbLine
 10
16.10000423982977
 20
264.1138132994103
 30
0.0
 11
16.10000423982977
 21
263.5738132994104
 31
0.0
  0
LINE
  5
6C4
330
1F
100
AcDbEntity
  8
0
100
AcDbLine
 10
21.10000423982977
 20
265.4738132994105
 30
0.0
 11
22.60000423982978
 21
265.4738132994105
 31
0.0
  0
CIRCLE
  5
6C5
330
1F
100
AcDbEntity
  8
0
100
AcDbCircle
 10
18.10000423982978
 20
267.5738132994104
 30
0.0
 40
0.9
  0
LINE
  5
6C6
330
1F
100
AcDbEntity
  8
0
100
AcDbLine
 10
20.30000423982869
 20
262.7838132994103
 30
0.0
 11
21.10000423982977
 21
262.7838132994103
 31
0.0
  0
LINE
  5
6C7
330
1F
100
AcDbEntity
  8
0
100
AcDbLine
 10
21.10000423982977
 20
264.1138132994103
 30
0.0
 11
21.10000423982977
 21
262.7838132994103
 31
0.0
  0
LINE
  5
6C8
330
1F
100
AcDbEntity
  8
0
100
AcDbLine
 10
20.30000423982869
 20
260.1638132994103
 30
0.0
 11
21.10000423982977
 21
260.1638132994103
 31
0.0
  0
CIRCLE
  5
6C9
330
1F
100
AcDbEntity
  8
0
100
AcDbCircle
 10
18.10000423982978
 20
261.4738132994105
 30
0.0
 40
0.75
  0
LINE
  5
6CA
330
1F
100
AcDbEntity
  8
0
100
AcDbLine
 10
20.30000423982869
 20
262.7838132994103
 30
0.0
 11
20.30000423982869
 21
260.1638132994103
 31
0.0
  0
CIRCLE
  5
6CB
330
1F
100
AcDbEntity
  8
0
100
AcDbCircle
 10
18.10000423982978
 20
261.4738132994105
 30
0.0
 40
1.5
  0
LINE
  5
6CC
330
1F
100
AcDbEntity
  8
0
100
AcDbLine
 10
22.60000423982978
 20
265.4738132994105
 30
0.0
 11
22.60000423982978
 21
265.1138132994103
 31
0.0
  0
LINE
  5
6CD
330
1F
100
AcDbEntity
  8
0
100
AcDbLine
 10
14.10000423982975
 20
270.4738132994104
 30
0.0
 11
21.10000423982977
 21
270.4738132994104
 31
0.0
  0
LINE
  5
6CE
330
1F
100
AcDbEntity
  8
0
100
AcDbLine
 10
14.10000423982975
 20
265.2338132994094
 30
0.0
 11
14.10000423982975
 21
270.4738132994104
 31
0.0
  0
LINE
  5
6CF
330
1F
100
AcDbEntity
  8
0
100
AcDbLine
 10
14.10000423982975
 20
270.4738132994104
 30
0.0
 11
21.10000423982977
 21
270.4738132994104
 31
0.0
  0
LINE
  5
6D0
330
1F
100
AcDbEntity
  8
0
100
AcDbLine
 10
21.10000423982977
 20
270.4738132994104
 30
0.0
 11
21.10000423982977
 21
265.2338132994094
 31
0.0
  0
LINE
  5
6D1
330
1F
100
AcDbEntity
  8
0
100
AcDbLine
 10
14.10000423982975
 20
234.8538132994103
 30
0.0
 11
14.10000423982975
 21
229.6138132994103
 31
0.0
  0
LINE
  5
6D2
330
1F
100
AcDbEntity
  8
0
100
AcDbLine
 10
14.10000423982975
 20
229.6138132994103
 30
0.0
 11
21.10000423982977
 21
229.6138132994103
 31
0.0
  0
LINE
  5
6D3
330
1F
100
AcDbEntity
  8
0
100
AcDbLine
 10
21.10000423982977
 20
229.6138132994103
 30
0.0
 11
21.10000423982977
 21
234.8538132994103
 31
0.0
  0
LINE
  5
6D4
330
1F
100
AcDbEntity
  8
0
100
AcDbLine
 10
41.20000423982856
 20
242.0738132994104
 30
0.0
 11
49.10000423982864
 21
242.0738132994104
 31
0.0
  0
LINE
  5
6D5
330
1F
100
AcDbEntity
  8
0
100
AcDbLine
 10
42.1500042398286
 20
243.0738132994095
 30
0.0
 11
48.15000423982997
 21
243.0738132994095
 31
0.0
  0
LINE
  5
6D6
330
1F
100
AcDbEntity
  8
0
100
AcDbLine
 10
43.15000423982996
 20
243.0738132994095
 30
0.0
 11
44.1500042398286
 21
243.0738132994095
 31
0.0
  0
LINE
  5
6D7
330
1F
100
AcDbEntity
  8
0
100
AcDbLine
 10
44.95000423982856
 20
243.0738132994095
 30
0.0
 11
44.95000423982856
 21
246.0738132994104
 31
0.0
  0
LINE
  5
6D8
330
1F
100
AcDbEntity
  8
0
100
AcDbLine
 10
48.15000423982997
 20
243.0738132994095
 30
0.0
 11
48.15000423982997
 21
246.0738132994104
 31
0.0
  0
LINE
  5
6D9
330
1F
100
AcDbEntity
  8
0
100
AcDbLine
 10
48.15000423982997
 20
246.0738132994104
 30
0.0
 11
42.1500042398286
 21
246.0738132994104
 31
0.0
  0
LINE
  5
6DA
330
1F
100
AcDbEntity
  8
0
100
AcDbLine
 10
42.1500042398286
 20
246.0738132994104
 30
0.0
 11
42.1500042398286
 21
243.0738132994095
 31
0.0
  0
LINE
  5
6DB
330
1F
100
AcDbEntity
  8
0
100
AcDbLine
 10
44.1500042398286
 20
243.0738132994095
 30
0.0
 11
44.1500042398286
 21
246.0738132994104
 31
0.0
  0
LINE
  5
6DC
330
1F
100
AcDbEntity
  8
0
100
AcDbLine
 10
44.1500042398286
 20
246.0738132994104
 30
0.0
 11
43.15000423982996
 21
246.0738132994104
 31
0.0
  0
LINE
  5
6DD
330
1F
100
AcDbEntity
  8
0
100
AcDbLine
 10
43.15000423982996
 20
246.0738132994104
 30
0.0
 11
43.15000423982996
 21
243.0738132994095
 31
0.0
  0
LINE
  5
6DE
330
1F
100
AcDbEntity
  8
0
100
AcDbLine
 10
49.10000423982864
 20
242.0738132994104
 30
0.0
 11
49.10000423982864
 21
247.0738132994104
 31
0.0
  0
LINE
  5
6DF
330
1F
100
AcDbEntity
  8
0
100
AcDbLine
 10
49.10000423982864
 20
247.0738132994104
 30
0.0
 11
41.20000423982856
 21
247.0738132994104
 31
0.0
  0
LINE
  5
6E0
330
1F
100
AcDbEntity
  8
0
100
AcDbLine
 10
41.20000423982856
 20
247.0738132994104
 30
0.0
 11
41.20000423982856
 21
242.0738132994104
 31
0.0
  0
CIRCLE
  5
6E1
330
1F
100
AcDbEntity
  8
0
100
AcDbCircle
 10
2.500004239830786
 20
203.9738132994104
 30
0.0
 40
2.149999999999999
  0
CIRCLE
  5
6E2
330
1F
100
AcDbEntity
  8
0
100
AcDbCircle
 10
2.500004239830786
 20
203.9738132994104
 30
0.0
 40
1.85
  0
LINE
  5
6E3
330
1F
100
AcDbEntity
  8
0
100
AcDbLine
 10
1.150004239829968
 20
203.6738132994105
 30
0.0
 11
3.850004239830693
 21
203.6738132994105
 31
0.0
  0
LINE
  5
6E4
330
1F
100
AcDbEntity
  8
0
100
AcDbLine
 10
2.350004239830693
 20
203.9738132994104
 30
0.0
 11
2.350004239830693
 21
205.3238132994104
 31
0.0
  0
LINE
  5
6E5
330
1F
100
AcDbEntity
  8
0
100
AcDbLine
 10
2.650004239829968
 20
203.9738132994104
 30
0.0
 11
2.650004239829968
 21
205.3238132994104
 31
0.0
  0
ARC
  5
6E6
330
1F
100
AcDbEntity
  8
0
100
AcDbCircle
 10
2.500004239830786
 20
205.3238132994104
 30
0.0
 40
0.15
100
AcDbArc
 50
0.0
 51
180.0
  0
ARC
  5
6E7
330
1F
100
AcDbEntity
  8
0
100
AcDbCircle
 10
1.150004239829968
 20
203.8238132994103
 30
0.0
 40
0.15
100
AcDbArc
 50
90.0
 51
270.0
  0
ARC
  5
6E8
330
1F
100
AcDbEntity
  8
0
100
AcDbCircle
 10
3.850004239830693
 20
203.8238132994103
 30
0.0
 40
0.15
100
AcDbArc
 50
270.0
 51
90.0
  0
LINE
  5
6E9
330
1F
100
AcDbEntity
  8
0
100
AcDbLine
 10
1.150004239829968
 20
203.9738132994104
 30
0.0
 11
2.350004239830693
 21
203.9738132994104
 31
0.0
  0
LINE
  5
6EA
330
1F
100
AcDbEntity
  8
0
100
AcDbLine
 10
2.650004239829968
 20
203.9738132994104
 30
0.0
 11
3.850004239830693
 21
203.9738132994104
 31
0.0
  0
LINE
  5
6EB
330
1F
100
AcDbEntity
  8
0
100
AcDbLine
 10
1.55000423983074
 20
203.3238132994104
 30
0.0
 11
3.450004239829921
 21
203.3238132994104
 31
0.0
  0
LINE
  5
6EC
330
1F
100
AcDbEntity
  8
0
100
AcDbLine
 10
1.55000423983074
 20
203.0238132994103
 30
0.0
 11
3.450004239829921
 21
203.0238132994103
 31
0.0
  0
LINE
  5
6ED
330
1F
100
AcDbEntity
  8
0
100
AcDbLine
 10
1.95000423982992
 20
202.6738132994096
 30
0.0
 11
3.050004239828695
 21
202.6738132994096
 31
0.0
  0
LINE
  5
6EE
330
1F
100
AcDbEntity
  8
0
100
AcDbLine
 10
1.95000423982992
 20
202.3738132994094
 30
0.0
 11
3.050004239828695
 21
202.3738132994094
 31
0.0
  0
ARC
  5
6EF
330
1F
100
AcDbEntity
  8
0
100
AcDbCircle
 10
1.95000423982992
 20
202.5238132994104
 30
0.0
 40
0.15
100
AcDbArc
 50
90.0
 51
270.0
  0
ARC
  5
6F0
330
1F
100
AcDbEntity
  8
0
100
AcDbCircle
 10
3.050004239828695
 20
202.5238132994104
 30
0.0
 40
0.15
100
AcDbArc
 50
270.0
 51
90.0
  0
ARC
  5
6F1
330
1F
100
AcDbEntity
  8
0
100
AcDbCircle
 10
1.55000423983074
 20
203.1738132994096
 30
0.0
 40
0.15
100
AcDbArc
 50
90.0
 51
270.0
  0
ARC
  5
6F2
330
1F
100
AcDbEntity
  8
0
100
AcDbCircle
 10
3.450004239829921
 20
203.1738132994096
 30
0.0
 40
0.15
100
AcDbArc
 50
270.0
 51
90.0
  0
LINE
  5
6F3
330
1F
100
AcDbEntity
  8
0
100
AcDbLine
 10
49.10000423982864
 20
241.5738132994095
 30
0.0
 11
41.85000423982979
 21
241.5738132994095
 31
0.0
  0
CIRCLE
  5
6F4
330
1F
100
AcDbEntity
  8
0
100
AcDbCircle
 10
45.60000423982864
 20
235.6238132994103
 30
0.0
 40
1.0
  0
CIRCLE
  5
6F5
330
1F
100
AcDbEntity
  8
0
100
AcDbCircle
 10
45.60000423982864
 20
239.1238132994103
 30
0.0
 40
1.0
  0
LINE
  5
6F6
330
1F
100
AcDbEntity
  8
0
100
AcDbLine
 10
41.85000423982979
 20
241.5738132994095
 30
0.0
 11
41.85000423982979
 21
233.1738132994096
 31
0.0
  0
LINE
  5
6F7
330
1F
100
AcDbEntity
  8
0
100
AcDbLine
 10
41.85000423982979
 20
233.1738132994096
 30
0.0
 11
49.10000423982864
 21
233.1738132994096
 31
0.0
  0
LINE
  5
6F8
330
1F
100
AcDbEntity
  8
0
100
AcDbLine
 10
49.10000423982864
 20
233.1738132994096
 30
0.0
 11
49.10000423982864
 21
241.5738132994095
 31
0.0
  0
LINE
  5
6F9
330
1F
100
AcDbEntity
  8
0
100
AcDbLine
 10
41.20000423982856
 20
262.0738132994103
 30
0.0
 11
49.10000423982864
 21
262.0738132994103
 31
0.0
  0
LINE
  5
6FA
330
1F
100
AcDbEntity
  8
0
100
AcDbLine
 10
42.1500042398286
 20
263.0738132994091
 30
0.0
 11
48.15000423982997
 21
263.0738132994091
 31
0.0
  0
LINE
  5
6FB
330
1F
100
AcDbEntity
  8
0
100
AcDbLine
 10
43.15000423982996
 20
263.0738132994091
 30
0.0
 11
44.1500042398286
 21
263.0738132994091
 31
0.0
  0
LINE
  5
6FC
330
1F
100
AcDbEntity
  8
0
100
AcDbLine
 10
44.95000423982856
 20
263.0738132994091
 30
0.0
 11
44.95000423982856
 21
266.0738132994103
 31
0.0
  0
LINE
  5
6FD
330
1F
100
AcDbEntity
  8
0
100
AcDbLine
 10
49.10000423982864
 20
262.0738132994103
 30
0.0
 11
49.10000423982864
 21
267.0738132994104
 31
0.0
  0
LINE
  5
6FE
330
1F
100
AcDbEntity
  8
0
100
AcDbLine
 10
49.10000423982864
 20
267.0738132994104
 30
0.0
 11
41.20000423982856
 21
267.0738132994104
 31
0.0
  0
LINE
  5
6FF
330
1F
100
AcDbEntity
  8
0
100
AcDbLine
 10
41.20000423982856
 20
267.0738132994104
 30
0.0
 11
41.20000423982856
 21
262.0738132994103
 31
0.0
  0
LINE
  5
700
330
1F
100
AcDbEntity
  8
0
100
AcDbLine
 10
44.1500042398286
 20
263.0738132994091
 30
0.0
 11
44.1500042398286
 21
266.0738132994103
 31
0.0
  0
LINE
  5
701
330
1F
100
AcDbEntity
  8
0
100
AcDbLine
 10
44.1500042398286
 20
266.0738132994103
 30
0.0
 11
43.15000423982996
 21
266.0738132994103
 31
0.0
  0
LINE
  5
702
330
1F
100
AcDbEntity
  8
0
100
AcDbLine
 10
43.15000423982996
 20
266.0738132994103
 30
0.0
 11
43.15000423982996
 21
263.0738132994091
 31
0.0
  0
LINE
  5
703
330
1F
100
AcDbEntity
  8
0
100
AcDbLine
 10
48.15000423982997
 20
263.0738132994091
 30
0.0
 11
48.15000423982997
 21
266.0738132994103
 31
0.0
  0
LINE
  5
704
330
1F
100
AcDbEntity
  8
0
100
AcDbLine
 10
48.15000423982997
 20
266.0738132994103
 30
0.0
 11
42.1500042398286
 21
266.0738132994103
 31
0.0
  0
LINE
  5
705
330
1F
100
AcDbEntity
  8
0
100
AcDbLine
 10
42.1500042398286
 20
266.0738132994103
 30
0.0
 11
42.1500042398286
 21
263.0738132994091
 31
0.0
  0
CIRCLE
  5
706
330
1F
100
AcDbEntity
  8
0
100
AcDbCircle
 10
42.60000423982979
 20
254.5738132994104
 30
0.0
 40
5.5
  0
LINE
  5
707
330
1F
100
AcDbEntity
  8
0
100
AcDbLine
 10
36.30000423982869
 20
247.5738132994103
 30
0.0
 11
36.30000423982869
 21
261.5738132994104
 31
0.0
  0
LINE
  5
708
330
1F
100
AcDbEntity
  8
0
100
AcDbLine
 10
49.10000423982978
 20
247.5738132994103
 30
0.0
 11
49.10000423982978
 21
253.4738132994104
 31
0.0
  0
LINE
  5
709
330
1F
100
AcDbEntity
  8
0
100
AcDbLine
 10
49.10000423982978
 20
247.5738132994103
 30
0.0
 11
36.30000423982869
 21
247.5738132994103
 31
0.0
  0
LINE
  5
70A
330
1F
100
AcDbEntity
  8
0
100
AcDbLine
 10
49.10000423982978
 20
261.5738132994104
 30
0.0
 11
36.30000423982869
 21
261.5738132994104
 31
0.0
  0
LINE
  5
70B
330
1F
100
AcDbEntity
  8
0
100
AcDbLine
 10
49.10000423982978
 20
255.6738132994105
 30
0.0
 11
49.10000423982978
 21
261.5738132994104
 31
0.0
  0
LINE
  5
70C
330
1F
100
AcDbEntity
  8
0
100
AcDbLine
 10
14.10000423982975
 20
306.0738131400662
 30
0.0
 11
14.10000423982975
 21
339.0738131400663
 31
0.0
  0
LINE
  5
70D
330
1F
100
AcDbEntity
  8
0
100
AcDbLine
 10
14.10000423982975
 20
275.9738131400665
 30
0.0
 11
14.10000423982975
 21
302.1738131400666
 31
0.0
  0
LINE
  5
70E
330
1F
100
AcDbEntity
  8
0
100
AcDbLine
 10
49.10000423982978
 20
267.5738131400664
 30
0.0
 11
49.10000423982978
 21
232.673813140065
 31
0.0
  0
LINE
  5
70F
330
1F
100
AcDbEntity
  8
0
100
AcDbLine
 10
49.10000423982978
 20
230.673813140065
 30
0.0
 11
49.10000423982978
 21
185.1738131400666
 31
0.0
  0
ARC
  5
710
330
1F
100
AcDbEntity
  8
0
100
AcDbCircle
 10
29.00000423983078
 20
359.9738132994104
 30
0.0
 40
5.5
100
AcDbArc
 50
294.6199773286481
 51
0.0
  0
ARC
  5
711
330
1F
100
AcDbEntity
  8
0
100
AcDbCircle
 10
29.00000423983078
 20
175.9738132994105
 30
0.0
 40
5.5
100
AcDbArc
 50
114.6199773286481
 51
180.0
  0
LINE
  5
712
330
1F
100
AcDbEntity
  8
0
100
AcDbLine
 10
53.50000423982874
 20
170.9738132994105
 30
0.0
 11
57.00000423983079
 21
170.9738132994105
 31
0.0
  0
LINE
  5
713
330
1F
100
AcDbEntity
  8
0
100
AcDbLine
 10
154.8000043173308
 20
283.7488139079505
 30
0.0
 11
154.8000043173308
 21
285.0988139429505
 31
0.0
  0
LINE
  5
714
330
1F
100
AcDbEntity
  8
0
100
AcDbLine
 10
155.1000038077294
 20
285.3988138990013
 30
0.0
 11
155.1000038077294
 21
284.0488143296513
 31
0.0
  0
LINE
  5
715
330
1F
100
AcDbEntity
  8
0
100
AcDbLine
 10
157.6000042175295
 20
283.0488141657013
 30
0.0
 11
157.6000042175295
 21
300.7488139005006
 31
0.0
  0
LINE
  5
716
330
1F
100
AcDbEntity
  8
0
100
AcDbLine
 10
155.8000044812796
 20
308.5288135366003
 30
0.0
 11
158.0000042398305
 21
308.5288135366003
 31
0.0
  0
LINE
  5
717
330
1F
100
AcDbEntity
  8
0
100
AcDbLine
 10
158.0000042398305
 20
308.2288140462015
 30
0.0
 11
155.8000044812796
 21
308.2288140462015
 31
0.0
  0
LINE
  5
718
330
1F
100
AcDbEntity
  8
0
100
AcDbLine
 10
154.8000043173308
 20
300.0488141582503
 30
0.0
 11
154.8000043173308
 21
301.0488143222003
 31
0.0
  0
LINE
  5
719
330
1F
100
AcDbEntity
  8
0
100
AcDbLine
 10
154.8000043173308
 20
301.0488143222003
 30
0.0
 11
155.1000038077294
 21
300.7488139005006
 31
0.0
  0
LINE
  5
71A
330
1F
100
AcDbEntity
  8
0
100
AcDbLine
 10
155.8000044812796
 20
304.1988136278016
 30
0.0
 11
155.8000044812796
 21
308.2288140462015
 31
0.0
  0
LINE
  5
71B
330
1F
100
AcDbEntity
  8
0
100
AcDbLine
 10
155.8000044812796
 20
308.2288140462015
 30
0.0
 11
155.8000044812796
 21
308.5288135366003
 31
0.0
  0
LINE
  5
71C
330
1F
100
AcDbEntity
  8
0
100
AcDbLine
 10
154.8000043173308
 20
301.0488143222003
 30
0.0
 11
154.8000043173308
 21
304.1988136278016
 31
0.0
  0
LINE
  5
71D
330
1F
100
AcDbEntity
  8
0
100
AcDbLine
 10
155.8000044812796
 20
304.1988136278016
 30
0.0
 11
154.8000043173308
 21
304.1988136278016
 31
0.0
  0
LINE
  5
71E
330
1F
100
AcDbEntity
  8
0
100
AcDbLine
 10
157.6000042175295
 20
298.3988141672002
 30
0.0
 11
155.1000038077294
 21
298.3988141672002
 31
0.0
  0
LINE
  5
71F
330
1F
100
AcDbEntity
  8
0
100
AcDbLine
 10
155.1000038077294
 20
285.3988138990013
 30
0.0
 11
157.6000042175295
 21
285.3988138990013
 31
0.0
  0
LINE
  5
720
330
1F
100
AcDbEntity
  8
0
100
AcDbLine
 10
155.1000038077294
 20
299.7488137365503
 30
0.0
 11
157.6000042175295
 21
299.7488137365503
 31
0.0
  0
LINE
  5
721
330
1F
100
AcDbEntity
  8
0
100
AcDbLine
 10
157.6000042175295
 20
300.7488139005006
 30
0.0
 11
155.1000038077294
 21
300.7488139005006
 31
0.0
  0
LINE
  5
722
330
1F
100
AcDbEntity
  8
0
100
AcDbLine
 10
154.8000043173308
 20
298.6988141232505
 30
0.0
 11
154.8000043173308
 21
300.0488141582503
 31
0.0
  0
LINE
  5
723
330
1F
100
AcDbEntity
  8
0
100
AcDbLine
 10
155.1000038077294
 20
299.7488137365503
 30
0.0
 11
155.1000038077294
 21
298.3988141672002
 31
0.0
  0
LINE
  5
724
330
1F
100
AcDbEntity
  8
0
100
AcDbLine
 10
154.8000043173308
 20
300.0488141582503
 30
0.0
 11
155.1000038077294
 21
299.7488137365503
 31
0.0
  0
LINE
  5
725
330
1F
100
AcDbEntity
  8
0
100
AcDbLine
 10
155.1000038077294
 20
300.7488139005006
 30
0.0
 11
155.1000038077294
 21
299.7488137365503
 31
0.0
  0
LINE
  5
726
330
1F
100
AcDbEntity
  8
0
100
AcDbLine
 10
154.8000043173308
 20
298.6988141232505
 30
0.0
 11
155.1000038077294
 21
298.3988141672002
 31
0.0
  0
LINE
  5
727
330
1F
100
AcDbEntity
  8
0
100
AcDbLine
 10
155.1000038077294
 20
285.3988138990013
 30
0.0
 11
154.8000043173308
 21
285.0988139429505
 31
0.0
  0
LINE
  5
728
330
1F
100
AcDbEntity
  8
0
100
AcDbLine
 10
157.4000045572794
 20
285.3988138990013
 30
0.0
 11
157.4000045572794
 21
298.3988141672002
 31
0.0
  0
LINE
  5
729
330
1F
100
AcDbEntity
  8
0
100
AcDbLine
 10
158.0000042398305
 20
275.2688145296005
 30
0.0
 11
155.8000044812796
 21
275.2688145296005
 31
0.0
  0
LINE
  5
72A
330
1F
100
AcDbEntity
  8
0
100
AcDbLine
 10
155.8000044812796
 20
275.5688140200004
 30
0.0
 11
158.0000042398305
 21
275.5688140200004
 31
0.0
  0
LINE
  5
72B
330
1F
100
AcDbEntity
  8
0
100
AcDbLine
 10
155.1000038077294
 20
284.0488143296513
 30
0.0
 11
157.6000042175295
 21
284.0488143296513
 31
0.0
  0
LINE
  5
72C
330
1F
100
AcDbEntity
  8
0
100
AcDbLine
 10
155.1000038077294
 20
283.0488141657013
 30
0.0
 11
157.6000042175295
 21
283.0488141657013
 31
0.0
  0
LINE
  5
72D
330
1F
100
AcDbEntity
  8
0
100
AcDbLine
 10
155.8000044812796
 20
275.5688140200004
 30
0.0
 11
155.8000044812796
 21
279.5988144384006
 31
0.0
  0
LINE
  5
72E
330
1F
100
AcDbEntity
  8
0
100
AcDbLine
 10
154.8000043173308
 20
279.5988144384006
 30
0.0
 11
154.8000043173308
 21
282.7488137440007
 31
0.0
  0
LINE
  5
72F
330
1F
100
AcDbEntity
  8
0
100
AcDbLine
 10
154.8000043173308
 20
282.7488137440007
 30
0.0
 11
154.8000043173308
 21
283.7488139079505
 31
0.0
  0
LINE
  5
730
330
1F
100
AcDbEntity
  8
0
100
AcDbLine
 10
155.1000038077294
 20
284.0488143296513
 30
0.0
 11
154.8000043173308
 21
283.7488139079505
 31
0.0
  0
LINE
  5
731
330
1F
100
AcDbEntity
  8
0
100
AcDbLine
 10
155.1000038077294
 20
284.0488143296513
 30
0.0
 11
155.1000038077294
 21
283.0488141657013
 31
0.0
  0
LINE
  5
732
330
1F
100
AcDbEntity
  8
0
100
AcDbLine
 10
155.1000038077294
 20
283.0488141657013
 30
0.0
 11
154.8000043173308
 21
282.7488137440007
 31
0.0
  0
LINE
  5
733
330
1F
100
AcDbEntity
  8
0
100
AcDbLine
 10
155.8000044812796
 20
279.5988144384006
 30
0.0
 11
154.8000043173308
 21
279.5988144384006
 31
0.0
  0
LINE
  5
734
330
1F
100
AcDbEntity
  8
0
100
AcDbLine
 10
155.8000044812796
 20
275.2688145296005
 30
0.0
 11
155.8000044812796
 21
275.5688140200004
 31
0.0
  0
LINE
  5
735
330
1F
100
AcDbEntity
  8
0
100
AcDbLine
 10
279.0000042398298
 20
364.8428836915643
 30
0.0
 11
279.0000042398298
 21
171.1047429072564
 31
0.0
  0
LINE
  5
736
330
1F
100
AcDbEntity
  8
0
100
AcDbLine
 10
274.0000042398286
 20
170.9738132994095
 30
0.0
 11
274.0000042398286
 21
180.9738132994094
 31
0.0
  0
LINE
  5
737
330
1F
100
AcDbEntity
  8
0
100
AcDbLine
 10
158.0000042398305
 20
180.9738132994094
 30
0.0
 11
158.0000042398305
 21
354.9738132994094
 31
0.0
  0
LINE
  5
738
330
1F
100
AcDbEntity
  8
0
100
AcDbLine
 10
158.0000042398305
 20
354.9738132994094
 30
0.0
 11
274.0000042398286
 21
354.9738132994094
 31
0.0
  0
LINE
  5
739
330
1F
100
AcDbEntity
  8
0
100
AcDbLine
 10
158.0000042398305
 20
180.9738132994094
 30
0.0
 11
274.0000042398286
 21
180.9738132994094
 31
0.0
  0
LINE
  5
73A
330
1F
100
AcDbEntity
  8
0
100
AcDbLine
 10
274.0000042398286
 20
364.9738132994094
 30
0.0
 11
279.0000042398298
 21
364.8428836915643
 31
0.0
  0
LINE
  5
73B
330
1F
100
AcDbEntity
  8
0
100
AcDbLine
 10
275.4140440045659
 20
364.9367853650343
 30
0.0
 11
275.4140440045645
 21
171.0108412337845
 31
0.0
  0
LINE
  5
73C
330
1F
100
AcDbEntity
  8
0
100
AcDbLine
 10
274.0000042398286
 20
170.9738132994095
 30
0.0
 11
279.0000042398298
 21
171.1047429072564
 31
0.0
  0
LINE
  5
73D
330
1F
100
AcDbEntity
  8
0
100
AcDbLine
 10
158.0000042398305
 20
180.9738132994094
 30
0.0
 11
158.0000042398305
 21
354.9738132994094
 31
0.0
  0
LINE
  5
73E
330
1F
100
AcDbEntity
  8
0
100
AcDbLine
 10
158.0000042398305
 20
354.9738132994094
 30
0.0
 11
275.3878580829978
 21
354.9738132994094
 31
0.0
  0
LINE
  5
73F
330
1F
100
AcDbEntity
  8
0
100
AcDbLine
 10
175.0000042398307
 20
180.9738132994094
 30
0.0
 11
175.0000042398307
 21
354.9738132994094
 31
0.0
  0
LINE
  5
740
330
1F
100
AcDbEntity
  8
0
100
AcDbLine
 10
257.0000042398307
 20
180.9738132994094
 30
0.0
 11
257.0000042398307
 21
354.9738132994094
 31
0.0
  0
LINE
  5
741
330
1F
100
AcDbEntity
  8
0
100
AcDbLine
 10
175.0000042398307
 20
353.9738132994096
 30
0.0
 11
257.0000042398307
 21
353.9738132994096
 31
0.0
  0
LINE
  5
742
330
1F
100
AcDbEntity
  8
0
100
AcDbLine
 10
180.0000042398307
 20
351.9738132994094
 30
0.0
 11
182.0000042398307
 21
351.9738132994094
 31
0.0
  0
LINE
  5
743
330
1F
100
AcDbEntity
  8
0
100
AcDbLine
 10
180.0000042398307
 20
181.9738132994094
 30
0.0
 11
180.0000042398307
 21
235.2238132994096
 31
0.0
  0
LINE
  5
744
330
1F
100
AcDbEntity
  8
0
100
AcDbLine
 10
182.0000042398307
 20
181.9738132994094
 30
0.0
 11
182.0000042398307
 21
235.2238132994096
 31
0.0
  0
LINE
  5
745
330
1F
100
AcDbEntity
  8
0
100
AcDbLine
 10
180.0000042398307
 20
300.7238132994093
 30
0.0
 11
182.0000042398307
 21
300.7238132994093
 31
0.0
  0
LINE
  5
746
330
1F
100
AcDbEntity
  8
0
100
AcDbLine
 10
180.0000042398307
 20
235.2238132994096
 30
0.0
 11
182.0000042398307
 21
235.2238132994096
 31
0.0
  0
LINE
  5
747
330
1F
100
AcDbEntity
  8
0
100
AcDbLine
 10
175.0000042398307
 20
181.9738132994094
 30
0.0
 11
257.0000042398307
 21
181.9738132994094
 31
0.0
  0
LINE
  5
748
330
1F
100
AcDbEntity
  8
0
100
AcDbLine
 10
180.0000042398307
 20
183.9738132994104
 30
0.0
 11
182.0000042398307
 21
183.9738132994104
 31
0.0
  0
LINE
  5
749
330
1F
100
AcDbEntity
  8
0
100
AcDbLine
 10
180.0000042398307
 20
300.7238132994093
 30
0.0
 11
180.0000042398307
 21
353.9738132994096
 31
0.0
  0
LINE
  5
74A
330
1F
100
AcDbEntity
  8
0
100
AcDbLine
 10
182.0000042398307
 20
300.7238132994093
 30
0.0
 11
182.0000042398307
 21
353.9738132994096
 31
0.0
  0
LINE
  5
74B
330
1F
100
AcDbEntity
  8
0
100
AcDbLine
 10
187.0000042398298
 20
351.9738132994094
 30
0.0
 11
189.0000042398304
 21
351.9738132994094
 31
0.0
  0
LINE
  5
74C
330
1F
100
AcDbEntity
  8
0
100
AcDbLine
 10
187.0000042398298
 20
181.9738132994094
 30
0.0
 11
187.0000042398298
 21
235.2238132994096
 31
0.0
  0
LINE
  5
74D
330
1F
100
AcDbEntity
  8
0
100
AcDbLine
 10
189.0000042398304
 20
181.9738132994094
 30
0.0
 11
189.0000042398304
 21
235.2238132994096
 31
0.0
  0
LINE
  5
74E
330
1F
100
AcDbEntity
  8
0
100
AcDbLine
 10
187.0000042398298
 20
300.7238132994093
 30
0.0
 11
189.0000042398304
 21
300.7238132994093
 31
0.0
  0
LINE
  5
74F
330
1F
100
AcDbEntity
  8
0
100
AcDbLine
 10
187.0000042398298
 20
235.2238132994096
 30
0.0
 11
189.0000042398304
 21
235.2238132994096
 31
0.0
  0
LINE
  5
750
330
1F
100
AcDbEntity
  8
0
100
AcDbLine
 10
187.0000042398298
 20
183.9738132994104
 30
0.0
 11
189.0000042398304
 21
183.9738132994104
 31
0.0
  0
LINE
  5
751
330
1F
100
AcDbEntity
  8
0
100
AcDbLine
 10
187.0000042398298
 20
300.7238132994093
 30
0.0
 11
187.0000042398298
 21
353.9738132994096
 31
0.0
  0
LINE
  5
752
330
1F
100
AcDbEntity
  8
0
100
AcDbLine
 10
189.0000042398304
 20
300.7238132994093
 30
0.0
 11
189.0000042398304
 21
353.9738132994096
 31
0.0
  0
LINE
  5
753
330
1F
100
AcDbEntity
  8
0
100
AcDbLine
 10
194.0000042398308
 20
351.9738132994094
 30
0.0
 11
196.0000042398307
 21
351.9738132994094
 31
0.0
  0
LINE
  5
754
330
1F
100
AcDbEntity
  8
0
100
AcDbLine
 10
194.0000042398308
 20
181.9738132994094
 30
0.0
 11
194.0000042398308
 21
235.2238132994096
 31
0.0
  0
LINE
  5
755
330
1F
100
AcDbEntity
  8
0
100
AcDbLine
 10
196.0000042398307
 20
181.9738132994094
 30
0.0
 11
196.0000042398307
 21
235.2238132994096
 31
0.0
  0
LINE
  5
756
330
1F
100
AcDbEntity
  8
0
100
AcDbLine
 10
194.0000042398308
 20
300.7238132994093
 30
0.0
 11
196.0000042398307
 21
300.7238132994093
 31
0.0
  0
LINE
  5
757
330
1F
100
AcDbEntity
  8
0
100
AcDbLine
 10
194.0000042398308
 20
235.2238132994096
 30
0.0
 11
196.0000042398307
 21
235.2238132994096
 31
0.0
  0
LINE
  5
758
330
1F
100
AcDbEntity
  8
0
100
AcDbLine
 10
194.0000042398308
 20
183.9738132994104
 30
0.0
 11
196.0000042398307
 21
183.9738132994104
 31
0.0
  0
LINE
  5
759
330
1F
100
AcDbEntity
  8
0
100
AcDbLine
 10
194.0000042398308
 20
300.7238132994093
 30
0.0
 11
194.0000042398308
 21
353.9738132994096
 31
0.0
  0
LINE
  5
75A
330
1F
100
AcDbEntity
  8
0
100
AcDbLine
 10
196.0000042398307
 20
300.7238132994093
 30
0.0
 11
196.0000042398307
 21
353.9738132994096
 31
0.0
  0
LINE
  5
75B
330
1F
100
AcDbEntity
  8
0
100
AcDbLine
 10
201.0000042398305
 20
181.9738132994094
 30
0.0
 11
201.0000042398305
 21
235.2238132994096
 31
0.0
  0
LINE
  5
75C
330
1F
100
AcDbEntity
  8
0
100
AcDbLine
 10
203.0000042398298
 20
181.9738132994094
 30
0.0
 11
203.0000042398298
 21
235.2238132994096
 31
0.0
  0
LINE
  5
75D
330
1F
100
AcDbEntity
  8
0
100
AcDbLine
 10
201.0000042398305
 20
300.7238132994093
 30
0.0
 11
203.0000042398298
 21
300.7238132994093
 31
0.0
  0
LINE
  5
75E
330
1F
100
AcDbEntity
  8
0
100
AcDbLine
 10
201.0000042398305
 20
235.2238132994096
 30
0.0
 11
203.0000042398298
 21
235.2238132994096
 31
0.0
  0
LINE
  5
75F
330
1F
100
AcDbEntity
  8
0
100
AcDbLine
 10
201.0000042398305
 20
183.9738132994104
 30
0.0
 11
203.0000042398298
 21
183.9738132994104
 31
0.0
  0
LINE
  5
760
330
1F
100
AcDbEntity
  8
0
100
AcDbLine
 10
201.0000042398305
 20
300.7238132994093
 30
0.0
 11
201.0000042398305
 21
353.9738132994096
 31
0.0
  0
LINE
  5
761
330
1F
100
AcDbEntity
  8
0
100
AcDbLine
 10
203.0000042398298
 20
300.7238132994093
 30
0.0
 11
203.0000042398298
 21
353.9738132994096
 31
0.0
  0
LINE
  5
762
330
1F
100
AcDbEntity
  8
0
100
AcDbLine
 10
208.0000042398308
 20
351.9738132994094
 30
0.0
 11
210.0000042398308
 21
351.9738132994094
 31
0.0
  0
LINE
  5
763
330
1F
100
AcDbEntity
  8
0
100
AcDbLine
 10
208.0000042398308
 20
181.9738132994094
 30
0.0
 11
208.0000042398308
 21
235.2238132994096
 31
0.0
  0
LINE
  5
764
330
1F
100
AcDbEntity
  8
0
100
AcDbLine
 10
210.0000042398308
 20
181.9738132994094
 30
0.0
 11
210.0000042398308
 21
235.2238132994096
 31
0.0
  0
LINE
  5
765
330
1F
100
AcDbEntity
  8
0
100
AcDbLine
 10
208.0000042398308
 20
300.7238132994093
 30
0.0
 11
210.0000042398308
 21
300.7238132994093
 31
0.0
  0
LINE
  5
766
330
1F
100
AcDbEntity
  8
0
100
AcDbLine
 10
208.0000042398308
 20
235.2238132994096
 30
0.0
 11
210.0000042398308
 21
235.2238132994096
 31
0.0
  0
LINE
  5
767
330
1F
100
AcDbEntity
  8
0
100
AcDbLine
 10
208.0000042398308
 20
183.9738132994104
 30
0.0
 11
210.0000042398308
 21
183.9738132994104
 31
0.0
  0
LINE
  5
768
330
1F
100
AcDbEntity
  8
0
100
AcDbLine
 10
208.0000042398308
 20
300.7238132994093
 30
0.0
 11
208.0000042398308
 21
353.9738132994096
 31
0.0
  0
LINE
  5
769
330
1F
100
AcDbEntity
  8
0
100
AcDbLine
 10
210.0000042398308
 20
300.7238132994093
 30
0.0
 11
210.0000042398308
 21
353.9738132994096
 31
0.0
  0
LINE
  5
76A
330
1F
100
AcDbEntity
  8
0
100
AcDbLine
 10
215.0000042398306
 20
351.9738132994094
 30
0.0
 11
217.0000042398307
 21
351.9738132994094
 31
0.0
  0
LINE
  5
76B
330
1F
100
AcDbEntity
  8
0
100
AcDbLine
 10
215.0000042398306
 20
181.9738132994094
 30
0.0
 11
215.0000042398306
 21
235.2238132994096
 31
0.0
  0
LINE
  5
76C
330
1F
100
AcDbEntity
  8
0
100
AcDbLine
 10
217.0000042398307
 20
181.9738132994094
 30
0.0
 11
217.0000042398307
 21
235.2238132994096
 31
0.0
  0
LINE
  5
76D
330
1F
100
AcDbEntity
  8
0
100
AcDbLine
 10
215.0000042398306
 20
300.7238132994093
 30
0.0
 11
217.0000042398307
 21
300.7238132994093
 31
0.0
  0
LINE
  5
76E
330
1F
100
AcDbEntity
  8
0
100
AcDbLine
 10
215.0000042398306
 20
235.2238132994096
 30
0.0
 11
217.0000042398307
 21
235.2238132994096
 31
0.0
  0
LINE
  5
76F
330
1F
100
AcDbEntity
  8
0
100
AcDbLine
 10
215.0000042398306
 20
183.9738132994104
 30
0.0
 11
217.0000042398307
 21
183.9738132994104
 31
0.0
  0
LINE
  5
770
330
1F
100
AcDbEntity
  8
0
100
AcDbLine
 10
215.0000042398306
 20
300.7238132994093
 30
0.0
 11
215.0000042398306
 21
353.9738132994096
 31
0.0
  0
LINE
  5
771
330
1F
100
AcDbEntity
  8
0
100
AcDbLine
 10
217.0000042398307
 20
300.7238132994093
 30
0.0
 11
217.0000042398307
 21
353.9738132994096
 31
0.0
  0
LINE
  5
772
330
1F
100
AcDbEntity
  8
0
100
AcDbLine
 10
222.0000042398298
 20
351.9738132994094
 30
0.0
 11
224.0000042398305
 21
351.9738132994094
 31
0.0
  0
LINE
  5
773
330
1F
100
AcDbEntity
  8
0
100
AcDbLine
 10
222.0000042398298
 20
181.9738132994094
 30
0.0
 11
222.0000042398298
 21
235.2238132994096
 31
0.0
  0
LINE
  5
774
330
1F
100
AcDbEntity
  8
0
100
AcDbLine
 10
224.0000042398305
 20
181.9738132994094
 30
0.0
 11
224.0000042398305
 21
235.2238132994096
 31
0.0
  0
LINE
  5
775
330
1F
100
AcDbEntity
  8
0
100
AcDbLine
 10
222.0000042398298
 20
300.7238132994093
 30
0.0
 11
224.0000042398305
 21
300.7238132994093
 31
0.0
  0
LINE
  5
776
330
1F
100
AcDbEntity
  8
0
100
AcDbLine
 10
222.0000042398298
 20
235.2238132994096
 30
0.0
 11
224.0000042398305
 21
235.2238132994096
 31
0.0
  0
LINE
  5
777
330
1F
100
AcDbEntity
  8
0
100
AcDbLine
 10
222.0000042398298
 20
183.9738132994104
 30
0.0
 11
224.0000042398305
 21
183.9738132994104
 31
0.0
  0
LINE
  5
778
330
1F
100
AcDbEntity
  8
0
100
AcDbLine
 10
222.0000042398298
 20
300.7238132994093
 30
0.0
 11
222.0000042398298
 21
353.9738132994096
 31
0.0
  0
LINE
  5
779
330
1F
100
AcDbEntity
  8
0
100
AcDbLine
 10
224.0000042398305
 20
300.7238132994093
 30
0.0
 11
224.0000042398305
 21
353.9738132994096
 31
0.0
  0
LINE
  5
77A
330
1F
100
AcDbEntity
  8
0
100
AcDbLine
 10
229.0000042398308
 20
351.9738132994094
 30
0.0
 11
231.0000042398308
 21
351.9738132994094
 31
0.0
  0
LINE
  5
77B
330
1F
100
AcDbEntity
  8
0
100
AcDbLine
 10
229.0000042398308
 20
181.9738132994094
 30
0.0
 11
229.0000042398308
 21
235.2238132994096
 31
0.0
  0
LINE
  5
77C
330
1F
100
AcDbEntity
  8
0
100
AcDbLine
 10
231.0000042398308
 20
181.9738132994094
 30
0.0
 11
231.0000042398308
 21
235.2238132994096
 31
0.0
  0
LINE
  5
77D
330
1F
100
AcDbEntity
  8
0
100
AcDbLine
 10
229.0000042398308
 20
300.7238132994093
 30
0.0
 11
231.0000042398308
 21
300.7238132994093
 31
0.0
  0
LINE
  5
77E
330
1F
100
AcDbEntity
  8
0
100
AcDbLine
 10
229.0000042398308
 20
235.2238132994096
 30
0.0
 11
231.0000042398308
 21
235.2238132994096
 31
0.0
  0
LINE
  5
77F
330
1F
100
AcDbEntity
  8
0
100
AcDbLine
 10
229.0000042398308
 20
183.9738132994104
 30
0.0
 11
231.0000042398308
 21
183.9738132994104
 31
0.0
  0
LINE
  5
780
330
1F
100
AcDbEntity
  8
0
100
AcDbLine
 10
229.0000042398308
 20
300.7238132994093
 30
0.0
 11
229.0000042398308
 21
353.9738132994096
 31
0.0
  0
LINE
  5
781
330
1F
100
AcDbEntity
  8
0
100
AcDbLine
 10
231.0000042398308
 20
300.7238132994093
 30
0.0
 11
231.0000042398308
 21
353.9738132994096
 31
0.0
  0
LINE
  5
782
330
1F
100
AcDbEntity
  8
0
100
AcDbLine
 10
236.0000042398306
 20
351.9738132994094
 30
0.0
 11
238.0000042398298
 21
351.9738132994094
 31
0.0
  0
LINE
  5
783
330
1F
100
AcDbEntity
  8
0
100
AcDbLine
 10
236.0000042398306
 20
181.9738132994094
 30
0.0
 11
236.0000042398306
 21
235.2238132994096
 31
0.0
  0
LINE
  5
784
330
1F
100
AcDbEntity
  8
0
100
AcDbLine
 10
238.0000042398298
 20
181.9738132994094
 30
0.0
 11
238.0000042398298
 21
235.2238132994096
 31
0.0
  0
LINE
  5
785
330
1F
100
AcDbEntity
  8
0
100
AcDbLine
 10
236.0000042398306
 20
300.7238132994093
 30
0.0
 11
238.0000042398298
 21
300.7238132994093
 31
0.0
  0
LINE
  5
786
330
1F
100
AcDbEntity
  8
0
100
AcDbLine
 10
236.0000042398306
 20
235.2238132994096
 30
0.0
 11
238.0000042398298
 21
235.2238132994096
 31
0.0
  0
LINE
  5
787
330
1F
100
AcDbEntity
  8
0
100
AcDbLine
 10
236.0000042398306
 20
183.9738132994104
 30
0.0
 11
238.0000042398298
 21
183.9738132994104
 31
0.0
  0
LINE
  5
788
330
1F
100
AcDbEntity
  8
0
100
AcDbLine
 10
236.0000042398306
 20
300.7238132994093
 30
0.0
 11
236.0000042398306
 21
353.9738132994096
 31
0.0
  0
LINE
  5
789
330
1F
100
AcDbEntity
  8
0
100
AcDbLine
 10
238.0000042398298
 20
300.7238132994093
 30
0.0
 11
238.0000042398298
 21
353.9738132994096
 31
0.0
  0
LINE
  5
78A
330
1F
100
AcDbEntity
  8
0
100
AcDbLine
 10
243.0000042398308
 20
351.9738132994094
 30
0.0
 11
245.0000042398307
 21
351.9738132994094
 31
0.0
  0
LINE
  5
78B
330
1F
100
AcDbEntity
  8
0
100
AcDbLine
 10
243.0000042398308
 20
181.9738132994094
 30
0.0
 11
243.0000042398308
 21
235.2238132994096
 31
0.0
  0
LINE
  5
78C
330
1F
100
AcDbEntity
  8
0
100
AcDbLine
 10
245.0000042398307
 20
181.9738132994094
 30
0.0
 11
245.0000042398307
 21
235.2238132994096
 31
0.0
  0
LINE
  5
78D
330
1F
100
AcDbEntity
  8
0
100
AcDbLine
 10
243.0000042398308
 20
300.7238132994093
 30
0.0
 11
245.0000042398307
 21
300.7238132994093
 31
0.0
  0
LINE
  5
78E
330
1F
100
AcDbEntity
  8
0
100
AcDbLine
 10
243.0000042398308
 20
235.2238132994096
 30
0.0
 11
245.0000042398307
 21
235.2238132994096
 31
0.0
  0
LINE
  5
78F
330
1F
100
AcDbEntity
  8
0
100
AcDbLine
 10
243.0000042398308
 20
183.9738132994104
 30
0.0
 11
245.0000042398307
 21
183.9738132994104
 31
0.0
  0
LINE
  5
790
330
1F
100
AcDbEntity
  8
0
100
AcDbLine
 10
243.0000042398308
 20
300.7238132994093
 30
0.0
 11
243.0000042398308
 21
353.9738132994096
 31
0.0
  0
LINE
  5
791
330
1F
100
AcDbEntity
  8
0
100
AcDbLine
 10
245.0000042398307
 20
300.7238132994093
 30
0.0
 11
245.0000042398307
 21
353.9738132994096
 31
0.0
  0
LINE
  5
792
330
1F
100
AcDbEntity
  8
0
100
AcDbLine
 10
250.0000042398307
 20
351.9738132994094
 30
0.0
 11
252.0000042398307
 21
351.9738132994094
 31
0.0
  0
LINE
  5
793
330
1F
100
AcDbEntity
  8
0
100
AcDbLine
 10
250.0000042398307
 20
181.9738132994094
 30
0.0
 11
250.0000042398307
 21
235.2238132994096
 31
0.0
  0
LINE
  5
794
330
1F
100
AcDbEntity
  8
0
100
AcDbLine
 10
252.0000042398307
 20
181.9738132994094
 30
0.0
 11
252.0000042398307
 21
235.2238132994096
 31
0.0
  0
LINE
  5
795
330
1F
100
AcDbEntity
  8
0
100
AcDbLine
 10
250.0000042398307
 20
300.7238132994093
 30
0.0
 11
252.0000042398307
 21
300.7238132994093
 31
0.0
  0
LINE
  5
796
330
1F
100
AcDbEntity
  8
0
100
AcDbLine
 10
250.0000042398307
 20
235.2238132994096
 30
0.0
 11
252.0000042398307
 21
235.2238132994096
 31
0.0
  0
LINE
  5
797
330
1F
100
AcDbEntity
  8
0
100
AcDbLine
 10
250.0000042398307
 20
183.9738132994104
 30
0.0
 11
252.0000042398307
 21
183.9738132994104
 31
0.0
  0
LINE
  5
798
330
1F
100
AcDbEntity
  8
0
100
AcDbLine
 10
250.0000042398307
 20
300.7238132994093
 30
0.0
 11
250.0000042398307
 21
353.9738132994096
 31
0.0
  0
LINE
  5
799
330
1F
100
AcDbEntity
  8
0
100
AcDbLine
 10
252.0000042398307
 20
300.7238132994093
 30
0.0
 11
252.0000042398307
 21
353.9738132994096
 31
0.0
  0
LINE
  5
79A
330
1F
100
AcDbEntity
  8
0
100
AcDbLine
 10
180.0000042398307
 20
329.4738132994093
 30
0.0
 11
182.0000042398307
 21
329.4738132994093
 31
0.0
  0
LINE
  5
79B
330
1F
100
AcDbEntity
  8
0
100
AcDbLine
 10
180.0000042398307
 20
326.4738132994096
 30
0.0
 11
182.0000042398307
 21
326.4738132994096
 31
0.0
  0
LINE
  5
79C
330
1F
100
AcDbEntity
  8
0
100
AcDbLine
 10
180.0000042398307
 20
209.4738132994094
 30
0.0
 11
182.0000042398307
 21
209.4738132994094
 31
0.0
  0
LINE
  5
79D
330
1F
100
AcDbEntity
  8
0
100
AcDbLine
 10
180.0000042398307
 20
206.4738132994094
 30
0.0
 11
182.0000042398307
 21
206.4738132994094
 31
0.0
  0
LINE
  5
79E
330
1F
100
AcDbEntity
  8
0
100
AcDbLine
 10
187.0000042398298
 20
329.4738132994093
 30
0.0
 11
189.0000042398304
 21
329.4738132994093
 31
0.0
  0
LINE
  5
79F
330
1F
100
AcDbEntity
  8
0
100
AcDbLine
 10
187.0000042398298
 20
326.4738132994096
 30
0.0
 11
189.0000042398304
 21
326.4738132994096
 31
0.0
  0
LINE
  5
7A0
330
1F
100
AcDbEntity
  8
0
100
AcDbLine
 10
187.0000042398298
 20
209.4738132994094
 30
0.0
 11
189.0000042398304
 21
209.4738132994094
 31
0.0
  0
LINE
  5
7A1
330
1F
100
AcDbEntity
  8
0
100
AcDbLine
 10
187.0000042398298
 20
206.4738132994094
 30
0.0
 11
189.0000042398304
 21
206.4738132994094
 31
0.0
  0
LINE
  5
7A2
330
1F
100
AcDbEntity
  8
0
100
AcDbLine
 10
194.0000042398308
 20
329.4738132994093
 30
0.0
 11
196.0000042398307
 21
329.4738132994093
 31
0.0
  0
LINE
  5
7A3
330
1F
100
AcDbEntity
  8
0
100
AcDbLine
 10
194.0000042398308
 20
326.4738132994096
 30
0.0
 11
196.0000042398307
 21
326.4738132994096
 31
0.0
  0
LINE
  5
7A4
330
1F
100
AcDbEntity
  8
0
100
AcDbLine
 10
194.0000042398308
 20
209.4738132994094
 30
0.0
 11
196.0000042398307
 21
209.4738132994094
 31
0.0
  0
LINE
  5
7A5
330
1F
100
AcDbEntity
  8
0
100
AcDbLine
 10
194.0000042398308
 20
206.4738132994094
 30
0.0
 11
196.0000042398307
 21
206.4738132994094
 31
0.0
  0
LINE
  5
7A6
330
1F
100
AcDbEntity
  8
0
100
AcDbLine
 10
201.0000042398305
 20
329.4738132994093
 30
0.0
 11
203.0000042398298
 21
329.4738132994093
 31
0.0
  0
LINE
  5
7A7
330
1F
100
AcDbEntity
  8
0
100
AcDbLine
 10
201.0000042398305
 20
326.4738132994096
 30
0.0
 11
203.0000042398298
 21
326.4738132994096
 31
0.0
  0
LINE
  5
7A8
330
1F
100
AcDbEntity
  8
0
100
AcDbLine
 10
201.0000042398305
 20
209.4738132994094
 30
0.0
 11
203.0000042398298
 21
209.4738132994094
 31
0.0
  0
LINE
  5
7A9
330
1F
100
AcDbEntity
  8
0
100
AcDbLine
 10
201.0000042398305
 20
206.4738132994094
 30
0.0
 11
203.0000042398298
 21
206.4738132994094
 31
0.0
  0
LINE
  5
7AA
330
1F
100
AcDbEntity
  8
0
100
AcDbLine
 10
208.0000042398308
 20
329.4738132994093
 30
0.0
 11
210.0000042398308
 21
329.4738132994093
 31
0.0
  0
LINE
  5
7AB
330
1F
100
AcDbEntity
  8
0
100
AcDbLine
 10
208.0000042398308
 20
326.4738132994096
 30
0.0
 11
210.0000042398308
 21
326.4738132994096
 31
0.0
  0
LINE
  5
7AC
330
1F
100
AcDbEntity
  8
0
100
AcDbLine
 10
208.0000042398308
 20
209.4738132994094
 30
0.0
 11
210.0000042398308
 21
209.4738132994094
 31
0.0
  0
LINE
  5
7AD
330
1F
100
AcDbEntity
  8
0
100
AcDbLine
 10
208.0000042398308
 20
206.4738132994094
 30
0.0
 11
210.0000042398308
 21
206.4738132994094
 31
0.0
  0
LINE
  5
7AE
330
1F
100
AcDbEntity
  8
0
100
AcDbLine
 10
215.0000042398306
 20
329.4738132994093
 30
0.0
 11
217.0000042398307
 21
329.4738132994093
 31
0.0
  0
LINE
  5
7AF
330
1F
100
AcDbEntity
  8
0
100
AcDbLine
 10
215.0000042398306
 20
326.4738132994096
 30
0.0
 11
217.0000042398307
 21
326.4738132994096
 31
0.0
  0
LINE
  5
7B0
330
1F
100
AcDbEntity
  8
0
100
AcDbLine
 10
215.0000042398306
 20
209.4738132994094
 30
0.0
 11
217.0000042398307
 21
209.4738132994094
 31
0.0
  0
LINE
  5
7B1
330
1F
100
AcDbEntity
  8
0
100
AcDbLine
 10
215.0000042398306
 20
206.4738132994094
 30
0.0
 11
217.0000042398307
 21
206.4738132994094
 31
0.0
  0
LINE
  5
7B2
330
1F
100
AcDbEntity
  8
0
100
AcDbLine
 10
222.0000042398298
 20
329.4738132994093
 30
0.0
 11
224.0000042398305
 21
329.4738132994093
 31
0.0
  0
LINE
  5
7B3
330
1F
100
AcDbEntity
  8
0
100
AcDbLine
 10
222.0000042398298
 20
326.4738132994096
 30
0.0
 11
224.0000042398305
 21
326.4738132994096
 31
0.0
  0
LINE
  5
7B4
330
1F
100
AcDbEntity
  8
0
100
AcDbLine
 10
222.0000042398298
 20
209.4738132994094
 30
0.0
 11
224.0000042398305
 21
209.4738132994094
 31
0.0
  0
LINE
  5
7B5
330
1F
100
AcDbEntity
  8
0
100
AcDbLine
 10
222.0000042398298
 20
206.4738132994094
 30
0.0
 11
224.0000042398305
 21
206.4738132994094
 31
0.0
  0
LINE
  5
7B6
330
1F
100
AcDbEntity
  8
0
100
AcDbLine
 10
229.0000042398308
 20
329.4738132994093
 30
0.0
 11
231.0000042398308
 21
329.4738132994093
 31
0.0
  0
LINE
  5
7B7
330
1F
100
AcDbEntity
  8
0
100
AcDbLine
 10
229.0000042398308
 20
326.4738132994096
 30
0.0
 11
231.0000042398308
 21
326.4738132994096
 31
0.0
  0
LINE
  5
7B8
330
1F
100
AcDbEntity
  8
0
100
AcDbLine
 10
229.0000042398308
 20
209.4738132994094
 30
0.0
 11
231.0000042398308
 21
209.4738132994094
 31
0.0
  0
LINE
  5
7B9
330
1F
100
AcDbEntity
  8
0
100
AcDbLine
 10
229.0000042398308
 20
206.4738132994094
 30
0.0
 11
231.0000042398308
 21
206.4738132994094
 31
0.0
  0
LINE
  5
7BA
330
1F
100
AcDbEntity
  8
0
100
AcDbLine
 10
236.0000042398306
 20
329.4738132994093
 30
0.0
 11
238.0000042398298
 21
329.4738132994093
 31
0.0
  0
LINE
  5
7BB
330
1F
100
AcDbEntity
  8
0
100
AcDbLine
 10
236.0000042398306
 20
326.4738132994096
 30
0.0
 11
238.0000042398298
 21
326.4738132994096
 31
0.0
  0
LINE
  5
7BC
330
1F
100
AcDbEntity
  8
0
100
AcDbLine
 10
236.0000042398306
 20
209.4738132994094
 30
0.0
 11
238.0000042398298
 21
209.4738132994094
 31
0.0
  0
LINE
  5
7BD
330
1F
100
AcDbEntity
  8
0
100
AcDbLine
 10
236.0000042398306
 20
206.4738132994094
 30
0.0
 11
238.0000042398298
 21
206.4738132994094
 31
0.0
  0
LINE
  5
7BE
330
1F
100
AcDbEntity
  8
0
100
AcDbLine
 10
243.0000042398308
 20
329.4738132994093
 30
0.0
 11
245.0000042398307
 21
329.4738132994093
 31
0.0
  0
LINE
  5
7BF
330
1F
100
AcDbEntity
  8
0
100
AcDbLine
 10
243.0000042398308
 20
326.4738132994096
 30
0.0
 11
245.0000042398307
 21
326.4738132994096
 31
0.0
  0
LINE
  5
7C0
330
1F
100
AcDbEntity
  8
0
100
AcDbLine
 10
243.0000042398308
 20
209.4738132994094
 30
0.0
 11
245.0000042398307
 21
209.4738132994094
 31
0.0
  0
LINE
  5
7C1
330
1F
100
AcDbEntity
  8
0
100
AcDbLine
 10
243.0000042398308
 20
206.4738132994094
 30
0.0
 11
245.0000042398307
 21
206.4738132994094
 31
0.0
  0
LINE
  5
7C2
330
1F
100
AcDbEntity
  8
0
100
AcDbLine
 10
250.0000042398307
 20
329.4738132994093
 30
0.0
 11
252.0000042398307
 21
329.4738132994093
 31
0.0
  0
LINE
  5
7C3
330
1F
100
AcDbEntity
  8
0
100
AcDbLine
 10
250.0000042398307
 20
326.4738132994096
 30
0.0
 11
252.0000042398307
 21
326.4738132994096
 31
0.0
  0
LINE
  5
7C4
330
1F
100
AcDbEntity
  8
0
100
AcDbLine
 10
250.0000042398307
 20
209.4738132994094
 30
0.0
 11
252.0000042398307
 21
209.4738132994094
 31
0.0
  0
LINE
  5
7C5
330
1F
100
AcDbEntity
  8
0
100
AcDbLine
 10
250.0000042398307
 20
206.4738132994094
 30
0.0
 11
252.0000042398307
 21
206.4738132994094
 31
0.0
  0
LINE
  5
7C6
330
1F
100
AcDbEntity
  8
0
100
AcDbLine
 10
230.0000042398298
 20
181.9738132994094
 30
0.0
 11
230.0000042398298
 21
181.4738132994094
 31
0.0
  0
LINE
  5
7C7
330
1F
100
AcDbEntity
  8
0
100
AcDbLine
 10
175.0000042398307
 20
181.4738132994094
 30
0.0
 11
230.0000042398298
 21
181.4738132994094
 31
0.0
  0
LINE
  5
7C8
330
1F
100
AcDbEntity
  8
0
100
AcDbLine
 10
275.3878580829966
 20
180.9738132994094
 30
0.0
 11
275.3878580829978
 21
354.9738132994094
 31
0.0
  0
LINE
  5
7C9
330
1F
100
AcDbEntity
  8
0
100
AcDbLine
 10
154.6000042398297
 20
221.6738140331003
 30
0.0
 11
154.6000042398297
 21
201.4738140331003
 31
0.0
  0
LINE
  5
7CA
330
1F
100
AcDbEntity
  8
0
100
AcDbLine
 10
155.5000042398305
 20
197.9738140330994
 30
0.0
 11
155.0000042398298
 21
198.4738140331003
 31
0.0
  0
LINE
  5
7CB
330
1F
100
AcDbEntity
  8
0
100
AcDbLine
 10
155.0000042398298
 20
199.3738140331003
 30
0.0
 11
155.0000042398298
 21
198.4738140331003
 31
0.0
  0
LINE
  5
7CC
330
1F
100
AcDbEntity
  8
0
100
AcDbLine
 10
156.3000042398304
 20
197.9738140330994
 30
0.0
 11
155.5000042398305
 21
197.9738140330994
 31
0.0
  0
ARC
  5
7CD
330
1F
100
AcDbEntity
  8
0
100
AcDbCircle
 10
156.0000042398305
 20
199.3738140331003
 30
0.0
 40
1.0
100
AcDbArc
 50
90.0
 51
180.0
  0
LINE
  5
7CE
330
1F
100
AcDbEntity
  8
0
100
AcDbLine
 10
158.0000042398305
 20
200.3738140331003
 30
0.0
 11
156.0000042398305
 21
200.3738140331003
 31
0.0
  0
LINE
  5
7CF
330
1F
100
AcDbEntity
  8
0
100
AcDbLine
 10
158.0000042398305
 20
199.1738140331003
 30
0.0
 11
156.3000042398304
 21
199.1738140331003
 31
0.0
  0
LINE
  5
7D0
330
1F
100
AcDbEntity
  8
0
100
AcDbLine
 10
158.0000042398305
 20
201.4738140331003
 30
0.0
 11
154.6000042398297
 21
201.4738140331003
 31
0.0
  0
LINE
  5
7D1
330
1F
100
AcDbEntity
  8
0
100
AcDbLine
 10
156.3000042398304
 20
197.9738140330994
 30
0.0
 11
156.3000042398304
 21
199.1738140331003
 31
0.0
  0
LINE
  5
7D2
330
1F
100
AcDbEntity
  8
0
100
AcDbLine
 10
155.5000042398305
 20
225.1738140331003
 30
0.0
 11
155.0000042398298
 21
224.6738140331003
 31
0.0
  0
LINE
  5
7D3
330
1F
100
AcDbEntity
  8
0
100
AcDbLine
 10
155.0000042398298
 20
224.6738140331003
 30
0.0
 11
155.0000042398298
 21
223.7738140331003
 31
0.0
  0
LINE
  5
7D4
330
1F
100
AcDbEntity
  8
0
100
AcDbLine
 10
156.3000042398304
 20
225.1738140331003
 30
0.0
 11
155.5000042398305
 21
225.1738140331003
 31
0.0
  0
ARC
  5
7D5
330
1F
100
AcDbEntity
  8
0
100
AcDbCircle
 10
156.0000042398305
 20
223.7738140331003
 30
0.0
 40
1.0
100
AcDbArc
 50
180.0
 51
270.0
  0
LINE
  5
7D6
330
1F
100
AcDbEntity
  8
0
100
AcDbLine
 10
158.0000042398305
 20
222.7738140331001
 30
0.0
 11
156.0000042398305
 21
222.7738140331001
 31
0.0
  0
LINE
  5
7D7
330
1F
100
AcDbEntity
  8
0
100
AcDbLine
 10
154.6000042398297
 20
221.6738140331003
 30
0.0
 11
158.0000042398305
 21
221.6738140331003
 31
0.0
  0
LINE
  5
7D8
330
1F
100
AcDbEntity
  8
0
100
AcDbLine
 10
158.0000042398305
 20
223.9738140331003
 30
0.0
 11
156.3000042398304
 21
223.9738140331003
 31
0.0
  0
LINE
  5
7D9
330
1F
100
AcDbEntity
  8
0
100
AcDbLine
 10
156.3000042398304
 20
223.9738140330994
 30
0.0
 11
156.3000042398304
 21
225.1738140331003
 31
0.0
  0
LINE
  5
7DA
330
1F
100
AcDbEntity
  8
0
100
AcDbLine
 10
158.0000042398305
 20
185.9738140331003
 30
0.0
 11
155.5000042398298
 21
185.9738140331003
 31
0.0
  0
LINE
  5
7DB
330
1F
100
AcDbEntity
  8
0
100
AcDbLine
 10
155.5000042398298
 20
185.9738140331003
 30
0.0
 11
155.5000042398298
 21
191.4738140330994
 31
0.0
  0
LINE
  5
7DC
330
1F
100
AcDbEntity
  8
0
100
AcDbLine
 10
155.5000042398298
 20
191.4738140330994
 30
0.0
 11
158.0000042398305
 21
191.4738140330994
 31
0.0
  0
LINE
  5
7DD
330
1F
100
AcDbEntity
  8
0
100
AcDbLine
 10
158.0000042398305
 20
226.6138132994103
 30
0.0
 11
157.0000042398305
 21
226.6138132994103
 31
0.0
  0
LINE
  5
7DE
330
1F
100
AcDbEntity
  8
0
100
AcDbLine
 10
157.0000042398305
 20
226.6138132994103
 30
0.0
 11
157.0000042398305
 21
223.9738140331003
 31
0.0
  0
LINE
  5
7DF
330
1F
100
AcDbEntity
  8
0
100
AcDbLine
 10
151.4000042398299
 20
276.9738132994094
 30
0.0
 11
155.8000044812796
 21
276.9738132994094
 31
0.0
  0
LINE
  5
7E0
330
1F
100
AcDbEntity
  8
0
100
AcDbLine
 10
154.8000043173308
 20
301.1338132994103
 30
0.0
 11
151.4000042398299
 21
301.1338132994103
 31
0.0
  0
LINE
  5
7E1
330
1F
100
AcDbEntity
  8
0
100
AcDbLine
 10
151.4000042398299
 20
301.1338132994103
 30
0.0
 11
151.4000042398299
 21
276.9738132994094
 31
0.0
  0
LINE
  5
7E2
330
1F
100
AcDbEntity
  8
0
100
AcDbLine
 10
152.7000042398299
 20
235.8138132994094
 30
0.0
 11
152.7000042398299
 21
264.2738132994103
 31
0.0
  0
LINE
  5
7E3
330
1F
100
AcDbEntity
  8
0
100
AcDbLine
 10
152.7000042398299
 20
239.9238132994105
 30
0.0
 11
157.0000042398298
 21
239.9238132994105
 31
0.0
  0
LINE
  5
7E4
330
1F
100
AcDbEntity
  8
0
100
AcDbLine
 10
157.0000042398298
 20
235.8138132994094
 30
0.0
 11
152.7000042398299
 21
235.8138132994094
 31
0.0
  0
LINE
  5
7E5
330
1F
100
AcDbEntity
  8
0
100
AcDbLine
 10
152.7000042398299
 20
260.1638132994096
 30
0.0
 11
158.0000042398305
 21
260.1638132994096
 31
0.0
  0
LINE
  5
7E6
330
1F
100
AcDbEntity
  8
0
100
AcDbLine
 10
152.7000042398299
 20
255.1638132994096
 30
0.0
 11
158.0000042398305
 21
255.1638132994096
 31
0.0
  0
LINE
  5
7E7
330
1F
100
AcDbEntity
  8
0
100
AcDbLine
 10
152.7000042398299
 20
247.5438132994104
 30
0.0
 11
158.0000042398305
 21
247.5438132994104
 31
0.0
  0
LINE
  5
7E8
330
1F
100
AcDbEntity
  8
0
100
AcDbLine
 10
152.7000042398299
 20
252.5438132994104
 30
0.0
 11
158.0000042398305
 21
252.5438132994104
 31
0.0
  0
LINE
  5
7E9
330
1F
100
AcDbEntity
  8
0
100
AcDbLine
 10
152.7000042398299
 20
244.9238132994105
 30
0.0
 11
157.2000042398308
 21
244.9238132994105
 31
0.0
  0
LINE
  5
7EA
330
1F
100
AcDbEntity
  8
0
100
AcDbLine
 10
157.2000042398308
 20
264.2738132994103
 30
0.0
 11
152.7000042398299
 21
264.2738132994103
 31
0.0
  0
LINE
  5
7EB
330
1F
100
AcDbEntity
  8
0
100
AcDbLine
 10
201.0000042398305
 20
351.9738132994094
 30
0.0
 11
203.0000042398298
 21
351.9738132994094
 31
0.0
  0
LINE
  5
7EC
330
1F
100
AcDbEntity
  8
0
100
AcDbLine
 10
274.0000042398286
 20
354.9738132994094
 30
0.0
 11
274.0000042398286
 21
364.9738132994094
 31
0.0
  0
LINE
  5
7ED
330
1F
100
AcDbEntity
  8
0
100
AcDbLine
 10
158.0000042398298
 20
180.9738132994094
 30
0.0
 11
275.3878580829978
 21
180.9738132994094
 31
0.0
  0
LINE
  5
7EE
330
1F
100
AcDbEntity
  8
0
100
AcDbLine
 10
177.0000042398307
 20
164.4738132994095
 30
0.0
 11
177.0000042398307
 21
172.9738132994094
 31
0.0
  0
LINE
  5
7EF
330
1F
100
AcDbEntity
  8
0
100
AcDbLine
 10
229.0000042398286
 20
164.4738132994095
 30
0.0
 11
229.0000042398286
 21
180.9738132994094
 31
0.0
  0
LINE
  5
7F0
330
1F
100
AcDbEntity
  8
0
100
AcDbLine
 10
177.0000042398307
 20
164.4738132994095
 30
0.0
 11
229.0000042398286
 21
164.4738132994095
 31
0.0
  0
LINE
  5
7F1
330
1F
100
AcDbEntity
  8
0
100
AcDbLine
 10
187.0000042398298
 20
164.4738132994095
 30
0.0
 11
187.0000042398298
 21
180.9738132994094
 31
0.0
  0
LINE
  5
7F2
330
1F
100
AcDbEntity
  8
0
100
AcDbLine
 10
177.0000042398307
 20
172.9738132994094
 30
0.0
 11
187.0000042398298
 21
172.9738132994094
 31
0.0
  0
LINE
  5
7F3
330
1F
100
AcDbEntity
  8
0
100
AcDbLine
 10
189.0000042398304
 20
173.9738132994094
 30
0.0
 11
189.0000042398304
 21
164.4738132994095
 31
0.0
  0
LINE
  5
7F4
330
1F
100
AcDbEntity
  8
0
100
AcDbLine
 10
227.0000042398286
 20
173.9738132994094
 30
0.0
 11
227.0000042398286
 21
164.4738132994095
 31
0.0
  0
LINE
  5
7F5
330
1F
100
AcDbEntity
  8
0
100
AcDbLine
 10
157.0000042398305
 20
222.7738140331001
 30
0.0
 11
157.0000042398305
 21
221.6738140331003
 31
0.0
  0
LINE
  5
7F6
330
1F
100
AcDbEntity
  8
0
100
AcDbLine
 10
157.0000042398305
 20
201.4738140331003
 30
0.0
 11
157.0000042398305
 21
200.3738140331003
 31
0.0
  0
LINE
  5
7F7
330
1F
100
AcDbEntity
  8
0
100
AcDbLine
 10
157.0000042398298
 20
199.1738140331003
 30
0.0
 11
157.0000042398305
 21
191.4738140330994
 31
0.0
  0
LINE
  5
7F8
330
1F
100
AcDbEntity
  8
0
100
AcDbLine
 10
158.0000042398305
 20
322.4138132994096
 30
0.0
 11
156.9956422989795
 21
322.4138132994096
 31
0.0
  0
LINE
  5
7F9
330
1F
100
AcDbEntity
  8
0
100
AcDbLine
 10
158.0000042398305
 20
233.1738140331003
 30
0.0
 11
157.0000042398305
 21
233.1738140331003
 31
0.0
  0
LINE
  5
7FA
330
1F
100
AcDbEntity
  8
0
100
AcDbLine
 10
157.0000042398305
 20
233.1738140331003
 30
0.0
 11
157.0000042398298
 21
241.5738140331002
 31
0.0
  0
LINE
  5
7FB
330
1F
100
AcDbEntity
  8
0
100
AcDbLine
 10
157.0000042398298
 20
241.5738140331002
 30
0.0
 11
158.0000042398305
 21
241.5738140331002
 31
0.0
  0
LINE
  5
7FC
330
1F
100
AcDbEntity
  8
0
100
AcDbLine
 10
158.0000042398305
 20
243.0738140331002
 30
0.0
 11
157.2000042398308
 21
243.0738140331002
 31
0.0
  0
LINE
  5
7FD
330
1F
100
AcDbEntity
  8
0
100
AcDbLine
 10
157.2000042398308
 20
243.0738140331002
 30
0.0
 11
157.2000042398308
 21
246.0738140331002
 31
0.0
  0
LINE
  5
7FE
330
1F
100
AcDbEntity
  8
0
100
AcDbLine
 10
157.2000042398308
 20
246.0738140331002
 30
0.0
 11
158.0000042398305
 21
246.0738140331002
 31
0.0
  0
LINE
  5
7FF
330
1F
100
AcDbEntity
  8
0
100
AcDbLine
 10
158.0000042398305
 20
263.0738140331
 30
0.0
 11
157.2000042398308
 21
263.0738140331
 31
0.0
  0
LINE
  5
800
330
1F
100
AcDbEntity
  8
0
100
AcDbLine
 10
157.2000042398308
 20
263.0738140331
 30
0.0
 11
157.2000042398308
 21
266.0738140330999
 31
0.0
  0
LINE
  5
801
330
1F
100
AcDbEntity
  8
0
100
AcDbLine
 10
157.2000042398308
 20
266.0738140330999
 30
0.0
 11
158.0000042398305
 21
266.0738140330999
 31
0.0
  0
LINE
  5
802
330
1F
100
AcDbEntity
  8
0
  6
CONTINUOUS
100
AcDbLine
 10
156.9956422989795
 20
322.4138132994096
 30
0.0
 11
156.9956422989795
 21
308.5288135366003
 31
0.0
  0
INSERT
  5
803
330
1F
100
AcDbEntity
  8
0
100
AcDbBlockReference
  2
A$C2A5F753D
 10
29.00000423982987
 20
359.9738132994104
 30
0.0
  0
LINE
  5
804
330
1F
100
AcDbEntity
  8
0
  6
CONTINUOUS
100
AcDbLine
 10
35.00000446333001
 20
123.4738132994104
 30
0.0
 11
35.00000446333001
 21
124.1999991434784
 31
0.0
  0
LINE
  5
805
330
1F
100
AcDbEntity
  8
0
  6
CONTINUOUS
100
AcDbLine
 10
35.00000446333001
 20
124.1999991434784
 30
0.0
 11
41.15000423982997
 21
124.1999991434784
 31
0.0
  0
LINE
  5
806
330
1F
100
AcDbEntity
  8
0
  6
CONTINUOUS
100
AcDbLine
 10
41.15000423982997
 20
123.1999989795285
 30
0.0
 11
35.30000441937977
 21
123.1999989795285
 31
0.0
  0
LINE
  5
807
330
1F
100
AcDbEntity
  8
0
  6
CONTINUOUS
100
AcDbLine
 10
38.25000429757983
 20
121.3999992432784
 30
0.0
 11
38.25000429757983
 21
120.9738132994105
 31
0.0
  0
LINE
  5
808
330
1F
100
AcDbEntity
  8
0
  6
CONTINUOUS
100
AcDbLine
 10
41.15000423982997
 20
121.3999992432784
 30
0.0
 11
38.25000429757983
 21
121.3999992432784
 31
0.0
  0
LINE
  5
809
330
1F
100
AcDbEntity
  8
0
100
AcDbLine
 10
26.70871639235179
 20
4.379164744047556
 30
0.0
 11
26.70871639235179
 21
21.97381329941139
 31
0.0
  0
LINE
  5
80A
330
1F
100
AcDbEntity
  8
0
100
AcDbLine
 10
31.29129208730773
 20
4.259165776313466
 30
0.0
 11
31.29129208730773
 21
21.97381329941048
 31
0.0
  0
LINE
  5
80B
330
1F
100
AcDbEntity
  8
0
100
AcDbLine
 10
6.000004239829877
 20
4.921441456271393
 30
0.0
 11
6.000004239829877
 21
20.97381329941048
 31
0.0
  0
LINE
  5
80C
330
1F
100
AcDbEntity
  8
0
100
AcDbLine
 10
5.000004239830786
 20
20.99999922097935
 30
0.0
 11
5.000004239830786
 21
4.973813299409584
 31
0.0
  0
LINE
  5
80D
330
1F
100
AcDbEntity
  8
0
100
AcDbLine
 10
0.0000042398307869
 20
21.41966598018552
 30
0.0
 11
0.0000042398307869
 21
-0.0000007790208656
 31
0.0
  0
LINE
  5
80E
330
1F
100
AcDbEntity
  8
0
100
AcDbLine
 10
58.00000423983078
 20
3.585959456242334
 30
0.0
 11
58.00000423983078
 21
120.9738132994105
 31
0.0
  0
LINE
  5
80F
330
1F
100
AcDbEntity
  8
0
100
AcDbLine
 10
53.50000423983079
 20
86.9738132994105
 30
0.0
 11
53.50000423983079
 21
91.9738132994105
 31
0.0
  0
LINE
  5
810
330
1F
100
AcDbEntity
  8
0
100
AcDbLine
 10
54.50000423983079
 20
96.9738132994105
 30
0.0
 11
54.50000423983079
 21
70.97381329941048
 31
0.0
  0
LINE
  5
811
330
1F
100
AcDbEntity
  8
0
100
AcDbLine
 10
33.50000423983078
 20
70.97381329941048
 30
0.0
 11
33.50000423983078
 21
96.9738132994105
 31
0.0
  0
ARC
  5
812
330
1F
100
AcDbEntity
  8
0
100
AcDbCircle
 10
2.400004239829968
 20
89.3196659801856
 30
0.0
 40
0.6
100
AcDbArc
 50
0.0
 51
88.09084756699929
  0
LINE
  5
813
330
1F
100
AcDbEntity
  8
0
100
AcDbLine
 10
6.000004239829877
 20
82.9738132994114
 30
0.0
 11
6.000004239829877
 21
109.6057327261084
 31
0.0
  0
LINE
  5
814
330
1F
100
AcDbEntity
  8
0
100
AcDbLine
 10
5.000004239830786
 20
110.4710182788525
 30
0.0
 11
5.000004239830786
 21
82.99999922097937
 31
0.0
  0
LINE
  5
815
330
1F
100
AcDbEntity
  8
0
100
AcDbLine
 10
57.00000423983079
 20
21.97381329941048
 30
0.0
 11
57.00000423983079
 21
103.9738132994104
 31
0.0
  0
LINE
  5
816
330
1F
100
AcDbEntity
  8
0
100
AcDbLine
 10
16.00000423983078
 20
103.9738132994104
 30
0.0
 11
16.00000423983078
 21
21.97381329941048
 31
0.0
  0
LINE
  5
817
330
1F
100
AcDbEntity
  8
0
100
AcDbLine
 10
28.20000423982992
 20
105.4738132994105
 30
0.0
 11
20.00000423982986
 21
105.4738132994105
 31
0.0
  0
LINE
  5
818
330
1F
100
AcDbEntity
  8
0
100
AcDbLine
 10
20.00000423982986
 20
117.4738132994104
 30
0.0
 11
28.20000423982992
 21
117.4738132994104
 31
0.0
  0
LINE
  5
819
330
1F
100
AcDbEntity
  8
0
100
AcDbLine
 10
20.00000423982986
 20
109.4738132994105
 30
0.0
 11
23.20000423982992
 21
109.4738132994105
 31
0.0
  0
LINE
  5
81A
330
1F
100
AcDbEntity
  8
0
100
AcDbLine
 10
20.00000423982986
 20
113.4738132994103
 30
0.0
 11
23.20000423982992
 21
113.4738132994103
 31
0.0
  0
LINE
  5
81B
330
1F
100
AcDbEntity
  8
0
100
AcDbLine
 10
33.00000423983078
 20
89.97381329941047
 30
0.0
 11
16.00000423983078
 21
89.97381329941047
 31
0.0
  0
LINE
  5
81C
330
1F
100
AcDbEntity
  8
0
100
AcDbLine
 10
33.00000423983078
 20
91.9738132994105
 30
0.0
 11
16.00000423983078
 21
91.9738132994105
 31
0.0
  0
LINE
  5
81D
330
1F
100
AcDbEntity
  8
0
100
AcDbLine
 10
57.00000423983079
 20
96.9738132994105
 30
0.0
 11
53.44722605367564
 21
96.9738132994105
 31
0.0
  0
LINE
  5
81E
330
1F
100
AcDbEntity
  8
0
100
AcDbLine
 10
57.00000423983079
 20
98.97381329941048
 30
0.0
 11
53.44722605367564
 21
98.97381329941048
 31
0.0
  0
LINE
  5
81F
330
1F
100
AcDbEntity
  8
0
100
AcDbLine
 10
16.00000423983078
 20
103.9738132994104
 30
0.0
 11
58.00000423983078
 21
103.9738132994104
 31
0.0
  0
LINE
  5
820
330
1F
100
AcDbEntity
  8
0
100
AcDbLine
 10
6.000004239829877
 20
120.9738132994105
 30
0.0
 11
58.00000423983078
 21
120.9738132994105
 31
0.0
  0
LINE
  5
821
330
1F
100
AcDbEntity
  8
0
100
AcDbLine
 10
20.00000423982986
 20
109.4738132994105
 30
0.0
 11
20.00000423982986
 21
105.4738132994105
 31
0.0
  0
LINE
  5
822
330
1F
100
AcDbEntity
  8
0
100
AcDbLine
 10
0.0000042398307869
 20
90.5803324617716
 30
0.0
 11
0.0000042398307869
 21
120.8952555347024
 31
0.0
  0
LINE
  5
823
330
1F
100
AcDbEntity
  8
0
100
AcDbLine
 10
8.000004239830785
 20
120.4738132994104
 30
0.0
 11
8.000004239830785
 21
110.9738132994114
 31
0.0
  0
LINE
  5
824
330
1F
100
AcDbEntity
  8
0
100
AcDbLine
 10
9.000004239830786
 20
120.9738132994105
 30
0.0
 11
9.000004239830786
 21
110.1347136682324
 31
0.0
  0
LINE
  5
825
330
1F
100
AcDbEntity
  8
0
100
AcDbLine
 10
8.000004239830785
 20
110.9999992209791
 30
0.0
 11
8.000004239830785
 21
120.8952555347024
 31
0.0
  0
LINE
  5
826
330
1F
100
AcDbEntity
  8
0
100
AcDbLine
 10
6.000004239829877
 20
120.9738132994105
 30
0.0
 11
6.000004239829877
 21
120.9476273778407
 31
0.0
  0
LINE
  5
827
330
1F
100
AcDbEntity
  8
0
100
AcDbLine
 10
6.000004239829877
 20
120.9738132994105
 30
0.0
 11
6.000004239829877
 21
120.9476273778414
 31
0.0
  0
LINE
  5
828
330
1F
100
AcDbEntity
  8
0
100
AcDbLine
 10
8.000004239830785
 20
120.4738132994104
 30
0.0
 11
9.000004239830786
 21
120.4738132994104
 31
0.0
  0
LINE
  5
829
330
1F
100
AcDbEntity
  8
0
100
AcDbLine
 10
4.000004239829877
 20
120.9999992209793
 30
0.0
 11
8.000004239830785
 21
120.8952555347024
 31
0.0
  0
LINE
  5
82A
330
1F
100
AcDbEntity
  8
0
100
AcDbLine
 10
0.0000042398307869
 20
120.8952555347024
 30
0.0
 11
4.000004239829877
 21
120.9999992209793
 31
0.0
  0
LINE
  5
82B
330
1F
100
AcDbEntity
  8
0
100
AcDbLine
 10
5.000004239830786
 20
110.4448323572845
 30
0.0
 11
8.000004239830785
 21
110.9738132994114
 31
0.0
  0
LINE
  5
82C
330
1F
100
AcDbEntity
  8
0
100
AcDbLine
 10
9.000004239830786
 20
110.1347136682324
 30
0.0
 11
6.000004239829877
 21
109.6057327261084
 31
0.0
  0
LINE
  5
82D
330
1F
100
AcDbEntity
  8
0
100
AcDbLine
 10
8.000004239830785
 20
110.9999992209791
 30
0.0
 11
5.000004239830786
 21
110.4710182788525
 31
0.0
  0
LINE
  5
82E
330
1F
100
AcDbEntity
  8
0
100
AcDbLine
 10
20.00000423982986
 20
113.4738132994103
 30
0.0
 11
20.00000423982986
 21
117.4738132994104
 31
0.0
  0
LINE
  5
82F
330
1F
100
AcDbEntity
  8
0
100
AcDbLine
 10
0.0000042398307869
 20
98.41966598018643
 30
0.0
 11
0.0000042398307869
 21
97.58033246177161
 31
0.0
  0
POINT
  5
830
330
1F
100
AcDbEntity
  8
0
100
AcDbPoint
 10
0.0000042398307869
 20
98.99999922097846
 30
0.0
  0
POINT
  5
831
330
1F
100
AcDbEntity
  8
0
100
AcDbPoint
 10
3.000004239830786
 20
99.09999922097746
 30
0.0
  0
ARC
  5
832
330
1F
100
AcDbEntity
  8
0
100
AcDbCircle
 10
2.400004239829968
 20
99.68033246177038
 30
0.0
 40
0.6
100
AcDbArc
 50
271.9091524330006
 51
0.0
  0
ARC
  5
833
330
1F
100
AcDbEntity
  8
0
100
AcDbCircle
 10
0.6000042398297865
 20
98.41966598018643
 30
0.0
 40
0.6
100
AcDbArc
 50
91.9091524330007
 51
180.0
  0
LINE
  5
834
330
1F
100
AcDbEntity
  8
0
100
AcDbLine
 10
2.41999313796873
 20
99.08066551758338
 30
0.0
 11
0.5800153416896592
 21
99.01933292437432
 31
0.0
  0
LINE
  5
835
330
1F
100
AcDbEntity
  8
0
100
AcDbLine
 10
3.000004239830786
 20
103.3196659801855
 30
0.0
 11
3.000004239830786
 21
99.68033246177038
 31
0.0
  0
POINT
  5
836
330
1F
100
AcDbEntity
  8
0
100
AcDbPoint
 10
3.000004239830786
 20
103.8999992209785
 30
0.0
  0
ARC
  5
837
330
1F
100
AcDbEntity
  8
0
100
AcDbCircle
 10
0.6000042398297865
 20
104.5803324617716
 30
0.0
 40
0.6
100
AcDbArc
 50
180.0
 51
268.0908475669992
  0
LINE
  5
838
330
1F
100
AcDbEntity
  8
0
100
AcDbLine
 10
0.5800153416896592
 20
103.9806655175834
 30
0.0
 11
2.41999313796873
 21
103.9193329243733
 31
0.0
  0
ARC
  5
839
330
1F
100
AcDbEntity
  8
0
100
AcDbCircle
 10
2.400004239829968
 20
103.3196659801855
 30
0.0
 40
0.6
100
AcDbArc
 50
0.0
 51
88.09084756699929
  0
POINT
  5
83A
330
1F
100
AcDbEntity
  8
0
100
AcDbPoint
 10
0.0000042398307869
 20
89.99999922097936
 30
0.0
  0
ARC
  5
83B
330
1F
100
AcDbEntity
  8
0
100
AcDbCircle
 10
2.400004239829968
 20
92.68033246177038
 30
0.0
 40
0.6
100
AcDbArc
 50
271.9091524330006
 51
0.0
  0
ARC
  5
83C
330
1F
100
AcDbEntity
  8
0
100
AcDbCircle
 10
0.6000042398297865
 20
91.41966598018552
 30
0.0
 40
0.6
100
AcDbArc
 50
91.9091524330007
 51
180.0
  0
ARC
  5
83D
330
1F
100
AcDbEntity
  8
0
100
AcDbCircle
 10
0.6000042398297865
 20
90.5803324617716
 30
0.0
 40
0.6
100
AcDbArc
 50
180.0
 51
268.0908475669992
  0
LINE
  5
83E
330
1F
100
AcDbEntity
  8
0
100
AcDbLine
 10
0.0000042398307869
 20
91.41966598018552
 30
0.0
 11
0.0000042398307869
 21
90.5803324617716
 31
0.0
  0
LINE
  5
83F
330
1F
100
AcDbEntity
  8
0
100
AcDbLine
 10
0.5800153416896592
 20
89.98066551758347
 30
0.0
 11
2.41999313796873
 21
89.91933292437442
 31
0.0
  0
LINE
  5
840
330
1F
100
AcDbEntity
  8
0
100
AcDbLine
 10
2.41999313796873
 20
92.0806655175834
 30
0.0
 11
0.5800153416896592
 21
92.01933292437436
 31
0.0
  0
POINT
  5
841
330
1F
100
AcDbEntity
  8
0
100
AcDbPoint
 10
3.000004239830786
 20
96.89999922097854
 30
0.0
  0
POINT
  5
842
330
1F
100
AcDbEntity
  8
0
100
AcDbPoint
 10
0.0000042398307869
 20
96.99999922097845
 30
0.0
  0
ARC
  5
843
330
1F
100
AcDbEntity
  8
0
100
AcDbCircle
 10
2.400004239829968
 20
96.31966598018562
 30
0.0
 40
0.6
100
AcDbArc
 50
0.0
 51
88.09084756699929
  0
ARC
  5
844
330
1F
100
AcDbEntity
  8
0
100
AcDbCircle
 10
0.6000042398297865
 20
97.58033246177161
 30
0.0
 40
0.6
100
AcDbArc
 50
180.0
 51
268.0908475669992
  0
LINE
  5
845
330
1F
100
AcDbEntity
  8
0
100
AcDbLine
 10
0.5800153416896592
 20
96.98066551758234
 30
0.0
 11
2.41999313796873
 21
96.91933292437445
 31
0.0
  0
LINE
  5
846
330
1F
100
AcDbEntity
  8
0
100
AcDbLine
 10
3.000004239830786
 20
96.31966598018562
 30
0.0
 11
3.000004239830786
 21
92.68033246177038
 31
0.0
  0
LINE
  5
847
330
1F
100
AcDbEntity
  8
0
100
AcDbLine
 10
28.20000423982992
 20
105.4738132994105
 30
0.0
 11
28.20000423982992
 21
117.4738132994104
 31
0.0
  0
LINE
  5
848
330
1F
100
AcDbEntity
  8
0
100
AcDbLine
 10
23.20000423982992
 20
107.4738132994105
 30
0.0
 11
25.20000423982992
 21
107.4738132994105
 31
0.0
  0
LINE
  5
849
330
1F
100
AcDbEntity
  8
0
100
AcDbLine
 10
23.20000423982992
 20
109.4738132994105
 30
0.0
 11
23.20000423982992
 21
107.4738132994105
 31
0.0
  0
LINE
  5
84A
330
1F
100
AcDbEntity
  8
0
100
AcDbLine
 10
23.20000423982992
 20
115.4738132994095
 30
0.0
 11
25.20000423982992
 21
115.4738132994095
 31
0.0
  0
LINE
  5
84B
330
1F
100
AcDbEntity
  8
0
100
AcDbLine
 10
23.20000423982992
 20
113.4738132994103
 30
0.0
 11
23.20000423982992
 21
115.4738132994095
 31
0.0
  0
LINE
  5
84C
330
1F
100
AcDbEntity
  8
0
100
AcDbLine
 10
25.20000423982992
 20
107.4738132994105
 30
0.0
 11
25.20000423982992
 21
115.4738132994095
 31
0.0
  0
LINE
  5
84D
330
1F
100
AcDbEntity
  8
0
100
AcDbLine
 10
33.50000423983078
 20
98.97381329941048
 30
0.0
 11
33.50000423983078
 21
103.9738132994104
 31
0.0
  0
LINE
  5
84E
330
1F
100
AcDbEntity
  8
0
100
AcDbLine
 10
33.00000423983078
 20
89.97381329941047
 30
0.0
 11
33.00000423983078
 21
91.9738132994105
 31
0.0
  0
LINE
  5
84F
330
1F
100
AcDbEntity
  8
0
100
AcDbLine
 10
56.00000423983079
 20
96.9738132994105
 30
0.0
 11
56.00000423983079
 21
98.97381329941048
 31
0.0
  0
LINE
  5
850
330
1F
100
AcDbEntity
  8
0
100
AcDbLine
 10
55.00000423983077
 20
96.9738132994105
 30
0.0
 11
55.00000423983077
 21
98.97381329941048
 31
0.0
  0
LINE
  5
851
330
1F
100
AcDbEntity
  8
0
100
AcDbLine
 10
54.50000423983079
 20
103.9738132994104
 30
0.0
 11
54.50000423983079
 21
98.97381329941048
 31
0.0
  0
ARC
  5
852
330
1F
100
AcDbEntity
  8
0
100
AcDbCircle
 10
53.00000423983078
 20
91.9738132994105
 30
0.0
 40
0.5
100
AcDbArc
 50
0.0
 51
26.56294527602478
  0
LINE
  5
853
330
1F
100
AcDbEntity
  8
0
100
AcDbLine
 10
56.00000423983079
 20
89.97381329941047
 30
0.0
 11
56.00000423983079
 21
91.9738132994105
 31
0.0
  0
LINE
  5
854
330
1F
100
AcDbEntity
  8
0
100
AcDbLine
 10
55.00000423983077
 20
89.97381329941047
 30
0.0
 11
55.00000423983077
 21
91.9738132994105
 31
0.0
  0
LINE
  5
855
330
1F
100
AcDbEntity
  8
0
100
AcDbLine
 10
57.00000423983079
 20
89.97381329941047
 30
0.0
 11
55.00000423983077
 21
89.97381329941047
 31
0.0
  0
LINE
  5
856
330
1F
100
AcDbEntity
  8
0
100
AcDbLine
 10
57.00000423983079
 20
91.9738132994105
 30
0.0
 11
55.00000423983077
 21
91.9738132994105
 31
0.0
  0
LINE
  5
857
330
1F
100
AcDbEntity
  8
0
100
AcDbLine
 10
33.00000423983078
 20
47.97381329941049
 30
0.0
 11
16.00000423983078
 21
47.97381329941049
 31
0.0
  0
LINE
  5
858
330
1F
100
AcDbEntity
  8
0
100
AcDbLine
 10
33.00000423983078
 20
49.97381329941049
 30
0.0
 11
16.00000423983078
 21
49.97381329941049
 31
0.0
  0
LINE
  5
859
330
1F
100
AcDbEntity
  8
0
100
AcDbLine
 10
57.00000423983079
 20
26.97381329941048
 30
0.0
 11
16.00000423983078
 21
26.97381329941048
 31
0.0
  0
LINE
  5
85A
330
1F
100
AcDbEntity
  8
0
100
AcDbLine
 10
57.00000423983079
 20
28.97381329941048
 30
0.0
 11
16.00000423983078
 21
28.97381329941048
 31
0.0
  0
LINE
  5
85B
330
1F
100
AcDbEntity
  8
0
100
AcDbLine
 10
57.00000423983079
 20
33.97381329941048
 30
0.0
 11
16.00000423983078
 21
33.97381329941048
 31
0.0
  0
LINE
  5
85C
330
1F
100
AcDbEntity
  8
0
100
AcDbLine
 10
57.00000423983079
 20
35.97381329941049
 30
0.0
 11
16.00000423983078
 21
35.97381329941049
 31
0.0
  0
LINE
  5
85D
330
1F
100
AcDbEntity
  8
0
100
AcDbLine
 10
57.00000423983079
 20
40.97381329941049
 30
0.0
 11
16.00000423983078
 21
40.97381329941049
 31
0.0
  0
LINE
  5
85E
330
1F
100
AcDbEntity
  8
0
100
AcDbLine
 10
57.00000423983079
 20
42.97381329941049
 30
0.0
 11
16.00000423983078
 21
42.97381329941049
 31
0.0
  0
LINE
  5
85F
330
1F
100
AcDbEntity
  8
0
100
AcDbLine
 10
57.00000423983079
 20
54.97381329941049
 30
0.0
 11
53.50000423982987
 21
54.97381329941049
 31
0.0
  0
LINE
  5
860
330
1F
100
AcDbEntity
  8
0
100
AcDbLine
 10
57.00000423983079
 20
56.97381329941049
 30
0.0
 11
53.50000423982987
 21
56.97381329941049
 31
0.0
  0
LINE
  5
861
330
1F
100
AcDbEntity
  8
0
100
AcDbLine
 10
57.00000423983079
 20
61.97381329941049
 30
0.0
 11
53.50000423982987
 21
61.97381329941049
 31
0.0
  0
LINE
  5
862
330
1F
100
AcDbEntity
  8
0
100
AcDbLine
 10
16.00000423983078
 20
21.97381329941048
 30
0.0
 11
58.00000423983078
 21
21.97381329941048
 31
0.0
  0
LINE
  5
863
330
1F
100
AcDbEntity
  8
0
100
AcDbLine
 10
33.00000423983078
 20
75.97381329941048
 30
0.0
 11
16.00000423983078
 21
75.97381329941048
 31
0.0
  0
LINE
  5
864
330
1F
100
AcDbEntity
  8
0
100
AcDbLine
 10
33.00000423983078
 20
77.9738132994105
 30
0.0
 11
16.00000423983078
 21
77.9738132994105
 31
0.0
  0
LINE
  5
865
330
1F
100
AcDbEntity
  8
0
100
AcDbLine
 10
33.00000423983078
 20
82.9738132994105
 30
0.0
 11
16.00000423983078
 21
82.9738132994105
 31
0.0
  0
LINE
  5
866
330
1F
100
AcDbEntity
  8
0
100
AcDbLine
 10
33.00000423983078
 20
84.97381329940958
 30
0.0
 11
16.00000423983078
 21
84.97381329940958
 31
0.0
  0
LINE
  5
867
330
1F
100
AcDbEntity
  8
0
100
AcDbLine
 10
57.00000423983079
 20
63.97381329941049
 30
0.0
 11
53.50000423982987
 21
63.97381329941049
 31
0.0
  0
LINE
  5
868
330
1F
100
AcDbEntity
  8
0
100
AcDbLine
 10
57.00000423983079
 20
68.97381329940959
 30
0.0
 11
53.50000423982987
 21
68.97381329940959
 31
0.0
  0
LINE
  5
869
330
1F
100
AcDbEntity
  8
0
100
AcDbLine
 10
57.00000423983079
 20
70.97381329941048
 30
0.0
 11
53.50000423982987
 21
70.97381329941048
 31
0.0
  0
LINE
  5
86A
330
1F
100
AcDbEntity
  8
0
100
AcDbLine
 10
3.000004239830786
 20
54.31966598018653
 30
0.0
 11
3.000004239830786
 21
50.68033246177036
 31
0.0
  0
LINE
  5
86B
330
1F
100
AcDbEntity
  8
0
100
AcDbLine
 10
6.000004239829877
 20
32.97381329941137
 30
0.0
 11
6.000004239829877
 21
70.97381329941048
 31
0.0
  0
LINE
  5
86C
330
1F
100
AcDbEntity
  8
0
100
AcDbLine
 10
5.000004239830786
 20
70.99999922097936
 30
0.0
 11
5.000004239830786
 21
32.99999922097936
 31
0.0
  0
LINE
  5
86D
330
1F
100
AcDbEntity
  8
0
100
AcDbLine
 10
3.000004239830786
 20
75.31966598018652
 30
0.0
 11
3.000004239830786
 21
71.68033246177038
 31
0.0
  0
LINE
  5
86E
330
1F
100
AcDbEntity
  8
0
100
AcDbLine
 10
5.000004239830786
 20
70.99999922097845
 30
0.0
 11
5.000004239830786
 21
82.99999922097937
 31
0.0
  0
LINE
  5
86F
330
1F
100
AcDbEntity
  8
0
100
AcDbLine
 10
4.500004239830786
 20
82.99999922097937
 30
0.0
 11
4.500004239830786
 21
70.99999922097936
 31
0.0
  0
LINE
  5
870
330
1F
100
AcDbEntity
  8
0
100
AcDbLine
 10
3.700004239829921
 20
82.99999922097937
 30
0.0
 11
3.700004239829921
 21
71.09999922097836
 31
0.0
  0
LINE
  5
871
330
1F
100
AcDbEntity
  8
0
100
AcDbLine
 10
9.700004239829919
 20
81.47381329940959
 30
0.0
 11
9.700004239829919
 21
72.47381329941048
 31
0.0
  0
LINE
  5
872
330
1F
100
AcDbEntity
  8
0
100
AcDbLine
 10
8.00000423982874
 20
81.47381329940959
 30
0.0
 11
8.00000423982874
 21
72.47381329941048
 31
0.0
  0
LINE
  5
873
330
1F
100
AcDbEntity
  8
0
100
AcDbLine
 10
9.500004239830786
 20
80.99999922097936
 30
0.0
 11
9.500004239830786
 21
72.99999922097936
 31
0.0
  0
LINE
  5
874
330
1F
100
AcDbEntity
  8
0
100
AcDbLine
 10
8.700004239829922
 20
80.99999922097936
 30
0.0
 11
8.700004239829922
 21
72.99999922097936
 31
0.0
  0
LINE
  5
875
330
1F
100
AcDbEntity
  8
0
100
AcDbLine
 10
8.100004239830695
 20
80.99999922097936
 30
0.0
 11
8.100004239830695
 21
72.99999922097936
 31
0.0
  0
LINE
  5
876
330
1F
100
AcDbEntity
  8
0
100
AcDbLine
 10
3.000004239830786
 20
82.31966598018653
 30
0.0
 11
3.000004239830786
 21
78.68033246177038
 31
0.0
  0
LINE
  5
877
330
1F
100
AcDbEntity
  8
0
100
AcDbLine
 10
6.000004239829877
 20
82.9738132994114
 30
0.0
 11
5.000004239830786
 21
82.9738132994114
 31
0.0
  0
LINE
  5
878
330
1F
100
AcDbEntity
  8
0
100
AcDbLine
 10
9.700004239829919
 20
81.47381329940959
 30
0.0
 11
8.00000423982874
 21
81.47381329940959
 31
0.0
  0
LINE
  5
879
330
1F
100
AcDbEntity
  8
0
100
AcDbLine
 10
5.000004239830786
 20
82.99999922097937
 30
0.0
 11
3.700004239829921
 21
82.99999922097937
 31
0.0
  0
POINT
  5
87A
330
1F
100
AcDbEntity
  8
0
100
AcDbPoint
 10
0.0000042398307869
 20
82.99999922097937
 30
0.0
  0
ARC
  5
87B
330
1F
100
AcDbEntity
  8
0
100
AcDbCircle
 10
2.400004239829968
 20
82.31966598018653
 30
0.0
 40
0.6
100
AcDbArc
 50
0.0
 51
88.09084756699929
  0
ARC
  5
87C
330
1F
100
AcDbEntity
  8
0
100
AcDbCircle
 10
2.400004239829968
 20
85.68033246177037
 30
0.0
 40
0.6
100
AcDbArc
 50
271.9091524330006
 51
0.0
  0
LINE
  5
87D
330
1F
100
AcDbEntity
  8
0
100
AcDbLine
 10
9.500004239830786
 20
80.99999922097936
 30
0.0
 11
8.00000423982874
 21
80.99999922097936
 31
0.0
  0
ARC
  5
87E
330
1F
100
AcDbEntity
  8
0
100
AcDbCircle
 10
0.6000042398297865
 20
84.4196659801855
 30
0.0
 40
0.6
100
AcDbArc
 50
91.9091524330007
 51
180.0
  0
ARC
  5
87F
330
1F
100
AcDbEntity
  8
0
100
AcDbCircle
 10
0.6000042398297865
 20
83.58033246177162
 30
0.0
 40
0.6
100
AcDbArc
 50
180.0
 51
268.0908475669992
  0
LINE
  5
880
330
1F
100
AcDbEntity
  8
0
100
AcDbLine
 10
0.0000042398307869
 20
84.4196659801855
 30
0.0
 11
0.0000042398307869
 21
83.58033246177162
 31
0.0
  0
LINE
  5
881
330
1F
100
AcDbEntity
  8
0
100
AcDbLine
 10
0.5800153416896592
 20
82.98066551758234
 30
0.0
 11
2.41999313796873
 21
82.9193329243735
 31
0.0
  0
LINE
  5
882
330
1F
100
AcDbEntity
  8
0
100
AcDbLine
 10
2.41999313796873
 20
85.08066551758338
 30
0.0
 11
0.5800153416896592
 21
85.01933292437433
 31
0.0
  0
LINE
  5
883
330
1F
100
AcDbEntity
  8
0
100
AcDbLine
 10
3.000004239830786
 20
89.3196659801856
 30
0.0
 11
3.000004239830786
 21
85.68033246177037
 31
0.0
  0
LINE
  5
884
330
1F
100
AcDbEntity
  8
0
100
AcDbLine
 10
9.700004239829919
 20
72.47381329941048
 30
0.0
 11
8.00000423982874
 21
72.47381329941048
 31
0.0
  0
POINT
  5
885
330
1F
100
AcDbEntity
  8
0
100
AcDbPoint
 10
0.0000042398307869
 20
75.99999922097936
 30
0.0
  0
ARC
  5
886
330
1F
100
AcDbEntity
  8
0
100
AcDbCircle
 10
2.400004239829968
 20
75.31966598018652
 30
0.0
 40
0.6
100
AcDbArc
 50
0.0
 51
88.09084756699929
  0
ARC
  5
887
330
1F
100
AcDbEntity
  8
0
100
AcDbCircle
 10
2.400004239829968
 20
78.68033246177038
 30
0.0
 40
0.6
100
AcDbArc
 50
271.9091524330006
 51
0.0
  0
LINE
  5
888
330
1F
100
AcDbEntity
  8
0
100
AcDbLine
 10
9.500004239830786
 20
72.99999922097936
 30
0.0
 11
8.00000423982874
 21
72.99999922097936
 31
0.0
  0
ARC
  5
889
330
1F
100
AcDbEntity
  8
0
100
AcDbCircle
 10
0.6000042398297865
 20
77.41966598018553
 30
0.0
 40
0.6
100
AcDbArc
 50
91.9091524330007
 51
180.0
  0
ARC
  5
88A
330
1F
100
AcDbEntity
  8
0
100
AcDbCircle
 10
0.6000042398297865
 20
76.58033246177159
 30
0.0
 40
0.6
100
AcDbArc
 50
180.0
 51
268.0908475669992
  0
LINE
  5
88B
330
1F
100
AcDbEntity
  8
0
100
AcDbLine
 10
0.0000042398307869
 20
77.41966598018553
 30
0.0
 11
0.0000042398307869
 21
76.58033246177159
 31
0.0
  0
LINE
  5
88C
330
1F
100
AcDbEntity
  8
0
100
AcDbLine
 10
0.5800153416896592
 20
75.98066551758233
 30
0.0
 11
2.41999313796873
 21
75.9193329243735
 31
0.0
  0
LINE
  5
88D
330
1F
100
AcDbEntity
  8
0
100
AcDbLine
 10
2.41999313796873
 20
78.08066551758338
 30
0.0
 11
0.5800153416896592
 21
78.01933292437434
 31
0.0
  0
LINE
  5
88E
330
1F
100
AcDbEntity
  8
0
100
AcDbLine
 10
0.0000042398307869
 20
64.61966598018739
 30
0.0
 11
0.0000042398307869
 21
59.58033246177047
 31
0.0
  0
ARC
  5
88F
330
1F
100
AcDbEntity
  8
0
100
AcDbCircle
 10
0.6000042398297865
 20
64.41966598018552
 30
0.0
 40
0.6
100
AcDbArc
 50
91.9091524330007
 51
180.0
  0
LINE
  5
890
330
1F
100
AcDbEntity
  8
0
100
AcDbLine
 10
0.5800153416896592
 20
65.01933292437434
 30
0.0
 11
3.00000423982874
 21
65.09999922097836
 31
0.0
  0
ARC
  5
891
330
1F
100
AcDbEntity
  8
0
100
AcDbCircle
 10
0.6000042398297865
 20
64.61966598018739
 30
0.0
 40
0.6
100
AcDbArc
 50
91.9091524330007
 51
180.0
  0
LINE
  5
892
330
1F
100
AcDbEntity
  8
0
100
AcDbLine
 10
0.5800153416896592
 20
65.21933292437438
 30
0.0
 11
3.00000423982874
 21
65.29999922097932
 31
0.0
  0
POINT
  5
893
330
1F
100
AcDbEntity
  8
0
100
AcDbPoint
 10
0.0000042398307869
 20
68.99999922097936
 30
0.0
  0
ARC
  5
894
330
1F
100
AcDbEntity
  8
0
100
AcDbCircle
 10
2.400004239829968
 20
64.68033246177038
 30
0.0
 40
0.6
100
AcDbArc
 50
271.9091524329875
 51
0.0
  0
ARC
  5
895
330
1F
100
AcDbEntity
  8
0
100
AcDbCircle
 10
2.400004239829968
 20
68.31966598018651
 30
0.0
 40
0.6
100
AcDbArc
 50
0.0
 51
88.09084756699929
  0
ARC
  5
896
330
1F
100
AcDbEntity
  8
0
100
AcDbCircle
 10
0.6000042398297865
 20
69.5803324617716
 30
0.0
 40
0.6
100
AcDbArc
 50
180.0
 51
268.0908475669992
  0
ARC
  5
897
330
1F
100
AcDbEntity
  8
0
100
AcDbCircle
 10
0.6000042398297865
 20
63.41966598018553
 30
0.0
 40
0.6
100
AcDbArc
 50
91.9091524330007
 51
180.0
  0
LINE
  5
898
330
1F
100
AcDbEntity
  8
0
100
AcDbLine
 10
0.0000042398307869
 20
70.41966598018553
 30
0.0
 11
0.0000042398307869
 21
69.5803324617716
 31
0.0
  0
LINE
  5
899
330
1F
100
AcDbEntity
  8
0
100
AcDbLine
 10
2.41999313796873
 20
64.08066551758338
 30
0.0
 11
0.5800153416896592
 21
64.01933292437433
 31
0.0
  0
LINE
  5
89A
330
1F
100
AcDbEntity
  8
0
100
AcDbLine
 10
3.000004239830786
 20
68.31966598018651
 30
0.0
 11
3.000004239830786
 21
64.68033246177038
 31
0.0
  0
LINE
  5
89B
330
1F
100
AcDbEntity
  8
0
100
AcDbLine
 10
0.5800153416896592
 20
68.98066551758232
 30
0.0
 11
2.41999313796873
 21
68.91933292437352
 31
0.0
  0
LINE
  5
89C
330
1F
100
AcDbEntity
  8
0
100
AcDbLine
 10
6.000004239829877
 20
70.97381329941048
 30
0.0
 11
5.000004239830786
 21
70.97381329941048
 31
0.0
  0
LINE
  5
89D
330
1F
100
AcDbEntity
  8
0
100
AcDbLine
 10
5.000004239830786
 20
70.99999922097936
 30
0.0
 11
3.700004239829921
 21
70.99999922097936
 31
0.0
  0
ARC
  5
89E
330
1F
100
AcDbEntity
  8
0
100
AcDbCircle
 10
2.400004239829968
 20
71.68033246177038
 30
0.0
 40
0.6
100
AcDbArc
 50
271.9091524330006
 51
0.0
  0
LINE
  5
89F
330
1F
100
AcDbEntity
  8
0
100
AcDbLine
 10
2.41999313796873
 20
71.08066551758338
 30
0.0
 11
0.5800153416896592
 21
71.01933292437434
 31
0.0
  0
ARC
  5
8A0
330
1F
100
AcDbEntity
  8
0
100
AcDbCircle
 10
0.6000042398297865
 20
70.41966598018553
 30
0.0
 40
0.6
100
AcDbArc
 50
91.9091524330007
 51
180.0
  0
ARC
  5
8A1
330
1F
100
AcDbEntity
  8
0
100
AcDbCircle
 10
0.6000042398297865
 20
59.58033246177047
 30
0.0
 40
0.6
100
AcDbArc
 50
180.0
 51
268.0908475669992
  0
LINE
  5
8A2
330
1F
100
AcDbEntity
  8
0
100
AcDbLine
 10
0.5800153416896592
 20
58.98066551758347
 30
0.0
 11
3.00000423982874
 21
58.89999922097853
 31
0.0
  0
POINT
  5
8A3
330
1F
100
AcDbEntity
  8
0
100
AcDbPoint
 10
0.0000042398307869
 20
54.99999922097845
 30
0.0
  0
POINT
  5
8A4
330
1F
100
AcDbEntity
  8
0
100
AcDbPoint
 10
0.0000042398307869
 20
61.99999922097845
 30
0.0
  0
ARC
  5
8A5
330
1F
100
AcDbEntity
  8
0
100
AcDbCircle
 10
2.400004239829968
 20
57.68033246177036
 30
0.0
 40
0.6
100
AcDbArc
 50
271.9091524330006
 51
0.0
  0
ARC
  5
8A6
330
1F
100
AcDbEntity
  8
0
100
AcDbCircle
 10
2.400004239829968
 20
61.31966598018561
 30
0.0
 40
0.6
100
AcDbArc
 50
0.0
 51
88.09084756699929
  0
ARC
  5
8A7
330
1F
100
AcDbEntity
  8
0
100
AcDbCircle
 10
0.6000042398297865
 20
62.5803324617716
 30
0.0
 40
0.6
100
AcDbArc
 50
180.0
 51
268.0908475669992
  0
ARC
  5
8A8
330
1F
100
AcDbEntity
  8
0
100
AcDbCircle
 10
0.6000042398297865
 20
56.41966598018552
 30
0.0
 40
0.6
100
AcDbArc
 50
91.9091524330007
 51
180.0
  0
ARC
  5
8A9
330
1F
100
AcDbEntity
  8
0
100
AcDbCircle
 10
0.6000042398297865
 20
55.5803324617716
 30
0.0
 40
0.6
100
AcDbArc
 50
180.0
 51
268.0908475669992
  0
LINE
  5
8AA
330
1F
100
AcDbEntity
  8
0
100
AcDbLine
 10
0.0000042398307869
 20
56.41966598018552
 30
0.0
 11
0.0000042398307869
 21
55.5803324617716
 31
0.0
  0
LINE
  5
8AB
330
1F
100
AcDbEntity
  8
0
100
AcDbLine
 10
0.5800153416896592
 20
54.98066551758234
 30
0.0
 11
2.41999313796873
 21
54.91933292437352
 31
0.0
  0
LINE
  5
8AC
330
1F
100
AcDbEntity
  8
0
100
AcDbLine
 10
2.41999313796873
 20
57.08066551758339
 30
0.0
 11
0.5800153416896592
 21
57.01933292437434
 31
0.0
  0
LINE
  5
8AD
330
1F
100
AcDbEntity
  8
0
100
AcDbLine
 10
3.000004239830786
 20
61.31966598018561
 30
0.0
 11
3.000004239830786
 21
57.68033246177036
 31
0.0
  0
LINE
  5
8AE
330
1F
100
AcDbEntity
  8
0
100
AcDbLine
 10
0.5800153416896592
 20
61.98066551758234
 30
0.0
 11
2.41999313796873
 21
61.91933292437352
 31
0.0
  0
ARC
  5
8AF
330
1F
100
AcDbEntity
  8
0
100
AcDbCircle
 10
2.400004239829968
 20
54.31966598018653
 30
0.0
 40
0.6
100
AcDbArc
 50
0.0
 51
88.09084756699929
  0
ARC
  5
8B0
330
1F
100
AcDbEntity
  8
0
100
AcDbCircle
 10
2.400004239829968
 20
36.68033246177037
 30
0.0
 40
0.6
100
AcDbArc
 50
271.9091524330006
 51
0.0
  0
LINE
  5
8B1
330
1F
100
AcDbEntity
  8
0
100
AcDbLine
 10
3.000004239830786
 20
47.31966598018653
 30
0.0
 11
3.000004239830786
 21
43.68033246177036
 31
0.0
  0
POINT
  5
8B2
330
1F
100
AcDbEntity
  8
0
100
AcDbPoint
 10
0.0000042398307869
 20
47.99999922097934
 30
0.0
  0
ARC
  5
8B3
330
1F
100
AcDbEntity
  8
0
100
AcDbCircle
 10
2.400004239829968
 20
47.31966598018653
 30
0.0
 40
0.6
100
AcDbArc
 50
0.0
 51
88.09084756699929
  0
ARC
  5
8B4
330
1F
100
AcDbEntity
  8
0
100
AcDbCircle
 10
2.400004239829968
 20
50.68033246177036
 30
0.0
 40
0.6
100
AcDbArc
 50
271.9091524330006
 51
0.0
  0
ARC
  5
8B5
330
1F
100
AcDbEntity
  8
0
100
AcDbCircle
 10
0.6000042398297865
 20
49.41966598018552
 30
0.0
 40
0.6
100
AcDbArc
 50
91.9091524330007
 51
180.0
  0
ARC
  5
8B6
330
1F
100
AcDbEntity
  8
0
100
AcDbCircle
 10
0.6000042398297865
 20
48.58033246177161
 30
0.0
 40
0.6
100
AcDbArc
 50
180.0
 51
268.0908475669992
  0
LINE
  5
8B7
330
1F
100
AcDbEntity
  8
0
100
AcDbLine
 10
0.0000042398307869
 20
49.41966598018552
 30
0.0
 11
0.0000042398307869
 21
48.58033246177161
 31
0.0
  0
LINE
  5
8B8
330
1F
100
AcDbEntity
  8
0
100
AcDbLine
 10
0.5800153416896592
 20
47.98066551758346
 30
0.0
 11
2.41999313796873
 21
47.91933292437351
 31
0.0
  0
LINE
  5
8B9
330
1F
100
AcDbEntity
  8
0
100
AcDbLine
 10
2.41999313796873
 20
50.08066551758338
 30
0.0
 11
0.5800153416896592
 21
50.01933292437434
 31
0.0
  0
POINT
  5
8BA
330
1F
100
AcDbEntity
  8
0
100
AcDbPoint
 10
0.0000042398307869
 20
40.99999922097845
 30
0.0
  0
ARC
  5
8BB
330
1F
100
AcDbEntity
  8
0
100
AcDbCircle
 10
2.400004239829968
 20
40.31966598018562
 30
0.0
 40
0.6
100
AcDbArc
 50
0.0
 51
88.09084756699929
  0
ARC
  5
8BC
330
1F
100
AcDbEntity
  8
0
100
AcDbCircle
 10
2.400004239829968
 20
43.68033246177036
 30
0.0
 40
0.6
100
AcDbArc
 50
271.9091524330006
 51
0.0
  0
ARC
  5
8BD
330
1F
100
AcDbEntity
  8
0
100
AcDbCircle
 10
0.6000042398297865
 20
42.41966598018552
 30
0.0
 40
0.6
100
AcDbArc
 50
91.9091524330007
 51
180.0
  0
ARC
  5
8BE
330
1F
100
AcDbEntity
  8
0
100
AcDbCircle
 10
0.6000042398297865
 20
41.5803324617716
 30
0.0
 40
0.6
100
AcDbArc
 50
180.0
 51
268.0908475669992
  0
LINE
  5
8BF
330
1F
100
AcDbEntity
  8
0
100
AcDbLine
 10
0.0000042398307869
 20
42.41966598018552
 30
0.0
 11
0.0000042398307869
 21
41.5803324617716
 31
0.0
  0
LINE
  5
8C0
330
1F
100
AcDbEntity
  8
0
100
AcDbLine
 10
0.5800153416896592
 20
40.98066551758345
 30
0.0
 11
2.41999313796873
 21
40.91933292437352
 31
0.0
  0
LINE
  5
8C1
330
1F
100
AcDbEntity
  8
0
100
AcDbLine
 10
2.41999313796873
 20
43.08066551758336
 30
0.0
 11
0.5800153416896592
 21
43.01933292437434
 31
0.0
  0
LINE
  5
8C2
330
1F
100
AcDbEntity
  8
0
100
AcDbLine
 10
3.000004239830786
 20
40.31966598018562
 30
0.0
 11
3.000004239830786
 21
36.68033246177037
 31
0.0
  0
ARC
  5
8C3
330
1F
100
AcDbEntity
  8
0
100
AcDbCircle
 10
0.6000042398297865
 20
27.58033246177046
 30
0.0
 40
0.6
100
AcDbArc
 50
180.0
 51
268.0908475669992
  0
LINE
  5
8C4
330
1F
100
AcDbEntity
  8
0
100
AcDbLine
 10
9.700004239829919
 20
31.47381329941048
 30
0.0
 11
9.700004239829919
 21
22.47381329941048
 31
0.0
  0
LINE
  5
8C5
330
1F
100
AcDbEntity
  8
0
100
AcDbLine
 10
8.00000423982874
 20
31.47381329941048
 30
0.0
 11
8.00000423982874
 21
22.47381329941048
 31
0.0
  0
LINE
  5
8C6
330
1F
100
AcDbEntity
  8
0
100
AcDbLine
 10
5.000004239830786
 20
32.99999922097936
 30
0.0
 11
5.000004239830786
 21
20.99999922097845
 31
0.0
  0
LINE
  5
8C7
330
1F
100
AcDbEntity
  8
0
100
AcDbLine
 10
4.500004239830786
 20
32.99999922097936
 30
0.0
 11
4.500004239830786
 21
20.99999922097935
 31
0.0
  0
LINE
  5
8C8
330
1F
100
AcDbEntity
  8
0
100
AcDbLine
 10
3.700004239829921
 20
32.99999922097936
 30
0.0
 11
3.700004239829921
 21
21.09999922097745
 31
0.0
  0
LINE
  5
8C9
330
1F
100
AcDbEntity
  8
0
100
AcDbLine
 10
9.500004239830786
 20
30.99999922097936
 30
0.0
 11
9.500004239830786
 21
22.99999922097845
 31
0.0
  0
LINE
  5
8CA
330
1F
100
AcDbEntity
  8
0
100
AcDbLine
 10
8.700004239829922
 20
30.99999922097936
 30
0.0
 11
8.700004239829922
 21
22.99999922097845
 31
0.0
  0
LINE
  5
8CB
330
1F
100
AcDbEntity
  8
0
100
AcDbLine
 10
8.100004239830695
 20
30.99999922097936
 30
0.0
 11
8.100004239830695
 21
22.99999922097845
 31
0.0
  0
ARC
  5
8CC
330
1F
100
AcDbEntity
  8
0
100
AcDbCircle
 10
2.400004239829968
 20
29.68033246177038
 30
0.0
 40
0.6
100
AcDbArc
 50
271.9091524330006
 51
0.0
  0
ARC
  5
8CD
330
1F
100
AcDbEntity
  8
0
100
AcDbCircle
 10
0.6000042398297865
 20
28.41966598018643
 30
0.0
 40
0.6
100
AcDbArc
 50
91.9091524330007
 51
180.0
  0
LINE
  5
8CE
330
1F
100
AcDbEntity
  8
0
100
AcDbLine
 10
0.0000042398307869
 20
28.41966598018643
 30
0.0
 11
0.0000042398307869
 21
27.58033246177046
 31
0.0
  0
LINE
  5
8CF
330
1F
100
AcDbEntity
  8
0
100
AcDbLine
 10
2.41999313796873
 20
29.08066551758338
 30
0.0
 11
0.5800153416896592
 21
29.01933292437433
 31
0.0
  0
LINE
  5
8D0
330
1F
100
AcDbEntity
  8
0
100
AcDbLine
 10
6.000004239829877
 20
32.97381329941137
 30
0.0
 11
5.000004239830786
 21
32.97381329941137
 31
0.0
  0
LINE
  5
8D1
330
1F
100
AcDbEntity
  8
0
100
AcDbLine
 10
9.700004239829919
 20
31.47381329941048
 30
0.0
 11
8.00000423982874
 21
31.47381329941048
 31
0.0
  0
LINE
  5
8D2
330
1F
100
AcDbEntity
  8
0
100
AcDbLine
 10
5.000004239830786
 20
32.99999922097936
 30
0.0
 11
3.700004239829921
 21
32.99999922097936
 31
0.0
  0
POINT
  5
8D3
330
1F
100
AcDbEntity
  8
0
100
AcDbPoint
 10
0.0000042398307869
 20
33.99999922097845
 30
0.0
  0
ARC
  5
8D4
330
1F
100
AcDbEntity
  8
0
100
AcDbCircle
 10
2.400004239829968
 20
33.31966598018562
 30
0.0
 40
0.6
100
AcDbArc
 50
0.0
 51
88.09084756699929
  0
LINE
  5
8D5
330
1F
100
AcDbEntity
  8
0
100
AcDbLine
 10
9.500004239830786
 20
30.99999922097936
 30
0.0
 11
8.00000423982874
 21
30.99999922097936
 31
0.0
  0
ARC
  5
8D6
330
1F
100
AcDbEntity
  8
0
100
AcDbCircle
 10
0.6000042398297865
 20
35.41966598018642
 30
0.0
 40
0.6
100
AcDbArc
 50
91.9091524330007
 51
180.0
  0
ARC
  5
8D7
330
1F
100
AcDbEntity
  8
0
100
AcDbCircle
 10
0.6000042398297865
 20
34.5803324617716
 30
0.0
 40
0.6
100
AcDbArc
 50
180.0
 51
268.0908475669992
  0
LINE
  5
8D8
330
1F
100
AcDbEntity
  8
0
100
AcDbLine
 10
0.0000042398307869
 20
35.41966598018642
 30
0.0
 11
0.0000042398307869
 21
34.5803324617716
 31
0.0
  0
LINE
  5
8D9
330
1F
100
AcDbEntity
  8
0
100
AcDbLine
 10
0.5800153416896592
 20
33.98066551758232
 30
0.0
 11
2.41999313796873
 21
33.91933292437352
 31
0.0
  0
LINE
  5
8DA
330
1F
100
AcDbEntity
  8
0
100
AcDbLine
 10
2.41999313796873
 20
36.08066551758338
 30
0.0
 11
0.5800153416896592
 21
36.01933292437434
 31
0.0
  0
LINE
  5
8DB
330
1F
100
AcDbEntity
  8
0
100
AcDbLine
 10
3.000004239830786
 20
33.31966598018562
 30
0.0
 11
3.000004239830786
 21
29.68033246177038
 31
0.0
  0
LINE
  5
8DC
330
1F
100
AcDbEntity
  8
0
100
AcDbLine
 10
6.000004239829877
 20
20.97381329941048
 30
0.0
 11
5.000004239830786
 21
20.97381329941048
 31
0.0
  0
LINE
  5
8DD
330
1F
100
AcDbEntity
  8
0
100
AcDbLine
 10
5.000004239830786
 20
20.99999922097935
 30
0.0
 11
3.700004239829921
 21
20.99999922097935
 31
0.0
  0
LINE
  5
8DE
330
1F
100
AcDbEntity
  8
0
100
AcDbLine
 10
9.700004239829919
 20
22.47381329941048
 30
0.0
 11
8.00000423982874
 21
22.47381329941048
 31
0.0
  0
POINT
  5
8DF
330
1F
100
AcDbEntity
  8
0
100
AcDbPoint
 10
0.0000042398307869
 20
21.99999922097845
 30
0.0
  0
POINT
  5
8E0
330
1F
100
AcDbEntity
  8
0
100
AcDbPoint
 10
0.0000042398307869
 20
26.99999922097845
 30
0.0
  0
ARC
  5
8E1
330
1F
100
AcDbEntity
  8
0
100
AcDbCircle
 10
2.500004239830786
 20
22.58361025497129
 30
0.0
 40
0.5
100
AcDbArc
 50
271.9091524330006
 51
0.0
  0
ARC
  5
8E2
330
1F
100
AcDbEntity
  8
0
100
AcDbCircle
 10
2.400004239829968
 20
26.31966598018653
 30
0.0
 40
0.6
100
AcDbArc
 50
0.0
 51
88.09084756699929
  0
LINE
  5
8E3
330
1F
100
AcDbEntity
  8
0
100
AcDbLine
 10
9.500004239830786
 20
22.99999922097845
 30
0.0
 11
8.00000423982874
 21
22.99999922097845
 31
0.0
  0
LINE
  5
8E4
330
1F
100
AcDbEntity
  8
0
100
AcDbLine
 10
2.516661654945892
 20
22.08388780148129
 30
0.0
 11
0.5800153416896592
 21
22.01933292437434
 31
0.0
  0
LINE
  5
8E5
330
1F
100
AcDbEntity
  8
0
100
AcDbLine
 10
3.000004239830786
 20
26.31966598018653
 30
0.0
 11
3.000004239830786
 21
22.58361025497129
 31
0.0
  0
LINE
  5
8E6
330
1F
100
AcDbEntity
  8
0
100
AcDbLine
 10
0.5800153416896592
 20
26.98066551758234
 30
0.0
 11
2.41999313796873
 21
26.91933292437442
 31
0.0
  0
ARC
  5
8E7
330
1F
100
AcDbEntity
  8
0
100
AcDbCircle
 10
0.6000042398297865
 20
21.41966598018552
 30
0.0
 40
0.6
100
AcDbArc
 50
91.9091524330007
 51
180.0
  0
LINE
  5
8E8
330
1F
100
AcDbEntity
  8
0
100
AcDbLine
 10
54.50000423983079
 20
54.97381329941049
 30
0.0
 11
54.50000423983079
 21
48.97381329941049
 31
0.0
  0
LINE
  5
8E9
330
1F
100
AcDbEntity
  8
0
100
AcDbLine
 10
33.50000423983078
 20
48.97381329941049
 30
0.0
 11
33.50000423983078
 21
54.97381329941049
 31
0.0
  0
LINE
  5
8EA
330
1F
100
AcDbEntity
  8
0
100
AcDbLine
 10
33.00000423983078
 20
82.9738132994105
 30
0.0
 11
33.00000423983078
 21
84.97381329940958
 31
0.0
  0
LINE
  5
8EB
330
1F
100
AcDbEntity
  8
0
100
AcDbLine
 10
33.00000423983078
 20
75.97381329941048
 30
0.0
 11
33.00000423983078
 21
77.9738132994105
 31
0.0
  0
LINE
  5
8EC
330
1F
100
AcDbEntity
  8
0
100
AcDbLine
 10
33.50000423983078
 20
63.97381329941049
 30
0.0
 11
33.50000423983078
 21
68.97381329940959
 31
0.0
  0
LINE
  5
8ED
330
1F
100
AcDbEntity
  8
0
100
AcDbLine
 10
33.50000423983078
 20
56.97381329941049
 30
0.0
 11
33.50000423983078
 21
61.97381329941049
 31
0.0
  0
LINE
  5
8EE
330
1F
100
AcDbEntity
  8
0
100
AcDbLine
 10
56.00000423983079
 20
82.9738132994105
 30
0.0
 11
56.00000423983079
 21
84.97381329940958
 31
0.0
  0
LINE
  5
8EF
330
1F
100
AcDbEntity
  8
0
100
AcDbLine
 10
55.00000423983077
 20
82.9738132994105
 30
0.0
 11
55.00000423983077
 21
84.97381329940958
 31
0.0
  0
LINE
  5
8F0
330
1F
100
AcDbEntity
  8
0
100
AcDbLine
 10
57.00000423983079
 20
82.9738132994105
 30
0.0
 11
55.00000423983077
 21
82.9738132994105
 31
0.0
  0
LINE
  5
8F1
330
1F
100
AcDbEntity
  8
0
100
AcDbLine
 10
57.00000423983079
 20
84.97381329940958
 30
0.0
 11
55.00000423983077
 21
84.97381329940958
 31
0.0
  0
LINE
  5
8F2
330
1F
100
AcDbEntity
  8
0
100
AcDbLine
 10
56.00000423983079
 20
75.97381329941048
 30
0.0
 11
56.00000423983079
 21
77.9738132994105
 31
0.0
  0
LINE
  5
8F3
330
1F
100
AcDbEntity
  8
0
100
AcDbLine
 10
55.00000423983077
 20
75.97381329941048
 30
0.0
 11
55.00000423983077
 21
77.9738132994105
 31
0.0
  0
LINE
  5
8F4
330
1F
100
AcDbEntity
  8
0
100
AcDbLine
 10
57.00000423983079
 20
75.97381329941048
 30
0.0
 11
55.00000423983077
 21
75.97381329941048
 31
0.0
  0
LINE
  5
8F5
330
1F
100
AcDbEntity
  8
0
100
AcDbLine
 10
57.00000423983079
 20
77.9738132994105
 30
0.0
 11
55.00000423983077
 21
77.9738132994105
 31
0.0
  0
LINE
  5
8F6
330
1F
100
AcDbEntity
  8
0
100
AcDbLine
 10
56.00000423983079
 20
61.97381329941049
 30
0.0
 11
56.00000423983079
 21
63.97381329941049
 31
0.0
  0
LINE
  5
8F7
330
1F
100
AcDbEntity
  8
0
100
AcDbLine
 10
55.00000423983077
 20
61.97381329941049
 30
0.0
 11
55.00000423983077
 21
63.97381329941049
 31
0.0
  0
LINE
  5
8F8
330
1F
100
AcDbEntity
  8
0
100
AcDbLine
 10
54.50000423983079
 20
68.97381329940959
 30
0.0
 11
54.50000423983079
 21
63.97381329941049
 31
0.0
  0
LINE
  5
8F9
330
1F
100
AcDbEntity
  8
0
100
AcDbLine
 10
56.00000423983079
 20
68.97381329940959
 30
0.0
 11
56.00000423983079
 21
70.97381329941048
 31
0.0
  0
LINE
  5
8FA
330
1F
100
AcDbEntity
  8
0
100
AcDbLine
 10
55.00000423983077
 20
68.97381329940959
 30
0.0
 11
55.00000423983077
 21
70.97381329941048
 31
0.0
  0
LINE
  5
8FB
330
1F
100
AcDbEntity
  8
0
100
AcDbLine
 10
54.50000423983079
 20
61.97381329941049
 30
0.0
 11
54.50000423983079
 21
56.97381329941049
 31
0.0
  0
LINE
  5
8FC
330
1F
100
AcDbEntity
  8
0
100
AcDbLine
 10
56.00000423983079
 20
54.97381329941049
 30
0.0
 11
56.00000423983079
 21
56.97381329941049
 31
0.0
  0
LINE
  5
8FD
330
1F
100
AcDbEntity
  8
0
100
AcDbLine
 10
55.00000423983077
 20
54.97381329941049
 30
0.0
 11
55.00000423983077
 21
56.97381329941049
 31
0.0
  0
LINE
  5
8FE
330
1F
100
AcDbEntity
  8
0
100
AcDbLine
 10
39.00000423983078
 20
49.97381329941049
 30
0.0
 11
49.00000423983079
 21
49.97381329941049
 31
0.0
  0
LINE
  5
8FF
330
1F
100
AcDbEntity
  8
0
100
AcDbLine
 10
54.50000423983079
 20
48.97381329941049
 30
0.0
 11
33.50000423983078
 21
48.97381329941049
 31
0.0
  0
LINE
  5
900
330
1F
100
AcDbEntity
  8
0
100
AcDbLine
 10
33.00000423983078
 20
47.97381329941049
 30
0.0
 11
33.00000423983078
 21
49.97381329941049
 31
0.0
  0
ARC
  5
901
330
1F
100
AcDbEntity
  8
0
100
AcDbCircle
 10
39.00000423983078
 20
50.4738132994105
 30
0.0
 40
0.5
100
AcDbArc
 50
251.3748222726488
 51
270.0
  0
ARC
  5
902
330
1F
100
AcDbEntity
  8
0
100
AcDbCircle
 10
49.00000423983079
 20
50.4738132994105
 30
0.0
 40
0.5
100
AcDbArc
 50
270.0
 51
288.625177727351
  0
LINE
  5
903
330
1F
100
AcDbEntity
  8
0
100
AcDbLine
 10
56.00000423983079
 20
47.97381329941049
 30
0.0
 11
56.00000423983079
 21
49.97381329941049
 31
0.0
  0
LINE
  5
904
330
1F
100
AcDbEntity
  8
0
100
AcDbLine
 10
55.00000423983077
 20
47.97381329941049
 30
0.0
 11
55.00000423983077
 21
49.97381329941049
 31
0.0
  0
LINE
  5
905
330
1F
100
AcDbEntity
  8
0
100
AcDbLine
 10
57.00000423983079
 20
47.97381329941049
 30
0.0
 11
55.00000423983077
 21
47.97381329941049
 31
0.0
  0
LINE
  5
906
330
1F
100
AcDbEntity
  8
0
100
AcDbLine
 10
57.00000423983079
 20
49.97381329941049
 30
0.0
 11
55.00000423983077
 21
49.97381329941049
 31
0.0
  0
LINE
  5
907
330
1F
100
AcDbEntity
  8
0
100
AcDbLine
 10
56.00000423983079
 20
40.97381329941049
 30
0.0
 11
56.00000423983079
 21
42.97381329941049
 31
0.0
  0
LINE
  5
908
330
1F
100
AcDbEntity
  8
0
100
AcDbLine
 10
55.00000423983077
 20
40.97381329941049
 30
0.0
 11
55.00000423983077
 21
42.97381329941049
 31
0.0
  0
LINE
  5
909
330
1F
100
AcDbEntity
  8
0
100
AcDbLine
 10
56.00000423983079
 20
26.97381329941048
 30
0.0
 11
56.00000423983079
 21
28.97381329941048
 31
0.0
  0
LINE
  5
90A
330
1F
100
AcDbEntity
  8
0
100
AcDbLine
 10
55.00000423983077
 20
26.97381329941048
 30
0.0
 11
55.00000423983077
 21
28.97381329941048
 31
0.0
  0
LINE
  5
90B
330
1F
100
AcDbEntity
  8
0
100
AcDbLine
 10
56.00000423983079
 20
33.97381329941048
 30
0.0
 11
56.00000423983079
 21
35.97381329941049
 31
0.0
  0
LINE
  5
90C
330
1F
100
AcDbEntity
  8
0
100
AcDbLine
 10
55.00000423983077
 20
33.97381329941048
 30
0.0
 11
55.00000423983077
 21
35.97381329941049
 31
0.0
  0
LINE
  5
90D
330
1F
100
AcDbEntity
  8
0
100
AcDbLine
 10
58.00000423983078
 20
3.585959456242334
 30
0.0
 11
5.000004239830786
 21
4.973813299410493
 31
0.0
  0
LINE
  5
90E
330
1F
100
AcDbEntity
  8
0
100
AcDbLine
 10
4.000004239829877
 20
4.999999220979361
 30
0.0
 11
58.00000423983078
 21
3.585959456242334
 31
0.0
  0
LINE
  5
90F
330
1F
100
AcDbEntity
  8
0
100
AcDbLine
 10
0.0000042398307869
 20
-0.0000007790208656
 30
0.0
 11
58.00000423983078
 21
-0.0000007790208656
 31
0.0
  0
LINE
  5
910
330
1F
100
AcDbEntity
  8
0
100
AcDbLine
 10
4.000004239829877
 20
4.999999220979361
 30
0.0
 11
0.0000042398307869
 21
4.895255534702528
 31
0.0
  0
LINE
  5
911
330
1F
100
AcDbEntity
  8
0
100
AcDbLine
 10
31.10000423982978
 20
3.799999220977497
 30
0.0
 11
31.10000423982978
 21
-0.0000007790208656
 31
0.0
  0
LINE
  5
912
330
1F
100
AcDbEntity
  8
0
100
AcDbLine
 10
26.90000423982997
 20
3.799999220977497
 30
0.0
 11
26.90000423982997
 21
-0.0000007790208656
 31
0.0
  0
LINE
  5
913
330
1F
100
AcDbEntity
  8
0
100
AcDbLine
 10
23.50000423983078
 20
3.799999220977497
 30
0.0
 11
34.50000423982988
 21
3.799999220977497
 31
0.0
  0
LINE
  5
914
330
1F
100
AcDbEntity
  8
0
100
AcDbLine
 10
23.50000423983078
 20
4.4893737503794
 30
0.0
 11
23.50000423983078
 21
3.799999220977497
 31
0.0
  0
LINE
  5
915
330
1F
100
AcDbEntity
  8
0
100
AcDbLine
 10
34.50000423982988
 20
4.201328613119582
 30
0.0
 11
34.50000423982988
 21
3.799999220977497
 31
0.0
  0
LINE
  5
916
330
1F
100
AcDbEntity
  8
0
100
AcDbLine
 10
58.00000423983078
 20
-0.0000007790208656
 30
0.0
 11
58.00000423983078
 21
3.585959456242334
 31
0.0
  0
LINE
  5
917
330
1F
100
AcDbEntity
  8
0
100
AcDbLine
 10
41.15000423982997
 20
120.9738132994105
 30
0.0
 11
41.15000423982997
 21
124.3738132994103
 31
0.0
  0
LINE
  5
918
330
1F
100
AcDbEntity
  8
0
100
AcDbLine
 10
41.15000423982997
 20
124.3738132994103
 30
0.0
 11
47.45000423982992
 21
124.3738132994103
 31
0.0
  0
LINE
  5
919
330
1F
100
AcDbEntity
  8
0
100
AcDbLine
 10
47.45000423982992
 20
124.3738132994103
 30
0.0
 11
47.45000423982992
 21
120.9738132994105
 31
0.0
  0
LINE
  5
91A
330
1F
100
AcDbEntity
  8
0
100
AcDbLine
 10
15.60000423982978
 20
126.2738132994104
 30
0.0
 11
15.60000423982978
 21
127.5738132994103
 31
0.0
  0
LINE
  5
91B
330
1F
100
AcDbEntity
  8
0
100
AcDbLine
 10
15.60000423982978
 20
127.5738132994103
 30
0.0
 11
24.9450042398298
 21
127.5738132994103
 31
0.0
  0
LINE
  5
91C
330
1F
100
AcDbEntity
  8
0
100
AcDbLine
 10
24.9450042398298
 20
127.5738132994103
 30
0.0
 11
24.9450042398298
 21
120.9738132994105
 31
0.0
  0
LINE
  5
91D
330
1F
100
AcDbEntity
  8
0
100
AcDbLine
 10
15.20000423982877
 20
121.9738132994105
 30
0.0
 11
15.20000423982877
 21
126.2738132994104
 31
0.0
  0
LINE
  5
91E
330
1F
100
AcDbEntity
  8
0
100
AcDbLine
 10
15.20000423982877
 20
126.2738132994104
 30
0.0
 11
21.10000423982977
 21
126.2738132994104
 31
0.0
  0
LINE
  5
91F
330
1F
100
AcDbEntity
  8
0
100
AcDbLine
 10
21.10000423982977
 20
126.2738132994104
 30
0.0
 11
21.10000423982977
 21
121.9738132994105
 31
0.0
  0
LINE
  5
920
330
1F
100
AcDbEntity
  8
0
100
AcDbLine
 10
14.10000423982975
 20
120.9738132994105
 30
0.0
 11
14.10000423982975
 21
121.9738132994105
 31
0.0
  0
LINE
  5
921
330
1F
100
AcDbEntity
  8
0
100
AcDbLine
 10
14.10000423982975
 20
121.9738132994105
 30
0.0
 11
22.70000423982992
 21
121.9738132994105
 31
0.0
  0
LINE
  5
922
330
1F
100
AcDbEntity
  8
0
100
AcDbLine
 10
22.70000423982992
 20
121.9738132994105
 30
0.0
 11
22.70000423982992
 21
120.9738132994105
 31
0.0
  0
LINE
  5
923
330
1F
100
AcDbEntity
  8
0
100
AcDbLine
 10
49.00000423983079
 20
49.99999922097845
 30
0.0
 11
39.00000423983078
 21
49.99999922097845
 31
0.0
  0
LINE
  5
924
330
1F
100
AcDbEntity
  8
0
100
AcDbLine
 10
51.50000423983079
 20
101.9999992209784
 30
0.0
 11
50.00000423983077
 21
101.9999992209784
 31
0.0
  0
LINE
  5
925
330
1F
100
AcDbEntity
  8
0
100
AcDbLine
 10
53.50000423983079
 20
51.99999922097845
 30
0.0
 11
34.50000423982988
 21
51.99999922097845
 31
0.0
  0
LINE
  5
926
330
1F
100
AcDbEntity
  8
0
100
AcDbLine
 10
34.50000423982988
 20
89.99999922097845
 30
0.0
 11
53.50000423983079
 21
89.99999922097845
 31
0.0
  0
LINE
  5
927
330
1F
100
AcDbEntity
  8
0
100
AcDbLine
 10
34.50000423982988
 20
91.99999922097843
 30
0.0
 11
53.50000423983079
 21
91.99999922097843
 31
0.0
  0
LINE
  5
928
330
1F
100
AcDbEntity
  8
0
100
AcDbLine
 10
34.55278242598365
 20
101.9999992209784
 30
0.0
 11
53.44722605367564
 21
101.9999992209784
 31
0.0
  0
LINE
  5
929
330
1F
100
AcDbEntity
  8
0
100
AcDbLine
 10
34.55278242598365
 20
101.9999992209784
 30
0.0
 11
34.55278242598365
 21
91.99999922097843
 31
0.0
  0
LINE
  5
92A
330
1F
100
AcDbEntity
  8
0
100
AcDbLine
 10
53.44722605367564
 20
101.9999992209784
 30
0.0
 11
53.44722605367564
 21
91.99999922097843
 31
0.0
  0
LINE
  5
92B
330
1F
100
AcDbEntity
  8
0
100
AcDbLine
 10
53.50000423983079
 20
91.99999922097843
 30
0.0
 11
53.50000423983079
 21
49.99999922097845
 31
0.0
  0
LINE
  5
92C
330
1F
100
AcDbEntity
  8
0
100
AcDbLine
 10
53.50000423983079
 20
49.99999922097845
 30
0.0
 11
34.50000423982988
 21
49.99999922097845
 31
0.0
  0
LINE
  5
92D
330
1F
100
AcDbEntity
  8
0
100
AcDbLine
 10
34.50000423982988
 20
49.99999922097845
 30
0.0
 11
34.50000423982988
 21
91.99999922097843
 31
0.0
  0
LINE
  5
92E
330
1F
100
AcDbEntity
  8
0
100
AcDbLine
 10
39.00000423983078
 20
51.99999922097845
 30
0.0
 11
39.00000423983078
 21
49.97381329941049
 31
0.0
  0
ARC
  5
92F
330
1F
100
AcDbEntity
  8
0
100
AcDbCircle
 10
35.30000423983074
 20
81.99999922097845
 30
0.0
 40
1.05
100
AcDbArc
 50
139.6324064558172
 51
220.3675935441825
  0
LINE
  5
930
330
1F
100
AcDbEntity
  8
0
100
AcDbLine
 10
49.00000423983079
 20
49.97381329941049
 30
0.0
 11
49.00000423983079
 21
51.99999922097845
 31
0.0
  0
LINE
  5
931
330
1F
100
AcDbEntity
  8
0
100
AcDbLine
 10
34.55278242598365
 20
98.97381329941048
 30
0.0
 11
16.00000423983078
 21
98.97381329941048
 31
0.0
  0
LINE
  5
932
330
1F
100
AcDbEntity
  8
0
100
AcDbLine
 10
34.55278242598365
 20
96.9738132994105
 30
0.0
 11
16.00000423983078
 21
96.9738132994105
 31
0.0
  0
LINE
  5
933
330
1F
100
AcDbEntity
  8
0
100
AcDbLine
 10
34.50000423982988
 20
70.97381329941048
 30
0.0
 11
16.00000423983078
 21
70.97381329941048
 31
0.0
  0
LINE
  5
934
330
1F
100
AcDbEntity
  8
0
100
AcDbLine
 10
34.50000423982988
 20
68.97381329940959
 30
0.0
 11
16.00000423983078
 21
68.97381329940959
 31
0.0
  0
LINE
  5
935
330
1F
100
AcDbEntity
  8
0
100
AcDbLine
 10
34.50000423982988
 20
63.97381329941049
 30
0.0
 11
16.00000423983078
 21
63.97381329941049
 31
0.0
  0
LINE
  5
936
330
1F
100
AcDbEntity
  8
0
100
AcDbLine
 10
34.50000423982988
 20
61.97381329941049
 30
0.0
 11
16.00000423983078
 21
61.97381329941049
 31
0.0
  0
LINE
  5
937
330
1F
100
AcDbEntity
  8
0
100
AcDbLine
 10
34.50000423982988
 20
56.97381329941049
 30
0.0
 11
16.00000423983078
 21
56.97381329941049
 31
0.0
  0
LINE
  5
938
330
1F
100
AcDbEntity
  8
0
100
AcDbLine
 10
34.50000423982988
 20
54.97381329941049
 30
0.0
 11
16.00000423983078
 21
54.97381329941049
 31
0.0
  0
LINE
  5
939
330
1F
100
AcDbEntity
  8
0
100
AcDbLine
 10
49.00000423983079
 20
49.99999922097845
 30
0.0
 11
53.50000423983079
 21
49.99999922097845
 31
0.0
  0
LINE
  5
93A
330
1F
100
AcDbEntity
  8
0
100
AcDbLine
 10
53.50000423983079
 20
49.99999922097845
 30
0.0
 11
53.50000423983079
 21
49.99999922097845
 31
0.0
  0
LINE
  5
93B
330
1F
100
AcDbEntity
  8
0
  6
CONTINUOUS
100
AcDbLine
 10
35.00000446333001
 20
123.1999989795285
 30
0.0
 11
35.00000446333001
 21
124.1999991434784
 31
0.0
  0
LINE
  5
93C
330
1F
100
AcDbEntity
  8
0
  6
CONTINUOUS
100
AcDbLine
 10
35.00000446333001
 20
123.1999989795285
 30
0.0
 11
35.00000446333001
 21
120.9738132994105
 31
0.0
  0
LINE
  5
93D
330
1F
100
AcDbEntity
  8
0
  6
CONTINUOUS
100
AcDbLine
 10
35.30000441937977
 20
120.9738132994105
 30
0.0
 11
35.30000441937977
 21
123.1999989795285
 31
0.0
  0
LINE
  5
93E
330
1F
100
AcDbEntity
  8
0
  6
CONTINUOUS
100
AcDbLine
 10
38.25000429757983
 20
121.3999992432784
 30
0.0
 11
38.25000429757983
 21
120.9738132994105
 31
0.0
  0
LINE
  5
93F
330
1F
100
AcDbEntity
  8
0
  6
CONTINUOUS
100
AcDbLine
 10
41.15000423982997
 20
121.3999992432784
 30
0.0
 11
38.25000429757983
 21
121.3999992432784
 31
0.0
  0
LINE
  5
940
330
1F
100
AcDbEntity
  8
0
  6
CONTINUOUS
100
AcDbLine
 10
35.30000441937977
 20
123.1999989795285
 30
0.0
 11
35.00000446333001
 21
123.1999989795285
 31
0.0
  0
TEXT
  5
A09
330
1F
100
AcDbEntity
  8
0
100
AcDbText
 10
-6.715080903645699
 20
401.5129945001135
 30
0.0
 40
10.0
  1
SCON-CA-20A~300A-CN-*-1/2
100
AcDbText
  0
ENDSEC
  0
SECTION
  2
OBJECTS
  0
DICTIONARY
  5
C
330
0
100
AcDbDictionary
  3
ACAD_GROUP
350
D
  3
ACAD_LAYOUT
350
1A
  3
ACAD_MLINESTYLE
350
17
  3
ACAD_PLOTSETTINGS
350
19
  3
ACAD_PLOTSTYLENAME
350
E
  3
ACDBHEADERROUNDTRIPXREC
350
A8D
  3
ACDBVARIABLEDICTIONARY
350
A0A
  0
DICTIONARY
  5
1AA
330
2
100
AcDbDictionary
280
     1
  3
ACAD_LAYERSTATES
360
1AB
  0
DICTIONARY
  5
A30
330
1F
100
AcDbDictionary
280
     1
  3
ACAD_LAYOUTSELFREF
360
AAE
  0
DICTIONARY
  5
A2E
330
1B
100
AcDbDictionary
280
     1
  3
ACAD_LAYOUTSELFREF
360
AAD
  0
DICTIONARY
  5
D
102
{ACAD_REACTORS
330
C
102
}
330
C
100
AcDbDictionary
  0
DICTIONARY
  5
1A
102
{ACAD_REACTORS
330
C
102
}
330
C
100
AcDbDictionary
  0
DICTIONARY
  5
17
102
{ACAD_REACTORS
330
C
102
}
330
C
100
AcDbDictionary
  3
STANDARD
350
18
  0
DICTIONARY
  5
19
102
{ACAD_REACTORS
330
C
102
}
330
C
100
AcDbDictionary
  0
ACDBDICTIONARYWDFLT
  5
E
102
{ACAD_REACTORS
330
C
102
}
330
C
100
AcDbDictionary
281
     1
  3
Normal
350
F
100
AcDbDictionaryWithDefault
340
F
  0
DICTIONARY
  5
A8D
102
{ACAD_REACTORS
330
C
102
}
330
C
100
AcDbDictionary
  3
CEPSNTYPE
350
A97
  3
FINGERPRINTGUID
350
A98
  3
HYPERLINKBASE
350
A90
  3
INSUNITS
350
A96
  3
LAYOUTDICT
350
A92
  3
LWETCUNION
350
A95
  3
PLOTSETDICT
350
A93
  3
PLOTSTYLNAMDICT
350
A94
  3
PSVPSCALE
350
A9A
  3
PUCSBASE
350
A9D
  3
PUCSORGBACK
350
AA3
  3
PUCSORGBOTTOM
350
A9F
  3
PUCSORGFRONT
350
AA2
  3
PUCSORGLEFT
350
AA0
  3
PUCSORGRIGHT
350
AA1
  3
PUCSORGTOP
350
A9E
  3
PUCSORTHOREF
350
A9B
  3
PUCSORTHOVIEW
350
A9C
  3
STYLESHEET
350
A91
  3
TSTACKALIGN
350
A8E
  3
TSTACKSIZE
350
A8F
  3
UCSBASE
350
AA6
  3
UCSORGBACK
350
AAC
  3
UCSORGBOTTOM
350
AA8
  3
UCSORGFRONT
350
AAB
  3
UCSORGLEFT
350
AA9
  3
UCSORGRIGHT
350
AAA
  3
UCSORGTOP
350
AA7
  3
UCSORTHOREF
350
AA4
  3
UCSORTHOVIEW
350
AA5
  3
VERSIONGUID
350
A99
  0
DICTIONARY
  5
A0A
102
{ACAD_REACTORS
330
C
102
}
330
C
100
AcDbDictionary
  3
DIMASSOC
350
A0C
  3
HIDETEXT
350
A0B
  0
DICTIONARY
  5
1AB
102
{ACAD_REACTORS
330
1AA
102
}
330
1AA
100
AcDbDictionary
  0
XRECORD
  5
AAE
102
{ACAD_REACTORS
330
A30
102
}
330
A30
100
AcDbXrecord
340
1F
  0
XRECORD
  5
AAD
102
{ACAD_REACTORS
330
A2E
102
}
330
A2E
100
AcDbXrecord
340
1B
  0
MLINESTYLE
  5
18
102
{ACAD_REACTORS
330
17
102
}
330
17
100
AcDbMlineStyle
  2
STANDARD
 70
     0
  3

 62
   256
 51
90.0
 52
90.0
 71
     2
 49
0.5
 62
   256
  6
BYLAYER
 49
-0.5
 62
   256
  6
BYLAYER
  0
ACDBPLACEHOLDER
  5
F
102
{ACAD_REACTORS
330
E
102
}
330
E
100
AcDbPlaceHolder
280
     0
  0
XRECORD
  5
A97
102
{ACAD_REACTORS
330
A8D
102
}
330
A8D
100
AcDbXrecord
 90
        0
  0
XRECORD
  5
A98
102
{ACAD_REACTORS
330
A8D
102
}
330
A8D
100
AcDbXrecord
  1
{FB4A5C92-FB95-483D-B68B-5911F70CF8E4}
  0
XRECORD
  5
A90
102
{ACAD_REACTORS
330
A8D
102
}
330
A8D
100
AcDbXrecord
  1

  0
XRECORD
  5
A96
102
{ACAD_REACTORS
330
A8D
102
}
330
A8D
100
AcDbXrecord
 90
        4
  0
XRECORD
  5
A92
102
{ACAD_REACTORS
330
A8D
102
}
330
A8D
100
AcDbXrecord
340
1A
  0
XRECORD
  5
A95
102
{ACAD_REACTORS
330
A8D
102
}
330
A8D
100
AcDbXrecord
 90
    10781
  0
XRECORD
  5
A93
102
{ACAD_REACTORS
330
A8D
102
}
330
A8D
100
AcDbXrecord
340
19
  0
XRECORD
  5
A94
102
{ACAD_REACTORS
330
A8D
102
}
330
A8D
100
AcDbXrecord
340
E
  0
XRECORD
  5
A9A
102
{ACAD_REACTORS
330
A8D
102
}
330
A8D
100
AcDbXrecord
 40
0.0
  0
XRECORD
  5
A9D
102
{ACAD_REACTORS
330
A8D
102
}
330
A8D
100
AcDbXrecord
340
0
  0
XRECORD
  5
AA3
102
{ACAD_REACTORS
330
A8D
102
}
330
A8D
100
AcDbXrecord
 10
0.0
 20
0.0
 30
0.0
  0
XRECORD
  5
A9F
102
{ACAD_REACTORS
330
A8D
102
}
330
A8D
100
AcDbXrecord
 10
0.0
 20
0.0
 30
0.0
  0
XRECORD
  5
AA2
102
{ACAD_REACTORS
330
A8D
102
}
330
A8D
100
AcDbXrecord
 10
0.0
 20
0.0
 30
0.0
  0
XRECORD
  5
AA0
102
{ACAD_REACTORS
330
A8D
102
}
330
A8D
100
AcDbXrecord
 10
0.0
 20
0.0
 30
0.0
  0
XRECORD
  5
AA1
102
{ACAD_REACTORS
330
A8D
102
}
330
A8D
100
AcDbXrecord
 10
0.0
 20
0.0
 30
0.0
  0
XRECORD
  5
A9E
102
{ACAD_REACTORS
330
A8D
102
}
330
A8D
100
AcDbXrecord
 10
0.0
 20
0.0
 30
0.0
  0
XRECORD
  5
A9B
102
{ACAD_REACTORS
330
A8D
102
}
330
A8D
100
AcDbXrecord
340
0
  0
XRECORD
  5
A9C
102
{ACAD_REACTORS
330
A8D
102
}
330
A8D
100
AcDbXrecord
 70
     0
  0
XRECORD
  5
A91
102
{ACAD_REACTORS
330
A8D
102
}
330
A8D
100
AcDbXrecord
  1

  0
XRECORD
  5
A8E
102
{ACAD_REACTORS
330
A8D
102
}
330
A8D
100
AcDbXrecord
 90
        1
  0
XRECORD
  5
A8F
102
{ACAD_REACTORS
330
A8D
102
}
330
A8D
100
AcDbXrecord
 90
       70
  0
XRECORD
  5
AA6
102
{ACAD_REACTORS
330
A8D
102
}
330
A8D
100
AcDbXrecord
340
0
  0
XRECORD
  5
AAC
102
{ACAD_REACTORS
330
A8D
102
}
330
A8D
100
AcDbXrecord
 10
0.0
 20
0.0
 30
0.0
  0
XRECORD
  5
AA8
102
{ACAD_REACTORS
330
A8D
102
}
330
A8D
100
AcDbXrecord
 10
0.0
 20
0.0
 30
0.0
  0
XRECORD
  5
AAB
102
{ACAD_REACTORS
330
A8D
102
}
330
A8D
100
AcDbXrecord
 10
0.0
 20
0.0
 30
0.0
  0
XRECORD
  5
AA9
102
{ACAD_REACTORS
330
A8D
102
}
330
A8D
100
AcDbXrecord
 10
0.0
 20
0.0
 30
0.0
  0
XRECORD
  5
AAA
102
{ACAD_REACTORS
330
A8D
102
}
330
A8D
100
AcDbXrecord
 10
0.0
 20
0.0
 30
0.0
  0
XRECORD
  5
AA7
102
{ACAD_REACTORS
330
A8D
102
}
330
A8D
100
AcDbXrecord
 10
0.0
 20
0.0
 30
0.0
  0
XRECORD
  5
AA4
102
{ACAD_REACTORS
330
A8D
102
}
330
A8D
100
AcDbXrecord
340
0
  0
XRECORD
  5
AA5
102
{ACAD_REACTORS
330
A8D
102
}
330
A8D
100
AcDbXrecord
 70
     0
  0
XRECORD
  5
A99
102
{ACAD_REACTORS
330
A8D
102
}
330
A8D
100
AcDbXrecord
  1
{B5899308-CF78-4749-BA02-A9F7441C51E0}
  0
DICTIONARYVAR
  5
A0C
102
{ACAD_REACTORS
330
A0A
102
}
330
A0A
100
DictionaryVariables
280
     0
  1
2
  0
DICTIONARYVAR
  5
A0B
102
{ACAD_REACTORS
330
A0A
102
}
330
A0A
100
DictionaryVariables
280
     0
  1
1
  0
ENDSEC
  0
EOF
