  0
SECTION
  2
HEADER
  9
$ACADVER
  1
AC1014
  9
$ACADMAINTVER
 70
     9
  9
$DWGCODEPAGE
  3
ANSI_932
  9
$INSBASE
 10
0.0
 20
0.0
 30
0.0
  9
$EXTMIN
 10
-6.158105895806682
 20
0.0000038144637529
 30
0.0
  9
$EXTMAX
 10
278.9999953209118
 20
416.9720302240116
 30
6.483974233579615E+99
  9
$LIMMIN
 10
0.0
 20
0.0
  9
$LIMMAX
 10
420.0
 20
297.0
  9
$ORTHOMODE
 70
     0
  9
$REGENMODE
 70
     1
  9
$FILLMODE
 70
     1
  9
$QTEXTMODE
 70
     0
  9
$MIRRTEXT
 70
     1
  9
$DRAGMODE
 70
     2
  9
$LTSCALE
 40
1.0
  9
$OSMODE
 70
    55
  9
$ATTMODE
 70
     1
  9
$TEXTSIZE
 40
2.5
  9
$TRACEWID
 40
1.0
  9
$TEXTSTYLE
  7
STANDARD
  9
$CLAYER
  8
0
  9
$CELTYPE
  6
BYLAYER
  9
$CECOLOR
 62
   256
  9
$CELTSCALE
 40
1.0
  9
$DELOBJ
 70
     1
  9
$DISPSILH
 70
     0
  9
$DIMSCALE
 40
1.0
  9
$DIMASZ
 40
2.5
  9
$DIMEXO
 40
0.625
  9
$DIMDLI
 40
3.75
  9
$DIMRND
 40
0.0
  9
$DIMDLE
 40
0.0
  9
$DIMEXE
 40
1.25
  9
$DIMTP
 40
0.0
  9
$DIMTM
 40
0.0
  9
$DIMTXT
 40
2.5
  9
$DIMCEN
 40
2.5
  9
$DIMTSZ
 40
0.0
  9
$DIMTOL
 70
     0
  9
$DIMLIM
 70
     0
  9
$DIMTIH
 70
     0
  9
$DIMTOH
 70
     0
  9
$DIMSE1
 70
     0
  9
$DIMSE2
 70
     0
  9
$DIMTAD
 70
     1
  9
$DIMZIN
 70
     8
  9
$DIMBLK
  1

  9
$DIMASO
 70
     1
  9
$DIMSHO
 70
     1
  9
$DIMPOST
  1

  9
$DIMAPOST
  1

  9
$DIMALT
 70
     0
  9
$DIMALTD
 70
     3
  9
$DIMALTF
 40
0.03937007874016
  9
$DIMLFAC
 40
1.0
  9
$DIMTOFL
 70
     1
  9
$DIMTVP
 40
0.0
  9
$DIMTIX
 70
     0
  9
$DIMSOXD
 70
     0
  9
$DIMSAH
 70
     0
  9
$DIMBLK1
  1

  9
$DIMBLK2
  1

  9
$DIMSTYLE
  2
ISO-25
  9
$DIMCLRD
 70
     0
  9
$DIMCLRE
 70
     0
  9
$DIMCLRT
 70
     0
  9
$DIMTFAC
 40
1.0
  9
$DIMGAP
 40
0.625
  9
$DIMJUST
 70
     0
  9
$DIMSD1
 70
     0
  9
$DIMSD2
 70
     0
  9
$DIMTOLJ
 70
     0
  9
$DIMTZIN
 70
     8
  9
$DIMALTZ
 70
     0
  9
$DIMALTTZ
 70
     0
  9
$DIMFIT
 70
     3
  9
$DIMUPT
 70
     0
  9
$DIMUNIT
 70
     2
  9
$DIMDEC
 70
     2
  9
$DIMTDEC
 70
     2
  9
$DIMALTU
 70
     2
  9
$DIMALTTD
 70
     3
  9
$DIMTXSTY
  7
STANDARD
  9
$DIMAUNIT
 70
     0
  9
$LUNITS
 70
     2
  9
$LUPREC
 70
     4
  9
$SKETCHINC
 40
1.0
  9
$FILLETRAD
 40
10.0
  9
$AUNITS
 70
     0
  9
$AUPREC
 70
     0
  9
$MENU
  1
.
  9
$ELEVATION
 40
0.0
  9
$PELEVATION
 40
0.0
  9
$THICKNESS
 40
0.0
  9
$LIMCHECK
 70
     0
  9
$BLIPMODE
 70
     0
  9
$CHAMFERA
 40
10.0
  9
$CHAMFERB
 40
10.0
  9
$CHAMFERC
 40
20.0
  9
$CHAMFERD
 40
0.0
  9
$SKPOLY
 70
     0
  9
$TDCREATE
 40
2455874.709461955
  9
$TDUPDATE
 40
2456013.785386573
  9
$TDINDWG
 40
0.0048816782
  9
$TDUSRTIMER
 40
0.0048798611
  9
$USRTIMER
 70
     1
  9
$ANGBASE
 50
0.0
  9
$ANGDIR
 70
     0
  9
$PDMODE
 70
     0
  9
$PDSIZE
 40
0.0
  9
$PLINEWID
 40
0.0
  9
$COORDS
 70
     1
  9
$SPLFRAME
 70
     0
  9
$SPLINETYPE
 70
     6
  9
$SPLINESEGS
 70
     8
  9
$ATTDIA
 70
     0
  9
$ATTREQ
 70
     1
  9
$HANDLING
 70
 22529
  9
$HANDSEED
  5
84F
  9
$SURFTAB1
 70
     6
  9
$SURFTAB2
 70
     6
  9
$SURFTYPE
 70
     6
  9
$SURFU
 70
     6
  9
$SURFV
 70
     6
  9
$UCSNAME
  2

  9
$UCSORG
 10
0.0
 20
0.0
 30
0.0
  9
$UCSXDIR
 10
1.0
 20
0.0
 30
0.0
  9
$UCSYDIR
 10
0.0
 20
1.0
 30
0.0
  9
$PUCSNAME
  2

  9
$PUCSORG
 10
0.0
 20
0.0
 30
0.0
  9
$PUCSXDIR
 10
1.0
 20
0.0
 30
0.0
  9
$PUCSYDIR
 10
0.0
 20
1.0
 30
0.0
  9
$USERI1
 70
     0
  9
$USERI2
 70
     0
  9
$USERI3
 70
     0
  9
$USERI4
 70
     0
  9
$USERI5
 70
     0
  9
$USERR1
 40
0.0
  9
$USERR2
 40
0.0
  9
$USERR3
 40
0.0
  9
$USERR4
 40
0.0
  9
$USERR5
 40
0.0
  9
$WORLDVIEW
 70
     1
  9
$SHADEDGE
 70
     3
  9
$SHADEDIF
 70
    70
  9
$TILEMODE
 70
     1
  9
$MAXACTVP
 70
    64
  9
$PINSBASE
 10
0.0
 20
0.0
 30
0.0
  9
$PLIMCHECK
 70
     0
  9
$PEXTMIN
 10
1.000000000000000E+20
 20
1.000000000000000E+20
 30
1.000000000000000E+20
  9
$PEXTMAX
 10
-1.000000000000000E+20
 20
-1.000000000000000E+20
 30
-1.000000000000000E+20
  9
$PLIMMIN
 10
0.0
 20
0.0
  9
$PLIMMAX
 10
420.0
 20
297.0
  9
$UNITMODE
 70
     0
  9
$VISRETAIN
 70
     1
  9
$PLINEGEN
 70
     0
  9
$PSLTSCALE
 70
     1
  9
$TREEDEPTH
 70
  3020
  9
$PICKSTYLE
 70
     1
  9
$CMLSTYLE
  2
STANDARD
  9
$CMLJUST
 70
     0
  9
$CMLSCALE
 40
20.0
  9
$PROXYGRAPHICS
 70
     1
  9
$MEASUREMENT
 70
     1
  0
ENDSEC
  0
SECTION
  2
CLASSES
  0
CLASS
  1
ACDBDICTIONARYWDFLT
  2
AcDbDictionaryWithDefault
  3
AutoCAD 2000
 90
        0
280
     0
281
     0
  0
CLASS
  1
ACDBPLACEHOLDER
  2
AcDbPlaceHolder
  3
AutoCAD 2000
 90
        0
280
     0
281
     0
  0
CLASS
  1
LAYOUT
  2
AcDbLayout
  3
AutoCAD 2000
 90
        0
280
     0
281
     0
  0
CLASS
  1
DICTIONARYVAR
  2
AcDbDictionaryVar
  3
AutoCAD 2000
 90
        0
280
     0
281
     0
  0
CLASS
  1
LONG_TRANSACTION
  2
AcDbLongTransaction
  3
AutoCAD 2000
 90
        0
280
     0
281
     0
  0
CLASS
  1
LWPOLYLINE
  2
AcDbPolyline
  3
AutoCAD 2000
 90
        0
280
     0
281
     1
  0
CLASS
  1
HATCH
  2
AcDbHatch
  3
AutoCAD 2000
 90
        0
280
     0
281
     1
  0
CLASS
  1
XRECORD
  2
AcDbXrecord
  3
AutoCAD 2000
 90
        0
280
     0
281
     0
  0
CLASS
  1
LONG_TRANSACTION
  2
AcDbLongTransaction
  3
AutoCAD 2000
 90
        0
280
     0
281
     0
  0
CLASS
  1
LWPOLYLINE
  2
AcDbPolyline
  3
AutoCAD 2000
 90
        0
280
     0
281
     1
  0
CLASS
  1
HATCH
  2
AcDbHatch
  3
AutoCAD 2000
 90
        0
280
     0
281
     1
  0
CLASS
  1
XRECORD
  2
AcDbXrecord
  3
AutoCAD 2000
 90
        0
280
     0
281
     0
  0
CLASS
  1
LONG_TRANSACTION
  2
AcDbLongTransaction
  3
AutoCAD 2000
 90
        0
280
     0
281
     0
  0
CLASS
  1
LWPOLYLINE
  2
AcDbPolyline
  3
AutoCAD 2000
 90
        0
280
     0
281
     1
  0
CLASS
  1
HATCH
  2
AcDbHatch
  3
AutoCAD 2000
 90
        0
280
     0
281
     1
  0
CLASS
  1
XRECORD
  2
AcDbXrecord
  3
AutoCAD 2000
 90
        0
280
     0
281
     0
  0
ENDSEC
  0
SECTION
  2
TABLES
  0
TABLE
  2
VPORT
  5
8
330
0
100
AcDbSymbolTable
 70
     2
  0
VPORT
  5
82C
330
8
100
AcDbSymbolTableRecord
100
AcDbViewportTableRecord
  2
*ACTIVE
 70
     0
 10
0.0
 20
0.0
 11
1.0
 21
1.0
 12
136.4209447125527
 22
208.4860170192376
 13
0.0
 23
0.0
 14
10.0
 24
10.0
 15
10.0
 25
10.0
 16
0.0
 26
0.0
 36
1.0
 17
0.0
 27
0.0
 37
0.0
 40
420.0082304853455
 41
1.46415552855407
 42
50.0
 43
0.0
 44
0.0
 50
0.0
 51
0.0
 71
     0
 72
   100
 73
     1
 74
     3
 75
     0
 76
     0
 77
     0
 78
     0
  0
ENDTAB
  0
TABLE
  2
LTYPE
  5
5
330
0
100
AcDbSymbolTable
 70
     2
  0
LTYPE
  5
14
330
5
100
AcDbSymbolTableRecord
100
AcDbLinetypeTableRecord
  2
BYBLOCK
 70
     0
  3

 72
    65
 73
     0
 40
0.0
  0
LTYPE
  5
15
330
5
100
AcDbSymbolTableRecord
100
AcDbLinetypeTableRecord
  2
BYLAYER
 70
     0
  3

 72
    65
 73
     0
 40
0.0
  0
LTYPE
  5
16
330
5
100
AcDbSymbolTableRecord
100
AcDbLinetypeTableRecord
  2
CONTINUOUS
 70
     0
  3
Solid line
 72
    65
 73
     0
 40
0.0
  0
LTYPE
  5
3BF
330
5
100
AcDbSymbolTableRecord
100
AcDbLinetypeTableRecord
  2
CENTER
 70
     0
  3
__ . __ . __ . __ . __ . __ . __ . __ . __ . __
 72
    65
 73
     4
 40
1.0
 49
0.5
 74
     0
 49
-0.25
 74
     0
 49
0.0
 74
     0
 49
-0.25
 74
     0
  0
ENDTAB
  0
TABLE
  2
LAYER
  5
2
102
{ACAD_XDICTIONARY
360
3C5
102
}
330
0
100
AcDbSymbolTable
 70
     3
  0
LAYER
  5
10
330
2
100
AcDbSymbolTableRecord
100
AcDbLayerTableRecord
  2
0
 70
     0
 62
     7
  6
CONTINUOUS
  0
LAYER
  5
3C1
330
2
100
AcDbSymbolTableRecord
100
AcDbLayerTableRecord
  2
DEFPOINTS
 70
     0
 62
    -7
  6
CONTINUOUS
  0
LAYER
  5
3C2
330
2
100
AcDbSymbolTableRecord
100
AcDbLayerTableRecord
  2
1
 70
     0
 62
     3
  6
CONTINUOUS
  0
ENDTAB
  0
TABLE
  2
STYLE
  5
3
330
0
100
AcDbSymbolTable
 70
     1
  0
STYLE
  5
11
330
3
100
AcDbSymbolTableRecord
100
AcDbTextStyleTableRecord
  2
STANDARD
 70
     0
 40
0.0
 41
1.0
 50
0.0
 71
     0
 42
2.5
  3
txt
  4

  0
ENDTAB
  0
TABLE
  2
VIEW
  5
6
330
0
100
AcDbSymbolTable
 70
     0
  0
ENDTAB
  0
TABLE
  2
UCS
  5
7
330
0
100
AcDbSymbolTable
 70
     0
  0
ENDTAB
  0
TABLE
  2
APPID
  5
9
330
0
100
AcDbSymbolTable
 70
     1
  0
APPID
  5
12
330
9
100
AcDbSymbolTableRecord
100
AcDbRegAppTableRecord
  2
ACAD
 70
     0
  0
ENDTAB
  0
TABLE
  2
DIMSTYLE
  5
A
330
0
100
AcDbSymbolTable
 70
     2
  0
DIMSTYLE
105
27
330
A
100
AcDbSymbolTableRecord
100
AcDbDimStyleTableRecord
  2
ISO-25
 70
     0
  3

  4

  5

  6

  7

 40
1.0
 41
2.5
 42
0.625
 43
3.75
 44
1.25
 45
0.0
 46
0.0
 47
0.0
 48
0.0
140
2.5
141
2.5
142
0.0
143
0.03937007874016
144
1.0
145
0.0
146
1.0
147
0.625
 71
     0
 72
     0
 73
     0
 74
     0
 75
     0
 76
     0
 77
     1
 78
     8
170
     0
171
     3
172
     1
173
     0
174
     0
175
     0
176
     0
177
     0
178
     0
270
     2
271
     2
272
     2
273
     2
274
     3
340
11
275
     0
280
     0
281
     0
282
     0
283
     0
284
     8
285
     0
286
     0
287
     3
288
     0
  0
DIMSTYLE
105
3C4
330
A
100
AcDbSymbolTableRecord
100
AcDbDimStyleTableRecord
  2
STANDARD
 70
     0
  3

  4

  5

  6

  7

 40
1.0
 41
2.5
 42
0.625
 43
3.75
 44
1.25
 45
0.0
 46
0.0
 47
0.0
 48
0.0
140
2.5
141
2.5
142
0.0
143
0.0394
144
1.0
145
0.0
146
1.0
147
0.625
 71
     0
 72
     0
 73
     0
 74
     0
 75
     0
 76
     0
 77
     1
 78
     8
170
     0
171
     4
172
     1
173
     0
174
     0
175
     0
176
     0
177
     0
178
     0
270
     2
271
     4
272
     4
273
     8
274
     4
340
11
275
     0
280
     0
281
     0
282
     0
283
     1
284
     0
285
     0
286
     0
287
     3
288
     0
  0
ENDTAB
  0
TABLE
  2
BLOCK_RECORD
  5
1
330
0
100
AcDbSymbolTable
 70
     5
  0
BLOCK_RECORD
  5
1F
102
{ACAD_XDICTIONARY
360
7F9
102
}
330
1
100
AcDbSymbolTableRecord
100
AcDbBlockTableRecord
  2
*MODEL_SPACE
  0
BLOCK_RECORD
  5
1B
102
{ACAD_XDICTIONARY
360
7F7
102
}
330
1
100
AcDbSymbolTableRecord
100
AcDbBlockTableRecord
  2
*PAPER_SPACE
  0
BLOCK_RECORD
  5
2B
330
1
100
AcDbSymbolTableRecord
100
AcDbBlockTableRecord
  2
A$C35844AFD
  0
BLOCK_RECORD
  5
160
330
1
100
AcDbSymbolTableRecord
100
AcDbBlockTableRecord
  2
A$C413B70EE
  0
BLOCK_RECORD
  5
232
330
1
100
AcDbSymbolTableRecord
100
AcDbBlockTableRecord
  2
A$C40301A48
  0
BLOCK_RECORD
  5
236
330
1
100
AcDbSymbolTableRecord
100
AcDbBlockTableRecord
  2
A$C5CFD6E8C
  0
BLOCK_RECORD
  5
23D
330
1
100
AcDbSymbolTableRecord
100
AcDbBlockTableRecord
  2
A$C3E87127B
  0
ENDTAB
  0
ENDSEC
  0
SECTION
  2
BLOCKS
  0
BLOCK
  5
20
330
1F
100
AcDbEntity
  8
0
100
AcDbBlockBegin
  2
*MODEL_SPACE
 70
     0
 10
0.0
 20
0.0
 30
0.0
  3
*MODEL_SPACE
  1

  0
ENDBLK
  5
21
330
1F
100
AcDbEntity
  8
0
100
AcDbBlockEnd
  0
BLOCK
  5
1C
330
1B
100
AcDbEntity
 67
     1
  8
0
100
AcDbBlockBegin
  2
*PAPER_SPACE
 70
     0
 10
0.0
 20
0.0
 30
0.0
  3
*PAPER_SPACE
  1

  0
ENDBLK
  5
1D
330
1B
100
AcDbEntity
 67
     1
  8
0
100
AcDbBlockEnd
  0
BLOCK
  5
15E
330
2B
100
AcDbEntity
  8
0
100
AcDbBlockBegin
  2
A$C35844AFD
 70
     0
 10
0.0
 20
0.0
 30
0.0
  3
A$C35844AFD
  1

  0
LINE
  5
2C
330
2B
100
AcDbEntity
  8
0
100
AcDbLine
 10
26.70871065379236
 20
4.379166399082007
 30
0.0
 11
26.70871065379236
 21
21.97381495444607
 31
0.0
  0
LINE
  5
2D
330
2B
100
AcDbEntity
  8
0
100
AcDbLine
 10
31.29128634874739
 20
4.259167431349053
 30
0.0
 11
31.29128634874739
 21
21.97381495444505
 31
0.0
  0
LINE
  5
2E
330
2B
100
AcDbEntity
  8
0
100
AcDbLine
 10
5.999998501270398
 20
4.92144311130704
 30
0.0
 11
5.999998501270398
 21
20.97381495444506
 31
0.0
  0
LINE
  5
2F
330
2B
100
AcDbEntity
  8
0
100
AcDbLine
 10
4.999998501270396
 20
21.00000087601403
 30
0.0
 11
4.999998501270396
 21
4.973814954444034
 31
0.0
  0
LINE
  5
30
330
2B
100
AcDbEntity
  8
0
100
AcDbLine
 10
-0.0000014987296026
 20
21.419667635221
 30
0.0
 11
-0.0000014987296026
 21
0.0000008760140418
 31
0.0
  0
LINE
  5
31
330
2B
100
AcDbEntity
  8
0
100
AcDbLine
 10
57.9999985012704
 20
3.585961111277015
 30
0.0
 11
57.9999985012704
 21
120.973814954445
 31
0.0
  0
LINE
  5
32
330
2B
100
AcDbEntity
  8
0
100
AcDbLine
 10
53.4999985012704
 20
86.97381495444506
 30
0.0
 11
53.4999985012704
 21
91.97381495444506
 31
0.0
  0
LINE
  5
33
330
2B
100
AcDbEntity
  8
0
100
AcDbLine
 10
54.49999850127039
 20
96.97381495444506
 30
0.0
 11
54.49999850127039
 21
70.97381495444506
 31
0.0
  0
LINE
  5
34
330
2B
100
AcDbEntity
  8
0
100
AcDbLine
 10
33.49999850127039
 20
70.97381495444506
 30
0.0
 11
33.49999850127039
 21
96.97381495444506
 31
0.0
  0
ARC
  5
35
330
2B
100
AcDbEntity
  8
0
100
AcDbCircle
 10
2.399998501270374
 20
89.31966763522103
 30
0.0
 40
0.6
100
AcDbArc
 50
0.0
 51
88.09084756699943
  0
LINE
  5
36
330
2B
100
AcDbEntity
  8
0
100
AcDbLine
 10
5.999998501270398
 20
82.97381495444602
 30
0.0
 11
5.999998501270398
 21
109.605734381143
 31
0.0
  0
LINE
  5
37
330
2B
100
AcDbEntity
  8
0
100
AcDbLine
 10
4.999998501270396
 20
110.471019933888
 30
0.0
 11
4.999998501270396
 21
83.00000087601405
 31
0.0
  0
LINE
  5
38
330
2B
100
AcDbEntity
  8
0
100
AcDbLine
 10
56.99999850127039
 20
21.97381495444505
 30
0.0
 11
56.99999850127039
 21
103.9738149544449
 31
0.0
  0
LINE
  5
39
330
2B
100
AcDbEntity
  8
0
100
AcDbLine
 10
15.99999850127039
 20
103.9738149544449
 30
0.0
 11
15.99999850127039
 21
21.97381495444505
 31
0.0
  0
LINE
  5
3A
330
2B
100
AcDbEntity
  8
0
100
AcDbLine
 10
28.19999850127038
 20
105.473814954445
 30
0.0
 11
19.99999850127039
 21
105.473814954445
 31
0.0
  0
LINE
  5
3B
330
2B
100
AcDbEntity
  8
0
100
AcDbLine
 10
19.99999850127039
 20
117.4738149544449
 30
0.0
 11
28.19999850127038
 21
117.4738149544449
 31
0.0
  0
LINE
  5
3C
330
2B
100
AcDbEntity
  8
0
100
AcDbLine
 10
19.99999850127039
 20
109.473814954445
 30
0.0
 11
23.19999850127037
 21
109.473814954445
 31
0.0
  0
LINE
  5
3D
330
2B
100
AcDbEntity
  8
0
100
AcDbLine
 10
19.99999850127039
 20
113.4738149544449
 30
0.0
 11
23.19999850127037
 21
113.4738149544449
 31
0.0
  0
LINE
  5
3E
330
2B
100
AcDbEntity
  8
0
100
AcDbLine
 10
32.9999985012704
 20
89.97381495444503
 30
0.0
 11
15.99999850127039
 21
89.97381495444503
 31
0.0
  0
LINE
  5
3F
330
2B
100
AcDbEntity
  8
0
100
AcDbLine
 10
32.9999985012704
 20
91.97381495444506
 30
0.0
 11
15.99999850127039
 21
91.97381495444506
 31
0.0
  0
LINE
  5
40
330
2B
100
AcDbEntity
  8
0
100
AcDbLine
 10
56.99999850127039
 20
96.97381495444506
 30
0.0
 11
53.44722031511543
 21
96.97381495444506
 31
0.0
  0
LINE
  5
41
330
2B
100
AcDbEntity
  8
0
100
AcDbLine
 10
56.99999850127039
 20
98.97381495444506
 30
0.0
 11
53.44722031511543
 21
98.97381495444506
 31
0.0
  0
LINE
  5
42
330
2B
100
AcDbEntity
  8
0
100
AcDbLine
 10
15.99999850127039
 20
103.9738149544449
 30
0.0
 11
57.9999985012704
 21
103.9738149544449
 31
0.0
  0
LINE
  5
43
330
2B
100
AcDbEntity
  8
0
100
AcDbLine
 10
5.999998501270398
 20
120.973814954445
 30
0.0
 11
57.9999985012704
 21
120.973814954445
 31
0.0
  0
LINE
  5
44
330
2B
100
AcDbEntity
  8
0
100
AcDbLine
 10
19.99999850127039
 20
109.473814954445
 30
0.0
 11
19.99999850127039
 21
105.473814954445
 31
0.0
  0
LINE
  5
45
330
2B
100
AcDbEntity
  8
0
100
AcDbLine
 10
-0.0000014987296026
 20
90.58033411680609
 30
0.0
 11
-0.0000014987296026
 21
120.8952571897369
 31
0.0
  0
LINE
  5
46
330
2B
100
AcDbEntity
  8
0
100
AcDbLine
 10
7.999998501270398
 20
120.473814954445
 30
0.0
 11
7.999998501270398
 21
110.9738149544459
 31
0.0
  0
LINE
  5
47
330
2B
100
AcDbEntity
  8
0
100
AcDbLine
 10
8.999998501270397
 20
120.973814954445
 30
0.0
 11
8.999998501270397
 21
110.1347153232679
 31
0.0
  0
LINE
  5
48
330
2B
100
AcDbEntity
  8
0
100
AcDbLine
 10
7.999998501270398
 20
111.000000876014
 30
0.0
 11
7.999998501270398
 21
120.8952571897369
 31
0.0
  0
LINE
  5
49
330
2B
100
AcDbEntity
  8
0
100
AcDbLine
 10
5.999998501270398
 20
120.973814954445
 30
0.0
 11
5.999998501270398
 21
120.9476290328755
 31
0.0
  0
LINE
  5
4A
330
2B
100
AcDbEntity
  8
0
100
AcDbLine
 10
5.999998501270398
 20
120.973814954445
 30
0.0
 11
5.999998501270398
 21
120.9476290328759
 31
0.0
  0
LINE
  5
4B
330
2B
100
AcDbEntity
  8
0
100
AcDbLine
 10
7.999998501270398
 20
120.473814954445
 30
0.0
 11
8.999998501270397
 21
120.473814954445
 31
0.0
  0
LINE
  5
4C
330
2B
100
AcDbEntity
  8
0
100
AcDbLine
 10
3.999998501270396
 20
121.0000008760139
 30
0.0
 11
7.999998501270398
 21
120.8952571897369
 31
0.0
  0
LINE
  5
4D
330
2B
100
AcDbEntity
  8
0
100
AcDbLine
 10
-0.0000014987296026
 20
120.8952571897369
 30
0.0
 11
3.999998501270396
 21
121.0000008760139
 31
0.0
  0
LINE
  5
4E
330
2B
100
AcDbEntity
  8
0
100
AcDbLine
 10
4.999998501270396
 20
110.44483401232
 30
0.0
 11
7.999998501270398
 21
110.9738149544459
 31
0.0
  0
LINE
  5
4F
330
2B
100
AcDbEntity
  8
0
100
AcDbLine
 10
8.999998501270397
 20
110.1347153232679
 30
0.0
 11
5.999998501270398
 21
109.605734381143
 31
0.0
  0
LINE
  5
50
330
2B
100
AcDbEntity
  8
0
100
AcDbLine
 10
7.999998501270398
 20
111.000000876014
 30
0.0
 11
4.999998501270396
 21
110.471019933888
 31
0.0
  0
LINE
  5
51
330
2B
100
AcDbEntity
  8
0
100
AcDbLine
 10
19.99999850127039
 20
113.4738149544449
 30
0.0
 11
19.99999850127039
 21
117.4738149544449
 31
0.0
  0
LINE
  5
52
330
2B
100
AcDbEntity
  8
0
100
AcDbLine
 10
-0.0000014987296026
 20
98.41966763522108
 30
0.0
 11
-0.0000014987296026
 21
97.58033411680608
 31
0.0
  0
POINT
  5
53
330
2B
100
AcDbEntity
  8
0
100
AcDbPoint
 10
-0.0000014987296026
 20
99.00000087601302
 30
0.0
  0
POINT
  5
54
330
2B
100
AcDbEntity
  8
0
100
AcDbPoint
 10
2.999998501270396
 20
99.10000087601305
 30
0.0
  0
ARC
  5
55
330
2B
100
AcDbEntity
  8
0
100
AcDbCircle
 10
2.399998501270374
 20
99.68033411680506
 30
0.0
 40
0.6
100
AcDbArc
 50
271.909152432994
 51
0.0
  0
ARC
  5
56
330
2B
100
AcDbEntity
  8
0
100
AcDbCircle
 10
0.5999985012704201
 20
98.41966763522108
 30
0.0
 40
0.6
100
AcDbArc
 50
91.90915243299405
 51
180.0
  0
LINE
  5
57
330
2B
100
AcDbEntity
  8
0
100
AcDbLine
 10
2.419987399409365
 20
99.08066717261808
 30
0.0
 11
0.5800096031304065
 21
99.019334579409
 31
0.0
  0
LINE
  5
58
330
2B
100
AcDbEntity
  8
0
100
AcDbLine
 10
2.999998501270396
 20
103.319667635221
 30
0.0
 11
2.999998501270396
 21
99.68033411680506
 31
0.0
  0
POINT
  5
59
330
2B
100
AcDbEntity
  8
0
100
AcDbPoint
 10
2.999998501270396
 20
103.9000008760127
 30
0.0
  0
ARC
  5
5A
330
2B
100
AcDbEntity
  8
0
100
AcDbCircle
 10
0.5999985012704201
 20
104.5803341168058
 30
0.0
 40
0.6
100
AcDbArc
 50
180.0
 51
268.0908475670059
  0
LINE
  5
5B
330
2B
100
AcDbEntity
  8
0
100
AcDbLine
 10
0.5800096031304065
 20
103.980667172618
 30
0.0
 11
2.419987399409365
 21
103.919334579409
 31
0.0
  0
ARC
  5
5C
330
2B
100
AcDbEntity
  8
0
100
AcDbCircle
 10
2.399998501270374
 20
103.319667635221
 30
0.0
 40
0.6
100
AcDbArc
 50
0.0
 51
88.09084756699943
  0
POINT
  5
5D
330
2B
100
AcDbEntity
  8
0
100
AcDbPoint
 10
-0.0000014987296026
 20
90.00000087601405
 30
0.0
  0
ARC
  5
5E
330
2B
100
AcDbEntity
  8
0
100
AcDbCircle
 10
2.399998501270374
 20
92.68033411680503
 30
0.0
 40
0.6
100
AcDbArc
 50
271.909152432994
 51
0.0
  0
ARC
  5
5F
330
2B
100
AcDbEntity
  8
0
100
AcDbCircle
 10
0.5999985012704201
 20
91.41966763522106
 30
0.0
 40
0.6
100
AcDbArc
 50
91.90915243299405
 51
180.0
  0
ARC
  5
60
330
2B
100
AcDbEntity
  8
0
100
AcDbCircle
 10
0.5999985012693969
 20
90.58033411680609
 30
0.0
 40
0.6
100
AcDbArc
 50
180.0
 51
268.0908475670059
  0
LINE
  5
61
330
2B
100
AcDbEntity
  8
0
100
AcDbLine
 10
-0.0000014987296026
 20
91.41966763522106
 30
0.0
 11
-0.0000014987296026
 21
90.58033411680609
 31
0.0
  0
LINE
  5
62
330
2B
100
AcDbEntity
  8
0
100
AcDbLine
 10
0.5800096031304065
 20
89.98066717261805
 30
0.0
 11
2.419987399409365
 21
89.91933457940907
 31
0.0
  0
LINE
  5
63
330
2B
100
AcDbEntity
  8
0
100
AcDbLine
 10
2.419987399409365
 20
92.08066717261806
 30
0.0
 11
0.5800096031304065
 21
92.01933457940901
 31
0.0
  0
POINT
  5
64
330
2B
100
AcDbEntity
  8
0
100
AcDbPoint
 10
2.999998501270396
 20
96.90000087601299
 30
0.0
  0
POINT
  5
65
330
2B
100
AcDbEntity
  8
0
100
AcDbPoint
 10
-0.0000014987296026
 20
97.00000087601305
 30
0.0
  0
ARC
  5
66
330
2B
100
AcDbEntity
  8
0
100
AcDbCircle
 10
2.399998501270374
 20
96.31966763522104
 30
0.0
 40
0.6
100
AcDbArc
 50
0.0
 51
88.09084756699943
  0
ARC
  5
67
330
2B
100
AcDbEntity
  8
0
100
AcDbCircle
 10
0.5999985012704201
 20
97.58033411680608
 30
0.0
 40
0.6
100
AcDbArc
 50
180.0
 51
268.0908475670059
  0
LINE
  5
68
330
2B
100
AcDbEntity
  8
0
100
AcDbLine
 10
0.5800096031304065
 20
96.98066717261804
 30
0.0
 11
2.419987399409365
 21
96.91933457940905
 31
0.0
  0
LINE
  5
69
330
2B
100
AcDbEntity
  8
0
100
AcDbLine
 10
2.999998501270396
 20
96.31966763522104
 30
0.0
 11
2.999998501270396
 21
92.68033411680503
 31
0.0
  0
LINE
  5
6A
330
2B
100
AcDbEntity
  8
0
100
AcDbLine
 10
28.19999850127038
 20
105.473814954445
 30
0.0
 11
28.19999850127038
 21
117.4738149544449
 31
0.0
  0
LINE
  5
6B
330
2B
100
AcDbEntity
  8
0
100
AcDbLine
 10
23.19999850127037
 20
107.473814954445
 30
0.0
 11
25.19999850127037
 21
107.473814954445
 31
0.0
  0
LINE
  5
6C
330
2B
100
AcDbEntity
  8
0
100
AcDbLine
 10
23.19999850127037
 20
109.473814954445
 30
0.0
 11
23.19999850127037
 21
107.473814954445
 31
0.0
  0
LINE
  5
6D
330
2B
100
AcDbEntity
  8
0
100
AcDbLine
 10
23.19999850127037
 20
115.4738149544449
 30
0.0
 11
25.19999850127037
 21
115.4738149544449
 31
0.0
  0
LINE
  5
6E
330
2B
100
AcDbEntity
  8
0
100
AcDbLine
 10
23.19999850127037
 20
113.4738149544449
 30
0.0
 11
23.19999850127037
 21
115.4738149544449
 31
0.0
  0
LINE
  5
6F
330
2B
100
AcDbEntity
  8
0
100
AcDbLine
 10
25.19999850127037
 20
107.473814954445
 30
0.0
 11
25.19999850127037
 21
115.4738149544449
 31
0.0
  0
LINE
  5
70
330
2B
100
AcDbEntity
  8
0
100
AcDbLine
 10
33.49999850127039
 20
98.97381495444506
 30
0.0
 11
33.49999850127039
 21
103.9738149544449
 31
0.0
  0
LINE
  5
71
330
2B
100
AcDbEntity
  8
0
100
AcDbLine
 10
32.9999985012704
 20
89.97381495444503
 30
0.0
 11
32.9999985012704
 21
91.97381495444506
 31
0.0
  0
LINE
  5
72
330
2B
100
AcDbEntity
  8
0
100
AcDbLine
 10
55.9999985012704
 20
96.97381495444506
 30
0.0
 11
55.9999985012704
 21
98.97381495444506
 31
0.0
  0
LINE
  5
73
330
2B
100
AcDbEntity
  8
0
100
AcDbLine
 10
54.99999850127039
 20
96.97381495444506
 30
0.0
 11
54.99999850127039
 21
98.97381495444506
 31
0.0
  0
LINE
  5
74
330
2B
100
AcDbEntity
  8
0
100
AcDbLine
 10
54.49999850127039
 20
103.9738149544449
 30
0.0
 11
54.49999850127039
 21
98.97381495444506
 31
0.0
  0
ARC
  5
75
330
2B
100
AcDbEntity
  8
0
100
AcDbCircle
 10
52.9999985012704
 20
91.97381495444503
 30
0.0
 40
0.5
100
AcDbArc
 50
0.0
 51
26.56294527600439
  0
LINE
  5
76
330
2B
100
AcDbEntity
  8
0
100
AcDbLine
 10
55.9999985012704
 20
89.97381495444503
 30
0.0
 11
55.9999985012704
 21
91.97381495444506
 31
0.0
  0
LINE
  5
77
330
2B
100
AcDbEntity
  8
0
100
AcDbLine
 10
54.99999850127039
 20
89.97381495444503
 30
0.0
 11
54.99999850127039
 21
91.97381495444506
 31
0.0
  0
LINE
  5
78
330
2B
100
AcDbEntity
  8
0
100
AcDbLine
 10
56.99999850127039
 20
89.97381495444503
 30
0.0
 11
54.99999850127039
 21
89.97381495444503
 31
0.0
  0
LINE
  5
79
330
2B
100
AcDbEntity
  8
0
100
AcDbLine
 10
56.99999850127039
 20
91.97381495444506
 30
0.0
 11
54.99999850127039
 21
91.97381495444506
 31
0.0
  0
LINE
  5
7A
330
2B
100
AcDbEntity
  8
0
100
AcDbLine
 10
32.9999985012704
 20
47.97381495444507
 30
0.0
 11
15.99999850127039
 21
47.97381495444507
 31
0.0
  0
LINE
  5
7B
330
2B
100
AcDbEntity
  8
0
100
AcDbLine
 10
32.9999985012704
 20
49.97381495444507
 30
0.0
 11
15.99999850127039
 21
49.97381495444507
 31
0.0
  0
LINE
  5
7C
330
2B
100
AcDbEntity
  8
0
100
AcDbLine
 10
56.99999850127039
 20
26.97381495444505
 30
0.0
 11
15.99999850127039
 21
26.97381495444505
 31
0.0
  0
LINE
  5
7D
330
2B
100
AcDbEntity
  8
0
100
AcDbLine
 10
56.99999850127039
 20
28.97381495444506
 30
0.0
 11
15.99999850127039
 21
28.97381495444506
 31
0.0
  0
LINE
  5
7E
330
2B
100
AcDbEntity
  8
0
100
AcDbLine
 10
56.99999850127039
 20
33.97381495444505
 30
0.0
 11
15.99999850127039
 21
33.97381495444505
 31
0.0
  0
LINE
  5
7F
330
2B
100
AcDbEntity
  8
0
100
AcDbLine
 10
56.99999850127039
 20
35.97381495444506
 30
0.0
 11
15.99999850127039
 21
35.97381495444506
 31
0.0
  0
LINE
  5
80
330
2B
100
AcDbEntity
  8
0
100
AcDbLine
 10
56.99999850127039
 20
40.97381495444506
 30
0.0
 11
15.99999850127039
 21
40.97381495444506
 31
0.0
  0
LINE
  5
81
330
2B
100
AcDbEntity
  8
0
100
AcDbLine
 10
56.99999850127039
 20
42.97381495444507
 30
0.0
 11
15.99999850127039
 21
42.97381495444507
 31
0.0
  0
LINE
  5
82
330
2B
100
AcDbEntity
  8
0
100
AcDbLine
 10
56.99999850127039
 20
54.97381495444507
 30
0.0
 11
53.49999850127034
 21
54.97381495444507
 31
0.0
  0
LINE
  5
83
330
2B
100
AcDbEntity
  8
0
100
AcDbLine
 10
56.99999850127039
 20
56.97381495444506
 30
0.0
 11
53.49999850127034
 21
56.97381495444506
 31
0.0
  0
LINE
  5
84
330
2B
100
AcDbEntity
  8
0
100
AcDbLine
 10
56.99999850127039
 20
61.97381495444506
 30
0.0
 11
53.49999850127034
 21
61.97381495444506
 31
0.0
  0
LINE
  5
85
330
2B
100
AcDbEntity
  8
0
100
AcDbLine
 10
15.99999850127039
 20
21.97381495444505
 30
0.0
 11
57.9999985012704
 21
21.97381495444505
 31
0.0
  0
LINE
  5
86
330
2B
100
AcDbEntity
  8
0
100
AcDbLine
 10
32.9999985012704
 20
75.97381495444506
 30
0.0
 11
15.99999850127039
 21
75.97381495444506
 31
0.0
  0
LINE
  5
87
330
2B
100
AcDbEntity
  8
0
100
AcDbLine
 10
32.9999985012704
 20
77.97381495444506
 30
0.0
 11
15.99999850127039
 21
77.97381495444506
 31
0.0
  0
LINE
  5
88
330
2B
100
AcDbEntity
  8
0
100
AcDbLine
 10
32.9999985012704
 20
82.97381495444506
 30
0.0
 11
15.99999850127039
 21
82.97381495444506
 31
0.0
  0
LINE
  5
89
330
2B
100
AcDbEntity
  8
0
100
AcDbLine
 10
32.9999985012704
 20
84.97381495444505
 30
0.0
 11
15.99999850127039
 21
84.97381495444505
 31
0.0
  0
LINE
  5
8A
330
2B
100
AcDbEntity
  8
0
100
AcDbLine
 10
56.99999850127039
 20
63.97381495444506
 30
0.0
 11
53.49999850127034
 21
63.97381495444506
 31
0.0
  0
LINE
  5
8B
330
2B
100
AcDbEntity
  8
0
100
AcDbLine
 10
56.99999850127039
 20
68.97381495444506
 30
0.0
 11
53.49999850127034
 21
68.97381495444506
 31
0.0
  0
LINE
  5
8C
330
2B
100
AcDbEntity
  8
0
100
AcDbLine
 10
56.99999850127039
 20
70.97381495444506
 30
0.0
 11
53.49999850127034
 21
70.97381495444506
 31
0.0
  0
LINE
  5
8D
330
2B
100
AcDbEntity
  8
0
100
AcDbLine
 10
2.999998501270396
 20
54.31966763522105
 30
0.0
 11
2.999998501270396
 21
50.68033411680506
 31
0.0
  0
LINE
  5
8E
330
2B
100
AcDbEntity
  8
0
100
AcDbLine
 10
5.999998501270398
 20
32.97381495444602
 30
0.0
 11
5.999998501270398
 21
70.97381495444506
 31
0.0
  0
LINE
  5
8F
330
2B
100
AcDbEntity
  8
0
100
AcDbLine
 10
4.999998501270396
 20
71.00000087601405
 30
0.0
 11
4.999998501270396
 21
33.00000087601403
 31
0.0
  0
LINE
  5
90
330
2B
100
AcDbEntity
  8
0
100
AcDbLine
 10
2.999998501270396
 20
75.31966763522103
 30
0.0
 11
2.999998501270396
 21
71.68033411680507
 31
0.0
  0
LINE
  5
91
330
2B
100
AcDbEntity
  8
0
100
AcDbLine
 10
4.999998501270396
 20
71.00000087601301
 30
0.0
 11
4.999998501270396
 21
83.00000087601405
 31
0.0
  0
LINE
  5
92
330
2B
100
AcDbEntity
  8
0
100
AcDbLine
 10
4.499998501270396
 20
83.00000087601405
 30
0.0
 11
4.499998501270396
 21
71.00000087601405
 31
0.0
  0
LINE
  5
93
330
2B
100
AcDbEntity
  8
0
100
AcDbLine
 10
3.699998501270328
 20
83.00000087601405
 30
0.0
 11
3.699998501270328
 21
71.10000087601306
 31
0.0
  0
LINE
  5
94
330
2B
100
AcDbEntity
  8
0
100
AcDbLine
 10
9.699998501269419
 20
81.47381495444506
 30
0.0
 11
9.699998501269419
 21
72.47381495444506
 31
0.0
  0
LINE
  5
95
330
2B
100
AcDbEntity
  8
0
100
AcDbLine
 10
7.999998501269374
 20
81.47381495444506
 30
0.0
 11
7.999998501269374
 21
72.47381495444506
 31
0.0
  0
LINE
  5
96
330
2B
100
AcDbEntity
  8
0
100
AcDbLine
 10
9.499998501270397
 20
81.00000087601406
 30
0.0
 11
9.499998501270397
 21
73.00000087601405
 31
0.0
  0
LINE
  5
97
330
2B
100
AcDbEntity
  8
0
100
AcDbLine
 10
8.699998501270329
 20
81.00000087601406
 30
0.0
 11
8.699998501270329
 21
73.00000087601405
 31
0.0
  0
LINE
  5
98
330
2B
100
AcDbEntity
  8
0
100
AcDbLine
 10
8.09999850127042
 20
81.00000087601406
 30
0.0
 11
8.09999850127042
 21
73.00000087601405
 31
0.0
  0
LINE
  5
99
330
2B
100
AcDbEntity
  8
0
100
AcDbLine
 10
2.999998501270396
 20
82.31966763522104
 30
0.0
 11
2.999998501270396
 21
78.68033411680507
 31
0.0
  0
LINE
  5
9A
330
2B
100
AcDbEntity
  8
0
100
AcDbLine
 10
5.999998501270398
 20
82.97381495444602
 30
0.0
 11
4.999998501270396
 21
82.97381495444602
 31
0.0
  0
LINE
  5
9B
330
2B
100
AcDbEntity
  8
0
100
AcDbLine
 10
9.699998501269419
 20
81.47381495444506
 30
0.0
 11
7.999998501269374
 21
81.47381495444506
 31
0.0
  0
LINE
  5
9C
330
2B
100
AcDbEntity
  8
0
100
AcDbLine
 10
4.999998501270396
 20
83.00000087601405
 30
0.0
 11
3.699998501270328
 21
83.00000087601405
 31
0.0
  0
POINT
  5
9D
330
2B
100
AcDbEntity
  8
0
100
AcDbPoint
 10
-0.0000014987296026
 20
83.00000087601405
 30
0.0
  0
ARC
  5
9E
330
2B
100
AcDbEntity
  8
0
100
AcDbCircle
 10
2.399998501270374
 20
82.31966763522104
 30
0.0
 40
0.6
100
AcDbArc
 50
0.0
 51
88.09084756699943
  0
ARC
  5
9F
330
2B
100
AcDbEntity
  8
0
100
AcDbCircle
 10
2.399998501270374
 20
85.68033411680508
 30
0.0
 40
0.6
100
AcDbArc
 50
271.909152432994
 51
0.0
  0
LINE
  5
A0
330
2B
100
AcDbEntity
  8
0
100
AcDbLine
 10
9.499998501270397
 20
81.00000087601406
 30
0.0
 11
7.999998501269374
 21
81.00000087601406
 31
0.0
  0
ARC
  5
A1
330
2B
100
AcDbEntity
  8
0
100
AcDbCircle
 10
0.5999985012704201
 20
84.41966763522106
 30
0.0
 40
0.6
100
AcDbArc
 50
91.90915243299405
 51
180.0
  0
ARC
  5
A2
330
2B
100
AcDbEntity
  8
0
100
AcDbCircle
 10
0.5999985012704201
 20
83.58033411680606
 30
0.0
 40
0.6
100
AcDbArc
 50
180.0
 51
268.0908475670059
  0
LINE
  5
A3
330
2B
100
AcDbEntity
  8
0
100
AcDbLine
 10
-0.0000014987296026
 20
84.41966763522106
 30
0.0
 11
-0.0000014987296026
 21
83.58033411680606
 31
0.0
  0
LINE
  5
A4
330
2B
100
AcDbEntity
  8
0
100
AcDbLine
 10
0.5800096031304065
 20
82.98066717261804
 30
0.0
 11
2.419987399409365
 21
82.91933457940904
 31
0.0
  0
LINE
  5
A5
330
2B
100
AcDbEntity
  8
0
100
AcDbLine
 10
2.419987399409365
 20
85.08066717261806
 30
0.0
 11
0.5800096031304065
 21
85.01933457940902
 31
0.0
  0
LINE
  5
A6
330
2B
100
AcDbEntity
  8
0
100
AcDbLine
 10
2.999998501270396
 20
89.31966763522103
 30
0.0
 11
2.999998501270396
 21
85.68033411680508
 31
0.0
  0
LINE
  5
A7
330
2B
100
AcDbEntity
  8
0
100
AcDbLine
 10
9.699998501269419
 20
72.47381495444506
 30
0.0
 11
7.999998501269374
 21
72.47381495444506
 31
0.0
  0
POINT
  5
A8
330
2B
100
AcDbEntity
  8
0
100
AcDbPoint
 10
-0.0000014987296026
 20
76.00000087601405
 30
0.0
  0
ARC
  5
A9
330
2B
100
AcDbEntity
  8
0
100
AcDbCircle
 10
2.399998501270374
 20
75.31966763522103
 30
0.0
 40
0.6
100
AcDbArc
 50
0.0
 51
88.09084756699943
  0
ARC
  5
AA
330
2B
100
AcDbEntity
  8
0
100
AcDbCircle
 10
2.399998501270374
 20
78.68033411680507
 30
0.0
 40
0.6
100
AcDbArc
 50
271.909152432994
 51
0.0
  0
LINE
  5
AB
330
2B
100
AcDbEntity
  8
0
100
AcDbLine
 10
9.499998501270397
 20
73.00000087601405
 30
0.0
 11
7.999998501269374
 21
73.00000087601405
 31
0.0
  0
ARC
  5
AC
330
2B
100
AcDbEntity
  8
0
100
AcDbCircle
 10
0.5999985012704201
 20
77.41966763522106
 30
0.0
 40
0.6
100
AcDbArc
 50
91.90915243299405
 51
180.0
  0
ARC
  5
AD
330
2B
100
AcDbEntity
  8
0
100
AcDbCircle
 10
0.5999985012704201
 20
76.58033411680604
 30
0.0
 40
0.6
100
AcDbArc
 50
180.0
 51
268.0908475670059
  0
LINE
  5
AE
330
2B
100
AcDbEntity
  8
0
100
AcDbLine
 10
-0.0000014987296026
 20
77.41966763522106
 30
0.0
 11
-0.0000014987296026
 21
76.58033411680604
 31
0.0
  0
LINE
  5
AF
330
2B
100
AcDbEntity
  8
0
100
AcDbLine
 10
0.5800096031304065
 20
75.98066717261804
 30
0.0
 11
2.419987399409365
 21
75.91933457940905
 31
0.0
  0
LINE
  5
B0
330
2B
100
AcDbEntity
  8
0
100
AcDbLine
 10
2.419987399409365
 20
78.08066717261806
 30
0.0
 11
0.5800096031304065
 21
78.01933457940902
 31
0.0
  0
LINE
  5
B1
330
2B
100
AcDbEntity
  8
0
100
AcDbLine
 10
-0.0000014987296026
 20
64.61966763522207
 30
0.0
 11
-0.0000014987296026
 21
59.58033411680503
 31
0.0
  0
ARC
  5
B2
330
2B
100
AcDbEntity
  8
0
100
AcDbCircle
 10
0.5999985012693969
 20
64.41966763522106
 30
0.0
 40
0.6
100
AcDbArc
 50
91.90915243299405
 51
180.0
  0
LINE
  5
B3
330
2B
100
AcDbEntity
  8
0
100
AcDbLine
 10
0.5800096031304065
 20
65.01933457940904
 30
0.0
 11
2.999998501269373
 21
65.10000087601304
 31
0.0
  0
ARC
  5
B4
330
2B
100
AcDbEntity
  8
0
100
AcDbCircle
 10
0.5999985012693969
 20
64.61966763522207
 30
0.0
 40
0.6
100
AcDbArc
 50
91.90915243299405
 51
180.0
  0
LINE
  5
B5
330
2B
100
AcDbEntity
  8
0
100
AcDbLine
 10
0.5800096031304065
 20
65.21933457940908
 30
0.0
 11
2.999998501269373
 21
65.30000087601405
 31
0.0
  0
POINT
  5
B6
330
2B
100
AcDbEntity
  8
0
100
AcDbPoint
 10
-0.0000014987296026
 20
69.00000087601404
 30
0.0
  0
ARC
  5
B7
330
2B
100
AcDbEntity
  8
0
100
AcDbCircle
 10
2.399998501270374
 20
64.68033411680504
 30
0.0
 40
0.6
100
AcDbArc
 50
271.9091524329875
 51
0.0
  0
ARC
  5
B8
330
2B
100
AcDbEntity
  8
0
100
AcDbCircle
 10
2.399998501270374
 20
68.31966763522103
 30
0.0
 40
0.6
100
AcDbArc
 50
0.0
 51
88.09084756699943
  0
ARC
  5
B9
330
2B
100
AcDbEntity
  8
0
100
AcDbCircle
 10
0.5999985012704201
 20
69.58033411680606
 30
0.0
 40
0.6
100
AcDbArc
 50
180.0
 51
268.0908475670059
  0
ARC
  5
BA
330
2B
100
AcDbEntity
  8
0
100
AcDbCircle
 10
0.5999985012704201
 20
63.41966763522106
 30
0.0
 40
0.6
100
AcDbArc
 50
91.90915243299405
 51
180.0
  0
LINE
  5
BB
330
2B
100
AcDbEntity
  8
0
100
AcDbLine
 10
-0.0000014987296026
 20
70.41966763522106
 30
0.0
 11
-0.0000014987296026
 21
69.58033411680606
 31
0.0
  0
LINE
  5
BC
330
2B
100
AcDbEntity
  8
0
100
AcDbLine
 10
2.419987399409365
 20
64.08066717261807
 30
0.0
 11
0.5800096031304065
 21
64.01933457940903
 31
0.0
  0
LINE
  5
BD
330
2B
100
AcDbEntity
  8
0
100
AcDbLine
 10
2.999998501270396
 20
68.31966763522103
 30
0.0
 11
2.999998501270396
 21
64.68033411680504
 31
0.0
  0
LINE
  5
BE
330
2B
100
AcDbEntity
  8
0
100
AcDbLine
 10
0.5800096031304065
 20
68.98066717261804
 30
0.0
 11
2.419987399409365
 21
68.91933457940905
 31
0.0
  0
LINE
  5
BF
330
2B
100
AcDbEntity
  8
0
100
AcDbLine
 10
5.999998501270398
 20
70.97381495444506
 30
0.0
 11
4.999998501270396
 21
70.97381495444506
 31
0.0
  0
LINE
  5
C0
330
2B
100
AcDbEntity
  8
0
100
AcDbLine
 10
4.999998501270396
 20
71.00000087601405
 30
0.0
 11
3.699998501270328
 21
71.00000087601405
 31
0.0
  0
ARC
  5
C1
330
2B
100
AcDbEntity
  8
0
100
AcDbCircle
 10
2.399998501270374
 20
71.68033411680507
 30
0.0
 40
0.6
100
AcDbArc
 50
271.909152432994
 51
0.0
  0
LINE
  5
C2
330
2B
100
AcDbEntity
  8
0
100
AcDbLine
 10
2.419987399409365
 20
71.08066717261806
 30
0.0
 11
0.5800096031304065
 21
71.01933457940901
 31
0.0
  0
ARC
  5
C3
330
2B
100
AcDbEntity
  8
0
100
AcDbCircle
 10
0.5999985012693969
 20
70.41966763522106
 30
0.0
 40
0.6
100
AcDbArc
 50
91.90915243299405
 51
180.0
  0
ARC
  5
C4
330
2B
100
AcDbEntity
  8
0
100
AcDbCircle
 10
0.5999985012693969
 20
59.58033411680503
 30
0.0
 40
0.6
100
AcDbArc
 50
180.0
 51
268.0908475670059
  0
LINE
  5
C5
330
2B
100
AcDbEntity
  8
0
100
AcDbLine
 10
0.5800096031304065
 20
58.98066717261802
 30
0.0
 11
2.999998501269373
 21
58.90000087601305
 31
0.0
  0
POINT
  5
C6
330
2B
100
AcDbEntity
  8
0
100
AcDbPoint
 10
-0.0000014987296026
 20
55.00000087601302
 30
0.0
  0
POINT
  5
C7
330
2B
100
AcDbEntity
  8
0
100
AcDbPoint
 10
-0.0000014987296026
 20
62.00000087601302
 30
0.0
  0
ARC
  5
C8
330
2B
100
AcDbEntity
  8
0
100
AcDbCircle
 10
2.399998501270374
 20
57.68033411680505
 30
0.0
 40
0.6
100
AcDbArc
 50
271.909152432994
 51
0.0
  0
ARC
  5
C9
330
2B
100
AcDbEntity
  8
0
100
AcDbCircle
 10
2.399998501270374
 20
61.31966763522104
 30
0.0
 40
0.6
100
AcDbArc
 50
0.0
 51
88.09084756699943
  0
ARC
  5
CA
330
2B
100
AcDbEntity
  8
0
100
AcDbCircle
 10
0.5999985012704201
 20
62.58033411680606
 30
0.0
 40
0.6
100
AcDbArc
 50
180.0
 51
268.0908475670059
  0
ARC
  5
CB
330
2B
100
AcDbEntity
  8
0
100
AcDbCircle
 10
0.5999985012704201
 20
56.41966763522106
 30
0.0
 40
0.6
100
AcDbArc
 50
91.90915243299405
 51
180.0
  0
ARC
  5
CC
330
2B
100
AcDbEntity
  8
0
100
AcDbCircle
 10
0.5999985012704201
 20
55.58033411680606
 30
0.0
 40
0.6
100
AcDbArc
 50
180.0
 51
268.0908475670059
  0
LINE
  5
CD
330
2B
100
AcDbEntity
  8
0
100
AcDbLine
 10
-0.0000014987296026
 20
56.41966763522106
 30
0.0
 11
-0.0000014987296026
 21
55.58033411680606
 31
0.0
  0
LINE
  5
CE
330
2B
100
AcDbEntity
  8
0
100
AcDbLine
 10
0.5800096031304065
 20
54.98066717261803
 30
0.0
 11
2.419987399409365
 21
54.91933457940906
 31
0.0
  0
LINE
  5
CF
330
2B
100
AcDbEntity
  8
0
100
AcDbLine
 10
2.419987399409365
 20
57.08066717261806
 30
0.0
 11
0.5800096031304065
 21
57.01933457940903
 31
0.0
  0
LINE
  5
D0
330
2B
100
AcDbEntity
  8
0
100
AcDbLine
 10
2.999998501270396
 20
61.31966763522104
 30
0.0
 11
2.999998501270396
 21
57.68033411680505
 31
0.0
  0
LINE
  5
D1
330
2B
100
AcDbEntity
  8
0
100
AcDbLine
 10
0.5800096031304065
 20
61.98066717261802
 30
0.0
 11
2.419987399409365
 21
61.91933457940905
 31
0.0
  0
ARC
  5
D2
330
2B
100
AcDbEntity
  8
0
100
AcDbCircle
 10
2.399998501270374
 20
54.31966763522105
 30
0.0
 40
0.6
100
AcDbArc
 50
0.0
 51
88.09084756699943
  0
ARC
  5
D3
330
2B
100
AcDbEntity
  8
0
100
AcDbCircle
 10
2.399998501270374
 20
36.68033411680506
 30
0.0
 40
0.6
100
AcDbArc
 50
271.909152432994
 51
0.0
  0
LINE
  5
D4
330
2B
100
AcDbEntity
  8
0
100
AcDbLine
 10
2.999998501270396
 20
47.31966763522104
 30
0.0
 11
2.999998501270396
 21
43.68033411680506
 31
0.0
  0
POINT
  5
D5
330
2B
100
AcDbEntity
  8
0
100
AcDbPoint
 10
-0.0000014987296026
 20
48.00000087601404
 30
0.0
  0
ARC
  5
D6
330
2B
100
AcDbEntity
  8
0
100
AcDbCircle
 10
2.399998501270374
 20
47.31966763522104
 30
0.0
 40
0.6
100
AcDbArc
 50
0.0
 51
88.09084756699943
  0
ARC
  5
D7
330
2B
100
AcDbEntity
  8
0
100
AcDbCircle
 10
2.399998501270374
 20
50.68033411680506
 30
0.0
 40
0.6
100
AcDbArc
 50
271.909152432994
 51
0.0
  0
ARC
  5
D8
330
2B
100
AcDbEntity
  8
0
100
AcDbCircle
 10
0.5999985012693969
 20
49.41966763522106
 30
0.0
 40
0.6
100
AcDbArc
 50
91.90915243299405
 51
180.0
  0
ARC
  5
D9
330
2B
100
AcDbEntity
  8
0
100
AcDbCircle
 10
0.5999985012704201
 20
48.58033411680604
 30
0.0
 40
0.6
100
AcDbArc
 50
180.0
 51
268.0908475670059
  0
LINE
  5
DA
330
2B
100
AcDbEntity
  8
0
100
AcDbLine
 10
-0.0000014987296026
 20
49.41966763522106
 30
0.0
 11
-0.0000014987296026
 21
48.58033411680604
 31
0.0
  0
LINE
  5
DB
330
2B
100
AcDbEntity
  8
0
100
AcDbLine
 10
0.5800096031304065
 20
47.98066717261803
 30
0.0
 11
2.419987399409365
 21
47.91933457940904
 31
0.0
  0
LINE
  5
DC
330
2B
100
AcDbEntity
  8
0
100
AcDbLine
 10
2.419987399409365
 20
50.08066717261806
 30
0.0
 11
0.5800096031304065
 21
50.01933457940903
 31
0.0
  0
POINT
  5
DD
330
2B
100
AcDbEntity
  8
0
100
AcDbPoint
 10
-0.0000014987296026
 20
41.000000876013
 30
0.0
  0
ARC
  5
DE
330
2B
100
AcDbEntity
  8
0
100
AcDbCircle
 10
2.399998501270374
 20
40.31966763522103
 30
0.0
 40
0.6
100
AcDbArc
 50
0.0
 51
88.09084756699943
  0
ARC
  5
DF
330
2B
100
AcDbEntity
  8
0
100
AcDbCircle
 10
2.399998501270374
 20
43.68033411680506
 30
0.0
 40
0.6
100
AcDbArc
 50
271.909152432994
 51
0.0
  0
ARC
  5
E0
330
2B
100
AcDbEntity
  8
0
100
AcDbCircle
 10
0.5999985012693969
 20
42.41966763522106
 30
0.0
 40
0.6
100
AcDbArc
 50
91.90915243299405
 51
180.0
  0
ARC
  5
E1
330
2B
100
AcDbEntity
  8
0
100
AcDbCircle
 10
0.5999985012693969
 20
41.58033411680604
 30
0.0
 40
0.6
100
AcDbArc
 50
180.0
 51
268.0908475670059
  0
LINE
  5
E2
330
2B
100
AcDbEntity
  8
0
100
AcDbLine
 10
-0.0000014987296026
 20
42.41966763522106
 30
0.0
 11
-0.0000014987296026
 21
41.58033411680604
 31
0.0
  0
LINE
  5
E3
330
2B
100
AcDbEntity
  8
0
100
AcDbLine
 10
0.5800096031304065
 20
40.98066717261803
 30
0.0
 11
2.419987399409365
 21
40.91933457940903
 31
0.0
  0
LINE
  5
E4
330
2B
100
AcDbEntity
  8
0
100
AcDbLine
 10
2.419987399409365
 20
43.08066717261806
 30
0.0
 11
0.5800096031304065
 21
43.01933457940902
 31
0.0
  0
LINE
  5
E5
330
2B
100
AcDbEntity
  8
0
100
AcDbLine
 10
2.999998501270396
 20
40.31966763522103
 30
0.0
 11
2.999998501270396
 21
36.68033411680506
 31
0.0
  0
ARC
  5
E6
330
2B
100
AcDbEntity
  8
0
100
AcDbCircle
 10
0.5999985012693969
 20
27.58033411680605
 30
0.0
 40
0.6
100
AcDbArc
 50
180.0
 51
268.0908475670059
  0
LINE
  5
E7
330
2B
100
AcDbEntity
  8
0
100
AcDbLine
 10
9.699998501269419
 20
31.47381495444506
 30
0.0
 11
9.699998501269419
 21
22.47381495444505
 31
0.0
  0
LINE
  5
E8
330
2B
100
AcDbEntity
  8
0
100
AcDbLine
 10
7.999998501269374
 20
31.47381495444506
 30
0.0
 11
7.999998501269374
 21
22.47381495444505
 31
0.0
  0
LINE
  5
E9
330
2B
100
AcDbEntity
  8
0
100
AcDbLine
 10
4.999998501270396
 20
33.00000087601403
 30
0.0
 11
4.999998501270396
 21
21.00000087601301
 31
0.0
  0
LINE
  5
EA
330
2B
100
AcDbEntity
  8
0
100
AcDbLine
 10
4.499998501270396
 20
33.00000087601403
 30
0.0
 11
4.499998501270396
 21
21.00000087601403
 31
0.0
  0
LINE
  5
EB
330
2B
100
AcDbEntity
  8
0
100
AcDbLine
 10
3.699998501270328
 20
33.00000087601403
 30
0.0
 11
3.699998501270328
 21
21.10000087601302
 31
0.0
  0
LINE
  5
EC
330
2B
100
AcDbEntity
  8
0
100
AcDbLine
 10
9.499998501270397
 20
31.00000087601403
 30
0.0
 11
9.499998501270397
 21
23.00000087601403
 31
0.0
  0
LINE
  5
ED
330
2B
100
AcDbEntity
  8
0
100
AcDbLine
 10
8.699998501270329
 20
31.00000087601403
 30
0.0
 11
8.699998501270329
 21
23.00000087601403
 31
0.0
  0
LINE
  5
EE
330
2B
100
AcDbEntity
  8
0
100
AcDbLine
 10
8.09999850127042
 20
31.00000087601403
 30
0.0
 11
8.09999850127042
 21
23.00000087601403
 31
0.0
  0
ARC
  5
EF
330
2B
100
AcDbEntity
  8
0
100
AcDbCircle
 10
2.399998501270374
 20
29.68033411680505
 30
0.0
 40
0.6
100
AcDbArc
 50
271.909152432994
 51
0.0
  0
ARC
  5
F0
330
2B
100
AcDbEntity
  8
0
100
AcDbCircle
 10
0.5999985012704201
 20
28.41966763522099
 30
0.0
 40
0.6
100
AcDbArc
 50
91.90915243299405
 51
180.0
  0
LINE
  5
F1
330
2B
100
AcDbEntity
  8
0
100
AcDbLine
 10
-0.0000014987296026
 20
28.41966763522099
 30
0.0
 11
-0.0000014987296026
 21
27.58033411680605
 31
0.0
  0
LINE
  5
F2
330
2B
100
AcDbEntity
  8
0
100
AcDbLine
 10
2.419987399409365
 20
29.08066717261806
 30
0.0
 11
0.5800096031304065
 21
29.01933457940902
 31
0.0
  0
LINE
  5
F3
330
2B
100
AcDbEntity
  8
0
100
AcDbLine
 10
5.999998501270398
 20
32.97381495444602
 30
0.0
 11
4.999998501270396
 21
32.97381495444602
 31
0.0
  0
LINE
  5
F4
330
2B
100
AcDbEntity
  8
0
100
AcDbLine
 10
9.699998501269419
 20
31.47381495444506
 30
0.0
 11
7.999998501269374
 21
31.47381495444506
 31
0.0
  0
LINE
  5
F5
330
2B
100
AcDbEntity
  8
0
100
AcDbLine
 10
4.999998501270396
 20
33.00000087601403
 30
0.0
 11
3.699998501270328
 21
33.00000087601403
 31
0.0
  0
POINT
  5
F6
330
2B
100
AcDbEntity
  8
0
100
AcDbPoint
 10
-0.0000014987296026
 20
34.00000087601403
 30
0.0
  0
ARC
  5
F7
330
2B
100
AcDbEntity
  8
0
100
AcDbCircle
 10
2.399998501270374
 20
33.31966763522103
 30
0.0
 40
0.6
100
AcDbArc
 50
0.0
 51
88.09084756699943
  0
LINE
  5
F8
330
2B
100
AcDbEntity
  8
0
100
AcDbLine
 10
9.499998501270397
 20
31.00000087601403
 30
0.0
 11
7.999998501269374
 21
31.00000087601403
 31
0.0
  0
ARC
  5
F9
330
2B
100
AcDbEntity
  8
0
100
AcDbCircle
 10
0.5999985012693969
 20
35.41966763522106
 30
0.0
 40
0.6
100
AcDbArc
 50
91.90915243299405
 51
180.0
  0
ARC
  5
FA
330
2B
100
AcDbEntity
  8
0
100
AcDbCircle
 10
0.5999985012704201
 20
34.58033411680605
 30
0.0
 40
0.6
100
AcDbArc
 50
180.0
 51
268.0908475670059
  0
LINE
  5
FB
330
2B
100
AcDbEntity
  8
0
100
AcDbLine
 10
-0.0000014987296026
 20
35.41966763522106
 30
0.0
 11
-0.0000014987296026
 21
34.58033411680605
 31
0.0
  0
LINE
  5
FC
330
2B
100
AcDbEntity
  8
0
100
AcDbLine
 10
0.5800096031304065
 20
33.98066717261804
 30
0.0
 11
2.419987399409365
 21
33.91933457940905
 31
0.0
  0
LINE
  5
FD
330
2B
100
AcDbEntity
  8
0
100
AcDbLine
 10
2.419987399409365
 20
36.08066717261806
 30
0.0
 11
0.5800096031304065
 21
36.019334579409
 31
0.0
  0
LINE
  5
FE
330
2B
100
AcDbEntity
  8
0
100
AcDbLine
 10
2.999998501270396
 20
33.31966763522103
 30
0.0
 11
2.999998501270396
 21
29.68033411680505
 31
0.0
  0
LINE
  5
FF
330
2B
100
AcDbEntity
  8
0
100
AcDbLine
 10
5.999998501270398
 20
20.97381495444506
 30
0.0
 11
4.999998501270396
 21
20.97381495444506
 31
0.0
  0
LINE
  5
100
330
2B
100
AcDbEntity
  8
0
100
AcDbLine
 10
4.999998501270396
 20
21.00000087601403
 30
0.0
 11
3.699998501270328
 21
21.00000087601403
 31
0.0
  0
LINE
  5
101
330
2B
100
AcDbEntity
  8
0
100
AcDbLine
 10
9.699998501269419
 20
22.47381495444505
 30
0.0
 11
7.999998501269374
 21
22.47381495444505
 31
0.0
  0
POINT
  5
102
330
2B
100
AcDbEntity
  8
0
100
AcDbPoint
 10
-0.0000014987296026
 20
22.00000087601301
 30
0.0
  0
POINT
  5
103
330
2B
100
AcDbEntity
  8
0
100
AcDbPoint
 10
-0.0000014987296026
 20
27.00000087601301
 30
0.0
  0
ARC
  5
104
330
2B
100
AcDbEntity
  8
0
100
AcDbCircle
 10
2.499998501270396
 20
22.58361191000705
 30
0.0
 40
0.5
100
AcDbArc
 50
271.909152432994
 51
0.0
  0
ARC
  5
105
330
2B
100
AcDbEntity
  8
0
100
AcDbCircle
 10
2.399998501270374
 20
26.31966763522104
 30
0.0
 40
0.6
100
AcDbArc
 50
0.0
 51
88.09084756699943
  0
LINE
  5
106
330
2B
100
AcDbEntity
  8
0
100
AcDbLine
 10
9.499998501270397
 20
23.00000087601403
 30
0.0
 11
7.999998501269374
 21
23.00000087601403
 31
0.0
  0
LINE
  5
107
330
2B
100
AcDbEntity
  8
0
100
AcDbLine
 10
2.516655916386412
 20
22.08388945651705
 30
0.0
 11
0.5800096031304065
 21
22.01933457940902
 31
0.0
  0
LINE
  5
108
330
2B
100
AcDbEntity
  8
0
100
AcDbLine
 10
2.999998501270396
 20
26.31966763522104
 30
0.0
 11
2.999998501270396
 21
22.58361191000705
 31
0.0
  0
LINE
  5
109
330
2B
100
AcDbEntity
  8
0
100
AcDbLine
 10
0.5800096031304065
 20
26.98066717261804
 30
0.0
 11
2.419987399409365
 21
26.91933457940905
 31
0.0
  0
ARC
  5
10A
330
2B
100
AcDbEntity
  8
0
100
AcDbCircle
 10
0.5999985012704201
 20
21.419667635221
 30
0.0
 40
0.6
100
AcDbArc
 50
91.90915243299405
 51
180.0
  0
LINE
  5
10B
330
2B
100
AcDbEntity
  8
0
100
AcDbLine
 10
54.49999850127039
 20
54.97381495444507
 30
0.0
 11
54.49999850127039
 21
48.97381495444506
 31
0.0
  0
LINE
  5
10C
330
2B
100
AcDbEntity
  8
0
100
AcDbLine
 10
33.49999850127039
 20
48.97381495444506
 30
0.0
 11
33.49999850127039
 21
54.97381495444507
 31
0.0
  0
LINE
  5
10D
330
2B
100
AcDbEntity
  8
0
100
AcDbLine
 10
32.9999985012704
 20
82.97381495444506
 30
0.0
 11
32.9999985012704
 21
84.97381495444505
 31
0.0
  0
LINE
  5
10E
330
2B
100
AcDbEntity
  8
0
100
AcDbLine
 10
32.9999985012704
 20
75.97381495444506
 30
0.0
 11
32.9999985012704
 21
77.97381495444506
 31
0.0
  0
LINE
  5
10F
330
2B
100
AcDbEntity
  8
0
100
AcDbLine
 10
33.49999850127039
 20
63.97381495444506
 30
0.0
 11
33.49999850127039
 21
68.97381495444506
 31
0.0
  0
LINE
  5
110
330
2B
100
AcDbEntity
  8
0
100
AcDbLine
 10
33.49999850127039
 20
56.97381495444506
 30
0.0
 11
33.49999850127039
 21
61.97381495444506
 31
0.0
  0
LINE
  5
111
330
2B
100
AcDbEntity
  8
0
100
AcDbLine
 10
55.9999985012704
 20
82.97381495444506
 30
0.0
 11
55.9999985012704
 21
84.97381495444505
 31
0.0
  0
LINE
  5
112
330
2B
100
AcDbEntity
  8
0
100
AcDbLine
 10
54.99999850127039
 20
82.97381495444506
 30
0.0
 11
54.99999850127039
 21
84.97381495444505
 31
0.0
  0
LINE
  5
113
330
2B
100
AcDbEntity
  8
0
100
AcDbLine
 10
56.99999850127039
 20
82.97381495444506
 30
0.0
 11
54.99999850127039
 21
82.97381495444506
 31
0.0
  0
LINE
  5
114
330
2B
100
AcDbEntity
  8
0
100
AcDbLine
 10
56.99999850127039
 20
84.97381495444505
 30
0.0
 11
54.99999850127039
 21
84.97381495444505
 31
0.0
  0
LINE
  5
115
330
2B
100
AcDbEntity
  8
0
100
AcDbLine
 10
55.9999985012704
 20
75.97381495444506
 30
0.0
 11
55.9999985012704
 21
77.97381495444506
 31
0.0
  0
LINE
  5
116
330
2B
100
AcDbEntity
  8
0
100
AcDbLine
 10
54.99999850127039
 20
75.97381495444506
 30
0.0
 11
54.99999850127039
 21
77.97381495444506
 31
0.0
  0
LINE
  5
117
330
2B
100
AcDbEntity
  8
0
100
AcDbLine
 10
56.99999850127039
 20
75.97381495444506
 30
0.0
 11
54.99999850127039
 21
75.97381495444506
 31
0.0
  0
LINE
  5
118
330
2B
100
AcDbEntity
  8
0
100
AcDbLine
 10
56.99999850127039
 20
77.97381495444506
 30
0.0
 11
54.99999850127039
 21
77.97381495444506
 31
0.0
  0
LINE
  5
119
330
2B
100
AcDbEntity
  8
0
100
AcDbLine
 10
55.9999985012704
 20
61.97381495444506
 30
0.0
 11
55.9999985012704
 21
63.97381495444506
 31
0.0
  0
LINE
  5
11A
330
2B
100
AcDbEntity
  8
0
100
AcDbLine
 10
54.99999850127039
 20
61.97381495444506
 30
0.0
 11
54.99999850127039
 21
63.97381495444506
 31
0.0
  0
LINE
  5
11B
330
2B
100
AcDbEntity
  8
0
100
AcDbLine
 10
54.49999850127039
 20
68.97381495444506
 30
0.0
 11
54.49999850127039
 21
63.97381495444506
 31
0.0
  0
LINE
  5
11C
330
2B
100
AcDbEntity
  8
0
100
AcDbLine
 10
55.9999985012704
 20
68.97381495444506
 30
0.0
 11
55.9999985012704
 21
70.97381495444506
 31
0.0
  0
LINE
  5
11D
330
2B
100
AcDbEntity
  8
0
100
AcDbLine
 10
54.99999850127039
 20
68.97381495444506
 30
0.0
 11
54.99999850127039
 21
70.97381495444506
 31
0.0
  0
LINE
  5
11E
330
2B
100
AcDbEntity
  8
0
100
AcDbLine
 10
54.49999850127039
 20
61.97381495444506
 30
0.0
 11
54.49999850127039
 21
56.97381495444506
 31
0.0
  0
LINE
  5
11F
330
2B
100
AcDbEntity
  8
0
100
AcDbLine
 10
55.9999985012704
 20
54.97381495444507
 30
0.0
 11
55.9999985012704
 21
56.97381495444506
 31
0.0
  0
LINE
  5
120
330
2B
100
AcDbEntity
  8
0
100
AcDbLine
 10
54.99999850127039
 20
54.97381495444507
 30
0.0
 11
54.99999850127039
 21
56.97381495444506
 31
0.0
  0
LINE
  5
121
330
2B
100
AcDbEntity
  8
0
100
AcDbLine
 10
38.9999985012704
 20
49.97381495444507
 30
0.0
 11
48.9999985012704
 21
49.97381495444507
 31
0.0
  0
LINE
  5
122
330
2B
100
AcDbEntity
  8
0
100
AcDbLine
 10
54.49999850127039
 20
48.97381495444506
 30
0.0
 11
33.49999850127039
 21
48.97381495444506
 31
0.0
  0
LINE
  5
123
330
2B
100
AcDbEntity
  8
0
100
AcDbLine
 10
32.9999985012704
 20
47.97381495444507
 30
0.0
 11
32.9999985012704
 21
49.97381495444507
 31
0.0
  0
ARC
  5
124
330
2B
100
AcDbEntity
  8
0
100
AcDbCircle
 10
38.9999985012704
 20
50.47381495444507
 30
0.0
 40
0.5
100
AcDbArc
 50
251.374822272642
 51
270.0
  0
ARC
  5
125
330
2B
100
AcDbEntity
  8
0
100
AcDbCircle
 10
48.9999985012704
 20
50.47381495444507
 30
0.0
 40
0.5
100
AcDbArc
 50
270.0
 51
288.6251777273578
  0
LINE
  5
126
330
2B
100
AcDbEntity
  8
0
100
AcDbLine
 10
55.9999985012704
 20
47.97381495444507
 30
0.0
 11
55.9999985012704
 21
49.97381495444507
 31
0.0
  0
LINE
  5
127
330
2B
100
AcDbEntity
  8
0
100
AcDbLine
 10
54.99999850127039
 20
47.97381495444507
 30
0.0
 11
54.99999850127039
 21
49.97381495444507
 31
0.0
  0
LINE
  5
128
330
2B
100
AcDbEntity
  8
0
100
AcDbLine
 10
56.99999850127039
 20
47.97381495444507
 30
0.0
 11
54.99999850127039
 21
47.97381495444507
 31
0.0
  0
LINE
  5
129
330
2B
100
AcDbEntity
  8
0
100
AcDbLine
 10
56.99999850127039
 20
49.97381495444507
 30
0.0
 11
54.99999850127039
 21
49.97381495444507
 31
0.0
  0
LINE
  5
12A
330
2B
100
AcDbEntity
  8
0
100
AcDbLine
 10
55.9999985012704
 20
40.97381495444506
 30
0.0
 11
55.9999985012704
 21
42.97381495444507
 31
0.0
  0
LINE
  5
12B
330
2B
100
AcDbEntity
  8
0
100
AcDbLine
 10
54.99999850127039
 20
40.97381495444506
 30
0.0
 11
54.99999850127039
 21
42.97381495444507
 31
0.0
  0
LINE
  5
12C
330
2B
100
AcDbEntity
  8
0
100
AcDbLine
 10
55.9999985012704
 20
26.97381495444505
 30
0.0
 11
55.9999985012704
 21
28.97381495444506
 31
0.0
  0
LINE
  5
12D
330
2B
100
AcDbEntity
  8
0
100
AcDbLine
 10
54.99999850127039
 20
26.97381495444505
 30
0.0
 11
54.99999850127039
 21
28.97381495444506
 31
0.0
  0
LINE
  5
12E
330
2B
100
AcDbEntity
  8
0
100
AcDbLine
 10
55.9999985012704
 20
33.97381495444505
 30
0.0
 11
55.9999985012704
 21
35.97381495444506
 31
0.0
  0
LINE
  5
12F
330
2B
100
AcDbEntity
  8
0
100
AcDbLine
 10
54.99999850127039
 20
33.97381495444505
 30
0.0
 11
54.99999850127039
 21
35.97381495444506
 31
0.0
  0
LINE
  5
130
330
2B
100
AcDbEntity
  8
0
100
AcDbLine
 10
57.9999985012704
 20
3.585961111277015
 30
0.0
 11
4.999998501270396
 21
4.973814954445058
 31
0.0
  0
LINE
  5
131
330
2B
100
AcDbEntity
  8
0
100
AcDbLine
 10
3.999998501270396
 20
5.000000876014039
 30
0.0
 11
57.9999985012704
 21
3.585961111277015
 31
0.0
  0
LINE
  5
132
330
2B
100
AcDbEntity
  8
0
100
AcDbLine
 10
-0.0000014987296026
 20
0.0000008760140418
 30
0.0
 11
57.9999985012704
 21
0.0000008760140418
 31
0.0
  0
LINE
  5
133
330
2B
100
AcDbEntity
  8
0
100
AcDbLine
 10
3.999998501270396
 20
5.000000876014039
 30
0.0
 11
-0.0000014987296026
 21
4.895257189737034
 31
0.0
  0
LINE
  5
134
330
2B
100
AcDbEntity
  8
0
100
AcDbLine
 10
31.09999850127036
 20
3.800000876013028
 30
0.0
 11
31.09999850127036
 21
0.0000008760140418
 31
0.0
  0
LINE
  5
135
330
2B
100
AcDbEntity
  8
0
100
AcDbLine
 10
26.89999850126941
 20
3.800000876013028
 30
0.0
 11
26.89999850126941
 21
0.0000008760140418
 31
0.0
  0
LINE
  5
136
330
2B
100
AcDbEntity
  8
0
100
AcDbLine
 10
23.49999850127038
 20
3.800000876013028
 30
0.0
 11
34.49999850127039
 21
3.800000876013028
 31
0.0
  0
LINE
  5
137
330
2B
100
AcDbEntity
  8
0
100
AcDbLine
 10
23.49999850127038
 20
4.489375405414079
 30
0.0
 11
23.49999850127038
 21
3.800000876013028
 31
0.0
  0
LINE
  5
138
330
2B
100
AcDbEntity
  8
0
100
AcDbLine
 10
34.49999850127039
 20
4.201330268154038
 30
0.0
 11
34.49999850127039
 21
3.800000876013028
 31
0.0
  0
LINE
  5
139
330
2B
100
AcDbEntity
  8
0
100
AcDbLine
 10
57.9999985012704
 20
0.0000008760140418
 30
0.0
 11
57.9999985012704
 21
3.585961111277015
 31
0.0
  0
LINE
  5
13A
330
2B
100
AcDbEntity
  8
0
100
AcDbLine
 10
41.14999850127042
 20
120.973814954445
 30
0.0
 11
41.14999850127042
 21
124.3738149544449
 31
0.0
  0
LINE
  5
13B
330
2B
100
AcDbEntity
  8
0
100
AcDbLine
 10
41.14999850127042
 20
124.3738149544449
 30
0.0
 11
47.44999850127043
 21
124.3738149544449
 31
0.0
  0
LINE
  5
13C
330
2B
100
AcDbEntity
  8
0
100
AcDbLine
 10
47.44999850127043
 20
124.3738149544449
 30
0.0
 11
47.44999850127043
 21
120.973814954445
 31
0.0
  0
LINE
  5
13D
330
2B
100
AcDbEntity
  8
0
100
AcDbLine
 10
15.59999850126938
 20
126.273814954445
 30
0.0
 11
15.59999850126938
 21
127.5738149544449
 31
0.0
  0
LINE
  5
13E
330
2B
100
AcDbEntity
  8
0
100
AcDbLine
 10
15.59999850126938
 20
127.5738149544449
 30
0.0
 11
24.94499850126947
 21
127.5738149544449
 31
0.0
  0
LINE
  5
13F
330
2B
100
AcDbEntity
  8
0
100
AcDbLine
 10
24.94499850126947
 20
127.5738149544449
 30
0.0
 11
24.94499850126947
 21
120.973814954445
 31
0.0
  0
LINE
  5
140
330
2B
100
AcDbEntity
  8
0
100
AcDbLine
 10
15.19999850126942
 20
121.973814954445
 30
0.0
 11
15.19999850126942
 21
126.273814954445
 31
0.0
  0
LINE
  5
141
330
2B
100
AcDbEntity
  8
0
100
AcDbLine
 10
15.19999850126942
 20
126.273814954445
 30
0.0
 11
21.09999850126945
 21
126.273814954445
 31
0.0
  0
LINE
  5
142
330
2B
100
AcDbEntity
  8
0
100
AcDbLine
 10
21.09999850126945
 20
126.273814954445
 30
0.0
 11
21.09999850126945
 21
121.973814954445
 31
0.0
  0
LINE
  5
143
330
2B
100
AcDbEntity
  8
0
100
AcDbLine
 10
14.09999850127042
 20
120.973814954445
 30
0.0
 11
14.09999850127042
 21
121.973814954445
 31
0.0
  0
LINE
  5
144
330
2B
100
AcDbEntity
  8
0
100
AcDbLine
 10
14.09999850127042
 20
121.973814954445
 30
0.0
 11
22.69999850126946
 21
121.973814954445
 31
0.0
  0
LINE
  5
145
330
2B
100
AcDbEntity
  8
0
100
AcDbLine
 10
22.69999850126946
 20
121.973814954445
 30
0.0
 11
22.69999850126946
 21
120.973814954445
 31
0.0
  0
LINE
  5
146
330
2B
100
AcDbEntity
  8
0
100
AcDbLine
 10
48.9999985012704
 20
50.00000087601303
 30
0.0
 11
38.9999985012704
 21
50.00000087601303
 31
0.0
  0
LINE
  5
147
330
2B
100
AcDbEntity
  8
0
100
AcDbLine
 10
51.4999985012704
 20
102.0000008760127
 30
0.0
 11
49.99999850127039
 21
102.0000008760127
 31
0.0
  0
LINE
  5
148
330
2B
100
AcDbEntity
  8
0
100
AcDbLine
 10
53.4999985012704
 20
52.00000087601302
 30
0.0
 11
34.49999850127039
 21
52.00000087601303
 31
0.0
  0
LINE
  5
149
330
2B
100
AcDbEntity
  8
0
100
AcDbLine
 10
34.49999850127039
 20
90.00000087601303
 30
0.0
 11
53.4999985012704
 21
90.00000087601302
 31
0.0
  0
LINE
  5
14A
330
2B
100
AcDbEntity
  8
0
100
AcDbLine
 10
34.49999850127039
 20
92.00000087601305
 30
0.0
 11
53.4999985012704
 21
92.00000087601299
 31
0.0
  0
LINE
  5
14B
330
2B
100
AcDbEntity
  8
0
100
AcDbLine
 10
34.55277668742439
 20
102.0000008760127
 30
0.0
 11
53.44722031511543
 21
102.0000008760127
 31
0.0
  0
LINE
  5
14C
330
2B
100
AcDbEntity
  8
0
100
AcDbLine
 10
34.55277668742439
 20
102.0000008760127
 30
0.0
 11
34.55277668742439
 21
92.00000087601305
 31
0.0
  0
LINE
  5
14D
330
2B
100
AcDbEntity
  8
0
100
AcDbLine
 10
53.44722031511543
 20
102.0000008760127
 30
0.0
 11
53.44722031511543
 21
92.00000087601299
 31
0.0
  0
LINE
  5
14E
330
2B
100
AcDbEntity
  8
0
100
AcDbLine
 10
53.4999985012704
 20
92.00000087601299
 30
0.0
 11
53.4999985012704
 21
50.00000087601303
 31
0.0
  0
LINE
  5
14F
330
2B
100
AcDbEntity
  8
0
100
AcDbLine
 10
53.4999985012704
 20
50.00000087601303
 30
0.0
 11
34.49999850127039
 21
50.00000087601303
 31
0.0
  0
LINE
  5
150
330
2B
100
AcDbEntity
  8
0
100
AcDbLine
 10
34.49999850127039
 20
50.00000087601303
 30
0.0
 11
34.49999850127039
 21
92.00000087601305
 31
0.0
  0
LINE
  5
151
330
2B
100
AcDbEntity
  8
0
100
AcDbLine
 10
38.9999985012704
 20
52.00000087601303
 30
0.0
 11
38.9999985012704
 21
49.97381495444507
 31
0.0
  0
ARC
  5
152
330
2B
100
AcDbEntity
  8
0
100
AcDbCircle
 10
35.2999985012704
 20
82.00000087601303
 30
0.0
 40
1.05
100
AcDbArc
 50
139.6324064558198
 51
220.36759354418
  0
LINE
  5
153
330
2B
100
AcDbEntity
  8
0
100
AcDbLine
 10
48.9999985012704
 20
49.97381495444507
 30
0.0
 11
48.9999985012704
 21
52.00000087601302
 31
0.0
  0
LINE
  5
154
330
2B
100
AcDbEntity
  8
0
100
AcDbLine
 10
34.55277668742439
 20
98.97381495444506
 30
0.0
 11
15.99999850127039
 21
98.97381495444506
 31
0.0
  0
LINE
  5
155
330
2B
100
AcDbEntity
  8
0
100
AcDbLine
 10
34.55277668742439
 20
96.97381495444506
 30
0.0
 11
15.99999850127039
 21
96.97381495444506
 31
0.0
  0
LINE
  5
156
330
2B
100
AcDbEntity
  8
0
100
AcDbLine
 10
34.49999850127034
 20
70.97381495444506
 30
0.0
 11
15.99999850127039
 21
70.97381495444506
 31
0.0
  0
LINE
  5
157
330
2B
100
AcDbEntity
  8
0
100
AcDbLine
 10
34.49999850127034
 20
68.97381495444506
 30
0.0
 11
15.99999850127039
 21
68.97381495444506
 31
0.0
  0
LINE
  5
158
330
2B
100
AcDbEntity
  8
0
100
AcDbLine
 10
34.49999850127034
 20
63.97381495444506
 30
0.0
 11
15.99999850127039
 21
63.97381495444506
 31
0.0
  0
LINE
  5
159
330
2B
100
AcDbEntity
  8
0
100
AcDbLine
 10
34.49999850127034
 20
61.97381495444506
 30
0.0
 11
15.99999850127039
 21
61.97381495444506
 31
0.0
  0
LINE
  5
15A
330
2B
100
AcDbEntity
  8
0
100
AcDbLine
 10
34.49999850127034
 20
56.97381495444506
 30
0.0
 11
15.99999850127039
 21
56.97381495444506
 31
0.0
  0
LINE
  5
15B
330
2B
100
AcDbEntity
  8
0
100
AcDbLine
 10
34.49999850127034
 20
54.97381495444507
 30
0.0
 11
15.99999850127039
 21
54.97381495444507
 31
0.0
  0
LINE
  5
15C
330
2B
100
AcDbEntity
  8
0
100
AcDbLine
 10
48.9999985012704
 20
50.00000087601303
 30
0.0
 11
53.4999985012704
 21
50.00000087601303
 31
0.0
  0
LINE
  5
15D
330
2B
100
AcDbEntity
  8
0
100
AcDbLine
 10
53.4999985012704
 20
50.00000087601303
 30
0.0
 11
53.4999985012704
 21
50.00000087601303
 31
0.0
  0
ENDBLK
  5
15F
330
2B
100
AcDbEntity
  8
0
100
AcDbBlockEnd
  0
BLOCK
  5
230
330
160
100
AcDbEntity
  8
0
100
AcDbBlockBegin
  2
A$C413B70EE
 70
     0
 10
0.0
 20
0.0
 30
0.0
  3
A$C413B70EE
  1

  0
LINE
  5
161
330
160
100
AcDbEntity
  8
0
100
AcDbLine
 10
127.5999998339284
 20
200.3690727306389
 30
0.0
 11
127.5999998339284
 21
6.63093194633106
 31
0.0
  0
LINE
  5
162
330
160
100
AcDbEntity
  8
0
100
AcDbLine
 10
122.5999998339284
 20
6.500002338485045
 30
0.0
 11
122.5999998339284
 21
16.50000233848504
 31
0.0
  0
LINE
  5
163
330
160
100
AcDbEntity
  8
0
100
AcDbLine
 10
6.599999833929357
 20
16.50000233848504
 30
0.0
 11
6.599999833929357
 21
190.5000023384847
 31
0.0
  0
LINE
  5
164
330
160
100
AcDbEntity
  8
0
100
AcDbLine
 10
6.599999833929357
 20
190.5000023384847
 30
0.0
 11
122.5999998339284
 21
190.5000023384847
 31
0.0
  0
LINE
  5
165
330
160
100
AcDbEntity
  8
0
100
AcDbLine
 10
6.599999833929357
 20
16.50000233848504
 30
0.0
 11
122.5999998339284
 21
16.50000233848504
 31
0.0
  0
LINE
  5
166
330
160
100
AcDbEntity
  8
0
100
AcDbLine
 10
122.5999998339284
 20
200.5000023384849
 30
0.0
 11
127.5999998339284
 21
200.3690727306389
 31
0.0
  0
LINE
  5
167
330
160
100
AcDbEntity
  8
0
100
AcDbLine
 10
124.014039598665
 20
200.4629744041099
 30
0.0
 11
124.0140395986643
 21
6.537030272860023
 31
0.0
  0
LINE
  5
168
330
160
100
AcDbEntity
  8
0
100
AcDbLine
 10
122.5999998339284
 20
6.500002338485045
 30
0.0
 11
127.5999998339284
 21
6.63093194633106
 31
0.0
  0
LINE
  5
169
330
160
100
AcDbEntity
  8
0
100
AcDbLine
 10
6.599999833929357
 20
16.50000233848504
 30
0.0
 11
6.599999833929357
 21
190.5000023384847
 31
0.0
  0
LINE
  5
16A
330
160
100
AcDbEntity
  8
0
100
AcDbLine
 10
6.599999833929357
 20
190.5000023384847
 30
0.0
 11
123.9878536770973
 21
190.5000023384847
 31
0.0
  0
LINE
  5
16B
330
160
100
AcDbEntity
  8
0
100
AcDbLine
 10
23.59999983392935
 20
16.50000233848504
 30
0.0
 11
23.59999983392935
 21
190.5000023384847
 31
0.0
  0
LINE
  5
16C
330
160
100
AcDbEntity
  8
0
100
AcDbLine
 10
105.5999998339291
 20
16.50000233848504
 30
0.0
 11
105.5999998339291
 21
190.5000023384847
 31
0.0
  0
LINE
  5
16D
330
160
100
AcDbEntity
  8
0
100
AcDbLine
 10
23.59999983392935
 20
189.5000023384849
 30
0.0
 11
105.5999998339291
 21
189.5000023384849
 31
0.0
  0
LINE
  5
16E
330
160
100
AcDbEntity
  8
0
100
AcDbLine
 10
28.59999983392935
 20
187.5000023384849
 30
0.0
 11
30.59999983392935
 21
187.5000023384849
 31
0.0
  0
LINE
  5
16F
330
160
100
AcDbEntity
  8
0
100
AcDbLine
 10
28.59999983392935
 20
17.50000233848504
 30
0.0
 11
28.59999983392935
 21
70.75000233848505
 31
0.0
  0
LINE
  5
170
330
160
100
AcDbEntity
  8
0
100
AcDbLine
 10
30.59999983392935
 20
17.50000233848504
 30
0.0
 11
30.59999983392935
 21
70.75000233848505
 31
0.0
  0
LINE
  5
171
330
160
100
AcDbEntity
  8
0
100
AcDbLine
 10
28.59999983392935
 20
136.2500023384847
 30
0.0
 11
30.59999983392935
 21
136.2500023384847
 31
0.0
  0
LINE
  5
172
330
160
100
AcDbEntity
  8
0
100
AcDbLine
 10
28.59999983392935
 20
70.75000233848505
 30
0.0
 11
30.59999983392935
 21
70.75000233848505
 31
0.0
  0
LINE
  5
173
330
160
100
AcDbEntity
  8
0
100
AcDbLine
 10
23.59999983392935
 20
17.50000233848504
 30
0.0
 11
105.5999998339291
 21
17.50000233848504
 31
0.0
  0
LINE
  5
174
330
160
100
AcDbEntity
  8
0
100
AcDbLine
 10
28.59999983392935
 20
19.50000233848504
 30
0.0
 11
30.59999983392935
 21
19.50000233848504
 31
0.0
  0
LINE
  5
175
330
160
100
AcDbEntity
  8
0
100
AcDbLine
 10
28.59999983392935
 20
136.2500023384847
 30
0.0
 11
28.59999983392935
 21
189.5000023384849
 31
0.0
  0
LINE
  5
176
330
160
100
AcDbEntity
  8
0
100
AcDbLine
 10
30.59999983392935
 20
136.2500023384847
 30
0.0
 11
30.59999983392935
 21
189.5000023384849
 31
0.0
  0
LINE
  5
177
330
160
100
AcDbEntity
  8
0
100
AcDbLine
 10
35.59999983392936
 20
187.5000023384849
 30
0.0
 11
37.59999983392936
 21
187.5000023384849
 31
0.0
  0
LINE
  5
178
330
160
100
AcDbEntity
  8
0
100
AcDbLine
 10
35.59999983392936
 20
17.50000233848504
 30
0.0
 11
35.59999983392936
 21
70.75000233848505
 31
0.0
  0
LINE
  5
179
330
160
100
AcDbEntity
  8
0
100
AcDbLine
 10
37.59999983392936
 20
17.50000233848504
 30
0.0
 11
37.59999983392936
 21
70.75000233848505
 31
0.0
  0
LINE
  5
17A
330
160
100
AcDbEntity
  8
0
100
AcDbLine
 10
35.59999983392936
 20
136.2500023384847
 30
0.0
 11
37.59999983392936
 21
136.2500023384847
 31
0.0
  0
LINE
  5
17B
330
160
100
AcDbEntity
  8
0
100
AcDbLine
 10
35.59999983392936
 20
70.75000233848505
 30
0.0
 11
37.59999983392936
 21
70.75000233848505
 31
0.0
  0
LINE
  5
17C
330
160
100
AcDbEntity
  8
0
100
AcDbLine
 10
35.59999983392936
 20
19.50000233848504
 30
0.0
 11
37.59999983392936
 21
19.50000233848504
 31
0.0
  0
LINE
  5
17D
330
160
100
AcDbEntity
  8
0
100
AcDbLine
 10
35.59999983392936
 20
136.2500023384847
 30
0.0
 11
35.59999983392936
 21
189.5000023384849
 31
0.0
  0
LINE
  5
17E
330
160
100
AcDbEntity
  8
0
100
AcDbLine
 10
37.59999983392936
 20
136.2500023384847
 30
0.0
 11
37.59999983392936
 21
189.5000023384849
 31
0.0
  0
LINE
  5
17F
330
160
100
AcDbEntity
  8
0
100
AcDbLine
 10
42.59999983392936
 20
187.5000023384849
 30
0.0
 11
44.59999983392934
 21
187.5000023384849
 31
0.0
  0
LINE
  5
180
330
160
100
AcDbEntity
  8
0
100
AcDbLine
 10
42.59999983392936
 20
17.50000233848504
 30
0.0
 11
42.59999983392936
 21
70.75000233848505
 31
0.0
  0
LINE
  5
181
330
160
100
AcDbEntity
  8
0
100
AcDbLine
 10
44.59999983392934
 20
17.50000233848504
 30
0.0
 11
44.59999983392934
 21
70.75000233848505
 31
0.0
  0
LINE
  5
182
330
160
100
AcDbEntity
  8
0
100
AcDbLine
 10
42.59999983392936
 20
136.2500023384847
 30
0.0
 11
44.59999983392934
 21
136.2500023384847
 31
0.0
  0
LINE
  5
183
330
160
100
AcDbEntity
  8
0
100
AcDbLine
 10
42.59999983392936
 20
70.75000233848505
 30
0.0
 11
44.59999983392934
 21
70.75000233848505
 31
0.0
  0
LINE
  5
184
330
160
100
AcDbEntity
  8
0
100
AcDbLine
 10
42.59999983392936
 20
19.50000233848504
 30
0.0
 11
44.59999983392934
 21
19.50000233848504
 31
0.0
  0
LINE
  5
185
330
160
100
AcDbEntity
  8
0
100
AcDbLine
 10
42.59999983392936
 20
136.2500023384847
 30
0.0
 11
42.59999983392936
 21
189.5000023384849
 31
0.0
  0
LINE
  5
186
330
160
100
AcDbEntity
  8
0
100
AcDbLine
 10
44.59999983392934
 20
136.2500023384847
 30
0.0
 11
44.59999983392934
 21
189.5000023384849
 31
0.0
  0
LINE
  5
187
330
160
100
AcDbEntity
  8
0
100
AcDbLine
 10
49.59999983392936
 20
17.50000233848504
 30
0.0
 11
49.59999983392936
 21
70.75000233848505
 31
0.0
  0
LINE
  5
188
330
160
100
AcDbEntity
  8
0
100
AcDbLine
 10
51.59999983392935
 20
17.50000233848504
 30
0.0
 11
51.59999983392935
 21
70.75000233848505
 31
0.0
  0
LINE
  5
189
330
160
100
AcDbEntity
  8
0
100
AcDbLine
 10
49.59999983392936
 20
136.2500023384847
 30
0.0
 11
51.59999983392935
 21
136.2500023384847
 31
0.0
  0
LINE
  5
18A
330
160
100
AcDbEntity
  8
0
100
AcDbLine
 10
49.59999983392936
 20
70.75000233848505
 30
0.0
 11
51.59999983392935
 21
70.75000233848505
 31
0.0
  0
LINE
  5
18B
330
160
100
AcDbEntity
  8
0
100
AcDbLine
 10
49.59999983392936
 20
19.50000233848504
 30
0.0
 11
51.59999983392935
 21
19.50000233848504
 31
0.0
  0
LINE
  5
18C
330
160
100
AcDbEntity
  8
0
100
AcDbLine
 10
49.59999983392936
 20
136.2500023384847
 30
0.0
 11
49.59999983392936
 21
189.5000023384849
 31
0.0
  0
LINE
  5
18D
330
160
100
AcDbEntity
  8
0
100
AcDbLine
 10
51.59999983392935
 20
136.2500023384847
 30
0.0
 11
51.59999983392935
 21
189.5000023384849
 31
0.0
  0
LINE
  5
18E
330
160
100
AcDbEntity
  8
0
100
AcDbLine
 10
56.59999983392935
 20
187.5000023384849
 30
0.0
 11
58.59999983392936
 21
187.5000023384849
 31
0.0
  0
LINE
  5
18F
330
160
100
AcDbEntity
  8
0
100
AcDbLine
 10
56.59999983392935
 20
17.50000233848504
 30
0.0
 11
56.59999983392935
 21
70.75000233848505
 31
0.0
  0
LINE
  5
190
330
160
100
AcDbEntity
  8
0
100
AcDbLine
 10
58.59999983392936
 20
17.50000233848504
 30
0.0
 11
58.59999983392936
 21
70.75000233848505
 31
0.0
  0
LINE
  5
191
330
160
100
AcDbEntity
  8
0
100
AcDbLine
 10
56.59999983392935
 20
136.2500023384847
 30
0.0
 11
58.59999983392936
 21
136.2500023384847
 31
0.0
  0
LINE
  5
192
330
160
100
AcDbEntity
  8
0
100
AcDbLine
 10
56.59999983392935
 20
70.75000233848505
 30
0.0
 11
58.59999983392936
 21
70.75000233848505
 31
0.0
  0
LINE
  5
193
330
160
100
AcDbEntity
  8
0
100
AcDbLine
 10
56.59999983392935
 20
19.50000233848504
 30
0.0
 11
58.59999983392936
 21
19.50000233848504
 31
0.0
  0
LINE
  5
194
330
160
100
AcDbEntity
  8
0
100
AcDbLine
 10
56.59999983392935
 20
136.2500023384847
 30
0.0
 11
56.59999983392935
 21
189.5000023384849
 31
0.0
  0
LINE
  5
195
330
160
100
AcDbEntity
  8
0
100
AcDbLine
 10
58.59999983392936
 20
136.2500023384847
 30
0.0
 11
58.59999983392936
 21
189.5000023384849
 31
0.0
  0
LINE
  5
196
330
160
100
AcDbEntity
  8
0
100
AcDbLine
 10
63.59999983392936
 20
187.5000023384849
 30
0.0
 11
65.59999983392936
 21
187.5000023384849
 31
0.0
  0
LINE
  5
197
330
160
100
AcDbEntity
  8
0
100
AcDbLine
 10
63.59999983392936
 20
17.50000233848504
 30
0.0
 11
63.59999983392936
 21
70.75000233848505
 31
0.0
  0
LINE
  5
198
330
160
100
AcDbEntity
  8
0
100
AcDbLine
 10
65.59999983392936
 20
17.50000233848504
 30
0.0
 11
65.59999983392936
 21
70.75000233848505
 31
0.0
  0
LINE
  5
199
330
160
100
AcDbEntity
  8
0
100
AcDbLine
 10
63.59999983392936
 20
136.2500023384847
 30
0.0
 11
65.59999983392936
 21
136.2500023384847
 31
0.0
  0
LINE
  5
19A
330
160
100
AcDbEntity
  8
0
100
AcDbLine
 10
63.59999983392936
 20
70.75000233848505
 30
0.0
 11
65.59999983392936
 21
70.75000233848505
 31
0.0
  0
LINE
  5
19B
330
160
100
AcDbEntity
  8
0
100
AcDbLine
 10
63.59999983392936
 20
19.50000233848504
 30
0.0
 11
65.59999983392936
 21
19.50000233848504
 31
0.0
  0
LINE
  5
19C
330
160
100
AcDbEntity
  8
0
100
AcDbLine
 10
63.59999983392936
 20
136.2500023384847
 30
0.0
 11
63.59999983392936
 21
189.5000023384849
 31
0.0
  0
LINE
  5
19D
330
160
100
AcDbEntity
  8
0
100
AcDbLine
 10
65.59999983392936
 20
136.2500023384847
 30
0.0
 11
65.59999983392936
 21
189.5000023384849
 31
0.0
  0
LINE
  5
19E
330
160
100
AcDbEntity
  8
0
100
AcDbLine
 10
70.59999983392936
 20
187.5000023384849
 30
0.0
 11
72.59999983392936
 21
187.5000023384849
 31
0.0
  0
LINE
  5
19F
330
160
100
AcDbEntity
  8
0
100
AcDbLine
 10
70.59999983392936
 20
17.50000233848504
 30
0.0
 11
70.59999983392936
 21
70.75000233848505
 31
0.0
  0
LINE
  5
1A0
330
160
100
AcDbEntity
  8
0
100
AcDbLine
 10
72.59999983392936
 20
17.50000233848504
 30
0.0
 11
72.59999983392936
 21
70.75000233848505
 31
0.0
  0
LINE
  5
1A1
330
160
100
AcDbEntity
  8
0
100
AcDbLine
 10
70.59999983392936
 20
136.2500023384847
 30
0.0
 11
72.59999983392936
 21
136.2500023384847
 31
0.0
  0
LINE
  5
1A2
330
160
100
AcDbEntity
  8
0
100
AcDbLine
 10
70.59999983392936
 20
70.75000233848505
 30
0.0
 11
72.59999983392936
 21
70.75000233848505
 31
0.0
  0
LINE
  5
1A3
330
160
100
AcDbEntity
  8
0
100
AcDbLine
 10
70.59999983392936
 20
19.50000233848504
 30
0.0
 11
72.59999983392936
 21
19.50000233848504
 31
0.0
  0
LINE
  5
1A4
330
160
100
AcDbEntity
  8
0
100
AcDbLine
 10
70.59999983392936
 20
136.2500023384847
 30
0.0
 11
70.59999983392936
 21
189.5000023384849
 31
0.0
  0
LINE
  5
1A5
330
160
100
AcDbEntity
  8
0
100
AcDbLine
 10
72.59999983392936
 20
136.2500023384847
 30
0.0
 11
72.59999983392936
 21
189.5000023384849
 31
0.0
  0
LINE
  5
1A6
330
160
100
AcDbEntity
  8
0
100
AcDbLine
 10
77.59999983392936
 20
187.5000023384849
 30
0.0
 11
79.59999983392936
 21
187.5000023384849
 31
0.0
  0
LINE
  5
1A7
330
160
100
AcDbEntity
  8
0
100
AcDbLine
 10
77.59999983392936
 20
17.50000233848504
 30
0.0
 11
77.59999983392936
 21
70.75000233848505
 31
0.0
  0
LINE
  5
1A8
330
160
100
AcDbEntity
  8
0
100
AcDbLine
 10
79.59999983392936
 20
17.50000233848504
 30
0.0
 11
79.59999983392936
 21
70.75000233848505
 31
0.0
  0
LINE
  5
1A9
330
160
100
AcDbEntity
  8
0
100
AcDbLine
 10
77.59999983392936
 20
136.2500023384847
 30
0.0
 11
79.59999983392936
 21
136.2500023384847
 31
0.0
  0
LINE
  5
1AA
330
160
100
AcDbEntity
  8
0
100
AcDbLine
 10
77.59999983392936
 20
70.75000233848505
 30
0.0
 11
79.59999983392936
 21
70.75000233848505
 31
0.0
  0
LINE
  5
1AB
330
160
100
AcDbEntity
  8
0
100
AcDbLine
 10
77.59999983392936
 20
19.50000233848504
 30
0.0
 11
79.59999983392936
 21
19.50000233848504
 31
0.0
  0
LINE
  5
1AC
330
160
100
AcDbEntity
  8
0
100
AcDbLine
 10
77.59999983392936
 20
136.2500023384847
 30
0.0
 11
77.59999983392936
 21
189.5000023384849
 31
0.0
  0
LINE
  5
1AD
330
160
100
AcDbEntity
  8
0
100
AcDbLine
 10
79.59999983392936
 20
136.2500023384847
 30
0.0
 11
79.59999983392936
 21
189.5000023384849
 31
0.0
  0
LINE
  5
1AE
330
160
100
AcDbEntity
  8
0
100
AcDbLine
 10
84.59999983392936
 20
187.5000023384849
 30
0.0
 11
86.59999983392934
 21
187.5000023384849
 31
0.0
  0
LINE
  5
1AF
330
160
100
AcDbEntity
  8
0
100
AcDbLine
 10
84.59999983392936
 20
17.50000233848504
 30
0.0
 11
84.59999983392936
 21
70.75000233848505
 31
0.0
  0
LINE
  5
1B0
330
160
100
AcDbEntity
  8
0
100
AcDbLine
 10
86.59999983392934
 20
17.50000233848504
 30
0.0
 11
86.59999983392934
 21
70.75000233848505
 31
0.0
  0
LINE
  5
1B1
330
160
100
AcDbEntity
  8
0
100
AcDbLine
 10
84.59999983392936
 20
136.2500023384847
 30
0.0
 11
86.59999983392934
 21
136.2500023384847
 31
0.0
  0
LINE
  5
1B2
330
160
100
AcDbEntity
  8
0
100
AcDbLine
 10
84.59999983392936
 20
70.75000233848505
 30
0.0
 11
86.59999983392934
 21
70.75000233848505
 31
0.0
  0
LINE
  5
1B3
330
160
100
AcDbEntity
  8
0
100
AcDbLine
 10
84.59999983392936
 20
19.50000233848504
 30
0.0
 11
86.59999983392934
 21
19.50000233848504
 31
0.0
  0
LINE
  5
1B4
330
160
100
AcDbEntity
  8
0
100
AcDbLine
 10
84.59999983392936
 20
136.2500023384847
 30
0.0
 11
84.59999983392936
 21
189.5000023384849
 31
0.0
  0
LINE
  5
1B5
330
160
100
AcDbEntity
  8
0
100
AcDbLine
 10
86.59999983392934
 20
136.2500023384847
 30
0.0
 11
86.59999983392934
 21
189.5000023384849
 31
0.0
  0
LINE
  5
1B6
330
160
100
AcDbEntity
  8
0
100
AcDbLine
 10
91.59999983392937
 20
187.5000023384849
 30
0.0
 11
93.59999983392937
 21
187.5000023384849
 31
0.0
  0
LINE
  5
1B7
330
160
100
AcDbEntity
  8
0
100
AcDbLine
 10
91.59999983392937
 20
17.50000233848504
 30
0.0
 11
91.59999983392937
 21
70.75000233848505
 31
0.0
  0
LINE
  5
1B8
330
160
100
AcDbEntity
  8
0
100
AcDbLine
 10
93.59999983392937
 20
17.50000233848504
 30
0.0
 11
93.59999983392937
 21
70.75000233848505
 31
0.0
  0
LINE
  5
1B9
330
160
100
AcDbEntity
  8
0
100
AcDbLine
 10
91.59999983392937
 20
136.2500023384847
 30
0.0
 11
93.59999983392937
 21
136.2500023384847
 31
0.0
  0
LINE
  5
1BA
330
160
100
AcDbEntity
  8
0
100
AcDbLine
 10
91.59999983392937
 20
70.75000233848505
 30
0.0
 11
93.59999983392937
 21
70.75000233848505
 31
0.0
  0
LINE
  5
1BB
330
160
100
AcDbEntity
  8
0
100
AcDbLine
 10
91.59999983392937
 20
19.50000233848504
 30
0.0
 11
93.59999983392937
 21
19.50000233848504
 31
0.0
  0
LINE
  5
1BC
330
160
100
AcDbEntity
  8
0
100
AcDbLine
 10
91.59999983392937
 20
136.2500023384847
 30
0.0
 11
91.59999983392937
 21
189.5000023384849
 31
0.0
  0
LINE
  5
1BD
330
160
100
AcDbEntity
  8
0
100
AcDbLine
 10
93.59999983392937
 20
136.2500023384847
 30
0.0
 11
93.59999983392937
 21
189.5000023384849
 31
0.0
  0
LINE
  5
1BE
330
160
100
AcDbEntity
  8
0
100
AcDbLine
 10
98.59999983392938
 20
187.5000023384849
 30
0.0
 11
100.5999998339291
 21
187.5000023384849
 31
0.0
  0
LINE
  5
1BF
330
160
100
AcDbEntity
  8
0
100
AcDbLine
 10
98.59999983392938
 20
17.50000233848504
 30
0.0
 11
98.59999983392938
 21
70.75000233848505
 31
0.0
  0
LINE
  5
1C0
330
160
100
AcDbEntity
  8
0
100
AcDbLine
 10
100.5999998339291
 20
17.50000233848504
 30
0.0
 11
100.5999998339291
 21
70.75000233848505
 31
0.0
  0
LINE
  5
1C1
330
160
100
AcDbEntity
  8
0
100
AcDbLine
 10
98.59999983392938
 20
136.2500023384847
 30
0.0
 11
100.5999998339291
 21
136.2500023384847
 31
0.0
  0
LINE
  5
1C2
330
160
100
AcDbEntity
  8
0
100
AcDbLine
 10
98.59999983392938
 20
70.75000233848505
 30
0.0
 11
100.5999998339291
 21
70.75000233848505
 31
0.0
  0
LINE
  5
1C3
330
160
100
AcDbEntity
  8
0
100
AcDbLine
 10
98.59999983392938
 20
19.50000233848504
 30
0.0
 11
100.5999998339291
 21
19.50000233848504
 31
0.0
  0
LINE
  5
1C4
330
160
100
AcDbEntity
  8
0
100
AcDbLine
 10
98.59999983392938
 20
136.2500023384847
 30
0.0
 11
98.59999983392938
 21
189.5000023384849
 31
0.0
  0
LINE
  5
1C5
330
160
100
AcDbEntity
  8
0
100
AcDbLine
 10
100.5999998339291
 20
136.2500023384847
 30
0.0
 11
100.5999998339291
 21
189.5000023384849
 31
0.0
  0
LINE
  5
1C6
330
160
100
AcDbEntity
  8
0
100
AcDbLine
 10
28.59999983392935
 20
165.0000023384849
 30
0.0
 11
30.59999983392935
 21
165.0000023384849
 31
0.0
  0
LINE
  5
1C7
330
160
100
AcDbEntity
  8
0
100
AcDbLine
 10
28.59999983392935
 20
162.0000023384849
 30
0.0
 11
30.59999983392935
 21
162.0000023384849
 31
0.0
  0
LINE
  5
1C8
330
160
100
AcDbEntity
  8
0
100
AcDbLine
 10
28.59999983392935
 20
45.00000233848505
 30
0.0
 11
30.59999983392935
 21
45.00000233848505
 31
0.0
  0
LINE
  5
1C9
330
160
100
AcDbEntity
  8
0
100
AcDbLine
 10
28.59999983392935
 20
42.00000233848505
 30
0.0
 11
30.59999983392935
 21
42.00000233848505
 31
0.0
  0
LINE
  5
1CA
330
160
100
AcDbEntity
  8
0
100
AcDbLine
 10
35.59999983392936
 20
165.0000023384849
 30
0.0
 11
37.59999983392936
 21
165.0000023384849
 31
0.0
  0
LINE
  5
1CB
330
160
100
AcDbEntity
  8
0
100
AcDbLine
 10
35.59999983392936
 20
162.0000023384849
 30
0.0
 11
37.59999983392936
 21
162.0000023384849
 31
0.0
  0
LINE
  5
1CC
330
160
100
AcDbEntity
  8
0
100
AcDbLine
 10
35.59999983392936
 20
45.00000233848505
 30
0.0
 11
37.59999983392936
 21
45.00000233848505
 31
0.0
  0
LINE
  5
1CD
330
160
100
AcDbEntity
  8
0
100
AcDbLine
 10
35.59999983392936
 20
42.00000233848505
 30
0.0
 11
37.59999983392936
 21
42.00000233848505
 31
0.0
  0
LINE
  5
1CE
330
160
100
AcDbEntity
  8
0
100
AcDbLine
 10
42.59999983392936
 20
165.0000023384849
 30
0.0
 11
44.59999983392934
 21
165.0000023384849
 31
0.0
  0
LINE
  5
1CF
330
160
100
AcDbEntity
  8
0
100
AcDbLine
 10
42.59999983392936
 20
162.0000023384849
 30
0.0
 11
44.59999983392934
 21
162.0000023384849
 31
0.0
  0
LINE
  5
1D0
330
160
100
AcDbEntity
  8
0
100
AcDbLine
 10
42.59999983392936
 20
45.00000233848505
 30
0.0
 11
44.59999983392934
 21
45.00000233848505
 31
0.0
  0
LINE
  5
1D1
330
160
100
AcDbEntity
  8
0
100
AcDbLine
 10
42.59999983392936
 20
42.00000233848505
 30
0.0
 11
44.59999983392934
 21
42.00000233848505
 31
0.0
  0
LINE
  5
1D2
330
160
100
AcDbEntity
  8
0
100
AcDbLine
 10
49.59999983392936
 20
165.0000023384849
 30
0.0
 11
51.59999983392935
 21
165.0000023384849
 31
0.0
  0
LINE
  5
1D3
330
160
100
AcDbEntity
  8
0
100
AcDbLine
 10
49.59999983392936
 20
162.0000023384849
 30
0.0
 11
51.59999983392935
 21
162.0000023384849
 31
0.0
  0
LINE
  5
1D4
330
160
100
AcDbEntity
  8
0
100
AcDbLine
 10
49.59999983392936
 20
45.00000233848505
 30
0.0
 11
51.59999983392935
 21
45.00000233848505
 31
0.0
  0
LINE
  5
1D5
330
160
100
AcDbEntity
  8
0
100
AcDbLine
 10
49.59999983392936
 20
42.00000233848505
 30
0.0
 11
51.59999983392935
 21
42.00000233848505
 31
0.0
  0
LINE
  5
1D6
330
160
100
AcDbEntity
  8
0
100
AcDbLine
 10
56.59999983392935
 20
165.0000023384849
 30
0.0
 11
58.59999983392936
 21
165.0000023384849
 31
0.0
  0
LINE
  5
1D7
330
160
100
AcDbEntity
  8
0
100
AcDbLine
 10
56.59999983392935
 20
162.0000023384849
 30
0.0
 11
58.59999983392936
 21
162.0000023384849
 31
0.0
  0
LINE
  5
1D8
330
160
100
AcDbEntity
  8
0
100
AcDbLine
 10
56.59999983392935
 20
45.00000233848505
 30
0.0
 11
58.59999983392936
 21
45.00000233848505
 31
0.0
  0
LINE
  5
1D9
330
160
100
AcDbEntity
  8
0
100
AcDbLine
 10
56.59999983392935
 20
42.00000233848505
 30
0.0
 11
58.59999983392936
 21
42.00000233848505
 31
0.0
  0
LINE
  5
1DA
330
160
100
AcDbEntity
  8
0
100
AcDbLine
 10
63.59999983392936
 20
165.0000023384849
 30
0.0
 11
65.59999983392936
 21
165.0000023384849
 31
0.0
  0
LINE
  5
1DB
330
160
100
AcDbEntity
  8
0
100
AcDbLine
 10
63.59999983392936
 20
162.0000023384849
 30
0.0
 11
65.59999983392936
 21
162.0000023384849
 31
0.0
  0
LINE
  5
1DC
330
160
100
AcDbEntity
  8
0
100
AcDbLine
 10
63.59999983392936
 20
45.00000233848505
 30
0.0
 11
65.59999983392936
 21
45.00000233848505
 31
0.0
  0
LINE
  5
1DD
330
160
100
AcDbEntity
  8
0
100
AcDbLine
 10
63.59999983392936
 20
42.00000233848505
 30
0.0
 11
65.59999983392936
 21
42.00000233848505
 31
0.0
  0
LINE
  5
1DE
330
160
100
AcDbEntity
  8
0
100
AcDbLine
 10
70.59999983392936
 20
165.0000023384849
 30
0.0
 11
72.59999983392936
 21
165.0000023384849
 31
0.0
  0
LINE
  5
1DF
330
160
100
AcDbEntity
  8
0
100
AcDbLine
 10
70.59999983392936
 20
162.0000023384849
 30
0.0
 11
72.59999983392936
 21
162.0000023384849
 31
0.0
  0
LINE
  5
1E0
330
160
100
AcDbEntity
  8
0
100
AcDbLine
 10
70.59999983392936
 20
45.00000233848505
 30
0.0
 11
72.59999983392936
 21
45.00000233848505
 31
0.0
  0
LINE
  5
1E1
330
160
100
AcDbEntity
  8
0
100
AcDbLine
 10
70.59999983392936
 20
42.00000233848505
 30
0.0
 11
72.59999983392936
 21
42.00000233848505
 31
0.0
  0
LINE
  5
1E2
330
160
100
AcDbEntity
  8
0
100
AcDbLine
 10
77.59999983392936
 20
165.0000023384849
 30
0.0
 11
79.59999983392936
 21
165.0000023384849
 31
0.0
  0
LINE
  5
1E3
330
160
100
AcDbEntity
  8
0
100
AcDbLine
 10
77.59999983392936
 20
162.0000023384849
 30
0.0
 11
79.59999983392936
 21
162.0000023384849
 31
0.0
  0
LINE
  5
1E4
330
160
100
AcDbEntity
  8
0
100
AcDbLine
 10
77.59999983392936
 20
45.00000233848505
 30
0.0
 11
79.59999983392936
 21
45.00000233848505
 31
0.0
  0
LINE
  5
1E5
330
160
100
AcDbEntity
  8
0
100
AcDbLine
 10
77.59999983392936
 20
42.00000233848505
 30
0.0
 11
79.59999983392936
 21
42.00000233848505
 31
0.0
  0
LINE
  5
1E6
330
160
100
AcDbEntity
  8
0
100
AcDbLine
 10
84.59999983392936
 20
165.0000023384849
 30
0.0
 11
86.59999983392934
 21
165.0000023384849
 31
0.0
  0
LINE
  5
1E7
330
160
100
AcDbEntity
  8
0
100
AcDbLine
 10
84.59999983392936
 20
162.0000023384849
 30
0.0
 11
86.59999983392934
 21
162.0000023384849
 31
0.0
  0
LINE
  5
1E8
330
160
100
AcDbEntity
  8
0
100
AcDbLine
 10
84.59999983392936
 20
45.00000233848505
 30
0.0
 11
86.59999983392934
 21
45.00000233848505
 31
0.0
  0
LINE
  5
1E9
330
160
100
AcDbEntity
  8
0
100
AcDbLine
 10
84.59999983392936
 20
42.00000233848505
 30
0.0
 11
86.59999983392934
 21
42.00000233848505
 31
0.0
  0
LINE
  5
1EA
330
160
100
AcDbEntity
  8
0
100
AcDbLine
 10
91.59999983392937
 20
165.0000023384849
 30
0.0
 11
93.59999983392937
 21
165.0000023384849
 31
0.0
  0
LINE
  5
1EB
330
160
100
AcDbEntity
  8
0
100
AcDbLine
 10
91.59999983392937
 20
162.0000023384849
 30
0.0
 11
93.59999983392937
 21
162.0000023384849
 31
0.0
  0
LINE
  5
1EC
330
160
100
AcDbEntity
  8
0
100
AcDbLine
 10
91.59999983392937
 20
45.00000233848505
 30
0.0
 11
93.59999983392937
 21
45.00000233848505
 31
0.0
  0
LINE
  5
1ED
330
160
100
AcDbEntity
  8
0
100
AcDbLine
 10
91.59999983392937
 20
42.00000233848505
 30
0.0
 11
93.59999983392937
 21
42.00000233848505
 31
0.0
  0
LINE
  5
1EE
330
160
100
AcDbEntity
  8
0
100
AcDbLine
 10
98.59999983392938
 20
165.0000023384849
 30
0.0
 11
100.5999998339291
 21
165.0000023384849
 31
0.0
  0
LINE
  5
1EF
330
160
100
AcDbEntity
  8
0
100
AcDbLine
 10
98.59999983392938
 20
162.0000023384849
 30
0.0
 11
100.5999998339291
 21
162.0000023384849
 31
0.0
  0
LINE
  5
1F0
330
160
100
AcDbEntity
  8
0
100
AcDbLine
 10
98.59999983392938
 20
45.00000233848505
 30
0.0
 11
100.5999998339291
 21
45.00000233848505
 31
0.0
  0
LINE
  5
1F1
330
160
100
AcDbEntity
  8
0
100
AcDbLine
 10
98.59999983392938
 20
42.00000233848505
 30
0.0
 11
100.5999998339291
 21
42.00000233848505
 31
0.0
  0
LINE
  5
1F2
330
160
100
AcDbEntity
  8
0
100
AcDbLine
 10
78.59999983392936
 20
17.50000233848504
 30
0.0
 11
78.59999983392835
 21
17.00000233848504
 31
0.0
  0
LINE
  5
1F3
330
160
100
AcDbEntity
  8
0
100
AcDbLine
 10
23.59999983392935
 20
17.00000233848504
 30
0.0
 11
78.59999983392936
 21
17.00000233848504
 31
0.0
  0
LINE
  5
1F4
330
160
100
AcDbEntity
  8
0
100
AcDbLine
 10
123.9878536770963
 20
16.50000233848504
 30
0.0
 11
123.9878536770973
 21
190.5000023384847
 31
0.0
  0
LINE
  5
1F5
330
160
100
AcDbEntity
  8
0
100
AcDbLine
 10
3.199999833929495
 20
57.20000307217538
 30
0.0
 11
3.199999833929495
 21
37.00000307217532
 31
0.0
  0
LINE
  5
1F6
330
160
100
AcDbEntity
  8
0
100
AcDbLine
 10
4.099999833929357
 20
33.50000307217532
 30
0.0
 11
3.599999833929357
 21
34.00000307217532
 31
0.0
  0
LINE
  5
1F7
330
160
100
AcDbEntity
  8
0
100
AcDbLine
 10
3.599999833929472
 20
34.90000307217542
 30
0.0
 11
3.599999833929357
 21
34.00000307217532
 31
0.0
  0
LINE
  5
1F8
330
160
100
AcDbEntity
  8
0
100
AcDbLine
 10
4.899999833929538
 20
33.50000307217532
 30
0.0
 11
4.099999833929357
 21
33.50000307217532
 31
0.0
  0
ARC
  5
1F9
330
160
100
AcDbEntity
  8
0
100
AcDbCircle
 10
4.599999833929471
 20
34.90000307217531
 30
0.0
 40
1.0
100
AcDbArc
 50
90.0
 51
180.0
  0
LINE
  5
1FA
330
160
100
AcDbEntity
  8
0
100
AcDbLine
 10
6.599999833929357
 20
35.90000307217538
 30
0.0
 11
4.599999833929471
 21
35.90000307217531
 31
0.0
  0
LINE
  5
1FB
330
160
100
AcDbEntity
  8
0
100
AcDbLine
 10
6.599999833929357
 20
34.70000307217537
 30
0.0
 11
4.899999833929655
 21
34.70000307217537
 31
0.0
  0
LINE
  5
1FC
330
160
100
AcDbEntity
  8
0
100
AcDbLine
 10
6.599999833929357
 20
37.00000307217528
 30
0.0
 11
3.199999833929495
 21
37.00000307217532
 31
0.0
  0
LINE
  5
1FD
330
160
100
AcDbEntity
  8
0
100
AcDbLine
 10
4.899999833929538
 20
33.50000307217532
 30
0.0
 11
4.899999833929538
 21
34.70000307217537
 31
0.0
  0
LINE
  5
1FE
330
160
100
AcDbEntity
  8
0
100
AcDbLine
 10
4.099999833929587
 20
60.70000307217537
 30
0.0
 11
3.599999833929587
 21
60.20000307217538
 31
0.0
  0
LINE
  5
1FF
330
160
100
AcDbEntity
  8
0
100
AcDbLine
 10
3.599999833929587
 20
60.20000307217538
 30
0.0
 11
3.599999833929587
 21
59.30000307217529
 31
0.0
  0
LINE
  5
200
330
160
100
AcDbEntity
  8
0
100
AcDbLine
 10
4.899999833929538
 20
60.70000307217537
 30
0.0
 11
4.099999833929587
 21
60.70000307217537
 31
0.0
  0
ARC
  5
201
330
160
100
AcDbEntity
  8
0
100
AcDbCircle
 10
4.599999833929587
 20
59.3000030721754
 30
0.0
 40
1.0
100
AcDbArc
 50
180.0
 51
270.0
  0
LINE
  5
202
330
160
100
AcDbEntity
  8
0
100
AcDbLine
 10
6.599999833929357
 20
58.3000030721754
 30
0.0
 11
4.599999833929587
 21
58.3000030721754
 31
0.0
  0
LINE
  5
203
330
160
100
AcDbEntity
  8
0
100
AcDbLine
 10
3.199999833929495
 20
57.20000307217538
 30
0.0
 11
6.599999833929357
 21
57.20000307217538
 31
0.0
  0
LINE
  5
204
330
160
100
AcDbEntity
  8
0
100
AcDbLine
 10
6.599999833929357
 20
59.50000307217544
 30
0.0
 11
4.899999833929427
 21
59.50000307217544
 31
0.0
  0
LINE
  5
205
330
160
100
AcDbEntity
  8
0
100
AcDbLine
 10
4.899999833929538
 20
59.50000307217533
 30
0.0
 11
4.899999833929538
 21
60.70000307217537
 31
0.0
  0
LINE
  5
206
330
160
100
AcDbEntity
  8
0
100
AcDbLine
 10
6.599999833929357
 20
21.50000307217532
 30
0.0
 11
4.099999833929246
 21
21.50000307217532
 31
0.0
  0
LINE
  5
207
330
160
100
AcDbEntity
  8
0
100
AcDbLine
 10
4.099999833929246
 20
21.50000307217532
 30
0.0
 11
4.099999833929246
 21
27.00000307217532
 31
0.0
  0
LINE
  5
208
330
160
100
AcDbEntity
  8
0
100
AcDbLine
 10
4.099999833929246
 20
27.00000307217532
 30
0.0
 11
6.599999833929357
 21
27.00000307217532
 31
0.0
  0
LINE
  5
209
330
160
100
AcDbEntity
  8
0
100
AcDbLine
 10
6.599999833929357
 20
62.14000233848515
 30
0.0
 11
5.599999833929358
 21
62.14000233848515
 31
0.0
  0
LINE
  5
20A
330
160
100
AcDbEntity
  8
0
100
AcDbLine
 10
5.599999833929358
 20
62.14000233848515
 30
0.0
 11
5.599999833929358
 21
59.50000307217544
 31
0.0
  0
LINE
  5
20B
330
160
100
AcDbEntity
  8
0
100
AcDbLine
 10
-0.000000166070663
 20
112.5000023384849
 30
0.0
 11
6.599999833929357
 21
112.5000023384849
 31
0.0
  0
LINE
  5
20C
330
160
100
AcDbEntity
  8
0
100
AcDbLine
 10
6.599999833929357
 20
136.6600023384848
 30
0.0
 11
-0.000000166070663
 21
136.6600023384848
 31
0.0
  0
LINE
  5
20D
330
160
100
AcDbEntity
  8
0
100
AcDbLine
 10
-0.000000166070663
 20
136.6600023384848
 30
0.0
 11
-0.000000166070663
 21
112.5000023384849
 31
0.0
  0
LINE
  5
20E
330
160
100
AcDbEntity
  8
0
100
AcDbLine
 10
1.299999833929404
 20
71.34000233848508
 30
0.0
 11
1.299999833929404
 21
99.80000233848514
 31
0.0
  0
LINE
  5
20F
330
160
100
AcDbEntity
  8
0
100
AcDbLine
 10
1.299999833929404
 20
75.45000233848509
 30
0.0
 11
5.599999833929246
 21
75.45000233848509
 31
0.0
  0
LINE
  5
210
330
160
100
AcDbEntity
  8
0
100
AcDbLine
 10
5.599999833929358
 20
71.34000233848508
 30
0.0
 11
1.299999833929404
 21
71.34000233848508
 31
0.0
  0
LINE
  5
211
330
160
100
AcDbEntity
  8
0
100
AcDbLine
 10
1.299999833929404
 20
95.69000233848512
 30
0.0
 11
6.599999833929357
 21
95.69000233848512
 31
0.0
  0
LINE
  5
212
330
160
100
AcDbEntity
  8
0
100
AcDbLine
 10
1.299999833929404
 20
90.69000233848512
 30
0.0
 11
6.599999833929357
 21
90.69000233848512
 31
0.0
  0
LINE
  5
213
330
160
100
AcDbEntity
  8
0
100
AcDbLine
 10
1.299999833929404
 20
83.0700023384851
 30
0.0
 11
6.599999833929357
 21
83.0700023384851
 31
0.0
  0
LINE
  5
214
330
160
100
AcDbEntity
  8
0
100
AcDbLine
 10
1.299999833929404
 20
88.07000233848507
 30
0.0
 11
6.599999833929357
 21
88.07000233848507
 31
0.0
  0
LINE
  5
215
330
160
100
AcDbEntity
  8
0
100
AcDbLine
 10
1.299999833929404
 20
80.4500023384851
 30
0.0
 11
5.799999833929632
 21
80.4500023384851
 31
0.0
  0
LINE
  5
216
330
160
100
AcDbEntity
  8
0
100
AcDbLine
 10
5.799999833929632
 20
99.80000233848514
 30
0.0
 11
1.299999833929404
 21
99.80000233848514
 31
0.0
  0
LINE
  5
217
330
160
100
AcDbEntity
  8
0
100
AcDbLine
 10
49.59999983392936
 20
187.5000023384849
 30
0.0
 11
51.59999983392935
 21
187.5000023384849
 31
0.0
  0
LINE
  5
218
330
160
100
AcDbEntity
  8
0
100
AcDbLine
 10
122.5999998339284
 20
190.5000023384847
 30
0.0
 11
122.5999998339284
 21
200.5000023384849
 31
0.0
  0
LINE
  5
219
330
160
100
AcDbEntity
  8
0
100
AcDbLine
 10
6.599999833929357
 20
16.50000233848504
 30
0.0
 11
123.9878536770973
 21
16.50000233848504
 31
0.0
  0
LINE
  5
21A
330
160
100
AcDbEntity
  8
0
100
AcDbLine
 10
25.59999983392935
 20
0.0000023384850465
 30
0.0
 11
25.59999983392935
 21
8.500002338485044
 31
0.0
  0
LINE
  5
21B
330
160
100
AcDbEntity
  8
0
100
AcDbLine
 10
77.59999983392835
 20
0.0000023384850465
 30
0.0
 11
77.59999983392835
 21
16.50000233848504
 31
0.0
  0
LINE
  5
21C
330
160
100
AcDbEntity
  8
0
100
AcDbLine
 10
25.59999983392935
 20
0.0000023384850465
 30
0.0
 11
77.59999983392835
 21
0.0000023384850465
 31
0.0
  0
LINE
  5
21D
330
160
100
AcDbEntity
  8
0
100
AcDbLine
 10
35.59999983392936
 20
0.0000023384850465
 30
0.0
 11
35.59999983392936
 21
16.50000233848504
 31
0.0
  0
LINE
  5
21E
330
160
100
AcDbEntity
  8
0
100
AcDbLine
 10
25.59999983392935
 20
8.500002338485044
 30
0.0
 11
35.59999983392936
 21
8.500002338485044
 31
0.0
  0
LINE
  5
21F
330
160
100
AcDbEntity
  8
0
100
AcDbLine
 10
37.59999983392936
 20
9.500002338485046
 30
0.0
 11
37.59999983392936
 21
0.0000023384850465
 31
0.0
  0
LINE
  5
220
330
160
100
AcDbEntity
  8
0
100
AcDbLine
 10
75.59999983392835
 20
9.500002338485046
 30
0.0
 11
75.59999983392835
 21
0.0000023384850465
 31
0.0
  0
LINE
  5
221
330
160
100
AcDbEntity
  8
0
100
AcDbLine
 10
5.599999833929358
 20
58.3000030721754
 30
0.0
 11
5.599999833929358
 21
57.20000307217538
 31
0.0
  0
LINE
  5
222
330
160
100
AcDbEntity
  8
0
100
AcDbLine
 10
5.599999833929358
 20
37.00000307217532
 30
0.0
 11
5.599999833929358
 21
35.90000307217532
 31
0.0
  0
LINE
  5
223
330
160
100
AcDbEntity
  8
0
100
AcDbLine
 10
5.599999833929358
 20
34.70000307217537
 30
0.0
 11
5.599999833929358
 21
27.00000307217532
 31
0.0
  0
LINE
  5
224
330
160
100
AcDbEntity
  8
0
100
AcDbLine
 10
6.599999833929357
 20
157.9400023384851
 30
0.0
 11
5.595637893078333
 21
157.9400023384851
 31
0.0
  0
LINE
  5
225
330
160
100
AcDbEntity
  8
0
100
AcDbLine
 10
6.599999833929357
 20
68.70000307217536
 30
0.0
 11
5.599999833929358
 21
68.70000307217536
 31
0.0
  0
LINE
  5
226
330
160
100
AcDbEntity
  8
0
100
AcDbLine
 10
5.599999833929358
 20
68.70000307217536
 30
0.0
 11
5.599999833929246
 21
77.10000307217547
 31
0.0
  0
LINE
  5
227
330
160
100
AcDbEntity
  8
0
100
AcDbLine
 10
5.599999833929246
 20
77.10000307217547
 30
0.0
 11
6.599999833929357
 21
77.10000307217547
 31
0.0
  0
LINE
  5
228
330
160
100
AcDbEntity
  8
0
100
AcDbLine
 10
6.599999833929357
 20
78.60000307217545
 30
0.0
 11
5.799999833929632
 21
78.60000307217545
 31
0.0
  0
LINE
  5
229
330
160
100
AcDbEntity
  8
0
100
AcDbLine
 10
5.799999833929632
 20
78.60000307217545
 30
0.0
 11
5.799999833929632
 21
81.60000307217547
 31
0.0
  0
LINE
  5
22A
330
160
100
AcDbEntity
  8
0
100
AcDbLine
 10
5.799999833929632
 20
81.60000307217547
 30
0.0
 11
6.599999833929357
 21
81.60000307217547
 31
0.0
  0
LINE
  5
22B
330
160
100
AcDbEntity
  8
0
100
AcDbLine
 10
6.599999833929357
 20
98.60000307217545
 30
0.0
 11
5.799999833929632
 21
98.60000307217545
 31
0.0
  0
LINE
  5
22C
330
160
100
AcDbEntity
  8
0
100
AcDbLine
 10
5.799999833929632
 20
98.60000307217545
 30
0.0
 11
5.799999833929632
 21
101.6000030721754
 31
0.0
  0
LINE
  5
22D
330
160
100
AcDbEntity
  8
0
100
AcDbLine
 10
5.799999833929632
 20
101.6000030721754
 30
0.0
 11
6.599999833929357
 21
101.6000030721754
 31
0.0
  0
LINE
  5
22E
330
160
100
AcDbEntity
  8
0
  6
CONTINUOUS
100
AcDbLine
 10
5.595637893078333
 20
157.9400023384851
 30
0.0
 11
5.595637893078333
 21
142.5400023384848
 31
0.0
  0
LINE
  5
22F
330
160
100
AcDbEntity
  8
0
  6
CONTINUOUS
100
AcDbLine
 10
5.595637893078333
 20
142.5400023384848
 30
0.0
 11
6.599999833929357
 21
142.5400023384848
 31
0.0
  0
ENDBLK
  5
231
330
160
100
AcDbEntity
  8
0
100
AcDbBlockEnd
  0
BLOCK
  5
234
330
232
100
AcDbEntity
  8
0
100
AcDbBlockBegin
  2
A$C40301A48
 70
     0
 10
0.0
 20
0.0
 30
0.0
  3
A$C40301A48
  1

  0
INSERT
  5
233
330
232
100
AcDbEntity
  8
0
100
AcDbBlockReference
  2
A$C413B70EE
 10
-6.599999833929357
 20
-190.5000023384847
 30
0.0
  0
ENDBLK
  5
235
330
232
100
AcDbEntity
  8
0
100
AcDbBlockEnd
  0
BLOCK
  5
23B
330
236
100
AcDbEntity
  8
0
 48
5.0
100
AcDbBlockBegin
  2
A$C5CFD6E8C
 70
     0
 10
0.0
 20
0.0
 30
0.0
  3
A$C5CFD6E8C
  1

  0
LINE
  5
237
330
236
100
AcDbEntity
  8
0
 62
     0
100
AcDbLine
 10
1.599997211020308
 20
2.70000247964549
 30
0.0
 11
1.599997211020308
 21
0.0000024796447633
 31
0.0
  0
LINE
  5
238
330
236
100
AcDbEntity
  8
0
 62
     0
100
AcDbLine
 10
-0.0000027889800549
 20
0.0000024796447633
 30
0.0
 11
-0.0000027889800549
 21
2.70000247964549
 31
0.0
  0
LINE
  5
239
330
236
100
AcDbEntity
  8
0
  6
CENTER
 62
     0
100
AcDbLine
 10
1.599997211020308
 20
2.70000247964549
 30
0.0
 11
-0.0000027889800549
 21
2.70000247964549
 31
0.0
  0
LINE
  5
23A
330
236
100
AcDbEntity
  8
0
  6
CENTER
 62
     0
100
AcDbLine
 10
1.599997211020308
 20
0.0000024796447633
 30
0.0
 11
-0.0000027889800549
 21
0.0000024796447633
 31
0.0
  0
ENDBLK
  5
23C
330
236
100
AcDbEntity
  8
0
 48
5.0
100
AcDbBlockEnd
  0
BLOCK
  5
34E
330
23D
100
AcDbEntity
  8
0
100
AcDbBlockBegin
  2
A$C3E87127B
 70
     0
 10
0.0
 20
0.0
 30
0.0
  3
A$C3E87127B
  1

  0
LINE
  5
23E
330
23D
100
AcDbEntity
  8
0
  6
BYBLOCK
 62
     0
100
AcDbLine
 10
2.100148625096608
 20
-51.67486469529968
 30
0.0
 11
17.0000743125488
 21
-51.67486469529785
 31
0.0
  0
LINE
  5
23F
330
23D
100
AcDbEntity
  8
0
  6
BYBLOCK
 62
     0
100
AcDbLine
 10
17.00007431255062
 20
-84.47486829529728
 30
0.0
 11
17.0000743125488
 21
-51.67486469529785
 31
0.0
  0
LINE
  5
240
330
23D
100
AcDbEntity
  8
0
  6
BYBLOCK
 62
     0
100
AcDbLine
 10
2.100148625096608
 20
-84.47486829529728
 30
0.0
 11
17.00007431255062
 21
-84.47486829529728
 31
0.0
  0
INSERT
  5
241
330
23D
100
AcDbEntity
  8
0
  6
BYBLOCK
 62
    40
 48
5.0
100
AcDbBlockReference
  2
A$C5CFD6E8C
 10
18.5000027889796
 20
-44.22500174595461
 30
0.0
  0
INSERT
  5
242
330
23D
100
AcDbEntity
  8
0
  6
BYBLOCK
 62
    40
 48
5.0
100
AcDbBlockReference
  2
A$C5CFD6E8C
 10
18.5000027889796
 20
-49.7250017459546
 30
0.0
  0
LINE
  5
243
330
23D
100
AcDbEntity
  8
0
 62
     0
 48
5.0
100
AcDbLine
 10
2.100148625096608
 20
-51.67486469529968
 30
0.0
 11
2.100148625096608
 21
-84.47486829529728
 31
0.0
  0
LINE
  5
244
330
23D
100
AcDbEntity
  8
0
 62
     0
100
AcDbLine
 10
7.426838695454534
 20
-78.83999999999947
 30
0.0
 11
9.036607142857519
 21
-78.83999999999947
 31
0.0
  0
LINE
  5
245
330
23D
100
AcDbEntity
  8
0
 62
     0
100
AcDbLine
 10
9.036607142857519
 20
-72.54999999999904
 30
0.0
 11
7.426838695454534
 21
-72.54999999999904
 31
0.0
  0
LINE
  5
246
330
23D
100
AcDbEntity
  8
0
 62
     0
100
AcDbLine
 10
7.426838695454534
 20
-63.59999999999923
 30
0.0
 11
9.036607142857519
 21
-63.59999999999923
 31
0.0
  0
LINE
  5
247
330
23D
100
AcDbEntity
  8
0
 62
     0
100
AcDbLine
 10
7.426838695454534
 20
-63.59999999999923
 30
0.0
 11
7.900000000000542
 21
-63.96999999999911
 31
0.0
  0
LINE
  5
248
330
23D
100
AcDbEntity
  8
0
 62
     0
100
AcDbLine
 10
9.036607142857519
 20
-62.38999999999919
 30
0.0
 11
7.426838695454534
 21
-62.38999999999919
 31
0.0
  0
LINE
  5
249
330
23D
100
AcDbEntity
  8
0
 62
     0
100
AcDbLine
 10
7.426838695454534
 20
-58.51999999999929
 30
0.0
 11
7.900000000000542
 21
-58.88999999999919
 31
0.0
  0
LINE
  5
24A
330
23D
100
AcDbEntity
  8
0
 62
     0
100
AcDbLine
 10
8.33000000000038
 20
-54.37499999999932
 30
0.0
 11
7.900000000000542
 21
-54.37499999999932
 31
0.0
  0
LINE
  5
24B
330
23D
100
AcDbEntity
  8
0
 62
     0
100
AcDbLine
 10
7.900000000000542
 20
-56.93999999999937
 30
0.0
 11
7.900000000000542
 21
-54.37499999999932
 31
0.0
  0
LINE
  5
24C
330
23D
100
AcDbEntity
  8
0
 62
     0
100
AcDbLine
 10
16.00000000000043
 20
-66.57499999999959
 30
0.0
 11
16.00000000000043
 21
-67.37499999999932
 31
0.0
  0
LINE
  5
24D
330
23D
100
AcDbEntity
  8
0
 62
     0
100
AcDbLine
 10
16.00000000000043
 20
-67.37499999999932
 30
0.0
 11
16.00000000000043
 21
-68.77499999999939
 31
0.0
  0
LINE
  5
24E
330
23D
100
AcDbEntity
  8
0
 62
     0
100
AcDbLine
 10
16.00000000000043
 20
-76.73499999999943
 30
0.0
 11
16.00000000000043
 21
-77.53499999999963
 31
0.0
  0
LINE
  5
24F
330
23D
100
AcDbEntity
  8
0
 62
     0
100
AcDbLine
 10
16.00000000000043
 20
-77.53499999999963
 30
0.0
 11
16.00000000000043
 21
-78.93499999999926
 31
0.0
  0
LINE
  5
250
330
23D
100
AcDbEntity
  8
0
 62
     0
100
AcDbLine
 10
16.00000000000043
 20
-79.73499999999943
 30
0.0
 11
16.00000000000043
 21
-81.77499999999941
 31
0.0
  0
LINE
  5
251
330
23D
100
AcDbEntity
  8
0
 62
     0
100
AcDbLine
 10
16.00000000000043
 20
-78.93499999999926
 30
0.0
 11
16.00000000000043
 21
-79.73499999999943
 31
0.0
  0
LINE
  5
252
330
23D
100
AcDbEntity
  8
0
 62
     0
100
AcDbLine
 10
16.00000000000043
 20
-72.4549999999997
 30
0.0
 11
16.00000000000043
 21
-73.85499999999933
 31
0.0
  0
LINE
  5
253
330
23D
100
AcDbEntity
  8
0
 62
     0
100
AcDbLine
 10
16.00000000000043
 20
-71.65499999999951
 30
0.0
 11
16.00000000000043
 21
-72.4549999999997
 31
0.0
  0
LINE
  5
254
330
23D
100
AcDbEntity
  8
0
 62
     0
100
AcDbLine
 10
16.00000000000043
 20
-69.57499999999959
 30
0.0
 11
16.00000000000043
 21
-71.65499999999951
 31
0.0
  0
LINE
  5
255
330
23D
100
AcDbEntity
  8
0
 62
     0
100
AcDbLine
 10
16.00000000000043
 20
-68.77499999999939
 30
0.0
 11
16.00000000000043
 21
-69.57499999999959
 31
0.0
  0
LINE
  5
256
330
23D
100
AcDbEntity
  8
0
 62
     0
100
AcDbLine
 10
16.00000000000043
 20
-74.65499999999952
 30
0.0
 11
16.00000000000043
 21
-76.73499999999943
 31
0.0
  0
LINE
  5
257
330
23D
100
AcDbEntity
  8
0
 62
     0
100
AcDbLine
 10
16.00000000000043
 20
-73.85499999999933
 30
0.0
 11
16.00000000000043
 21
-74.65499999999952
 31
0.0
  0
LINE
  5
258
330
23D
100
AcDbEntity
  8
0
 62
     0
100
AcDbLine
 10
16.00000000000043
 20
-56.41499999999928
 30
0.0
 11
16.00000000000043
 21
-57.21499999999945
 31
0.0
  0
LINE
  5
259
330
23D
100
AcDbEntity
  8
0
 62
     0
100
AcDbLine
 10
16.00000000000043
 20
-54.37499999999932
 30
0.0
 11
16.00000000000043
 21
-56.41499999999928
 31
0.0
  0
LINE
  5
25A
330
23D
100
AcDbEntity
  8
0
 62
     0
100
AcDbLine
 10
16.00000000000043
 20
-61.49499999999965
 30
0.0
 11
16.00000000000043
 21
-62.29499999999939
 31
0.0
  0
LINE
  5
25B
330
23D
100
AcDbEntity
  8
0
 62
     0
100
AcDbLine
 10
16.00000000000043
 20
-57.21499999999945
 30
0.0
 11
16.00000000000043
 21
-58.61499999999954
 31
0.0
  0
LINE
  5
25C
330
23D
100
AcDbEntity
  8
0
 62
     0
100
AcDbLine
 10
16.00000000000043
 20
-59.41499999999928
 30
0.0
 11
16.00000000000043
 21
-61.49499999999965
 31
0.0
  0
LINE
  5
25D
330
23D
100
AcDbEntity
  8
0
 62
     0
100
AcDbLine
 10
16.00000000000043
 20
-58.61499999999954
 30
0.0
 11
16.00000000000043
 21
-59.41499999999928
 31
0.0
  0
LINE
  5
25E
330
23D
100
AcDbEntity
  8
0
 62
     0
100
AcDbLine
 10
16.00000000000043
 20
-62.29499999999939
 30
0.0
 11
16.00000000000043
 21
-63.69499999999947
 31
0.0
  0
LINE
  5
25F
330
23D
100
AcDbEntity
  8
0
 62
     0
100
AcDbLine
 10
16.00000000000043
 20
-64.49499999999966
 30
0.0
 11
16.00000000000043
 21
-66.57499999999959
 31
0.0
  0
LINE
  5
260
330
23D
100
AcDbEntity
  8
0
 62
     0
100
AcDbLine
 10
16.00000000000043
 20
-63.69499999999947
 30
0.0
 11
16.00000000000043
 21
-64.49499999999966
 31
0.0
  0
LINE
  5
261
330
23D
100
AcDbEntity
  8
0
 62
     0
100
AcDbLine
 10
14.33000000000038
 20
-60.95539219456235
 30
0.0
 11
14.33000000000038
 21
-59.95460780543613
 31
0.0
  0
LINE
  5
262
330
23D
100
AcDbEntity
  8
0
 62
     0
100
AcDbLine
 10
14.63000000000056
 20
-60.84093407714568
 30
0.0
 11
14.63000000000056
 21
-60.06906592285282
 31
0.0
  0
LINE
  5
263
330
23D
100
AcDbEntity
  8
0
 62
     0
100
AcDbLine
 10
8.725000000000362
 20
-79.20999999999934
 30
0.0
 11
7.900000000000542
 21
-79.20999999999934
 31
0.0
  0
LINE
  5
264
330
23D
100
AcDbEntity
  8
0
 62
     0
100
AcDbLine
 10
7.900000000000542
 20
-72.17999999999915
 30
0.0
 11
8.725000000000362
 21
-72.17999999999915
 31
0.0
  0
LINE
  5
265
330
23D
100
AcDbEntity
  8
0
 62
     0
100
AcDbLine
 10
7.900000000000542
 20
-63.96999999999911
 30
0.0
 11
8.725000000000362
 21
-63.96999999999911
 31
0.0
  0
LINE
  5
266
330
23D
100
AcDbEntity
  8
0
 62
     0
100
AcDbLine
 10
7.900000000000542
 20
-62.01999999999928
 30
0.0
 11
8.725000000000362
 21
-62.01999999999928
 31
0.0
  0
LINE
  5
267
330
23D
100
AcDbEntity
  8
0
 62
     0
100
AcDbLine
 10
7.900000000000542
 20
-72.17999999999915
 30
0.0
 11
7.900000000000542
 21
-69.04999999999905
 31
0.0
  0
LINE
  5
268
330
23D
100
AcDbEntity
  8
0
 62
     0
100
AcDbLine
 10
9.036607142857519
 20
-68.71901118078108
 30
0.0
 11
8.725000000000362
 21
-69.04999999999905
 31
0.0
  0
LINE
  5
269
330
23D
100
AcDbEntity
  8
0
 62
     0
100
AcDbLine
 10
7.900000000000542
 20
-69.04999999999905
 30
0.0
 11
8.725000000000362
 21
-69.04999999999905
 31
0.0
  0
LINE
  5
26A
330
23D
100
AcDbEntity
  8
0
 62
     0
100
AcDbLine
 10
7.900000000000542
 20
-77.25999999999908
 30
0.0
 11
7.900000000000542
 21
-74.12999999999944
 31
0.0
  0
LINE
  5
26B
330
23D
100
AcDbEntity
  8
0
 62
     0
100
AcDbLine
 10
7.900000000000542
 20
-74.12999999999944
 30
0.0
 11
8.725000000000362
 21
-74.12999999999944
 31
0.0
  0
LINE
  5
26C
330
23D
100
AcDbEntity
  8
0
 62
     0
100
AcDbLine
 10
7.900000000000542
 20
-77.25999999999908
 30
0.0
 11
8.725000000000362
 21
-77.25999999999908
 31
0.0
  0
LINE
  5
26D
330
23D
100
AcDbEntity
  8
0
 62
     0
100
AcDbLine
 10
9.036607142857519
 20
-63.63901118078114
 30
0.0
 11
8.725000000000362
 21
-63.96999999999911
 31
0.0
  0
LINE
  5
26E
330
23D
100
AcDbEntity
  8
0
 62
     0
100
AcDbLine
 10
9.036607142857519
 20
-78.87901118078139
 30
0.0
 11
8.725000000000362
 21
-79.20999999999934
 31
0.0
  0
LINE
  5
26F
330
23D
100
AcDbEntity
  8
0
 62
     0
100
AcDbLine
 10
8.725000000000362
 20
-72.17999999999915
 30
0.0
 11
9.036607142857519
 21
-72.51098881921713
 31
0.0
  0
LINE
  5
270
330
23D
100
AcDbEntity
  8
0
 62
     0
100
AcDbLine
 10
8.725000000000362
 20
-79.20999999999934
 30
0.0
 11
8.725000000000362
 21
-80.77499999999941
 31
0.0
  0
LINE
  5
271
330
23D
100
AcDbEntity
  8
0
 62
     0
100
AcDbLine
 10
14.33000000000038
 20
-80.77499999999941
 30
0.0
 11
14.63000000000056
 21
-80.77499999999941
 31
0.0
  0
LINE
  5
272
330
23D
100
AcDbEntity
  8
0
 62
     0
100
AcDbLine
 10
11.8979491924324
 20
-63.22705080756827
 30
0.0
 11
12.36205080757008
 21
-63.22705080756827
 31
0.0
  0
LINE
  5
273
330
23D
100
AcDbEntity
  8
0
 62
     0
100
AcDbLine
 10
11.63000000000101
 20
-63.49499999999967
 30
0.0
 11
11.8979491924324
 21
-63.22705080756827
 31
0.0
  0
LINE
  5
274
330
23D
100
AcDbEntity
  8
0
 62
     0
100
AcDbLine
 10
12.63000000000056
 20
-63.49499999999967
 30
0.0
 11
11.63000000000101
 21
-63.49499999999967
 31
0.0
  0
LINE
  5
275
330
23D
100
AcDbEntity
  8
0
 62
     0
100
AcDbLine
 10
12.36205080757008
 20
-63.22705080756827
 30
0.0
 11
12.63000000000056
 21
-63.49499999999967
 31
0.0
  0
LINE
  5
276
330
23D
100
AcDbEntity
  8
0
 62
     0
100
AcDbLine
 10
12.63000000000102
 20
-62.49499999999965
 30
0.0
 11
12.63000000000056
 21
-63.49499999999967
 31
0.0
  0
LINE
  5
277
330
23D
100
AcDbEntity
  8
0
 62
     0
100
AcDbLine
 10
11.63000000000101
 20
-63.49499999999967
 30
0.0
 11
11.63000000000101
 21
-62.49499999999965
 31
0.0
  0
LINE
  5
278
330
23D
100
AcDbEntity
  8
0
 62
     0
100
AcDbLine
 10
11.63000000000101
 20
-62.49499999999965
 30
0.0
 11
12.63000000000102
 21
-62.49499999999965
 31
0.0
  0
LINE
  5
279
330
23D
100
AcDbEntity
  8
0
 62
     0
100
AcDbLine
 10
11.8979491924324
 20
-62.7629491924306
 30
0.0
 11
11.63000000000101
 21
-62.49499999999965
 31
0.0
  0
LINE
  5
27A
330
23D
100
AcDbEntity
  8
0
 62
     0
100
AcDbLine
 10
11.8979491924324
 20
-62.7629491924306
 30
0.0
 11
11.8979491924324
 21
-63.22705080756827
 31
0.0
  0
LINE
  5
27B
330
23D
100
AcDbEntity
  8
0
 62
     0
100
AcDbLine
 10
12.36205080757008
 20
-63.22705080756827
 30
0.0
 11
12.36205080757008
 21
-62.7629491924306
 31
0.0
  0
LINE
  5
27C
330
23D
100
AcDbEntity
  8
0
 62
     0
100
AcDbLine
 10
11.8979491924324
 20
-62.7629491924306
 30
0.0
 11
12.36205080757008
 21
-62.7629491924306
 31
0.0
  0
LINE
  5
27D
330
23D
100
AcDbEntity
  8
0
 62
     0
100
AcDbLine
 10
12.36205080757008
 20
-62.7629491924306
 30
0.0
 11
12.63000000000102
 21
-62.49499999999965
 31
0.0
  0
LINE
  5
27E
330
23D
100
AcDbEntity
  8
0
 62
     0
100
AcDbLine
 10
12.88000000000056
 20
-70.41403810567612
 30
0.0
 11
12.88000000000056
 21
-70.81596189432253
 31
0.0
  0
LINE
  5
27F
330
23D
100
AcDbEntity
  8
0
 62
     0
100
AcDbLine
 10
12.88000000000056
 20
-70.81596189432253
 30
0.0
 11
12.13000000000056
 21
-70.61499999999956
 31
0.0
  0
LINE
  5
280
330
23D
100
AcDbEntity
  8
0
 62
     0
100
AcDbLine
 10
12.13000000000056
 20
-70.61499999999956
 30
0.0
 11
12.88000000000056
 21
-70.41403810567612
 31
0.0
  0
LINE
  5
281
330
23D
100
AcDbEntity
  8
0
 62
     0
100
AcDbLine
 10
12.88000000000056
 20
-65.33403810567574
 30
0.0
 11
12.88000000000056
 21
-65.7359618943226
 31
0.0
  0
LINE
  5
282
330
23D
100
AcDbEntity
  8
0
 62
     0
100
AcDbLine
 10
12.88000000000056
 20
-65.7359618943226
 30
0.0
 11
12.13000000000056
 21
-65.53499999999963
 31
0.0
  0
LINE
  5
283
330
23D
100
AcDbEntity
  8
0
 62
     0
100
AcDbLine
 10
12.13000000000056
 20
-65.53499999999963
 30
0.0
 11
12.88000000000056
 21
-65.33403810567574
 31
0.0
  0
LINE
  5
284
330
23D
100
AcDbEntity
  8
0
 62
     0
100
AcDbLine
 10
9.036607142857519
 20
-80.77499999999941
 30
0.0
 11
9.036607142857519
 21
-78.87901118078139
 31
0.0
  0
LINE
  5
285
330
23D
100
AcDbEntity
  8
0
 62
     0
100
AcDbLine
 10
9.036607142857519
 20
-80.77499999999941
 30
0.0
 11
14.33000000000038
 21
-80.77499999999941
 31
0.0
  0
LINE
  5
286
330
23D
100
AcDbEntity
  8
0
 62
     0
100
AcDbLine
 10
8.725000000000362
 20
-80.77499999999941
 30
0.0
 11
9.036607142857519
 21
-80.77499999999941
 31
0.0
  0
LINE
  5
287
330
23D
100
AcDbEntity
  8
0
 62
     0
100
AcDbLine
 10
9.036607142857519
 20
-72.51098881921713
 30
0.0
 11
9.036607142857519
 21
-72.54999999999904
 31
0.0
  0
LINE
  5
288
330
23D
100
AcDbEntity
  8
0
 62
     0
100
AcDbLine
 10
9.036607142857519
 20
-72.54999999999904
 30
0.0
 11
9.036607142857519
 21
-73.75999999999908
 31
0.0
  0
LINE
  5
289
330
23D
100
AcDbEntity
  8
0
 62
     0
100
AcDbLine
 10
9.036607142857519
 20
-77.59098881921705
 30
0.0
 11
9.036607142857519
 21
-73.79901118078143
 31
0.0
  0
LINE
  5
28A
330
23D
100
AcDbEntity
  8
0
 62
     0
100
AcDbLine
 10
9.036607142857519
 20
-73.75999999999908
 30
0.0
 11
9.036607142857519
 21
-73.79901118078143
 31
0.0
  0
LINE
  5
28B
330
23D
100
AcDbEntity
  8
0
 62
     0
100
AcDbLine
 10
9.036607142857519
 20
-77.59098881921705
 30
0.0
 11
9.036607142857519
 21
-77.62999999999944
 31
0.0
  0
LINE
  5
28C
330
23D
100
AcDbEntity
  8
0
 62
     0
100
AcDbLine
 10
9.036607142857519
 20
-77.62999999999944
 30
0.0
 11
9.036607142857519
 21
-78.83999999999947
 31
0.0
  0
LINE
  5
28D
330
23D
100
AcDbEntity
  8
0
 62
     0
100
AcDbLine
 10
9.036607142857519
 20
-78.83999999999947
 30
0.0
 11
9.036607142857519
 21
-78.87901118078139
 31
0.0
  0
LINE
  5
28E
330
23D
100
AcDbEntity
  8
0
 62
     0
100
AcDbLine
 10
12.88000000000056
 20
-75.49403810567605
 30
0.0
 11
12.88000000000056
 21
-75.89596189432246
 31
0.0
  0
LINE
  5
28F
330
23D
100
AcDbEntity
  8
0
 62
     0
100
AcDbLine
 10
12.88000000000056
 20
-75.89596189432246
 30
0.0
 11
12.13000000000056
 21
-75.69499999999948
 31
0.0
  0
LINE
  5
290
330
23D
100
AcDbEntity
  8
0
 62
     0
100
AcDbLine
 10
12.13000000000056
 20
-75.69499999999948
 30
0.0
 11
12.88000000000056
 21
-75.49403810567605
 31
0.0
  0
LINE
  5
291
330
23D
100
AcDbEntity
  8
0
 62
     0
100
AcDbLine
 10
12.63000000000102
 20
-78.73499999999943
 30
0.0
 11
12.63000000000102
 21
-77.73499999999946
 31
0.0
  0
LINE
  5
292
330
23D
100
AcDbEntity
  8
0
 62
     0
100
AcDbLine
 10
12.36205080757008
 20
-78.46705080756851
 30
0.0
 11
12.63000000000102
 21
-78.73499999999943
 31
0.0
  0
LINE
  5
293
330
23D
100
AcDbEntity
  8
0
 62
     0
100
AcDbLine
 10
12.36205080757008
 20
-78.00294919243038
 30
0.0
 11
12.63000000000102
 21
-77.73499999999946
 31
0.0
  0
LINE
  5
294
330
23D
100
AcDbEntity
  8
0
 62
     0
100
AcDbLine
 10
12.36205080757008
 20
-78.00294919243038
 30
0.0
 11
12.36205080757008
 21
-78.46705080756851
 31
0.0
  0
LINE
  5
295
330
23D
100
AcDbEntity
  8
0
 62
     0
100
AcDbLine
 10
11.63000000000101
 20
-77.73499999999946
 30
0.0
 11
12.63000000000102
 21
-77.73499999999946
 31
0.0
  0
LINE
  5
296
330
23D
100
AcDbEntity
  8
0
 62
     0
100
AcDbLine
 10
12.36205080757008
 20
-78.46705080756851
 30
0.0
 11
11.8979491924324
 21
-78.46705080756851
 31
0.0
  0
LINE
  5
297
330
23D
100
AcDbEntity
  8
0
 62
     0
100
AcDbLine
 10
11.63000000000101
 20
-78.73499999999943
 30
0.0
 11
11.63000000000101
 21
-77.73499999999946
 31
0.0
  0
LINE
  5
298
330
23D
100
AcDbEntity
  8
0
 62
     0
100
AcDbLine
 10
11.63000000000101
 20
-78.73499999999943
 30
0.0
 11
11.8979491924324
 21
-78.46705080756851
 31
0.0
  0
LINE
  5
299
330
23D
100
AcDbEntity
  8
0
 62
     0
100
AcDbLine
 10
11.8979491924324
 20
-78.00294919243038
 30
0.0
 11
11.8979491924324
 21
-78.46705080756851
 31
0.0
  0
LINE
  5
29A
330
23D
100
AcDbEntity
  8
0
 62
     0
100
AcDbLine
 10
11.8979491924324
 20
-78.00294919243038
 30
0.0
 11
11.63000000000101
 21
-77.73499999999946
 31
0.0
  0
LINE
  5
29B
330
23D
100
AcDbEntity
  8
0
 62
     0
100
AcDbLine
 10
11.8979491924324
 20
-78.00294919243038
 30
0.0
 11
12.36205080757008
 21
-78.00294919243038
 31
0.0
  0
LINE
  5
29C
330
23D
100
AcDbEntity
  8
0
 62
     0
100
AcDbLine
 10
12.63000000000102
 20
-78.73499999999943
 30
0.0
 11
11.63000000000101
 21
-78.73499999999943
 31
0.0
  0
LINE
  5
29D
330
23D
100
AcDbEntity
  8
0
 62
     0
100
AcDbLine
 10
10.9175644347024
 20
-78.93499999999926
 30
0.0
 11
13.34243556529872
 21
-78.93499999999926
 31
0.0
  0
LINE
  5
29E
330
23D
100
AcDbEntity
  8
0
 62
     0
100
AcDbLine
 10
11.63000000000101
 20
-68.57499999999959
 30
0.0
 11
12.63000000000102
 21
-68.57499999999959
 31
0.0
  0
LINE
  5
29F
330
23D
100
AcDbEntity
  8
0
 62
     0
100
AcDbLine
 10
11.63000000000101
 20
-67.57499999999959
 30
0.0
 11
12.63000000000102
 21
-67.57499999999959
 31
0.0
  0
LINE
  5
2A0
330
23D
100
AcDbEntity
  8
0
 62
     0
100
AcDbLine
 10
11.63000000000101
 20
-68.57499999999959
 30
0.0
 11
11.63000000000101
 21
-67.57499999999959
 31
0.0
  0
LINE
  5
2A1
330
23D
100
AcDbEntity
  8
0
 62
     0
100
AcDbLine
 10
12.63000000000102
 20
-67.57499999999959
 30
0.0
 11
12.63000000000102
 21
-68.57499999999959
 31
0.0
  0
LINE
  5
2A2
330
23D
100
AcDbEntity
  8
0
 62
     0
100
AcDbLine
 10
11.8979491924324
 20
-68.3070508075682
 30
0.0
 11
12.36205080757008
 21
-68.3070508075682
 31
0.0
  0
LINE
  5
2A3
330
23D
100
AcDbEntity
  8
0
 62
     0
100
AcDbLine
 10
11.8979491924324
 20
-67.84294919243052
 30
0.0
 11
11.8979491924324
 21
-68.3070508075682
 31
0.0
  0
LINE
  5
2A4
330
23D
100
AcDbEntity
  8
0
 62
     0
100
AcDbLine
 10
11.8979491924324
 20
-67.84294919243052
 30
0.0
 11
11.63000000000101
 21
-67.57499999999959
 31
0.0
  0
LINE
  5
2A5
330
23D
100
AcDbEntity
  8
0
 62
     0
100
AcDbLine
 10
12.36205080757008
 20
-68.3070508075682
 30
0.0
 11
12.36205080757008
 21
-67.84294919243052
 31
0.0
  0
LINE
  5
2A6
330
23D
100
AcDbEntity
  8
0
 62
     0
100
AcDbLine
 10
11.8979491924324
 20
-67.84294919243052
 30
0.0
 11
12.36205080757008
 21
-67.84294919243052
 31
0.0
  0
LINE
  5
2A7
330
23D
100
AcDbEntity
  8
0
 62
     0
100
AcDbLine
 10
12.36205080757008
 20
-68.3070508075682
 30
0.0
 11
12.63000000000102
 21
-68.57499999999959
 31
0.0
  0
LINE
  5
2A8
330
23D
100
AcDbEntity
  8
0
 62
     0
100
AcDbLine
 10
11.63000000000101
 20
-68.57499999999959
 30
0.0
 11
11.8979491924324
 21
-68.3070508075682
 31
0.0
  0
LINE
  5
2A9
330
23D
100
AcDbEntity
  8
0
 62
     0
100
AcDbLine
 10
12.36205080757008
 20
-67.84294919243052
 30
0.0
 11
12.63000000000102
 21
-67.57499999999959
 31
0.0
  0
LINE
  5
2AA
330
23D
100
AcDbEntity
  8
0
 62
     0
100
AcDbLine
 10
14.63000000000056
 20
-80.38906592285345
 30
0.0
 11
14.63000000000056
 21
-80.77499999999941
 31
0.0
  0
LINE
  5
2AB
330
23D
100
AcDbEntity
  8
0
 62
     0
100
AcDbLine
 10
14.63000000000056
 20
-76.08093407714545
 30
0.0
 11
14.63000000000056
 21
-75.30906592285259
 31
0.0
  0
LINE
  5
2AC
330
23D
100
AcDbEntity
  8
0
 62
     0
100
AcDbLine
 10
14.63000000000056
 20
-71.00093407714552
 30
0.0
 11
14.63000000000056
 21
-70.22906592285266
 31
0.0
  0
LINE
  5
2AD
330
23D
100
AcDbEntity
  8
0
 62
     0
100
AcDbLine
 10
14.33000000000038
 20
-66.03539219456229
 30
0.0
 11
14.33000000000038
 21
-65.03460780543605
 31
0.0
  0
LINE
  5
2AE
330
23D
100
AcDbEntity
  8
0
 62
     0
100
AcDbLine
 10
14.63000000000056
 20
-65.9209340771456
 30
0.0
 11
14.63000000000056
 21
-65.14906592285274
 31
0.0
  0
LINE
  5
2AF
330
23D
100
AcDbEntity
  8
0
 62
     0
100
AcDbLine
 10
14.33000000000038
 20
-71.11539219456222
 30
0.0
 11
14.33000000000038
 21
-70.11460780543597
 31
0.0
  0
LINE
  5
2B0
330
23D
100
AcDbEntity
  8
0
 62
     0
100
AcDbLine
 10
14.33000000000038
 20
-76.19539219456214
 30
0.0
 11
14.33000000000038
 21
-75.19460780543591
 31
0.0
  0
LINE
  5
2B1
330
23D
100
AcDbEntity
  8
0
 62
     0
100
AcDbLine
 10
14.33000000000038
 20
-80.77499999999941
 30
0.0
 11
14.33000000000038
 21
-80.27460780543675
 31
0.0
  0
LINE
  5
2B2
330
23D
100
AcDbEntity
  8
0
 62
     0
100
AcDbLine
 10
11.63000000000101
 20
-73.65499999999951
 30
0.0
 11
11.63000000000101
 21
-72.65499999999952
 31
0.0
  0
LINE
  5
2B3
330
23D
100
AcDbEntity
  8
0
 62
     0
100
AcDbLine
 10
12.63000000000102
 20
-72.65499999999952
 30
0.0
 11
12.63000000000056
 21
-73.65499999999951
 31
0.0
  0
LINE
  5
2B4
330
23D
100
AcDbEntity
  8
0
 62
     0
100
AcDbLine
 10
12.36205080757008
 20
-73.38705080756859
 30
0.0
 11
12.63000000000056
 21
-73.65499999999951
 31
0.0
  0
LINE
  5
2B5
330
23D
100
AcDbEntity
  8
0
 62
     0
100
AcDbLine
 10
12.63000000000056
 20
-73.65499999999951
 30
0.0
 11
11.63000000000101
 21
-73.65499999999951
 31
0.0
  0
LINE
  5
2B6
330
23D
100
AcDbEntity
  8
0
 62
     0
100
AcDbLine
 10
11.63000000000101
 20
-73.65499999999951
 30
0.0
 11
11.8979491924324
 21
-73.38705080756811
 31
0.0
  0
LINE
  5
2B7
330
23D
100
AcDbEntity
  8
0
 62
     0
100
AcDbLine
 10
12.36205080757008
 20
-72.92294919243045
 30
0.0
 11
12.36205080757008
 21
-73.38705080756859
 31
0.0
  0
LINE
  5
2B8
330
23D
100
AcDbEntity
  8
0
 62
     0
100
AcDbLine
 10
11.8979491924324
 20
-73.38705080756811
 30
0.0
 11
12.36205080757008
 21
-73.38705080756859
 31
0.0
  0
LINE
  5
2B9
330
23D
100
AcDbEntity
  8
0
 62
     0
100
AcDbLine
 10
11.8979491924324
 20
-72.92294919243045
 30
0.0
 11
11.8979491924324
 21
-73.38705080756811
 31
0.0
  0
LINE
  5
2BA
330
23D
100
AcDbEntity
  8
0
 62
     0
100
AcDbLine
 10
11.8979491924324
 20
-72.92294919243045
 30
0.0
 11
12.36205080757008
 21
-72.92294919243045
 31
0.0
  0
LINE
  5
2BB
330
23D
100
AcDbEntity
  8
0
 62
     0
100
AcDbLine
 10
11.8979491924324
 20
-72.92294919243045
 30
0.0
 11
11.63000000000101
 21
-72.65499999999952
 31
0.0
  0
LINE
  5
2BC
330
23D
100
AcDbEntity
  8
0
 62
     0
100
AcDbLine
 10
11.63000000000101
 20
-72.65499999999952
 30
0.0
 11
12.63000000000102
 21
-72.65499999999952
 31
0.0
  0
LINE
  5
2BD
330
23D
100
AcDbEntity
  8
0
 62
     0
100
AcDbLine
 10
12.36205080757008
 20
-72.92294919243045
 30
0.0
 11
12.63000000000102
 21
-72.65499999999952
 31
0.0
  0
LINE
  5
2BE
330
23D
100
AcDbEntity
  8
0
 62
     0
100
AcDbLine
 10
9.036607142857519
 20
-62.38999999999919
 30
0.0
 11
9.036607142857519
 21
-62.35098881921726
 31
0.0
  0
LINE
  5
2BF
330
23D
100
AcDbEntity
  8
0
 62
     0
100
AcDbLine
 10
9.036607142857519
 20
-63.59999999999923
 30
0.0
 11
9.036607142857519
 21
-62.38999999999919
 31
0.0
  0
LINE
  5
2C0
330
23D
100
AcDbEntity
  8
0
 62
     0
100
AcDbLine
 10
9.036607142857519
 20
-63.63901118078114
 30
0.0
 11
9.036607142857519
 21
-63.59999999999923
 31
0.0
  0
LINE
  5
2C1
330
23D
100
AcDbEntity
  8
0
 62
     0
100
AcDbLine
 10
9.036607142857519
 20
-72.51098881921713
 30
0.0
 11
9.036607142857519
 21
-68.71901118078108
 31
0.0
  0
LINE
  5
2C2
330
23D
100
AcDbEntity
  8
0
 62
     0
100
AcDbLine
 10
9.036607142857519
 20
-68.67999999999915
 30
0.0
 11
9.036607142857519
 21
-68.71901118078108
 31
0.0
  0
LINE
  5
2C3
330
23D
100
AcDbEntity
  8
0
 62
     0
100
AcDbLine
 10
9.036607142857519
 20
-67.46999999999911
 30
0.0
 11
9.036607142857519
 21
-68.67999999999915
 31
0.0
  0
LINE
  5
2C4
330
23D
100
AcDbEntity
  8
0
 62
     0
100
AcDbLine
 10
9.036607142857519
 20
-67.43098881921719
 30
0.0
 11
9.036607142857519
 21
-63.63901118078114
 31
0.0
  0
LINE
  5
2C5
330
23D
100
AcDbEntity
  8
0
 62
     0
100
AcDbLine
 10
9.036607142857519
 20
-67.46999999999911
 30
0.0
 11
9.036607142857519
 21
-67.43098881921719
 31
0.0
  0
LINE
  5
2C6
330
23D
100
AcDbEntity
  8
0
 62
     0
100
AcDbLine
 10
8.725000000000362
 20
-77.25999999999908
 30
0.0
 11
8.725000000000362
 21
-74.12999999999944
 31
0.0
  0
LINE
  5
2C7
330
23D
100
AcDbEntity
  8
0
 62
     0
100
AcDbLine
 10
8.725000000000362
 20
-72.17999999999915
 30
0.0
 11
8.725000000000362
 21
-69.04999999999905
 31
0.0
  0
LINE
  5
2C8
330
23D
100
AcDbEntity
  8
0
 62
     0
100
AcDbLine
 10
8.725000000000362
 20
-67.09999999999921
 30
0.0
 11
8.725000000000362
 21
-63.96999999999911
 31
0.0
  0
LINE
  5
2C9
330
23D
100
AcDbEntity
  8
0
 62
     0
100
AcDbLine
 10
8.725000000000362
 20
-62.01999999999928
 30
0.0
 11
9.036607142857519
 21
-62.35098881921726
 31
0.0
  0
LINE
  5
2CA
330
23D
100
AcDbEntity
  8
0
 62
     0
100
AcDbLine
 10
9.036607142857519
 20
-73.79901118078143
 30
0.0
 11
8.725000000000362
 21
-74.12999999999944
 31
0.0
  0
LINE
  5
2CB
330
23D
100
AcDbEntity
  8
0
 62
     0
100
AcDbLine
 10
8.725000000000362
 20
-77.25999999999908
 30
0.0
 11
9.036607142857519
 21
-77.59098881921705
 31
0.0
  0
LINE
  5
2CC
330
23D
100
AcDbEntity
  8
0
 62
     0
100
AcDbLine
 10
8.725000000000362
 20
-67.09999999999921
 30
0.0
 11
9.036607142857519
 21
-67.43098881921719
 31
0.0
  0
LINE
  5
2CD
330
23D
100
AcDbEntity
  8
0
 62
     0
100
AcDbLine
 10
7.900000000000542
 20
-67.09999999999921
 30
0.0
 11
8.725000000000362
 21
-67.09999999999921
 31
0.0
  0
LINE
  5
2CE
330
23D
100
AcDbEntity
  8
0
 62
     0
100
AcDbLine
 10
7.900000000000542
 20
-67.09999999999921
 30
0.0
 11
7.900000000000542
 21
-63.96999999999911
 31
0.0
  0
LINE
  5
2CF
330
23D
100
AcDbEntity
  8
0
 62
     0
100
AcDbLine
 10
9.036607142857519
 20
-57.27098881921733
 30
0.0
 11
9.036607142857519
 21
-55.37499999999933
 31
0.0
  0
LINE
  5
2D0
330
23D
100
AcDbEntity
  8
0
 62
     0
100
AcDbLine
 10
12.88000000000056
 20
-60.25403810567581
 30
0.0
 11
12.88000000000056
 21
-60.65596189432267
 31
0.0
  0
LINE
  5
2D1
330
23D
100
AcDbEntity
  8
0
 62
     0
100
AcDbLine
 10
12.88000000000056
 20
-60.65596189432267
 30
0.0
 11
12.13000000000056
 21
-60.45499999999925
 31
0.0
  0
LINE
  5
2D2
330
23D
100
AcDbEntity
  8
0
 62
     0
100
AcDbLine
 10
12.13000000000056
 20
-60.45499999999925
 30
0.0
 11
12.88000000000056
 21
-60.25403810567581
 31
0.0
  0
LINE
  5
2D3
330
23D
100
AcDbEntity
  8
0
 62
     0
100
AcDbLine
 10
7.900000000000542
 20
-62.01999999999928
 30
0.0
 11
7.900000000000542
 21
-58.88999999999919
 31
0.0
  0
LINE
  5
2D4
330
23D
100
AcDbEntity
  8
0
 62
     0
100
AcDbLine
 10
9.036607142857519
 20
-58.55901118078122
 30
0.0
 11
9.036607142857519
 21
-58.51999999999929
 31
0.0
  0
LINE
  5
2D5
330
23D
100
AcDbEntity
  8
0
 62
     0
100
AcDbLine
 10
9.036607142857519
 20
-62.35098881921726
 30
0.0
 11
9.036607142857519
 21
-58.55901118078122
 31
0.0
  0
LINE
  5
2D6
330
23D
100
AcDbEntity
  8
0
 62
     0
100
AcDbLine
 10
8.725000000000362
 20
-62.01999999999928
 30
0.0
 11
8.725000000000362
 21
-58.88999999999919
 31
0.0
  0
LINE
  5
2D7
330
23D
100
AcDbEntity
  8
0
 62
     0
100
AcDbLine
 10
9.036607142857519
 20
-55.37499999999933
 30
0.0
 11
8.725000000000362
 21
-55.37499999999933
 31
0.0
  0
LINE
  5
2D8
330
23D
100
AcDbEntity
  8
0
 62
     0
100
AcDbLine
 10
8.725000000000362
 20
-55.37499999999933
 30
0.0
 11
8.725000000000362
 21
-56.93999999999937
 31
0.0
  0
LINE
  5
2D9
330
23D
100
AcDbEntity
  8
0
 62
     0
100
AcDbLine
 10
7.900000000000542
 20
-56.93999999999937
 30
0.0
 11
8.725000000000362
 21
-56.93999999999937
 31
0.0
  0
LINE
  5
2DA
330
23D
100
AcDbEntity
  8
0
 62
     0
100
AcDbLine
 10
14.63000000000056
 20
-55.37499999999933
 30
0.0
 11
14.63000000000056
 21
-55.76093407714575
 31
0.0
  0
LINE
  5
2DB
330
23D
100
AcDbEntity
  8
0
 62
     0
100
AcDbLine
 10
14.33000000000038
 20
-55.87539219456242
 30
0.0
 11
14.33000000000038
 21
-55.37499999999933
 31
0.0
  0
LINE
  5
2DC
330
23D
100
AcDbEntity
  8
0
 62
     0
100
AcDbLine
 10
14.33000000000038
 20
-55.37499999999933
 30
0.0
 11
9.036607142857519
 21
-55.37499999999933
 31
0.0
  0
LINE
  5
2DD
330
23D
100
AcDbEntity
  8
0
 62
     0
100
AcDbLine
 10
14.63000000000056
 20
-55.37499999999933
 30
0.0
 11
14.33000000000038
 21
-55.37499999999933
 31
0.0
  0
LINE
  5
2DE
330
23D
100
AcDbEntity
  8
0
 62
     0
100
AcDbLine
 10
12.63000000000147
 20
-57.41499999999928
 30
0.0
 11
12.36205080757008
 21
-57.68294919243022
 31
0.0
  0
LINE
  5
2DF
330
23D
100
AcDbEntity
  8
0
 62
     0
100
AcDbLine
 10
12.63000000000102
 20
-58.41499999999928
 30
0.0
 11
12.63000000000147
 21
-57.41499999999928
 31
0.0
  0
LINE
  5
2E0
330
23D
100
AcDbEntity
  8
0
 62
     0
100
AcDbLine
 10
12.36205080757008
 20
-58.14705080756835
 30
0.0
 11
12.63000000000102
 21
-58.41499999999928
 31
0.0
  0
LINE
  5
2E1
330
23D
100
AcDbEntity
  8
0
 62
     0
100
AcDbLine
 10
12.36205080757008
 20
-58.14705080756835
 30
0.0
 11
12.36205080757008
 21
-57.68294919243022
 31
0.0
  0
LINE
  5
2E2
330
23D
100
AcDbEntity
  8
0
 62
     0
100
AcDbLine
 10
11.63000000000147
 20
-57.41499999999928
 30
0.0
 11
12.63000000000147
 21
-57.41499999999928
 31
0.0
  0
LINE
  5
2E3
330
23D
100
AcDbEntity
  8
0
 62
     0
100
AcDbLine
 10
11.63000000000101
 20
-58.41499999999928
 30
0.0
 11
11.8979491924324
 21
-58.14705080756835
 31
0.0
  0
LINE
  5
2E4
330
23D
100
AcDbEntity
  8
0
 62
     0
100
AcDbLine
 10
11.63000000000147
 20
-57.41499999999928
 30
0.0
 11
11.63000000000101
 21
-58.41499999999928
 31
0.0
  0
LINE
  5
2E5
330
23D
100
AcDbEntity
  8
0
 62
     0
100
AcDbLine
 10
11.63000000000147
 20
-57.41499999999928
 30
0.0
 11
11.8979491924324
 21
-57.68294919243022
 31
0.0
  0
LINE
  5
2E6
330
23D
100
AcDbEntity
  8
0
 62
     0
100
AcDbLine
 10
11.8979491924324
 20
-58.14705080756835
 30
0.0
 11
12.36205080757008
 21
-58.14705080756835
 31
0.0
  0
LINE
  5
2E7
330
23D
100
AcDbEntity
  8
0
 62
     0
100
AcDbLine
 10
11.8979491924324
 20
-57.68294919243022
 30
0.0
 11
11.8979491924324
 21
-58.14705080756835
 31
0.0
  0
LINE
  5
2E8
330
23D
100
AcDbEntity
  8
0
 62
     0
100
AcDbLine
 10
11.8979491924324
 20
-57.68294919243022
 30
0.0
 11
12.36205080757008
 21
-57.68294919243022
 31
0.0
  0
LINE
  5
2E9
330
23D
100
AcDbEntity
  8
0
 62
     0
100
AcDbLine
 10
11.63000000000101
 20
-58.41499999999928
 30
0.0
 11
12.63000000000102
 21
-58.41499999999928
 31
0.0
  0
LINE
  5
2EA
330
23D
100
AcDbEntity
  8
0
 62
     0
100
AcDbLine
 10
7.900000000000542
 20
-58.88999999999919
 30
0.0
 11
8.725000000000362
 21
-58.88999999999919
 31
0.0
  0
LINE
  5
2EB
330
23D
100
AcDbEntity
  8
0
 62
     0
100
AcDbLine
 10
9.036607142857519
 20
-58.55901118078122
 30
0.0
 11
8.725000000000362
 21
-58.88999999999919
 31
0.0
  0
LINE
  5
2EC
330
23D
100
AcDbEntity
  8
0
 62
     0
100
AcDbLine
 10
8.725000000000362
 20
-56.93999999999937
 30
0.0
 11
9.036607142857519
 21
-57.27098881921733
 31
0.0
  0
LINE
  5
2ED
330
23D
100
AcDbEntity
  8
0
 62
     0
100
AcDbLine
 10
9.036607142857519
 20
-57.30999999999927
 30
0.0
 11
9.036607142857519
 21
-57.27098881921733
 31
0.0
  0
LINE
  5
2EE
330
23D
100
AcDbEntity
  8
0
 62
     0
100
AcDbLine
 10
9.036607142857519
 20
-58.51999999999929
 30
0.0
 11
9.036607142857519
 21
-57.30999999999927
 31
0.0
  0
LINE
  5
2EF
330
23D
100
AcDbEntity
  8
0
 62
     0
100
AcDbLine
 10
11.9290381056771
 20
-81.77499999999941
 30
0.0
 11
12.13000000000056
 21
-81.77499999999941
 31
0.0
  0
LINE
  5
2F0
330
23D
100
AcDbEntity
  8
0
 62
     0
100
AcDbLine
 10
12.33096189432399
 20
-81.77499999999941
 30
0.0
 11
16.00000000000043
 21
-81.77499999999941
 31
0.0
  0
LINE
  5
2F1
330
23D
100
AcDbEntity
  8
0
 62
     0
100
AcDbLine
 10
12.13000000000056
 20
-81.77499999999941
 30
0.0
 11
12.33096189432399
 21
-81.77499999999941
 31
0.0
  0
LINE
  5
2F2
330
23D
100
AcDbEntity
  8
0
 62
     0
100
AcDbLine
 10
8.33000000000038
 20
-81.77499999999941
 30
0.0
 11
11.9290381056771
 21
-81.77499999999941
 31
0.0
  0
LINE
  5
2F3
330
23D
100
AcDbEntity
  8
0
 62
     0
100
AcDbLine
 10
7.900000000000542
 20
-81.77499999999941
 30
0.0
 11
8.33000000000038
 21
-81.77499999999941
 31
0.0
  0
LINE
  5
2F4
330
23D
100
AcDbEntity
  8
0
 62
     0
100
AcDbLine
 10
7.900000000000542
 20
-79.20999999999934
 30
0.0
 11
7.900000000000542
 21
-81.77499999999941
 31
0.0
  0
LINE
  5
2F5
330
23D
100
AcDbEntity
  8
0
 62
     0
100
AcDbLine
 10
12.65000113999986
 20
-54.37499999999932
 30
0.0
 11
8.33000000000038
 21
-54.37499999999932
 31
0.0
  0
LINE
  5
2F6
330
23D
100
AcDbEntity
  8
0
 62
     0
100
AcDbLine
 10
12.85025708184684
 20
-54.37499999999932
 30
0.0
 11
12.65000113999986
 21
-54.37499999999932
 31
0.0
  0
LINE
  5
2F7
330
23D
100
AcDbEntity
  8
0
 62
     0
100
AcDbLine
 10
12.95875911636858
 20
-54.37499999999932
 30
0.0
 11
12.85025708184684
 21
-54.37499999999932
 31
0.0
  0
LINE
  5
2F8
330
23D
100
AcDbEntity
  8
0
 62
     0
100
AcDbLine
 10
13.10895107275337
 20
-54.37499999999932
 30
0.0
 11
12.95875911636858
 21
-54.37499999999932
 31
0.0
  0
LINE
  5
2F9
330
23D
100
AcDbEntity
  8
0
 62
     0
100
AcDbLine
 10
13.33690248499715
 20
-54.37499999999932
 30
0.0
 11
13.10895107275337
 21
-54.37499999999932
 31
0.0
  0
LINE
  5
2FA
330
23D
100
AcDbEntity
  8
0
 62
     0
100
AcDbLine
 10
15.50000000000044
 20
-54.37499999999932
 30
0.0
 11
15.29974405815392
 21
-54.37499999999932
 31
0.0
  0
LINE
  5
2FB
330
23D
100
AcDbEntity
  8
0
 62
     0
100
AcDbLine
 10
16.00000000000043
 20
-54.37499999999932
 30
0.0
 11
15.50000000000044
 21
-54.37499999999932
 31
0.0
  0
LINE
  5
2FC
330
23D
100
AcDbEntity
  8
0
 62
     0
100
AcDbLine
 10
13.47202608463658
 20
-54.37499999999932
 30
0.0
 11
13.33690248499715
 21
-54.37499999999932
 31
0.0
  0
LINE
  5
2FD
330
23D
100
AcDbEntity
  8
0
 62
     0
100
AcDbLine
 10
14.38786381552608
 20
-54.37499999999932
 30
0.0
 11
14.25274021588711
 21
-54.37499999999932
 31
0.0
  0
LINE
  5
2FE
330
23D
100
AcDbEntity
  8
0
 62
     0
100
AcDbLine
 10
14.61581522776985
 20
-54.37499999999932
 30
0.0
 11
14.38786381552608
 21
-54.37499999999932
 31
0.0
  0
LINE
  5
2FF
330
23D
100
AcDbEntity
  8
0
 62
     0
100
AcDbLine
 10
15.19124202362444
 20
-54.37499999999932
 30
0.0
 11
15.04105006723966
 21
-54.37499999999932
 31
0.0
  0
LINE
  5
300
330
23D
100
AcDbEntity
  8
0
 62
     0
100
AcDbLine
 10
15.29974405815392
 20
-54.37499999999932
 30
0.0
 11
15.19124202362444
 21
-54.37499999999932
 31
0.0
  0
LINE
  5
301
330
23D
100
AcDbEntity
  8
0
 62
     0
100
AcDbLine
 10
14.7660071841551
 20
-54.37499999999932
 30
0.0
 11
14.61581522776985
 21
-54.37499999999932
 31
0.0
  0
LINE
  5
302
330
23D
100
AcDbEntity
  8
0
 62
     0
100
AcDbLine
 10
15.04105006723966
 20
-54.37499999999932
 30
0.0
 11
14.7660071841551
 21
-54.37499999999932
 31
0.0
  0
LINE
  5
303
330
23D
100
AcDbEntity
  8
0
 62
     0
100
AcDbLine
 10
13.64543921326093
 20
-54.37499999999932
 30
0.0
 11
13.47202608463658
 21
-54.37499999999932
 31
0.0
  0
LINE
  5
304
330
23D
100
AcDbEntity
  8
0
 62
     0
100
AcDbLine
 10
14.0793270872623
 20
-54.37499999999932
 30
0.0
 11
13.64543921326093
 21
-54.37499999999932
 31
0.0
  0
LINE
  5
305
330
23D
100
AcDbEntity
  8
0
 62
     0
100
AcDbLine
 10
14.25274021588711
 20
-54.37499999999932
 30
0.0
 11
14.0793270872623
 21
-54.37499999999932
 31
0.0
  0
LINE
  5
306
330
23D
100
AcDbEntity
  8
0
 62
     0
100
AcDbLine
 10
7.426838695454534
 20
-62.38999999999919
 30
0.0
 11
7.900000000000542
 21
-62.01999999999928
 31
0.0
  0
LINE
  5
307
330
23D
100
AcDbEntity
  8
0
 62
     0
100
AcDbLine
 10
7.426838695454534
 20
-62.38999999999919
 30
0.0
 11
7.426838695454534
 21
-63.59999999999923
 31
0.0
  0
LINE
  5
308
330
23D
100
AcDbEntity
  8
0
 62
     0
100
AcDbLine
 10
7.426838695454534
 20
-68.67999999999915
 30
0.0
 11
7.900000000000542
 21
-69.04999999999905
 31
0.0
  0
LINE
  5
309
330
23D
100
AcDbEntity
  8
0
 62
     0
100
AcDbLine
 10
7.426838695454534
 20
-68.67999999999915
 30
0.0
 11
9.036607142857519
 21
-68.67999999999915
 31
0.0
  0
LINE
  5
30A
330
23D
100
AcDbEntity
  8
0
 62
     0
100
AcDbLine
 10
7.426838695454534
 20
-72.54999999999904
 30
0.0
 11
7.900000000000542
 21
-72.17999999999915
 31
0.0
  0
LINE
  5
30B
330
23D
100
AcDbEntity
  8
0
 62
     0
100
AcDbLine
 10
7.426838695454534
 20
-73.75999999999908
 30
0.0
 11
7.426838695454534
 21
-72.54999999999904
 31
0.0
  0
LINE
  5
30C
330
23D
100
AcDbEntity
  8
0
 62
     0
100
AcDbLine
 10
7.426838695454534
 20
-73.75999999999908
 30
0.0
 11
7.900000000000542
 21
-74.12999999999944
 31
0.0
  0
LINE
  5
30D
330
23D
100
AcDbEntity
  8
0
 62
     0
100
AcDbLine
 10
7.426838695454534
 20
-68.67999999999915
 30
0.0
 11
7.426838695454534
 21
-67.46999999999911
 31
0.0
  0
LINE
  5
30E
330
23D
100
AcDbEntity
  8
0
 62
     0
100
AcDbLine
 10
7.426838695454534
 20
-77.62999999999944
 30
0.0
 11
7.900000000000542
 21
-77.25999999999908
 31
0.0
  0
LINE
  5
30F
330
23D
100
AcDbEntity
  8
0
 62
     0
100
AcDbLine
 10
7.426838695454534
 20
-78.83999999999947
 30
0.0
 11
7.426838695454534
 21
-77.62999999999944
 31
0.0
  0
LINE
  5
310
330
23D
100
AcDbEntity
  8
0
 62
     0
100
AcDbLine
 10
9.036607142857519
 20
-77.62999999999944
 30
0.0
 11
7.426838695454534
 21
-77.62999999999944
 31
0.0
  0
LINE
  5
311
330
23D
100
AcDbEntity
  8
0
 62
     0
100
AcDbLine
 10
7.900000000000542
 20
-79.20999999999934
 30
0.0
 11
7.426838695454534
 21
-78.83999999999947
 31
0.0
  0
LINE
  5
312
330
23D
100
AcDbEntity
  8
0
 62
     0
100
AcDbLine
 10
7.426838695454534
 20
-73.75999999999908
 30
0.0
 11
9.036607142857519
 21
-73.75999999999908
 31
0.0
  0
LINE
  5
313
330
23D
100
AcDbEntity
  8
0
 62
     0
100
AcDbLine
 10
7.426838695454534
 20
-67.46999999999911
 30
0.0
 11
7.900000000000542
 21
-67.09999999999921
 31
0.0
  0
LINE
  5
314
330
23D
100
AcDbEntity
  8
0
 62
     0
100
AcDbLine
 10
9.036607142857519
 20
-67.46999999999911
 30
0.0
 11
7.426838695454534
 21
-67.46999999999911
 31
0.0
  0
LINE
  5
315
330
23D
100
AcDbEntity
  8
0
 62
     0
100
AcDbLine
 10
7.426838695454534
 20
-58.51999999999929
 30
0.0
 11
9.036607142857519
 21
-58.51999999999929
 31
0.0
  0
LINE
  5
316
330
23D
100
AcDbEntity
  8
0
 62
     0
100
AcDbLine
 10
7.426838695454534
 20
-58.51999999999929
 30
0.0
 11
7.426838695454534
 21
-57.30999999999927
 31
0.0
  0
LINE
  5
317
330
23D
100
AcDbEntity
  8
0
 62
     0
100
AcDbLine
 10
9.036607142857519
 20
-57.30999999999927
 30
0.0
 11
7.426838695454534
 21
-57.30999999999927
 31
0.0
  0
LINE
  5
318
330
23D
100
AcDbEntity
  8
0
 62
     0
100
AcDbLine
 10
7.426838695454534
 20
-57.30999999999927
 30
0.0
 11
7.900000000000542
 21
-56.93999999999937
 31
0.0
  0
LINE
  5
319
330
23D
100
AcDbEntity
  8
0
 62
     0
100
AcDbLine
 10
7.400000000000542
 20
-81.77499999999941
 30
0.0
 11
7.900000000000542
 21
-81.77499999999941
 31
0.0
  0
LINE
  5
31A
330
23D
100
AcDbEntity
  8
0
 62
     0
100
AcDbLine
 10
7.400000000000542
 20
-81.77499999999941
 30
0.0
 11
7.400000000000542
 21
-54.37499999999932
 31
0.0
  0
LINE
  5
31B
330
23D
100
AcDbEntity
  8
0
 62
     0
100
AcDbLine
 10
7.900000000000542
 20
-54.37499999999932
 30
0.0
 11
7.400000000000542
 21
-54.37499999999932
 31
0.0
  0
ARC
  5
31C
330
23D
100
AcDbEntity
  8
0
 62
     0
100
AcDbCircle
 10
12.13000000000101
 20
-57.91499999999928
 30
0.0
 40
3.299999999999346
100
AcDbArc
 50
319.2509456225096
 51
40.74905437749029
  0
ARC
  5
31D
330
23D
100
AcDbEntity
  8
0
 62
     0
100
AcDbCircle
 10
12.13000000000101
 20
-57.91499999999928
 30
0.0
 40
2.999999999999346
100
AcDbArc
 50
317.1665719339526
 51
42.83342806604736
  0
ARC
  5
31E
330
23D
100
AcDbEntity
  8
0
 62
     0
100
AcDbCircle
 10
12.13000000000056
 20
-78.23499999999945
 30
0.0
 40
1.400000000000003
100
AcDbArc
 50
330.0000000000038
 51
209.9999999999961
  0
ARC
  5
31F
330
23D
100
AcDbEntity
  8
0
 62
     0
100
AcDbCircle
 10
12.13000000000056
 20
-73.15499999999952
 30
0.0
 40
2.999999999999798
100
AcDbArc
 50
317.1665719339526
 51
42.83342806604736
  0
ARC
  5
320
330
23D
100
AcDbEntity
  8
0
 62
     0
100
AcDbCircle
 10
12.13000000000056
 20
-78.23499999999945
 30
0.0
 40
3.299999999999986
100
AcDbArc
 50
319.2509456225466
 51
40.74905437745336
  0
ARC
  5
321
330
23D
100
AcDbEntity
  8
0
 62
     0
100
AcDbCircle
 10
12.13000000000056
 20
-73.15499999999952
 30
0.0
 40
3.299999999999825
100
AcDbArc
 50
319.2509456225466
 51
40.74905437745336
  0
ARC
  5
322
330
23D
100
AcDbEntity
  8
0
 62
     0
100
AcDbCircle
 10
12.13000000000056
 20
-68.07499999999959
 30
0.0
 40
3.299999999999825
100
AcDbArc
 50
319.2509456225466
 51
40.74905437745336
  0
ARC
  5
323
330
23D
100
AcDbEntity
  8
0
 62
     0
100
AcDbCircle
 10
12.13000000000056
 20
-62.99499999999966
 30
0.0
 40
3.299999999999816
100
AcDbArc
 50
319.2509456225466
 51
40.74905437745336
  0
ARC
  5
324
330
23D
100
AcDbEntity
  8
0
 62
     0
100
AcDbCircle
 10
12.13000000000056
 20
-68.07499999999959
 30
0.0
 40
2.999999999999798
100
AcDbArc
 50
317.1665719339526
 51
42.83342806604736
  0
ARC
  5
325
330
23D
100
AcDbEntity
  8
0
 62
     0
100
AcDbCircle
 10
12.13000000000056
 20
-62.99499999999966
 30
0.0
 40
2.999999999999796
100
AcDbArc
 50
317.1665719339526
 51
42.83342806604736
  0
ARC
  5
326
330
23D
100
AcDbEntity
  8
0
 62
     0
100
AcDbCircle
 10
12.13000000000056
 20
-78.23499999999945
 30
0.0
 40
2.99999999999996
100
AcDbArc
 50
317.1665719339526
 51
42.83342806604736
  0
CIRCLE
  5
327
330
23D
100
AcDbEntity
  8
0
 62
     0
100
AcDbCircle
 10
12.13000000000056
 20
-62.99499999999966
 30
0.0
 40
1.399999999998762
  0
CIRCLE
  5
328
330
23D
100
AcDbEntity
  8
0
 62
     0
100
AcDbCircle
 10
12.13000000000056
 20
-68.07499999999959
 30
0.0
 40
1.399999999998762
  0
CIRCLE
  5
329
330
23D
100
AcDbEntity
  8
0
 62
     0
100
AcDbCircle
 10
12.13000000000056
 20
-73.15499999999952
 30
0.0
 40
1.399999999999999
  0
CIRCLE
  5
32A
330
23D
100
AcDbEntity
  8
0
 62
     0
100
AcDbCircle
 10
12.13000000000101
 20
-57.91499999999928
 30
0.0
 40
1.399999999999379
  0
ARC
  5
32B
330
23D
100
AcDbEntity
  8
0
 62
     0
100
AcDbCircle
 10
21.04147722073548
 20
-93.34568831880257
 30
6.483974233579615E+99
 40
18.41680697560812
100
AcDbArc
 50
110.3730936678164
 51
110.8717620092503
  0
LINE
  5
32C
330
23D
100
AcDbEntity
  8
0
 62
     0
100
AcDbLine
 10
14.4799825891846
 20
-76.13738894388075
 30
6.483974233579615E+99
 11
14.40446560960572
 21
-76.16639056957295
 31
6.483974233579615E+99
  0
LINE
  5
32D
330
23D
100
AcDbEntity
  8
0
 62
     0
100
AcDbLine
 10
14.40446560960572
 20
-76.16639056957295
 30
6.483974233579615E+99
 11
14.33000000000038
 21
-76.19539219456214
 31
6.483974233579615E+99
  0
ARC
  5
32E
330
23D
100
AcDbEntity
  8
0
 62
     0
100
AcDbCircle
 10
20.51641922486167
 20
-64.50091261943157
 30
6.483974233579615E+99
 40
16.94347197733493
100
AcDbArc
 50
248.5849640485465
 51
249.1287512867559
  0
LINE
  5
32F
330
23D
100
AcDbEntity
  8
0
 62
     0
100
AcDbLine
 10
14.4799825891846
 20
-80.33261105611812
 30
6.483974233579615E+99
 11
14.55478560110896
 21
-80.360948485212
 31
6.483974233579615E+99
  0
LINE
  5
330
330
23D
100
AcDbEntity
  8
0
 62
     0
100
AcDbLine
 10
14.55478560110896
 20
-80.360948485212
 30
6.483974233579615E+99
 11
14.63000000000056
 21
-80.38906592285345
 31
6.483974233579615E+99
  0
ARC
  5
331
330
23D
100
AcDbEntity
  8
0
 62
     0
100
AcDbCircle
 10
20.49616678119173
 20
-59.47328061446455
 30
6.483974233579615E+99
 40
16.88732487456338
100
AcDbArc
 50
248.5840600477166
 51
249.1296552877335
  0
LINE
  5
332
330
23D
100
AcDbEntity
  8
0
 62
     0
100
AcDbLine
 10
14.47998258927325
 20
-75.25261105615186
 30
6.483974233579615E+99
 11
14.55449330351028
 21
-75.280838490012
 31
6.483974233579615E+99
  0
LINE
  5
333
330
23D
100
AcDbEntity
  8
0
 62
     0
100
AcDbLine
 10
14.55449330351028
 20
-75.280838490012
 30
6.483974233579615E+99
 11
14.63000000000056
 21
-75.30906592285259
 31
6.483974233579615E+99
  0
ARC
  5
334
330
23D
100
AcDbEntity
  8
0
 62
     0
100
AcDbCircle
 10
21.04147722065544
 20
-88.26568831851977
 30
6.483974233579615E+99
 40
18.41680697531573
100
AcDbArc
 50
110.3730936678999
 51
110.8717620093339
  0
LINE
  5
335
330
23D
100
AcDbEntity
  8
0
 62
     0
100
AcDbLine
 10
14.4799825891846
 20
-71.05738894388081
 30
6.483974233579615E+99
 11
14.40421771715773
 21
-71.08648644004073
 31
6.483974233579615E+99
  0
LINE
  5
336
330
23D
100
AcDbEntity
  8
0
 62
     0
100
AcDbLine
 10
14.40421771715773
 20
-71.08648644004073
 30
6.483974233579615E+99
 11
14.33000000000038
 21
-71.11539219456222
 31
6.483974233579615E+99
  0
ARC
  5
337
330
23D
100
AcDbEntity
  8
0
 62
     0
100
AcDbCircle
 10
20.51641922551652
 20
-54.34091261775598
 30
6.483974233579615E+99
 40
16.94347197913375
100
AcDbArc
 50
248.5849640485708
 51
249.1287512870346
  0
LINE
  5
338
330
23D
100
AcDbEntity
  8
0
 62
     0
100
AcDbLine
 10
14.47998258927325
 20
-70.17261105615194
 30
6.483974233579615E+99
 11
14.55449330350939
 21
-70.20083849001162
 31
6.483974233579615E+99
  0
LINE
  5
339
330
23D
100
AcDbEntity
  8
0
 62
     0
100
AcDbLine
 10
14.55449330350939
 20
-70.20083849001162
 30
6.483974233579615E+99
 11
14.63000000000056
 21
-70.22906592285266
 31
6.483974233579615E+99
  0
ARC
  5
33A
330
23D
100
AcDbEntity
  8
0
 62
     0
100
AcDbCircle
 10
20.49616556162664
 20
-49.31328376790748
 30
6.483974233579615E+99
 40
16.8873214935453
100
AcDbArc
 50
248.5840599931657
 51
249.1296553424187
  0
LINE
  5
33B
330
23D
100
AcDbEntity
  8
0
 62
     0
100
AcDbLine
 10
14.47998258927325
 20
-65.09261105615201
 30
6.483974233579615E+99
 11
14.55449330350847
 21
-65.12083849001124
 31
6.483974233579615E+99
  0
LINE
  5
33C
330
23D
100
AcDbEntity
  8
0
 62
     0
100
AcDbLine
 10
14.55449330350847
 20
-65.12083849001124
 30
6.483974233579615E+99
 11
14.63000000000056
 21
-65.14906592285274
 31
6.483974233579615E+99
  0
ARC
  5
33D
330
23D
100
AcDbEntity
  8
0
 62
     0
100
AcDbCircle
 10
21.01643747155776
 20
-83.1191502405734
 30
6.483974233579615E+99
 40
18.34571401668807
100
AcDbArc
 50
110.372127446696
 51
110.8727282303854
  0
LINE
  5
33E
330
23D
100
AcDbEntity
  8
0
 62
     0
100
AcDbLine
 10
14.4799825891846
 20
-65.97738894388043
 30
6.483974233579615E+99
 11
14.40421771044293
 21
-66.00648644263833
 31
6.483974233579615E+99
  0
LINE
  5
33F
330
23D
100
AcDbEntity
  8
0
 62
     0
100
AcDbLine
 10
14.40421771044293
 20
-66.00648644263833
 30
6.483974233579615E+99
 11
14.33000000000038
 21
-66.03539219456229
 31
6.483974233579615E+99
  0
ARC
  5
340
330
23D
100
AcDbEntity
  8
0
 62
     0
100
AcDbCircle
 10
21.04147722068228
 20
-73.02568831859185
 30
6.483974233579615E+99
 40
18.41680697539202
100
AcDbArc
 50
110.3730936678999
 51
110.8717620093339
  0
LINE
  5
341
330
23D
100
AcDbEntity
  8
0
 62
     0
100
AcDbLine
 10
14.4799825891846
 20
-55.81738894388061
 30
6.483974233579615E+99
 11
14.40421777271103
 21
-55.84648641855596
 31
6.483974233579615E+99
  0
LINE
  5
342
330
23D
100
AcDbEntity
  8
0
 62
     0
100
AcDbLine
 10
14.40421777271103
 20
-55.84648641855596
 30
6.483974233579615E+99
 11
14.33000000000038
 21
-55.87539219456242
 31
6.483974233579615E+99
  0
ARC
  5
343
330
23D
100
AcDbEntity
  8
0
 62
     0
100
AcDbCircle
 10
20.4961667514458
 20
-44.23328069137983
 30
6.483974233579615E+99
 40
16.8873247920978
100
AcDbArc
 50
248.5840600463733
 51
249.1296552890684
  0
LINE
  5
344
330
23D
100
AcDbEntity
  8
0
 62
     0
100
AcDbLine
 10
14.47998258927325
 20
-60.01261105615206
 30
6.483974233579615E+99
 11
14.55449330350984
 21
-60.04083849001176
 31
6.483974233579615E+99
  0
LINE
  5
345
330
23D
100
AcDbEntity
  8
0
 62
     0
100
AcDbLine
 10
14.55449330350984
 20
-60.04083849001176
 30
6.483974233579615E+99
 11
14.63000000000056
 21
-60.06906592285282
 31
6.483974233579615E+99
  0
ARC
  5
346
330
23D
100
AcDbEntity
  8
0
 62
     0
100
AcDbCircle
 10
21.04147722066318
 20
-78.10568831860904
 30
0.0
 40
18.41680697540189
100
AcDbArc
 50
110.3730936678164
 51
110.8717620092503
  0
LINE
  5
347
330
23D
100
AcDbEntity
  8
0
 62
     0
100
AcDbLine
 10
14.4799825891846
 20
-60.89738894388052
 30
0.0
 11
14.40446560960572
 21
-60.92639056957318
 31
0.0
  0
LINE
  5
348
330
23D
100
AcDbEntity
  8
0
 62
     0
100
AcDbLine
 10
14.40446560960572
 20
-60.92639056957318
 30
0.0
 11
14.33000000000038
 21
-60.95539219456235
 31
0.0
  0
LINE
  5
349
330
23D
100
AcDbEntity
  8
0
 62
     0
100
AcDbLine
 10
16.00000000000043
 20
-51.7749999999998
 30
0.0
 11
16.00000000000043
 21
-84.37499999999969
 31
0.0
  0
LWPOLYLINE
  5
34A
330
23D
100
AcDbEntity
  8
0
100
AcDbPolyline
 90
        4
 70
     1
 43
0.0
 10
18.49999999999953
 20
-41.52499926630912
 10
20.0999999999999
 20
-41.52499926630912
 10
20.0999999999999
 20
-44.22499926630985
 10
18.49999999999953
 20
-44.22499926630985
  0
LWPOLYLINE
  5
34B
330
23D
100
AcDbEntity
  8
0
100
AcDbPolyline
 90
        4
 70
     1
 43
0.0
 10
18.49999999999953
 20
-47.02499926630911
 10
20.0999999999999
 20
-47.02499926630911
 10
20.0999999999999
 20
-49.72499926630985
 10
18.49999999999953
 20
-49.72499926630985
  0
LINE
  5
34C
330
23D
100
AcDbEntity
  8
0
100
AcDbLine
 10
16.00000000000039
 20
-51.7749999999998
 30
0.0
 11
17.00007431254885
 21
-51.7749999999998
 31
0.0
  0
LINE
  5
34D
330
23D
100
AcDbEntity
  8
0
100
AcDbLine
 10
16.00000000000043
 20
-84.37499999999969
 30
0.0
 11
17.00007431255062
 21
-84.37499999999969
 31
0.0
  0
ENDBLK
  5
34F
330
23D
100
AcDbEntity
  8
0
100
AcDbBlockEnd
  0
ENDSEC
  0
SECTION
  2
ENTITIES
  0
LINE
  5
569
330
1F
100
AcDbEntity
  8
1
100
AcDbLine
 10
21.49999532091281
 20
359.9738178928942
 30
0.0
 11
36.49999532091283
 21
359.9738178928942
 31
0.0
  0
LINE
  5
56A
330
1F
100
AcDbEntity
  8
1
100
AcDbLine
 10
21.49999532091281
 20
175.9738178928943
 30
0.0
 11
36.49999532091283
 21
175.9738178928943
 31
0.0
  0
LINE
  5
56B
330
1F
100
AcDbEntity
  8
1
100
AcDbLine
 10
28.99999532091169
 20
352.4738178928942
 30
0.0
 11
28.99999532091169
 21
367.4738178928941
 31
0.0
  0
LINE
  5
56C
330
1F
100
AcDbEntity
  8
1
100
AcDbLine
 10
28.99999532091282
 20
168.4738178928943
 30
0.0
 11
28.99999532091282
 21
183.4738178928943
 31
0.0
  0
INSERT
  5
578
330
1F
100
AcDbEntity
  8
0
100
AcDbBlockReference
  2
A$C35844AFD
 10
-0.0000031803583624
 20
0.0000029384497111
 30
0.0
  0
INSERT
  5
579
330
1F
100
AcDbEntity
  8
0
100
AcDbBlockReference
  2
A$C40301A48
 10
157.9999953209128
 20
354.9738178928941
 30
0.0
  0
LINE
  5
57A
330
1F
100
AcDbEntity
  8
0
100
AcDbLine
 10
49.99999544283082
 20
267.5738177335503
 30
0.0
 11
38.59999544282981
 21
267.5738177335503
 31
0.0
  0
LINE
  5
57B
330
1F
100
AcDbEntity
  8
0
100
AcDbLine
 10
-0.0000046790871693
 20
363.8949173356964
 30
0.0
 11
-0.0000046790871693
 21
172.0527184500936
 31
0.0
  0
LINE
  5
57C
330
1F
100
AcDbEntity
  8
0
100
AcDbLine
 10
57.99999532091283
 20
363.9738178928942
 30
0.0
 11
57.99999532091283
 21
171.9738178928943
 31
0.0
  0
LINE
  5
57D
330
1F
100
AcDbEntity
  8
0
100
AcDbLine
 10
0.9738183726049099
 20
364.8945746606711
 30
0.0
 11
3.99999532091283
 21
364.9738178928942
 31
0.0
  0
LINE
  5
57E
330
1F
100
AcDbEntity
  8
0
100
AcDbLine
 10
26.89999532091269
 20
175.9738178928943
 30
0.0
 11
26.89999532091269
 21
170.9738178928943
 31
0.0
  0
LINE
  5
57F
330
1F
100
AcDbEntity
  8
0
100
AcDbLine
 10
0.4869068467587569
 20
354.8818244336445
 30
0.0
 11
3.99999532091283
 21
354.9738178928941
 31
0.0
  0
LINE
  5
580
330
1F
100
AcDbEntity
  8
0
100
AcDbLine
 10
0.4869068467587569
 20
181.0658113521443
 30
0.0
 11
3.99999532091283
 21
180.9738178928943
 31
0.0
  0
LINE
  5
581
330
1F
100
AcDbEntity
  8
0
100
AcDbLine
 10
4.999995320912828
 20
201.6069983178072
 30
0.0
 11
4.999995320912828
 21
354.9476319713253
 31
0.0
  0
ARC
  5
582
330
1F
100
AcDbEntity
  8
0
100
AcDbCircle
 10
4.299995320912785
 20
197.9738178928943
 30
0.0
 40
3.699999999995998
100
AcDbArc
 50
0.0
 51
79.09453000325759
  0
LINE
  5
583
330
1F
100
AcDbEntity
  8
0
100
AcDbLine
 10
7.999995320908737
 20
197.9738178928943
 30
0.0
 11
7.999995320907827
 21
181.0785615791711
 31
0.0
  0
LINE
  5
584
330
1F
100
AcDbEntity
  8
0
100
AcDbLine
 10
0.9738183726049099
 20
171.053061125117
 30
0.0
 11
3.99999532091283
 21
170.9738178928943
 31
0.0
  0
LINE
  5
585
330
1F
100
AcDbEntity
  8
0
100
AcDbLine
 10
4.999995320912828
 20
350.9738178928941
 30
0.0
 11
5.013083795065766
 21
350.9741606266523
 31
0.0
  0
LINE
  5
586
330
1F
100
AcDbEntity
  8
0
100
AcDbLine
 10
3.99999532091283
 20
364.9738178928942
 30
0.0
 11
56.99999532091283
 21
364.9738178928942
 31
0.0
  0
LINE
  5
587
330
1F
100
AcDbEntity
  8
0
100
AcDbLine
 10
3.99999532091283
 20
354.9738178928941
 30
0.0
 11
4.999995320912828
 21
354.9476319713253
 31
0.0
  0
LINE
  5
588
330
1F
100
AcDbEntity
  8
0
100
AcDbLine
 10
3.99999532091283
 20
180.9738178928943
 30
0.0
 11
7.999995320907827
 21
181.0785615791711
 31
0.0
  0
LINE
  5
589
330
1F
100
AcDbEntity
  8
0
100
AcDbLine
 10
3.99999532091283
 20
170.9738178928943
 30
0.0
 11
26.89999532091269
 21
170.9738178928943
 31
0.0
  0
CIRCLE
  5
58A
330
1F
100
AcDbEntity
  8
0
100
AcDbCircle
 10
28.99999532091282
 20
359.9738178928942
 30
0.0
 40
2.1
  0
ARC
  5
58B
330
1F
100
AcDbEntity
  8
0
100
AcDbCircle
 10
28.99999532091282
 20
359.9738178928942
 30
0.0
 40
5.5
100
AcDbArc
 50
180.0
 51
245.3800226713518
  0
ARC
  5
58C
330
1F
100
AcDbEntity
  8
0
100
AcDbCircle
 10
28.99999532091282
 20
175.9738178928943
 30
0.0
 40
5.5
100
AcDbArc
 50
0.0
 51
65.3800226713519
  0
ARC
  5
58D
330
1F
100
AcDbEntity
  8
0
100
AcDbCircle
 10
28.99999532091282
 20
175.9738178928943
 30
0.0
 40
2.1
100
AcDbArc
 50
0.0
 51
180.0
  0
LINE
  5
58E
330
1F
100
AcDbEntity
  8
0
100
AcDbLine
 10
31.09999532091273
 20
170.9738178928943
 30
0.0
 11
34.49999532091192
 21
170.9738178928943
 31
0.0
  0
LINE
  5
58F
330
1F
100
AcDbEntity
  8
0
100
AcDbLine
 10
34.49999532091283
 20
359.9738178928942
 30
0.0
 11
34.49999532091283
 21
364.9738178928942
 31
0.0
  0
LINE
  5
590
330
1F
100
AcDbEntity
  8
0
100
AcDbLine
 10
23.49999532091282
 20
359.9738178928942
 30
0.0
 11
23.49999532091282
 21
364.9738178928942
 31
0.0
  0
LINE
  5
591
330
1F
100
AcDbEntity
  8
0
100
AcDbLine
 10
23.49999532091282
 20
175.9738178928943
 30
0.0
 11
23.49999532091282
 21
170.9738178928943
 31
0.0
  0
LINE
  5
592
330
1F
100
AcDbEntity
  8
0
100
AcDbLine
 10
31.09999532091273
 20
175.9738178928943
 30
0.0
 11
31.09999532091273
 21
170.9738178928943
 31
0.0
  0
LINE
  5
593
330
1F
100
AcDbEntity
  8
0
100
AcDbLine
 10
34.49999532091283
 20
175.9738178928943
 30
0.0
 11
34.49999532091283
 21
170.9738178928943
 31
0.0
  0
CIRCLE
  5
594
330
1F
100
AcDbEntity
  8
0
100
AcDbCircle
 10
3.99999532091283
 20
195.9738178928943
 30
0.0
 40
2.0
  0
CIRCLE
  5
595
330
1F
100
AcDbEntity
  8
0
100
AcDbCircle
 10
3.99999532091283
 20
195.9738178928943
 30
0.0
 40
1.6
  0
CIRCLE
  5
596
330
1F
100
AcDbEntity
  8
0
100
AcDbCircle
 10
3.99999532091283
 20
185.9738178928943
 30
0.0
 40
2.0
  0
CIRCLE
  5
597
330
1F
100
AcDbEntity
  8
0
100
AcDbCircle
 10
3.99999532091283
 20
185.9738178928943
 30
0.0
 40
1.6
  0
ARC
  5
598
330
1F
100
AcDbEntity
  8
0
100
AcDbCircle
 10
0.9999953209128308
 20
363.8949173356964
 30
0.0
 40
1.0
100
AcDbArc
 50
91.50000000000263
 51
180.0
  0
ARC
  5
599
330
1F
100
AcDbEntity
  8
0
100
AcDbCircle
 10
56.99999532091283
 20
363.9738178928942
 30
0.0
 40
1.0
100
AcDbArc
 50
0.0
 51
90.0
  0
ARC
  5
59A
330
1F
100
AcDbEntity
  8
0
100
AcDbCircle
 10
0.9999953209128308
 20
172.0527184500936
 30
0.0
 40
1.0
100
AcDbArc
 50
180.0
 51
268.4999999999973
  0
ARC
  5
59B
330
1F
100
AcDbEntity
  8
0
100
AcDbCircle
 10
56.99999532091283
 20
171.9738178928943
 30
0.0
 40
1.0
100
AcDbArc
 50
270.0
 51
0.0
  0
ARC
  5
59C
330
1F
100
AcDbEntity
  8
0
100
AcDbCircle
 10
0.4999953209128308
 20
354.3819957711574
 30
0.0
 40
0.5
100
AcDbArc
 50
91.50000000000263
 51
180.0
  0
ARC
  5
59D
330
1F
100
AcDbEntity
  8
0
100
AcDbCircle
 10
0.4999953209128308
 20
181.5656400146321
 30
0.0
 40
0.5
100
AcDbArc
 50
180.0
 51
268.4999999999973
  0
LINE
  5
59E
330
1F
100
AcDbEntity
  8
0
100
AcDbLine
 10
5.999995320910784
 20
180.9738178928943
 30
0.0
 11
57.99999532091283
 21
180.9738178928943
 31
0.0
  0
LINE
  5
59F
330
1F
100
AcDbEntity
  8
0
100
AcDbLine
 10
5.999995320912829
 20
354.4738178928942
 30
0.0
 11
4.999995320912828
 21
354.4738178928942
 31
0.0
  0
LINE
  5
5A0
330
1F
100
AcDbEntity
  8
0
100
AcDbLine
 10
5.999995320912829
 20
354.9738178928941
 30
0.0
 11
5.999995320910784
 21
202.3555983529322
 31
0.0
  0
LINE
  5
5A1
330
1F
100
AcDbEntity
  8
0
100
AcDbLine
 10
5.999995320912829
 20
354.9738178928941
 30
0.0
 11
57.99999532091283
 21
354.9738178928941
 31
0.0
  0
ARC
  5
5A2
330
1F
100
AcDbEntity
  8
0
100
AcDbCircle
 10
4.299995320912785
 20
197.9738178928943
 30
0.0
 40
4.699999999995998
100
AcDbArc
 50
0.0
 51
68.79523363710852
  0
LINE
  5
5A3
330
1F
100
AcDbEntity
  8
0
100
AcDbLine
 10
8.999995320908737
 20
197.9738178928943
 30
0.0
 11
8.999995320907828
 21
180.9738178928943
 31
0.0
  0
LINE
  5
5A4
330
1F
100
AcDbEntity
  8
0
100
AcDbLine
 10
8.999995320907828
 20
181.4738178928943
 30
0.0
 11
7.999995320907827
 21
181.4738178928943
 31
0.0
  0
LINE
  5
5A5
330
1F
100
AcDbEntity
  8
0
100
AcDbLine
 10
55.99999532091283
 20
182.9738178928939
 30
0.0
 11
55.99999532091283
 21
352.9738178928941
 31
0.0
  0
LINE
  5
5A6
330
1F
100
AcDbEntity
  8
0
100
AcDbLine
 10
55.99999532091283
 20
352.9738178928941
 30
0.0
 11
7.999995320912829
 21
352.9738178928941
 31
0.0
  0
ARC
  5
5A7
330
1F
100
AcDbEntity
  8
0
100
AcDbCircle
 10
4.299995320912785
 20
197.9738178928943
 30
0.0
 40
6.699999999996
100
AcDbArc
 50
0.0
 51
56.47925960398929
  0
LINE
  5
5A8
330
1F
100
AcDbEntity
  8
0
100
AcDbLine
 10
10.99999532090873
 20
197.9738178928943
 30
0.0
 11
10.99999532090782
 21
182.9738178928939
 31
0.0
  0
LINE
  5
5A9
330
1F
100
AcDbEntity
  8
0
100
AcDbLine
 10
55.99999532091283
 20
182.9738178928939
 30
0.0
 11
10.99999532090782
 21
182.9738178928939
 31
0.0
  0
LINE
  5
5AA
330
1F
100
AcDbEntity
  8
0
100
AcDbLine
 10
7.999995320912829
 20
352.9738178928941
 30
0.0
 11
7.999995320911692
 21
203.5595139103983
 31
0.0
  0
LINE
  5
5AB
330
1F
100
AcDbEntity
  8
0
100
AcDbLine
 10
57.99999532091283
 20
180.9738178928943
 30
0.0
 11
57.99999532091283
 21
354.9738178928941
 31
0.0
  0
LINE
  5
5AC
330
1F
100
AcDbEntity
  8
0
100
AcDbLine
 10
4.999995320912828
 20
201.606998317808
 30
0.0
 11
4.999995320912828
 21
354.4738178928942
 31
0.0
  0
LINE
  5
5AD
330
1F
100
AcDbEntity
  8
0
100
AcDbLine
 10
7.999995320908737
 20
197.9738178928943
 30
0.0
 11
7.999995320907827
 21
181.4738178928943
 31
0.0
  0
ARC
  5
5AE
330
1F
100
AcDbEntity
  8
0
100
AcDbCircle
 10
4.299995320912785
 20
197.9738178928943
 30
0.0
 40
3.699999999995998
100
AcDbArc
 50
0.0
 51
79.09453000325759
  0
LINE
  5
5AF
330
1F
100
AcDbEntity
  8
0
100
AcDbLine
 10
5.999995320909648
 20
181.0261897360328
 30
0.0
 11
5.999995320910784
 21
180.9738178928943
 31
0.0
  0
LINE
  5
5B0
330
1F
100
AcDbEntity
  8
0
100
AcDbLine
 10
35.19999544282995
 20
263.07381773355
 30
0.0
 11
35.19999544282995
 21
247.0738177335503
 31
0.0
  0
LINE
  5
5B1
330
1F
100
AcDbEntity
  8
0
100
AcDbLine
 10
38.59999544282981
 20
247.0738177335503
 30
0.0
 11
35.19999544282995
 21
247.0738177335503
 31
0.0
  0
LINE
  5
5B2
330
1F
100
AcDbEntity
  8
0
100
AcDbLine
 10
38.59999544282981
 20
263.07381773355
 30
0.0
 11
35.19999544282995
 21
263.07381773355
 31
0.0
  0
LINE
  5
5B3
330
1F
100
AcDbEntity
  8
0
100
AcDbLine
 10
38.59999544282981
 20
263.07381773355
 30
0.0
 11
38.59999544282981
 21
267.5738177335503
 31
0.0
  0
LINE
  5
5B4
330
1F
100
AcDbEntity
  8
0
100
AcDbLine
 10
49.99999544283082
 20
185.1738177335504
 30
0.0
 11
38.59999544282981
 21
185.1738177335504
 31
0.0
  0
LINE
  5
5B5
330
1F
100
AcDbEntity
  8
0
100
AcDbLine
 10
38.59999544282981
 20
247.0738177335503
 30
0.0
 11
38.59999544282981
 21
232.6738177335504
 31
0.0
  0
LINE
  5
5B6
330
1F
100
AcDbEntity
  8
0
100
AcDbLine
 10
11.09999532090773
 20
183.173817892894
 30
0.0
 11
55.69999532091197
 21
183.173817892894
 31
0.0
  0
LINE
  5
5B7
330
1F
100
AcDbEntity
  8
0
100
AcDbLine
 10
55.69999532091197
 20
352.7738178928945
 30
0.0
 11
55.69999532091197
 21
183.173817892894
 31
0.0
  0
LINE
  5
5B8
330
1F
100
AcDbEntity
  8
0
100
AcDbLine
 10
11.09999532090885
 20
197.9738178928943
 30
0.0
 11
11.09999532090773
 21
183.173817892894
 31
0.0
  0
ARC
  5
5B9
330
1F
100
AcDbEntity
  8
0
100
AcDbCircle
 10
4.199995320911738
 20
197.9738178928943
 30
0.0
 40
6.899999999996
100
AcDbArc
 50
0.0
 51
55.58261128954775
  0
LINE
  5
5BA
330
1F
100
AcDbEntity
  8
0
100
AcDbLine
 10
8.09999532091183
 20
352.7738178928945
 30
0.0
 11
8.09999532091183
 21
203.6659176811931
 31
0.0
  0
LINE
  5
5BB
330
1F
100
AcDbEntity
  8
0
100
AcDbLine
 10
55.69999532091197
 20
352.7738178928945
 30
0.0
 11
8.09999532091183
 21
352.7738178928945
 31
0.0
  0
LINE
  5
5BC
330
1F
100
AcDbEntity
  8
0
100
AcDbLine
 10
25.19999544282971
 20
260.1738177335504
 30
0.0
 11
25.19999544282971
 21
256.5738177335503
 31
0.0
  0
LINE
  5
5BD
330
1F
100
AcDbEntity
  8
0
100
AcDbLine
 10
23.59999544282981
 20
271.4738177335504
 30
0.0
 11
23.59999544282981
 21
260.1738177335504
 31
0.0
  0
LINE
  5
5BE
330
1F
100
AcDbEntity
  8
0
100
AcDbLine
 10
12.99999544282968
 20
271.4738177335504
 30
0.0
 11
23.59999544282981
 21
271.4738177335504
 31
0.0
  0
LINE
  5
5BF
330
1F
100
AcDbEntity
  8
0
100
AcDbLine
 10
23.59999544282981
 20
239.5738177335501
 30
0.0
 11
25.19999544282971
 21
239.5738177335501
 31
0.0
  0
LINE
  5
5C0
330
1F
100
AcDbEntity
  8
0
100
AcDbLine
 10
23.59999544282981
 20
256.5738177335503
 30
0.0
 11
25.19999544282971
 21
256.5738177335503
 31
0.0
  0
LINE
  5
5C1
330
1F
100
AcDbEntity
  8
0
100
AcDbLine
 10
23.59999544282981
 20
260.1738177335504
 30
0.0
 11
25.19999544282971
 21
260.1738177335504
 31
0.0
  0
LINE
  5
5C2
330
1F
100
AcDbEntity
  8
0
100
AcDbLine
 10
23.59999544282981
 20
243.1738177335504
 30
0.0
 11
25.19999544282971
 21
243.1738177335504
 31
0.0
  0
LINE
  5
5C3
330
1F
100
AcDbEntity
  8
0
100
AcDbLine
 10
25.19999544282971
 20
243.1738177335504
 30
0.0
 11
25.19999544282971
 21
239.5738177335501
 31
0.0
  0
LINE
  5
5C4
330
1F
100
AcDbEntity
  8
0
100
AcDbLine
 10
23.59999544282981
 20
256.5738177335503
 30
0.0
 11
23.59999544282981
 21
243.1738177335504
 31
0.0
  0
LINE
  5
5C5
330
1F
100
AcDbEntity
  8
0
100
AcDbLine
 10
23.59999544282981
 20
185.1738177335504
 30
0.0
 11
12.99999544282968
 21
185.1738177335504
 31
0.0
  0
LINE
  5
5C6
330
1F
100
AcDbEntity
  8
0
100
AcDbLine
 10
23.59999544282981
 20
239.5738177335501
 30
0.0
 11
23.59999544282981
 21
185.1738177335504
 31
0.0
  0
LINE
  5
5C7
330
1F
100
AcDbEntity
  8
0
100
AcDbLine
 10
12.99999544282968
 20
271.4738177335504
 30
0.0
 11
12.99999544282968
 21
185.1738177335504
 31
0.0
  0
LINE
  5
5C8
330
1F
100
AcDbEntity
  8
0
100
AcDbLine
 10
12.99999544282968
 20
275.9738177335504
 30
0.0
 11
25.39999544282977
 21
275.9738177335504
 31
0.0
  0
LINE
  5
5C9
330
1F
100
AcDbEntity
  8
0
100
AcDbLine
 10
22.89999544282977
 20
339.0738177335502
 30
0.0
 11
22.89999544282977
 21
331.0738177335502
 31
0.0
  0
LINE
  5
5CA
330
1F
100
AcDbEntity
  8
0
100
AcDbLine
 10
12.99999544282968
 20
306.0738177335502
 30
0.0
 11
22.29999544282986
 21
306.0738177335502
 31
0.0
  0
LINE
  5
5CB
330
1F
100
AcDbEntity
  8
0
100
AcDbLine
 10
22.29999544282986
 20
322.8738177335503
 30
0.0
 11
25.89999544282977
 21
322.8738177335503
 31
0.0
  0
CIRCLE
  5
5CC
330
1F
100
AcDbEntity
  8
0
100
AcDbCircle
 10
16.59999544282982
 20
342.9738177335504
 30
0.0
 40
1.399999999999999
  0
LINE
  5
5CD
330
1F
100
AcDbEntity
  8
0
100
AcDbLine
 10
12.99999544282968
 20
302.1738177335503
 30
0.0
 11
12.99999544282968
 21
275.9738177335504
 31
0.0
  0
LINE
  5
5CE
330
1F
100
AcDbEntity
  8
0
100
AcDbLine
 10
22.89999544282977
 20
331.0738177335502
 30
0.0
 11
25.89999544282977
 21
331.0738177335502
 31
0.0
  0
LINE
  5
5CF
330
1F
100
AcDbEntity
  8
0
100
AcDbLine
 10
12.99999544282968
 20
302.1738177335503
 30
0.0
 11
25.39999544282977
 21
302.1738177335503
 31
0.0
  0
CIRCLE
  5
5D0
330
1F
100
AcDbEntity
  8
0
100
AcDbCircle
 10
16.59999544282982
 20
347.7738177335503
 30
0.0
 40
1.399999999999999
  0
CIRCLE
  5
5D1
330
1F
100
AcDbEntity
  8
0
100
AcDbCircle
 10
21.69999544282971
 20
347.7738177335503
 30
0.0
 40
1.399999999999999
  0
LINE
  5
5D2
330
1F
100
AcDbEntity
  8
0
100
AcDbLine
 10
25.89999544282977
 20
331.0738177335502
 30
0.0
 11
25.89999544282977
 21
322.8738177335503
 31
0.0
  0
LINE
  5
5D3
330
1F
100
AcDbEntity
  8
0
100
AcDbLine
 10
22.89999544282977
 20
339.0738177335502
 30
0.0
 11
12.99999544282968
 21
339.0738177335502
 31
0.0
  0
LINE
  5
5D4
330
1F
100
AcDbEntity
  8
0
100
AcDbLine
 10
12.99999544282968
 20
339.0738177335502
 30
0.0
 11
12.99999544282968
 21
306.0738177335502
 31
0.0
  0
CIRCLE
  5
5D5
330
1F
100
AcDbEntity
  8
0
100
AcDbCircle
 10
21.69999544282971
 20
342.9738177335504
 30
0.0
 40
1.399999999999999
  0
LINE
  5
5D6
330
1F
100
AcDbEntity
  8
0
100
AcDbLine
 10
22.29999544282986
 20
322.8738177335503
 30
0.0
 11
22.29999544282986
 21
306.0738177335502
 31
0.0
  0
LINE
  5
5D7
330
1F
100
AcDbEntity
  8
0
100
AcDbLine
 10
49.99999544283082
 20
230.6738177335504
 30
0.0
 11
38.59999544282981
 21
230.6738177335504
 31
0.0
  0
LINE
  5
5D8
330
1F
100
AcDbEntity
  8
0
100
AcDbLine
 10
49.99999544283082
 20
232.6738177335504
 30
0.0
 11
38.59999544282981
 21
232.6738177335504
 31
0.0
  0
LINE
  5
5D9
330
1F
100
AcDbEntity
  8
0
100
AcDbLine
 10
49.99999544283082
 20
267.5738177335503
 30
0.0
 11
49.99999544283082
 21
232.6738177335504
 31
0.0
  0
LINE
  5
5DA
330
1F
100
AcDbEntity
  8
0
100
AcDbLine
 10
49.99999544283082
 20
230.6738177335504
 30
0.0
 11
49.99999544283082
 21
185.1738177335504
 31
0.0
  0
LINE
  5
5DB
330
1F
100
AcDbEntity
  8
0
100
AcDbLine
 10
38.59999544282981
 20
230.6738177335504
 30
0.0
 11
38.59999544282981
 21
185.1738177335504
 31
0.0
  0
LINE
  5
5DC
330
1F
100
AcDbEntity
  8
0
100
AcDbLine
 10
25.39999544282977
 20
302.1738177335503
 30
0.0
 11
25.39999544282977
 21
275.9738177335504
 31
0.0
  0
CIRCLE
  5
5DD
330
1F
100
AcDbEntity
  8
0
100
AcDbCircle
 10
18.24999532091169
 20
334.8038178928941
 30
0.0
 40
1.290290050200999
  0
LINE
  5
5DE
330
1F
100
AcDbEntity
  8
0
100
AcDbLine
 10
21.99999532091169
 20
338.5538178928941
 30
0.0
 11
14.09999532091183
 21
338.5538178928941
 31
0.0
  0
LINE
  5
5DF
330
1F
100
AcDbEntity
  8
0
100
AcDbLine
 10
21.99999532091169
 20
331.0538178928952
 30
0.0
 11
14.09999532091183
 21
331.0538178928952
 31
0.0
  0
LINE
  5
5E0
330
1F
100
AcDbEntity
  8
0
100
AcDbLine
 10
21.99999532091169
 20
331.0538178928952
 30
0.0
 11
21.99999532091169
 21
338.5538178928941
 31
0.0
  0
LINE
  5
5E1
330
1F
100
AcDbEntity
  8
0
100
AcDbLine
 10
14.49999532091168
 20
331.0538178928952
 30
0.0
 11
14.49999532091168
 21
338.5538178928941
 31
0.0
  0
LINE
  5
5E2
330
1F
100
AcDbEntity
  8
0
100
AcDbLine
 10
14.09999532091183
 20
337.6438178928943
 30
0.0
 11
14.09999532091183
 21
338.5538178928941
 31
0.0
  0
LINE
  5
5E3
330
1F
100
AcDbEntity
  8
0
100
AcDbLine
 10
14.09999532091274
 20
337.6438178928951
 30
0.0
 11
14.49999532091168
 21
337.6438178928951
 31
0.0
  0
LINE
  5
5E4
330
1F
100
AcDbEntity
  8
0
100
AcDbLine
 10
14.09999532091274
 20
337.0438178928953
 30
0.0
 11
14.49999532091168
 21
337.0438178928953
 31
0.0
  0
LINE
  5
5E5
330
1F
100
AcDbEntity
  8
0
100
AcDbLine
 10
14.09999532091274
 20
331.9638178928951
 30
0.0
 11
14.49999532091168
 21
331.9638178928951
 31
0.0
  0
LINE
  5
5E6
330
1F
100
AcDbEntity
  8
0
100
AcDbLine
 10
14.09999532091274
 20
332.5638178928953
 30
0.0
 11
14.49999532091168
 21
332.5638178928953
 31
0.0
  0
LINE
  5
5E7
330
1F
100
AcDbEntity
  8
0
100
AcDbLine
 10
14.09999532091274
 20
335.1038178928952
 30
0.0
 11
14.49999532091168
 21
335.1038178928952
 31
0.0
  0
LINE
  5
5E8
330
1F
100
AcDbEntity
  8
0
100
AcDbLine
 10
14.09999532091274
 20
334.5038178928953
 30
0.0
 11
14.49999532091168
 21
334.5038178928953
 31
0.0
  0
LINE
  5
5E9
330
1F
100
AcDbEntity
  8
0
100
AcDbLine
 10
14.09999532091183
 20
331.0538178928952
 30
0.0
 11
14.09999532091183
 21
331.9638178928951
 31
0.0
  0
LINE
  5
5EA
330
1F
100
AcDbEntity
  8
0
100
AcDbLine
 10
14.09999532091183
 20
307.0138178928941
 30
0.0
 11
21.34999532091272
 21
307.0138178928941
 31
0.0
  0
CIRCLE
  5
5EB
330
1F
100
AcDbEntity
  8
0
100
AcDbCircle
 10
17.59999532091182
 20
319.9638178928943
 30
0.0
 40
1.0
  0
CIRCLE
  5
5EC
330
1F
100
AcDbEntity
  8
0
100
AcDbCircle
 10
17.59999532091182
 20
316.4638178928941
 30
0.0
 40
1.0
  0
CIRCLE
  5
5ED
330
1F
100
AcDbEntity
  8
0
100
AcDbCircle
 10
17.59999532091182
 20
312.9638178928943
 30
0.0
 40
1.0
  0
CIRCLE
  5
5EE
330
1F
100
AcDbEntity
  8
0
100
AcDbCircle
 10
17.59999532091182
 20
309.4638178928943
 30
0.0
 40
1.0
  0
LINE
  5
5EF
330
1F
100
AcDbEntity
  8
0
100
AcDbLine
 10
21.34999532091272
 20
307.0138178928941
 30
0.0
 11
21.34999532091272
 21
322.4138178928941
 31
0.0
  0
LINE
  5
5F0
330
1F
100
AcDbEntity
  8
0
100
AcDbLine
 10
21.34999532091272
 20
322.4138178928941
 30
0.0
 11
14.09999532091183
 21
322.4138178928941
 31
0.0
  0
LINE
  5
5F1
330
1F
100
AcDbEntity
  8
0
100
AcDbLine
 10
14.09999532091183
 20
322.4138178928941
 30
0.0
 11
14.09999532091183
 21
307.0138178928941
 31
0.0
  0
LINE
  5
5F2
330
1F
100
AcDbEntity
  8
0
100
AcDbLine
 10
24.29999532091278
 20
324.8638178928942
 30
0.0
 11
19.52450039192081
 21
324.8638178928942
 31
0.0
  0
LINE
  5
5F3
330
1F
100
AcDbEntity
  8
0
100
AcDbLine
 10
24.29999532091278
 20
328.6038178928943
 30
0.0
 11
19.52450039192081
 21
328.6038178928943
 31
0.0
  0
LINE
  5
5F4
330
1F
100
AcDbEntity
  8
0
100
AcDbLine
 10
24.29999532091278
 20
323.4138178928943
 30
0.0
 11
14.09999532091274
 21
323.4138178928943
 31
0.0
  0
LINE
  5
5F5
330
1F
100
AcDbEntity
  8
0
100
AcDbLine
 10
24.29999532091278
 20
330.0538178928941
 30
0.0
 11
14.09999532091274
 21
330.0538178928941
 31
0.0
  0
LINE
  5
5F6
330
1F
100
AcDbEntity
  8
0
100
AcDbLine
 10
24.29999532091278
 20
327.4038178928941
 30
0.0
 11
21.29999532091278
 21
327.4038178928941
 31
0.0
  0
LINE
  5
5F7
330
1F
100
AcDbEntity
  8
0
100
AcDbLine
 10
24.29999532091278
 20
326.0638178928943
 30
0.0
 11
21.29999532091278
 21
326.0638178928943
 31
0.0
  0
LINE
  5
5F8
330
1F
100
AcDbEntity
  8
0
100
AcDbLine
 10
24.29999532091278
 20
324.8638178928942
 30
0.0
 11
21.29999532091278
 21
324.8638178928942
 31
0.0
  0
LINE
  5
5F9
330
1F
100
AcDbEntity
  8
0
100
AcDbLine
 10
21.29999532091278
 20
327.4038178928941
 30
0.0
 11
21.29999532091278
 21
328.6038178928943
 31
0.0
  0
LINE
  5
5FA
330
1F
100
AcDbEntity
  8
0
100
AcDbLine
 10
21.29999532091278
 20
324.8638178928942
 30
0.0
 11
21.29999532091278
 21
326.0638178928943
 31
0.0
  0
LINE
  5
5FB
330
1F
100
AcDbEntity
  8
0
100
AcDbLine
 10
22.79999532091278
 20
326.0638178928943
 30
0.0
 11
22.79999532091278
 21
327.4038178928941
 31
0.0
  0
LINE
  5
5FC
330
1F
100
AcDbEntity
  8
0
100
AcDbLine
 10
23.29999532091278
 20
327.4038178928941
 30
0.0
 11
23.29999532091278
 21
328.6038178928943
 31
0.0
  0
LINE
  5
5FD
330
1F
100
AcDbEntity
  8
0
100
AcDbLine
 10
23.29999532091278
 20
324.8638178928942
 30
0.0
 11
23.29999532091278
 21
326.0638178928943
 31
0.0
  0
LINE
  5
5FE
330
1F
100
AcDbEntity
  8
0
100
AcDbLine
 10
24.29999532091278
 20
323.4138178928943
 30
0.0
 11
24.29999532091278
 21
330.0538178928941
 31
0.0
  0
LINE
  5
5FF
330
1F
100
AcDbEntity
  8
0
100
AcDbLine
 10
19.52450039192081
 20
328.6038178928943
 30
0.0
 11
19.52450039192081
 21
324.8638178928942
 31
0.0
  0
LINE
  5
600
330
1F
100
AcDbEntity
  8
0
100
AcDbLine
 10
14.09999532091274
 20
323.4138178928943
 30
0.0
 11
14.09999532091274
 21
330.0538178928941
 31
0.0
  0
LINE
  5
601
330
1F
100
AcDbEntity
  8
0
100
AcDbLine
 10
14.09999532091274
 20
293.6338178928941
 30
0.0
 11
15.59999532091183
 21
293.6338178928941
 31
0.0
  0
LINE
  5
602
330
1F
100
AcDbEntity
  8
0
100
AcDbLine
 10
14.09999532091274
 20
288.5538178928941
 30
0.0
 11
15.59999532091183
 21
288.5538178928941
 31
0.0
  0
LINE
  5
603
330
1F
100
AcDbEntity
  8
0
100
AcDbLine
 10
14.09999532091274
 20
283.4738178928943
 30
0.0
 11
15.59999532091183
 21
283.4738178928943
 31
0.0
  0
LINE
  5
604
330
1F
100
AcDbEntity
  8
0
100
AcDbLine
 10
14.09999532091183
 20
298.1338178928941
 30
0.0
 11
15.59999532091183
 21
298.1338178928941
 31
0.0
  0
LINE
  5
605
330
1F
100
AcDbEntity
  8
0
100
AcDbLine
 10
14.09999532091183
 20
276.9738178928943
 30
0.0
 11
15.59999532091183
 21
276.9738178928943
 31
0.0
  0
LINE
  5
606
330
1F
100
AcDbEntity
  8
0
100
AcDbLine
 10
19.59999532091181
 20
293.1338178928941
 30
0.0
 11
20.59999532091182
 21
293.1338178928941
 31
0.0
  0
LINE
  5
607
330
1F
100
AcDbEntity
  8
0
100
AcDbLine
 10
19.59999532091181
 20
288.0538178928941
 30
0.0
 11
20.59999532091182
 21
288.0538178928941
 31
0.0
  0
LINE
  5
608
330
1F
100
AcDbEntity
  8
0
100
AcDbLine
 10
19.59999532091181
 20
282.9738178928943
 30
0.0
 11
20.59999532091182
 21
282.9738178928943
 31
0.0
  0
LINE
  5
609
330
1F
100
AcDbEntity
  8
0
100
AcDbLine
 10
15.59999532091183
 20
301.1338178928943
 30
0.0
 11
16.59999532091183
 21
301.1338178928943
 31
0.0
  0
LINE
  5
60A
330
1F
100
AcDbEntity
  8
0
100
AcDbLine
 10
16.59999532091183
 20
301.1338178928943
 30
0.0
 11
16.59999532091183
 21
276.9738178928943
 31
0.0
  0
LINE
  5
60B
330
1F
100
AcDbEntity
  8
0
100
AcDbLine
 10
24.08499532091173
 20
301.1338178928943
 30
0.0
 11
23.58499532091173
 21
301.1338178928943
 31
0.0
  0
LINE
  5
60C
330
1F
100
AcDbEntity
  8
0
100
AcDbLine
 10
23.58499532091173
 20
301.1338178928943
 30
0.0
 11
23.58499532091173
 21
276.9738178928943
 31
0.0
  0
LINE
  5
60D
330
1F
100
AcDbEntity
  8
0
100
AcDbLine
 10
24.94499532091162
 20
301.1338178928943
 30
0.0
 11
24.94499532091162
 21
276.9738178928943
 31
0.0
  0
LINE
  5
60E
330
1F
100
AcDbEntity
  8
0
100
AcDbLine
 10
15.59999532091183
 20
301.1338178928943
 30
0.0
 11
15.59999532091183
 21
300.1338178928941
 31
0.0
  0
LINE
  5
60F
330
1F
100
AcDbEntity
  8
0
100
AcDbLine
 10
16.59999532091183
 20
300.1338178928941
 30
0.0
 11
23.58499532091173
 21
300.1338178928941
 31
0.0
  0
LINE
  5
610
330
1F
100
AcDbEntity
  8
0
100
AcDbLine
 10
15.59999532091183
 20
276.9738178928943
 30
0.0
 11
15.59999532091183
 21
277.9738178928943
 31
0.0
  0
LINE
  5
611
330
1F
100
AcDbEntity
  8
0
100
AcDbLine
 10
16.59999532091183
 20
277.9738178928943
 30
0.0
 11
23.58499532091173
 21
277.9738178928943
 31
0.0
  0
LINE
  5
612
330
1F
100
AcDbEntity
  8
0
100
AcDbLine
 10
15.59999532091183
 20
276.9738178928943
 30
0.0
 11
24.94499532091162
 21
276.9738178928943
 31
0.0
  0
LINE
  5
613
330
1F
100
AcDbEntity
  8
0
100
AcDbLine
 10
24.94499532091162
 20
301.1338178928943
 30
0.0
 11
15.59999532091183
 21
301.1338178928943
 31
0.0
  0
LINE
  5
614
330
1F
100
AcDbEntity
  8
0
100
AcDbLine
 10
15.59999532091183
 20
301.1338178928943
 30
0.0
 11
15.59999532091183
 21
276.9738178928943
 31
0.0
  0
LINE
  5
615
330
1F
100
AcDbEntity
  8
0
100
AcDbLine
 10
20.59999532091182
 20
293.1338178928941
 30
0.0
 11
20.59999532091182
 21
295.1338178928941
 31
0.0
  0
LINE
  5
616
330
1F
100
AcDbEntity
  8
0
100
AcDbLine
 10
20.59999532091182
 20
295.1338178928941
 30
0.0
 11
19.59999532091181
 21
295.1338178928941
 31
0.0
  0
LINE
  5
617
330
1F
100
AcDbEntity
  8
0
100
AcDbLine
 10
19.59999532091181
 20
295.1338178928941
 30
0.0
 11
19.59999532091181
 21
293.1338178928941
 31
0.0
  0
LINE
  5
618
330
1F
100
AcDbEntity
  8
0
100
AcDbLine
 10
20.59999532091182
 20
288.0538178928941
 30
0.0
 11
20.59999532091182
 21
290.0538178928943
 31
0.0
  0
LINE
  5
619
330
1F
100
AcDbEntity
  8
0
100
AcDbLine
 10
20.59999532091182
 20
290.0538178928943
 30
0.0
 11
19.59999532091181
 21
290.0538178928943
 31
0.0
  0
LINE
  5
61A
330
1F
100
AcDbEntity
  8
0
100
AcDbLine
 10
19.59999532091181
 20
290.0538178928943
 30
0.0
 11
19.59999532091181
 21
288.0538178928941
 31
0.0
  0
LINE
  5
61B
330
1F
100
AcDbEntity
  8
0
100
AcDbLine
 10
20.59999532091182
 20
282.9738178928943
 30
0.0
 11
20.59999532091182
 21
284.9738178928943
 31
0.0
  0
LINE
  5
61C
330
1F
100
AcDbEntity
  8
0
100
AcDbLine
 10
20.59999532091182
 20
284.9738178928943
 30
0.0
 11
19.59999532091181
 21
284.9738178928943
 31
0.0
  0
LINE
  5
61D
330
1F
100
AcDbEntity
  8
0
100
AcDbLine
 10
19.59999532091181
 20
284.9738178928943
 30
0.0
 11
19.59999532091181
 21
282.9738178928943
 31
0.0
  0
LINE
  5
61E
330
1F
100
AcDbEntity
  8
0
100
AcDbLine
 10
15.59999532091183
 20
276.9738178928943
 30
0.0
 11
15.59999532091183
 21
279.9738178928943
 31
0.0
  0
LINE
  5
61F
330
1F
100
AcDbEntity
  8
0
100
AcDbLine
 10
15.59999532091183
 20
279.9738178928943
 30
0.0
 11
14.09999532091183
 21
279.9738178928943
 31
0.0
  0
LINE
  5
620
330
1F
100
AcDbEntity
  8
0
100
AcDbLine
 10
14.09999532091183
 20
279.9738178928943
 30
0.0
 11
14.09999532091183
 21
276.9738178928943
 31
0.0
  0
LINE
  5
621
330
1F
100
AcDbEntity
  8
0
100
AcDbLine
 10
15.59999532091183
 20
283.4738178928943
 30
0.0
 11
15.59999532091183
 21
284.4738178928943
 31
0.0
  0
LINE
  5
622
330
1F
100
AcDbEntity
  8
0
100
AcDbLine
 10
15.59999532091183
 20
284.4738178928943
 30
0.0
 11
14.09999532091274
 21
284.4738178928943
 31
0.0
  0
LINE
  5
623
330
1F
100
AcDbEntity
  8
0
100
AcDbLine
 10
15.59999532091183
 20
288.5538178928941
 30
0.0
 11
15.59999532091183
 21
289.5538178928942
 31
0.0
  0
LINE
  5
624
330
1F
100
AcDbEntity
  8
0
100
AcDbLine
 10
15.59999532091183
 20
289.5538178928942
 30
0.0
 11
14.09999532091274
 21
289.5538178928942
 31
0.0
  0
LINE
  5
625
330
1F
100
AcDbEntity
  8
0
100
AcDbLine
 10
15.59999532091183
 20
293.6338178928941
 30
0.0
 11
15.59999532091183
 21
294.6338178928943
 31
0.0
  0
LINE
  5
626
330
1F
100
AcDbEntity
  8
0
100
AcDbLine
 10
15.59999532091183
 20
294.6338178928943
 30
0.0
 11
14.09999532091274
 21
294.6338178928943
 31
0.0
  0
LINE
  5
627
330
1F
100
AcDbEntity
  8
0
100
AcDbLine
 10
15.59999532091183
 20
298.1338178928941
 30
0.0
 11
15.59999532091183
 21
301.1338178928943
 31
0.0
  0
LINE
  5
628
330
1F
100
AcDbEntity
  8
0
100
AcDbLine
 10
15.59999532091183
 20
301.1338178928943
 30
0.0
 11
14.09999532091183
 21
301.1338178928943
 31
0.0
  0
LINE
  5
629
330
1F
100
AcDbEntity
  8
0
100
AcDbLine
 10
14.09999532091183
 20
301.1338178928943
 30
0.0
 11
14.09999532091183
 21
298.1338178928941
 31
0.0
  0
LINE
  5
62A
330
1F
100
AcDbEntity
  8
0
100
AcDbLine
 10
14.09999532091183
 20
185.9738178928943
 30
0.0
 11
22.69999532091173
 21
185.9738178928943
 31
0.0
  0
CIRCLE
  5
62B
330
1F
100
AcDbEntity
  8
0
100
AcDbCircle
 10
18.09999532091182
 20
193.5938178928939
 30
0.0
 40
2.0
  0
CIRCLE
  5
62C
330
1F
100
AcDbEntity
  8
0
100
AcDbCircle
 10
18.09999532091182
 20
198.6738178928941
 30
0.0
 40
2.0
  0
CIRCLE
  5
62D
330
1F
100
AcDbEntity
  8
0
100
AcDbCircle
 10
18.09999532091182
 20
198.6738178928941
 30
0.0
 40
2.0
  0
CIRCLE
  5
62E
330
1F
100
AcDbEntity
  8
0
100
AcDbCircle
 10
18.09999532091182
 20
203.7538178928955
 30
0.0
 40
2.0
  0
CIRCLE
  5
62F
330
1F
100
AcDbEntity
  8
0
100
AcDbCircle
 10
18.09999532091182
 20
203.7538178928955
 30
0.0
 40
2.0
  0
CIRCLE
  5
630
330
1F
100
AcDbEntity
  8
0
100
AcDbCircle
 10
18.09999532091182
 20
213.913817892894
 30
0.0
 40
2.0
  0
CIRCLE
  5
631
330
1F
100
AcDbEntity
  8
0
100
AcDbCircle
 10
18.09999532091182
 20
213.913817892894
 30
0.0
 40
2.0
  0
CIRCLE
  5
632
330
1F
100
AcDbEntity
  8
0
100
AcDbCircle
 10
18.09999532091182
 20
218.993817892895
 30
0.0
 40
2.0
  0
CIRCLE
  5
633
330
1F
100
AcDbEntity
  8
0
100
AcDbCircle
 10
18.09999532091182
 20
188.8438178928941
 30
0.0
 40
1.0
  0
CIRCLE
  5
634
330
1F
100
AcDbEntity
  8
0
100
AcDbCircle
 10
18.09999532091182
 20
188.8438178928941
 30
0.0
 40
1.5
  0
CIRCLE
  5
635
330
1F
100
AcDbEntity
  8
0
100
AcDbCircle
 10
18.09999532091182
 20
223.743817892895
 30
0.0
 40
1.0
  0
CIRCLE
  5
636
330
1F
100
AcDbEntity
  8
0
100
AcDbCircle
 10
18.09999532091182
 20
223.743817892895
 30
0.0
 40
1.5
  0
CIRCLE
  5
637
330
1F
100
AcDbEntity
  8
0
100
AcDbCircle
 10
18.09999532091182
 20
208.8338178928943
 30
0.0
 40
2.0
  0
LINE
  5
638
330
1F
100
AcDbEntity
  8
0
100
AcDbLine
 10
22.69999532091173
 20
185.9738178928943
 30
0.0
 11
22.69999532091173
 21
226.6138178928941
 31
0.0
  0
LINE
  5
639
330
1F
100
AcDbEntity
  8
0
100
AcDbLine
 10
22.69999532091173
 20
226.6138178928941
 30
0.0
 11
14.09999532091183
 21
226.6138178928941
 31
0.0
  0
LINE
  5
63A
330
1F
100
AcDbEntity
  8
0
100
AcDbLine
 10
14.09999532091183
 20
226.6138178928941
 30
0.0
 11
14.09999532091183
 21
185.9738178928943
 31
0.0
  0
LINE
  5
63B
330
1F
100
AcDbEntity
  8
0
100
AcDbLine
 10
47.44999532091287
 20
204.090101035486
 30
0.0
 11
47.44999532091287
 21
219.057534750303
 31
0.0
  0
LINE
  5
63C
330
1F
100
AcDbEntity
  8
0
100
AcDbLine
 10
41.14999532091268
 20
219.6738178928941
 30
0.0
 11
41.14999532091268
 21
203.4738178928943
 31
0.0
  0
LINE
  5
63D
330
1F
100
AcDbEntity
  8
0
100
AcDbLine
 10
42.69999532091286
 20
220.1738178928941
 30
0.0
 11
42.69999532091286
 21
202.9738178928943
 31
0.0
  0
LINE
  5
63E
330
1F
100
AcDbEntity
  8
0
100
AcDbLine
 10
45.89999532091267
 20
202.9738178928943
 30
0.0
 11
45.89999532091267
 21
220.1738178928941
 31
0.0
  0
LINE
  5
63F
330
1F
100
AcDbEntity
  8
0
100
AcDbLine
 10
39.69999532091287
 20
229.1738178928941
 30
0.0
 11
39.69999532091287
 21
193.9738178928943
 31
0.0
  0
LINE
  5
640
330
1F
100
AcDbEntity
  8
0
100
AcDbLine
 10
48.79999532091279
 20
192.9738178928943
 30
0.0
 11
48.79999532091279
 21
230.1738178928941
 31
0.0
  0
LINE
  5
641
330
1F
100
AcDbEntity
  8
0
100
AcDbLine
 10
49.09999532091274
 20
200.3738178928943
 30
0.0
 11
49.09999532091274
 21
193.2738178928945
 31
0.0
  0
CIRCLE
  5
642
330
1F
100
AcDbEntity
  8
0
100
AcDbCircle
 10
44.29999532091279
 20
195.9438178928943
 30
0.0
 40
1.399999999999999
  0
ARC
  5
643
330
1F
100
AcDbEntity
  8
0
100
AcDbCircle
 10
48.79999532091279
 20
193.2738178928945
 30
0.0
 40
0.3
100
AcDbArc
 50
270.0
 51
0.0
  0
LINE
  5
644
330
1F
100
AcDbEntity
  8
0
100
AcDbLine
 10
40.49999532091283
 20
192.9738178928943
 30
0.0
 11
48.79999532091279
 21
192.9738178928943
 31
0.0
  0
ARC
  5
645
330
1F
100
AcDbEntity
  8
0
100
AcDbCircle
 10
40.49999532091283
 20
193.4738178928943
 30
0.0
 40
0.5
100
AcDbArc
 50
180.0
 51
270.0
  0
LINE
  5
646
330
1F
100
AcDbEntity
  8
0
100
AcDbLine
 10
39.99999532091283
 20
193.9738178928943
 30
0.0
 11
39.99999532091283
 21
193.4738178928943
 31
0.0
  0
LINE
  5
647
330
1F
100
AcDbEntity
  8
0
100
AcDbLine
 10
39.69999532091287
 20
193.9738178928943
 30
0.0
 11
48.79999532091279
 21
193.9738178928943
 31
0.0
  0
ARC
  5
648
330
1F
100
AcDbEntity
  8
0
100
AcDbCircle
 10
45.44999532091288
 20
204.090101035486
 30
0.0
 40
2.0
100
AcDbArc
 50
284.9999999999943
 51
0.0
  0
LINE
  5
649
330
1F
100
AcDbEntity
  8
0
100
AcDbLine
 10
43.66763341111775
 20
201.5419662403163
 30
0.0
 11
45.96763341111794
 21
202.1582493829074
 31
0.0
  0
ARC
  5
64A
330
1F
100
AcDbEntity
  8
0
100
AcDbCircle
 10
43.14999532091269
 20
203.4738178928943
 30
0.0
 40
2.0
100
AcDbArc
 50
180.0
 51
284.9999999999943
  0
LINE
  5
64B
330
1F
100
AcDbEntity
  8
0
100
AcDbLine
 10
42.69999532091286
 20
202.9738178928943
 30
0.0
 11
45.89999532091267
 21
202.9738178928943
 31
0.0
  0
LINE
  5
64C
330
1F
100
AcDbEntity
  8
0
100
AcDbLine
 10
48.79999532091279
 20
200.3738178928943
 30
0.0
 11
49.09999532091274
 21
200.3738178928943
 31
0.0
  0
LINE
  5
64D
330
1F
100
AcDbEntity
  8
0
100
AcDbLine
 10
47.44999532091287
 20
197.9738178928943
 30
0.0
 11
47.44999532091287
 21
200.3738178928943
 31
0.0
  0
LINE
  5
64E
330
1F
100
AcDbEntity
  8
0
100
AcDbLine
 10
41.14999532091268
 20
200.3738178928943
 30
0.0
 11
41.14999532091268
 21
197.9738178928943
 31
0.0
  0
LINE
  5
64F
330
1F
100
AcDbEntity
  8
0
100
AcDbLine
 10
41.14999532091268
 20
200.3738178928943
 30
0.0
 11
47.44999532091287
 21
200.3738178928943
 31
0.0
  0
LINE
  5
650
330
1F
100
AcDbEntity
  8
0
100
AcDbLine
 10
41.14999532091268
 20
198.4738178928943
 30
0.0
 11
47.44999532091287
 21
198.4738178928943
 31
0.0
  0
LINE
  5
651
330
1F
100
AcDbEntity
  8
0
100
AcDbLine
 10
41.14999532091268
 20
197.9738178928943
 30
0.0
 11
47.44999532091287
 21
197.9738178928943
 31
0.0
  0
ARC
  5
652
330
1F
100
AcDbEntity
  8
0
100
AcDbCircle
 10
48.79999532091279
 20
229.8738178928952
 30
0.0
 40
0.3
100
AcDbArc
 50
0.0
 51
90.0
  0
LINE
  5
653
330
1F
100
AcDbEntity
  8
0
100
AcDbLine
 10
49.09999532091274
 20
229.8738178928952
 30
0.0
 11
49.09999532091274
 21
222.7738178928944
 31
0.0
  0
LINE
  5
654
330
1F
100
AcDbEntity
  8
0
100
AcDbLine
 10
40.49999532091283
 20
230.1738178928941
 30
0.0
 11
48.79999532091279
 21
230.1738178928955
 31
0.0
  0
ARC
  5
655
330
1F
100
AcDbEntity
  8
0
100
AcDbCircle
 10
45.44999532091288
 20
219.057534750303
 30
0.0
 40
2.0
100
AcDbArc
 50
0.0
 51
75.00000000000555
  0
LINE
  5
656
330
1F
100
AcDbEntity
  8
0
100
AcDbLine
 10
43.66763341111775
 20
221.6056695454723
 30
0.0
 11
45.96763341111794
 21
220.9893864028813
 31
0.0
  0
ARC
  5
657
330
1F
100
AcDbEntity
  8
0
100
AcDbCircle
 10
43.14999532091269
 20
219.6738178928941
 30
0.0
 40
2.0
100
AcDbArc
 50
75.00000000000555
 51
180.0
  0
LINE
  5
658
330
1F
100
AcDbEntity
  8
0
100
AcDbLine
 10
45.89999532091267
 20
220.1738178928941
 30
0.0
 11
42.69999532091286
 21
220.1738178928954
 31
0.0
  0
ARC
  5
659
330
1F
100
AcDbEntity
  8
0
100
AcDbCircle
 10
40.49999532091283
 20
229.673817892894
 30
0.0
 40
0.5
100
AcDbArc
 50
90.0
 51
180.0
  0
LINE
  5
65A
330
1F
100
AcDbEntity
  8
0
100
AcDbLine
 10
39.99999532091283
 20
229.673817892894
 30
0.0
 11
39.99999532091283
 21
229.1738178928941
 31
0.0
  0
LINE
  5
65B
330
1F
100
AcDbEntity
  8
0
100
AcDbLine
 10
39.69999532091287
 20
229.1738178928941
 30
0.0
 11
48.79999532091279
 21
229.1738178928941
 31
0.0
  0
LINE
  5
65C
330
1F
100
AcDbEntity
  8
0
100
AcDbLine
 10
48.79999532091279
 20
222.7738178928944
 30
0.0
 11
49.09999532091274
 21
222.7738178928944
 31
0.0
  0
LINE
  5
65D
330
1F
100
AcDbEntity
  8
0
100
AcDbLine
 10
47.44999532091287
 20
222.7738178928944
 30
0.0
 11
47.44999532091287
 21
225.1738178928955
 31
0.0
  0
LINE
  5
65E
330
1F
100
AcDbEntity
  8
0
100
AcDbLine
 10
41.14999532091268
 20
225.1738178928955
 30
0.0
 11
41.14999532091268
 21
222.7738178928944
 31
0.0
  0
LINE
  5
65F
330
1F
100
AcDbEntity
  8
0
100
AcDbLine
 10
41.14999532091268
 20
222.7738178928944
 30
0.0
 11
47.44999532091287
 21
222.7738178928944
 31
0.0
  0
LINE
  5
660
330
1F
100
AcDbEntity
  8
0
100
AcDbLine
 10
41.14999532091268
 20
224.6738178928941
 30
0.0
 11
47.44999532091287
 21
224.6738178928941
 31
0.0
  0
LINE
  5
661
330
1F
100
AcDbEntity
  8
0
100
AcDbLine
 10
41.14999532091268
 20
225.1738178928941
 30
0.0
 11
47.44999532091287
 21
225.1738178928941
 31
0.0
  0
CIRCLE
  5
662
330
1F
100
AcDbEntity
  8
0
100
AcDbCircle
 10
44.29999532091279
 20
227.2038178928943
 30
0.0
 40
1.399999999999999
  0
LINE
  5
663
330
1F
100
AcDbEntity
  8
0
100
AcDbLine
 10
48.79999532091279
 20
215.3838178928952
 30
0.0
 11
49.09999532091274
 21
215.3838178928952
 31
0.0
  0
LINE
  5
664
330
1F
100
AcDbEntity
  8
0
100
AcDbLine
 10
48.79999532091279
 20
214.1138178928952
 30
0.0
 11
49.09999532091274
 21
214.1138178928952
 31
0.0
  0
LINE
  5
665
330
1F
100
AcDbEntity
  8
0
100
AcDbLine
 10
48.79999532091279
 20
212.8438178928952
 30
0.0
 11
49.09999532091274
 21
212.8438178928952
 31
0.0
  0
LINE
  5
666
330
1F
100
AcDbEntity
  8
0
100
AcDbLine
 10
48.79999532091279
 20
211.573817892895
 30
0.0
 11
49.09999532091274
 21
211.573817892895
 31
0.0
  0
LINE
  5
667
330
1F
100
AcDbEntity
  8
0
100
AcDbLine
 10
48.79999532091279
 20
210.3038178928954
 30
0.0
 11
49.09999532091274
 21
210.3038178928954
 31
0.0
  0
LINE
  5
668
330
1F
100
AcDbEntity
  8
0
100
AcDbLine
 10
48.79999532091279
 20
209.0338178928953
 30
0.0
 11
49.09999532091274
 21
209.0338178928953
 31
0.0
  0
LINE
  5
669
330
1F
100
AcDbEntity
  8
0
100
AcDbLine
 10
48.79999532091279
 20
207.7638178928952
 30
0.0
 11
49.09999532091274
 21
207.7638178928952
 31
0.0
  0
LINE
  5
66A
330
1F
100
AcDbEntity
  8
0
100
AcDbLine
 10
48.79999532091279
 20
217.9238178928954
 30
0.0
 11
49.09999532091274
 21
217.9238178928954
 31
0.0
  0
LINE
  5
66B
330
1F
100
AcDbEntity
  8
0
100
AcDbLine
 10
48.79999532091279
 20
216.6538178928949
 30
0.0
 11
49.09999532091274
 21
216.6538178928955
 31
0.0
  0
LINE
  5
66C
330
1F
100
AcDbEntity
  8
0
100
AcDbLine
 10
48.79999532091279
 20
215.3838178928952
 30
0.0
 11
49.09999532091274
 21
215.3838178928952
 31
0.0
  0
LINE
  5
66D
330
1F
100
AcDbEntity
  8
0
100
AcDbLine
 10
48.79999532091279
 20
219.1938178928943
 30
0.0
 11
49.09999532091274
 21
219.1938178928943
 31
0.0
  0
LINE
  5
66E
330
1F
100
AcDbEntity
  8
0
100
AcDbLine
 10
48.79999532091279
 20
217.9238178928954
 30
0.0
 11
49.09999532091274
 21
217.9238178928954
 31
0.0
  0
LINE
  5
66F
330
1F
100
AcDbEntity
  8
0
100
AcDbLine
 10
48.79999532091279
 20
207.7638178928952
 30
0.0
 11
49.09999532091274
 21
207.7638178928952
 31
0.0
  0
LINE
  5
670
330
1F
100
AcDbEntity
  8
0
100
AcDbLine
 10
48.79999532091279
 20
206.4938178928955
 30
0.0
 11
49.09999532091274
 21
206.4938178928955
 31
0.0
  0
LINE
  5
671
330
1F
100
AcDbEntity
  8
0
100
AcDbLine
 10
48.79999532091279
 20
205.2238178928949
 30
0.0
 11
49.09999532091274
 21
205.2238178928949
 31
0.0
  0
LINE
  5
672
330
1F
100
AcDbEntity
  8
0
100
AcDbLine
 10
48.79999532091279
 20
203.9538178928952
 30
0.0
 11
49.09999532091274
 21
203.9538178928952
 31
0.0
  0
LINE
  5
673
330
1F
100
AcDbEntity
  8
0
100
AcDbLine
 10
14.09999532091274
 20
185.1738177335504
 30
0.0
 11
14.09999532091274
 21
271.4738177335504
 31
0.0
  0
LINE
  5
674
330
1F
100
AcDbEntity
  8
0
100
AcDbLine
 10
53.44721713475769
 20
172.9738178928943
 30
0.0
 11
51.43302969457181
 21
172.9738178928943
 31
0.0
  0
LINE
  5
675
330
1F
100
AcDbEntity
  8
0
100
AcDbLine
 10
36.56696094725271
 20
172.9738178928943
 30
0.0
 11
34.5527735070666
 21
172.9738178928943
 31
0.0
  0
LINE
  5
676
330
1F
100
AcDbEntity
  8
0
100
AcDbLine
 10
36.49999532091054
 20
180.9738178928943
 30
0.0
 11
36.49999532091192
 21
173.9738178928943
 31
0.0
  0
LINE
  5
677
330
1F
100
AcDbEntity
  8
0
100
AcDbLine
 10
53.49999532091192
 20
164.4738178928943
 30
0.0
 11
34.49999532091192
 21
164.4738178928943
 31
0.0
  0
ARC
  5
678
330
1F
100
AcDbEntity
  8
0
100
AcDbCircle
 10
43.99999532091192
 20
173.9738178928943
 30
0.0
 40
7.5
100
AcDbArc
 50
180.0
 51
0.0
  0
ARC
  5
679
330
1F
100
AcDbEntity
  8
0
100
AcDbCircle
 10
43.99999532091192
 20
173.9738178928943
 30
0.0
 40
9.5
100
AcDbArc
 50
186.042328419057
 51
353.9576715809428
  0
LINE
  5
67A
330
1F
100
AcDbEntity
  8
0
100
AcDbLine
 10
34.49999532091192
 20
164.4738178928943
 30
0.0
 11
34.49999532091192
 21
180.9738178928943
 31
0.0
  0
LINE
  5
67B
330
1F
100
AcDbEntity
  8
0
100
AcDbLine
 10
53.49999532091192
 20
164.4738178928943
 30
0.0
 11
53.49999532091192
 21
180.9738178928943
 31
0.0
  0
LINE
  5
67C
330
1F
100
AcDbEntity
  8
0
100
AcDbLine
 10
51.49999532091054
 20
180.9738178928943
 30
0.0
 11
51.49999532091192
 21
173.9738178928943
 31
0.0
  0
LINE
  5
67D
330
1F
100
AcDbEntity
  8
0
100
AcDbLine
 10
49.09999532091183
 20
185.9738178928943
 30
0.0
 11
49.09999532091183
 21
191.4738178928943
 31
0.0
  0
CIRCLE
  5
67E
330
1F
100
AcDbEntity
  8
0
100
AcDbCircle
 10
45.66999532091061
 20
187.473817892894
 30
0.0
 40
0.32
  0
CIRCLE
  5
67F
330
1F
100
AcDbEntity
  8
0
100
AcDbCircle
 10
45.66999532091061
 20
189.9738178928943
 30
0.0
 40
0.32
  0
LINE
  5
680
330
1F
100
AcDbEntity
  8
0
100
AcDbLine
 10
42.59999532091183
 20
185.9738178928943
 30
0.0
 11
43.59999532091181
 21
185.9738178928943
 31
0.0
  0
LINE
  5
681
330
1F
100
AcDbEntity
  8
0
100
AcDbLine
 10
43.59999532091181
 20
185.9738178928943
 30
0.0
 11
43.59999532091181
 21
191.4738178928943
 31
0.0
  0
LINE
  5
682
330
1F
100
AcDbEntity
  8
0
100
AcDbLine
 10
43.59999532091181
 20
187.9738178928943
 30
0.0
 11
43.59999532091181
 21
189.4738178928943
 31
0.0
  0
LINE
  5
683
330
1F
100
AcDbEntity
  8
0
100
AcDbLine
 10
43.59999532091181
 20
189.4738178928943
 30
0.0
 11
42.59999532091183
 21
189.4738178928943
 31
0.0
  0
LINE
  5
684
330
1F
100
AcDbEntity
  8
0
100
AcDbLine
 10
42.59999532091183
 20
189.4738178928943
 30
0.0
 11
42.59999532091183
 21
187.9738178928943
 31
0.0
  0
LINE
  5
685
330
1F
100
AcDbEntity
  8
0
100
AcDbLine
 10
42.59999532091183
 20
187.9738178928943
 30
0.0
 11
43.59999532091181
 21
187.9738178928943
 31
0.0
  0
LINE
  5
686
330
1F
100
AcDbEntity
  8
0
100
AcDbLine
 10
49.09999532091183
 20
191.4738178928943
 30
0.0
 11
42.59999532091183
 21
191.4738178928943
 31
0.0
  0
LINE
  5
687
330
1F
100
AcDbEntity
  8
0
100
AcDbLine
 10
42.59999532091183
 20
191.4738178928943
 30
0.0
 11
42.59999532091183
 21
185.9738178928943
 31
0.0
  0
LINE
  5
688
330
1F
100
AcDbEntity
  8
0
100
AcDbLine
 10
42.59999532091183
 20
185.9738178928943
 30
0.0
 11
49.09999532091183
 21
185.9738178928943
 31
0.0
  0
CIRCLE
  5
689
330
1F
100
AcDbEntity
  8
0
100
AcDbCircle
 10
18.09999532091182
 20
238.6138178928943
 30
0.0
 40
0.75
  0
LINE
  5
68A
330
1F
100
AcDbEntity
  8
0
100
AcDbLine
 10
22.59999532091182
 20
234.6138178928943
 30
0.0
 11
22.59999532091182
 21
265.1138178928943
 31
0.0
  0
LINE
  5
68B
330
1F
100
AcDbEntity
  8
0
100
AcDbLine
 10
14.09999532091183
 20
270.4738178928943
 30
0.0
 11
14.09999532091183
 21
229.6138178928943
 31
0.0
  0
LINE
  5
68C
330
1F
100
AcDbEntity
  8
0
100
AcDbLine
 10
20.29999532091165
 20
239.923817892894
 30
0.0
 11
20.29999532091165
 21
237.3038178928943
 31
0.0
  0
ARC
  5
68D
330
1F
100
AcDbEntity
  8
0
100
AcDbCircle
 10
18.09999532091182
 20
238.6138178928943
 30
0.0
 40
2.9
100
AcDbArc
 50
133.6028189726939
 51
226.3971810273058
  0
CIRCLE
  5
68E
330
1F
100
AcDbEntity
  8
0
100
AcDbCircle
 10
18.09999532091182
 20
238.6138178928943
 30
0.0
 40
1.5
  0
CIRCLE
  5
68F
330
1F
100
AcDbEntity
  8
0
100
AcDbCircle
 10
18.06360926050865
 20
232.5138178928941
 30
0.0
 40
2.0
  0
LINE
  5
690
330
1F
100
AcDbEntity
  8
0
100
AcDbLine
 10
14.09999532091183
 20
229.6138178928943
 30
0.0
 11
21.09999532091181
 21
229.6138178928943
 31
0.0
  0
LINE
  5
691
330
1F
100
AcDbEntity
  8
0
100
AcDbLine
 10
16.09999532091183
 20
235.6138178928943
 30
0.0
 11
21.09999532091181
 21
235.6138178928943
 31
0.0
  0
LINE
  5
692
330
1F
100
AcDbEntity
  8
0
100
AcDbLine
 10
16.09999532091183
 20
236.5138178928939
 30
0.0
 11
16.09999532091183
 21
235.6138178928943
 31
0.0
  0
LINE
  5
693
330
1F
100
AcDbEntity
  8
0
100
AcDbLine
 10
21.09999532091181
 20
229.6138178928943
 30
0.0
 11
21.09999532091181
 21
234.6138178928943
 31
0.0
  0
CIRCLE
  5
694
330
1F
100
AcDbEntity
  8
0
100
AcDbCircle
 10
18.06360926050865
 20
232.5138178928941
 30
0.0
 40
0.9
  0
LINE
  5
695
330
1F
100
AcDbEntity
  8
0
100
AcDbLine
 10
21.09999532091181
 20
234.6138178928943
 30
0.0
 11
22.59999532091182
 21
234.6138178928943
 31
0.0
  0
LINE
  5
696
330
1F
100
AcDbEntity
  8
0
100
AcDbLine
 10
20.29999532091165
 20
237.3038178928943
 30
0.0
 11
21.09999532091181
 21
237.3038178928943
 31
0.0
  0
LINE
  5
697
330
1F
100
AcDbEntity
  8
0
100
AcDbLine
 10
21.09999532091181
 20
237.3038178928943
 30
0.0
 11
21.09999532091181
 21
235.6138178928943
 31
0.0
  0
ARC
  5
698
330
1F
100
AcDbEntity
  8
0
100
AcDbCircle
 10
18.09999532091182
 20
261.4738178928943
 30
0.0
 40
2.9
100
AcDbArc
 50
133.6028189726939
 51
226.3971810273058
  0
LINE
  5
699
330
1F
100
AcDbEntity
  8
0
100
AcDbLine
 10
21.09999532091181
 20
260.163817892894
 30
0.0
 11
21.09999532091181
 21
255.1638178928941
 31
0.0
  0
LINE
  5
69A
330
1F
100
AcDbEntity
  8
0
100
AcDbLine
 10
21.09999532091181
 20
252.5438178928943
 30
0.0
 11
21.09999532091181
 21
247.5438178928945
 31
0.0
  0
LINE
  5
69B
330
1F
100
AcDbEntity
  8
0
100
AcDbLine
 10
16.09999532091183
 20
251.7538178928944
 30
0.0
 11
16.09999532091183
 21
248.3338178928943
 31
0.0
  0
ARC
  5
69C
330
1F
100
AcDbEntity
  8
0
100
AcDbCircle
 10
18.09999532091182
 20
246.2338178928943
 30
0.0
 40
2.9
100
AcDbArc
 50
133.6028189726939
 51
226.3971810273058
  0
LINE
  5
69D
330
1F
100
AcDbEntity
  8
0
100
AcDbLine
 10
16.09999532091183
 20
244.1338178928941
 30
0.0
 11
16.09999532091183
 21
240.7138178928943
 31
0.0
  0
CIRCLE
  5
69E
330
1F
100
AcDbEntity
  8
0
100
AcDbCircle
 10
18.09999532091182
 20
246.2338178928943
 30
0.0
 40
1.5
  0
LINE
  5
69F
330
1F
100
AcDbEntity
  8
0
100
AcDbLine
 10
21.09999532091181
 20
244.9238178928941
 30
0.0
 11
21.09999532091181
 21
239.923817892894
 31
0.0
  0
LINE
  5
6A0
330
1F
100
AcDbEntity
  8
0
100
AcDbLine
 10
20.29999532091165
 20
239.923817892894
 30
0.0
 11
21.09999532091181
 21
239.923817892894
 31
0.0
  0
LINE
  5
6A1
330
1F
100
AcDbEntity
  8
0
100
AcDbLine
 10
22.59999532091182
 20
242.163817892894
 30
0.0
 11
24.29999532091164
 21
242.163817892894
 31
0.0
  0
LINE
  5
6A2
330
1F
100
AcDbEntity
  8
0
100
AcDbLine
 10
24.29999532091164
 20
240.5638178928944
 30
0.0
 11
22.59999532091182
 21
240.5638178928944
 31
0.0
  0
LINE
  5
6A3
330
1F
100
AcDbEntity
  8
0
100
AcDbLine
 10
24.29999532091164
 20
242.163817892894
 30
0.0
 11
24.29999532091164
 21
240.5638178928944
 31
0.0
  0
CIRCLE
  5
6A4
330
1F
100
AcDbEntity
  8
0
100
AcDbCircle
 10
18.09999532091182
 20
246.2338178928943
 30
0.0
 40
0.75
  0
LINE
  5
6A5
330
1F
100
AcDbEntity
  8
0
100
AcDbLine
 10
20.29999532091165
 20
244.9238178928941
 30
0.0
 11
21.09999532091181
 21
244.9238178928941
 31
0.0
  0
LINE
  5
6A6
330
1F
100
AcDbEntity
  8
0
100
AcDbLine
 10
20.29999532091165
 20
247.5438178928945
 30
0.0
 11
21.09999532091181
 21
247.5438178928945
 31
0.0
  0
LINE
  5
6A7
330
1F
100
AcDbEntity
  8
0
100
AcDbLine
 10
20.29999532091165
 20
247.5438178928945
 30
0.0
 11
20.29999532091165
 21
244.9238178928941
 31
0.0
  0
ARC
  5
6A8
330
1F
100
AcDbEntity
  8
0
100
AcDbCircle
 10
18.09999532091182
 20
253.8538178928943
 30
0.0
 40
2.9
100
AcDbArc
 50
133.6028189726939
 51
226.3971810273058
  0
LINE
  5
6A9
330
1F
100
AcDbEntity
  8
0
100
AcDbLine
 10
16.09999532091183
 20
259.3738178928941
 30
0.0
 11
16.09999532091183
 21
255.9538178928943
 31
0.0
  0
LINE
  5
6AA
330
1F
100
AcDbEntity
  8
0
100
AcDbLine
 10
24.29999532091164
 20
257.5638178928944
 30
0.0
 11
22.59999532091182
 21
257.5638178928944
 31
0.0
  0
LINE
  5
6AB
330
1F
100
AcDbEntity
  8
0
100
AcDbLine
 10
24.29999532091164
 20
259.1638178928941
 30
0.0
 11
22.59999532091182
 21
259.1638178928941
 31
0.0
  0
LINE
  5
6AC
330
1F
100
AcDbEntity
  8
0
100
AcDbLine
 10
24.29999532091164
 20
259.1638178928941
 30
0.0
 11
24.29999532091164
 21
257.5638178928944
 31
0.0
  0
LINE
  5
6AD
330
1F
100
AcDbEntity
  8
0
100
AcDbLine
 10
20.29999532091165
 20
255.1638178928941
 30
0.0
 11
21.09999532091181
 21
255.1638178928941
 31
0.0
  0
CIRCLE
  5
6AE
330
1F
100
AcDbEntity
  8
0
100
AcDbCircle
 10
18.09999532091182
 20
253.8538178928943
 30
0.0
 40
0.75
  0
LINE
  5
6AF
330
1F
100
AcDbEntity
  8
0
100
AcDbLine
 10
20.29999532091165
 20
252.5438178928943
 30
0.0
 11
21.09999532091181
 21
252.5438178928943
 31
0.0
  0
CIRCLE
  5
6B0
330
1F
100
AcDbEntity
  8
0
100
AcDbCircle
 10
18.09999532091182
 20
253.8538178928943
 30
0.0
 40
1.5
  0
LINE
  5
6B1
330
1F
100
AcDbEntity
  8
0
100
AcDbLine
 10
20.29999532091165
 20
255.1638178928941
 30
0.0
 11
20.29999532091165
 21
252.5438178928943
 31
0.0
  0
LINE
  5
6B2
330
1F
100
AcDbEntity
  8
0
100
AcDbLine
 10
21.09999532091181
 20
265.4738178928943
 30
0.0
 11
21.09999532091181
 21
270.4738178928943
 31
0.0
  0
CIRCLE
  5
6B3
330
1F
100
AcDbEntity
  8
0
100
AcDbCircle
 10
18.09999532091182
 20
267.5738178928941
 30
0.0
 40
2.0
  0
LINE
  5
6B4
330
1F
100
AcDbEntity
  8
0
100
AcDbLine
 10
21.09999532091181
 20
264.1138178928942
 30
0.0
 11
16.09999532091183
 21
264.1138178928942
 31
0.0
  0
LINE
  5
6B5
330
1F
100
AcDbEntity
  8
0
100
AcDbLine
 10
16.09999532091183
 20
264.1138178928942
 30
0.0
 11
16.09999532091183
 21
263.5738178928941
 31
0.0
  0
LINE
  5
6B6
330
1F
100
AcDbEntity
  8
0
100
AcDbLine
 10
21.09999532091181
 20
265.4738178928943
 30
0.0
 11
22.59999532091182
 21
265.4738178928943
 31
0.0
  0
CIRCLE
  5
6B7
330
1F
100
AcDbEntity
  8
0
100
AcDbCircle
 10
18.09999532091182
 20
267.5738178928941
 30
0.0
 40
0.9
  0
LINE
  5
6B8
330
1F
100
AcDbEntity
  8
0
100
AcDbLine
 10
20.29999532091165
 20
262.7838178928941
 30
0.0
 11
21.09999532091181
 21
262.7838178928941
 31
0.0
  0
LINE
  5
6B9
330
1F
100
AcDbEntity
  8
0
100
AcDbLine
 10
21.09999532091181
 20
264.1138178928942
 30
0.0
 11
21.09999532091181
 21
262.7838178928941
 31
0.0
  0
LINE
  5
6BA
330
1F
100
AcDbEntity
  8
0
100
AcDbLine
 10
20.29999532091165
 20
260.163817892894
 30
0.0
 11
21.09999532091181
 21
260.163817892894
 31
0.0
  0
CIRCLE
  5
6BB
330
1F
100
AcDbEntity
  8
0
100
AcDbCircle
 10
18.09999532091182
 20
261.4738178928943
 30
0.0
 40
0.75
  0
LINE
  5
6BC
330
1F
100
AcDbEntity
  8
0
100
AcDbLine
 10
20.29999532091165
 20
262.7838178928941
 30
0.0
 11
20.29999532091165
 21
260.163817892894
 31
0.0
  0
CIRCLE
  5
6BD
330
1F
100
AcDbEntity
  8
0
100
AcDbCircle
 10
18.09999532091182
 20
261.4738178928943
 30
0.0
 40
1.5
  0
LINE
  5
6BE
330
1F
100
AcDbEntity
  8
0
100
AcDbLine
 10
22.59999532091182
 20
265.4738178928943
 30
0.0
 11
22.59999532091182
 21
265.1138178928943
 31
0.0
  0
LINE
  5
6BF
330
1F
100
AcDbEntity
  8
0
100
AcDbLine
 10
14.09999532091183
 20
270.4738178928943
 30
0.0
 11
21.09999532091181
 21
270.4738178928943
 31
0.0
  0
LINE
  5
6C0
330
1F
100
AcDbEntity
  8
0
100
AcDbLine
 10
14.09999532091183
 20
265.2338178928943
 30
0.0
 11
14.09999532091183
 21
270.4738178928943
 31
0.0
  0
LINE
  5
6C1
330
1F
100
AcDbEntity
  8
0
100
AcDbLine
 10
14.09999532091183
 20
270.4738178928943
 30
0.0
 11
21.09999532091181
 21
270.4738178928943
 31
0.0
  0
LINE
  5
6C2
330
1F
100
AcDbEntity
  8
0
100
AcDbLine
 10
21.09999532091181
 20
270.4738178928943
 30
0.0
 11
21.09999532091181
 21
265.2338178928943
 31
0.0
  0
LINE
  5
6C3
330
1F
100
AcDbEntity
  8
0
100
AcDbLine
 10
14.09999532091183
 20
234.8538178928943
 30
0.0
 11
14.09999532091183
 21
229.6138178928943
 31
0.0
  0
LINE
  5
6C4
330
1F
100
AcDbEntity
  8
0
100
AcDbLine
 10
14.09999532091183
 20
229.6138178928943
 30
0.0
 11
21.09999532091181
 21
229.6138178928943
 31
0.0
  0
LINE
  5
6C5
330
1F
100
AcDbEntity
  8
0
100
AcDbLine
 10
21.09999532091181
 20
229.6138178928943
 30
0.0
 11
21.09999532091181
 21
234.8538178928943
 31
0.0
  0
LINE
  5
6C6
330
1F
100
AcDbEntity
  8
0
100
AcDbLine
 10
41.19999532091195
 20
242.0738178928943
 30
0.0
 11
49.09999532091183
 21
242.0738178928943
 31
0.0
  0
LINE
  5
6C7
330
1F
100
AcDbEntity
  8
0
100
AcDbLine
 10
42.14999532091065
 20
243.0738178928939
 30
0.0
 11
48.14999532091178
 21
243.0738178928939
 31
0.0
  0
LINE
  5
6C8
330
1F
100
AcDbEntity
  8
0
100
AcDbLine
 10
43.14999532091177
 20
243.0738178928939
 30
0.0
 11
44.14999532091065
 21
243.0738178928939
 31
0.0
  0
LINE
  5
6C9
330
1F
100
AcDbEntity
  8
0
100
AcDbLine
 10
44.94999532091195
 20
243.0738178928939
 30
0.0
 11
44.94999532091195
 21
246.0738178928943
 31
0.0
  0
LINE
  5
6CA
330
1F
100
AcDbEntity
  8
0
100
AcDbLine
 10
48.14999532091178
 20
243.0738178928939
 30
0.0
 11
48.14999532091178
 21
246.0738178928943
 31
0.0
  0
LINE
  5
6CB
330
1F
100
AcDbEntity
  8
0
100
AcDbLine
 10
48.14999532091178
 20
246.0738178928943
 30
0.0
 11
42.14999532091065
 21
246.0738178928943
 31
0.0
  0
LINE
  5
6CC
330
1F
100
AcDbEntity
  8
0
100
AcDbLine
 10
42.14999532091065
 20
246.0738178928943
 30
0.0
 11
42.14999532091065
 21
243.0738178928939
 31
0.0
  0
LINE
  5
6CD
330
1F
100
AcDbEntity
  8
0
100
AcDbLine
 10
44.14999532091065
 20
243.0738178928939
 30
0.0
 11
44.14999532091065
 21
246.0738178928943
 31
0.0
  0
LINE
  5
6CE
330
1F
100
AcDbEntity
  8
0
100
AcDbLine
 10
44.14999532091065
 20
246.0738178928943
 30
0.0
 11
43.14999532091177
 21
246.0738178928943
 31
0.0
  0
LINE
  5
6CF
330
1F
100
AcDbEntity
  8
0
100
AcDbLine
 10
43.14999532091177
 20
246.0738178928943
 30
0.0
 11
43.14999532091177
 21
243.0738178928939
 31
0.0
  0
LINE
  5
6D0
330
1F
100
AcDbEntity
  8
0
100
AcDbLine
 10
49.09999532091183
 20
242.0738178928943
 30
0.0
 11
49.09999532091183
 21
247.0738178928939
 31
0.0
  0
LINE
  5
6D1
330
1F
100
AcDbEntity
  8
0
100
AcDbLine
 10
49.09999532091183
 20
247.0738178928939
 30
0.0
 11
41.19999532091195
 21
247.0738178928939
 31
0.0
  0
LINE
  5
6D2
330
1F
100
AcDbEntity
  8
0
100
AcDbLine
 10
41.19999532091195
 20
247.0738178928939
 30
0.0
 11
41.19999532091195
 21
242.0738178928943
 31
0.0
  0
CIRCLE
  5
6D3
330
1F
100
AcDbEntity
  8
0
100
AcDbCircle
 10
2.499995320912828
 20
203.9738178928943
 30
0.0
 40
2.149999999999999
  0
CIRCLE
  5
6D4
330
1F
100
AcDbEntity
  8
0
100
AcDbCircle
 10
2.499995320912828
 20
203.9738178928943
 30
0.0
 40
1.85
  0
LINE
  5
6D5
330
1F
100
AcDbEntity
  8
0
100
AcDbLine
 10
1.149995320911784
 20
203.6738178928941
 30
0.0
 11
3.849995320912738
 21
203.6738178928941
 31
0.0
  0
LINE
  5
6D6
330
1F
100
AcDbEntity
  8
0
100
AcDbLine
 10
2.349995320912739
 20
203.9738178928943
 30
0.0
 11
2.349995320912739
 21
205.3238178928939
 31
0.0
  0
LINE
  5
6D7
330
1F
100
AcDbEntity
  8
0
100
AcDbLine
 10
2.649995320911784
 20
203.9738178928943
 30
0.0
 11
2.649995320911784
 21
205.3238178928939
 31
0.0
  0
ARC
  5
6D8
330
1F
100
AcDbEntity
  8
0
100
AcDbCircle
 10
2.499995320912828
 20
205.3238178928939
 30
0.0
 40
0.15
100
AcDbArc
 50
0.0
 51
180.0
  0
ARC
  5
6D9
330
1F
100
AcDbEntity
  8
0
100
AcDbCircle
 10
1.149995320911784
 20
203.8238178928939
 30
0.0
 40
0.15
100
AcDbArc
 50
90.0
 51
270.0
  0
ARC
  5
6DA
330
1F
100
AcDbEntity
  8
0
100
AcDbCircle
 10
3.849995320912738
 20
203.8238178928939
 30
0.0
 40
0.15
100
AcDbArc
 50
270.0
 51
90.0
  0
LINE
  5
6DB
330
1F
100
AcDbEntity
  8
0
100
AcDbLine
 10
1.149995320911784
 20
203.9738178928943
 30
0.0
 11
2.349995320912739
 21
203.9738178928943
 31
0.0
  0
LINE
  5
6DC
330
1F
100
AcDbEntity
  8
0
100
AcDbLine
 10
2.649995320911784
 20
203.9738178928943
 30
0.0
 11
3.849995320912738
 21
203.9738178928943
 31
0.0
  0
LINE
  5
6DD
330
1F
100
AcDbEntity
  8
0
100
AcDbLine
 10
1.549995320912785
 20
203.3238178928939
 30
0.0
 11
3.449995320911738
 21
203.3238178928939
 31
0.0
  0
LINE
  5
6DE
330
1F
100
AcDbEntity
  8
0
100
AcDbLine
 10
1.549995320912785
 20
203.0238178928945
 30
0.0
 11
3.449995320911738
 21
203.0238178928945
 31
0.0
  0
LINE
  5
6DF
330
1F
100
AcDbEntity
  8
0
100
AcDbLine
 10
1.949995320912874
 20
202.673817892894
 30
0.0
 11
3.049995320911647
 21
202.673817892894
 31
0.0
  0
LINE
  5
6E0
330
1F
100
AcDbEntity
  8
0
100
AcDbLine
 10
1.949995320912874
 20
202.3738178928943
 30
0.0
 11
3.049995320911647
 21
202.3738178928943
 31
0.0
  0
ARC
  5
6E1
330
1F
100
AcDbEntity
  8
0
100
AcDbCircle
 10
1.949995320912874
 20
202.5238178928943
 30
0.0
 40
0.15
100
AcDbArc
 50
90.0
 51
270.0
  0
ARC
  5
6E2
330
1F
100
AcDbEntity
  8
0
100
AcDbCircle
 10
3.049995320911647
 20
202.5238178928943
 30
0.0
 40
0.15
100
AcDbArc
 50
270.0
 51
90.0
  0
ARC
  5
6E3
330
1F
100
AcDbEntity
  8
0
100
AcDbCircle
 10
1.549995320912785
 20
203.1738178928941
 30
0.0
 40
0.15
100
AcDbArc
 50
90.0
 51
270.0
  0
ARC
  5
6E4
330
1F
100
AcDbEntity
  8
0
100
AcDbCircle
 10
3.449995320911738
 20
203.1738178928941
 30
0.0
 40
0.15
100
AcDbArc
 50
270.0
 51
90.0
  0
LINE
  5
6E5
330
1F
100
AcDbEntity
  8
0
100
AcDbLine
 10
49.09999532091183
 20
241.5738178928939
 30
0.0
 11
41.84999532091183
 21
241.5738178928939
 31
0.0
  0
CIRCLE
  5
6E6
330
1F
100
AcDbEntity
  8
0
100
AcDbCircle
 10
45.59999532091183
 20
235.6238178928943
 30
0.0
 40
1.0
  0
CIRCLE
  5
6E7
330
1F
100
AcDbEntity
  8
0
100
AcDbCircle
 10
45.59999532091183
 20
239.1238178928943
 30
0.0
 40
1.0
  0
LINE
  5
6E8
330
1F
100
AcDbEntity
  8
0
100
AcDbLine
 10
41.84999532091183
 20
241.5738178928939
 30
0.0
 11
41.84999532091183
 21
233.1738178928941
 31
0.0
  0
LINE
  5
6E9
330
1F
100
AcDbEntity
  8
0
100
AcDbLine
 10
41.84999532091183
 20
233.1738178928941
 30
0.0
 11
49.09999532091183
 21
233.1738178928941
 31
0.0
  0
LINE
  5
6EA
330
1F
100
AcDbEntity
  8
0
100
AcDbLine
 10
49.09999532091183
 20
233.1738178928941
 30
0.0
 11
49.09999532091183
 21
241.5738178928939
 31
0.0
  0
LINE
  5
6EB
330
1F
100
AcDbEntity
  8
0
100
AcDbLine
 10
41.19999532091195
 20
262.0738178928941
 30
0.0
 11
49.09999532091183
 21
262.0738178928941
 31
0.0
  0
LINE
  5
6EC
330
1F
100
AcDbEntity
  8
0
100
AcDbLine
 10
42.14999532091065
 20
263.0738178928943
 30
0.0
 11
48.14999532091178
 21
263.0738178928943
 31
0.0
  0
LINE
  5
6ED
330
1F
100
AcDbEntity
  8
0
100
AcDbLine
 10
43.14999532091177
 20
263.0738178928943
 30
0.0
 11
44.14999532091065
 21
263.0738178928943
 31
0.0
  0
LINE
  5
6EE
330
1F
100
AcDbEntity
  8
0
100
AcDbLine
 10
44.94999532091195
 20
263.0738178928943
 30
0.0
 11
44.94999532091195
 21
266.0738178928941
 31
0.0
  0
LINE
  5
6EF
330
1F
100
AcDbEntity
  8
0
100
AcDbLine
 10
49.09999532091183
 20
262.0738178928941
 30
0.0
 11
49.09999532091183
 21
267.0738178928943
 31
0.0
  0
LINE
  5
6F0
330
1F
100
AcDbEntity
  8
0
100
AcDbLine
 10
49.09999532091183
 20
267.0738178928943
 30
0.0
 11
41.19999532091195
 21
267.0738178928943
 31
0.0
  0
LINE
  5
6F1
330
1F
100
AcDbEntity
  8
0
100
AcDbLine
 10
41.19999532091195
 20
267.0738178928943
 30
0.0
 11
41.19999532091195
 21
262.0738178928941
 31
0.0
  0
LINE
  5
6F2
330
1F
100
AcDbEntity
  8
0
100
AcDbLine
 10
44.14999532091065
 20
263.0738178928943
 30
0.0
 11
44.14999532091065
 21
266.0738178928941
 31
0.0
  0
LINE
  5
6F3
330
1F
100
AcDbEntity
  8
0
100
AcDbLine
 10
44.14999532091065
 20
266.0738178928941
 30
0.0
 11
43.14999532091177
 21
266.0738178928941
 31
0.0
  0
LINE
  5
6F4
330
1F
100
AcDbEntity
  8
0
100
AcDbLine
 10
43.14999532091177
 20
266.0738178928941
 30
0.0
 11
43.14999532091177
 21
263.0738178928943
 31
0.0
  0
LINE
  5
6F5
330
1F
100
AcDbEntity
  8
0
100
AcDbLine
 10
48.14999532091178
 20
263.0738178928943
 30
0.0
 11
48.14999532091178
 21
266.0738178928941
 31
0.0
  0
LINE
  5
6F6
330
1F
100
AcDbEntity
  8
0
100
AcDbLine
 10
48.14999532091178
 20
266.0738178928941
 30
0.0
 11
42.14999532091065
 21
266.0738178928941
 31
0.0
  0
LINE
  5
6F7
330
1F
100
AcDbEntity
  8
0
100
AcDbLine
 10
42.14999532091065
 20
266.0738178928941
 30
0.0
 11
42.14999532091065
 21
263.0738178928943
 31
0.0
  0
CIRCLE
  5
6F8
330
1F
100
AcDbEntity
  8
0
100
AcDbCircle
 10
42.59999532091272
 20
254.5738178928943
 30
0.0
 40
5.5
  0
LINE
  5
6F9
330
1F
100
AcDbEntity
  8
0
100
AcDbLine
 10
36.29999532091186
 20
247.5738178928939
 30
0.0
 11
36.29999532091186
 21
261.5738178928941
 31
0.0
  0
LINE
  5
6FA
330
1F
100
AcDbEntity
  8
0
100
AcDbLine
 10
49.09999532091274
 20
247.5738178928939
 30
0.0
 11
49.09999532091274
 21
253.4738178928943
 31
0.0
  0
LINE
  5
6FB
330
1F
100
AcDbEntity
  8
0
100
AcDbLine
 10
49.09999532091274
 20
247.5738178928939
 30
0.0
 11
36.29999532091186
 21
247.5738178928939
 31
0.0
  0
LINE
  5
6FC
330
1F
100
AcDbEntity
  8
0
100
AcDbLine
 10
49.09999532091274
 20
261.5738178928941
 30
0.0
 11
36.29999532091186
 21
261.5738178928941
 31
0.0
  0
LINE
  5
6FD
330
1F
100
AcDbEntity
  8
0
100
AcDbLine
 10
49.09999532091274
 20
255.6738178928941
 30
0.0
 11
49.09999532091274
 21
261.5738178928941
 31
0.0
  0
LINE
  5
6FE
330
1F
100
AcDbEntity
  8
0
100
AcDbLine
 10
14.09999532091274
 20
306.0738177335502
 30
0.0
 11
14.09999532091274
 21
339.0738177335502
 31
0.0
  0
LINE
  5
6FF
330
1F
100
AcDbEntity
  8
0
100
AcDbLine
 10
14.09999532091274
 20
275.9738177335504
 30
0.0
 11
14.09999532091274
 21
302.1738177335503
 31
0.0
  0
LINE
  5
700
330
1F
100
AcDbEntity
  8
0
100
AcDbLine
 10
49.09999532091274
 20
267.5738177335503
 30
0.0
 11
49.09999532091274
 21
232.6738177335504
 31
0.0
  0
LINE
  5
701
330
1F
100
AcDbEntity
  8
0
100
AcDbLine
 10
49.09999532091274
 20
230.6738177335501
 30
0.0
 11
49.09999532091274
 21
185.1738177335504
 31
0.0
  0
ARC
  5
702
330
1F
100
AcDbEntity
  8
0
100
AcDbCircle
 10
28.99999532091282
 20
359.9738178928942
 30
0.0
 40
5.5
100
AcDbArc
 50
294.6199773286481
 51
0.0
  0
ARC
  5
703
330
1F
100
AcDbEntity
  8
0
100
AcDbCircle
 10
28.99999532091282
 20
175.9738178928943
 30
0.0
 40
5.5
100
AcDbArc
 50
114.6199773286481
 51
180.0
  0
LINE
  5
704
330
1F
100
AcDbEntity
  8
0
100
AcDbLine
 10
53.49999532091192
 20
170.9738178928943
 30
0.0
 11
56.99999532091283
 21
170.9738178928943
 31
0.0
  0
INSERT
  5
705
330
1F
100
AcDbEntity
  8
0
100
AcDbBlockReference
  2
A$C3E87127B
 10
28.99999532091169
 20
359.9738178928942
 30
0.0
  0
TEXT
  5
7CE
330
1F
100
AcDbEntity
  8
0
100
AcDbText
 10
-6.158105895806682
 20
406.9720302240114
 30
0.0
 40
10.0
  1
SCON-CA-20~300SA-DV-*-1/2
100
AcDbText
  0
ENDSEC
  0
SECTION
  2
OBJECTS
  0
DICTIONARY
  5
C
330
0
100
AcDbDictionary
  3
ACAD_GROUP
350
D
  3
ACAD_LAYOUT
350
1A
  3
ACAD_MLINESTYLE
350
17
  3
ACAD_PLOTSETTINGS
350
19
  3
ACAD_PLOTSTYLENAME
350
E
  3
ACDBHEADERROUNDTRIPXREC
350
82D
  3
ACDBVARIABLEDICTIONARY
350
7D3
  0
DICTIONARY
  5
3C5
330
2
100
AcDbDictionary
280
     1
  3
ACAD_LAYERSTATES
360
3C6
  0
DICTIONARY
  5
7F9
330
1F
100
AcDbDictionary
280
     1
  3
ACAD_LAYOUTSELFREF
360
84E
  0
DICTIONARY
  5
7F7
330
1B
100
AcDbDictionary
280
     1
  3
ACAD_LAYOUTSELFREF
360
84D
  0
DICTIONARY
  5
D
102
{ACAD_REACTORS
330
C
102
}
330
C
100
AcDbDictionary
  0
DICTIONARY
  5
1A
102
{ACAD_REACTORS
330
C
102
}
330
C
100
AcDbDictionary
  0
DICTIONARY
  5
17
102
{ACAD_REACTORS
330
C
102
}
330
C
100
AcDbDictionary
  3
STANDARD
350
18
  0
DICTIONARY
  5
19
102
{ACAD_REACTORS
330
C
102
}
330
C
100
AcDbDictionary
  0
ACDBDICTIONARYWDFLT
  5
E
102
{ACAD_REACTORS
330
C
102
}
330
C
100
AcDbDictionary
281
     1
  3
Normal
350
F
100
AcDbDictionaryWithDefault
340
F
  0
DICTIONARY
  5
82D
102
{ACAD_REACTORS
330
C
102
}
330
C
100
AcDbDictionary
  3
CEPSNTYPE
350
837
  3
FINGERPRINTGUID
350
838
  3
HYPERLINKBASE
350
830
  3
INSUNITS
350
836
  3
LAYOUTDICT
350
832
  3
LWETCUNION
350
835
  3
PLOTSETDICT
350
833
  3
PLOTSTYLNAMDICT
350
834
  3
PSVPSCALE
350
83A
  3
PUCSBASE
350
83D
  3
PUCSORGBACK
350
843
  3
PUCSORGBOTTOM
350
83F
  3
PUCSORGFRONT
350
842
  3
PUCSORGLEFT
350
840
  3
PUCSORGRIGHT
350
841
  3
PUCSORGTOP
350
83E
  3
PUCSORTHOREF
350
83B
  3
PUCSORTHOVIEW
350
83C
  3
STYLESHEET
350
831
  3
TSTACKALIGN
350
82E
  3
TSTACKSIZE
350
82F
  3
UCSBASE
350
846
  3
UCSORGBACK
350
84C
  3
UCSORGBOTTOM
350
848
  3
UCSORGFRONT
350
84B
  3
UCSORGLEFT
350
849
  3
UCSORGRIGHT
350
84A
  3
UCSORGTOP
350
847
  3
UCSORTHOREF
350
844
  3
UCSORTHOVIEW
350
845
  3
VERSIONGUID
350
839
  0
DICTIONARY
  5
7D3
102
{ACAD_REACTORS
330
C
102
}
330
C
100
AcDbDictionary
  3
DIMASSOC
350
7D5
  3
HIDETEXT
350
7D4
  0
DICTIONARY
  5
3C6
102
{ACAD_REACTORS
330
3C5
102
}
330
3C5
100
AcDbDictionary
  0
XRECORD
  5
84E
102
{ACAD_REACTORS
330
7F9
102
}
330
7F9
100
AcDbXrecord
340
1F
  0
XRECORD
  5
84D
102
{ACAD_REACTORS
330
7F7
102
}
330
7F7
100
AcDbXrecord
340
1B
  0
MLINESTYLE
  5
18
102
{ACAD_REACTORS
330
17
102
}
330
17
100
AcDbMlineStyle
  2
STANDARD
 70
     0
  3

 62
   256
 51
90.0
 52
90.0
 71
     2
 49
0.5
 62
   256
  6
BYLAYER
 49
-0.5
 62
   256
  6
BYLAYER
  0
ACDBPLACEHOLDER
  5
F
102
{ACAD_REACTORS
330
E
102
}
330
E
100
AcDbPlaceHolder
280
     0
  0
XRECORD
  5
837
102
{ACAD_REACTORS
330
82D
102
}
330
82D
100
AcDbXrecord
 90
        0
  0
XRECORD
  5
838
102
{ACAD_REACTORS
330
82D
102
}
330
82D
100
AcDbXrecord
  1
{583C6217-58FB-4863-9BF5-F82FCF1233EF}
  0
XRECORD
  5
830
102
{ACAD_REACTORS
330
82D
102
}
330
82D
100
AcDbXrecord
  1

  0
XRECORD
  5
836
102
{ACAD_REACTORS
330
82D
102
}
330
82D
100
AcDbXrecord
 90
        4
  0
XRECORD
  5
832
102
{ACAD_REACTORS
330
82D
102
}
330
82D
100
AcDbXrecord
340
1A
  0
XRECORD
  5
835
102
{ACAD_REACTORS
330
82D
102
}
330
82D
100
AcDbXrecord
 90
    10781
  0
XRECORD
  5
833
102
{ACAD_REACTORS
330
82D
102
}
330
82D
100
AcDbXrecord
340
19
  0
XRECORD
  5
834
102
{ACAD_REACTORS
330
82D
102
}
330
82D
100
AcDbXrecord
340
E
  0
XRECORD
  5
83A
102
{ACAD_REACTORS
330
82D
102
}
330
82D
100
AcDbXrecord
 40
0.0
  0
XRECORD
  5
83D
102
{ACAD_REACTORS
330
82D
102
}
330
82D
100
AcDbXrecord
340
0
  0
XRECORD
  5
843
102
{ACAD_REACTORS
330
82D
102
}
330
82D
100
AcDbXrecord
 10
0.0
 20
0.0
 30
0.0
  0
XRECORD
  5
83F
102
{ACAD_REACTORS
330
82D
102
}
330
82D
100
AcDbXrecord
 10
0.0
 20
0.0
 30
0.0
  0
XRECORD
  5
842
102
{ACAD_REACTORS
330
82D
102
}
330
82D
100
AcDbXrecord
 10
0.0
 20
0.0
 30
0.0
  0
XRECORD
  5
840
102
{ACAD_REACTORS
330
82D
102
}
330
82D
100
AcDbXrecord
 10
0.0
 20
0.0
 30
0.0
  0
XRECORD
  5
841
102
{ACAD_REACTORS
330
82D
102
}
330
82D
100
AcDbXrecord
 10
0.0
 20
0.0
 30
0.0
  0
XRECORD
  5
83E
102
{ACAD_REACTORS
330
82D
102
}
330
82D
100
AcDbXrecord
 10
0.0
 20
0.0
 30
0.0
  0
XRECORD
  5
83B
102
{ACAD_REACTORS
330
82D
102
}
330
82D
100
AcDbXrecord
340
0
  0
XRECORD
  5
83C
102
{ACAD_REACTORS
330
82D
102
}
330
82D
100
AcDbXrecord
 70
     0
  0
XRECORD
  5
831
102
{ACAD_REACTORS
330
82D
102
}
330
82D
100
AcDbXrecord
  1

  0
XRECORD
  5
82E
102
{ACAD_REACTORS
330
82D
102
}
330
82D
100
AcDbXrecord
 90
        1
  0
XRECORD
  5
82F
102
{ACAD_REACTORS
330
82D
102
}
330
82D
100
AcDbXrecord
 90
       70
  0
XRECORD
  5
846
102
{ACAD_REACTORS
330
82D
102
}
330
82D
100
AcDbXrecord
340
0
  0
XRECORD
  5
84C
102
{ACAD_REACTORS
330
82D
102
}
330
82D
100
AcDbXrecord
 10
0.0
 20
0.0
 30
0.0
  0
XRECORD
  5
848
102
{ACAD_REACTORS
330
82D
102
}
330
82D
100
AcDbXrecord
 10
0.0
 20
0.0
 30
0.0
  0
XRECORD
  5
84B
102
{ACAD_REACTORS
330
82D
102
}
330
82D
100
AcDbXrecord
 10
0.0
 20
0.0
 30
0.0
  0
XRECORD
  5
849
102
{ACAD_REACTORS
330
82D
102
}
330
82D
100
AcDbXrecord
 10
0.0
 20
0.0
 30
0.0
  0
XRECORD
  5
84A
102
{ACAD_REACTORS
330
82D
102
}
330
82D
100
AcDbXrecord
 10
0.0
 20
0.0
 30
0.0
  0
XRECORD
  5
847
102
{ACAD_REACTORS
330
82D
102
}
330
82D
100
AcDbXrecord
 10
0.0
 20
0.0
 30
0.0
  0
XRECORD
  5
844
102
{ACAD_REACTORS
330
82D
102
}
330
82D
100
AcDbXrecord
340
0
  0
XRECORD
  5
845
102
{ACAD_REACTORS
330
82D
102
}
330
82D
100
AcDbXrecord
 70
     0
  0
XRECORD
  5
839
102
{ACAD_REACTORS
330
82D
102
}
330
82D
100
AcDbXrecord
  1
{994C776C-41B4-437C-BD03-97246EE5A2BD}
  0
DICTIONARYVAR
  5
7D5
102
{ACAD_REACTORS
330
7D3
102
}
330
7D3
100
DictionaryVariables
280
     0
  1
2
  0
DICTIONARYVAR
  5
7D4
102
{ACAD_REACTORS
330
7D3
102
}
330
7D3
100
DictionaryVariables
280
     0
  1
1
  0
ENDSEC
  0
EOF
