  0
SECTION
  2
HEADER
  9
$ACADVER
  1
AC1014
  9
$ACADMAINTVER
 70
     9
  9
$DWGCODEPAGE
  3
ANSI_932
  9
$INSBASE
 10
0.0
 20
0.0
 30
0.0
  9
$EXTMIN
 10
-3.36081764916107
 20
0.0000001354038659
 30
0.0
  9
$EXTMAX
 10
279.000001242154
 20
399.9564286977796
 30
0.0
  9
$LIMMIN
 10
0.0
 20
0.0
  9
$LIMMAX
 10
420.0
 20
297.0
  9
$ORTHOMODE
 70
     0
  9
$REGENMODE
 70
     1
  9
$FILLMODE
 70
     1
  9
$QTEXTMODE
 70
     0
  9
$MIRRTEXT
 70
     1
  9
$DRAGMODE
 70
     2
  9
$LTSCALE
 40
1.0
  9
$OSMODE
 70
    55
  9
$ATTMODE
 70
     1
  9
$TEXTSIZE
 40
2.5
  9
$TRACEWID
 40
1.0
  9
$TEXTSTYLE
  7
STANDARD
  9
$CLAYER
  8
0
  9
$CELTYPE
  6
BYLAYER
  9
$CECOLOR
 62
   256
  9
$CELTSCALE
 40
1.0
  9
$DELOBJ
 70
     1
  9
$DISPSILH
 70
     0
  9
$DIMSCALE
 40
1.0
  9
$DIMASZ
 40
2.5
  9
$DIMEXO
 40
0.625
  9
$DIMDLI
 40
3.75
  9
$DIMRND
 40
0.0
  9
$DIMDLE
 40
0.0
  9
$DIMEXE
 40
1.25
  9
$DIMTP
 40
0.0
  9
$DIMTM
 40
0.0
  9
$DIMTXT
 40
2.5
  9
$DIMCEN
 40
2.5
  9
$DIMTSZ
 40
0.0
  9
$DIMTOL
 70
     0
  9
$DIMLIM
 70
     0
  9
$DIMTIH
 70
     0
  9
$DIMTOH
 70
     0
  9
$DIMSE1
 70
     0
  9
$DIMSE2
 70
     0
  9
$DIMTAD
 70
     1
  9
$DIMZIN
 70
     8
  9
$DIMBLK
  1

  9
$DIMASO
 70
     1
  9
$DIMSHO
 70
     1
  9
$DIMPOST
  1

  9
$DIMAPOST
  1

  9
$DIMALT
 70
     0
  9
$DIMALTD
 70
     3
  9
$DIMALTF
 40
0.03937007874016
  9
$DIMLFAC
 40
1.0
  9
$DIMTOFL
 70
     1
  9
$DIMTVP
 40
0.0
  9
$DIMTIX
 70
     0
  9
$DIMSOXD
 70
     0
  9
$DIMSAH
 70
     0
  9
$DIMBLK1
  1

  9
$DIMBLK2
  1

  9
$DIMSTYLE
  2
ISO-25
  9
$DIMCLRD
 70
     0
  9
$DIMCLRE
 70
     0
  9
$DIMCLRT
 70
     0
  9
$DIMTFAC
 40
1.0
  9
$DIMGAP
 40
0.625
  9
$DIMJUST
 70
     0
  9
$DIMSD1
 70
     0
  9
$DIMSD2
 70
     0
  9
$DIMTOLJ
 70
     0
  9
$DIMTZIN
 70
     8
  9
$DIMALTZ
 70
     0
  9
$DIMALTTZ
 70
     0
  9
$DIMFIT
 70
     3
  9
$DIMUPT
 70
     0
  9
$DIMUNIT
 70
     2
  9
$DIMDEC
 70
     2
  9
$DIMTDEC
 70
     2
  9
$DIMALTU
 70
     2
  9
$DIMALTTD
 70
     3
  9
$DIMTXSTY
  7
STANDARD
  9
$DIMAUNIT
 70
     0
  9
$LUNITS
 70
     2
  9
$LUPREC
 70
     4
  9
$SKETCHINC
 40
1.0
  9
$FILLETRAD
 40
10.0
  9
$AUNITS
 70
     0
  9
$AUPREC
 70
     0
  9
$MENU
  1
.
  9
$ELEVATION
 40
0.0
  9
$PELEVATION
 40
0.0
  9
$THICKNESS
 40
0.0
  9
$LIMCHECK
 70
     0
  9
$BLIPMODE
 70
     0
  9
$CHAMFERA
 40
10.0
  9
$CHAMFERB
 40
10.0
  9
$CHAMFERC
 40
20.0
  9
$CHAMFERD
 40
0.0
  9
$SKPOLY
 70
     0
  9
$TDCREATE
 40
2455874.790112083
  9
$TDUPDATE
 40
2456013.763194884
  9
$TDINDWG
 40
0.0037579282
  9
$TDUSRTIMER
 40
0.0037566667
  9
$USRTIMER
 70
     1
  9
$ANGBASE
 50
0.0
  9
$ANGDIR
 70
     0
  9
$PDMODE
 70
     0
  9
$PDSIZE
 40
0.0
  9
$PLINEWID
 40
0.0
  9
$COORDS
 70
     1
  9
$SPLFRAME
 70
     0
  9
$SPLINETYPE
 70
     6
  9
$SPLINESEGS
 70
     8
  9
$ATTDIA
 70
     0
  9
$ATTREQ
 70
     1
  9
$HANDLING
 70
 22529
  9
$HANDSEED
  5
C06
  9
$SURFTAB1
 70
     6
  9
$SURFTAB2
 70
     6
  9
$SURFTYPE
 70
     6
  9
$SURFU
 70
     6
  9
$SURFV
 70
     6
  9
$UCSNAME
  2

  9
$UCSORG
 10
0.0
 20
0.0
 30
0.0
  9
$UCSXDIR
 10
1.0
 20
0.0
 30
0.0
  9
$UCSYDIR
 10
0.0
 20
1.0
 30
0.0
  9
$PUCSNAME
  2

  9
$PUCSORG
 10
0.0
 20
0.0
 30
0.0
  9
$PUCSXDIR
 10
1.0
 20
0.0
 30
0.0
  9
$PUCSYDIR
 10
0.0
 20
1.0
 30
0.0
  9
$USERI1
 70
     0
  9
$USERI2
 70
     0
  9
$USERI3
 70
     0
  9
$USERI4
 70
     0
  9
$USERI5
 70
     0
  9
$USERR1
 40
0.0
  9
$USERR2
 40
0.0
  9
$USERR3
 40
0.0
  9
$USERR4
 40
0.0
  9
$USERR5
 40
0.0
  9
$WORLDVIEW
 70
     1
  9
$SHADEDGE
 70
     3
  9
$SHADEDIF
 70
    70
  9
$TILEMODE
 70
     1
  9
$MAXACTVP
 70
    64
  9
$PINSBASE
 10
0.0
 20
0.0
 30
0.0
  9
$PLIMCHECK
 70
     0
  9
$PEXTMIN
 10
1.000000000000000E+20
 20
1.000000000000000E+20
 30
1.000000000000000E+20
  9
$PEXTMAX
 10
-1.000000000000000E+20
 20
-1.000000000000000E+20
 30
-1.000000000000000E+20
  9
$PLIMMIN
 10
0.0
 20
0.0
  9
$PLIMMAX
 10
420.0
 20
297.0
  9
$UNITMODE
 70
     0
  9
$VISRETAIN
 70
     1
  9
$PLINEGEN
 70
     0
  9
$PSLTSCALE
 70
     1
  9
$TREEDEPTH
 70
  3020
  9
$PICKSTYLE
 70
     1
  9
$CMLSTYLE
  2
STANDARD
  9
$CMLJUST
 70
     0
  9
$CMLSCALE
 40
20.0
  9
$PROXYGRAPHICS
 70
     1
  9
$MEASUREMENT
 70
     1
  0
ENDSEC
  0
SECTION
  2
CLASSES
  0
CLASS
  1
ACDBDICTIONARYWDFLT
  2
AcDbDictionaryWithDefault
  3
AutoCAD 2000
 90
        0
280
     0
281
     0
  0
CLASS
  1
ACDBPLACEHOLDER
  2
AcDbPlaceHolder
  3
AutoCAD 2000
 90
        0
280
     0
281
     0
  0
CLASS
  1
LAYOUT
  2
AcDbLayout
  3
AutoCAD 2000
 90
        0
280
     0
281
     0
  0
CLASS
  1
DICTIONARYVAR
  2
AcDbDictionaryVar
  3
AutoCAD 2000
 90
        0
280
     0
281
     0
  0
CLASS
  1
LONG_TRANSACTION
  2
AcDbLongTransaction
  3
AutoCAD 2000
 90
        0
280
     0
281
     0
  0
CLASS
  1
LWPOLYLINE
  2
AcDbPolyline
  3
AutoCAD 2000
 90
        0
280
     0
281
     1
  0
CLASS
  1
HATCH
  2
AcDbHatch
  3
AutoCAD 2000
 90
        0
280
     0
281
     1
  0
CLASS
  1
XRECORD
  2
AcDbXrecord
  3
AutoCAD 2000
 90
        0
280
     0
281
     0
  0
CLASS
  1
LONG_TRANSACTION
  2
AcDbLongTransaction
  3
AutoCAD 2000
 90
        0
280
     0
281
     0
  0
CLASS
  1
LWPOLYLINE
  2
AcDbPolyline
  3
AutoCAD 2000
 90
        0
280
     0
281
     1
  0
CLASS
  1
HATCH
  2
AcDbHatch
  3
AutoCAD 2000
 90
        0
280
     0
281
     1
  0
CLASS
  1
XRECORD
  2
AcDbXrecord
  3
AutoCAD 2000
 90
        0
280
     0
281
     0
  0
CLASS
  1
LONG_TRANSACTION
  2
AcDbLongTransaction
  3
AutoCAD 2000
 90
        0
280
     0
281
     0
  0
CLASS
  1
LWPOLYLINE
  2
AcDbPolyline
  3
AutoCAD 2000
 90
        0
280
     0
281
     1
  0
CLASS
  1
HATCH
  2
AcDbHatch
  3
AutoCAD 2000
 90
        0
280
     0
281
     1
  0
CLASS
  1
XRECORD
  2
AcDbXrecord
  3
AutoCAD 2000
 90
        0
280
     0
281
     0
  0
CLASS
  1
LONG_TRANSACTION
  2
AcDbLongTransaction
  3
AutoCAD 2000
 90
        0
280
     0
281
     0
  0
CLASS
  1
LWPOLYLINE
  2
AcDbPolyline
  3
AutoCAD 2000
 90
        0
280
     0
281
     1
  0
CLASS
  1
HATCH
  2
AcDbHatch
  3
AutoCAD 2000
 90
        0
280
     0
281
     1
  0
CLASS
  1
XRECORD
  2
AcDbXrecord
  3
AutoCAD 2000
 90
        0
280
     0
281
     0
  0
CLASS
  1
LONG_TRANSACTION
  2
AcDbLongTransaction
  3
AutoCAD 2000
 90
        0
280
     0
281
     0
  0
CLASS
  1
LWPOLYLINE
  2
AcDbPolyline
  3
AutoCAD 2000
 90
        0
280
     0
281
     1
  0
CLASS
  1
HATCH
  2
AcDbHatch
  3
AutoCAD 2000
 90
        0
280
     0
281
     1
  0
CLASS
  1
XRECORD
  2
AcDbXrecord
  3
AutoCAD 2000
 90
        0
280
     0
281
     0
  0
CLASS
  1
LONG_TRANSACTION
  2
AcDbLongTransaction
  3
AutoCAD 2000
 90
        0
280
     0
281
     0
  0
CLASS
  1
LWPOLYLINE
  2
AcDbPolyline
  3
AutoCAD 2000
 90
        0
280
     0
281
     1
  0
CLASS
  1
HATCH
  2
AcDbHatch
  3
AutoCAD 2000
 90
        0
280
     0
281
     1
  0
CLASS
  1
XRECORD
  2
AcDbXrecord
  3
AutoCAD 2000
 90
        0
280
     0
281
     0
  0
ENDSEC
  0
SECTION
  2
TABLES
  0
TABLE
  2
VPORT
  5
8
330
0
100
AcDbSymbolTable
 70
     2
  0
VPORT
  5
BE3
330
8
100
AcDbSymbolTableRecord
100
AcDbViewportTableRecord
  2
*ACTIVE
 70
     0
 10
0.0
 20
0.0
 11
1.0
 21
1.0
 12
137.8221139309723
 22
199.9819343451898
 13
0.0
 23
0.0
 14
10.0
 24
10.0
 15
10.0
 25
10.0
 16
0.0
 26
0.0
 36
1.0
 17
0.0
 27
0.0
 37
0.0
 40
402.8944850018183
 41
1.46415552855407
 42
50.0
 43
0.0
 44
0.0
 50
0.0
 51
0.0
 71
     0
 72
   100
 73
     1
 74
     3
 75
     0
 76
     0
 77
     0
 78
     0
  0
ENDTAB
  0
TABLE
  2
LTYPE
  5
5
330
0
100
AcDbSymbolTable
 70
     2
  0
LTYPE
  5
14
330
5
100
AcDbSymbolTableRecord
100
AcDbLinetypeTableRecord
  2
BYBLOCK
 70
     0
  3

 72
    65
 73
     0
 40
0.0
  0
LTYPE
  5
15
330
5
100
AcDbSymbolTableRecord
100
AcDbLinetypeTableRecord
  2
BYLAYER
 70
     0
  3

 72
    65
 73
     0
 40
0.0
  0
LTYPE
  5
16
330
5
100
AcDbSymbolTableRecord
100
AcDbLinetypeTableRecord
  2
CONTINUOUS
 70
     0
  3
Solid line
 72
    65
 73
     0
 40
0.0
  0
LTYPE
  5
2AC
330
5
100
AcDbSymbolTableRecord
100
AcDbLinetypeTableRecord
  2
CENTER
 70
     0
  3
__ . __ . __ . __ . __ . __ . __ . __ . __ . __
 72
    65
 73
     4
 40
1.0
 49
0.5
 74
     0
 49
-0.25
 74
     0
 49
0.0
 74
     0
 49
-0.25
 74
     0
  0
ENDTAB
  0
TABLE
  2
LAYER
  5
2
102
{ACAD_XDICTIONARY
360
2B2
102
}
330
0
100
AcDbSymbolTable
 70
     3
  0
LAYER
  5
10
330
2
100
AcDbSymbolTableRecord
100
AcDbLayerTableRecord
  2
0
 70
     0
 62
     7
  6
CONTINUOUS
  0
LAYER
  5
2AE
330
2
100
AcDbSymbolTableRecord
100
AcDbLayerTableRecord
  2
DEFPOINTS
 70
     0
 62
    -7
  6
CONTINUOUS
  0
LAYER
  5
2AF
330
2
100
AcDbSymbolTableRecord
100
AcDbLayerTableRecord
  2
1
 70
     0
 62
     3
  6
CONTINUOUS
  0
ENDTAB
  0
TABLE
  2
STYLE
  5
3
330
0
100
AcDbSymbolTable
 70
     1
  0
STYLE
  5
11
330
3
100
AcDbSymbolTableRecord
100
AcDbTextStyleTableRecord
  2
STANDARD
 70
     0
 40
0.0
 41
1.0
 50
0.0
 71
     0
 42
2.5
  3
txt
  4

  0
ENDTAB
  0
TABLE
  2
VIEW
  5
6
330
0
100
AcDbSymbolTable
 70
     0
  0
ENDTAB
  0
TABLE
  2
UCS
  5
7
330
0
100
AcDbSymbolTable
 70
     0
  0
ENDTAB
  0
TABLE
  2
APPID
  5
9
330
0
100
AcDbSymbolTable
 70
     1
  0
APPID
  5
12
330
9
100
AcDbSymbolTableRecord
100
AcDbRegAppTableRecord
  2
ACAD
 70
     0
  0
ENDTAB
  0
TABLE
  2
DIMSTYLE
  5
A
330
0
100
AcDbSymbolTable
 70
     2
  0
DIMSTYLE
105
27
330
A
100
AcDbSymbolTableRecord
100
AcDbDimStyleTableRecord
  2
ISO-25
 70
     0
  3

  4

  5

  6

  7

 40
1.0
 41
2.5
 42
0.625
 43
3.75
 44
1.25
 45
0.0
 46
0.0
 47
0.0
 48
0.0
140
2.5
141
2.5
142
0.0
143
0.03937007874016
144
1.0
145
0.0
146
1.0
147
0.625
 71
     0
 72
     0
 73
     0
 74
     0
 75
     0
 76
     0
 77
     1
 78
     8
170
     0
171
     3
172
     1
173
     0
174
     0
175
     0
176
     0
177
     0
178
     0
270
     2
271
     2
272
     2
273
     2
274
     3
340
11
275
     0
280
     0
281
     0
282
     0
283
     0
284
     8
285
     0
286
     0
287
     3
288
     0
  0
DIMSTYLE
105
2B1
330
A
100
AcDbSymbolTableRecord
100
AcDbDimStyleTableRecord
  2
STANDARD
 70
     0
  3

  4

  5

  6

  7

 40
1.0
 41
2.5
 42
0.625
 43
3.75
 44
1.25
 45
0.0
 46
0.0
 47
0.0
 48
0.0
140
2.5
141
2.5
142
0.0
143
0.0394
144
1.0
145
0.0
146
1.0
147
0.625
 71
     0
 72
     0
 73
     0
 74
     0
 75
     0
 76
     0
 77
     1
 78
     8
170
     0
171
     4
172
     1
173
     0
174
     0
175
     0
176
     0
177
     0
178
     0
270
     2
271
     4
272
     4
273
     8
274
     4
340
11
275
     0
280
     0
281
     0
282
     0
283
     1
284
     0
285
     0
286
     0
287
     3
288
     0
  0
ENDTAB
  0
TABLE
  2
BLOCK_RECORD
  5
1
330
0
100
AcDbSymbolTable
 70
     4
  0
BLOCK_RECORD
  5
1F
102
{ACAD_XDICTIONARY
360
B35
102
}
330
1
100
AcDbSymbolTableRecord
100
AcDbBlockTableRecord
  2
*MODEL_SPACE
  0
BLOCK_RECORD
  5
1B
102
{ACAD_XDICTIONARY
360
B33
102
}
330
1
100
AcDbSymbolTableRecord
100
AcDbBlockTableRecord
  2
*PAPER_SPACE
  0
BLOCK_RECORD
  5
2B
330
1
100
AcDbSymbolTableRecord
100
AcDbBlockTableRecord
  2
A$C35844AFD
  0
BLOCK_RECORD
  5
160
330
1
100
AcDbSymbolTableRecord
100
AcDbBlockTableRecord
  2
A$C413B70EE
  0
BLOCK_RECORD
  5
232
330
1
100
AcDbSymbolTableRecord
100
AcDbBlockTableRecord
  2
A$C40301A48
  0
BLOCK_RECORD
  5
236
330
1
100
AcDbSymbolTableRecord
100
AcDbBlockTableRecord
  2
A$C5CFD6E8C
  0
ENDTAB
  0
ENDSEC
  0
SECTION
  2
BLOCKS
  0
BLOCK
  5
20
330
1F
100
AcDbEntity
  8
0
100
AcDbBlockBegin
  2
*MODEL_SPACE
 70
     0
 10
0.0
 20
0.0
 30
0.0
  3
*MODEL_SPACE
  1

  0
ENDBLK
  5
21
330
1F
100
AcDbEntity
  8
0
100
AcDbBlockEnd
  0
BLOCK
  5
1C
330
1B
100
AcDbEntity
 67
     1
  8
0
100
AcDbBlockBegin
  2
*PAPER_SPACE
 70
     0
 10
0.0
 20
0.0
 30
0.0
  3
*PAPER_SPACE
  1

  0
ENDBLK
  5
1D
330
1B
100
AcDbEntity
 67
     1
  8
0
100
AcDbBlockEnd
  0
BLOCK
  5
15E
330
2B
100
AcDbEntity
  8
0
100
AcDbBlockBegin
  2
A$C35844AFD
 70
     0
 10
0.0
 20
0.0
 30
0.0
  3
A$C35844AFD
  1

  0
LINE
  5
2C
330
2B
100
AcDbEntity
  8
0
100
AcDbLine
 10
26.70871065379236
 20
4.379166399082007
 30
0.0
 11
26.70871065379236
 21
21.97381495444607
 31
0.0
  0
LINE
  5
2D
330
2B
100
AcDbEntity
  8
0
100
AcDbLine
 10
31.29128634874739
 20
4.259167431349053
 30
0.0
 11
31.29128634874739
 21
21.97381495444505
 31
0.0
  0
LINE
  5
2E
330
2B
100
AcDbEntity
  8
0
100
AcDbLine
 10
5.999998501270398
 20
4.92144311130704
 30
0.0
 11
5.999998501270398
 21
20.97381495444506
 31
0.0
  0
LINE
  5
2F
330
2B
100
AcDbEntity
  8
0
100
AcDbLine
 10
4.999998501270396
 20
21.00000087601403
 30
0.0
 11
4.999998501270396
 21
4.973814954444033
 31
0.0
  0
LINE
  5
30
330
2B
100
AcDbEntity
  8
0
100
AcDbLine
 10
-0.0000014987296026
 20
21.419667635221
 30
0.0
 11
-0.0000014987296026
 21
0.0000008760140418
 31
0.0
  0
LINE
  5
31
330
2B
100
AcDbEntity
  8
0
100
AcDbLine
 10
57.9999985012704
 20
3.585961111277015
 30
0.0
 11
57.9999985012704
 21
120.973814954445
 31
0.0
  0
LINE
  5
32
330
2B
100
AcDbEntity
  8
0
100
AcDbLine
 10
53.4999985012704
 20
86.97381495444506
 30
0.0
 11
53.4999985012704
 21
91.97381495444506
 31
0.0
  0
LINE
  5
33
330
2B
100
AcDbEntity
  8
0
100
AcDbLine
 10
54.49999850127039
 20
96.97381495444506
 30
0.0
 11
54.49999850127039
 21
70.97381495444506
 31
0.0
  0
LINE
  5
34
330
2B
100
AcDbEntity
  8
0
100
AcDbLine
 10
33.49999850127039
 20
70.97381495444506
 30
0.0
 11
33.49999850127039
 21
96.97381495444506
 31
0.0
  0
ARC
  5
35
330
2B
100
AcDbEntity
  8
0
100
AcDbCircle
 10
2.399998501270374
 20
89.31966763522103
 30
0.0
 40
0.6
100
AcDbArc
 50
0.0
 51
88.09084756699943
  0
LINE
  5
36
330
2B
100
AcDbEntity
  8
0
100
AcDbLine
 10
5.999998501270398
 20
82.97381495444602
 30
0.0
 11
5.999998501270398
 21
109.605734381143
 31
0.0
  0
LINE
  5
37
330
2B
100
AcDbEntity
  8
0
100
AcDbLine
 10
4.999998501270396
 20
110.471019933888
 30
0.0
 11
4.999998501270396
 21
83.00000087601405
 31
0.0
  0
LINE
  5
38
330
2B
100
AcDbEntity
  8
0
100
AcDbLine
 10
56.99999850127039
 20
21.97381495444505
 30
0.0
 11
56.99999850127039
 21
103.9738149544449
 31
0.0
  0
LINE
  5
39
330
2B
100
AcDbEntity
  8
0
100
AcDbLine
 10
15.99999850127039
 20
103.9738149544449
 30
0.0
 11
15.99999850127039
 21
21.97381495444505
 31
0.0
  0
LINE
  5
3A
330
2B
100
AcDbEntity
  8
0
100
AcDbLine
 10
28.19999850127038
 20
105.473814954445
 30
0.0
 11
19.99999850127039
 21
105.473814954445
 31
0.0
  0
LINE
  5
3B
330
2B
100
AcDbEntity
  8
0
100
AcDbLine
 10
19.99999850127039
 20
117.4738149544449
 30
0.0
 11
28.19999850127038
 21
117.4738149544449
 31
0.0
  0
LINE
  5
3C
330
2B
100
AcDbEntity
  8
0
100
AcDbLine
 10
19.99999850127039
 20
109.473814954445
 30
0.0
 11
23.19999850127037
 21
109.473814954445
 31
0.0
  0
LINE
  5
3D
330
2B
100
AcDbEntity
  8
0
100
AcDbLine
 10
19.99999850127039
 20
113.4738149544449
 30
0.0
 11
23.19999850127037
 21
113.4738149544449
 31
0.0
  0
LINE
  5
3E
330
2B
100
AcDbEntity
  8
0
100
AcDbLine
 10
32.9999985012704
 20
89.97381495444503
 30
0.0
 11
15.99999850127039
 21
89.97381495444503
 31
0.0
  0
LINE
  5
3F
330
2B
100
AcDbEntity
  8
0
100
AcDbLine
 10
32.9999985012704
 20
91.97381495444506
 30
0.0
 11
15.99999850127039
 21
91.97381495444506
 31
0.0
  0
LINE
  5
40
330
2B
100
AcDbEntity
  8
0
100
AcDbLine
 10
56.99999850127039
 20
96.97381495444506
 30
0.0
 11
53.44722031511543
 21
96.97381495444506
 31
0.0
  0
LINE
  5
41
330
2B
100
AcDbEntity
  8
0
100
AcDbLine
 10
56.99999850127039
 20
98.97381495444506
 30
0.0
 11
53.44722031511543
 21
98.97381495444506
 31
0.0
  0
LINE
  5
42
330
2B
100
AcDbEntity
  8
0
100
AcDbLine
 10
15.99999850127039
 20
103.9738149544449
 30
0.0
 11
57.9999985012704
 21
103.9738149544449
 31
0.0
  0
LINE
  5
43
330
2B
100
AcDbEntity
  8
0
100
AcDbLine
 10
5.999998501270398
 20
120.973814954445
 30
0.0
 11
57.9999985012704
 21
120.973814954445
 31
0.0
  0
LINE
  5
44
330
2B
100
AcDbEntity
  8
0
100
AcDbLine
 10
19.99999850127039
 20
109.473814954445
 30
0.0
 11
19.99999850127039
 21
105.473814954445
 31
0.0
  0
LINE
  5
45
330
2B
100
AcDbEntity
  8
0
100
AcDbLine
 10
-0.0000014987296026
 20
90.58033411680609
 30
0.0
 11
-0.0000014987296026
 21
120.8952571897369
 31
0.0
  0
LINE
  5
46
330
2B
100
AcDbEntity
  8
0
100
AcDbLine
 10
7.999998501270398
 20
120.473814954445
 30
0.0
 11
7.999998501270398
 21
110.9738149544459
 31
0.0
  0
LINE
  5
47
330
2B
100
AcDbEntity
  8
0
100
AcDbLine
 10
8.999998501270397
 20
120.973814954445
 30
0.0
 11
8.999998501270397
 21
110.1347153232679
 31
0.0
  0
LINE
  5
48
330
2B
100
AcDbEntity
  8
0
100
AcDbLine
 10
7.999998501270398
 20
111.000000876014
 30
0.0
 11
7.999998501270398
 21
120.8952571897369
 31
0.0
  0
LINE
  5
49
330
2B
100
AcDbEntity
  8
0
100
AcDbLine
 10
5.999998501270398
 20
120.973814954445
 30
0.0
 11
5.999998501270398
 21
120.9476290328755
 31
0.0
  0
LINE
  5
4A
330
2B
100
AcDbEntity
  8
0
100
AcDbLine
 10
5.999998501270398
 20
120.973814954445
 30
0.0
 11
5.999998501270398
 21
120.9476290328759
 31
0.0
  0
LINE
  5
4B
330
2B
100
AcDbEntity
  8
0
100
AcDbLine
 10
7.999998501270398
 20
120.473814954445
 30
0.0
 11
8.999998501270397
 21
120.473814954445
 31
0.0
  0
LINE
  5
4C
330
2B
100
AcDbEntity
  8
0
100
AcDbLine
 10
3.999998501270396
 20
121.0000008760139
 30
0.0
 11
7.999998501270398
 21
120.8952571897369
 31
0.0
  0
LINE
  5
4D
330
2B
100
AcDbEntity
  8
0
100
AcDbLine
 10
-0.0000014987296026
 20
120.8952571897369
 30
0.0
 11
3.999998501270396
 21
121.0000008760139
 31
0.0
  0
LINE
  5
4E
330
2B
100
AcDbEntity
  8
0
100
AcDbLine
 10
4.999998501270396
 20
110.44483401232
 30
0.0
 11
7.999998501270398
 21
110.9738149544459
 31
0.0
  0
LINE
  5
4F
330
2B
100
AcDbEntity
  8
0
100
AcDbLine
 10
8.999998501270397
 20
110.1347153232679
 30
0.0
 11
5.999998501270398
 21
109.605734381143
 31
0.0
  0
LINE
  5
50
330
2B
100
AcDbEntity
  8
0
100
AcDbLine
 10
7.999998501270398
 20
111.000000876014
 30
0.0
 11
4.999998501270396
 21
110.471019933888
 31
0.0
  0
LINE
  5
51
330
2B
100
AcDbEntity
  8
0
100
AcDbLine
 10
19.99999850127039
 20
113.4738149544449
 30
0.0
 11
19.99999850127039
 21
117.4738149544449
 31
0.0
  0
LINE
  5
52
330
2B
100
AcDbEntity
  8
0
100
AcDbLine
 10
-0.0000014987296026
 20
98.41966763522108
 30
0.0
 11
-0.0000014987296026
 21
97.58033411680608
 31
0.0
  0
POINT
  5
53
330
2B
100
AcDbEntity
  8
0
100
AcDbPoint
 10
-0.0000014987296026
 20
99.00000087601302
 30
0.0
  0
POINT
  5
54
330
2B
100
AcDbEntity
  8
0
100
AcDbPoint
 10
2.999998501270396
 20
99.10000087601305
 30
0.0
  0
ARC
  5
55
330
2B
100
AcDbEntity
  8
0
100
AcDbCircle
 10
2.399998501270374
 20
99.68033411680506
 30
0.0
 40
0.6
100
AcDbArc
 50
271.909152432994
 51
0.0
  0
ARC
  5
56
330
2B
100
AcDbEntity
  8
0
100
AcDbCircle
 10
0.5999985012704201
 20
98.41966763522108
 30
0.0
 40
0.6
100
AcDbArc
 50
91.90915243299405
 51
180.0
  0
LINE
  5
57
330
2B
100
AcDbEntity
  8
0
100
AcDbLine
 10
2.419987399409365
 20
99.08066717261808
 30
0.0
 11
0.5800096031304065
 21
99.019334579409
 31
0.0
  0
LINE
  5
58
330
2B
100
AcDbEntity
  8
0
100
AcDbLine
 10
2.999998501270396
 20
103.319667635221
 30
0.0
 11
2.999998501270396
 21
99.68033411680506
 31
0.0
  0
POINT
  5
59
330
2B
100
AcDbEntity
  8
0
100
AcDbPoint
 10
2.999998501270396
 20
103.9000008760127
 30
0.0
  0
ARC
  5
5A
330
2B
100
AcDbEntity
  8
0
100
AcDbCircle
 10
0.5999985012704201
 20
104.5803341168058
 30
0.0
 40
0.6
100
AcDbArc
 50
180.0
 51
268.0908475670059
  0
LINE
  5
5B
330
2B
100
AcDbEntity
  8
0
100
AcDbLine
 10
0.5800096031304065
 20
103.980667172618
 30
0.0
 11
2.419987399409365
 21
103.919334579409
 31
0.0
  0
ARC
  5
5C
330
2B
100
AcDbEntity
  8
0
100
AcDbCircle
 10
2.399998501270374
 20
103.319667635221
 30
0.0
 40
0.6
100
AcDbArc
 50
0.0
 51
88.09084756699943
  0
POINT
  5
5D
330
2B
100
AcDbEntity
  8
0
100
AcDbPoint
 10
-0.0000014987296026
 20
90.00000087601405
 30
0.0
  0
ARC
  5
5E
330
2B
100
AcDbEntity
  8
0
100
AcDbCircle
 10
2.399998501270374
 20
92.68033411680503
 30
0.0
 40
0.6
100
AcDbArc
 50
271.909152432994
 51
0.0
  0
ARC
  5
5F
330
2B
100
AcDbEntity
  8
0
100
AcDbCircle
 10
0.5999985012704201
 20
91.41966763522106
 30
0.0
 40
0.6
100
AcDbArc
 50
91.90915243299405
 51
180.0
  0
ARC
  5
60
330
2B
100
AcDbEntity
  8
0
100
AcDbCircle
 10
0.5999985012693969
 20
90.58033411680609
 30
0.0
 40
0.6
100
AcDbArc
 50
180.0
 51
268.0908475670059
  0
LINE
  5
61
330
2B
100
AcDbEntity
  8
0
100
AcDbLine
 10
-0.0000014987296026
 20
91.41966763522106
 30
0.0
 11
-0.0000014987296026
 21
90.58033411680609
 31
0.0
  0
LINE
  5
62
330
2B
100
AcDbEntity
  8
0
100
AcDbLine
 10
0.5800096031304065
 20
89.98066717261805
 30
0.0
 11
2.419987399409365
 21
89.91933457940907
 31
0.0
  0
LINE
  5
63
330
2B
100
AcDbEntity
  8
0
100
AcDbLine
 10
2.419987399409365
 20
92.08066717261806
 30
0.0
 11
0.5800096031304065
 21
92.01933457940901
 31
0.0
  0
POINT
  5
64
330
2B
100
AcDbEntity
  8
0
100
AcDbPoint
 10
2.999998501270396
 20
96.90000087601299
 30
0.0
  0
POINT
  5
65
330
2B
100
AcDbEntity
  8
0
100
AcDbPoint
 10
-0.0000014987296026
 20
97.00000087601305
 30
0.0
  0
ARC
  5
66
330
2B
100
AcDbEntity
  8
0
100
AcDbCircle
 10
2.399998501270374
 20
96.31966763522104
 30
0.0
 40
0.6
100
AcDbArc
 50
0.0
 51
88.09084756699943
  0
ARC
  5
67
330
2B
100
AcDbEntity
  8
0
100
AcDbCircle
 10
0.5999985012704201
 20
97.58033411680608
 30
0.0
 40
0.6
100
AcDbArc
 50
180.0
 51
268.0908475670059
  0
LINE
  5
68
330
2B
100
AcDbEntity
  8
0
100
AcDbLine
 10
0.5800096031304065
 20
96.98066717261804
 30
0.0
 11
2.419987399409365
 21
96.91933457940905
 31
0.0
  0
LINE
  5
69
330
2B
100
AcDbEntity
  8
0
100
AcDbLine
 10
2.999998501270396
 20
96.31966763522104
 30
0.0
 11
2.999998501270396
 21
92.68033411680503
 31
0.0
  0
LINE
  5
6A
330
2B
100
AcDbEntity
  8
0
100
AcDbLine
 10
28.19999850127038
 20
105.473814954445
 30
0.0
 11
28.19999850127038
 21
117.4738149544449
 31
0.0
  0
LINE
  5
6B
330
2B
100
AcDbEntity
  8
0
100
AcDbLine
 10
23.19999850127037
 20
107.473814954445
 30
0.0
 11
25.19999850127037
 21
107.473814954445
 31
0.0
  0
LINE
  5
6C
330
2B
100
AcDbEntity
  8
0
100
AcDbLine
 10
23.19999850127037
 20
109.473814954445
 30
0.0
 11
23.19999850127037
 21
107.473814954445
 31
0.0
  0
LINE
  5
6D
330
2B
100
AcDbEntity
  8
0
100
AcDbLine
 10
23.19999850127037
 20
115.4738149544449
 30
0.0
 11
25.19999850127037
 21
115.4738149544449
 31
0.0
  0
LINE
  5
6E
330
2B
100
AcDbEntity
  8
0
100
AcDbLine
 10
23.19999850127037
 20
113.4738149544449
 30
0.0
 11
23.19999850127037
 21
115.4738149544449
 31
0.0
  0
LINE
  5
6F
330
2B
100
AcDbEntity
  8
0
100
AcDbLine
 10
25.19999850127037
 20
107.473814954445
 30
0.0
 11
25.19999850127037
 21
115.4738149544449
 31
0.0
  0
LINE
  5
70
330
2B
100
AcDbEntity
  8
0
100
AcDbLine
 10
33.49999850127039
 20
98.97381495444506
 30
0.0
 11
33.49999850127039
 21
103.9738149544449
 31
0.0
  0
LINE
  5
71
330
2B
100
AcDbEntity
  8
0
100
AcDbLine
 10
32.9999985012704
 20
89.97381495444503
 30
0.0
 11
32.9999985012704
 21
91.97381495444506
 31
0.0
  0
LINE
  5
72
330
2B
100
AcDbEntity
  8
0
100
AcDbLine
 10
55.9999985012704
 20
96.97381495444506
 30
0.0
 11
55.9999985012704
 21
98.97381495444506
 31
0.0
  0
LINE
  5
73
330
2B
100
AcDbEntity
  8
0
100
AcDbLine
 10
54.99999850127039
 20
96.97381495444506
 30
0.0
 11
54.99999850127039
 21
98.97381495444506
 31
0.0
  0
LINE
  5
74
330
2B
100
AcDbEntity
  8
0
100
AcDbLine
 10
54.49999850127039
 20
103.9738149544449
 30
0.0
 11
54.49999850127039
 21
98.97381495444506
 31
0.0
  0
ARC
  5
75
330
2B
100
AcDbEntity
  8
0
100
AcDbCircle
 10
52.9999985012704
 20
91.97381495444503
 30
0.0
 40
0.5
100
AcDbArc
 50
0.0
 51
26.56294527600439
  0
LINE
  5
76
330
2B
100
AcDbEntity
  8
0
100
AcDbLine
 10
55.9999985012704
 20
89.97381495444503
 30
0.0
 11
55.9999985012704
 21
91.97381495444506
 31
0.0
  0
LINE
  5
77
330
2B
100
AcDbEntity
  8
0
100
AcDbLine
 10
54.99999850127039
 20
89.97381495444503
 30
0.0
 11
54.99999850127039
 21
91.97381495444506
 31
0.0
  0
LINE
  5
78
330
2B
100
AcDbEntity
  8
0
100
AcDbLine
 10
56.99999850127039
 20
89.97381495444503
 30
0.0
 11
54.99999850127039
 21
89.97381495444503
 31
0.0
  0
LINE
  5
79
330
2B
100
AcDbEntity
  8
0
100
AcDbLine
 10
56.99999850127039
 20
91.97381495444506
 30
0.0
 11
54.99999850127039
 21
91.97381495444506
 31
0.0
  0
LINE
  5
7A
330
2B
100
AcDbEntity
  8
0
100
AcDbLine
 10
32.9999985012704
 20
47.97381495444507
 30
0.0
 11
15.99999850127039
 21
47.97381495444507
 31
0.0
  0
LINE
  5
7B
330
2B
100
AcDbEntity
  8
0
100
AcDbLine
 10
32.9999985012704
 20
49.97381495444507
 30
0.0
 11
15.99999850127039
 21
49.97381495444507
 31
0.0
  0
LINE
  5
7C
330
2B
100
AcDbEntity
  8
0
100
AcDbLine
 10
56.99999850127039
 20
26.97381495444505
 30
0.0
 11
15.99999850127039
 21
26.97381495444505
 31
0.0
  0
LINE
  5
7D
330
2B
100
AcDbEntity
  8
0
100
AcDbLine
 10
56.99999850127039
 20
28.97381495444506
 30
0.0
 11
15.99999850127039
 21
28.97381495444506
 31
0.0
  0
LINE
  5
7E
330
2B
100
AcDbEntity
  8
0
100
AcDbLine
 10
56.99999850127039
 20
33.97381495444505
 30
0.0
 11
15.99999850127039
 21
33.97381495444505
 31
0.0
  0
LINE
  5
7F
330
2B
100
AcDbEntity
  8
0
100
AcDbLine
 10
56.99999850127039
 20
35.97381495444506
 30
0.0
 11
15.99999850127039
 21
35.97381495444506
 31
0.0
  0
LINE
  5
80
330
2B
100
AcDbEntity
  8
0
100
AcDbLine
 10
56.99999850127039
 20
40.97381495444506
 30
0.0
 11
15.99999850127039
 21
40.97381495444506
 31
0.0
  0
LINE
  5
81
330
2B
100
AcDbEntity
  8
0
100
AcDbLine
 10
56.99999850127039
 20
42.97381495444507
 30
0.0
 11
15.99999850127039
 21
42.97381495444507
 31
0.0
  0
LINE
  5
82
330
2B
100
AcDbEntity
  8
0
100
AcDbLine
 10
56.99999850127039
 20
54.97381495444507
 30
0.0
 11
53.49999850127034
 21
54.97381495444507
 31
0.0
  0
LINE
  5
83
330
2B
100
AcDbEntity
  8
0
100
AcDbLine
 10
56.99999850127039
 20
56.97381495444506
 30
0.0
 11
53.49999850127034
 21
56.97381495444506
 31
0.0
  0
LINE
  5
84
330
2B
100
AcDbEntity
  8
0
100
AcDbLine
 10
56.99999850127039
 20
61.97381495444506
 30
0.0
 11
53.49999850127034
 21
61.97381495444506
 31
0.0
  0
LINE
  5
85
330
2B
100
AcDbEntity
  8
0
100
AcDbLine
 10
15.99999850127039
 20
21.97381495444505
 30
0.0
 11
57.9999985012704
 21
21.97381495444505
 31
0.0
  0
LINE
  5
86
330
2B
100
AcDbEntity
  8
0
100
AcDbLine
 10
32.9999985012704
 20
75.97381495444506
 30
0.0
 11
15.99999850127039
 21
75.97381495444506
 31
0.0
  0
LINE
  5
87
330
2B
100
AcDbEntity
  8
0
100
AcDbLine
 10
32.9999985012704
 20
77.97381495444506
 30
0.0
 11
15.99999850127039
 21
77.97381495444506
 31
0.0
  0
LINE
  5
88
330
2B
100
AcDbEntity
  8
0
100
AcDbLine
 10
32.9999985012704
 20
82.97381495444506
 30
0.0
 11
15.99999850127039
 21
82.97381495444506
 31
0.0
  0
LINE
  5
89
330
2B
100
AcDbEntity
  8
0
100
AcDbLine
 10
32.9999985012704
 20
84.97381495444505
 30
0.0
 11
15.99999850127039
 21
84.97381495444505
 31
0.0
  0
LINE
  5
8A
330
2B
100
AcDbEntity
  8
0
100
AcDbLine
 10
56.99999850127039
 20
63.97381495444506
 30
0.0
 11
53.49999850127034
 21
63.97381495444506
 31
0.0
  0
LINE
  5
8B
330
2B
100
AcDbEntity
  8
0
100
AcDbLine
 10
56.99999850127039
 20
68.97381495444506
 30
0.0
 11
53.49999850127034
 21
68.97381495444506
 31
0.0
  0
LINE
  5
8C
330
2B
100
AcDbEntity
  8
0
100
AcDbLine
 10
56.99999850127039
 20
70.97381495444506
 30
0.0
 11
53.49999850127034
 21
70.97381495444506
 31
0.0
  0
LINE
  5
8D
330
2B
100
AcDbEntity
  8
0
100
AcDbLine
 10
2.999998501270396
 20
54.31966763522105
 30
0.0
 11
2.999998501270396
 21
50.68033411680506
 31
0.0
  0
LINE
  5
8E
330
2B
100
AcDbEntity
  8
0
100
AcDbLine
 10
5.999998501270398
 20
32.97381495444602
 30
0.0
 11
5.999998501270398
 21
70.97381495444506
 31
0.0
  0
LINE
  5
8F
330
2B
100
AcDbEntity
  8
0
100
AcDbLine
 10
4.999998501270396
 20
71.00000087601405
 30
0.0
 11
4.999998501270396
 21
33.00000087601403
 31
0.0
  0
LINE
  5
90
330
2B
100
AcDbEntity
  8
0
100
AcDbLine
 10
2.999998501270396
 20
75.31966763522103
 30
0.0
 11
2.999998501270396
 21
71.68033411680507
 31
0.0
  0
LINE
  5
91
330
2B
100
AcDbEntity
  8
0
100
AcDbLine
 10
4.999998501270396
 20
71.00000087601301
 30
0.0
 11
4.999998501270396
 21
83.00000087601405
 31
0.0
  0
LINE
  5
92
330
2B
100
AcDbEntity
  8
0
100
AcDbLine
 10
4.499998501270396
 20
83.00000087601405
 30
0.0
 11
4.499998501270396
 21
71.00000087601405
 31
0.0
  0
LINE
  5
93
330
2B
100
AcDbEntity
  8
0
100
AcDbLine
 10
3.699998501270328
 20
83.00000087601405
 30
0.0
 11
3.699998501270328
 21
71.10000087601306
 31
0.0
  0
LINE
  5
94
330
2B
100
AcDbEntity
  8
0
100
AcDbLine
 10
9.699998501269419
 20
81.47381495444506
 30
0.0
 11
9.699998501269419
 21
72.47381495444506
 31
0.0
  0
LINE
  5
95
330
2B
100
AcDbEntity
  8
0
100
AcDbLine
 10
7.999998501269374
 20
81.47381495444506
 30
0.0
 11
7.999998501269374
 21
72.47381495444506
 31
0.0
  0
LINE
  5
96
330
2B
100
AcDbEntity
  8
0
100
AcDbLine
 10
9.499998501270397
 20
81.00000087601406
 30
0.0
 11
9.499998501270397
 21
73.00000087601405
 31
0.0
  0
LINE
  5
97
330
2B
100
AcDbEntity
  8
0
100
AcDbLine
 10
8.699998501270329
 20
81.00000087601406
 30
0.0
 11
8.699998501270329
 21
73.00000087601405
 31
0.0
  0
LINE
  5
98
330
2B
100
AcDbEntity
  8
0
100
AcDbLine
 10
8.09999850127042
 20
81.00000087601406
 30
0.0
 11
8.09999850127042
 21
73.00000087601405
 31
0.0
  0
LINE
  5
99
330
2B
100
AcDbEntity
  8
0
100
AcDbLine
 10
2.999998501270396
 20
82.31966763522104
 30
0.0
 11
2.999998501270396
 21
78.68033411680507
 31
0.0
  0
LINE
  5
9A
330
2B
100
AcDbEntity
  8
0
100
AcDbLine
 10
5.999998501270398
 20
82.97381495444602
 30
0.0
 11
4.999998501270396
 21
82.97381495444602
 31
0.0
  0
LINE
  5
9B
330
2B
100
AcDbEntity
  8
0
100
AcDbLine
 10
9.699998501269419
 20
81.47381495444506
 30
0.0
 11
7.999998501269374
 21
81.47381495444506
 31
0.0
  0
LINE
  5
9C
330
2B
100
AcDbEntity
  8
0
100
AcDbLine
 10
4.999998501270396
 20
83.00000087601405
 30
0.0
 11
3.699998501270328
 21
83.00000087601405
 31
0.0
  0
POINT
  5
9D
330
2B
100
AcDbEntity
  8
0
100
AcDbPoint
 10
-0.0000014987296026
 20
83.00000087601405
 30
0.0
  0
ARC
  5
9E
330
2B
100
AcDbEntity
  8
0
100
AcDbCircle
 10
2.399998501270374
 20
82.31966763522104
 30
0.0
 40
0.6
100
AcDbArc
 50
0.0
 51
88.09084756699943
  0
ARC
  5
9F
330
2B
100
AcDbEntity
  8
0
100
AcDbCircle
 10
2.399998501270374
 20
85.68033411680508
 30
0.0
 40
0.6
100
AcDbArc
 50
271.909152432994
 51
0.0
  0
LINE
  5
A0
330
2B
100
AcDbEntity
  8
0
100
AcDbLine
 10
9.499998501270397
 20
81.00000087601406
 30
0.0
 11
7.999998501269374
 21
81.00000087601406
 31
0.0
  0
ARC
  5
A1
330
2B
100
AcDbEntity
  8
0
100
AcDbCircle
 10
0.5999985012704201
 20
84.41966763522106
 30
0.0
 40
0.6
100
AcDbArc
 50
91.90915243299405
 51
180.0
  0
ARC
  5
A2
330
2B
100
AcDbEntity
  8
0
100
AcDbCircle
 10
0.5999985012704201
 20
83.58033411680606
 30
0.0
 40
0.6
100
AcDbArc
 50
180.0
 51
268.0908475670059
  0
LINE
  5
A3
330
2B
100
AcDbEntity
  8
0
100
AcDbLine
 10
-0.0000014987296026
 20
84.41966763522106
 30
0.0
 11
-0.0000014987296026
 21
83.58033411680606
 31
0.0
  0
LINE
  5
A4
330
2B
100
AcDbEntity
  8
0
100
AcDbLine
 10
0.5800096031304065
 20
82.98066717261804
 30
0.0
 11
2.419987399409365
 21
82.91933457940904
 31
0.0
  0
LINE
  5
A5
330
2B
100
AcDbEntity
  8
0
100
AcDbLine
 10
2.419987399409365
 20
85.08066717261806
 30
0.0
 11
0.5800096031304065
 21
85.01933457940902
 31
0.0
  0
LINE
  5
A6
330
2B
100
AcDbEntity
  8
0
100
AcDbLine
 10
2.999998501270396
 20
89.31966763522103
 30
0.0
 11
2.999998501270396
 21
85.68033411680508
 31
0.0
  0
LINE
  5
A7
330
2B
100
AcDbEntity
  8
0
100
AcDbLine
 10
9.699998501269419
 20
72.47381495444506
 30
0.0
 11
7.999998501269374
 21
72.47381495444506
 31
0.0
  0
POINT
  5
A8
330
2B
100
AcDbEntity
  8
0
100
AcDbPoint
 10
-0.0000014987296026
 20
76.00000087601405
 30
0.0
  0
ARC
  5
A9
330
2B
100
AcDbEntity
  8
0
100
AcDbCircle
 10
2.399998501270374
 20
75.31966763522103
 30
0.0
 40
0.6
100
AcDbArc
 50
0.0
 51
88.09084756699943
  0
ARC
  5
AA
330
2B
100
AcDbEntity
  8
0
100
AcDbCircle
 10
2.399998501270374
 20
78.68033411680507
 30
0.0
 40
0.6
100
AcDbArc
 50
271.909152432994
 51
0.0
  0
LINE
  5
AB
330
2B
100
AcDbEntity
  8
0
100
AcDbLine
 10
9.499998501270397
 20
73.00000087601405
 30
0.0
 11
7.999998501269374
 21
73.00000087601405
 31
0.0
  0
ARC
  5
AC
330
2B
100
AcDbEntity
  8
0
100
AcDbCircle
 10
0.5999985012704201
 20
77.41966763522106
 30
0.0
 40
0.6
100
AcDbArc
 50
91.90915243299405
 51
180.0
  0
ARC
  5
AD
330
2B
100
AcDbEntity
  8
0
100
AcDbCircle
 10
0.5999985012704201
 20
76.58033411680604
 30
0.0
 40
0.6
100
AcDbArc
 50
180.0
 51
268.0908475670059
  0
LINE
  5
AE
330
2B
100
AcDbEntity
  8
0
100
AcDbLine
 10
-0.0000014987296026
 20
77.41966763522106
 30
0.0
 11
-0.0000014987296026
 21
76.58033411680604
 31
0.0
  0
LINE
  5
AF
330
2B
100
AcDbEntity
  8
0
100
AcDbLine
 10
0.5800096031304065
 20
75.98066717261804
 30
0.0
 11
2.419987399409365
 21
75.91933457940905
 31
0.0
  0
LINE
  5
B0
330
2B
100
AcDbEntity
  8
0
100
AcDbLine
 10
2.419987399409365
 20
78.08066717261806
 30
0.0
 11
0.5800096031304065
 21
78.01933457940902
 31
0.0
  0
LINE
  5
B1
330
2B
100
AcDbEntity
  8
0
100
AcDbLine
 10
-0.0000014987296026
 20
64.61966763522207
 30
0.0
 11
-0.0000014987296026
 21
59.58033411680503
 31
0.0
  0
ARC
  5
B2
330
2B
100
AcDbEntity
  8
0
100
AcDbCircle
 10
0.5999985012693969
 20
64.41966763522106
 30
0.0
 40
0.6
100
AcDbArc
 50
91.90915243299405
 51
180.0
  0
LINE
  5
B3
330
2B
100
AcDbEntity
  8
0
100
AcDbLine
 10
0.5800096031304065
 20
65.01933457940904
 30
0.0
 11
2.999998501269373
 21
65.10000087601304
 31
0.0
  0
ARC
  5
B4
330
2B
100
AcDbEntity
  8
0
100
AcDbCircle
 10
0.5999985012693969
 20
64.61966763522207
 30
0.0
 40
0.6
100
AcDbArc
 50
91.90915243299405
 51
180.0
  0
LINE
  5
B5
330
2B
100
AcDbEntity
  8
0
100
AcDbLine
 10
0.5800096031304065
 20
65.21933457940908
 30
0.0
 11
2.999998501269373
 21
65.30000087601405
 31
0.0
  0
POINT
  5
B6
330
2B
100
AcDbEntity
  8
0
100
AcDbPoint
 10
-0.0000014987296026
 20
69.00000087601404
 30
0.0
  0
ARC
  5
B7
330
2B
100
AcDbEntity
  8
0
100
AcDbCircle
 10
2.399998501270374
 20
64.68033411680504
 30
0.0
 40
0.6
100
AcDbArc
 50
271.9091524329875
 51
0.0
  0
ARC
  5
B8
330
2B
100
AcDbEntity
  8
0
100
AcDbCircle
 10
2.399998501270374
 20
68.31966763522103
 30
0.0
 40
0.6
100
AcDbArc
 50
0.0
 51
88.09084756699943
  0
ARC
  5
B9
330
2B
100
AcDbEntity
  8
0
100
AcDbCircle
 10
0.5999985012704201
 20
69.58033411680606
 30
0.0
 40
0.6
100
AcDbArc
 50
180.0
 51
268.0908475670059
  0
ARC
  5
BA
330
2B
100
AcDbEntity
  8
0
100
AcDbCircle
 10
0.5999985012704201
 20
63.41966763522106
 30
0.0
 40
0.6
100
AcDbArc
 50
91.90915243299405
 51
180.0
  0
LINE
  5
BB
330
2B
100
AcDbEntity
  8
0
100
AcDbLine
 10
-0.0000014987296026
 20
70.41966763522106
 30
0.0
 11
-0.0000014987296026
 21
69.58033411680606
 31
0.0
  0
LINE
  5
BC
330
2B
100
AcDbEntity
  8
0
100
AcDbLine
 10
2.419987399409365
 20
64.08066717261807
 30
0.0
 11
0.5800096031304065
 21
64.01933457940903
 31
0.0
  0
LINE
  5
BD
330
2B
100
AcDbEntity
  8
0
100
AcDbLine
 10
2.999998501270396
 20
68.31966763522103
 30
0.0
 11
2.999998501270396
 21
64.68033411680504
 31
0.0
  0
LINE
  5
BE
330
2B
100
AcDbEntity
  8
0
100
AcDbLine
 10
0.5800096031304065
 20
68.98066717261804
 30
0.0
 11
2.419987399409365
 21
68.91933457940905
 31
0.0
  0
LINE
  5
BF
330
2B
100
AcDbEntity
  8
0
100
AcDbLine
 10
5.999998501270398
 20
70.97381495444506
 30
0.0
 11
4.999998501270396
 21
70.97381495444506
 31
0.0
  0
LINE
  5
C0
330
2B
100
AcDbEntity
  8
0
100
AcDbLine
 10
4.999998501270396
 20
71.00000087601405
 30
0.0
 11
3.699998501270328
 21
71.00000087601405
 31
0.0
  0
ARC
  5
C1
330
2B
100
AcDbEntity
  8
0
100
AcDbCircle
 10
2.399998501270374
 20
71.68033411680507
 30
0.0
 40
0.6
100
AcDbArc
 50
271.909152432994
 51
0.0
  0
LINE
  5
C2
330
2B
100
AcDbEntity
  8
0
100
AcDbLine
 10
2.419987399409365
 20
71.08066717261806
 30
0.0
 11
0.5800096031304065
 21
71.01933457940901
 31
0.0
  0
ARC
  5
C3
330
2B
100
AcDbEntity
  8
0
100
AcDbCircle
 10
0.5999985012693969
 20
70.41966763522106
 30
0.0
 40
0.6
100
AcDbArc
 50
91.90915243299405
 51
180.0
  0
ARC
  5
C4
330
2B
100
AcDbEntity
  8
0
100
AcDbCircle
 10
0.5999985012693969
 20
59.58033411680503
 30
0.0
 40
0.6
100
AcDbArc
 50
180.0
 51
268.0908475670059
  0
LINE
  5
C5
330
2B
100
AcDbEntity
  8
0
100
AcDbLine
 10
0.5800096031304065
 20
58.98066717261802
 30
0.0
 11
2.999998501269373
 21
58.90000087601305
 31
0.0
  0
POINT
  5
C6
330
2B
100
AcDbEntity
  8
0
100
AcDbPoint
 10
-0.0000014987296026
 20
55.00000087601302
 30
0.0
  0
POINT
  5
C7
330
2B
100
AcDbEntity
  8
0
100
AcDbPoint
 10
-0.0000014987296026
 20
62.00000087601302
 30
0.0
  0
ARC
  5
C8
330
2B
100
AcDbEntity
  8
0
100
AcDbCircle
 10
2.399998501270374
 20
57.68033411680505
 30
0.0
 40
0.6
100
AcDbArc
 50
271.909152432994
 51
0.0
  0
ARC
  5
C9
330
2B
100
AcDbEntity
  8
0
100
AcDbCircle
 10
2.399998501270374
 20
61.31966763522104
 30
0.0
 40
0.6
100
AcDbArc
 50
0.0
 51
88.09084756699943
  0
ARC
  5
CA
330
2B
100
AcDbEntity
  8
0
100
AcDbCircle
 10
0.5999985012704201
 20
62.58033411680606
 30
0.0
 40
0.6
100
AcDbArc
 50
180.0
 51
268.0908475670059
  0
ARC
  5
CB
330
2B
100
AcDbEntity
  8
0
100
AcDbCircle
 10
0.5999985012704201
 20
56.41966763522106
 30
0.0
 40
0.6
100
AcDbArc
 50
91.90915243299405
 51
180.0
  0
ARC
  5
CC
330
2B
100
AcDbEntity
  8
0
100
AcDbCircle
 10
0.5999985012704201
 20
55.58033411680606
 30
0.0
 40
0.6
100
AcDbArc
 50
180.0
 51
268.0908475670059
  0
LINE
  5
CD
330
2B
100
AcDbEntity
  8
0
100
AcDbLine
 10
-0.0000014987296026
 20
56.41966763522106
 30
0.0
 11
-0.0000014987296026
 21
55.58033411680606
 31
0.0
  0
LINE
  5
CE
330
2B
100
AcDbEntity
  8
0
100
AcDbLine
 10
0.5800096031304065
 20
54.98066717261803
 30
0.0
 11
2.419987399409365
 21
54.91933457940906
 31
0.0
  0
LINE
  5
CF
330
2B
100
AcDbEntity
  8
0
100
AcDbLine
 10
2.419987399409365
 20
57.08066717261806
 30
0.0
 11
0.5800096031304065
 21
57.01933457940903
 31
0.0
  0
LINE
  5
D0
330
2B
100
AcDbEntity
  8
0
100
AcDbLine
 10
2.999998501270396
 20
61.31966763522104
 30
0.0
 11
2.999998501270396
 21
57.68033411680505
 31
0.0
  0
LINE
  5
D1
330
2B
100
AcDbEntity
  8
0
100
AcDbLine
 10
0.5800096031304065
 20
61.98066717261802
 30
0.0
 11
2.419987399409365
 21
61.91933457940905
 31
0.0
  0
ARC
  5
D2
330
2B
100
AcDbEntity
  8
0
100
AcDbCircle
 10
2.399998501270374
 20
54.31966763522105
 30
0.0
 40
0.6
100
AcDbArc
 50
0.0
 51
88.09084756699943
  0
ARC
  5
D3
330
2B
100
AcDbEntity
  8
0
100
AcDbCircle
 10
2.399998501270374
 20
36.68033411680506
 30
0.0
 40
0.6
100
AcDbArc
 50
271.909152432994
 51
0.0
  0
LINE
  5
D4
330
2B
100
AcDbEntity
  8
0
100
AcDbLine
 10
2.999998501270396
 20
47.31966763522104
 30
0.0
 11
2.999998501270396
 21
43.68033411680506
 31
0.0
  0
POINT
  5
D5
330
2B
100
AcDbEntity
  8
0
100
AcDbPoint
 10
-0.0000014987296026
 20
48.00000087601404
 30
0.0
  0
ARC
  5
D6
330
2B
100
AcDbEntity
  8
0
100
AcDbCircle
 10
2.399998501270374
 20
47.31966763522104
 30
0.0
 40
0.6
100
AcDbArc
 50
0.0
 51
88.09084756699943
  0
ARC
  5
D7
330
2B
100
AcDbEntity
  8
0
100
AcDbCircle
 10
2.399998501270374
 20
50.68033411680506
 30
0.0
 40
0.6
100
AcDbArc
 50
271.909152432994
 51
0.0
  0
ARC
  5
D8
330
2B
100
AcDbEntity
  8
0
100
AcDbCircle
 10
0.5999985012693969
 20
49.41966763522106
 30
0.0
 40
0.6
100
AcDbArc
 50
91.90915243299405
 51
180.0
  0
ARC
  5
D9
330
2B
100
AcDbEntity
  8
0
100
AcDbCircle
 10
0.5999985012704201
 20
48.58033411680604
 30
0.0
 40
0.6
100
AcDbArc
 50
180.0
 51
268.0908475670059
  0
LINE
  5
DA
330
2B
100
AcDbEntity
  8
0
100
AcDbLine
 10
-0.0000014987296026
 20
49.41966763522106
 30
0.0
 11
-0.0000014987296026
 21
48.58033411680604
 31
0.0
  0
LINE
  5
DB
330
2B
100
AcDbEntity
  8
0
100
AcDbLine
 10
0.5800096031304065
 20
47.98066717261803
 30
0.0
 11
2.419987399409365
 21
47.91933457940904
 31
0.0
  0
LINE
  5
DC
330
2B
100
AcDbEntity
  8
0
100
AcDbLine
 10
2.419987399409365
 20
50.08066717261806
 30
0.0
 11
0.5800096031304065
 21
50.01933457940903
 31
0.0
  0
POINT
  5
DD
330
2B
100
AcDbEntity
  8
0
100
AcDbPoint
 10
-0.0000014987296026
 20
41.000000876013
 30
0.0
  0
ARC
  5
DE
330
2B
100
AcDbEntity
  8
0
100
AcDbCircle
 10
2.399998501270374
 20
40.31966763522103
 30
0.0
 40
0.6
100
AcDbArc
 50
0.0
 51
88.09084756699943
  0
ARC
  5
DF
330
2B
100
AcDbEntity
  8
0
100
AcDbCircle
 10
2.399998501270374
 20
43.68033411680506
 30
0.0
 40
0.6
100
AcDbArc
 50
271.909152432994
 51
0.0
  0
ARC
  5
E0
330
2B
100
AcDbEntity
  8
0
100
AcDbCircle
 10
0.5999985012693969
 20
42.41966763522106
 30
0.0
 40
0.6
100
AcDbArc
 50
91.90915243299405
 51
180.0
  0
ARC
  5
E1
330
2B
100
AcDbEntity
  8
0
100
AcDbCircle
 10
0.5999985012693969
 20
41.58033411680604
 30
0.0
 40
0.6
100
AcDbArc
 50
180.0
 51
268.0908475670059
  0
LINE
  5
E2
330
2B
100
AcDbEntity
  8
0
100
AcDbLine
 10
-0.0000014987296026
 20
42.41966763522106
 30
0.0
 11
-0.0000014987296026
 21
41.58033411680604
 31
0.0
  0
LINE
  5
E3
330
2B
100
AcDbEntity
  8
0
100
AcDbLine
 10
0.5800096031304065
 20
40.98066717261803
 30
0.0
 11
2.419987399409365
 21
40.91933457940903
 31
0.0
  0
LINE
  5
E4
330
2B
100
AcDbEntity
  8
0
100
AcDbLine
 10
2.419987399409365
 20
43.08066717261806
 30
0.0
 11
0.5800096031304065
 21
43.01933457940902
 31
0.0
  0
LINE
  5
E5
330
2B
100
AcDbEntity
  8
0
100
AcDbLine
 10
2.999998501270396
 20
40.31966763522103
 30
0.0
 11
2.999998501270396
 21
36.68033411680506
 31
0.0
  0
ARC
  5
E6
330
2B
100
AcDbEntity
  8
0
100
AcDbCircle
 10
0.5999985012693969
 20
27.58033411680605
 30
0.0
 40
0.6
100
AcDbArc
 50
180.0
 51
268.0908475670059
  0
LINE
  5
E7
330
2B
100
AcDbEntity
  8
0
100
AcDbLine
 10
9.699998501269419
 20
31.47381495444506
 30
0.0
 11
9.699998501269419
 21
22.47381495444505
 31
0.0
  0
LINE
  5
E8
330
2B
100
AcDbEntity
  8
0
100
AcDbLine
 10
7.999998501269374
 20
31.47381495444506
 30
0.0
 11
7.999998501269374
 21
22.47381495444505
 31
0.0
  0
LINE
  5
E9
330
2B
100
AcDbEntity
  8
0
100
AcDbLine
 10
4.999998501270396
 20
33.00000087601403
 30
0.0
 11
4.999998501270396
 21
21.00000087601301
 31
0.0
  0
LINE
  5
EA
330
2B
100
AcDbEntity
  8
0
100
AcDbLine
 10
4.499998501270396
 20
33.00000087601403
 30
0.0
 11
4.499998501270396
 21
21.00000087601403
 31
0.0
  0
LINE
  5
EB
330
2B
100
AcDbEntity
  8
0
100
AcDbLine
 10
3.699998501270328
 20
33.00000087601403
 30
0.0
 11
3.699998501270328
 21
21.10000087601302
 31
0.0
  0
LINE
  5
EC
330
2B
100
AcDbEntity
  8
0
100
AcDbLine
 10
9.499998501270397
 20
31.00000087601403
 30
0.0
 11
9.499998501270397
 21
23.00000087601403
 31
0.0
  0
LINE
  5
ED
330
2B
100
AcDbEntity
  8
0
100
AcDbLine
 10
8.699998501270329
 20
31.00000087601403
 30
0.0
 11
8.699998501270329
 21
23.00000087601403
 31
0.0
  0
LINE
  5
EE
330
2B
100
AcDbEntity
  8
0
100
AcDbLine
 10
8.09999850127042
 20
31.00000087601403
 30
0.0
 11
8.09999850127042
 21
23.00000087601403
 31
0.0
  0
ARC
  5
EF
330
2B
100
AcDbEntity
  8
0
100
AcDbCircle
 10
2.399998501270374
 20
29.68033411680505
 30
0.0
 40
0.6
100
AcDbArc
 50
271.909152432994
 51
0.0
  0
ARC
  5
F0
330
2B
100
AcDbEntity
  8
0
100
AcDbCircle
 10
0.5999985012704201
 20
28.41966763522099
 30
0.0
 40
0.6
100
AcDbArc
 50
91.90915243299405
 51
180.0
  0
LINE
  5
F1
330
2B
100
AcDbEntity
  8
0
100
AcDbLine
 10
-0.0000014987296026
 20
28.41966763522099
 30
0.0
 11
-0.0000014987296026
 21
27.58033411680605
 31
0.0
  0
LINE
  5
F2
330
2B
100
AcDbEntity
  8
0
100
AcDbLine
 10
2.419987399409365
 20
29.08066717261806
 30
0.0
 11
0.5800096031304065
 21
29.01933457940902
 31
0.0
  0
LINE
  5
F3
330
2B
100
AcDbEntity
  8
0
100
AcDbLine
 10
5.999998501270398
 20
32.97381495444602
 30
0.0
 11
4.999998501270396
 21
32.97381495444602
 31
0.0
  0
LINE
  5
F4
330
2B
100
AcDbEntity
  8
0
100
AcDbLine
 10
9.699998501269419
 20
31.47381495444506
 30
0.0
 11
7.999998501269374
 21
31.47381495444506
 31
0.0
  0
LINE
  5
F5
330
2B
100
AcDbEntity
  8
0
100
AcDbLine
 10
4.999998501270396
 20
33.00000087601403
 30
0.0
 11
3.699998501270328
 21
33.00000087601403
 31
0.0
  0
POINT
  5
F6
330
2B
100
AcDbEntity
  8
0
100
AcDbPoint
 10
-0.0000014987296026
 20
34.00000087601403
 30
0.0
  0
ARC
  5
F7
330
2B
100
AcDbEntity
  8
0
100
AcDbCircle
 10
2.399998501270374
 20
33.31966763522103
 30
0.0
 40
0.6
100
AcDbArc
 50
0.0
 51
88.09084756699943
  0
LINE
  5
F8
330
2B
100
AcDbEntity
  8
0
100
AcDbLine
 10
9.499998501270397
 20
31.00000087601403
 30
0.0
 11
7.999998501269374
 21
31.00000087601403
 31
0.0
  0
ARC
  5
F9
330
2B
100
AcDbEntity
  8
0
100
AcDbCircle
 10
0.5999985012693969
 20
35.41966763522106
 30
0.0
 40
0.6
100
AcDbArc
 50
91.90915243299405
 51
180.0
  0
ARC
  5
FA
330
2B
100
AcDbEntity
  8
0
100
AcDbCircle
 10
0.5999985012704201
 20
34.58033411680605
 30
0.0
 40
0.6
100
AcDbArc
 50
180.0
 51
268.0908475670059
  0
LINE
  5
FB
330
2B
100
AcDbEntity
  8
0
100
AcDbLine
 10
-0.0000014987296026
 20
35.41966763522106
 30
0.0
 11
-0.0000014987296026
 21
34.58033411680605
 31
0.0
  0
LINE
  5
FC
330
2B
100
AcDbEntity
  8
0
100
AcDbLine
 10
0.5800096031304065
 20
33.98066717261804
 30
0.0
 11
2.419987399409365
 21
33.91933457940905
 31
0.0
  0
LINE
  5
FD
330
2B
100
AcDbEntity
  8
0
100
AcDbLine
 10
2.419987399409365
 20
36.08066717261806
 30
0.0
 11
0.5800096031304065
 21
36.019334579409
 31
0.0
  0
LINE
  5
FE
330
2B
100
AcDbEntity
  8
0
100
AcDbLine
 10
2.999998501270396
 20
33.31966763522103
 30
0.0
 11
2.999998501270396
 21
29.68033411680505
 31
0.0
  0
LINE
  5
FF
330
2B
100
AcDbEntity
  8
0
100
AcDbLine
 10
5.999998501270398
 20
20.97381495444506
 30
0.0
 11
4.999998501270396
 21
20.97381495444506
 31
0.0
  0
LINE
  5
100
330
2B
100
AcDbEntity
  8
0
100
AcDbLine
 10
4.999998501270396
 20
21.00000087601403
 30
0.0
 11
3.699998501270328
 21
21.00000087601403
 31
0.0
  0
LINE
  5
101
330
2B
100
AcDbEntity
  8
0
100
AcDbLine
 10
9.699998501269419
 20
22.47381495444505
 30
0.0
 11
7.999998501269374
 21
22.47381495444505
 31
0.0
  0
POINT
  5
102
330
2B
100
AcDbEntity
  8
0
100
AcDbPoint
 10
-0.0000014987296026
 20
22.00000087601301
 30
0.0
  0
POINT
  5
103
330
2B
100
AcDbEntity
  8
0
100
AcDbPoint
 10
-0.0000014987296026
 20
27.00000087601301
 30
0.0
  0
ARC
  5
104
330
2B
100
AcDbEntity
  8
0
100
AcDbCircle
 10
2.499998501270396
 20
22.58361191000705
 30
0.0
 40
0.5
100
AcDbArc
 50
271.909152432994
 51
0.0
  0
ARC
  5
105
330
2B
100
AcDbEntity
  8
0
100
AcDbCircle
 10
2.399998501270374
 20
26.31966763522104
 30
0.0
 40
0.6
100
AcDbArc
 50
0.0
 51
88.09084756699943
  0
LINE
  5
106
330
2B
100
AcDbEntity
  8
0
100
AcDbLine
 10
9.499998501270397
 20
23.00000087601403
 30
0.0
 11
7.999998501269374
 21
23.00000087601403
 31
0.0
  0
LINE
  5
107
330
2B
100
AcDbEntity
  8
0
100
AcDbLine
 10
2.516655916386412
 20
22.08388945651705
 30
0.0
 11
0.5800096031304065
 21
22.01933457940902
 31
0.0
  0
LINE
  5
108
330
2B
100
AcDbEntity
  8
0
100
AcDbLine
 10
2.999998501270396
 20
26.31966763522104
 30
0.0
 11
2.999998501270396
 21
22.58361191000705
 31
0.0
  0
LINE
  5
109
330
2B
100
AcDbEntity
  8
0
100
AcDbLine
 10
0.5800096031304065
 20
26.98066717261804
 30
0.0
 11
2.419987399409365
 21
26.91933457940905
 31
0.0
  0
ARC
  5
10A
330
2B
100
AcDbEntity
  8
0
100
AcDbCircle
 10
0.5999985012704201
 20
21.419667635221
 30
0.0
 40
0.6
100
AcDbArc
 50
91.90915243299405
 51
180.0
  0
LINE
  5
10B
330
2B
100
AcDbEntity
  8
0
100
AcDbLine
 10
54.49999850127039
 20
54.97381495444507
 30
0.0
 11
54.49999850127039
 21
48.97381495444506
 31
0.0
  0
LINE
  5
10C
330
2B
100
AcDbEntity
  8
0
100
AcDbLine
 10
33.49999850127039
 20
48.97381495444506
 30
0.0
 11
33.49999850127039
 21
54.97381495444507
 31
0.0
  0
LINE
  5
10D
330
2B
100
AcDbEntity
  8
0
100
AcDbLine
 10
32.9999985012704
 20
82.97381495444506
 30
0.0
 11
32.9999985012704
 21
84.97381495444505
 31
0.0
  0
LINE
  5
10E
330
2B
100
AcDbEntity
  8
0
100
AcDbLine
 10
32.9999985012704
 20
75.97381495444506
 30
0.0
 11
32.9999985012704
 21
77.97381495444506
 31
0.0
  0
LINE
  5
10F
330
2B
100
AcDbEntity
  8
0
100
AcDbLine
 10
33.49999850127039
 20
63.97381495444506
 30
0.0
 11
33.49999850127039
 21
68.97381495444506
 31
0.0
  0
LINE
  5
110
330
2B
100
AcDbEntity
  8
0
100
AcDbLine
 10
33.49999850127039
 20
56.97381495444506
 30
0.0
 11
33.49999850127039
 21
61.97381495444506
 31
0.0
  0
LINE
  5
111
330
2B
100
AcDbEntity
  8
0
100
AcDbLine
 10
55.9999985012704
 20
82.97381495444506
 30
0.0
 11
55.9999985012704
 21
84.97381495444505
 31
0.0
  0
LINE
  5
112
330
2B
100
AcDbEntity
  8
0
100
AcDbLine
 10
54.99999850127039
 20
82.97381495444506
 30
0.0
 11
54.99999850127039
 21
84.97381495444505
 31
0.0
  0
LINE
  5
113
330
2B
100
AcDbEntity
  8
0
100
AcDbLine
 10
56.99999850127039
 20
82.97381495444506
 30
0.0
 11
54.99999850127039
 21
82.97381495444506
 31
0.0
  0
LINE
  5
114
330
2B
100
AcDbEntity
  8
0
100
AcDbLine
 10
56.99999850127039
 20
84.97381495444505
 30
0.0
 11
54.99999850127039
 21
84.97381495444505
 31
0.0
  0
LINE
  5
115
330
2B
100
AcDbEntity
  8
0
100
AcDbLine
 10
55.9999985012704
 20
75.97381495444506
 30
0.0
 11
55.9999985012704
 21
77.97381495444506
 31
0.0
  0
LINE
  5
116
330
2B
100
AcDbEntity
  8
0
100
AcDbLine
 10
54.99999850127039
 20
75.97381495444506
 30
0.0
 11
54.99999850127039
 21
77.97381495444506
 31
0.0
  0
LINE
  5
117
330
2B
100
AcDbEntity
  8
0
100
AcDbLine
 10
56.99999850127039
 20
75.97381495444506
 30
0.0
 11
54.99999850127039
 21
75.97381495444506
 31
0.0
  0
LINE
  5
118
330
2B
100
AcDbEntity
  8
0
100
AcDbLine
 10
56.99999850127039
 20
77.97381495444506
 30
0.0
 11
54.99999850127039
 21
77.97381495444506
 31
0.0
  0
LINE
  5
119
330
2B
100
AcDbEntity
  8
0
100
AcDbLine
 10
55.9999985012704
 20
61.97381495444506
 30
0.0
 11
55.9999985012704
 21
63.97381495444506
 31
0.0
  0
LINE
  5
11A
330
2B
100
AcDbEntity
  8
0
100
AcDbLine
 10
54.99999850127039
 20
61.97381495444506
 30
0.0
 11
54.99999850127039
 21
63.97381495444506
 31
0.0
  0
LINE
  5
11B
330
2B
100
AcDbEntity
  8
0
100
AcDbLine
 10
54.49999850127039
 20
68.97381495444506
 30
0.0
 11
54.49999850127039
 21
63.97381495444506
 31
0.0
  0
LINE
  5
11C
330
2B
100
AcDbEntity
  8
0
100
AcDbLine
 10
55.9999985012704
 20
68.97381495444506
 30
0.0
 11
55.9999985012704
 21
70.97381495444506
 31
0.0
  0
LINE
  5
11D
330
2B
100
AcDbEntity
  8
0
100
AcDbLine
 10
54.99999850127039
 20
68.97381495444506
 30
0.0
 11
54.99999850127039
 21
70.97381495444506
 31
0.0
  0
LINE
  5
11E
330
2B
100
AcDbEntity
  8
0
100
AcDbLine
 10
54.49999850127039
 20
61.97381495444506
 30
0.0
 11
54.49999850127039
 21
56.97381495444506
 31
0.0
  0
LINE
  5
11F
330
2B
100
AcDbEntity
  8
0
100
AcDbLine
 10
55.9999985012704
 20
54.97381495444507
 30
0.0
 11
55.9999985012704
 21
56.97381495444506
 31
0.0
  0
LINE
  5
120
330
2B
100
AcDbEntity
  8
0
100
AcDbLine
 10
54.99999850127039
 20
54.97381495444507
 30
0.0
 11
54.99999850127039
 21
56.97381495444506
 31
0.0
  0
LINE
  5
121
330
2B
100
AcDbEntity
  8
0
100
AcDbLine
 10
38.9999985012704
 20
49.97381495444507
 30
0.0
 11
48.9999985012704
 21
49.97381495444507
 31
0.0
  0
LINE
  5
122
330
2B
100
AcDbEntity
  8
0
100
AcDbLine
 10
54.49999850127039
 20
48.97381495444506
 30
0.0
 11
33.49999850127039
 21
48.97381495444506
 31
0.0
  0
LINE
  5
123
330
2B
100
AcDbEntity
  8
0
100
AcDbLine
 10
32.9999985012704
 20
47.97381495444507
 30
0.0
 11
32.9999985012704
 21
49.97381495444507
 31
0.0
  0
ARC
  5
124
330
2B
100
AcDbEntity
  8
0
100
AcDbCircle
 10
38.9999985012704
 20
50.47381495444507
 30
0.0
 40
0.5
100
AcDbArc
 50
251.374822272642
 51
270.0
  0
ARC
  5
125
330
2B
100
AcDbEntity
  8
0
100
AcDbCircle
 10
48.9999985012704
 20
50.47381495444507
 30
0.0
 40
0.5
100
AcDbArc
 50
270.0
 51
288.6251777273578
  0
LINE
  5
126
330
2B
100
AcDbEntity
  8
0
100
AcDbLine
 10
55.9999985012704
 20
47.97381495444507
 30
0.0
 11
55.9999985012704
 21
49.97381495444507
 31
0.0
  0
LINE
  5
127
330
2B
100
AcDbEntity
  8
0
100
AcDbLine
 10
54.99999850127039
 20
47.97381495444507
 30
0.0
 11
54.99999850127039
 21
49.97381495444507
 31
0.0
  0
LINE
  5
128
330
2B
100
AcDbEntity
  8
0
100
AcDbLine
 10
56.99999850127039
 20
47.97381495444507
 30
0.0
 11
54.99999850127039
 21
47.97381495444507
 31
0.0
  0
LINE
  5
129
330
2B
100
AcDbEntity
  8
0
100
AcDbLine
 10
56.99999850127039
 20
49.97381495444507
 30
0.0
 11
54.99999850127039
 21
49.97381495444507
 31
0.0
  0
LINE
  5
12A
330
2B
100
AcDbEntity
  8
0
100
AcDbLine
 10
55.9999985012704
 20
40.97381495444506
 30
0.0
 11
55.9999985012704
 21
42.97381495444507
 31
0.0
  0
LINE
  5
12B
330
2B
100
AcDbEntity
  8
0
100
AcDbLine
 10
54.99999850127039
 20
40.97381495444506
 30
0.0
 11
54.99999850127039
 21
42.97381495444507
 31
0.0
  0
LINE
  5
12C
330
2B
100
AcDbEntity
  8
0
100
AcDbLine
 10
55.9999985012704
 20
26.97381495444505
 30
0.0
 11
55.9999985012704
 21
28.97381495444506
 31
0.0
  0
LINE
  5
12D
330
2B
100
AcDbEntity
  8
0
100
AcDbLine
 10
54.99999850127039
 20
26.97381495444505
 30
0.0
 11
54.99999850127039
 21
28.97381495444506
 31
0.0
  0
LINE
  5
12E
330
2B
100
AcDbEntity
  8
0
100
AcDbLine
 10
55.9999985012704
 20
33.97381495444505
 30
0.0
 11
55.9999985012704
 21
35.97381495444506
 31
0.0
  0
LINE
  5
12F
330
2B
100
AcDbEntity
  8
0
100
AcDbLine
 10
54.99999850127039
 20
33.97381495444505
 30
0.0
 11
54.99999850127039
 21
35.97381495444506
 31
0.0
  0
LINE
  5
130
330
2B
100
AcDbEntity
  8
0
100
AcDbLine
 10
57.9999985012704
 20
3.585961111277015
 30
0.0
 11
4.999998501270396
 21
4.973814954445058
 31
0.0
  0
LINE
  5
131
330
2B
100
AcDbEntity
  8
0
100
AcDbLine
 10
3.999998501270396
 20
5.000000876014039
 30
0.0
 11
57.9999985012704
 21
3.585961111277015
 31
0.0
  0
LINE
  5
132
330
2B
100
AcDbEntity
  8
0
100
AcDbLine
 10
-0.0000014987296026
 20
0.0000008760140418
 30
0.0
 11
57.9999985012704
 21
0.0000008760140418
 31
0.0
  0
LINE
  5
133
330
2B
100
AcDbEntity
  8
0
100
AcDbLine
 10
3.999998501270396
 20
5.000000876014039
 30
0.0
 11
-0.0000014987296026
 21
4.895257189737034
 31
0.0
  0
LINE
  5
134
330
2B
100
AcDbEntity
  8
0
100
AcDbLine
 10
31.09999850127036
 20
3.800000876013028
 30
0.0
 11
31.09999850127036
 21
0.0000008760140418
 31
0.0
  0
LINE
  5
135
330
2B
100
AcDbEntity
  8
0
100
AcDbLine
 10
26.89999850126941
 20
3.800000876013028
 30
0.0
 11
26.89999850126941
 21
0.0000008760140418
 31
0.0
  0
LINE
  5
136
330
2B
100
AcDbEntity
  8
0
100
AcDbLine
 10
23.49999850127038
 20
3.800000876013028
 30
0.0
 11
34.49999850127039
 21
3.800000876013028
 31
0.0
  0
LINE
  5
137
330
2B
100
AcDbEntity
  8
0
100
AcDbLine
 10
23.49999850127038
 20
4.489375405414079
 30
0.0
 11
23.49999850127038
 21
3.800000876013028
 31
0.0
  0
LINE
  5
138
330
2B
100
AcDbEntity
  8
0
100
AcDbLine
 10
34.49999850127039
 20
4.201330268154038
 30
0.0
 11
34.49999850127039
 21
3.800000876013028
 31
0.0
  0
LINE
  5
139
330
2B
100
AcDbEntity
  8
0
100
AcDbLine
 10
57.9999985012704
 20
0.0000008760140418
 30
0.0
 11
57.9999985012704
 21
3.585961111277015
 31
0.0
  0
LINE
  5
13A
330
2B
100
AcDbEntity
  8
0
100
AcDbLine
 10
41.14999850127042
 20
120.973814954445
 30
0.0
 11
41.14999850127042
 21
124.3738149544449
 31
0.0
  0
LINE
  5
13B
330
2B
100
AcDbEntity
  8
0
100
AcDbLine
 10
41.14999850127042
 20
124.3738149544449
 30
0.0
 11
47.44999850127043
 21
124.3738149544449
 31
0.0
  0
LINE
  5
13C
330
2B
100
AcDbEntity
  8
0
100
AcDbLine
 10
47.44999850127043
 20
124.3738149544449
 30
0.0
 11
47.44999850127043
 21
120.973814954445
 31
0.0
  0
LINE
  5
13D
330
2B
100
AcDbEntity
  8
0
100
AcDbLine
 10
15.59999850126938
 20
126.273814954445
 30
0.0
 11
15.59999850126938
 21
127.5738149544449
 31
0.0
  0
LINE
  5
13E
330
2B
100
AcDbEntity
  8
0
100
AcDbLine
 10
15.59999850126938
 20
127.5738149544449
 30
0.0
 11
24.94499850126947
 21
127.5738149544449
 31
0.0
  0
LINE
  5
13F
330
2B
100
AcDbEntity
  8
0
100
AcDbLine
 10
24.94499850126947
 20
127.5738149544449
 30
0.0
 11
24.94499850126947
 21
120.973814954445
 31
0.0
  0
LINE
  5
140
330
2B
100
AcDbEntity
  8
0
100
AcDbLine
 10
15.19999850126942
 20
121.973814954445
 30
0.0
 11
15.19999850126942
 21
126.273814954445
 31
0.0
  0
LINE
  5
141
330
2B
100
AcDbEntity
  8
0
100
AcDbLine
 10
15.19999850126942
 20
126.273814954445
 30
0.0
 11
21.09999850126945
 21
126.273814954445
 31
0.0
  0
LINE
  5
142
330
2B
100
AcDbEntity
  8
0
100
AcDbLine
 10
21.09999850126945
 20
126.273814954445
 30
0.0
 11
21.09999850126945
 21
121.973814954445
 31
0.0
  0
LINE
  5
143
330
2B
100
AcDbEntity
  8
0
100
AcDbLine
 10
14.09999850127042
 20
120.973814954445
 30
0.0
 11
14.09999850127042
 21
121.973814954445
 31
0.0
  0
LINE
  5
144
330
2B
100
AcDbEntity
  8
0
100
AcDbLine
 10
14.09999850127042
 20
121.973814954445
 30
0.0
 11
22.69999850126946
 21
121.973814954445
 31
0.0
  0
LINE
  5
145
330
2B
100
AcDbEntity
  8
0
100
AcDbLine
 10
22.69999850126946
 20
121.973814954445
 30
0.0
 11
22.69999850126946
 21
120.973814954445
 31
0.0
  0
LINE
  5
146
330
2B
100
AcDbEntity
  8
0
100
AcDbLine
 10
48.9999985012704
 20
50.00000087601303
 30
0.0
 11
38.9999985012704
 21
50.00000087601303
 31
0.0
  0
LINE
  5
147
330
2B
100
AcDbEntity
  8
0
100
AcDbLine
 10
51.4999985012704
 20
102.0000008760127
 30
0.0
 11
49.99999850127039
 21
102.0000008760127
 31
0.0
  0
LINE
  5
148
330
2B
100
AcDbEntity
  8
0
100
AcDbLine
 10
53.4999985012704
 20
52.00000087601302
 30
0.0
 11
34.49999850127039
 21
52.00000087601303
 31
0.0
  0
LINE
  5
149
330
2B
100
AcDbEntity
  8
0
100
AcDbLine
 10
34.49999850127039
 20
90.00000087601303
 30
0.0
 11
53.4999985012704
 21
90.00000087601302
 31
0.0
  0
LINE
  5
14A
330
2B
100
AcDbEntity
  8
0
100
AcDbLine
 10
34.49999850127039
 20
92.00000087601305
 30
0.0
 11
53.4999985012704
 21
92.00000087601299
 31
0.0
  0
LINE
  5
14B
330
2B
100
AcDbEntity
  8
0
100
AcDbLine
 10
34.55277668742439
 20
102.0000008760127
 30
0.0
 11
53.44722031511543
 21
102.0000008760127
 31
0.0
  0
LINE
  5
14C
330
2B
100
AcDbEntity
  8
0
100
AcDbLine
 10
34.55277668742439
 20
102.0000008760127
 30
0.0
 11
34.55277668742439
 21
92.00000087601305
 31
0.0
  0
LINE
  5
14D
330
2B
100
AcDbEntity
  8
0
100
AcDbLine
 10
53.44722031511543
 20
102.0000008760127
 30
0.0
 11
53.44722031511543
 21
92.00000087601299
 31
0.0
  0
LINE
  5
14E
330
2B
100
AcDbEntity
  8
0
100
AcDbLine
 10
53.4999985012704
 20
92.00000087601299
 30
0.0
 11
53.4999985012704
 21
50.00000087601303
 31
0.0
  0
LINE
  5
14F
330
2B
100
AcDbEntity
  8
0
100
AcDbLine
 10
53.4999985012704
 20
50.00000087601303
 30
0.0
 11
34.49999850127039
 21
50.00000087601303
 31
0.0
  0
LINE
  5
150
330
2B
100
AcDbEntity
  8
0
100
AcDbLine
 10
34.49999850127039
 20
50.00000087601303
 30
0.0
 11
34.49999850127039
 21
92.00000087601305
 31
0.0
  0
LINE
  5
151
330
2B
100
AcDbEntity
  8
0
100
AcDbLine
 10
38.9999985012704
 20
52.00000087601303
 30
0.0
 11
38.9999985012704
 21
49.97381495444507
 31
0.0
  0
ARC
  5
152
330
2B
100
AcDbEntity
  8
0
100
AcDbCircle
 10
35.2999985012704
 20
82.00000087601303
 30
0.0
 40
1.05
100
AcDbArc
 50
139.6324064558198
 51
220.36759354418
  0
LINE
  5
153
330
2B
100
AcDbEntity
  8
0
100
AcDbLine
 10
48.9999985012704
 20
49.97381495444507
 30
0.0
 11
48.9999985012704
 21
52.00000087601302
 31
0.0
  0
LINE
  5
154
330
2B
100
AcDbEntity
  8
0
100
AcDbLine
 10
34.55277668742439
 20
98.97381495444506
 30
0.0
 11
15.99999850127039
 21
98.97381495444506
 31
0.0
  0
LINE
  5
155
330
2B
100
AcDbEntity
  8
0
100
AcDbLine
 10
34.55277668742439
 20
96.97381495444506
 30
0.0
 11
15.99999850127039
 21
96.97381495444506
 31
0.0
  0
LINE
  5
156
330
2B
100
AcDbEntity
  8
0
100
AcDbLine
 10
34.49999850127034
 20
70.97381495444506
 30
0.0
 11
15.99999850127039
 21
70.97381495444506
 31
0.0
  0
LINE
  5
157
330
2B
100
AcDbEntity
  8
0
100
AcDbLine
 10
34.49999850127034
 20
68.97381495444506
 30
0.0
 11
15.99999850127039
 21
68.97381495444506
 31
0.0
  0
LINE
  5
158
330
2B
100
AcDbEntity
  8
0
100
AcDbLine
 10
34.49999850127034
 20
63.97381495444506
 30
0.0
 11
15.99999850127039
 21
63.97381495444506
 31
0.0
  0
LINE
  5
159
330
2B
100
AcDbEntity
  8
0
100
AcDbLine
 10
34.49999850127034
 20
61.97381495444506
 30
0.0
 11
15.99999850127039
 21
61.97381495444506
 31
0.0
  0
LINE
  5
15A
330
2B
100
AcDbEntity
  8
0
100
AcDbLine
 10
34.49999850127034
 20
56.97381495444506
 30
0.0
 11
15.99999850127039
 21
56.97381495444506
 31
0.0
  0
LINE
  5
15B
330
2B
100
AcDbEntity
  8
0
100
AcDbLine
 10
34.49999850127034
 20
54.97381495444507
 30
0.0
 11
15.99999850127039
 21
54.97381495444507
 31
0.0
  0
LINE
  5
15C
330
2B
100
AcDbEntity
  8
0
100
AcDbLine
 10
48.9999985012704
 20
50.00000087601303
 30
0.0
 11
53.4999985012704
 21
50.00000087601303
 31
0.0
  0
LINE
  5
15D
330
2B
100
AcDbEntity
  8
0
100
AcDbLine
 10
53.4999985012704
 20
50.00000087601303
 30
0.0
 11
53.4999985012704
 21
50.00000087601303
 31
0.0
  0
ENDBLK
  5
15F
330
2B
100
AcDbEntity
  8
0
100
AcDbBlockEnd
  0
BLOCK
  5
230
330
160
100
AcDbEntity
  8
0
100
AcDbBlockBegin
  2
A$C413B70EE
 70
     0
 10
0.0
 20
0.0
 30
0.0
  3
A$C413B70EE
  1

  0
LINE
  5
161
330
160
100
AcDbEntity
  8
0
100
AcDbLine
 10
127.5999998339284
 20
200.3690727306389
 30
0.0
 11
127.5999998339284
 21
6.63093194633106
 31
0.0
  0
LINE
  5
162
330
160
100
AcDbEntity
  8
0
100
AcDbLine
 10
122.5999998339284
 20
6.500002338485045
 30
0.0
 11
122.5999998339284
 21
16.50000233848504
 31
0.0
  0
LINE
  5
163
330
160
100
AcDbEntity
  8
0
100
AcDbLine
 10
6.599999833929357
 20
16.50000233848504
 30
0.0
 11
6.599999833929357
 21
190.5000023384846
 31
0.0
  0
LINE
  5
164
330
160
100
AcDbEntity
  8
0
100
AcDbLine
 10
6.599999833929357
 20
190.5000023384846
 30
0.0
 11
122.5999998339284
 21
190.5000023384846
 31
0.0
  0
LINE
  5
165
330
160
100
AcDbEntity
  8
0
100
AcDbLine
 10
6.599999833929357
 20
16.50000233848504
 30
0.0
 11
122.5999998339284
 21
16.50000233848504
 31
0.0
  0
LINE
  5
166
330
160
100
AcDbEntity
  8
0
100
AcDbLine
 10
122.5999998339284
 20
200.5000023384849
 30
0.0
 11
127.5999998339284
 21
200.3690727306389
 31
0.0
  0
LINE
  5
167
330
160
100
AcDbEntity
  8
0
100
AcDbLine
 10
124.014039598665
 20
200.4629744041099
 30
0.0
 11
124.0140395986643
 21
6.537030272860023
 31
0.0
  0
LINE
  5
168
330
160
100
AcDbEntity
  8
0
100
AcDbLine
 10
122.5999998339284
 20
6.500002338485045
 30
0.0
 11
127.5999998339284
 21
6.63093194633106
 31
0.0
  0
LINE
  5
169
330
160
100
AcDbEntity
  8
0
100
AcDbLine
 10
6.599999833929357
 20
16.50000233848504
 30
0.0
 11
6.599999833929357
 21
190.5000023384846
 31
0.0
  0
LINE
  5
16A
330
160
100
AcDbEntity
  8
0
100
AcDbLine
 10
6.599999833929357
 20
190.5000023384846
 30
0.0
 11
123.9878536770973
 21
190.5000023384846
 31
0.0
  0
LINE
  5
16B
330
160
100
AcDbEntity
  8
0
100
AcDbLine
 10
23.59999983392935
 20
16.50000233848504
 30
0.0
 11
23.59999983392935
 21
190.5000023384846
 31
0.0
  0
LINE
  5
16C
330
160
100
AcDbEntity
  8
0
100
AcDbLine
 10
105.5999998339291
 20
16.50000233848504
 30
0.0
 11
105.5999998339291
 21
190.5000023384846
 31
0.0
  0
LINE
  5
16D
330
160
100
AcDbEntity
  8
0
100
AcDbLine
 10
23.59999983392935
 20
189.5000023384849
 30
0.0
 11
105.5999998339291
 21
189.5000023384849
 31
0.0
  0
LINE
  5
16E
330
160
100
AcDbEntity
  8
0
100
AcDbLine
 10
28.59999983392935
 20
187.5000023384849
 30
0.0
 11
30.59999983392935
 21
187.5000023384849
 31
0.0
  0
LINE
  5
16F
330
160
100
AcDbEntity
  8
0
100
AcDbLine
 10
28.59999983392935
 20
17.50000233848504
 30
0.0
 11
28.59999983392935
 21
70.75000233848505
 31
0.0
  0
LINE
  5
170
330
160
100
AcDbEntity
  8
0
100
AcDbLine
 10
30.59999983392935
 20
17.50000233848504
 30
0.0
 11
30.59999983392935
 21
70.75000233848505
 31
0.0
  0
LINE
  5
171
330
160
100
AcDbEntity
  8
0
100
AcDbLine
 10
28.59999983392935
 20
136.2500023384844
 30
0.0
 11
30.59999983392935
 21
136.2500023384844
 31
0.0
  0
LINE
  5
172
330
160
100
AcDbEntity
  8
0
100
AcDbLine
 10
28.59999983392935
 20
70.75000233848505
 30
0.0
 11
30.59999983392935
 21
70.75000233848505
 31
0.0
  0
LINE
  5
173
330
160
100
AcDbEntity
  8
0
100
AcDbLine
 10
23.59999983392935
 20
17.50000233848504
 30
0.0
 11
105.5999998339291
 21
17.50000233848504
 31
0.0
  0
LINE
  5
174
330
160
100
AcDbEntity
  8
0
100
AcDbLine
 10
28.59999983392935
 20
19.50000233848504
 30
0.0
 11
30.59999983392935
 21
19.50000233848504
 31
0.0
  0
LINE
  5
175
330
160
100
AcDbEntity
  8
0
100
AcDbLine
 10
28.59999983392935
 20
136.2500023384844
 30
0.0
 11
28.59999983392935
 21
189.5000023384849
 31
0.0
  0
LINE
  5
176
330
160
100
AcDbEntity
  8
0
100
AcDbLine
 10
30.59999983392935
 20
136.2500023384844
 30
0.0
 11
30.59999983392935
 21
189.5000023384849
 31
0.0
  0
LINE
  5
177
330
160
100
AcDbEntity
  8
0
100
AcDbLine
 10
35.59999983392936
 20
187.5000023384849
 30
0.0
 11
37.59999983392936
 21
187.5000023384849
 31
0.0
  0
LINE
  5
178
330
160
100
AcDbEntity
  8
0
100
AcDbLine
 10
35.59999983392936
 20
17.50000233848504
 30
0.0
 11
35.59999983392936
 21
70.75000233848505
 31
0.0
  0
LINE
  5
179
330
160
100
AcDbEntity
  8
0
100
AcDbLine
 10
37.59999983392936
 20
17.50000233848504
 30
0.0
 11
37.59999983392936
 21
70.75000233848505
 31
0.0
  0
LINE
  5
17A
330
160
100
AcDbEntity
  8
0
100
AcDbLine
 10
35.59999983392936
 20
136.2500023384844
 30
0.0
 11
37.59999983392936
 21
136.2500023384844
 31
0.0
  0
LINE
  5
17B
330
160
100
AcDbEntity
  8
0
100
AcDbLine
 10
35.59999983392936
 20
70.75000233848505
 30
0.0
 11
37.59999983392936
 21
70.75000233848505
 31
0.0
  0
LINE
  5
17C
330
160
100
AcDbEntity
  8
0
100
AcDbLine
 10
35.59999983392936
 20
19.50000233848504
 30
0.0
 11
37.59999983392936
 21
19.50000233848504
 31
0.0
  0
LINE
  5
17D
330
160
100
AcDbEntity
  8
0
100
AcDbLine
 10
35.59999983392936
 20
136.2500023384844
 30
0.0
 11
35.59999983392936
 21
189.5000023384849
 31
0.0
  0
LINE
  5
17E
330
160
100
AcDbEntity
  8
0
100
AcDbLine
 10
37.59999983392936
 20
136.2500023384844
 30
0.0
 11
37.59999983392936
 21
189.5000023384849
 31
0.0
  0
LINE
  5
17F
330
160
100
AcDbEntity
  8
0
100
AcDbLine
 10
42.59999983392936
 20
187.5000023384849
 30
0.0
 11
44.59999983392934
 21
187.5000023384849
 31
0.0
  0
LINE
  5
180
330
160
100
AcDbEntity
  8
0
100
AcDbLine
 10
42.59999983392936
 20
17.50000233848504
 30
0.0
 11
42.59999983392936
 21
70.75000233848505
 31
0.0
  0
LINE
  5
181
330
160
100
AcDbEntity
  8
0
100
AcDbLine
 10
44.59999983392934
 20
17.50000233848504
 30
0.0
 11
44.59999983392934
 21
70.75000233848505
 31
0.0
  0
LINE
  5
182
330
160
100
AcDbEntity
  8
0
100
AcDbLine
 10
42.59999983392936
 20
136.2500023384844
 30
0.0
 11
44.59999983392934
 21
136.2500023384844
 31
0.0
  0
LINE
  5
183
330
160
100
AcDbEntity
  8
0
100
AcDbLine
 10
42.59999983392936
 20
70.75000233848505
 30
0.0
 11
44.59999983392934
 21
70.75000233848505
 31
0.0
  0
LINE
  5
184
330
160
100
AcDbEntity
  8
0
100
AcDbLine
 10
42.59999983392936
 20
19.50000233848504
 30
0.0
 11
44.59999983392934
 21
19.50000233848504
 31
0.0
  0
LINE
  5
185
330
160
100
AcDbEntity
  8
0
100
AcDbLine
 10
42.59999983392936
 20
136.2500023384844
 30
0.0
 11
42.59999983392936
 21
189.5000023384849
 31
0.0
  0
LINE
  5
186
330
160
100
AcDbEntity
  8
0
100
AcDbLine
 10
44.59999983392934
 20
136.2500023384844
 30
0.0
 11
44.59999983392934
 21
189.5000023384849
 31
0.0
  0
LINE
  5
187
330
160
100
AcDbEntity
  8
0
100
AcDbLine
 10
49.59999983392936
 20
17.50000233848504
 30
0.0
 11
49.59999983392936
 21
70.75000233848505
 31
0.0
  0
LINE
  5
188
330
160
100
AcDbEntity
  8
0
100
AcDbLine
 10
51.59999983392935
 20
17.50000233848504
 30
0.0
 11
51.59999983392935
 21
70.75000233848505
 31
0.0
  0
LINE
  5
189
330
160
100
AcDbEntity
  8
0
100
AcDbLine
 10
49.59999983392936
 20
136.2500023384844
 30
0.0
 11
51.59999983392935
 21
136.2500023384844
 31
0.0
  0
LINE
  5
18A
330
160
100
AcDbEntity
  8
0
100
AcDbLine
 10
49.59999983392936
 20
70.75000233848505
 30
0.0
 11
51.59999983392935
 21
70.75000233848505
 31
0.0
  0
LINE
  5
18B
330
160
100
AcDbEntity
  8
0
100
AcDbLine
 10
49.59999983392936
 20
19.50000233848504
 30
0.0
 11
51.59999983392935
 21
19.50000233848504
 31
0.0
  0
LINE
  5
18C
330
160
100
AcDbEntity
  8
0
100
AcDbLine
 10
49.59999983392936
 20
136.2500023384844
 30
0.0
 11
49.59999983392936
 21
189.5000023384849
 31
0.0
  0
LINE
  5
18D
330
160
100
AcDbEntity
  8
0
100
AcDbLine
 10
51.59999983392935
 20
136.2500023384844
 30
0.0
 11
51.59999983392935
 21
189.5000023384849
 31
0.0
  0
LINE
  5
18E
330
160
100
AcDbEntity
  8
0
100
AcDbLine
 10
56.59999983392935
 20
187.5000023384849
 30
0.0
 11
58.59999983392936
 21
187.5000023384849
 31
0.0
  0
LINE
  5
18F
330
160
100
AcDbEntity
  8
0
100
AcDbLine
 10
56.59999983392935
 20
17.50000233848504
 30
0.0
 11
56.59999983392935
 21
70.75000233848505
 31
0.0
  0
LINE
  5
190
330
160
100
AcDbEntity
  8
0
100
AcDbLine
 10
58.59999983392936
 20
17.50000233848504
 30
0.0
 11
58.59999983392936
 21
70.75000233848505
 31
0.0
  0
LINE
  5
191
330
160
100
AcDbEntity
  8
0
100
AcDbLine
 10
56.59999983392935
 20
136.2500023384844
 30
0.0
 11
58.59999983392936
 21
136.2500023384844
 31
0.0
  0
LINE
  5
192
330
160
100
AcDbEntity
  8
0
100
AcDbLine
 10
56.59999983392935
 20
70.75000233848505
 30
0.0
 11
58.59999983392936
 21
70.75000233848505
 31
0.0
  0
LINE
  5
193
330
160
100
AcDbEntity
  8
0
100
AcDbLine
 10
56.59999983392935
 20
19.50000233848504
 30
0.0
 11
58.59999983392936
 21
19.50000233848504
 31
0.0
  0
LINE
  5
194
330
160
100
AcDbEntity
  8
0
100
AcDbLine
 10
56.59999983392935
 20
136.2500023384844
 30
0.0
 11
56.59999983392935
 21
189.5000023384849
 31
0.0
  0
LINE
  5
195
330
160
100
AcDbEntity
  8
0
100
AcDbLine
 10
58.59999983392936
 20
136.2500023384844
 30
0.0
 11
58.59999983392936
 21
189.5000023384849
 31
0.0
  0
LINE
  5
196
330
160
100
AcDbEntity
  8
0
100
AcDbLine
 10
63.59999983392936
 20
187.5000023384849
 30
0.0
 11
65.59999983392936
 21
187.5000023384849
 31
0.0
  0
LINE
  5
197
330
160
100
AcDbEntity
  8
0
100
AcDbLine
 10
63.59999983392936
 20
17.50000233848504
 30
0.0
 11
63.59999983392936
 21
70.75000233848505
 31
0.0
  0
LINE
  5
198
330
160
100
AcDbEntity
  8
0
100
AcDbLine
 10
65.59999983392936
 20
17.50000233848504
 30
0.0
 11
65.59999983392936
 21
70.75000233848505
 31
0.0
  0
LINE
  5
199
330
160
100
AcDbEntity
  8
0
100
AcDbLine
 10
63.59999983392936
 20
136.2500023384844
 30
0.0
 11
65.59999983392936
 21
136.2500023384844
 31
0.0
  0
LINE
  5
19A
330
160
100
AcDbEntity
  8
0
100
AcDbLine
 10
63.59999983392936
 20
70.75000233848505
 30
0.0
 11
65.59999983392936
 21
70.75000233848505
 31
0.0
  0
LINE
  5
19B
330
160
100
AcDbEntity
  8
0
100
AcDbLine
 10
63.59999983392936
 20
19.50000233848504
 30
0.0
 11
65.59999983392936
 21
19.50000233848504
 31
0.0
  0
LINE
  5
19C
330
160
100
AcDbEntity
  8
0
100
AcDbLine
 10
63.59999983392936
 20
136.2500023384844
 30
0.0
 11
63.59999983392936
 21
189.5000023384849
 31
0.0
  0
LINE
  5
19D
330
160
100
AcDbEntity
  8
0
100
AcDbLine
 10
65.59999983392936
 20
136.2500023384844
 30
0.0
 11
65.59999983392936
 21
189.5000023384849
 31
0.0
  0
LINE
  5
19E
330
160
100
AcDbEntity
  8
0
100
AcDbLine
 10
70.59999983392936
 20
187.5000023384849
 30
0.0
 11
72.59999983392936
 21
187.5000023384849
 31
0.0
  0
LINE
  5
19F
330
160
100
AcDbEntity
  8
0
100
AcDbLine
 10
70.59999983392936
 20
17.50000233848504
 30
0.0
 11
70.59999983392936
 21
70.75000233848505
 31
0.0
  0
LINE
  5
1A0
330
160
100
AcDbEntity
  8
0
100
AcDbLine
 10
72.59999983392936
 20
17.50000233848504
 30
0.0
 11
72.59999983392936
 21
70.75000233848505
 31
0.0
  0
LINE
  5
1A1
330
160
100
AcDbEntity
  8
0
100
AcDbLine
 10
70.59999983392936
 20
136.2500023384844
 30
0.0
 11
72.59999983392936
 21
136.2500023384844
 31
0.0
  0
LINE
  5
1A2
330
160
100
AcDbEntity
  8
0
100
AcDbLine
 10
70.59999983392936
 20
70.75000233848505
 30
0.0
 11
72.59999983392936
 21
70.75000233848505
 31
0.0
  0
LINE
  5
1A3
330
160
100
AcDbEntity
  8
0
100
AcDbLine
 10
70.59999983392936
 20
19.50000233848504
 30
0.0
 11
72.59999983392936
 21
19.50000233848504
 31
0.0
  0
LINE
  5
1A4
330
160
100
AcDbEntity
  8
0
100
AcDbLine
 10
70.59999983392936
 20
136.2500023384844
 30
0.0
 11
70.59999983392936
 21
189.5000023384849
 31
0.0
  0
LINE
  5
1A5
330
160
100
AcDbEntity
  8
0
100
AcDbLine
 10
72.59999983392936
 20
136.2500023384844
 30
0.0
 11
72.59999983392936
 21
189.5000023384849
 31
0.0
  0
LINE
  5
1A6
330
160
100
AcDbEntity
  8
0
100
AcDbLine
 10
77.59999983392936
 20
187.5000023384849
 30
0.0
 11
79.59999983392936
 21
187.5000023384849
 31
0.0
  0
LINE
  5
1A7
330
160
100
AcDbEntity
  8
0
100
AcDbLine
 10
77.59999983392936
 20
17.50000233848504
 30
0.0
 11
77.59999983392936
 21
70.75000233848505
 31
0.0
  0
LINE
  5
1A8
330
160
100
AcDbEntity
  8
0
100
AcDbLine
 10
79.59999983392936
 20
17.50000233848504
 30
0.0
 11
79.59999983392936
 21
70.75000233848505
 31
0.0
  0
LINE
  5
1A9
330
160
100
AcDbEntity
  8
0
100
AcDbLine
 10
77.59999983392936
 20
136.2500023384844
 30
0.0
 11
79.59999983392936
 21
136.2500023384844
 31
0.0
  0
LINE
  5
1AA
330
160
100
AcDbEntity
  8
0
100
AcDbLine
 10
77.59999983392936
 20
70.75000233848505
 30
0.0
 11
79.59999983392936
 21
70.75000233848505
 31
0.0
  0
LINE
  5
1AB
330
160
100
AcDbEntity
  8
0
100
AcDbLine
 10
77.59999983392936
 20
19.50000233848504
 30
0.0
 11
79.59999983392936
 21
19.50000233848504
 31
0.0
  0
LINE
  5
1AC
330
160
100
AcDbEntity
  8
0
100
AcDbLine
 10
77.59999983392936
 20
136.2500023384844
 30
0.0
 11
77.59999983392936
 21
189.5000023384849
 31
0.0
  0
LINE
  5
1AD
330
160
100
AcDbEntity
  8
0
100
AcDbLine
 10
79.59999983392936
 20
136.2500023384844
 30
0.0
 11
79.59999983392936
 21
189.5000023384849
 31
0.0
  0
LINE
  5
1AE
330
160
100
AcDbEntity
  8
0
100
AcDbLine
 10
84.59999983392936
 20
187.5000023384849
 30
0.0
 11
86.59999983392934
 21
187.5000023384849
 31
0.0
  0
LINE
  5
1AF
330
160
100
AcDbEntity
  8
0
100
AcDbLine
 10
84.59999983392936
 20
17.50000233848504
 30
0.0
 11
84.59999983392936
 21
70.75000233848505
 31
0.0
  0
LINE
  5
1B0
330
160
100
AcDbEntity
  8
0
100
AcDbLine
 10
86.59999983392934
 20
17.50000233848504
 30
0.0
 11
86.59999983392934
 21
70.75000233848505
 31
0.0
  0
LINE
  5
1B1
330
160
100
AcDbEntity
  8
0
100
AcDbLine
 10
84.59999983392936
 20
136.2500023384844
 30
0.0
 11
86.59999983392934
 21
136.2500023384844
 31
0.0
  0
LINE
  5
1B2
330
160
100
AcDbEntity
  8
0
100
AcDbLine
 10
84.59999983392936
 20
70.75000233848505
 30
0.0
 11
86.59999983392934
 21
70.75000233848505
 31
0.0
  0
LINE
  5
1B3
330
160
100
AcDbEntity
  8
0
100
AcDbLine
 10
84.59999983392936
 20
19.50000233848504
 30
0.0
 11
86.59999983392934
 21
19.50000233848504
 31
0.0
  0
LINE
  5
1B4
330
160
100
AcDbEntity
  8
0
100
AcDbLine
 10
84.59999983392936
 20
136.2500023384844
 30
0.0
 11
84.59999983392936
 21
189.5000023384849
 31
0.0
  0
LINE
  5
1B5
330
160
100
AcDbEntity
  8
0
100
AcDbLine
 10
86.59999983392934
 20
136.2500023384844
 30
0.0
 11
86.59999983392934
 21
189.5000023384849
 31
0.0
  0
LINE
  5
1B6
330
160
100
AcDbEntity
  8
0
100
AcDbLine
 10
91.59999983392937
 20
187.5000023384849
 30
0.0
 11
93.59999983392937
 21
187.5000023384849
 31
0.0
  0
LINE
  5
1B7
330
160
100
AcDbEntity
  8
0
100
AcDbLine
 10
91.59999983392937
 20
17.50000233848504
 30
0.0
 11
91.59999983392937
 21
70.75000233848505
 31
0.0
  0
LINE
  5
1B8
330
160
100
AcDbEntity
  8
0
100
AcDbLine
 10
93.59999983392937
 20
17.50000233848504
 30
0.0
 11
93.59999983392937
 21
70.75000233848505
 31
0.0
  0
LINE
  5
1B9
330
160
100
AcDbEntity
  8
0
100
AcDbLine
 10
91.59999983392937
 20
136.2500023384844
 30
0.0
 11
93.59999983392937
 21
136.2500023384844
 31
0.0
  0
LINE
  5
1BA
330
160
100
AcDbEntity
  8
0
100
AcDbLine
 10
91.59999983392937
 20
70.75000233848505
 30
0.0
 11
93.59999983392937
 21
70.75000233848505
 31
0.0
  0
LINE
  5
1BB
330
160
100
AcDbEntity
  8
0
100
AcDbLine
 10
91.59999983392937
 20
19.50000233848504
 30
0.0
 11
93.59999983392937
 21
19.50000233848504
 31
0.0
  0
LINE
  5
1BC
330
160
100
AcDbEntity
  8
0
100
AcDbLine
 10
91.59999983392937
 20
136.2500023384844
 30
0.0
 11
91.59999983392937
 21
189.5000023384849
 31
0.0
  0
LINE
  5
1BD
330
160
100
AcDbEntity
  8
0
100
AcDbLine
 10
93.59999983392937
 20
136.2500023384844
 30
0.0
 11
93.59999983392937
 21
189.5000023384849
 31
0.0
  0
LINE
  5
1BE
330
160
100
AcDbEntity
  8
0
100
AcDbLine
 10
98.59999983392938
 20
187.5000023384849
 30
0.0
 11
100.5999998339291
 21
187.5000023384849
 31
0.0
  0
LINE
  5
1BF
330
160
100
AcDbEntity
  8
0
100
AcDbLine
 10
98.59999983392938
 20
17.50000233848504
 30
0.0
 11
98.59999983392938
 21
70.75000233848505
 31
0.0
  0
LINE
  5
1C0
330
160
100
AcDbEntity
  8
0
100
AcDbLine
 10
100.5999998339291
 20
17.50000233848504
 30
0.0
 11
100.5999998339291
 21
70.75000233848505
 31
0.0
  0
LINE
  5
1C1
330
160
100
AcDbEntity
  8
0
100
AcDbLine
 10
98.59999983392938
 20
136.2500023384844
 30
0.0
 11
100.5999998339291
 21
136.2500023384844
 31
0.0
  0
LINE
  5
1C2
330
160
100
AcDbEntity
  8
0
100
AcDbLine
 10
98.59999983392938
 20
70.75000233848505
 30
0.0
 11
100.5999998339291
 21
70.75000233848505
 31
0.0
  0
LINE
  5
1C3
330
160
100
AcDbEntity
  8
0
100
AcDbLine
 10
98.59999983392938
 20
19.50000233848504
 30
0.0
 11
100.5999998339291
 21
19.50000233848504
 31
0.0
  0
LINE
  5
1C4
330
160
100
AcDbEntity
  8
0
100
AcDbLine
 10
98.59999983392938
 20
136.2500023384844
 30
0.0
 11
98.59999983392938
 21
189.5000023384849
 31
0.0
  0
LINE
  5
1C5
330
160
100
AcDbEntity
  8
0
100
AcDbLine
 10
100.5999998339291
 20
136.2500023384844
 30
0.0
 11
100.5999998339291
 21
189.5000023384849
 31
0.0
  0
LINE
  5
1C6
330
160
100
AcDbEntity
  8
0
100
AcDbLine
 10
28.59999983392935
 20
165.0000023384849
 30
0.0
 11
30.59999983392935
 21
165.0000023384849
 31
0.0
  0
LINE
  5
1C7
330
160
100
AcDbEntity
  8
0
100
AcDbLine
 10
28.59999983392935
 20
162.0000023384849
 30
0.0
 11
30.59999983392935
 21
162.0000023384849
 31
0.0
  0
LINE
  5
1C8
330
160
100
AcDbEntity
  8
0
100
AcDbLine
 10
28.59999983392935
 20
45.00000233848505
 30
0.0
 11
30.59999983392935
 21
45.00000233848505
 31
0.0
  0
LINE
  5
1C9
330
160
100
AcDbEntity
  8
0
100
AcDbLine
 10
28.59999983392935
 20
42.00000233848505
 30
0.0
 11
30.59999983392935
 21
42.00000233848505
 31
0.0
  0
LINE
  5
1CA
330
160
100
AcDbEntity
  8
0
100
AcDbLine
 10
35.59999983392936
 20
165.0000023384849
 30
0.0
 11
37.59999983392936
 21
165.0000023384849
 31
0.0
  0
LINE
  5
1CB
330
160
100
AcDbEntity
  8
0
100
AcDbLine
 10
35.59999983392936
 20
162.0000023384849
 30
0.0
 11
37.59999983392936
 21
162.0000023384849
 31
0.0
  0
LINE
  5
1CC
330
160
100
AcDbEntity
  8
0
100
AcDbLine
 10
35.59999983392936
 20
45.00000233848505
 30
0.0
 11
37.59999983392936
 21
45.00000233848505
 31
0.0
  0
LINE
  5
1CD
330
160
100
AcDbEntity
  8
0
100
AcDbLine
 10
35.59999983392936
 20
42.00000233848505
 30
0.0
 11
37.59999983392936
 21
42.00000233848505
 31
0.0
  0
LINE
  5
1CE
330
160
100
AcDbEntity
  8
0
100
AcDbLine
 10
42.59999983392936
 20
165.0000023384849
 30
0.0
 11
44.59999983392934
 21
165.0000023384849
 31
0.0
  0
LINE
  5
1CF
330
160
100
AcDbEntity
  8
0
100
AcDbLine
 10
42.59999983392936
 20
162.0000023384849
 30
0.0
 11
44.59999983392934
 21
162.0000023384849
 31
0.0
  0
LINE
  5
1D0
330
160
100
AcDbEntity
  8
0
100
AcDbLine
 10
42.59999983392936
 20
45.00000233848505
 30
0.0
 11
44.59999983392934
 21
45.00000233848505
 31
0.0
  0
LINE
  5
1D1
330
160
100
AcDbEntity
  8
0
100
AcDbLine
 10
42.59999983392936
 20
42.00000233848505
 30
0.0
 11
44.59999983392934
 21
42.00000233848505
 31
0.0
  0
LINE
  5
1D2
330
160
100
AcDbEntity
  8
0
100
AcDbLine
 10
49.59999983392936
 20
165.0000023384849
 30
0.0
 11
51.59999983392935
 21
165.0000023384849
 31
0.0
  0
LINE
  5
1D3
330
160
100
AcDbEntity
  8
0
100
AcDbLine
 10
49.59999983392936
 20
162.0000023384849
 30
0.0
 11
51.59999983392935
 21
162.0000023384849
 31
0.0
  0
LINE
  5
1D4
330
160
100
AcDbEntity
  8
0
100
AcDbLine
 10
49.59999983392936
 20
45.00000233848505
 30
0.0
 11
51.59999983392935
 21
45.00000233848505
 31
0.0
  0
LINE
  5
1D5
330
160
100
AcDbEntity
  8
0
100
AcDbLine
 10
49.59999983392936
 20
42.00000233848505
 30
0.0
 11
51.59999983392935
 21
42.00000233848505
 31
0.0
  0
LINE
  5
1D6
330
160
100
AcDbEntity
  8
0
100
AcDbLine
 10
56.59999983392935
 20
165.0000023384849
 30
0.0
 11
58.59999983392936
 21
165.0000023384849
 31
0.0
  0
LINE
  5
1D7
330
160
100
AcDbEntity
  8
0
100
AcDbLine
 10
56.59999983392935
 20
162.0000023384849
 30
0.0
 11
58.59999983392936
 21
162.0000023384849
 31
0.0
  0
LINE
  5
1D8
330
160
100
AcDbEntity
  8
0
100
AcDbLine
 10
56.59999983392935
 20
45.00000233848505
 30
0.0
 11
58.59999983392936
 21
45.00000233848505
 31
0.0
  0
LINE
  5
1D9
330
160
100
AcDbEntity
  8
0
100
AcDbLine
 10
56.59999983392935
 20
42.00000233848505
 30
0.0
 11
58.59999983392936
 21
42.00000233848505
 31
0.0
  0
LINE
  5
1DA
330
160
100
AcDbEntity
  8
0
100
AcDbLine
 10
63.59999983392936
 20
165.0000023384849
 30
0.0
 11
65.59999983392936
 21
165.0000023384849
 31
0.0
  0
LINE
  5
1DB
330
160
100
AcDbEntity
  8
0
100
AcDbLine
 10
63.59999983392936
 20
162.0000023384849
 30
0.0
 11
65.59999983392936
 21
162.0000023384849
 31
0.0
  0
LINE
  5
1DC
330
160
100
AcDbEntity
  8
0
100
AcDbLine
 10
63.59999983392936
 20
45.00000233848505
 30
0.0
 11
65.59999983392936
 21
45.00000233848505
 31
0.0
  0
LINE
  5
1DD
330
160
100
AcDbEntity
  8
0
100
AcDbLine
 10
63.59999983392936
 20
42.00000233848505
 30
0.0
 11
65.59999983392936
 21
42.00000233848505
 31
0.0
  0
LINE
  5
1DE
330
160
100
AcDbEntity
  8
0
100
AcDbLine
 10
70.59999983392936
 20
165.0000023384849
 30
0.0
 11
72.59999983392936
 21
165.0000023384849
 31
0.0
  0
LINE
  5
1DF
330
160
100
AcDbEntity
  8
0
100
AcDbLine
 10
70.59999983392936
 20
162.0000023384849
 30
0.0
 11
72.59999983392936
 21
162.0000023384849
 31
0.0
  0
LINE
  5
1E0
330
160
100
AcDbEntity
  8
0
100
AcDbLine
 10
70.59999983392936
 20
45.00000233848505
 30
0.0
 11
72.59999983392936
 21
45.00000233848505
 31
0.0
  0
LINE
  5
1E1
330
160
100
AcDbEntity
  8
0
100
AcDbLine
 10
70.59999983392936
 20
42.00000233848505
 30
0.0
 11
72.59999983392936
 21
42.00000233848505
 31
0.0
  0
LINE
  5
1E2
330
160
100
AcDbEntity
  8
0
100
AcDbLine
 10
77.59999983392936
 20
165.0000023384849
 30
0.0
 11
79.59999983392936
 21
165.0000023384849
 31
0.0
  0
LINE
  5
1E3
330
160
100
AcDbEntity
  8
0
100
AcDbLine
 10
77.59999983392936
 20
162.0000023384849
 30
0.0
 11
79.59999983392936
 21
162.0000023384849
 31
0.0
  0
LINE
  5
1E4
330
160
100
AcDbEntity
  8
0
100
AcDbLine
 10
77.59999983392936
 20
45.00000233848505
 30
0.0
 11
79.59999983392936
 21
45.00000233848505
 31
0.0
  0
LINE
  5
1E5
330
160
100
AcDbEntity
  8
0
100
AcDbLine
 10
77.59999983392936
 20
42.00000233848505
 30
0.0
 11
79.59999983392936
 21
42.00000233848505
 31
0.0
  0
LINE
  5
1E6
330
160
100
AcDbEntity
  8
0
100
AcDbLine
 10
84.59999983392936
 20
165.0000023384849
 30
0.0
 11
86.59999983392934
 21
165.0000023384849
 31
0.0
  0
LINE
  5
1E7
330
160
100
AcDbEntity
  8
0
100
AcDbLine
 10
84.59999983392936
 20
162.0000023384849
 30
0.0
 11
86.59999983392934
 21
162.0000023384849
 31
0.0
  0
LINE
  5
1E8
330
160
100
AcDbEntity
  8
0
100
AcDbLine
 10
84.59999983392936
 20
45.00000233848505
 30
0.0
 11
86.59999983392934
 21
45.00000233848505
 31
0.0
  0
LINE
  5
1E9
330
160
100
AcDbEntity
  8
0
100
AcDbLine
 10
84.59999983392936
 20
42.00000233848505
 30
0.0
 11
86.59999983392934
 21
42.00000233848505
 31
0.0
  0
LINE
  5
1EA
330
160
100
AcDbEntity
  8
0
100
AcDbLine
 10
91.59999983392937
 20
165.0000023384849
 30
0.0
 11
93.59999983392937
 21
165.0000023384849
 31
0.0
  0
LINE
  5
1EB
330
160
100
AcDbEntity
  8
0
100
AcDbLine
 10
91.59999983392937
 20
162.0000023384849
 30
0.0
 11
93.59999983392937
 21
162.0000023384849
 31
0.0
  0
LINE
  5
1EC
330
160
100
AcDbEntity
  8
0
100
AcDbLine
 10
91.59999983392937
 20
45.00000233848505
 30
0.0
 11
93.59999983392937
 21
45.00000233848505
 31
0.0
  0
LINE
  5
1ED
330
160
100
AcDbEntity
  8
0
100
AcDbLine
 10
91.59999983392937
 20
42.00000233848505
 30
0.0
 11
93.59999983392937
 21
42.00000233848505
 31
0.0
  0
LINE
  5
1EE
330
160
100
AcDbEntity
  8
0
100
AcDbLine
 10
98.59999983392938
 20
165.0000023384849
 30
0.0
 11
100.5999998339291
 21
165.0000023384849
 31
0.0
  0
LINE
  5
1EF
330
160
100
AcDbEntity
  8
0
100
AcDbLine
 10
98.59999983392938
 20
162.0000023384849
 30
0.0
 11
100.5999998339291
 21
162.0000023384849
 31
0.0
  0
LINE
  5
1F0
330
160
100
AcDbEntity
  8
0
100
AcDbLine
 10
98.59999983392938
 20
45.00000233848505
 30
0.0
 11
100.5999998339291
 21
45.00000233848505
 31
0.0
  0
LINE
  5
1F1
330
160
100
AcDbEntity
  8
0
100
AcDbLine
 10
98.59999983392938
 20
42.00000233848505
 30
0.0
 11
100.5999998339291
 21
42.00000233848505
 31
0.0
  0
LINE
  5
1F2
330
160
100
AcDbEntity
  8
0
100
AcDbLine
 10
78.59999983392936
 20
17.50000233848504
 30
0.0
 11
78.59999983392835
 21
17.00000233848504
 31
0.0
  0
LINE
  5
1F3
330
160
100
AcDbEntity
  8
0
100
AcDbLine
 10
23.59999983392935
 20
17.00000233848504
 30
0.0
 11
78.59999983392936
 21
17.00000233848504
 31
0.0
  0
LINE
  5
1F4
330
160
100
AcDbEntity
  8
0
100
AcDbLine
 10
123.9878536770963
 20
16.50000233848504
 30
0.0
 11
123.9878536770973
 21
190.5000023384846
 31
0.0
  0
LINE
  5
1F5
330
160
100
AcDbEntity
  8
0
100
AcDbLine
 10
3.199999833929495
 20
57.20000307217538
 30
0.0
 11
3.199999833929495
 21
37.00000307217532
 31
0.0
  0
LINE
  5
1F6
330
160
100
AcDbEntity
  8
0
100
AcDbLine
 10
4.099999833929357
 20
33.50000307217532
 30
0.0
 11
3.599999833929357
 21
34.00000307217532
 31
0.0
  0
LINE
  5
1F7
330
160
100
AcDbEntity
  8
0
100
AcDbLine
 10
3.599999833929472
 20
34.90000307217542
 30
0.0
 11
3.599999833929357
 21
34.00000307217532
 31
0.0
  0
LINE
  5
1F8
330
160
100
AcDbEntity
  8
0
100
AcDbLine
 10
4.899999833929538
 20
33.50000307217532
 30
0.0
 11
4.099999833929357
 21
33.50000307217532
 31
0.0
  0
ARC
  5
1F9
330
160
100
AcDbEntity
  8
0
100
AcDbCircle
 10
4.599999833929471
 20
34.90000307217531
 30
0.0
 40
1.0
100
AcDbArc
 50
90.0
 51
180.0
  0
LINE
  5
1FA
330
160
100
AcDbEntity
  8
0
100
AcDbLine
 10
6.599999833929357
 20
35.90000307217538
 30
0.0
 11
4.599999833929471
 21
35.90000307217531
 31
0.0
  0
LINE
  5
1FB
330
160
100
AcDbEntity
  8
0
100
AcDbLine
 10
6.599999833929357
 20
34.70000307217537
 30
0.0
 11
4.899999833929655
 21
34.70000307217537
 31
0.0
  0
LINE
  5
1FC
330
160
100
AcDbEntity
  8
0
100
AcDbLine
 10
6.599999833929357
 20
37.00000307217528
 30
0.0
 11
3.199999833929495
 21
37.00000307217532
 31
0.0
  0
LINE
  5
1FD
330
160
100
AcDbEntity
  8
0
100
AcDbLine
 10
4.899999833929538
 20
33.50000307217532
 30
0.0
 11
4.899999833929538
 21
34.70000307217537
 31
0.0
  0
LINE
  5
1FE
330
160
100
AcDbEntity
  8
0
100
AcDbLine
 10
4.099999833929587
 20
60.70000307217537
 30
0.0
 11
3.599999833929587
 21
60.20000307217538
 31
0.0
  0
LINE
  5
1FF
330
160
100
AcDbEntity
  8
0
100
AcDbLine
 10
3.599999833929587
 20
60.20000307217538
 30
0.0
 11
3.599999833929587
 21
59.30000307217529
 31
0.0
  0
LINE
  5
200
330
160
100
AcDbEntity
  8
0
100
AcDbLine
 10
4.899999833929538
 20
60.70000307217537
 30
0.0
 11
4.099999833929587
 21
60.70000307217537
 31
0.0
  0
ARC
  5
201
330
160
100
AcDbEntity
  8
0
100
AcDbCircle
 10
4.599999833929587
 20
59.3000030721754
 30
0.0
 40
1.0
100
AcDbArc
 50
180.0
 51
270.0
  0
LINE
  5
202
330
160
100
AcDbEntity
  8
0
100
AcDbLine
 10
6.599999833929357
 20
58.3000030721754
 30
0.0
 11
4.599999833929587
 21
58.3000030721754
 31
0.0
  0
LINE
  5
203
330
160
100
AcDbEntity
  8
0
100
AcDbLine
 10
3.199999833929495
 20
57.20000307217538
 30
0.0
 11
6.599999833929357
 21
57.20000307217538
 31
0.0
  0
LINE
  5
204
330
160
100
AcDbEntity
  8
0
100
AcDbLine
 10
6.599999833929357
 20
59.50000307217544
 30
0.0
 11
4.899999833929427
 21
59.50000307217544
 31
0.0
  0
LINE
  5
205
330
160
100
AcDbEntity
  8
0
100
AcDbLine
 10
4.899999833929538
 20
59.50000307217533
 30
0.0
 11
4.899999833929538
 21
60.70000307217537
 31
0.0
  0
LINE
  5
206
330
160
100
AcDbEntity
  8
0
100
AcDbLine
 10
6.599999833929357
 20
21.50000307217532
 30
0.0
 11
4.099999833929246
 21
21.50000307217532
 31
0.0
  0
LINE
  5
207
330
160
100
AcDbEntity
  8
0
100
AcDbLine
 10
4.099999833929246
 20
21.50000307217532
 30
0.0
 11
4.099999833929246
 21
27.00000307217532
 31
0.0
  0
LINE
  5
208
330
160
100
AcDbEntity
  8
0
100
AcDbLine
 10
4.099999833929246
 20
27.00000307217532
 30
0.0
 11
6.599999833929357
 21
27.00000307217532
 31
0.0
  0
LINE
  5
209
330
160
100
AcDbEntity
  8
0
100
AcDbLine
 10
6.599999833929357
 20
62.14000233848515
 30
0.0
 11
5.599999833929358
 21
62.14000233848515
 31
0.0
  0
LINE
  5
20A
330
160
100
AcDbEntity
  8
0
100
AcDbLine
 10
5.599999833929358
 20
62.14000233848515
 30
0.0
 11
5.599999833929358
 21
59.50000307217544
 31
0.0
  0
LINE
  5
20B
330
160
100
AcDbEntity
  8
0
100
AcDbLine
 10
-0.000000166070663
 20
112.5000023384849
 30
0.0
 11
6.599999833929357
 21
112.5000023384849
 31
0.0
  0
LINE
  5
20C
330
160
100
AcDbEntity
  8
0
100
AcDbLine
 10
6.599999833929357
 20
136.6600023384848
 30
0.0
 11
-0.000000166070663
 21
136.6600023384848
 31
0.0
  0
LINE
  5
20D
330
160
100
AcDbEntity
  8
0
100
AcDbLine
 10
-0.000000166070663
 20
136.6600023384848
 30
0.0
 11
-0.000000166070663
 21
112.5000023384849
 31
0.0
  0
LINE
  5
20E
330
160
100
AcDbEntity
  8
0
100
AcDbLine
 10
1.299999833929404
 20
71.34000233848508
 30
0.0
 11
1.299999833929404
 21
99.80000233848514
 31
0.0
  0
LINE
  5
20F
330
160
100
AcDbEntity
  8
0
100
AcDbLine
 10
1.299999833929404
 20
75.45000233848509
 30
0.0
 11
5.599999833929246
 21
75.45000233848509
 31
0.0
  0
LINE
  5
210
330
160
100
AcDbEntity
  8
0
100
AcDbLine
 10
5.599999833929358
 20
71.34000233848508
 30
0.0
 11
1.299999833929404
 21
71.34000233848508
 31
0.0
  0
LINE
  5
211
330
160
100
AcDbEntity
  8
0
100
AcDbLine
 10
1.299999833929404
 20
95.69000233848512
 30
0.0
 11
6.599999833929357
 21
95.69000233848512
 31
0.0
  0
LINE
  5
212
330
160
100
AcDbEntity
  8
0
100
AcDbLine
 10
1.299999833929404
 20
90.69000233848512
 30
0.0
 11
6.599999833929357
 21
90.69000233848512
 31
0.0
  0
LINE
  5
213
330
160
100
AcDbEntity
  8
0
100
AcDbLine
 10
1.299999833929404
 20
83.0700023384851
 30
0.0
 11
6.599999833929357
 21
83.0700023384851
 31
0.0
  0
LINE
  5
214
330
160
100
AcDbEntity
  8
0
100
AcDbLine
 10
1.299999833929404
 20
88.07000233848507
 30
0.0
 11
6.599999833929357
 21
88.07000233848507
 31
0.0
  0
LINE
  5
215
330
160
100
AcDbEntity
  8
0
100
AcDbLine
 10
1.299999833929404
 20
80.4500023384851
 30
0.0
 11
5.799999833929632
 21
80.4500023384851
 31
0.0
  0
LINE
  5
216
330
160
100
AcDbEntity
  8
0
100
AcDbLine
 10
5.799999833929632
 20
99.80000233848514
 30
0.0
 11
1.299999833929404
 21
99.80000233848514
 31
0.0
  0
LINE
  5
217
330
160
100
AcDbEntity
  8
0
100
AcDbLine
 10
49.59999983392936
 20
187.5000023384849
 30
0.0
 11
51.59999983392935
 21
187.5000023384849
 31
0.0
  0
LINE
  5
218
330
160
100
AcDbEntity
  8
0
100
AcDbLine
 10
122.5999998339284
 20
190.5000023384846
 30
0.0
 11
122.5999998339284
 21
200.5000023384849
 31
0.0
  0
LINE
  5
219
330
160
100
AcDbEntity
  8
0
100
AcDbLine
 10
6.599999833929357
 20
16.50000233848504
 30
0.0
 11
123.9878536770973
 21
16.50000233848504
 31
0.0
  0
LINE
  5
21A
330
160
100
AcDbEntity
  8
0
100
AcDbLine
 10
25.59999983392935
 20
0.0000023384850465
 30
0.0
 11
25.59999983392935
 21
8.500002338485044
 31
0.0
  0
LINE
  5
21B
330
160
100
AcDbEntity
  8
0
100
AcDbLine
 10
77.59999983392835
 20
0.0000023384850465
 30
0.0
 11
77.59999983392835
 21
16.50000233848504
 31
0.0
  0
LINE
  5
21C
330
160
100
AcDbEntity
  8
0
100
AcDbLine
 10
25.59999983392935
 20
0.0000023384850465
 30
0.0
 11
77.59999983392835
 21
0.0000023384850465
 31
0.0
  0
LINE
  5
21D
330
160
100
AcDbEntity
  8
0
100
AcDbLine
 10
35.59999983392936
 20
0.0000023384850465
 30
0.0
 11
35.59999983392936
 21
16.50000233848504
 31
0.0
  0
LINE
  5
21E
330
160
100
AcDbEntity
  8
0
100
AcDbLine
 10
25.59999983392935
 20
8.500002338485044
 30
0.0
 11
35.59999983392936
 21
8.500002338485044
 31
0.0
  0
LINE
  5
21F
330
160
100
AcDbEntity
  8
0
100
AcDbLine
 10
37.59999983392936
 20
9.500002338485046
 30
0.0
 11
37.59999983392936
 21
0.0000023384850465
 31
0.0
  0
LINE
  5
220
330
160
100
AcDbEntity
  8
0
100
AcDbLine
 10
75.59999983392835
 20
9.500002338485046
 30
0.0
 11
75.59999983392835
 21
0.0000023384850465
 31
0.0
  0
LINE
  5
221
330
160
100
AcDbEntity
  8
0
100
AcDbLine
 10
5.599999833929358
 20
58.3000030721754
 30
0.0
 11
5.599999833929358
 21
57.20000307217538
 31
0.0
  0
LINE
  5
222
330
160
100
AcDbEntity
  8
0
100
AcDbLine
 10
5.599999833929358
 20
37.00000307217532
 30
0.0
 11
5.599999833929358
 21
35.90000307217532
 31
0.0
  0
LINE
  5
223
330
160
100
AcDbEntity
  8
0
100
AcDbLine
 10
5.599999833929358
 20
34.70000307217537
 30
0.0
 11
5.599999833929358
 21
27.00000307217532
 31
0.0
  0
LINE
  5
224
330
160
100
AcDbEntity
  8
0
100
AcDbLine
 10
6.599999833929357
 20
157.9400023384851
 30
0.0
 11
5.595637893078333
 21
157.9400023384851
 31
0.0
  0
LINE
  5
225
330
160
100
AcDbEntity
  8
0
100
AcDbLine
 10
6.599999833929357
 20
68.70000307217536
 30
0.0
 11
5.599999833929358
 21
68.70000307217536
 31
0.0
  0
LINE
  5
226
330
160
100
AcDbEntity
  8
0
100
AcDbLine
 10
5.599999833929358
 20
68.70000307217536
 30
0.0
 11
5.599999833929246
 21
77.10000307217547
 31
0.0
  0
LINE
  5
227
330
160
100
AcDbEntity
  8
0
100
AcDbLine
 10
5.599999833929246
 20
77.10000307217547
 30
0.0
 11
6.599999833929357
 21
77.10000307217547
 31
0.0
  0
LINE
  5
228
330
160
100
AcDbEntity
  8
0
100
AcDbLine
 10
6.599999833929357
 20
78.60000307217545
 30
0.0
 11
5.799999833929632
 21
78.60000307217545
 31
0.0
  0
LINE
  5
229
330
160
100
AcDbEntity
  8
0
100
AcDbLine
 10
5.799999833929632
 20
78.60000307217545
 30
0.0
 11
5.799999833929632
 21
81.60000307217547
 31
0.0
  0
LINE
  5
22A
330
160
100
AcDbEntity
  8
0
100
AcDbLine
 10
5.799999833929632
 20
81.60000307217547
 30
0.0
 11
6.599999833929357
 21
81.60000307217547
 31
0.0
  0
LINE
  5
22B
330
160
100
AcDbEntity
  8
0
100
AcDbLine
 10
6.599999833929357
 20
98.60000307217545
 30
0.0
 11
5.799999833929632
 21
98.60000307217545
 31
0.0
  0
LINE
  5
22C
330
160
100
AcDbEntity
  8
0
100
AcDbLine
 10
5.799999833929632
 20
98.60000307217545
 30
0.0
 11
5.799999833929632
 21
101.6000030721754
 31
0.0
  0
LINE
  5
22D
330
160
100
AcDbEntity
  8
0
100
AcDbLine
 10
5.799999833929632
 20
101.6000030721754
 30
0.0
 11
6.599999833929357
 21
101.6000030721754
 31
0.0
  0
LINE
  5
22E
330
160
100
AcDbEntity
  8
0
  6
CONTINUOUS
100
AcDbLine
 10
5.595637893078333
 20
157.9400023384851
 30
0.0
 11
5.595637893078333
 21
142.5400023384848
 31
0.0
  0
LINE
  5
22F
330
160
100
AcDbEntity
  8
0
  6
CONTINUOUS
100
AcDbLine
 10
5.595637893078333
 20
142.5400023384848
 30
0.0
 11
6.599999833929357
 21
142.5400023384848
 31
0.0
  0
ENDBLK
  5
231
330
160
100
AcDbEntity
  8
0
100
AcDbBlockEnd
  0
BLOCK
  5
234
330
232
100
AcDbEntity
  8
0
100
AcDbBlockBegin
  2
A$C40301A48
 70
     0
 10
0.0
 20
0.0
 30
0.0
  3
A$C40301A48
  1

  0
INSERT
  5
233
330
232
100
AcDbEntity
  8
0
100
AcDbBlockReference
  2
A$C413B70EE
 10
-6.599999833929357
 20
-190.5000023384846
 30
0.0
  0
ENDBLK
  5
235
330
232
100
AcDbEntity
  8
0
100
AcDbBlockEnd
  0
BLOCK
  5
23B
330
236
100
AcDbEntity
  8
0
 48
5.0
100
AcDbBlockBegin
  2
A$C5CFD6E8C
 70
     0
 10
0.0
 20
0.0
 30
0.0
  3
A$C5CFD6E8C
  1

  0
LINE
  5
237
330
236
100
AcDbEntity
  8
0
 62
     0
100
AcDbLine
 10
1.599997211020308
 20
2.70000247964549
 30
0.0
 11
1.599997211020308
 21
0.0000024796447633
 31
0.0
  0
LINE
  5
238
330
236
100
AcDbEntity
  8
0
 62
     0
100
AcDbLine
 10
-0.0000027889800549
 20
0.0000024796447633
 30
0.0
 11
-0.0000027889800549
 21
2.70000247964549
 31
0.0
  0
LINE
  5
239
330
236
100
AcDbEntity
  8
0
  6
CENTER
 62
     0
100
AcDbLine
 10
1.599997211020308
 20
2.70000247964549
 30
0.0
 11
-0.0000027889800549
 21
2.70000247964549
 31
0.0
  0
LINE
  5
23A
330
236
100
AcDbEntity
  8
0
  6
CENTER
 62
     0
100
AcDbLine
 10
1.599997211020308
 20
0.0000024796447633
 30
0.0
 11
-0.0000027889800549
 21
0.0000024796447633
 31
0.0
  0
ENDBLK
  5
23C
330
236
100
AcDbEntity
  8
0
 48
5.0
100
AcDbBlockEnd
  0
ENDSEC
  0
SECTION
  2
ENTITIES
  0
LINE
  5
66C
330
1F
100
AcDbEntity
  8
1
100
AcDbLine
 10
21.50000124215535
 20
359.9738142138343
 30
0.0
 11
36.50000124215535
 21
359.9738142138343
 31
0.0
  0
LINE
  5
66D
330
1F
100
AcDbEntity
  8
1
100
AcDbLine
 10
21.50000124215535
 20
175.9738142138344
 30
0.0
 11
36.50000124215535
 21
175.9738142138344
 31
0.0
  0
LINE
  5
66E
330
1F
100
AcDbEntity
  8
1
100
AcDbLine
 10
29.00000124215443
 20
352.4738142138343
 30
0.0
 11
29.00000124215443
 21
367.4738142138352
 31
0.0
  0
LINE
  5
66F
330
1F
100
AcDbEntity
  8
1
100
AcDbLine
 10
29.00000124215535
 20
168.4738142138344
 30
0.0
 11
29.00000124215535
 21
183.4738142138344
 31
0.0
  0
INSERT
  5
67B
330
1F
100
AcDbEntity
  8
0
100
AcDbBlockReference
  2
A$C35844AFD
 10
0.0000027408843835
 20
-0.0000007406101759
 30
0.0
  0
INSERT
  5
67C
330
1F
100
AcDbEntity
  8
0
100
AcDbBlockReference
  2
A$C40301A48
 10
158.000001242155
 20
354.9738142138343
 30
0.0
  0
LINE
  5
67D
330
1F
100
AcDbEntity
  8
0
100
AcDbLine
 10
50.00000136407241
 20
267.5738140544908
 30
0.0
 11
38.60000136407256
 21
267.5738140544908
 31
0.0
  0
LINE
  5
67E
330
1F
100
AcDbEntity
  8
0
100
AcDbLine
 10
0.0000012421553492
 20
363.8949136566366
 30
0.0
 11
0.0000012421553492
 21
172.0527147710335
 31
0.0
  0
LINE
  5
67F
330
1F
100
AcDbEntity
  8
0
100
AcDbLine
 10
58.00000124215443
 20
363.9738142138343
 30
0.0
 11
58.00000124215443
 21
171.9738142138344
 31
0.0
  0
LINE
  5
680
330
1F
100
AcDbEntity
  8
0
100
AcDbLine
 10
0.9738242938462915
 20
364.8945709816116
 30
0.0
 11
4.000001242154437
 21
364.9738142138343
 31
0.0
  0
LINE
  5
681
330
1F
100
AcDbEntity
  8
0
100
AcDbLine
 10
26.90000124215453
 20
175.9738142138344
 30
0.0
 11
26.90000124215453
 21
170.9738142138343
 31
0.0
  0
LINE
  5
682
330
1F
100
AcDbEntity
  8
0
100
AcDbLine
 10
0.4869127680003662
 20
354.8818207545853
 30
0.0
 11
4.000001242154437
 21
354.9738142138343
 31
0.0
  0
LINE
  5
683
330
1F
100
AcDbEntity
  8
0
100
AcDbLine
 10
0.4869127680003662
 20
181.0658076730839
 30
0.0
 11
4.000001242154437
 21
180.9738142138344
 31
0.0
  0
LINE
  5
684
330
1F
100
AcDbEntity
  8
0
100
AcDbLine
 10
5.000001242155346
 20
201.6069946387474
 30
0.0
 11
5.000001242155346
 21
354.9476282922654
 31
0.0
  0
ARC
  5
685
330
1F
100
AcDbEntity
  8
0
100
AcDbCircle
 10
4.300001242155303
 20
197.9738142138344
 30
0.0
 40
3.699999999995998
100
AcDbArc
 50
0.0
 51
79.09453000325759
  0
LINE
  5
686
330
1F
100
AcDbEntity
  8
0
100
AcDbLine
 10
8.000001242150347
 20
197.9738142138344
 30
0.0
 11
8.000001242149437
 21
181.0785579001113
 31
0.0
  0
LINE
  5
687
330
1F
100
AcDbEntity
  8
0
100
AcDbLine
 10
0.9738242938462915
 20
171.0530574460574
 30
0.0
 11
4.000001242154437
 21
170.9738142138343
 31
0.0
  0
LINE
  5
688
330
1F
100
AcDbEntity
  8
0
100
AcDbLine
 10
5.000001242155346
 20
350.9738142138343
 30
0.0
 11
5.013089716308286
 21
350.9741569475921
 31
0.0
  0
LINE
  5
689
330
1F
100
AcDbEntity
  8
0
100
AcDbLine
 10
4.000001242154437
 20
364.9738142138343
 30
0.0
 11
57.00000124215442
 21
364.9738142138343
 31
0.0
  0
LINE
  5
68A
330
1F
100
AcDbEntity
  8
0
100
AcDbLine
 10
4.000001242154437
 20
354.9738142138343
 30
0.0
 11
5.000001242155346
 21
354.9476282922654
 31
0.0
  0
LINE
  5
68B
330
1F
100
AcDbEntity
  8
0
100
AcDbLine
 10
4.000001242154437
 20
180.9738142138344
 30
0.0
 11
8.000001242149437
 21
181.0785579001113
 31
0.0
  0
LINE
  5
68C
330
1F
100
AcDbEntity
  8
0
100
AcDbLine
 10
4.000001242154437
 20
170.9738142138343
 30
0.0
 11
26.90000124215453
 21
170.9738142138343
 31
0.0
  0
CIRCLE
  5
68D
330
1F
100
AcDbEntity
  8
0
100
AcDbCircle
 10
29.00000124215443
 20
359.9738142138343
 30
0.0
 40
2.1
  0
ARC
  5
68E
330
1F
100
AcDbEntity
  8
0
100
AcDbCircle
 10
29.00000124215443
 20
359.9738142138343
 30
0.0
 40
5.5
100
AcDbArc
 50
180.0
 51
245.3800226713518
  0
ARC
  5
68F
330
1F
100
AcDbEntity
  8
0
100
AcDbCircle
 10
29.00000124215443
 20
175.9738142138344
 30
0.0
 40
5.5
100
AcDbArc
 50
0.0
 51
65.3800226713519
  0
ARC
  5
690
330
1F
100
AcDbEntity
  8
0
100
AcDbCircle
 10
29.00000124215443
 20
175.9738142138344
 30
0.0
 40
2.1
100
AcDbArc
 50
0.0
 51
180.0
  0
LINE
  5
691
330
1F
100
AcDbEntity
  8
0
100
AcDbLine
 10
31.10000124215435
 20
170.9738142138343
 30
0.0
 11
34.50000124215444
 21
170.9738142138343
 31
0.0
  0
LINE
  5
692
330
1F
100
AcDbEntity
  8
0
100
AcDbLine
 10
34.50000124215444
 20
359.9738142138343
 30
0.0
 11
34.50000124215444
 21
364.9738142138343
 31
0.0
  0
LINE
  5
693
330
1F
100
AcDbEntity
  8
0
100
AcDbLine
 10
23.50000124215444
 20
359.9738142138343
 30
0.0
 11
23.50000124215444
 21
364.9738142138343
 31
0.0
  0
LINE
  5
694
330
1F
100
AcDbEntity
  8
0
100
AcDbLine
 10
23.50000124215444
 20
175.9738142138344
 30
0.0
 11
23.50000124215444
 21
170.9738142138343
 31
0.0
  0
LINE
  5
695
330
1F
100
AcDbEntity
  8
0
100
AcDbLine
 10
31.10000124215435
 20
175.9738142138344
 30
0.0
 11
31.10000124215435
 21
170.9738142138343
 31
0.0
  0
LINE
  5
696
330
1F
100
AcDbEntity
  8
0
100
AcDbLine
 10
34.50000124215444
 20
175.9738142138344
 30
0.0
 11
34.50000124215444
 21
170.9738142138343
 31
0.0
  0
CIRCLE
  5
697
330
1F
100
AcDbEntity
  8
0
100
AcDbCircle
 10
4.000001242154437
 20
195.9738142138344
 30
0.0
 40
2.0
  0
CIRCLE
  5
698
330
1F
100
AcDbEntity
  8
0
100
AcDbCircle
 10
4.000001242154437
 20
195.9738142138344
 30
0.0
 40
1.6
  0
CIRCLE
  5
699
330
1F
100
AcDbEntity
  8
0
100
AcDbCircle
 10
4.000001242154437
 20
185.9738142138344
 30
0.0
 40
2.0
  0
CIRCLE
  5
69A
330
1F
100
AcDbEntity
  8
0
100
AcDbCircle
 10
4.000001242154437
 20
185.9738142138344
 30
0.0
 40
1.6
  0
ARC
  5
69B
330
1F
100
AcDbEntity
  8
0
100
AcDbCircle
 10
1.000001242155349
 20
363.8949136566366
 30
0.0
 40
1.0
100
AcDbArc
 50
91.50000000000281
 51
180.0
  0
ARC
  5
69C
330
1F
100
AcDbEntity
  8
0
100
AcDbCircle
 10
57.00000124215442
 20
363.9738142138343
 30
0.0
 40
1.0
100
AcDbArc
 50
0.0
 51
90.0
  0
ARC
  5
69D
330
1F
100
AcDbEntity
  8
0
100
AcDbCircle
 10
1.000001242155349
 20
172.0527147710335
 30
0.0
 40
1.0
100
AcDbArc
 50
180.0
 51
268.4999999999971
  0
ARC
  5
69E
330
1F
100
AcDbEntity
  8
0
100
AcDbCircle
 10
57.00000124215442
 20
171.9738142138344
 30
0.0
 40
1.0
100
AcDbArc
 50
270.0
 51
0.0
  0
ARC
  5
69F
330
1F
100
AcDbEntity
  8
0
100
AcDbCircle
 10
0.5000012421553493
 20
354.3819920920973
 30
0.0
 40
0.5
100
AcDbArc
 50
91.50000000000281
 51
180.0
  0
ARC
  5
6A0
330
1F
100
AcDbEntity
  8
0
100
AcDbCircle
 10
0.5000012421553493
 20
181.5656363355724
 30
0.0
 40
0.5
100
AcDbArc
 50
180.0
 51
268.4999999999971
  0
LINE
  5
6A1
330
1F
100
AcDbEntity
  8
0
100
AcDbLine
 10
6.000001242153301
 20
180.9738142138344
 30
0.0
 11
58.00000124215443
 21
180.9738142138344
 31
0.0
  0
LINE
  5
6A2
330
1F
100
AcDbEntity
  8
0
100
AcDbLine
 10
6.000001242154437
 20
354.4738142138343
 30
0.0
 11
5.000001242155346
 21
354.4738142138343
 31
0.0
  0
LINE
  5
6A3
330
1F
100
AcDbEntity
  8
0
100
AcDbLine
 10
6.000001242154437
 20
354.9738142138343
 30
0.0
 11
6.000001242153301
 21
202.3555946738724
 31
0.0
  0
LINE
  5
6A4
330
1F
100
AcDbEntity
  8
0
100
AcDbLine
 10
6.000001242154437
 20
354.9738142138343
 30
0.0
 11
58.00000124215443
 21
354.9738142138343
 31
0.0
  0
ARC
  5
6A5
330
1F
100
AcDbEntity
  8
0
100
AcDbCircle
 10
4.300001242155303
 20
197.9738142138344
 30
0.0
 40
4.699999999995998
100
AcDbArc
 50
0.0
 51
68.79523363710617
  0
LINE
  5
6A6
330
1F
100
AcDbEntity
  8
0
100
AcDbLine
 10
9.000001242151482
 20
197.9738142138344
 30
0.0
 11
9.000001242149437
 21
180.9738142138344
 31
0.0
  0
LINE
  5
6A7
330
1F
100
AcDbEntity
  8
0
100
AcDbLine
 10
9.000001242149437
 20
181.4738142138344
 30
0.0
 11
8.000001242149437
 21
181.4738142138344
 31
0.0
  0
LINE
  5
6A8
330
1F
100
AcDbEntity
  8
0
100
AcDbLine
 10
56.00000124215442
 20
182.9738142138344
 30
0.0
 11
56.00000124215442
 21
352.9738142138343
 31
0.0
  0
LINE
  5
6A9
330
1F
100
AcDbEntity
  8
0
100
AcDbLine
 10
56.00000124215442
 20
352.9738142138343
 30
0.0
 11
8.000001242155347
 21
352.9738142138343
 31
0.0
  0
ARC
  5
6AA
330
1F
100
AcDbEntity
  8
0
100
AcDbCircle
 10
4.300001242155303
 20
197.9738142138344
 30
0.0
 40
6.699999999996
100
AcDbArc
 50
0.0
 51
56.4792596039965
  0
LINE
  5
6AB
330
1F
100
AcDbEntity
  8
0
100
AcDbLine
 10
11.00000124215148
 20
197.9738142138344
 30
0.0
 11
11.00000124214941
 21
182.9738142138344
 31
0.0
  0
LINE
  5
6AC
330
1F
100
AcDbEntity
  8
0
100
AcDbLine
 10
56.00000124215442
 20
182.9738142138344
 30
0.0
 11
11.00000124214941
 21
182.9738142138344
 31
0.0
  0
LINE
  5
6AD
330
1F
100
AcDbEntity
  8
0
100
AcDbLine
 10
8.000001242155347
 20
352.9738142138343
 30
0.0
 11
8.000001242153302
 21
203.5595102313386
 31
0.0
  0
LINE
  5
6AE
330
1F
100
AcDbEntity
  8
0
100
AcDbLine
 10
58.00000124215443
 20
180.9738142138344
 30
0.0
 11
58.00000124215443
 21
354.9738142138343
 31
0.0
  0
LINE
  5
6AF
330
1F
100
AcDbEntity
  8
0
100
AcDbLine
 10
5.000001242155346
 20
201.6069946387483
 30
0.0
 11
5.000001242155346
 21
354.4738142138343
 31
0.0
  0
LINE
  5
6B0
330
1F
100
AcDbEntity
  8
0
100
AcDbLine
 10
8.000001242150347
 20
197.9738142138344
 30
0.0
 11
8.000001242149437
 21
181.4738142138344
 31
0.0
  0
ARC
  5
6B1
330
1F
100
AcDbEntity
  8
0
100
AcDbCircle
 10
4.300001242155303
 20
197.9738142138344
 30
0.0
 40
3.699999999995998
100
AcDbArc
 50
0.0
 51
79.09453000325759
  0
LINE
  5
6B2
330
1F
100
AcDbEntity
  8
0
100
AcDbLine
 10
6.000001242152392
 20
181.0261860569735
 30
0.0
 11
6.000001242153301
 21
180.9738142138344
 31
0.0
  0
LINE
  5
6B3
330
1F
100
AcDbEntity
  8
0
100
AcDbLine
 10
35.20000136407247
 20
263.0738140544908
 30
0.0
 11
35.20000136407247
 21
247.0738140544908
 31
0.0
  0
LINE
  5
6B4
330
1F
100
AcDbEntity
  8
0
100
AcDbLine
 10
38.6000013640712
 20
247.0738140544908
 30
0.0
 11
35.20000136407247
 21
247.0738140544908
 31
0.0
  0
LINE
  5
6B5
330
1F
100
AcDbEntity
  8
0
100
AcDbLine
 10
38.6000013640712
 20
263.0738140544908
 30
0.0
 11
35.20000136407247
 21
263.0738140544908
 31
0.0
  0
LINE
  5
6B6
330
1F
100
AcDbEntity
  8
0
100
AcDbLine
 10
38.6000013640712
 20
263.0738140544908
 30
0.0
 11
38.6000013640712
 21
267.5738140544908
 31
0.0
  0
LINE
  5
6B7
330
1F
100
AcDbEntity
  8
0
100
AcDbLine
 10
50.00000136407241
 20
185.1738140544905
 30
0.0
 11
38.6000013640712
 21
185.1738140544905
 31
0.0
  0
LINE
  5
6B8
330
1F
100
AcDbEntity
  8
0
100
AcDbLine
 10
38.6000013640712
 20
247.0738140544908
 30
0.0
 11
38.6000013640712
 21
232.6738140544907
 31
0.0
  0
LINE
  5
6B9
330
1F
100
AcDbEntity
  8
0
100
AcDbLine
 10
11.10000124214929
 20
183.1738142138346
 30
0.0
 11
55.70000124215312
 21
183.1738142138346
 31
0.0
  0
LINE
  5
6BA
330
1F
100
AcDbEntity
  8
0
100
AcDbLine
 10
55.70000124215312
 20
352.7738142138346
 30
0.0
 11
55.70000124215312
 21
183.1738142138346
 31
0.0
  0
LINE
  5
6BB
330
1F
100
AcDbEntity
  8
0
100
AcDbLine
 10
11.10000124215025
 20
197.9738142138344
 30
0.0
 11
11.10000124214929
 21
183.1738142138346
 31
0.0
  0
ARC
  5
6BC
330
1F
100
AcDbEntity
  8
0
100
AcDbCircle
 10
4.200001242154485
 20
197.9738142138344
 30
0.0
 40
6.899999999996
100
AcDbArc
 50
0.0
 51
55.58261128955511
  0
LINE
  5
6BD
330
1F
100
AcDbEntity
  8
0
100
AcDbLine
 10
8.100001242154347
 20
352.7738142138346
 30
0.0
 11
8.100001242154347
 21
203.6659140021333
 31
0.0
  0
LINE
  5
6BE
330
1F
100
AcDbEntity
  8
0
100
AcDbLine
 10
55.70000124215312
 20
352.7738142138346
 30
0.0
 11
8.100001242154347
 21
352.7738142138346
 31
0.0
  0
LINE
  5
6BF
330
1F
100
AcDbEntity
  8
0
100
AcDbLine
 10
25.20000136407225
 20
260.1738140544907
 30
0.0
 11
25.20000136407225
 21
256.5738140544908
 31
0.0
  0
LINE
  5
6C0
330
1F
100
AcDbEntity
  8
0
100
AcDbLine
 10
23.60000136407143
 20
271.4738140544905
 30
0.0
 11
23.60000136407143
 21
260.1738140544907
 31
0.0
  0
LINE
  5
6C1
330
1F
100
AcDbEntity
  8
0
100
AcDbLine
 10
13.0000013640722
 20
271.4738140544905
 30
0.0
 11
23.60000136407143
 21
271.4738140544905
 31
0.0
  0
LINE
  5
6C2
330
1F
100
AcDbEntity
  8
0
100
AcDbLine
 10
23.60000136407143
 20
239.5738140544908
 30
0.0
 11
25.20000136407225
 21
239.5738140544908
 31
0.0
  0
LINE
  5
6C3
330
1F
100
AcDbEntity
  8
0
100
AcDbLine
 10
23.60000136407143
 20
256.5738140544908
 30
0.0
 11
25.20000136407225
 21
256.5738140544908
 31
0.0
  0
LINE
  5
6C4
330
1F
100
AcDbEntity
  8
0
100
AcDbLine
 10
23.60000136407143
 20
260.1738140544907
 30
0.0
 11
25.20000136407225
 21
260.1738140544907
 31
0.0
  0
LINE
  5
6C5
330
1F
100
AcDbEntity
  8
0
100
AcDbLine
 10
23.60000136407143
 20
243.1738140544907
 30
0.0
 11
25.20000136407225
 21
243.1738140544907
 31
0.0
  0
LINE
  5
6C6
330
1F
100
AcDbEntity
  8
0
100
AcDbLine
 10
25.20000136407225
 20
243.1738140544907
 30
0.0
 11
25.20000136407225
 21
239.5738140544908
 31
0.0
  0
LINE
  5
6C7
330
1F
100
AcDbEntity
  8
0
100
AcDbLine
 10
23.60000136407143
 20
256.5738140544908
 30
0.0
 11
23.60000136407143
 21
243.1738140544907
 31
0.0
  0
LINE
  5
6C8
330
1F
100
AcDbEntity
  8
0
100
AcDbLine
 10
23.60000136407143
 20
185.1738140544905
 30
0.0
 11
13.0000013640722
 21
185.1738140544905
 31
0.0
  0
LINE
  5
6C9
330
1F
100
AcDbEntity
  8
0
100
AcDbLine
 10
23.60000136407143
 20
239.5738140544908
 30
0.0
 11
23.60000136407143
 21
185.1738140544905
 31
0.0
  0
LINE
  5
6CA
330
1F
100
AcDbEntity
  8
0
100
AcDbLine
 10
13.0000013640722
 20
271.4738140544905
 30
0.0
 11
13.0000013640722
 21
185.1738140544905
 31
0.0
  0
LINE
  5
6CB
330
1F
100
AcDbEntity
  8
0
100
AcDbLine
 10
13.0000013640722
 20
275.9738140544905
 30
0.0
 11
25.40000136407138
 21
275.9738140544905
 31
0.0
  0
LINE
  5
6CC
330
1F
100
AcDbEntity
  8
0
100
AcDbLine
 10
22.90000136407138
 20
339.0738140544907
 30
0.0
 11
22.90000136407138
 21
331.0738140544908
 31
0.0
  0
LINE
  5
6CD
330
1F
100
AcDbEntity
  8
0
100
AcDbLine
 10
13.0000013640722
 20
306.0738140544908
 30
0.0
 11
22.30000136407146
 21
306.0738140544908
 31
0.0
  0
LINE
  5
6CE
330
1F
100
AcDbEntity
  8
0
100
AcDbLine
 10
22.30000136407146
 20
322.8738140544903
 30
0.0
 11
25.90000136407136
 21
322.8738140544903
 31
0.0
  0
CIRCLE
  5
6CF
330
1F
100
AcDbEntity
  8
0
100
AcDbCircle
 10
16.60000136407142
 20
342.9738140544905
 30
0.0
 40
1.399999999999999
  0
LINE
  5
6D0
330
1F
100
AcDbEntity
  8
0
100
AcDbLine
 10
13.0000013640722
 20
302.1738140544907
 30
0.0
 11
13.0000013640722
 21
275.9738140544905
 31
0.0
  0
LINE
  5
6D1
330
1F
100
AcDbEntity
  8
0
100
AcDbLine
 10
22.90000136407138
 20
331.0738140544908
 30
0.0
 11
25.90000136407136
 21
331.0738140544908
 31
0.0
  0
LINE
  5
6D2
330
1F
100
AcDbEntity
  8
0
100
AcDbLine
 10
13.0000013640722
 20
302.1738140544907
 30
0.0
 11
25.40000136407138
 21
302.1738140544907
 31
0.0
  0
CIRCLE
  5
6D3
330
1F
100
AcDbEntity
  8
0
100
AcDbCircle
 10
16.60000136407142
 20
347.7738140544906
 30
0.0
 40
1.399999999999999
  0
CIRCLE
  5
6D4
330
1F
100
AcDbEntity
  8
0
100
AcDbCircle
 10
21.70000136407223
 20
347.7738140544906
 30
0.0
 40
1.399999999999999
  0
LINE
  5
6D5
330
1F
100
AcDbEntity
  8
0
100
AcDbLine
 10
25.90000136407136
 20
331.0738140544908
 30
0.0
 11
25.90000136407136
 21
322.8738140544903
 31
0.0
  0
LINE
  5
6D6
330
1F
100
AcDbEntity
  8
0
100
AcDbLine
 10
22.90000136407138
 20
339.0738140544907
 30
0.0
 11
13.0000013640722
 21
339.0738140544907
 31
0.0
  0
LINE
  5
6D7
330
1F
100
AcDbEntity
  8
0
100
AcDbLine
 10
13.0000013640722
 20
339.0738140544907
 30
0.0
 11
13.0000013640722
 21
306.0738140544908
 31
0.0
  0
CIRCLE
  5
6D8
330
1F
100
AcDbEntity
  8
0
100
AcDbCircle
 10
21.70000136407223
 20
342.9738140544905
 30
0.0
 40
1.399999999999999
  0
LINE
  5
6D9
330
1F
100
AcDbEntity
  8
0
100
AcDbLine
 10
22.30000136407146
 20
322.8738140544903
 30
0.0
 11
22.30000136407146
 21
306.0738140544908
 31
0.0
  0
LINE
  5
6DA
330
1F
100
AcDbEntity
  8
0
100
AcDbLine
 10
50.00000136407241
 20
230.6738140544907
 30
0.0
 11
38.6000013640712
 21
230.6738140544907
 31
0.0
  0
LINE
  5
6DB
330
1F
100
AcDbEntity
  8
0
100
AcDbLine
 10
50.00000136407241
 20
232.6738140544907
 30
0.0
 11
38.6000013640712
 21
232.6738140544907
 31
0.0
  0
LINE
  5
6DC
330
1F
100
AcDbEntity
  8
0
100
AcDbLine
 10
50.00000136407241
 20
267.5738140544908
 30
0.0
 11
50.00000136407241
 21
232.6738140544907
 31
0.0
  0
LINE
  5
6DD
330
1F
100
AcDbEntity
  8
0
100
AcDbLine
 10
50.00000136407241
 20
230.6738140544907
 30
0.0
 11
50.00000136407241
 21
185.1738140544905
 31
0.0
  0
LINE
  5
6DE
330
1F
100
AcDbEntity
  8
0
100
AcDbLine
 10
38.6000013640712
 20
230.6738140544907
 30
0.0
 11
38.6000013640712
 21
185.1738140544905
 31
0.0
  0
LINE
  5
6DF
330
1F
100
AcDbEntity
  8
0
100
AcDbLine
 10
25.40000136407138
 20
302.1738140544907
 30
0.0
 11
25.40000136407138
 21
275.9738140544905
 31
0.0
  0
CIRCLE
  5
6E0
330
1F
100
AcDbEntity
  8
0
100
AcDbCircle
 10
18.2500012421533
 20
334.8038142138343
 30
0.0
 40
1.290290050200999
  0
LINE
  5
6E1
330
1F
100
AcDbEntity
  8
0
100
AcDbLine
 10
22.0000012421533
 20
338.5538142138343
 30
0.0
 11
14.10000124215434
 21
338.5538142138343
 31
0.0
  0
LINE
  5
6E2
330
1F
100
AcDbEntity
  8
0
100
AcDbLine
 10
22.0000012421533
 20
331.0538142138351
 30
0.0
 11
14.10000124215434
 21
331.0538142138351
 31
0.0
  0
LINE
  5
6E3
330
1F
100
AcDbEntity
  8
0
100
AcDbLine
 10
22.0000012421533
 20
331.0538142138351
 30
0.0
 11
22.0000012421533
 21
338.5538142138343
 31
0.0
  0
LINE
  5
6E4
330
1F
100
AcDbEntity
  8
0
100
AcDbLine
 10
14.50000124215442
 20
331.0538142138351
 30
0.0
 11
14.50000124215442
 21
338.5538142138343
 31
0.0
  0
LINE
  5
6E5
330
1F
100
AcDbEntity
  8
0
100
AcDbLine
 10
14.10000124215434
 20
337.6438142138344
 30
0.0
 11
14.10000124215434
 21
338.5538142138343
 31
0.0
  0
LINE
  5
6E6
330
1F
100
AcDbEntity
  8
0
100
AcDbLine
 10
14.10000124215434
 20
337.6438142138352
 30
0.0
 11
14.50000124215442
 21
337.6438142138352
 31
0.0
  0
LINE
  5
6E7
330
1F
100
AcDbEntity
  8
0
100
AcDbLine
 10
14.10000124215434
 20
337.0438142138354
 30
0.0
 11
14.50000124215442
 21
337.0438142138354
 31
0.0
  0
LINE
  5
6E8
330
1F
100
AcDbEntity
  8
0
100
AcDbLine
 10
14.10000124215434
 20
331.9638142138352
 30
0.0
 11
14.50000124215442
 21
331.9638142138352
 31
0.0
  0
LINE
  5
6E9
330
1F
100
AcDbEntity
  8
0
100
AcDbLine
 10
14.10000124215434
 20
332.5638142138353
 30
0.0
 11
14.50000124215442
 21
332.5638142138353
 31
0.0
  0
LINE
  5
6EA
330
1F
100
AcDbEntity
  8
0
100
AcDbLine
 10
14.10000124215434
 20
335.1038142138353
 30
0.0
 11
14.50000124215442
 21
335.1038142138353
 31
0.0
  0
LINE
  5
6EB
330
1F
100
AcDbEntity
  8
0
100
AcDbLine
 10
14.10000124215434
 20
334.5038142138355
 30
0.0
 11
14.50000124215442
 21
334.5038142138355
 31
0.0
  0
LINE
  5
6EC
330
1F
100
AcDbEntity
  8
0
100
AcDbLine
 10
14.10000124215434
 20
331.0538142138351
 30
0.0
 11
14.10000124215434
 21
331.9638142138352
 31
0.0
  0
LINE
  5
6ED
330
1F
100
AcDbEntity
  8
0
100
AcDbLine
 10
14.10000124215434
 20
307.0138142138341
 30
0.0
 11
21.35000124215435
 21
307.0138142138341
 31
0.0
  0
CIRCLE
  5
6EE
330
1F
100
AcDbEntity
  8
0
100
AcDbCircle
 10
17.60000124215435
 20
319.9638142138346
 30
0.0
 40
1.0
  0
CIRCLE
  5
6EF
330
1F
100
AcDbEntity
  8
0
100
AcDbCircle
 10
17.60000124215435
 20
316.4638142138346
 30
0.0
 40
1.0
  0
CIRCLE
  5
6F0
330
1F
100
AcDbEntity
  8
0
100
AcDbCircle
 10
17.60000124215435
 20
312.9638142138346
 30
0.0
 40
1.0
  0
CIRCLE
  5
6F1
330
1F
100
AcDbEntity
  8
0
100
AcDbCircle
 10
17.60000124215435
 20
309.4638142138346
 30
0.0
 40
1.0
  0
LINE
  5
6F2
330
1F
100
AcDbEntity
  8
0
100
AcDbLine
 10
21.35000124215435
 20
307.0138142138341
 30
0.0
 11
21.35000124215435
 21
322.4138142138345
 31
0.0
  0
LINE
  5
6F3
330
1F
100
AcDbEntity
  8
0
100
AcDbLine
 10
21.35000124215435
 20
322.4138142138345
 30
0.0
 11
14.10000124215434
 21
322.4138142138345
 31
0.0
  0
LINE
  5
6F4
330
1F
100
AcDbEntity
  8
0
100
AcDbLine
 10
14.10000124215434
 20
322.4138142138345
 30
0.0
 11
14.10000124215434
 21
307.0138142138341
 31
0.0
  0
LINE
  5
6F5
330
1F
100
AcDbEntity
  8
0
100
AcDbLine
 10
24.30000124215438
 20
324.8638142138347
 30
0.0
 11
19.52450631316333
 21
324.8638142138347
 31
0.0
  0
LINE
  5
6F6
330
1F
100
AcDbEntity
  8
0
100
AcDbLine
 10
24.30000124215438
 20
328.6038142138345
 30
0.0
 11
19.52450631316333
 21
328.6038142138345
 31
0.0
  0
LINE
  5
6F7
330
1F
100
AcDbEntity
  8
0
100
AcDbLine
 10
24.30000124215438
 20
323.4138142138354
 30
0.0
 11
14.10000124215434
 21
323.4138142138354
 31
0.0
  0
LINE
  5
6F8
330
1F
100
AcDbEntity
  8
0
100
AcDbLine
 10
24.30000124215438
 20
330.0538142138343
 30
0.0
 11
14.10000124215434
 21
330.0538142138343
 31
0.0
  0
LINE
  5
6F9
330
1F
100
AcDbEntity
  8
0
100
AcDbLine
 10
24.30000124215438
 20
327.4038142138345
 30
0.0
 11
21.3000012421553
 21
327.4038142138345
 31
0.0
  0
LINE
  5
6FA
330
1F
100
AcDbEntity
  8
0
100
AcDbLine
 10
24.30000124215438
 20
326.0638142138345
 30
0.0
 11
21.3000012421553
 21
326.0638142138345
 31
0.0
  0
LINE
  5
6FB
330
1F
100
AcDbEntity
  8
0
100
AcDbLine
 10
24.30000124215438
 20
324.8638142138347
 30
0.0
 11
21.3000012421553
 21
324.8638142138347
 31
0.0
  0
LINE
  5
6FC
330
1F
100
AcDbEntity
  8
0
100
AcDbLine
 10
21.3000012421553
 20
327.4038142138345
 30
0.0
 11
21.3000012421553
 21
328.6038142138345
 31
0.0
  0
LINE
  5
6FD
330
1F
100
AcDbEntity
  8
0
100
AcDbLine
 10
21.3000012421553
 20
324.8638142138347
 30
0.0
 11
21.3000012421553
 21
326.0638142138345
 31
0.0
  0
LINE
  5
6FE
330
1F
100
AcDbEntity
  8
0
100
AcDbLine
 10
22.8000012421553
 20
326.0638142138345
 30
0.0
 11
22.8000012421553
 21
327.4038142138345
 31
0.0
  0
LINE
  5
6FF
330
1F
100
AcDbEntity
  8
0
100
AcDbLine
 10
23.30000124215529
 20
327.4038142138345
 30
0.0
 11
23.30000124215529
 21
328.6038142138345
 31
0.0
  0
LINE
  5
700
330
1F
100
AcDbEntity
  8
0
100
AcDbLine
 10
23.30000124215529
 20
324.8638142138347
 30
0.0
 11
23.30000124215529
 21
326.0638142138345
 31
0.0
  0
LINE
  5
701
330
1F
100
AcDbEntity
  8
0
100
AcDbLine
 10
24.30000124215438
 20
323.4138142138354
 30
0.0
 11
24.30000124215438
 21
330.0538142138343
 31
0.0
  0
LINE
  5
702
330
1F
100
AcDbEntity
  8
0
100
AcDbLine
 10
19.52450631316333
 20
328.6038142138345
 30
0.0
 11
19.52450631316333
 21
324.8638142138347
 31
0.0
  0
LINE
  5
703
330
1F
100
AcDbEntity
  8
0
100
AcDbLine
 10
14.10000124215434
 20
323.4138142138354
 30
0.0
 11
14.10000124215434
 21
330.0538142138343
 31
0.0
  0
LINE
  5
704
330
1F
100
AcDbEntity
  8
0
100
AcDbLine
 10
14.10000124215434
 20
293.6338142138346
 30
0.0
 11
15.60000124215433
 21
293.6338142138346
 31
0.0
  0
LINE
  5
705
330
1F
100
AcDbEntity
  8
0
100
AcDbLine
 10
14.10000124215434
 20
288.5538142138343
 30
0.0
 11
15.60000124215433
 21
288.5538142138343
 31
0.0
  0
LINE
  5
706
330
1F
100
AcDbEntity
  8
0
100
AcDbLine
 10
14.10000124215434
 20
283.4738142138343
 30
0.0
 11
15.60000124215433
 21
283.4738142138343
 31
0.0
  0
LINE
  5
707
330
1F
100
AcDbEntity
  8
0
100
AcDbLine
 10
14.10000124215434
 20
298.1338142138346
 30
0.0
 11
15.60000124215433
 21
298.1338142138346
 31
0.0
  0
LINE
  5
708
330
1F
100
AcDbEntity
  8
0
100
AcDbLine
 10
14.10000124215434
 20
276.9738142138344
 30
0.0
 11
15.60000124215433
 21
276.9738142138344
 31
0.0
  0
LINE
  5
709
330
1F
100
AcDbEntity
  8
0
100
AcDbLine
 10
19.60000124215342
 20
293.1338142138347
 30
0.0
 11
20.60000124215342
 21
293.1338142138347
 31
0.0
  0
LINE
  5
70A
330
1F
100
AcDbEntity
  8
0
100
AcDbLine
 10
19.60000124215342
 20
288.0538142138343
 30
0.0
 11
20.60000124215342
 21
288.0538142138343
 31
0.0
  0
LINE
  5
70B
330
1F
100
AcDbEntity
  8
0
100
AcDbLine
 10
19.60000124215342
 20
282.9738142138343
 30
0.0
 11
20.60000124215342
 21
282.9738142138343
 31
0.0
  0
LINE
  5
70C
330
1F
100
AcDbEntity
  8
0
100
AcDbLine
 10
15.60000124215433
 20
301.1338142138346
 30
0.0
 11
16.60000124215434
 21
301.1338142138346
 31
0.0
  0
LINE
  5
70D
330
1F
100
AcDbEntity
  8
0
100
AcDbLine
 10
16.60000124215434
 20
301.1338142138346
 30
0.0
 11
16.60000124215434
 21
276.9738142138344
 31
0.0
  0
LINE
  5
70E
330
1F
100
AcDbEntity
  8
0
100
AcDbLine
 10
24.08500124215334
 20
301.1338142138346
 30
0.0
 11
23.58500124215447
 21
301.1338142138346
 31
0.0
  0
LINE
  5
70F
330
1F
100
AcDbEntity
  8
0
100
AcDbLine
 10
23.58500124215447
 20
301.1338142138346
 30
0.0
 11
23.58500124215447
 21
276.9738142138344
 31
0.0
  0
LINE
  5
710
330
1F
100
AcDbEntity
  8
0
100
AcDbLine
 10
24.94500124215436
 20
301.1338142138346
 30
0.0
 11
24.94500124215436
 21
276.9738142138344
 31
0.0
  0
LINE
  5
711
330
1F
100
AcDbEntity
  8
0
100
AcDbLine
 10
15.60000124215433
 20
301.1338142138346
 30
0.0
 11
15.60000124215433
 21
300.1338142138346
 31
0.0
  0
LINE
  5
712
330
1F
100
AcDbEntity
  8
0
100
AcDbLine
 10
16.60000124215434
 20
300.1338142138346
 30
0.0
 11
23.58500124215447
 21
300.1338142138346
 31
0.0
  0
LINE
  5
713
330
1F
100
AcDbEntity
  8
0
100
AcDbLine
 10
15.60000124215433
 20
276.9738142138344
 30
0.0
 11
15.60000124215433
 21
277.9738142138344
 31
0.0
  0
LINE
  5
714
330
1F
100
AcDbEntity
  8
0
100
AcDbLine
 10
16.60000124215434
 20
277.9738142138344
 30
0.0
 11
23.58500124215447
 21
277.9738142138344
 31
0.0
  0
LINE
  5
715
330
1F
100
AcDbEntity
  8
0
100
AcDbLine
 10
15.60000124215433
 20
276.9738142138344
 30
0.0
 11
24.94500124215436
 21
276.9738142138344
 31
0.0
  0
LINE
  5
716
330
1F
100
AcDbEntity
  8
0
100
AcDbLine
 10
24.94500124215436
 20
301.1338142138346
 30
0.0
 11
15.60000124215433
 21
301.1338142138346
 31
0.0
  0
LINE
  5
717
330
1F
100
AcDbEntity
  8
0
100
AcDbLine
 10
15.60000124215433
 20
301.1338142138346
 30
0.0
 11
15.60000124215433
 21
276.9738142138344
 31
0.0
  0
LINE
  5
718
330
1F
100
AcDbEntity
  8
0
100
AcDbLine
 10
20.60000124215342
 20
293.1338142138347
 30
0.0
 11
20.60000124215342
 21
295.1338142138346
 31
0.0
  0
LINE
  5
719
330
1F
100
AcDbEntity
  8
0
100
AcDbLine
 10
20.60000124215342
 20
295.1338142138346
 30
0.0
 11
19.60000124215342
 21
295.1338142138346
 31
0.0
  0
LINE
  5
71A
330
1F
100
AcDbEntity
  8
0
100
AcDbLine
 10
19.60000124215342
 20
295.1338142138346
 30
0.0
 11
19.60000124215342
 21
293.1338142138347
 31
0.0
  0
LINE
  5
71B
330
1F
100
AcDbEntity
  8
0
100
AcDbLine
 10
20.60000124215342
 20
288.0538142138343
 30
0.0
 11
20.60000124215342
 21
290.0538142138342
 31
0.0
  0
LINE
  5
71C
330
1F
100
AcDbEntity
  8
0
100
AcDbLine
 10
20.60000124215342
 20
290.0538142138342
 30
0.0
 11
19.60000124215342
 21
290.0538142138342
 31
0.0
  0
LINE
  5
71D
330
1F
100
AcDbEntity
  8
0
100
AcDbLine
 10
19.60000124215342
 20
290.0538142138342
 30
0.0
 11
19.60000124215342
 21
288.0538142138343
 31
0.0
  0
LINE
  5
71E
330
1F
100
AcDbEntity
  8
0
100
AcDbLine
 10
20.60000124215342
 20
282.9738142138343
 30
0.0
 11
20.60000124215342
 21
284.9738142138343
 31
0.0
  0
LINE
  5
71F
330
1F
100
AcDbEntity
  8
0
100
AcDbLine
 10
20.60000124215342
 20
284.9738142138343
 30
0.0
 11
19.60000124215342
 21
284.9738142138343
 31
0.0
  0
LINE
  5
720
330
1F
100
AcDbEntity
  8
0
100
AcDbLine
 10
19.60000124215342
 20
284.9738142138343
 30
0.0
 11
19.60000124215342
 21
282.9738142138343
 31
0.0
  0
LINE
  5
721
330
1F
100
AcDbEntity
  8
0
100
AcDbLine
 10
15.60000124215433
 20
276.9738142138344
 30
0.0
 11
15.60000124215433
 21
279.9738142138344
 31
0.0
  0
LINE
  5
722
330
1F
100
AcDbEntity
  8
0
100
AcDbLine
 10
15.60000124215433
 20
279.9738142138344
 30
0.0
 11
14.10000124215434
 21
279.9738142138344
 31
0.0
  0
LINE
  5
723
330
1F
100
AcDbEntity
  8
0
100
AcDbLine
 10
14.10000124215434
 20
279.9738142138344
 30
0.0
 11
14.10000124215434
 21
276.9738142138344
 31
0.0
  0
LINE
  5
724
330
1F
100
AcDbEntity
  8
0
100
AcDbLine
 10
15.60000124215433
 20
283.4738142138343
 30
0.0
 11
15.60000124215433
 21
284.4738142138343
 31
0.0
  0
LINE
  5
725
330
1F
100
AcDbEntity
  8
0
100
AcDbLine
 10
15.60000124215433
 20
284.4738142138343
 30
0.0
 11
14.10000124215434
 21
284.4738142138343
 31
0.0
  0
LINE
  5
726
330
1F
100
AcDbEntity
  8
0
100
AcDbLine
 10
15.60000124215433
 20
288.5538142138343
 30
0.0
 11
15.60000124215433
 21
289.5538142138343
 31
0.0
  0
LINE
  5
727
330
1F
100
AcDbEntity
  8
0
100
AcDbLine
 10
15.60000124215433
 20
289.5538142138343
 30
0.0
 11
14.10000124215434
 21
289.5538142138343
 31
0.0
  0
LINE
  5
728
330
1F
100
AcDbEntity
  8
0
100
AcDbLine
 10
15.60000124215433
 20
293.6338142138346
 30
0.0
 11
15.60000124215433
 21
294.6338142138346
 31
0.0
  0
LINE
  5
729
330
1F
100
AcDbEntity
  8
0
100
AcDbLine
 10
15.60000124215433
 20
294.6338142138346
 30
0.0
 11
14.10000124215434
 21
294.6338142138346
 31
0.0
  0
LINE
  5
72A
330
1F
100
AcDbEntity
  8
0
100
AcDbLine
 10
15.60000124215433
 20
298.1338142138346
 30
0.0
 11
15.60000124215433
 21
301.1338142138346
 31
0.0
  0
LINE
  5
72B
330
1F
100
AcDbEntity
  8
0
100
AcDbLine
 10
15.60000124215433
 20
301.1338142138346
 30
0.0
 11
14.10000124215434
 21
301.1338142138346
 31
0.0
  0
LINE
  5
72C
330
1F
100
AcDbEntity
  8
0
100
AcDbLine
 10
14.10000124215434
 20
301.1338142138346
 30
0.0
 11
14.10000124215434
 21
298.1338142138346
 31
0.0
  0
LINE
  5
72D
330
1F
100
AcDbEntity
  8
0
100
AcDbLine
 10
14.10000124215434
 20
185.9738142138344
 30
0.0
 11
22.70000124215447
 21
185.9738142138344
 31
0.0
  0
CIRCLE
  5
72E
330
1F
100
AcDbEntity
  8
0
100
AcDbCircle
 10
18.10000124215344
 20
193.5938142138343
 30
0.0
 40
2.0
  0
CIRCLE
  5
72F
330
1F
100
AcDbEntity
  8
0
100
AcDbCircle
 10
18.10000124215344
 20
198.6738142138346
 30
0.0
 40
2.0
  0
CIRCLE
  5
730
330
1F
100
AcDbEntity
  8
0
100
AcDbCircle
 10
18.10000124215344
 20
198.6738142138346
 30
0.0
 40
2.0
  0
CIRCLE
  5
731
330
1F
100
AcDbEntity
  8
0
100
AcDbCircle
 10
18.10000124215344
 20
203.7538142138354
 30
0.0
 40
2.0
  0
CIRCLE
  5
732
330
1F
100
AcDbEntity
  8
0
100
AcDbCircle
 10
18.10000124215344
 20
203.7538142138354
 30
0.0
 40
2.0
  0
CIRCLE
  5
733
330
1F
100
AcDbEntity
  8
0
100
AcDbCircle
 10
18.10000124215344
 20
213.9138142138345
 30
0.0
 40
2.0
  0
CIRCLE
  5
734
330
1F
100
AcDbEntity
  8
0
100
AcDbCircle
 10
18.10000124215344
 20
213.9138142138345
 30
0.0
 40
2.0
  0
CIRCLE
  5
735
330
1F
100
AcDbEntity
  8
0
100
AcDbCircle
 10
18.10000124215344
 20
218.9938142138351
 30
0.0
 40
2.0
  0
CIRCLE
  5
736
330
1F
100
AcDbEntity
  8
0
100
AcDbCircle
 10
18.10000124215344
 20
188.843814213834
 30
0.0
 40
1.0
  0
CIRCLE
  5
737
330
1F
100
AcDbEntity
  8
0
100
AcDbCircle
 10
18.10000124215344
 20
188.843814213834
 30
0.0
 40
1.5
  0
CIRCLE
  5
738
330
1F
100
AcDbEntity
  8
0
100
AcDbCircle
 10
18.10000124215344
 20
223.7438142138353
 30
0.0
 40
1.0
  0
CIRCLE
  5
739
330
1F
100
AcDbEntity
  8
0
100
AcDbCircle
 10
18.10000124215344
 20
223.7438142138353
 30
0.0
 40
1.5
  0
CIRCLE
  5
73A
330
1F
100
AcDbEntity
  8
0
100
AcDbCircle
 10
18.10000124215344
 20
208.8338142138344
 30
0.0
 40
2.0
  0
LINE
  5
73B
330
1F
100
AcDbEntity
  8
0
100
AcDbLine
 10
22.70000124215447
 20
185.9738142138344
 30
0.0
 11
22.70000124215447
 21
226.6138142138346
 31
0.0
  0
LINE
  5
73C
330
1F
100
AcDbEntity
  8
0
100
AcDbLine
 10
22.70000124215447
 20
226.6138142138346
 30
0.0
 11
14.10000124215434
 21
226.6138142138346
 31
0.0
  0
LINE
  5
73D
330
1F
100
AcDbEntity
  8
0
100
AcDbLine
 10
14.10000124215434
 20
226.6138142138346
 30
0.0
 11
14.10000124215434
 21
185.9738142138344
 31
0.0
  0
LINE
  5
73E
330
1F
100
AcDbEntity
  8
0
100
AcDbLine
 10
47.45000124215446
 20
204.0900973564264
 30
0.0
 11
47.45000124215446
 21
219.0575310712438
 31
0.0
  0
LINE
  5
73F
330
1F
100
AcDbEntity
  8
0
100
AcDbLine
 10
41.15000124215453
 20
219.6738142138346
 30
0.0
 11
41.15000124215453
 21
203.4738142138344
 31
0.0
  0
LINE
  5
740
330
1F
100
AcDbEntity
  8
0
100
AcDbLine
 10
42.70000124215449
 20
220.1738142138346
 30
0.0
 11
42.70000124215449
 21
202.9738142138344
 31
0.0
  0
LINE
  5
741
330
1F
100
AcDbEntity
  8
0
100
AcDbLine
 10
45.90000124215544
 20
202.9738142138344
 30
0.0
 11
45.90000124215544
 21
220.1738142138346
 31
0.0
  0
LINE
  5
742
330
1F
100
AcDbEntity
  8
0
100
AcDbLine
 10
39.70000124215538
 20
229.1738142138346
 30
0.0
 11
39.70000124215538
 21
193.9738142138344
 31
0.0
  0
LINE
  5
743
330
1F
100
AcDbEntity
  8
0
100
AcDbLine
 10
48.80000124215531
 20
192.9738142138344
 30
0.0
 11
48.80000124215531
 21
230.1738142138346
 31
0.0
  0
LINE
  5
744
330
1F
100
AcDbEntity
  8
0
100
AcDbLine
 10
49.10000124215435
 20
200.3738142138344
 30
0.0
 11
49.10000124215435
 21
193.2738142138346
 31
0.0
  0
CIRCLE
  5
745
330
1F
100
AcDbEntity
  8
0
100
AcDbCircle
 10
44.3000012421553
 20
195.9438142138344
 30
0.0
 40
1.399999999999999
  0
ARC
  5
746
330
1F
100
AcDbEntity
  8
0
100
AcDbCircle
 10
48.80000124215531
 20
193.2738142138346
 30
0.0
 40
0.3
100
AcDbArc
 50
270.0
 51
0.0
  0
LINE
  5
747
330
1F
100
AcDbEntity
  8
0
100
AcDbLine
 10
40.50000124215443
 20
192.9738142138344
 30
0.0
 11
48.80000124215531
 21
192.9738142138344
 31
0.0
  0
ARC
  5
748
330
1F
100
AcDbEntity
  8
0
100
AcDbCircle
 10
40.50000124215443
 20
193.4738142138344
 30
0.0
 40
0.5
100
AcDbArc
 50
180.0
 51
270.0
  0
LINE
  5
749
330
1F
100
AcDbEntity
  8
0
100
AcDbLine
 10
40.00000124215443
 20
193.9738142138344
 30
0.0
 11
40.00000124215443
 21
193.4738142138344
 31
0.0
  0
LINE
  5
74A
330
1F
100
AcDbEntity
  8
0
100
AcDbLine
 10
39.70000124215538
 20
193.9738142138344
 30
0.0
 11
48.80000124215531
 21
193.9738142138344
 31
0.0
  0
ARC
  5
74B
330
1F
100
AcDbEntity
  8
0
100
AcDbCircle
 10
45.45000124215446
 20
204.0900973564264
 30
0.0
 40
2.0
100
AcDbArc
 50
284.9999999999943
 51
0.0
  0
LINE
  5
74C
330
1F
100
AcDbEntity
  8
0
100
AcDbLine
 10
43.66763933236052
 20
201.5419625612566
 30
0.0
 11
45.96763933236045
 21
202.1582457038475
 31
0.0
  0
ARC
  5
74D
330
1F
100
AcDbEntity
  8
0
100
AcDbCircle
 10
43.15000124215544
 20
203.4738142138344
 30
0.0
 40
2.0
100
AcDbArc
 50
180.0
 51
284.9999999999943
  0
LINE
  5
74E
330
1F
100
AcDbEntity
  8
0
100
AcDbLine
 10
42.70000124215449
 20
202.9738142138344
 30
0.0
 11
45.90000124215544
 21
202.9738142138344
 31
0.0
  0
LINE
  5
74F
330
1F
100
AcDbEntity
  8
0
100
AcDbLine
 10
48.80000124215531
 20
200.3738142138344
 30
0.0
 11
49.10000124215435
 21
200.3738142138344
 31
0.0
  0
LINE
  5
750
330
1F
100
AcDbEntity
  8
0
100
AcDbLine
 10
47.45000124215446
 20
197.9738142138344
 30
0.0
 11
47.45000124215446
 21
200.3738142138344
 31
0.0
  0
LINE
  5
751
330
1F
100
AcDbEntity
  8
0
100
AcDbLine
 10
41.15000124215453
 20
200.3738142138344
 30
0.0
 11
41.15000124215453
 21
197.9738142138344
 31
0.0
  0
LINE
  5
752
330
1F
100
AcDbEntity
  8
0
100
AcDbLine
 10
41.15000124215453
 20
200.3738142138344
 30
0.0
 11
47.45000124215446
 21
200.3738142138344
 31
0.0
  0
LINE
  5
753
330
1F
100
AcDbEntity
  8
0
100
AcDbLine
 10
41.15000124215453
 20
198.4738142138344
 30
0.0
 11
47.45000124215446
 21
198.4738142138344
 31
0.0
  0
LINE
  5
754
330
1F
100
AcDbEntity
  8
0
100
AcDbLine
 10
41.15000124215453
 20
197.9738142138344
 30
0.0
 11
47.45000124215446
 21
197.9738142138344
 31
0.0
  0
ARC
  5
755
330
1F
100
AcDbEntity
  8
0
100
AcDbCircle
 10
48.80000124215531
 20
229.8738142138367
 30
0.0
 40
0.3
100
AcDbArc
 50
0.0
 51
90.0
  0
LINE
  5
756
330
1F
100
AcDbEntity
  8
0
100
AcDbLine
 10
49.10000124215435
 20
229.8738142138367
 30
0.0
 11
49.10000124215435
 21
222.7738142138345
 31
0.0
  0
LINE
  5
757
330
1F
100
AcDbEntity
  8
0
100
AcDbLine
 10
40.50000124215443
 20
230.1738142138346
 30
0.0
 11
48.80000124215531
 21
230.1738142138356
 31
0.0
  0
ARC
  5
758
330
1F
100
AcDbEntity
  8
0
100
AcDbCircle
 10
45.45000124215446
 20
219.0575310712438
 30
0.0
 40
2.0
100
AcDbArc
 50
0.0
 51
75.00000000000555
  0
LINE
  5
759
330
1F
100
AcDbEntity
  8
0
100
AcDbLine
 10
43.66763933236052
 20
221.6056658664129
 30
0.0
 11
45.96763933236045
 21
220.9893827238214
 31
0.0
  0
ARC
  5
75A
330
1F
100
AcDbEntity
  8
0
100
AcDbCircle
 10
43.15000124215544
 20
219.6738142138346
 30
0.0
 40
2.0
100
AcDbArc
 50
75.00000000000555
 51
180.0
  0
LINE
  5
75B
330
1F
100
AcDbEntity
  8
0
100
AcDbLine
 10
45.90000124215544
 20
220.1738142138346
 30
0.0
 11
42.70000124215449
 21
220.1738142138356
 31
0.0
  0
ARC
  5
75C
330
1F
100
AcDbEntity
  8
0
100
AcDbCircle
 10
40.50000124215443
 20
229.6738142138346
 30
0.0
 40
0.5
100
AcDbArc
 50
90.0
 51
180.0
  0
LINE
  5
75D
330
1F
100
AcDbEntity
  8
0
100
AcDbLine
 10
40.00000124215443
 20
229.6738142138346
 30
0.0
 11
40.00000124215443
 21
229.1738142138346
 31
0.0
  0
LINE
  5
75E
330
1F
100
AcDbEntity
  8
0
100
AcDbLine
 10
39.70000124215538
 20
229.1738142138346
 30
0.0
 11
48.80000124215531
 21
229.1738142138346
 31
0.0
  0
LINE
  5
75F
330
1F
100
AcDbEntity
  8
0
100
AcDbLine
 10
48.80000124215531
 20
222.7738142138345
 30
0.0
 11
49.10000124215435
 21
222.7738142138345
 31
0.0
  0
LINE
  5
760
330
1F
100
AcDbEntity
  8
0
100
AcDbLine
 10
47.45000124215446
 20
222.7738142138345
 30
0.0
 11
47.45000124215446
 21
225.1738142138356
 31
0.0
  0
LINE
  5
761
330
1F
100
AcDbEntity
  8
0
100
AcDbLine
 10
41.15000124215453
 20
225.1738142138356
 30
0.0
 11
41.15000124215453
 21
222.7738142138345
 31
0.0
  0
LINE
  5
762
330
1F
100
AcDbEntity
  8
0
100
AcDbLine
 10
41.15000124215453
 20
222.7738142138345
 30
0.0
 11
47.45000124215446
 21
222.7738142138345
 31
0.0
  0
LINE
  5
763
330
1F
100
AcDbEntity
  8
0
100
AcDbLine
 10
41.15000124215453
 20
224.6738142138346
 30
0.0
 11
47.45000124215446
 21
224.6738142138346
 31
0.0
  0
LINE
  5
764
330
1F
100
AcDbEntity
  8
0
100
AcDbLine
 10
41.15000124215453
 20
225.1738142138346
 30
0.0
 11
47.45000124215446
 21
225.1738142138346
 31
0.0
  0
CIRCLE
  5
765
330
1F
100
AcDbEntity
  8
0
100
AcDbCircle
 10
44.3000012421553
 20
227.2038142138344
 30
0.0
 40
1.399999999999999
  0
LINE
  5
766
330
1F
100
AcDbEntity
  8
0
100
AcDbLine
 10
48.80000124215531
 20
215.3838142138356
 30
0.0
 11
49.10000124215435
 21
215.3838142138356
 31
0.0
  0
LINE
  5
767
330
1F
100
AcDbEntity
  8
0
100
AcDbLine
 10
48.80000124215531
 20
214.1138142138355
 30
0.0
 11
49.10000124215435
 21
214.1138142138355
 31
0.0
  0
LINE
  5
768
330
1F
100
AcDbEntity
  8
0
100
AcDbLine
 10
48.80000124215531
 20
212.8438142138356
 30
0.0
 11
49.10000124215435
 21
212.8438142138356
 31
0.0
  0
LINE
  5
769
330
1F
100
AcDbEntity
  8
0
100
AcDbLine
 10
48.80000124215531
 20
211.5738142138352
 30
0.0
 11
49.10000124215435
 21
211.5738142138352
 31
0.0
  0
LINE
  5
76A
330
1F
100
AcDbEntity
  8
0
100
AcDbLine
 10
48.80000124215531
 20
210.3038142138351
 30
0.0
 11
49.10000124215435
 21
210.3038142138351
 31
0.0
  0
LINE
  5
76B
330
1F
100
AcDbEntity
  8
0
100
AcDbLine
 10
48.80000124215531
 20
209.0338142138351
 30
0.0
 11
49.10000124215435
 21
209.0338142138351
 31
0.0
  0
LINE
  5
76C
330
1F
100
AcDbEntity
  8
0
100
AcDbLine
 10
48.80000124215531
 20
207.7638142138352
 30
0.0
 11
49.10000124215435
 21
207.7638142138352
 31
0.0
  0
LINE
  5
76D
330
1F
100
AcDbEntity
  8
0
100
AcDbLine
 10
48.80000124215531
 20
217.9238142138355
 30
0.0
 11
49.10000124215435
 21
217.9238142138355
 31
0.0
  0
LINE
  5
76E
330
1F
100
AcDbEntity
  8
0
100
AcDbLine
 10
48.80000124215531
 20
216.6538142138356
 30
0.0
 11
49.10000124215435
 21
216.6538142138356
 31
0.0
  0
LINE
  5
76F
330
1F
100
AcDbEntity
  8
0
100
AcDbLine
 10
48.80000124215531
 20
215.3838142138356
 30
0.0
 11
49.10000124215435
 21
215.3838142138356
 31
0.0
  0
LINE
  5
770
330
1F
100
AcDbEntity
  8
0
100
AcDbLine
 10
48.80000124215531
 20
219.1938142138345
 30
0.0
 11
49.10000124215435
 21
219.1938142138345
 31
0.0
  0
LINE
  5
771
330
1F
100
AcDbEntity
  8
0
100
AcDbLine
 10
48.80000124215531
 20
217.9238142138355
 30
0.0
 11
49.10000124215435
 21
217.9238142138355
 31
0.0
  0
LINE
  5
772
330
1F
100
AcDbEntity
  8
0
100
AcDbLine
 10
48.80000124215531
 20
207.7638142138352
 30
0.0
 11
49.10000124215435
 21
207.7638142138352
 31
0.0
  0
LINE
  5
773
330
1F
100
AcDbEntity
  8
0
100
AcDbLine
 10
48.80000124215531
 20
206.4938142138351
 30
0.0
 11
49.10000124215435
 21
206.4938142138351
 31
0.0
  0
LINE
  5
774
330
1F
100
AcDbEntity
  8
0
100
AcDbLine
 10
48.80000124215531
 20
205.2238142138351
 30
0.0
 11
49.10000124215435
 21
205.2238142138351
 31
0.0
  0
LINE
  5
775
330
1F
100
AcDbEntity
  8
0
100
AcDbLine
 10
48.80000124215531
 20
203.9538142138352
 30
0.0
 11
49.10000124215435
 21
203.9538142138352
 31
0.0
  0
LINE
  5
776
330
1F
100
AcDbEntity
  8
0
100
AcDbLine
 10
14.10000124215434
 20
185.1738140544905
 30
0.0
 11
14.10000124215434
 21
271.4738140544905
 31
0.0
  0
LINE
  5
777
330
1F
100
AcDbEntity
  8
0
100
AcDbLine
 10
53.44722305600021
 20
172.9738142138344
 30
0.0
 11
51.43303561581433
 21
172.9738142138344
 31
0.0
  0
LINE
  5
778
330
1F
100
AcDbEntity
  8
0
100
AcDbLine
 10
36.56696686849453
 20
172.9738142138344
 30
0.0
 11
34.55277942830821
 21
172.9738142138344
 31
0.0
  0
LINE
  5
779
330
1F
100
AcDbEntity
  8
0
100
AcDbLine
 10
36.50000124215329
 20
180.9738142138344
 30
0.0
 11
36.50000124215329
 21
173.9738142138344
 31
0.0
  0
LINE
  5
77A
330
1F
100
AcDbEntity
  8
0
100
AcDbLine
 10
53.5000012421533
 20
164.4738142138344
 30
0.0
 11
34.50000124215444
 21
164.4738142138344
 31
0.0
  0
ARC
  5
77B
330
1F
100
AcDbEntity
  8
0
100
AcDbCircle
 10
44.00000124215442
 20
173.9738142138344
 30
0.0
 40
7.5
100
AcDbArc
 50
180.0
 51
0.0
  0
ARC
  5
77C
330
1F
100
AcDbEntity
  8
0
100
AcDbCircle
 10
44.00000124215442
 20
173.9738142138344
 30
0.0
 40
9.5
100
AcDbArc
 50
186.0423284190442
 51
353.9576715809299
  0
LINE
  5
77D
330
1F
100
AcDbEntity
  8
0
100
AcDbLine
 10
34.50000124215444
 20
164.4738142138344
 30
0.0
 11
34.50000124215444
 21
180.9738142138344
 31
0.0
  0
LINE
  5
77E
330
1F
100
AcDbEntity
  8
0
100
AcDbLine
 10
53.5000012421533
 20
164.4738142138344
 30
0.0
 11
53.5000012421533
 21
180.9738142138344
 31
0.0
  0
LINE
  5
77F
330
1F
100
AcDbEntity
  8
0
100
AcDbLine
 10
51.5000012421533
 20
180.9738142138344
 30
0.0
 11
51.5000012421533
 21
173.9738142138344
 31
0.0
  0
LINE
  5
780
330
1F
100
AcDbEntity
  8
0
100
AcDbLine
 10
49.10000124215321
 20
185.9738142138344
 30
0.0
 11
49.10000124215321
 21
191.4738142138344
 31
0.0
  0
CIRCLE
  5
781
330
1F
100
AcDbEntity
  8
0
100
AcDbCircle
 10
45.67000124215314
 20
187.4738142138344
 30
0.0
 40
0.32
  0
CIRCLE
  5
782
330
1F
100
AcDbEntity
  8
0
100
AcDbCircle
 10
45.67000124215314
 20
189.9738142138344
 30
0.0
 40
0.32
  0
LINE
  5
783
330
1F
100
AcDbEntity
  8
0
100
AcDbLine
 10
42.60000124215321
 20
185.9738142138344
 30
0.0
 11
43.60000124215321
 21
185.9738142138344
 31
0.0
  0
LINE
  5
784
330
1F
100
AcDbEntity
  8
0
100
AcDbLine
 10
43.60000124215321
 20
185.9738142138344
 30
0.0
 11
43.60000124215321
 21
191.4738142138344
 31
0.0
  0
LINE
  5
785
330
1F
100
AcDbEntity
  8
0
100
AcDbLine
 10
43.60000124215321
 20
187.9738142138344
 30
0.0
 11
43.60000124215321
 21
189.4738142138344
 31
0.0
  0
LINE
  5
786
330
1F
100
AcDbEntity
  8
0
100
AcDbLine
 10
43.60000124215321
 20
189.4738142138344
 30
0.0
 11
42.60000124215321
 21
189.4738142138344
 31
0.0
  0
LINE
  5
787
330
1F
100
AcDbEntity
  8
0
100
AcDbLine
 10
42.60000124215321
 20
189.4738142138344
 30
0.0
 11
42.60000124215321
 21
187.9738142138344
 31
0.0
  0
LINE
  5
788
330
1F
100
AcDbEntity
  8
0
100
AcDbLine
 10
42.60000124215321
 20
187.9738142138344
 30
0.0
 11
43.60000124215321
 21
187.9738142138344
 31
0.0
  0
LINE
  5
789
330
1F
100
AcDbEntity
  8
0
100
AcDbLine
 10
49.10000124215321
 20
191.4738142138344
 30
0.0
 11
42.60000124215321
 21
191.4738142138344
 31
0.0
  0
LINE
  5
78A
330
1F
100
AcDbEntity
  8
0
100
AcDbLine
 10
42.60000124215321
 20
191.4738142138344
 30
0.0
 11
42.60000124215321
 21
185.9738142138344
 31
0.0
  0
LINE
  5
78B
330
1F
100
AcDbEntity
  8
0
100
AcDbLine
 10
42.60000124215321
 20
185.9738142138344
 30
0.0
 11
49.10000124215321
 21
185.9738142138344
 31
0.0
  0
CIRCLE
  5
78C
330
1F
100
AcDbEntity
  8
0
100
AcDbCircle
 10
18.10000124215344
 20
238.6138142138346
 30
0.0
 40
0.75
  0
LINE
  5
78D
330
1F
100
AcDbEntity
  8
0
100
AcDbLine
 10
22.60000124215344
 20
234.6138142138346
 30
0.0
 11
22.60000124215344
 21
265.1138142138344
 31
0.0
  0
LINE
  5
78E
330
1F
100
AcDbEntity
  8
0
100
AcDbLine
 10
14.10000124215434
 20
270.4738142138344
 30
0.0
 11
14.10000124215434
 21
229.6138142138345
 31
0.0
  0
LINE
  5
78F
330
1F
100
AcDbEntity
  8
0
100
AcDbLine
 10
20.30000124215324
 20
239.9238142138346
 30
0.0
 11
20.30000124215324
 21
237.3038142138343
 31
0.0
  0
ARC
  5
790
330
1F
100
AcDbEntity
  8
0
100
AcDbCircle
 10
18.10000124215344
 20
238.6138142138346
 30
0.0
 40
2.9
100
AcDbArc
 50
133.602818972703
 51
226.3971810272968
  0
CIRCLE
  5
791
330
1F
100
AcDbEntity
  8
0
100
AcDbCircle
 10
18.10000124215344
 20
238.6138142138346
 30
0.0
 40
1.5
  0
CIRCLE
  5
792
330
1F
100
AcDbEntity
  8
0
100
AcDbCircle
 10
18.06361518175048
 20
232.5138142138344
 30
0.0
 40
2.0
  0
LINE
  5
793
330
1F
100
AcDbEntity
  8
0
100
AcDbLine
 10
14.10000124215434
 20
229.6138142138345
 30
0.0
 11
21.10000124215344
 21
229.6138142138345
 31
0.0
  0
LINE
  5
794
330
1F
100
AcDbEntity
  8
0
100
AcDbLine
 10
16.10000124215434
 20
235.6138142138346
 30
0.0
 11
21.10000124215344
 21
235.6138142138346
 31
0.0
  0
LINE
  5
795
330
1F
100
AcDbEntity
  8
0
100
AcDbLine
 10
16.10000124215434
 20
236.5138142138344
 30
0.0
 11
16.10000124215434
 21
235.6138142138346
 31
0.0
  0
LINE
  5
796
330
1F
100
AcDbEntity
  8
0
100
AcDbLine
 10
21.10000124215344
 20
229.6138142138345
 30
0.0
 11
21.10000124215344
 21
234.6138142138346
 31
0.0
  0
CIRCLE
  5
797
330
1F
100
AcDbEntity
  8
0
100
AcDbCircle
 10
18.06361518175048
 20
232.5138142138344
 30
0.0
 40
0.9
  0
LINE
  5
798
330
1F
100
AcDbEntity
  8
0
100
AcDbLine
 10
21.10000124215344
 20
234.6138142138346
 30
0.0
 11
22.60000124215344
 21
234.6138142138346
 31
0.0
  0
LINE
  5
799
330
1F
100
AcDbEntity
  8
0
100
AcDbLine
 10
20.30000124215324
 20
237.3038142138343
 30
0.0
 11
21.10000124215344
 21
237.3038142138343
 31
0.0
  0
LINE
  5
79A
330
1F
100
AcDbEntity
  8
0
100
AcDbLine
 10
21.10000124215344
 20
237.3038142138343
 30
0.0
 11
21.10000124215344
 21
235.6138142138346
 31
0.0
  0
ARC
  5
79B
330
1F
100
AcDbEntity
  8
0
100
AcDbCircle
 10
18.10000124215344
 20
261.4738142138344
 30
0.0
 40
2.9
100
AcDbArc
 50
133.602818972703
 51
226.3971810272968
  0
LINE
  5
79C
330
1F
100
AcDbEntity
  8
0
100
AcDbLine
 10
21.10000124215344
 20
260.1638142138351
 30
0.0
 11
21.10000124215344
 21
255.1638142138344
 31
0.0
  0
LINE
  5
79D
330
1F
100
AcDbEntity
  8
0
100
AcDbLine
 10
21.10000124215344
 20
252.5438142138344
 30
0.0
 11
21.10000124215344
 21
247.5438142138346
 31
0.0
  0
LINE
  5
79E
330
1F
100
AcDbEntity
  8
0
100
AcDbLine
 10
16.10000124215434
 20
251.7538142138346
 30
0.0
 11
16.10000124215434
 21
248.3338142138344
 31
0.0
  0
ARC
  5
79F
330
1F
100
AcDbEntity
  8
0
100
AcDbCircle
 10
18.10000124215344
 20
246.2338142138346
 30
0.0
 40
2.9
100
AcDbArc
 50
133.602818972703
 51
226.3971810272968
  0
LINE
  5
7A0
330
1F
100
AcDbEntity
  8
0
100
AcDbLine
 10
16.10000124215434
 20
244.1338142138345
 30
0.0
 11
16.10000124215434
 21
240.7138142138346
 31
0.0
  0
CIRCLE
  5
7A1
330
1F
100
AcDbEntity
  8
0
100
AcDbCircle
 10
18.10000124215344
 20
246.2338142138346
 30
0.0
 40
1.5
  0
LINE
  5
7A2
330
1F
100
AcDbEntity
  8
0
100
AcDbLine
 10
21.10000124215344
 20
244.9238142138346
 30
0.0
 11
21.10000124215344
 21
239.9238142138346
 31
0.0
  0
LINE
  5
7A3
330
1F
100
AcDbEntity
  8
0
100
AcDbLine
 10
20.30000124215324
 20
239.9238142138346
 30
0.0
 11
21.10000124215344
 21
239.9238142138346
 31
0.0
  0
LINE
  5
7A4
330
1F
100
AcDbEntity
  8
0
100
AcDbLine
 10
22.60000124215344
 20
242.1638142138344
 30
0.0
 11
24.30000124215325
 21
242.1638142138344
 31
0.0
  0
LINE
  5
7A5
330
1F
100
AcDbEntity
  8
0
100
AcDbLine
 10
24.30000124215325
 20
240.5638142138343
 30
0.0
 11
22.60000124215344
 21
240.5638142138343
 31
0.0
  0
LINE
  5
7A6
330
1F
100
AcDbEntity
  8
0
100
AcDbLine
 10
24.30000124215325
 20
242.1638142138344
 30
0.0
 11
24.30000124215325
 21
240.5638142138343
 31
0.0
  0
CIRCLE
  5
7A7
330
1F
100
AcDbEntity
  8
0
100
AcDbCircle
 10
18.10000124215344
 20
246.2338142138346
 30
0.0
 40
0.75
  0
LINE
  5
7A8
330
1F
100
AcDbEntity
  8
0
100
AcDbLine
 10
20.30000124215324
 20
244.9238142138346
 30
0.0
 11
21.10000124215344
 21
244.9238142138346
 31
0.0
  0
LINE
  5
7A9
330
1F
100
AcDbEntity
  8
0
100
AcDbLine
 10
20.30000124215324
 20
247.5438142138346
 30
0.0
 11
21.10000124215344
 21
247.5438142138346
 31
0.0
  0
LINE
  5
7AA
330
1F
100
AcDbEntity
  8
0
100
AcDbLine
 10
20.30000124215324
 20
247.5438142138346
 30
0.0
 11
20.30000124215324
 21
244.9238142138346
 31
0.0
  0
ARC
  5
7AB
330
1F
100
AcDbEntity
  8
0
100
AcDbCircle
 10
18.10000124215344
 20
253.8538142138345
 30
0.0
 40
2.9
100
AcDbArc
 50
133.602818972703
 51
226.3971810272968
  0
LINE
  5
7AC
330
1F
100
AcDbEntity
  8
0
100
AcDbLine
 10
16.10000124215434
 20
259.3738142138345
 30
0.0
 11
16.10000124215434
 21
255.9538142138344
 31
0.0
  0
LINE
  5
7AD
330
1F
100
AcDbEntity
  8
0
100
AcDbLine
 10
24.30000124215325
 20
257.5638142138345
 30
0.0
 11
22.60000124215344
 21
257.5638142138345
 31
0.0
  0
LINE
  5
7AE
330
1F
100
AcDbEntity
  8
0
100
AcDbLine
 10
24.30000124215325
 20
259.1638142138344
 30
0.0
 11
22.60000124215344
 21
259.1638142138344
 31
0.0
  0
LINE
  5
7AF
330
1F
100
AcDbEntity
  8
0
100
AcDbLine
 10
24.30000124215325
 20
259.1638142138344
 30
0.0
 11
24.30000124215325
 21
257.5638142138345
 31
0.0
  0
LINE
  5
7B0
330
1F
100
AcDbEntity
  8
0
100
AcDbLine
 10
20.30000124215324
 20
255.1638142138344
 30
0.0
 11
21.10000124215344
 21
255.1638142138344
 31
0.0
  0
CIRCLE
  5
7B1
330
1F
100
AcDbEntity
  8
0
100
AcDbCircle
 10
18.10000124215344
 20
253.8538142138345
 30
0.0
 40
0.75
  0
LINE
  5
7B2
330
1F
100
AcDbEntity
  8
0
100
AcDbLine
 10
20.30000124215324
 20
252.5438142138344
 30
0.0
 11
21.10000124215344
 21
252.5438142138344
 31
0.0
  0
CIRCLE
  5
7B3
330
1F
100
AcDbEntity
  8
0
100
AcDbCircle
 10
18.10000124215344
 20
253.8538142138345
 30
0.0
 40
1.5
  0
LINE
  5
7B4
330
1F
100
AcDbEntity
  8
0
100
AcDbLine
 10
20.30000124215324
 20
255.1638142138344
 30
0.0
 11
20.30000124215324
 21
252.5438142138344
 31
0.0
  0
LINE
  5
7B5
330
1F
100
AcDbEntity
  8
0
100
AcDbLine
 10
21.10000124215344
 20
265.4738142138344
 30
0.0
 11
21.10000124215344
 21
270.4738142138344
 31
0.0
  0
CIRCLE
  5
7B6
330
1F
100
AcDbEntity
  8
0
100
AcDbCircle
 10
18.10000124215344
 20
267.573814213834
 30
0.0
 40
2.0
  0
LINE
  5
7B7
330
1F
100
AcDbEntity
  8
0
100
AcDbLine
 10
21.10000124215344
 20
264.1138142138347
 30
0.0
 11
16.10000124215434
 21
264.1138142138347
 31
0.0
  0
LINE
  5
7B8
330
1F
100
AcDbEntity
  8
0
100
AcDbLine
 10
16.10000124215434
 20
264.1138142138347
 30
0.0
 11
16.10000124215434
 21
263.573814213834
 31
0.0
  0
LINE
  5
7B9
330
1F
100
AcDbEntity
  8
0
100
AcDbLine
 10
21.10000124215344
 20
265.4738142138344
 30
0.0
 11
22.60000124215344
 21
265.4738142138344
 31
0.0
  0
CIRCLE
  5
7BA
330
1F
100
AcDbEntity
  8
0
100
AcDbCircle
 10
18.10000124215344
 20
267.573814213834
 30
0.0
 40
0.9
  0
LINE
  5
7BB
330
1F
100
AcDbEntity
  8
0
100
AcDbLine
 10
20.30000124215324
 20
262.7838142138343
 30
0.0
 11
21.10000124215344
 21
262.7838142138343
 31
0.0
  0
LINE
  5
7BC
330
1F
100
AcDbEntity
  8
0
100
AcDbLine
 10
21.10000124215344
 20
264.1138142138347
 30
0.0
 11
21.10000124215344
 21
262.7838142138343
 31
0.0
  0
LINE
  5
7BD
330
1F
100
AcDbEntity
  8
0
100
AcDbLine
 10
20.30000124215324
 20
260.1638142138351
 30
0.0
 11
21.10000124215344
 21
260.1638142138351
 31
0.0
  0
CIRCLE
  5
7BE
330
1F
100
AcDbEntity
  8
0
100
AcDbCircle
 10
18.10000124215344
 20
261.4738142138344
 30
0.0
 40
0.75
  0
LINE
  5
7BF
330
1F
100
AcDbEntity
  8
0
100
AcDbLine
 10
20.30000124215324
 20
262.7838142138343
 30
0.0
 11
20.30000124215324
 21
260.1638142138351
 31
0.0
  0
CIRCLE
  5
7C0
330
1F
100
AcDbEntity
  8
0
100
AcDbCircle
 10
18.10000124215344
 20
261.4738142138344
 30
0.0
 40
1.5
  0
LINE
  5
7C1
330
1F
100
AcDbEntity
  8
0
100
AcDbLine
 10
22.60000124215344
 20
265.4738142138344
 30
0.0
 11
22.60000124215344
 21
265.1138142138344
 31
0.0
  0
LINE
  5
7C2
330
1F
100
AcDbEntity
  8
0
100
AcDbLine
 10
14.10000124215434
 20
270.4738142138344
 30
0.0
 11
21.10000124215344
 21
270.4738142138344
 31
0.0
  0
LINE
  5
7C3
330
1F
100
AcDbEntity
  8
0
100
AcDbLine
 10
14.10000124215434
 20
265.2338142138344
 30
0.0
 11
14.10000124215434
 21
270.4738142138344
 31
0.0
  0
LINE
  5
7C4
330
1F
100
AcDbEntity
  8
0
100
AcDbLine
 10
14.10000124215434
 20
270.4738142138344
 30
0.0
 11
21.10000124215344
 21
270.4738142138344
 31
0.0
  0
LINE
  5
7C5
330
1F
100
AcDbEntity
  8
0
100
AcDbLine
 10
21.10000124215344
 20
270.4738142138344
 30
0.0
 11
21.10000124215344
 21
265.2338142138344
 31
0.0
  0
LINE
  5
7C6
330
1F
100
AcDbEntity
  8
0
100
AcDbLine
 10
14.10000124215434
 20
234.8538142138344
 30
0.0
 11
14.10000124215434
 21
229.6138142138345
 31
0.0
  0
LINE
  5
7C7
330
1F
100
AcDbEntity
  8
0
100
AcDbLine
 10
14.10000124215434
 20
229.6138142138345
 30
0.0
 11
21.10000124215344
 21
229.6138142138345
 31
0.0
  0
LINE
  5
7C8
330
1F
100
AcDbEntity
  8
0
100
AcDbLine
 10
21.10000124215344
 20
229.6138142138345
 30
0.0
 11
21.10000124215344
 21
234.8538142138344
 31
0.0
  0
LINE
  5
7C9
330
1F
100
AcDbEntity
  8
0
100
AcDbLine
 10
41.20000124215311
 20
242.0738142138343
 30
0.0
 11
49.10000124215321
 21
242.0738142138343
 31
0.0
  0
LINE
  5
7CA
330
1F
100
AcDbEntity
  8
0
100
AcDbLine
 10
42.15000124215317
 20
243.0738142138343
 30
0.0
 11
48.15000124215453
 21
243.0738142138343
 31
0.0
  0
LINE
  5
7CB
330
1F
100
AcDbEntity
  8
0
100
AcDbLine
 10
43.15000124215453
 20
243.0738142138343
 30
0.0
 11
44.15000124215317
 21
243.0738142138343
 31
0.0
  0
LINE
  5
7CC
330
1F
100
AcDbEntity
  8
0
100
AcDbLine
 10
44.95000124215311
 20
243.0738142138343
 30
0.0
 11
44.95000124215311
 21
246.0738142138342
 31
0.0
  0
LINE
  5
7CD
330
1F
100
AcDbEntity
  8
0
100
AcDbLine
 10
48.15000124215453
 20
243.0738142138343
 30
0.0
 11
48.15000124215453
 21
246.0738142138342
 31
0.0
  0
LINE
  5
7CE
330
1F
100
AcDbEntity
  8
0
100
AcDbLine
 10
48.15000124215453
 20
246.0738142138342
 30
0.0
 11
42.15000124215317
 21
246.0738142138342
 31
0.0
  0
LINE
  5
7CF
330
1F
100
AcDbEntity
  8
0
100
AcDbLine
 10
42.15000124215317
 20
246.0738142138342
 30
0.0
 11
42.15000124215317
 21
243.0738142138343
 31
0.0
  0
LINE
  5
7D0
330
1F
100
AcDbEntity
  8
0
100
AcDbLine
 10
44.15000124215317
 20
243.0738142138343
 30
0.0
 11
44.15000124215317
 21
246.0738142138342
 31
0.0
  0
LINE
  5
7D1
330
1F
100
AcDbEntity
  8
0
100
AcDbLine
 10
44.15000124215317
 20
246.0738142138342
 30
0.0
 11
43.15000124215453
 21
246.0738142138342
 31
0.0
  0
LINE
  5
7D2
330
1F
100
AcDbEntity
  8
0
100
AcDbLine
 10
43.15000124215453
 20
246.0738142138342
 30
0.0
 11
43.15000124215453
 21
243.0738142138343
 31
0.0
  0
LINE
  5
7D3
330
1F
100
AcDbEntity
  8
0
100
AcDbLine
 10
49.10000124215321
 20
242.0738142138343
 30
0.0
 11
49.10000124215321
 21
247.0738142138343
 31
0.0
  0
LINE
  5
7D4
330
1F
100
AcDbEntity
  8
0
100
AcDbLine
 10
49.10000124215321
 20
247.0738142138343
 30
0.0
 11
41.20000124215311
 21
247.0738142138343
 31
0.0
  0
LINE
  5
7D5
330
1F
100
AcDbEntity
  8
0
100
AcDbLine
 10
41.20000124215311
 20
247.0738142138343
 30
0.0
 11
41.20000124215311
 21
242.0738142138343
 31
0.0
  0
CIRCLE
  5
7D6
330
1F
100
AcDbEntity
  8
0
100
AcDbCircle
 10
2.500001242155349
 20
203.9738142138344
 30
0.0
 40
2.149999999999999
  0
CIRCLE
  5
7D7
330
1F
100
AcDbEntity
  8
0
100
AcDbCircle
 10
2.500001242155349
 20
203.9738142138344
 30
0.0
 40
1.85
  0
LINE
  5
7D8
330
1F
100
AcDbEntity
  8
0
100
AcDbLine
 10
1.15000124215453
 20
203.6738142138346
 30
0.0
 11
3.850001242155256
 21
203.6738142138346
 31
0.0
  0
LINE
  5
7D9
330
1F
100
AcDbEntity
  8
0
100
AcDbLine
 10
2.350001242155258
 20
203.9738142138344
 30
0.0
 11
2.350001242155258
 21
205.3238142138343
 31
0.0
  0
LINE
  5
7DA
330
1F
100
AcDbEntity
  8
0
100
AcDbLine
 10
2.650001242154529
 20
203.9738142138344
 30
0.0
 11
2.650001242154529
 21
205.3238142138343
 31
0.0
  0
ARC
  5
7DB
330
1F
100
AcDbEntity
  8
0
100
AcDbCircle
 10
2.500001242155349
 20
205.3238142138343
 30
0.0
 40
0.15
100
AcDbArc
 50
0.0
 51
180.0
  0
ARC
  5
7DC
330
1F
100
AcDbEntity
  8
0
100
AcDbCircle
 10
1.15000124215453
 20
203.8238142138343
 30
0.0
 40
0.15
100
AcDbArc
 50
90.0
 51
270.0
  0
ARC
  5
7DD
330
1F
100
AcDbEntity
  8
0
100
AcDbCircle
 10
3.850001242155256
 20
203.8238142138343
 30
0.0
 40
0.15
100
AcDbArc
 50
270.0
 51
90.0
  0
LINE
  5
7DE
330
1F
100
AcDbEntity
  8
0
100
AcDbLine
 10
1.15000124215453
 20
203.9738142138344
 30
0.0
 11
2.350001242155258
 21
203.9738142138344
 31
0.0
  0
LINE
  5
7DF
330
1F
100
AcDbEntity
  8
0
100
AcDbLine
 10
2.650001242154529
 20
203.9738142138344
 30
0.0
 11
3.850001242155256
 21
203.9738142138344
 31
0.0
  0
LINE
  5
7E0
330
1F
100
AcDbEntity
  8
0
100
AcDbLine
 10
1.550001242155303
 20
203.3238142138343
 30
0.0
 11
3.450001242154483
 21
203.3238142138343
 31
0.0
  0
LINE
  5
7E1
330
1F
100
AcDbEntity
  8
0
100
AcDbLine
 10
1.550001242155303
 20
203.0238142138346
 30
0.0
 11
3.450001242154483
 21
203.0238142138346
 31
0.0
  0
LINE
  5
7E2
330
1F
100
AcDbEntity
  8
0
100
AcDbLine
 10
1.950001242154485
 20
202.6738142138346
 30
0.0
 11
3.050001242153256
 21
202.6738142138346
 31
0.0
  0
LINE
  5
7E3
330
1F
100
AcDbEntity
  8
0
100
AcDbLine
 10
1.950001242154485
 20
202.3738142138344
 30
0.0
 11
3.050001242153256
 21
202.3738142138344
 31
0.0
  0
ARC
  5
7E4
330
1F
100
AcDbEntity
  8
0
100
AcDbCircle
 10
1.950001242154485
 20
202.5238142138346
 30
0.0
 40
0.15
100
AcDbArc
 50
90.0
 51
270.0
  0
ARC
  5
7E5
330
1F
100
AcDbEntity
  8
0
100
AcDbCircle
 10
3.050001242153256
 20
202.5238142138346
 30
0.0
 40
0.15
100
AcDbArc
 50
270.0
 51
90.0
  0
ARC
  5
7E6
330
1F
100
AcDbEntity
  8
0
100
AcDbCircle
 10
1.550001242155303
 20
203.1738142138346
 30
0.0
 40
0.15
100
AcDbArc
 50
90.0
 51
270.0
  0
ARC
  5
7E7
330
1F
100
AcDbEntity
  8
0
100
AcDbCircle
 10
3.450001242154483
 20
203.1738142138346
 30
0.0
 40
0.15
100
AcDbArc
 50
270.0
 51
90.0
  0
LINE
  5
7E8
330
1F
100
AcDbEntity
  8
0
100
AcDbLine
 10
49.10000124215321
 20
241.5738142138343
 30
0.0
 11
41.85000124215321
 21
241.5738142138343
 31
0.0
  0
CIRCLE
  5
7E9
330
1F
100
AcDbEntity
  8
0
100
AcDbCircle
 10
45.60000124215321
 20
235.6238142138344
 30
0.0
 40
1.0
  0
CIRCLE
  5
7EA
330
1F
100
AcDbEntity
  8
0
100
AcDbCircle
 10
45.60000124215321
 20
239.1238142138345
 30
0.0
 40
1.0
  0
LINE
  5
7EB
330
1F
100
AcDbEntity
  8
0
100
AcDbLine
 10
41.85000124215321
 20
241.5738142138343
 30
0.0
 11
41.85000124215321
 21
233.1738142138346
 31
0.0
  0
LINE
  5
7EC
330
1F
100
AcDbEntity
  8
0
100
AcDbLine
 10
41.85000124215321
 20
233.1738142138346
 30
0.0
 11
49.10000124215321
 21
233.1738142138346
 31
0.0
  0
LINE
  5
7ED
330
1F
100
AcDbEntity
  8
0
100
AcDbLine
 10
49.10000124215321
 20
233.1738142138346
 30
0.0
 11
49.10000124215321
 21
241.5738142138343
 31
0.0
  0
LINE
  5
7EE
330
1F
100
AcDbEntity
  8
0
100
AcDbLine
 10
41.20000124215311
 20
262.0738142138339
 30
0.0
 11
49.10000124215321
 21
262.0738142138339
 31
0.0
  0
LINE
  5
7EF
330
1F
100
AcDbEntity
  8
0
100
AcDbLine
 10
42.15000124215317
 20
263.073814213834
 30
0.0
 11
48.15000124215453
 21
263.073814213834
 31
0.0
  0
LINE
  5
7F0
330
1F
100
AcDbEntity
  8
0
100
AcDbLine
 10
43.15000124215453
 20
263.073814213834
 30
0.0
 11
44.15000124215317
 21
263.073814213834
 31
0.0
  0
LINE
  5
7F1
330
1F
100
AcDbEntity
  8
0
100
AcDbLine
 10
44.95000124215311
 20
263.073814213834
 30
0.0
 11
44.95000124215311
 21
266.073814213834
 31
0.0
  0
LINE
  5
7F2
330
1F
100
AcDbEntity
  8
0
100
AcDbLine
 10
49.10000124215321
 20
262.0738142138339
 30
0.0
 11
49.10000124215321
 21
267.0738142138339
 31
0.0
  0
LINE
  5
7F3
330
1F
100
AcDbEntity
  8
0
100
AcDbLine
 10
49.10000124215321
 20
267.0738142138339
 30
0.0
 11
41.20000124215311
 21
267.0738142138339
 31
0.0
  0
LINE
  5
7F4
330
1F
100
AcDbEntity
  8
0
100
AcDbLine
 10
41.20000124215311
 20
267.0738142138339
 30
0.0
 11
41.20000124215311
 21
262.0738142138339
 31
0.0
  0
LINE
  5
7F5
330
1F
100
AcDbEntity
  8
0
100
AcDbLine
 10
44.15000124215317
 20
263.073814213834
 30
0.0
 11
44.15000124215317
 21
266.073814213834
 31
0.0
  0
LINE
  5
7F6
330
1F
100
AcDbEntity
  8
0
100
AcDbLine
 10
44.15000124215317
 20
266.073814213834
 30
0.0
 11
43.15000124215453
 21
266.073814213834
 31
0.0
  0
LINE
  5
7F7
330
1F
100
AcDbEntity
  8
0
100
AcDbLine
 10
43.15000124215453
 20
266.073814213834
 30
0.0
 11
43.15000124215453
 21
263.073814213834
 31
0.0
  0
LINE
  5
7F8
330
1F
100
AcDbEntity
  8
0
100
AcDbLine
 10
48.15000124215453
 20
263.073814213834
 30
0.0
 11
48.15000124215453
 21
266.073814213834
 31
0.0
  0
LINE
  5
7F9
330
1F
100
AcDbEntity
  8
0
100
AcDbLine
 10
48.15000124215453
 20
266.073814213834
 30
0.0
 11
42.15000124215317
 21
266.073814213834
 31
0.0
  0
LINE
  5
7FA
330
1F
100
AcDbEntity
  8
0
100
AcDbLine
 10
42.15000124215317
 20
266.073814213834
 30
0.0
 11
42.15000124215317
 21
263.073814213834
 31
0.0
  0
CIRCLE
  5
7FB
330
1F
100
AcDbEntity
  8
0
100
AcDbCircle
 10
42.60000124215435
 20
254.5738142138343
 30
0.0
 40
5.5
  0
LINE
  5
7FC
330
1F
100
AcDbEntity
  8
0
100
AcDbLine
 10
36.30000124215325
 20
247.5738142138343
 30
0.0
 11
36.30000124215325
 21
261.573814213834
 31
0.0
  0
LINE
  5
7FD
330
1F
100
AcDbEntity
  8
0
100
AcDbLine
 10
49.10000124215435
 20
247.5738142138343
 30
0.0
 11
49.10000124215435
 21
253.4738142138344
 31
0.0
  0
LINE
  5
7FE
330
1F
100
AcDbEntity
  8
0
100
AcDbLine
 10
49.10000124215435
 20
247.5738142138343
 30
0.0
 11
36.30000124215325
 21
247.5738142138343
 31
0.0
  0
LINE
  5
7FF
330
1F
100
AcDbEntity
  8
0
100
AcDbLine
 10
49.10000124215435
 20
261.573814213834
 30
0.0
 11
36.30000124215325
 21
261.573814213834
 31
0.0
  0
LINE
  5
800
330
1F
100
AcDbEntity
  8
0
100
AcDbLine
 10
49.10000124215435
 20
255.6738142138346
 30
0.0
 11
49.10000124215435
 21
261.573814213834
 31
0.0
  0
LINE
  5
801
330
1F
100
AcDbEntity
  8
0
100
AcDbLine
 10
14.10000124215434
 20
306.0738140544908
 30
0.0
 11
14.10000124215434
 21
339.0738140544907
 31
0.0
  0
LINE
  5
802
330
1F
100
AcDbEntity
  8
0
100
AcDbLine
 10
14.10000124215434
 20
275.9738140544905
 30
0.0
 11
14.10000124215434
 21
302.1738140544907
 31
0.0
  0
LINE
  5
803
330
1F
100
AcDbEntity
  8
0
100
AcDbLine
 10
49.10000124215435
 20
267.5738140544908
 30
0.0
 11
49.10000124215435
 21
232.6738140544907
 31
0.0
  0
LINE
  5
804
330
1F
100
AcDbEntity
  8
0
100
AcDbLine
 10
49.10000124215435
 20
230.6738140544907
 30
0.0
 11
49.10000124215435
 21
185.1738140544905
 31
0.0
  0
ARC
  5
805
330
1F
100
AcDbEntity
  8
0
100
AcDbCircle
 10
29.00000124215443
 20
359.9738142138343
 30
0.0
 40
5.5
100
AcDbArc
 50
294.6199773286481
 51
0.0
  0
ARC
  5
806
330
1F
100
AcDbEntity
  8
0
100
AcDbCircle
 10
29.00000124215443
 20
175.9738142138344
 30
0.0
 40
5.5
100
AcDbArc
 50
114.6199773286481
 51
180.0
  0
LINE
  5
807
330
1F
100
AcDbEntity
  8
0
100
AcDbLine
 10
53.5000012421533
 20
170.9738142138343
 30
0.0
 11
57.00000124215442
 21
170.9738142138343
 31
0.0
  0
LINE
  5
808
330
1F
100
AcDbEntity
  8
0
  6
BYBLOCK
 62
     0
100
AcDbLine
 10
31.10014986725126
 20
308.2989495185356
 30
0.0
 11
46.00007555470324
 21
308.2989495185366
 31
0.0
  0
LINE
  5
809
330
1F
100
AcDbEntity
  8
0
  6
BYBLOCK
100
AcDbLine
 10
46.00007555470527
 20
275.4989459185373
 30
0.0
 11
46.00007555470324
 21
308.2989495185366
 31
0.0
  0
LINE
  5
80A
330
1F
100
AcDbEntity
  8
0
  6
BYBLOCK
 62
     0
100
AcDbLine
 10
31.10014986725126
 20
275.4989459185373
 30
0.0
 11
46.00007555470527
 21
275.4989459185373
 31
0.0
  0
INSERT
  5
80B
330
1F
100
AcDbEntity
  8
0
 62
     0
 48
5.0
100
AcDbBlockReference
  2
A$C5CFD6E8C
 10
47.50000403113427
 20
315.7488124678798
 30
0.0
  0
INSERT
  5
80C
330
1F
100
AcDbEntity
  8
0
 62
     0
 48
5.0
100
AcDbBlockReference
  2
A$C5CFD6E8C
 10
47.50000403113427
 20
310.2488124678798
 30
0.0
  0
LINE
  5
80D
330
1F
100
AcDbEntity
  8
0
 62
     0
 48
5.0
100
AcDbLine
 10
31.10014986725126
 20
308.2989495185356
 30
0.0
 11
31.10014986725126
 21
275.4989459185373
 31
0.0
  0
LWPOLYLINE
  5
80E
330
1F
100
AcDbEntity
  8
0
 62
     0
100
AcDbPolyline
 90
        4
 70
     1
 43
0.0
 10
47.50000124215442
 20
318.4488149475253
 10
49.10000124215435
 20
318.4488149475253
 10
49.10000124215435
 20
315.7488149475243
 10
47.50000124215442
 20
315.7488149475243
  0
LWPOLYLINE
  5
80F
330
1F
100
AcDbEntity
  8
0
 62
     0
100
AcDbPolyline
 90
        4
 70
     1
 43
0.0
 10
47.50000124215442
 20
312.9488149475253
 10
49.10000124215435
 20
312.9488149475253
 10
49.10000124215435
 20
310.2488149475242
 10
47.50000124215442
 20
310.2488149475242
  0
LINE
  5
810
330
1F
100
AcDbEntity
  8
0
  6
CONTINUOUS
100
AcDbLine
 10
43.27605136870738
 20
294.3600948657658
 30
0.0
 11
43.27605136870738
 21
306.5887756403353
 31
0.0
  0
LINE
  5
811
330
1F
100
AcDbEntity
  8
0
  6
CONTINUOUS
100
AcDbLine
 10
33.49920951961939
 20
306.1596501376298
 30
0.0
 11
33.49920951961939
 21
294.7892203684718
 31
0.0
  0
LINE
  5
812
330
1F
100
AcDbEntity
  8
0
  6
CONTINUOUS
100
AcDbLine
 10
33.96968760728237
 20
302.6362519468925
 30
0.0
 11
33.96968760728237
 21
298.3126185592086
 31
0.0
  0
LINE
  5
813
330
1F
100
AcDbEntity
  8
0
  6
CONTINUOUS
100
AcDbLine
 10
43.27690539150832
 20
294.3600948657658
 30
0.0
 11
43.27690539150832
 21
306.5887756403353
 31
0.0
  0
LINE
  5
814
330
1F
100
AcDbEntity
  8
0
  6
CONTINUOUS
100
AcDbLine
 10
33.50025632619348
 20
306.1596501376298
 30
0.0
 11
33.50025632619348
 21
294.7892203684718
 31
0.0
  0
LINE
  5
815
330
1F
100
AcDbEntity
  8
0
  6
CONTINUOUS
100
AcDbLine
 10
33.81689855098125
 20
298.1597536001176
 30
0.0
 11
33.81689855098125
 21
302.7891173716457
 31
0.0
  0
LINE
  5
816
330
1F
100
AcDbEntity
  8
0
  6
CONTINUOUS
100
AcDbLine
 10
43.43536759927338
 20
294.2017104234364
 30
0.0
 11
43.43536759927338
 21
306.7471600826643
 31
0.0
  0
LINE
  5
817
330
1F
100
AcDbEntity
  8
0
  6
CONTINUOUS
100
AcDbLine
 10
45.00029546409314
 20
293.2244354616662
 30
0.0
 11
45.00029546409314
 21
307.7244359757563
 31
0.0
  0
LINE
  5
818
330
1F
100
AcDbEntity
  8
0
  6
CONTINUOUS
100
AcDbLine
 10
40.80509052812542
 20
291.6977172009465
 30
0.0
 11
42.14032956599635
 21
291.6977172009465
 31
0.0
  0
LINE
  5
819
330
1F
100
AcDbEntity
  8
0
  6
CONTINUOUS
100
AcDbLine
 10
42.15023231893247
 20
291.6607543758392
 30
0.0
 11
40.79327949523325
 21
291.6607543758392
 31
0.0
  0
LINE
  5
81A
330
1F
100
AcDbEntity
  8
0
  6
CONTINUOUS
100
AcDbLine
 10
40.63683034121459
 20
290.6424048580041
 30
0.0
 11
42.28140630959956
 21
290.6424048580041
 31
0.0
  0
LINE
  5
81B
330
1F
100
AcDbEntity
  8
0
  6
CONTINUOUS
100
AcDbLine
 10
42.28140630959956
 20
276.1530291046765
 30
0.0
 11
40.63683034121459
 21
276.1530291046765
 31
0.0
  0
LINE
  5
81C
330
1F
100
AcDbEntity
  8
0
  6
CONTINUOUS
100
AcDbLine
 10
43.27690539150832
 20
289.5120577178717
 30
0.0
 11
36.48942181109828
 21
289.5120577178717
 31
0.0
  0
LINE
  5
81D
330
1F
100
AcDbEntity
  8
0
  6
CONTINUOUS
100
AcDbLine
 10
36.48942181109828
 20
277.2833762448091
 30
0.0
 11
43.27690539150832
 21
277.2833762448091
 31
0.0
  0
LINE
  5
81E
330
1F
100
AcDbEntity
  8
0
  6
CONTINUOUS
100
AcDbLine
 10
40.42399705588239
 20
290.3977171974073
 30
0.0
 11
42.49211152284738
 21
290.3977171974073
 31
0.0
  0
LINE
  5
81F
330
1F
100
AcDbEntity
  8
0
  6
CONTINUOUS
100
AcDbLine
 10
43.43536759927338
 20
289.6704421602003
 30
0.0
 11
36.33111466854234
 21
289.6704421602003
 31
0.0
  0
LINE
  5
820
330
1F
100
AcDbEntity
  8
0
  6
CONTINUOUS
100
AcDbLine
 10
36.33111466854234
 20
277.1249918024805
 30
0.0
 11
43.43536759927338
 21
277.1249918024805
 31
0.0
  0
LINE
  5
821
330
1F
100
AcDbEntity
  8
0
  6
CONTINUOUS
100
AcDbLine
 10
42.49211152284738
 20
276.3977173473504
 30
0.0
 11
40.42399705588239
 21
276.3977173473504
 31
0.0
  0
LINE
  5
822
330
1F
100
AcDbEntity
  8
0
  6
CONTINUOUS
100
AcDbLine
 10
42.14032956599635
 20
292.1744354263463
 30
0.0
 11
40.80509052812542
 21
292.1744354263463
 31
0.0
  0
LINE
  5
823
330
1F
100
AcDbEntity
  8
0
  6
CONTINUOUS
100
AcDbLine
 10
40.79327949523325
 20
292.2113982660048
 30
0.0
 11
42.15023231893247
 21
292.2113982660048
 31
0.0
  0
LINE
  5
824
330
1F
100
AcDbEntity
  8
0
  6
CONTINUOUS
100
AcDbLine
 10
42.28140630959956
 20
293.2297477256323
 30
0.0
 11
40.63683034121459
 21
293.2297477256323
 31
0.0
  0
LINE
  5
825
330
1F
100
AcDbEntity
  8
0
  6
CONTINUOUS
100
AcDbLine
 10
36.48942181109828
 20
294.3600948657658
 30
0.0
 11
43.27690539150832
 21
294.3600948657658
 31
0.0
  0
LINE
  5
826
330
1F
100
AcDbEntity
  8
0
  6
CONTINUOUS
100
AcDbLine
 10
36.33111466854234
 20
294.2017104234364
 30
0.0
 11
43.43536759927338
 21
294.2017104234364
 31
0.0
  0
LINE
  5
827
330
1F
100
AcDbEntity
  8
0
  6
CONTINUOUS
100
AcDbLine
 10
42.49211152284738
 20
293.4744353862297
 30
0.0
 11
40.42399705588239
 21
293.4744353862297
 31
0.0
  0
LINE
  5
828
330
1F
100
AcDbEntity
  8
0
  6
CONTINUOUS
100
AcDbLine
 10
43.50404751687729
 20
292.0832420515171
 30
0.0
 11
38.65404737382528
 21
292.0832420515171
 31
0.0
  0
LINE
  5
829
330
1F
100
AcDbEntity
  8
0
  6
CONTINUOUS
100
AcDbLine
 10
43.5040456542315
 20
291.7101590448101
 30
0.0
 11
38.65404551118036
 21
291.7101590448101
 31
0.0
  0
LINE
  5
82A
330
1F
100
AcDbEntity
  8
0
  6
CONTINUOUS
100
AcDbLine
 10
43.27605136870738
 20
277.2833762448091
 30
0.0
 11
43.27605136870738
 21
289.5120577178717
 31
0.0
  0
LINE
  5
82B
330
1F
100
AcDbEntity
  8
0
  6
CONTINUOUS
100
AcDbLine
 10
43.27690539150832
 20
277.2833762448091
 30
0.0
 11
43.27690539150832
 21
289.5120577178717
 31
0.0
  0
LINE
  5
82C
330
1F
100
AcDbEntity
  8
0
  6
CONTINUOUS
100
AcDbLine
 10
43.43536759927338
 20
277.1249918024805
 30
0.0
 11
43.43536759927338
 21
289.6704421602003
 31
0.0
  0
LINE
  5
82D
330
1F
100
AcDbEntity
  8
0
  6
CONTINUOUS
100
AcDbLine
 10
45.00029546409314
 20
276.1477168407103
 30
0.0
 11
45.00029546409314
 21
290.6477172383856
 31
0.0
  0
LINE
  5
82E
330
1F
100
AcDbEntity
  8
0
  6
CONTINUOUS
100
AcDbLine
 10
42.24939582138723
 20
275.8977163340714
 30
0.0
 11
42.24939582138723
 21
275.9045187141564
 31
0.0
  0
LINE
  5
82F
330
1F
100
AcDbEntity
  8
0
  6
CONTINUOUS
100
AcDbLine
 10
44.99886029600543
 20
275.5995496865174
 30
0.0
 11
44.99867403149028
 21
275.5995496865174
 31
0.0
  0
LINE
  5
830
330
1F
100
AcDbEntity
  8
0
  6
CONTINUOUS
100
AcDbLine
 10
44.72728104531234
 20
275.8977163340714
 30
0.0
 11
44.99966402738732
 21
275.8977163340714
 31
0.0
  0
LINE
  5
831
330
1F
100
AcDbEntity
  8
0
  6
CONTINUOUS
100
AcDbLine
 10
44.47791244103927
 20
275.8977163340714
 30
0.0
 11
44.72728104531234
 21
275.8977163340714
 31
0.0
  0
LINE
  5
832
330
1F
100
AcDbEntity
  8
0
  6
CONTINUOUS
100
AcDbLine
 10
44.72728104531234
 20
276.1477168407103
 30
0.0
 11
44.72728104531234
 21
275.8977163340714
 31
0.0
  0
LINE
  5
833
330
1F
100
AcDbEntity
  8
0
  6
CONTINUOUS
100
AcDbLine
 10
42.24851944684428
 20
275.8977163340714
 30
0.0
 11
42.24939582138723
 21
275.8977163340714
 31
0.0
  0
LINE
  5
834
330
1F
100
AcDbEntity
  8
0
  6
CONTINUOUS
100
AcDbLine
 10
45.57559204488415
 20
276.7277175318263
 30
0.0
 11
45.20171120032114
 21
276.7277175318263
 31
0.0
  0
LINE
  5
835
330
1F
100
AcDbEntity
  8
0
  6
CONTINUOUS
100
AcDbLine
 10
45.57559204488415
 20
278.0277171861198
 30
0.0
 11
45.20171120032114
 21
278.0277171861198
 31
0.0
  0
LINE
  5
836
330
1F
100
AcDbEntity
  8
0
  6
CONTINUOUS
100
AcDbLine
 10
45.57559204488415
 20
278.0277171861198
 30
0.0
 11
45.57559204488415
 21
276.7277175318263
 31
0.0
  0
LINE
  5
837
330
1F
100
AcDbEntity
  8
0
  6
CONTINUOUS
100
AcDbLine
 10
45.20171120032114
 20
276.7277175318263
 30
0.0
 11
45.0002703183834
 21
276.7277175318263
 31
0.0
  0
LINE
  5
838
330
1F
100
AcDbEntity
  8
0
  6
CONTINUOUS
100
AcDbLine
 10
45.20171120032114
 20
278.0277171861198
 30
0.0
 11
45.0002703183834
 21
278.0277171861198
 31
0.0
  0
LINE
  5
839
330
1F
100
AcDbEntity
  8
0
  6
CONTINUOUS
100
AcDbLine
 10
45.20171120032114
 20
276.7277175318263
 30
0.0
 11
45.20171120032114
 21
278.0277171861198
 31
0.0
  0
LINE
  5
83A
330
1F
100
AcDbEntity
  8
0
  6
CONTINUOUS
100
AcDbLine
 10
42.28140630959956
 20
276.1530291046765
 30
0.0
 11
42.19715356824417
 21
275.4989459185373
 31
0.0
  0
LINE
  5
83B
330
1F
100
AcDbEntity
  8
0
  6
CONTINUOUS
100
AcDbLine
 10
42.24939582138723
 20
275.8977163340714
 30
0.0
 11
42.49211152284738
 21
275.8977163340714
 31
0.0
  0
LINE
  5
83C
330
1F
100
AcDbEntity
  8
0
  6
CONTINUOUS
100
AcDbLine
 10
42.28072178750632
 20
276.1477168407103
 30
0.0
 11
42.47899011909452
 21
276.1477168407103
 31
0.0
  0
ELLIPSE
  5
83D
330
1F
100
AcDbEntity
  8
0
  6
CONTINUOUS
100
AcDbEllipse
 10
42.47898991080638
 20
276.3977172069516
 30
0.0
 11
0.0
 21
0.25
 31
0.0
210
0.0
220
0.0
230
1.0
 40
0.0524853924318904
 41
3.14159265358979
 42
4.71238898038469
  0
LINE
  5
83E
330
1F
100
AcDbEntity
  8
0
  6
CONTINUOUS
100
AcDbLine
 10
43.43536759927338
 20
277.1249918024805
 30
0.0
 11
43.27690539150832
 21
277.2833762448091
 31
0.0
  0
LINE
  5
83F
330
1F
100
AcDbEntity
  8
0
  6
CONTINUOUS
100
AcDbLine
 10
44.47791244103927
 20
275.8977163340714
 30
0.0
 11
42.49211152284738
 21
275.8977163340714
 31
0.0
  0
LINE
  5
840
330
1F
100
AcDbEntity
  8
0
  6
CONTINUOUS
100
AcDbLine
 10
42.49211152284738
 20
276.3977173473504
 30
0.0
 11
42.49211152284738
 21
275.8977163340714
 31
0.0
  0
LINE
  5
841
330
1F
100
AcDbEntity
  8
0
  6
CONTINUOUS
100
AcDbLine
 10
44.47791244103927
 20
275.8977163340714
 30
0.0
 11
44.47791244103927
 21
276.1477168407103
 31
0.0
  0
LINE
  5
842
330
1F
100
AcDbEntity
  8
0
  6
CONTINUOUS
100
AcDbLine
 10
45.00029546409314
 20
276.1477168407103
 30
0.0
 11
44.47791244103927
 21
276.1477168407103
 31
0.0
  0
LINE
  5
843
330
1F
100
AcDbEntity
  8
0
  6
CONTINUOUS
100
AcDbLine
 10
44.99948567911428
 20
275.5995496865174
 30
0.0
 11
44.99932875126022
 21
275.5995496865174
 31
0.0
  0
LINE
  5
844
330
1F
100
AcDbEntity
  8
0
  6
CONTINUOUS
100
AcDbLine
 10
44.99948474779126
 20
275.6535030659106
 30
0.0
 11
44.99942467748518
 21
275.6535030659106
 31
0.0
  0
LINE
  5
845
330
1F
100
AcDbEntity
  8
0
  6
CONTINUOUS
100
AcDbLine
 10
44.99953783317821
 20
275.5995496865174
 30
0.0
 11
44.99950197725934
 21
275.5995496865174
 31
0.0
  0
LINE
  5
846
330
1F
100
AcDbEntity
  8
0
  6
CONTINUOUS
100
AcDbLine
 10
44.99959184988735
 20
275.5995496865174
 30
0.0
 11
44.99955645963039
 21
275.5995496865174
 31
0.0
  0
LINE
  5
847
330
1F
100
AcDbEntity
  8
0
  6
CONTINUOUS
100
AcDbLine
 10
44.99964633225839
 20
275.5995496865174
 30
0.0
 11
44.99961094200034
 21
275.5995496865174
 31
0.0
  0
LINE
  5
848
330
1F
100
AcDbEntity
  8
0
  6
CONTINUOUS
100
AcDbLine
 10
44.99981955825728
 20
275.5995496865174
 30
0.0
 11
44.99966309606429
 21
275.5995496865174
 31
0.0
  0
LINE
  5
849
330
1F
100
AcDbEntity
  8
0
  6
CONTINUOUS
100
AcDbLine
 10
44.9998125733382
 20
275.6535030659106
 30
0.0
 11
44.99972363203233
 21
275.6535030659106
 31
0.0
  0
LWPOLYLINE
  5
84A
330
1F
100
AcDbEntity
  8
0
  6
CONTINUOUS
100
AcDbPolyline
 90
        3
 70
   128
 43
0.0
 10
44.99885703637619
 20
275.8977163340714
 10
44.99885750203723
 20
275.8867285903364
 10
44.99886029600543
 20
275.5995496865174
  0
LWPOLYLINE
  5
84B
330
1F
100
AcDbEntity
  8
0
  6
CONTINUOUS
100
AcDbPolyline
 90
        3
 70
   128
 43
0.0
 10
44.99867403149028
 20
275.5995496865174
 10
44.99867635979717
 20
275.8867285903364
 10
44.99867682545823
 20
275.8977163340714
  0
LINE
  5
84C
330
1F
100
AcDbEntity
  8
0
  6
CONTINUOUS
100
AcDbLine
 10
44.99932875126022
 20
275.5995496865174
 30
0.0
 11
44.99886029600543
 21
275.5995496865174
 31
0.0
  0
LWPOLYLINE
  5
84D
330
1F
100
AcDbEntity
  8
0
  6
CONTINUOUS
100
AcDbPolyline
 90
        9
 70
   128
 43
0.0
 10
44.99932875126022
 20
275.5995496865174
 10
44.99933946147052
 20
275.6800029184481
 10
44.99935110300225
 20
275.7406413312815
 10
44.99936367585744
 20
275.7803529258635
 10
44.99937624871154
 20
275.7984094079406
 10
44.99938882156627
 20
275.7944810893204
 10
44.99940092876022
 20
275.7686406131655
 10
44.9994130359532
 20
275.7213573660515
 10
44.99942467748518
 20
275.6535030659106
  0
LWPOLYLINE
  5
84E
330
1F
100
AcDbEntity
  8
0
  6
CONTINUOUS
100
AcDbPolyline
 90
        4
 70
   128
 43
0.0
 10
44.9994698466305
 20
275.8977163340714
 10
44.99947590022725
 20
275.8402742203144
 10
44.99948241948527
 20
275.7305253054764
 10
44.99948567911428
 20
275.5995496865174
  0
LWPOLYLINE
  5
84F
330
1F
100
AcDbEntity
  8
0
  6
CONTINUOUS
100
AcDbPolyline
 90
        4
 70
   128
 43
0.0
 10
44.99942467748518
 20
275.6535030659106
 10
44.99942933409829
 20
275.7777359094288
 10
44.99943678467935
 20
275.8752044047978
 10
44.9994395786464
 20
275.8977163340714
  0
LINE
  5
850
330
1F
100
AcDbEntity
  8
0
  6
CONTINUOUS
100
AcDbLine
 10
44.99948567911428
 20
275.5995496865174
 30
0.0
 11
44.99950197725934
 21
275.5995496865174
 31
0.0
  0
LWPOLYLINE
  5
851
330
1F
100
AcDbEntity
  8
0
  6
CONTINUOUS
100
AcDbPolyline
 90
        5
 70
   128
 43
0.0
 10
44.9995317795815
 20
275.8977163340714
 10
44.99953364222731
 20
275.8749902006055
 10
44.99953783317821
 20
275.7926072683003
 10
44.99953923016232
 20
275.6957869734435
 10
44.99953783317821
 20
275.5995496865174
  0
LWPOLYLINE
  5
852
330
1F
100
AcDbEntity
  8
0
  6
CONTINUOUS
100
AcDbPolyline
 90
        5
 70
   128
 43
0.0
 10
44.99950197725934
 20
275.5995496865174
 10
44.99950058027548
 20
275.6957869734435
 10
44.99950197725934
 20
275.7926072683003
 10
44.99950616821116
 20
275.8749902006055
 10
44.99950803085631
 20
275.8977163340714
  0
LINE
  5
853
330
1F
100
AcDbEntity
  8
0
  6
CONTINUOUS
100
AcDbLine
 10
44.99955645963039
 20
275.5995496865174
 30
0.0
 11
44.99953783317821
 21
275.5995496865174
 31
0.0
  0
LWPOLYLINE
  5
854
330
1F
100
AcDbEntity
  8
0
  6
CONTINUOUS
100
AcDbPolyline
 90
        5
 70
   128
 43
0.0
 10
44.99958579629129
 20
275.8977163340714
 10
44.99958812459725
 20
275.8749902006055
 10
44.99959231554931
 20
275.7926072683003
 10
44.99959371253337
 20
275.6957869734435
 10
44.99959184988735
 20
275.5995496865174
  0
LWPOLYLINE
  5
855
330
1F
100
AcDbEntity
  8
0
  6
CONTINUOUS
100
AcDbPolyline
 90
        5
 70
   128
 43
0.0
 10
44.99955645963039
 20
275.5995496865174
 10
44.99955459698434
 20
275.6957869734435
 10
44.99955599396844
 20
275.7926072683003
 10
44.99956018492047
 20
275.8749902006055
 10
44.99956251322625
 20
275.8977163340714
  0
LINE
  5
856
330
1F
100
AcDbEntity
  8
0
  6
CONTINUOUS
100
AcDbLine
 10
44.99961094200034
 20
275.5995496865174
 30
0.0
 11
44.99959184988735
 21
275.5995496865174
 31
0.0
  0
LWPOLYLINE
  5
857
330
1F
100
AcDbEntity
  8
0
  6
CONTINUOUS
100
AcDbPolyline
 90
        5
 70
   128
 43
0.0
 10
44.99964027866144
 20
275.8977163340714
 10
44.99964214130637
 20
275.8749902006055
 10
44.99964633225839
 20
275.7926072683003
 10
44.9996477292425
 20
275.6957869734435
 10
44.99964633225839
 20
275.5995496865174
  0
LWPOLYLINE
  5
858
330
1F
100
AcDbEntity
  8
0
  6
CONTINUOUS
100
AcDbPolyline
 90
        5
 70
   128
 43
0.0
 10
44.99961094200034
 20
275.5995496865174
 10
44.99960907935542
 20
275.6957869734435
 10
44.99961047633928
 20
275.7926072683003
 10
44.99961466729017
 20
275.8749902006055
 10
44.99961652993645
 20
275.8977163340714
  0
LINE
  5
859
330
1F
100
AcDbEntity
  8
0
  6
CONTINUOUS
100
AcDbLine
 10
44.99964633225839
 20
275.5995496865174
 30
0.0
 11
44.99966309606429
 21
275.5995496865174
 31
0.0
  0
LWPOLYLINE
  5
85A
330
1F
100
AcDbEntity
  8
0
  6
CONTINUOUS
100
AcDbPolyline
 90
        9
 70
   128
 43
0.0
 10
44.99966309606429
 20
275.5995496865174
 10
44.99966589003224
 20
275.7305253054764
 10
44.99967240929025
 20
275.8402742203144
 10
44.9996812568554
 20
275.9159255530503
 10
44.9996915014035
 20
275.9486037995484
 10
44.99970221161333
 20
275.9344774987366
 10
44.9997115248384
 20
275.8752044047978
 10
44.99971897541946
 20
275.7777359094288
 10
44.99972363203233
 20
275.6535030659106
  0
LWPOLYLINE
  5
85B
330
1F
100
AcDbEntity
  8
0
  6
CONTINUOUS
100
AcDbPolyline
 90
        9
 70
   128
 43
0.0
 10
44.99972363203233
 20
275.6535030659106
 10
44.99973527356428
 20
275.7213573660515
 10
44.99974738075729
 20
275.7686406131655
 10
44.99975948795122
 20
275.7944810893204
 10
44.9997720608064
 20
275.7984094079406
 10
44.99978463366026
 20
275.7803529258635
 10
44.99979720651549
 20
275.7406413312815
 10
44.99980884804744
 20
275.6800029184481
 10
44.99981955825728
 20
275.5995496865174
  0
LINE
  5
85C
330
1F
100
AcDbEntity
  8
0
  6
CONTINUOUS
100
AcDbLine
 10
45.00000116615932
 20
275.5995496865174
 30
0.0
 11
44.99981955825728
 21
275.5995496865174
 31
0.0
  0
LINE
  5
85D
330
1F
100
AcDbEntity
  8
0
  6
CONTINUOUS
100
AcDbLine
 10
45.00000116615932
 20
276.1477168407103
 30
0.0
 11
45.00000116615932
 21
275.5995496865174
 31
0.0
  0
LINE
  5
85E
330
1F
100
AcDbEntity
  8
0
  6
CONTINUOUS
100
AcDbLine
 10
45.00000116615932
 20
275.5995496865174
 30
0.0
 11
46.00007555470527
 21
275.5995496865174
 31
0.0
  0
LINE
  5
85F
330
1F
100
AcDbEntity
  8
0
  6
CONTINUOUS
100
AcDbLine
 10
44.29832852288927
 20
275.4989459185373
 30
0.0
 11
44.29841398462142
 21
275.8977163340714
 31
0.0
  0
LINE
  5
860
330
1F
100
AcDbEntity
  8
0
  6
CONTINUOUS
100
AcDbLine
 10
44.99842210873429
 20
275.4989459185373
 30
0.0
 11
44.99842210873429
 21
275.5811448897984
 31
0.0
  0
LINE
  5
861
330
1F
100
AcDbEntity
  8
0
  6
CONTINUOUS
100
AcDbLine
 10
44.99842210873429
 20
275.5811448897984
 30
0.0
 11
44.9984332846052
 21
275.6637252624896
 31
0.0
  0
LINE
  5
862
330
1F
100
AcDbEntity
  8
0
  6
CONTINUOUS
100
AcDbLine
 10
44.99842210873429
 20
275.5811448897984
 30
0.0
 11
44.74842206775631
 21
275.5811448897984
 31
0.0
  0
LINE
  5
863
330
1F
100
AcDbEntity
  8
0
  6
CONTINUOUS
100
AcDbLine
 10
44.9984332846052
 20
275.6637252624896
 30
0.0
 11
44.99843375026626
 21
275.8977163340714
 31
0.0
  0
LINE
  5
864
330
1F
100
AcDbEntity
  8
0
  6
CONTINUOUS
100
AcDbLine
 10
44.9984332846052
 20
275.6637252624896
 30
0.0
 11
44.74843324362629
 21
275.6637252624896
 31
0.0
  0
LINE
  5
865
330
1F
100
AcDbEntity
  8
0
  6
CONTINUOUS
100
AcDbLine
 10
44.74842206775631
 20
275.4989459185373
 30
0.0
 11
44.74842206775631
 21
275.5811448897984
 31
0.0
  0
LINE
  5
866
330
1F
100
AcDbEntity
  8
0
  6
CONTINUOUS
100
AcDbLine
 10
44.74842206775631
 20
275.5811448897984
 30
0.0
 11
44.74843324362629
 21
275.6637252624896
 31
0.0
  0
LINE
  5
867
330
1F
100
AcDbEntity
  8
0
  6
CONTINUOUS
100
AcDbLine
 10
44.74843324362629
 20
275.6637252624896
 30
0.0
 11
44.74843370928829
 21
275.8977163340714
 31
0.0
  0
LINE
  5
868
330
1F
100
AcDbEntity
  8
0
  6
CONTINUOUS
100
AcDbLine
 10
42.15023231893247
 20
291.6607543758392
 30
0.0
 11
42.28140630959956
 21
290.6424048580041
 31
0.0
  0
LINE
  5
869
330
1F
100
AcDbEntity
  8
0
  6
CONTINUOUS
100
AcDbLine
 10
44.9965473563916
 20
290.8977171629483
 30
0.0
 11
44.9965473563916
 21
292.9744354206886
 31
0.0
  0
LINE
  5
86A
330
1F
100
AcDbEntity
  8
0
  6
CONTINUOUS
100
AcDbLine
 10
45.00000116615932
 20
293.2244354616662
 30
0.0
 11
45.00000116615932
 21
290.6477172383856
 31
0.0
  0
LINE
  5
86B
330
1F
100
AcDbEntity
  8
0
  6
CONTINUOUS
100
AcDbLine
 10
44.85390738784756
 20
291.7101590448101
 30
0.0
 11
44.85390738784756
 21
290.8977171629483
 31
0.0
  0
LINE
  5
86C
330
1F
100
AcDbEntity
  8
0
  6
CONTINUOUS
100
AcDbLine
 10
43.5040456542315
 20
290.8977171629483
 30
0.0
 11
43.5040456542315
 21
291.7101590448101
 31
0.0
  0
LINE
  5
86D
330
1F
100
AcDbEntity
  8
0
  6
CONTINUOUS
100
AcDbLine
 10
42.24939582138723
 20
290.8977171629483
 30
0.0
 11
42.24939582138723
 21
290.8909147828635
 31
0.0
  0
LINE
  5
86E
330
1F
100
AcDbEntity
  8
0
  6
CONTINUOUS
100
AcDbLine
 10
44.99966402738732
 20
290.8977171629483
 30
0.0
 11
44.72728104531234
 21
290.8977171629483
 31
0.0
  0
LINE
  5
86F
330
1F
100
AcDbEntity
  8
0
  6
CONTINUOUS
100
AcDbLine
 10
44.47791244103927
 20
290.8977171629483
 30
0.0
 11
44.72728104531234
 21
290.8977171629483
 31
0.0
  0
LINE
  5
870
330
1F
100
AcDbEntity
  8
0
  6
CONTINUOUS
100
AcDbLine
 10
44.72728104531234
 20
290.8977171629483
 30
0.0
 11
44.72728104531234
 21
290.6477172383856
 31
0.0
  0
LINE
  5
871
330
1F
100
AcDbEntity
  8
0
  6
CONTINUOUS
100
AcDbLine
 10
42.24939582138723
 20
290.8977171629483
 30
0.0
 11
42.24851944684428
 21
290.8977171629483
 31
0.0
  0
LINE
  5
872
330
1F
100
AcDbEntity
  8
0
  6
CONTINUOUS
100
AcDbLine
 10
45.20171120032114
 20
288.7677172422226
 30
0.0
 11
45.57559204488415
 21
288.7677172422226
 31
0.0
  0
LINE
  5
873
330
1F
100
AcDbEntity
  8
0
  6
CONTINUOUS
100
AcDbLine
 10
45.20171120032114
 20
290.0677172457611
 30
0.0
 11
45.57559204488415
 21
290.0677172457611
 31
0.0
  0
LINE
  5
874
330
1F
100
AcDbEntity
  8
0
  6
CONTINUOUS
100
AcDbLine
 10
45.57559204488415
 20
290.0677172457611
 30
0.0
 11
45.57559204488415
 21
288.7677172422226
 31
0.0
  0
LINE
  5
875
330
1F
100
AcDbEntity
  8
0
  6
CONTINUOUS
100
AcDbLine
 10
45.0002703183834
 20
288.7677172422226
 30
0.0
 11
45.20171120032114
 21
288.7677172422226
 31
0.0
  0
LINE
  5
876
330
1F
100
AcDbEntity
  8
0
  6
CONTINUOUS
100
AcDbLine
 10
45.0002703183834
 20
290.0677172457611
 30
0.0
 11
45.20171120032114
 21
290.0677172457611
 31
0.0
  0
LINE
  5
877
330
1F
100
AcDbEntity
  8
0
  6
CONTINUOUS
100
AcDbLine
 10
45.20171120032114
 20
288.7677172422226
 30
0.0
 11
45.20171120032114
 21
290.0677172457611
 31
0.0
  0
LINE
  5
878
330
1F
100
AcDbEntity
  8
0
  6
CONTINUOUS
100
AcDbLine
 10
42.49211152284738
 20
290.8977171629483
 30
0.0
 11
42.24939582138723
 21
290.8977171629483
 31
0.0
  0
ELLIPSE
  5
879
330
1F
100
AcDbEntity
  8
0
  6
CONTINUOUS
100
AcDbEllipse
 10
42.47898991080638
 20
290.3977172069508
 30
0.0
 11
0.0
 21
0.25
 31
0.0
210
0.0
220
0.0
230
1.0
 40
0.0524853924317768
 41
4.71238898038469
 42
6.283185307179584
  0
LINE
  5
87A
330
1F
100
AcDbEntity
  8
0
  6
CONTINUOUS
100
AcDbLine
 10
42.47899011909452
 20
290.6477172383856
 30
0.0
 11
42.28072178750632
 21
290.6477172383856
 31
0.0
  0
LINE
  5
87B
330
1F
100
AcDbEntity
  8
0
  6
CONTINUOUS
100
AcDbLine
 10
43.43536759927338
 20
289.6704421602003
 30
0.0
 11
43.27690539150832
 21
289.5120577178717
 31
0.0
  0
LINE
  5
87C
330
1F
100
AcDbEntity
  8
0
  6
CONTINUOUS
100
AcDbLine
 10
42.49211152284738
 20
290.8977171629483
 30
0.0
 11
44.47791244103927
 21
290.8977171629483
 31
0.0
  0
LINE
  5
87D
330
1F
100
AcDbEntity
  8
0
  6
CONTINUOUS
100
AcDbLine
 10
44.47791244103927
 20
290.8977171629483
 30
0.0
 11
44.47791244103927
 21
290.6477172383856
 31
0.0
  0
LINE
  5
87E
330
1F
100
AcDbEntity
  8
0
  6
CONTINUOUS
100
AcDbLine
 10
42.49211152284738
 20
290.8977171629483
 30
0.0
 11
42.49211152284738
 21
290.3977171974073
 31
0.0
  0
LINE
  5
87F
330
1F
100
AcDbEntity
  8
0
  6
CONTINUOUS
100
AcDbLine
 10
45.00029546409314
 20
290.6477172383856
 30
0.0
 11
44.47791244103927
 21
290.6477172383856
 31
0.0
  0
LINE
  5
880
330
1F
100
AcDbEntity
  8
0
  6
CONTINUOUS
100
AcDbLine
 10
45.57559204488415
 20
295.1044353414145
 30
0.0
 11
45.57559204488415
 21
293.8044354542903
 31
0.0
  0
LINE
  5
881
330
1F
100
AcDbEntity
  8
0
  6
CONTINUOUS
100
AcDbLine
 10
45.20171120032114
 20
293.8044354542903
 30
0.0
 11
45.20171120032114
 21
295.1044353414145
 31
0.0
  0
LINE
  5
882
330
1F
100
AcDbEntity
  8
0
  6
CONTINUOUS
100
AcDbLine
 10
42.24939582138723
 20
292.9744354206886
 30
0.0
 11
42.24939582138723
 21
292.9812378007736
 31
0.0
  0
ELLIPSE
  5
883
330
1F
100
AcDbEntity
  8
0
  6
CONTINUOUS
100
AcDbEllipse
 10
42.1403297862962
 20
291.1977172069514
 30
0.0
 11
0.0
 21
0.5
 31
0.0
210
0.0
220
0.0
230
1.0
 40
0.0524853924318336
 41
5.896261866244925
 42
6.283185307179584
  0
LINE
  5
884
330
1F
100
AcDbEntity
  8
0
  6
CONTINUOUS
100
AcDbLine
 10
44.72728104531234
 20
292.9744354206886
 30
0.0
 11
44.99966402738732
 21
292.9744354206886
 31
0.0
  0
LINE
  5
885
330
1F
100
AcDbEntity
  8
0
  6
CONTINUOUS
100
AcDbLine
 10
44.47791244103927
 20
292.9744354206886
 30
0.0
 11
44.72728104531234
 21
292.9744354206886
 31
0.0
  0
LINE
  5
886
330
1F
100
AcDbEntity
  8
0
  6
CONTINUOUS
100
AcDbLine
 10
44.72728104531234
 20
293.2244354616662
 30
0.0
 11
44.72728104531234
 21
292.9744354206886
 31
0.0
  0
LINE
  5
887
330
1F
100
AcDbEntity
  8
0
  6
CONTINUOUS
100
AcDbLine
 10
42.24851944684428
 20
292.9744354206886
 30
0.0
 11
42.24939582138723
 21
292.9744354206886
 31
0.0
  0
ELLIPSE
  5
888
330
1F
100
AcDbEntity
  8
0
  6
CONTINUOUS
100
AcDbEllipse
 10
42.1403297862962
 20
292.6744354296646
 30
0.0
 11
0.0
 21
0.5
 31
0.0
210
0.0
220
0.0
230
1.0
 40
0.0524853924318336
 41
3.14159265358979
 42
3.528516094524923
  0
LINE
  5
889
330
1F
100
AcDbEntity
  8
0
  6
CONTINUOUS
100
AcDbLine
 10
45.57559204488415
 20
293.8044354542903
 30
0.0
 11
45.20171120032114
 21
293.8044354542903
 31
0.0
  0
LINE
  5
88A
330
1F
100
AcDbEntity
  8
0
  6
CONTINUOUS
100
AcDbLine
 10
45.20171120032114
 20
293.8044354542903
 30
0.0
 11
45.0002703183834
 21
293.8044354542903
 31
0.0
  0
LINE
  5
88B
330
1F
100
AcDbEntity
  8
0
  6
CONTINUOUS
100
AcDbLine
 10
42.28140630959956
 20
293.2297477256323
 30
0.0
 11
42.15023231893247
 21
292.2113982660048
 31
0.0
  0
LINE
  5
88C
330
1F
100
AcDbEntity
  8
0
  6
CONTINUOUS
100
AcDbLine
 10
42.24939582138723
 20
292.9744354206886
 30
0.0
 11
42.49211152284738
 21
292.9744354206886
 31
0.0
  0
LINE
  5
88D
330
1F
100
AcDbEntity
  8
0
  6
CONTINUOUS
100
AcDbLine
 10
42.28072178750632
 20
293.2244354616662
 30
0.0
 11
42.47899011909452
 21
293.2244354616662
 31
0.0
  0
ELLIPSE
  5
88E
330
1F
100
AcDbEntity
  8
0
  6
CONTINUOUS
100
AcDbEllipse
 10
42.47898991080638
 20
293.4744354296643
 30
0.0
 11
0.0
 21
0.25
 31
0.0
210
0.0
220
0.0
230
1.0
 40
0.0524853924318904
 41
3.14159265358979
 42
4.71238898038469
  0
LINE
  5
88F
330
1F
100
AcDbEntity
  8
0
  6
CONTINUOUS
100
AcDbLine
 10
43.43536759927338
 20
294.2017104234364
 30
0.0
 11
43.27690539150832
 21
294.3600948657658
 31
0.0
  0
LINE
  5
890
330
1F
100
AcDbEntity
  8
0
  6
CONTINUOUS
100
AcDbLine
 10
44.47791244103927
 20
292.9744354206886
 30
0.0
 11
42.49211152284738
 21
292.9744354206886
 31
0.0
  0
LINE
  5
891
330
1F
100
AcDbEntity
  8
0
  6
CONTINUOUS
100
AcDbLine
 10
42.49211152284738
 20
293.4744353862297
 30
0.0
 11
42.49211152284738
 21
292.9744354206886
 31
0.0
  0
LINE
  5
892
330
1F
100
AcDbEntity
  8
0
  6
CONTINUOUS
100
AcDbLine
 10
44.47791244103927
 20
292.9744354206886
 30
0.0
 11
44.47791244103927
 21
293.2244354616662
 31
0.0
  0
LINE
  5
893
330
1F
100
AcDbEntity
  8
0
  6
CONTINUOUS
100
AcDbLine
 10
45.00029546409314
 20
293.2244354616662
 30
0.0
 11
44.47791244103927
 21
293.2244354616662
 31
0.0
  0
LINE
  5
894
330
1F
100
AcDbEntity
  8
0
  6
CONTINUOUS
100
AcDbLine
 10
44.85390971615356
 20
292.9482420896923
 30
0.0
 11
44.85390971615356
 21
292.0832420515171
 31
0.0
  0
LINE
  5
895
330
1F
100
AcDbEntity
  8
0
  6
CONTINUOUS
100
AcDbLine
 10
43.50404751687729
 20
292.9482420896923
 30
0.0
 11
44.85390971615356
 21
292.9482420896923
 31
0.0
  0
LINE
  5
896
330
1F
100
AcDbEntity
  8
0
  6
CONTINUOUS
100
AcDbLine
 10
43.50404751687729
 20
292.0832420515171
 30
0.0
 11
44.85390971615356
 21
292.0832420515171
 31
0.0
  0
LINE
  5
897
330
1F
100
AcDbEntity
  8
0
  6
CONTINUOUS
100
AcDbLine
 10
43.50404751687729
 20
292.0832420515171
 30
0.0
 11
43.50404751687729
 21
292.9744354206886
 31
0.0
  0
LINE
  5
898
330
1F
100
AcDbEntity
  8
0
  6
CONTINUOUS
100
AcDbLine
 10
43.5040456542315
 20
291.7101590448101
 30
0.0
 11
44.85390738784756
 21
291.7101590448101
 31
0.0
  0
LINE
  5
899
330
1F
100
AcDbEntity
  8
0
  6
CONTINUOUS
100
AcDbLine
 10
45.57559204488415
 20
295.1044353414145
 30
0.0
 11
45.20171120032114
 21
295.1044353414145
 31
0.0
  0
LINE
  5
89A
330
1F
100
AcDbEntity
  8
0
  6
CONTINUOUS
100
AcDbLine
 10
45.20171120032114
 20
295.1044353414145
 30
0.0
 11
45.0002703183834
 21
295.1044353414145
 31
0.0
  0
LINE
  5
89B
330
1F
100
AcDbEntity
  8
0
  6
CONTINUOUS
100
AcDbLine
 10
33.49920951961939
 20
289.0829322151656
 30
0.0
 11
33.49920951961939
 21
277.7125026788376
 31
0.0
  0
LINE
  5
89C
330
1F
100
AcDbEntity
  8
0
  6
CONTINUOUS
100
AcDbLine
 10
33.96968760728237
 20
285.5595337915983
 30
0.0
 11
33.96968760728237
 21
281.2359008695743
 31
0.0
  0
LINE
  5
89D
330
1F
100
AcDbEntity
  8
0
  6
CONTINUOUS
100
AcDbLine
 10
33.50025632619348
 20
289.0829322151656
 30
0.0
 11
33.50025632619348
 21
277.7125026788376
 31
0.0
  0
LINE
  5
89E
330
1F
100
AcDbEntity
  8
0
  6
CONTINUOUS
100
AcDbLine
 10
33.81689855098125
 20
281.0830354448226
 30
0.0
 11
33.81689855098125
 21
285.7123992163506
 31
0.0
  0
LINE
  5
89F
330
1F
100
AcDbEntity
  8
0
  6
CONTINUOUS
100
AcDbLine
 10
35.75799924522061
 20
279.1506603117845
 30
0.0
 11
35.91630545645443
 21
279.3090447541146
 31
0.0
  0
LINE
  5
8A0
330
1F
100
AcDbEntity
  8
0
  6
CONTINUOUS
100
AcDbLine
 10
35.75799924522061
 20
279.9115210529233
 30
0.0
 11
35.91630545645443
 21
280.0699054952529
 31
0.0
  0
LINE
  5
8A1
330
1F
100
AcDbEntity
  8
0
  6
CONTINUOUS
100
AcDbLine
 10
35.91630545645443
 20
280.0699054952529
 30
0.0
 11
34.4242289030492
 21
280.0699054952529
 31
0.0
  0
LINE
  5
8A2
330
1F
100
AcDbEntity
  8
0
  6
CONTINUOUS
100
AcDbLine
 10
36.23998661726114
 20
275.8977163340714
 30
0.0
 11
34.00029645502036
 21
275.8977163340714
 31
0.0
  0
LINE
  5
8A3
330
1F
100
AcDbEntity
  8
0
  6
CONTINUOUS
100
AcDbLine
 10
35.82321976512139
 20
276.8413034956715
 30
0.0
 11
34.46728394567435
 21
276.8413034956715
 31
0.0
  0
LINE
  5
8A4
330
1F
100
AcDbEntity
  8
0
  6
CONTINUOUS
100
AcDbLine
 10
34.46728394567435
 20
278.6815019082096
 30
0.0
 11
35.82321976512139
 21
278.6815019082096
 31
0.0
  0
LINE
  5
8A5
330
1F
100
AcDbEntity
  8
0
  6
CONTINUOUS
100
AcDbLine
 10
35.75799924522061
 20
279.1506603117845
 30
0.0
 11
36.33111466854234
 21
279.1506603117845
 31
0.0
  0
LINE
  5
8A6
330
1F
100
AcDbEntity
  8
0
  6
CONTINUOUS
100
AcDbLine
 10
36.48942181109828
 20
279.3090447541146
 30
0.0
 11
36.48942181109828
 21
277.2833762448091
 31
0.0
  0
LINE
  5
8A7
330
1F
100
AcDbEntity
  8
0
  6
CONTINUOUS
100
AcDbLine
 10
36.33111466854234
 20
279.1506603117845
 30
0.0
 11
36.33111466854234
 21
277.1249918024805
 31
0.0
  0
LINE
  5
8A8
330
1F
100
AcDbEntity
  8
0
  6
CONTINUOUS
100
AcDbLine
 10
36.48198520034042
 20
275.8977163340714
 30
0.0
 11
36.48198520034042
 21
275.9892970081235
 31
0.0
  0
LINE
  5
8A9
330
1F
100
AcDbEntity
  8
0
  6
CONTINUOUS
100
AcDbLine
 10
36.48198520034042
 20
275.8977163340714
 30
0.0
 11
36.49605469047446
 21
275.8977163340714
 31
0.0
  0
LINE
  5
8AA
330
1F
100
AcDbEntity
  8
0
  6
CONTINUOUS
100
AcDbLine
 10
40.73731725970946
 20
275.4989459185373
 30
0.0
 11
40.63683034121459
 21
276.1530291046765
 31
0.0
  0
LINE
  5
8AB
330
1F
100
AcDbEntity
  8
0
  6
CONTINUOUS
100
AcDbLine
 10
38.10140614598434
 20
276.1530291046765
 30
0.0
 11
38.01715340462942
 21
275.4989459185373
 31
0.0
  0
LINE
  5
8AC
330
1F
100
AcDbEntity
  8
0
  6
CONTINUOUS
100
AcDbLine
 10
36.55731709609425
 20
275.4989459185373
 30
0.0
 11
36.45683017759938
 21
276.1530291046765
 31
0.0
  0
LINE
  5
8AD
330
1F
100
AcDbEntity
  8
0
  6
CONTINUOUS
100
AcDbLine
 10
40.43964700042624
 20
276.1477168407103
 30
0.0
 11
40.6376471111123
 21
276.1477168407103
 31
0.0
  0
LINE
  5
8AE
330
1F
100
AcDbEntity
  8
0
  6
CONTINUOUS
100
AcDbLine
 10
40.42399705588239
 20
275.8977163340714
 30
0.0
 11
40.67605392276639
 21
275.8977163340714
 31
0.0
  0
ELLIPSE
  5
8AF
330
1F
100
AcDbEntity
  8
0
  6
CONTINUOUS
100
AcDbEllipse
 10
40.43964715421657
 20
276.3977172069516
 30
0.0
 11
0.0
 21
0.25
 31
0.0
210
0.0
220
0.0
230
1.0
 40
0.0625986046035223
 41
1.570796326794896
 42
3.141592653587975
  0
LINE
  5
8B0
330
1F
100
AcDbEntity
  8
0
  6
CONTINUOUS
100
AcDbLine
 10
38.06851928322931
 20
275.8977163340714
 30
0.0
 11
38.30810108422634
 21
275.8977163340714
 31
0.0
  0
LINE
  5
8B1
330
1F
100
AcDbEntity
  8
0
  6
CONTINUOUS
100
AcDbLine
 10
38.10140614598434
 20
276.1530291046765
 30
0.0
 11
36.45683017759938
 21
276.1530291046765
 31
0.0
  0
LINE
  5
8B2
330
1F
100
AcDbEntity
  8
0
  6
CONTINUOUS
100
AcDbLine
 10
38.29241202413435
 20
276.1477168407103
 30
0.0
 11
38.10072162389246
 21
276.1477168407103
 31
0.0
  0
ELLIPSE
  5
8B3
330
1F
100
AcDbEntity
  8
0
  6
CONTINUOUS
100
AcDbEllipse
 10
38.29241219858317
 20
276.3977172069516
 30
0.0
 11
0.0
 21
0.25
 31
0.0
210
0.0
220
0.0
230
1.0
 40
0.0627538312166962
 41
3.14159265358979
 42
4.71238898038469
  0
LINE
  5
8B4
330
1F
100
AcDbEntity
  8
0
  6
CONTINUOUS
100
AcDbLine
 10
36.45764694749755
 20
276.1477168407103
 30
0.0
 11
36.25306983678934
 21
276.1477168407103
 31
0.0
  0
LINE
  5
8B5
330
1F
100
AcDbEntity
  8
0
  6
CONTINUOUS
100
AcDbLine
 10
35.8230642342512
 20
276.8413034956715
 30
0.0
 11
35.8230642342512
 21
278.6815019082096
 31
0.0
  0
LINE
  5
8B6
330
1F
100
AcDbEntity
  8
0
  6
CONTINUOUS
100
AcDbLine
 10
36.33111466854234
 20
277.1249918024805
 30
0.0
 11
36.48942181109828
 21
277.2833762448091
 31
0.0
  0
LINE
  5
8B7
330
1F
100
AcDbEntity
  8
0
  6
CONTINUOUS
100
AcDbLine
 10
36.23998661726114
 20
275.8977163340714
 30
0.0
 11
36.48198520034042
 21
275.8977163340714
 31
0.0
  0
ELLIPSE
  5
8B8
330
1F
100
AcDbEntity
  8
0
  6
CONTINUOUS
100
AcDbEllipse
 10
36.25306944199246
 20
276.3977172069516
 30
0.0
 11
0.0
 21
0.25
 31
0.0
210
0.0
220
0.0
230
1.0
 40
0.0523301658186028
 41
1.570796326794896
 42
3.14159265358979
  0
LINE
  5
8B9
330
1F
100
AcDbEntity
  8
0
  6
CONTINUOUS
100
AcDbLine
 10
40.42399705588239
 20
275.8977163340714
 30
0.0
 11
38.30810108422634
 21
275.8977163340714
 31
0.0
  0
LINE
  5
8BA
330
1F
100
AcDbEntity
  8
0
  6
CONTINUOUS
100
AcDbLine
 10
35.82321976512139
 20
276.8413034956715
 30
0.0
 11
35.82321976512139
 21
278.6815019082096
 31
0.0
  0
LINE
  5
8BB
330
1F
100
AcDbEntity
  8
0
  6
CONTINUOUS
100
AcDbLine
 10
36.23998661726114
 20
275.8977163340714
 30
0.0
 11
36.23998661726114
 21
276.3977173473504
 31
0.0
  0
LINE
  5
8BC
330
1F
100
AcDbEntity
  8
0
  6
CONTINUOUS
100
AcDbLine
 10
38.30810108422634
 20
276.3977173473504
 30
0.0
 11
36.23998661726114
 21
276.3977173473504
 31
0.0
  0
LINE
  5
8BD
330
1F
100
AcDbEntity
  8
0
  6
CONTINUOUS
100
AcDbLine
 10
38.30810108422634
 20
276.3977173473504
 30
0.0
 11
38.30810108422634
 21
275.8977163340714
 31
0.0
  0
LINE
  5
8BE
330
1F
100
AcDbEntity
  8
0
  6
CONTINUOUS
100
AcDbLine
 10
40.42399705588239
 20
275.8977163340714
 30
0.0
 11
40.42399705588239
 21
276.3977173473504
 31
0.0
  0
LINE
  5
8BF
330
1F
100
AcDbEntity
  8
0
  6
CONTINUOUS
100
AcDbLine
 10
35.91630545645443
 20
279.3090447541146
 30
0.0
 11
35.91630545645443
 21
280.0699054952529
 31
0.0
  0
LINE
  5
8C0
330
1F
100
AcDbEntity
  8
0
  6
CONTINUOUS
100
AcDbLine
 10
36.33111466854234
 20
279.1506603117845
 30
0.0
 11
36.48942181109828
 21
279.3090447541146
 31
0.0
  0
LINE
  5
8C1
330
1F
100
AcDbEntity
  8
0
  6
CONTINUOUS
100
AcDbLine
 10
36.48942181109828
 20
279.3090447541146
 30
0.0
 11
35.91630545645443
 21
279.3090447541146
 31
0.0
  0
LINE
  5
8C2
330
1F
100
AcDbEntity
  8
0
  6
CONTINUOUS
100
AcDbLine
 10
34.00029645502036
 20
275.8977163340714
 30
0.0
 11
34.00029645502036
 21
281.0775164272458
 31
0.0
  0
LINE
  5
8C3
330
1F
100
AcDbEntity
  8
0
  6
CONTINUOUS
100
AcDbLine
 10
33.70856897174735
 20
275.8977163340714
 30
0.0
 11
33.49984840690535
 21
275.8977163340714
 31
0.0
  0
LINE
  5
8C4
330
1F
100
AcDbEntity
  8
0
  6
CONTINUOUS
100
AcDbLine
 10
32.68515535830943
 20
276.4125020932228
 30
0.0
 11
32.68504918753524
 21
276.4125020932228
 31
0.0
  0
LINE
  5
8C5
330
1F
100
AcDbEntity
  8
0
  6
CONTINUOUS
100
AcDbLine
 10
32.68515535830943
 20
277.7125026788376
 30
0.0
 11
32.68504918753524
 21
277.7125026788376
 31
0.0
  0
LINE
  5
8C6
330
1F
100
AcDbEntity
  8
0
  6
CONTINUOUS
100
AcDbLine
 10
32.68504918753524
 20
277.7125026788376
 30
0.0
 11
32.68504918753524
 21
276.4125020932228
 31
0.0
  0
LINE
  5
8C7
330
1F
100
AcDbEntity
  8
0
  6
CONTINUOUS
100
AcDbLine
 10
32.71240958213228
 20
276.4125020932228
 30
0.0
 11
32.68515535830943
 21
276.4125020932228
 31
0.0
  0
LINE
  5
8C8
330
1F
100
AcDbEntity
  8
0
  6
CONTINUOUS
100
AcDbLine
 10
32.71240958213228
 20
277.7125026788376
 30
0.0
 11
32.68515535830943
 21
277.7125026788376
 31
0.0
  0
LINE
  5
8C9
330
1F
100
AcDbEntity
  8
0
  6
CONTINUOUS
100
AcDbLine
 10
32.68515535830943
 20
277.7125026788376
 30
0.0
 11
32.68515535830943
 21
276.4125020932228
 31
0.0
  0
LINE
  5
8CA
330
1F
100
AcDbEntity
  8
0
  6
CONTINUOUS
100
AcDbLine
 10
33.50025632619348
 20
276.1477168407103
 30
0.0
 11
33.49984840690535
 21
276.1477168407103
 31
0.0
  0
LINE
  5
8CB
330
1F
100
AcDbEntity
  8
0
  6
CONTINUOUS
100
AcDbLine
 10
33.49920951961939
 20
276.1477168407103
 30
0.0
 11
33.49922814607042
 21
276.1477168407103
 31
0.0
  0
LINE
  5
8CC
330
1F
100
AcDbEntity
  8
0
  6
CONTINUOUS
100
AcDbLine
 10
33.49920951961939
 20
276.4125020932228
 30
0.0
 11
33.49920951961939
 21
276.1477168407103
 31
0.0
  0
LINE
  5
8CD
330
1F
100
AcDbEntity
  8
0
  6
CONTINUOUS
100
AcDbLine
 10
33.49922814607042
 20
276.1477168407103
 30
0.0
 11
33.49922814607042
 21
275.8977163340714
 31
0.0
  0
LINE
  5
8CE
330
1F
100
AcDbEntity
  8
0
  6
CONTINUOUS
100
AcDbLine
 10
33.49922814607042
 20
275.8977163340714
 30
0.0
 11
33.49984840690535
 21
275.8977163340714
 31
0.0
  0
LINE
  5
8CF
330
1F
100
AcDbEntity
  8
0
  6
CONTINUOUS
100
AcDbLine
 10
33.49984840690535
 20
275.8977163340714
 30
0.0
 11
33.49984840690535
 21
276.1477168407103
 31
0.0
  0
LINE
  5
8D0
330
1F
100
AcDbEntity
  8
0
  6
CONTINUOUS
100
AcDbLine
 10
33.50483284532423
 20
276.4125020932228
 30
0.0
 11
32.71240958213228
 21
276.4125020932228
 31
0.0
  0
LINE
  5
8D1
330
1F
100
AcDbEntity
  8
0
  6
CONTINUOUS
100
AcDbLine
 10
33.50483284532423
 20
277.7125026788376
 30
0.0
 11
32.71240958213228
 21
277.7125026788376
 31
0.0
  0
LINE
  5
8D2
330
1F
100
AcDbEntity
  8
0
  6
CONTINUOUS
100
AcDbLine
 10
32.71240958213228
 20
276.4125020932228
 30
0.0
 11
32.71240958213228
 21
277.7125026788376
 31
0.0
  0
LINE
  5
8D3
330
1F
100
AcDbEntity
  8
0
  6
CONTINUOUS
100
AcDbLine
 10
33.70856897174735
 20
275.8977163340714
 30
0.0
 11
33.70899179219644
 21
275.8977163340714
 31
0.0
  0
LINE
  5
8D4
330
1F
100
AcDbEntity
  8
0
  6
CONTINUOUS
100
AcDbLine
 10
33.70856897174735
 20
275.8977163340714
 30
0.0
 11
33.70856897174735
 21
276.1477168407103
 31
0.0
  0
LINE
  5
8D5
330
1F
100
AcDbEntity
  8
0
  6
CONTINUOUS
100
AcDbLine
 10
34.56728377580132
 20
278.5815020780824
 30
0.0
 11
35.72321993499439
 21
278.5815020780824
 31
0.0
  0
LINE
  5
8D6
330
1F
100
AcDbEntity
  8
0
  6
CONTINUOUS
100
AcDbLine
 10
35.72321993499439
 20
276.9413033257988
 30
0.0
 11
34.56728377580132
 21
276.9413033257988
 31
0.0
  0
LINE
  5
8D7
330
1F
100
AcDbEntity
  8
0
  6
CONTINUOUS
100
AcDbLine
 10
35.72321993499439
 20
278.5815020780824
 30
0.0
 11
35.72321993499439
 21
276.9413033257988
 31
0.0
  0
LINE
  5
8D8
330
1F
100
AcDbEntity
  8
0
  6
CONTINUOUS
100
AcDbLine
 10
34.56712731360835
 20
278.5815020780824
 30
0.0
 11
34.56712731360835
 21
276.9413033257988
 31
0.0
  0
LINE
  5
8D9
330
1F
100
AcDbEntity
  8
0
  6
CONTINUOUS
100
AcDbLine
 10
34.56728377580132
 20
276.9413033257988
 30
0.0
 11
34.56712731360835
 21
276.9413033257988
 31
0.0
  0
LINE
  5
8DA
330
1F
100
AcDbEntity
  8
0
  6
CONTINUOUS
100
AcDbLine
 10
34.56728377580132
 20
276.9413033257988
 30
0.0
 11
34.56728377580132
 21
278.5815020780824
 31
0.0
  0
LINE
  5
8DB
330
1F
100
AcDbEntity
  8
0
  6
CONTINUOUS
100
AcDbLine
 10
34.56712731360835
 20
278.5815020780824
 30
0.0
 11
34.56728377580132
 21
278.5815020780824
 31
0.0
  0
LINE
  5
8DC
330
1F
100
AcDbEntity
  8
0
  6
CONTINUOUS
100
AcDbLine
 10
33.70899179219644
 20
275.8977163340714
 30
0.0
 11
34.00029645502036
 21
275.8977163340714
 31
0.0
  0
LINE
  5
8DD
330
1F
100
AcDbEntity
  8
0
  6
CONTINUOUS
100
AcDbLine
 10
33.50483284532423
 20
277.7125026788376
 30
0.0
 11
33.50483284532423
 21
276.4125020932228
 31
0.0
  0
LINE
  5
8DE
330
1F
100
AcDbEntity
  8
0
  6
CONTINUOUS
100
AcDbLine
 10
33.50025632619348
 20
276.4125020932228
 30
0.0
 11
33.50025632619348
 21
276.1477168407103
 31
0.0
  0
LINE
  5
8DF
330
1F
100
AcDbEntity
  8
0
  6
CONTINUOUS
100
AcDbLine
 10
33.70899179219644
 20
276.1477168407103
 30
0.0
 11
33.50025632619348
 21
276.1477168407103
 31
0.0
  0
LINE
  5
8E0
330
1F
100
AcDbEntity
  8
0
  6
CONTINUOUS
100
AcDbLine
 10
33.70899179219644
 20
276.1477168407103
 30
0.0
 11
33.70899179219644
 21
275.8977163340714
 31
0.0
  0
LINE
  5
8E1
330
1F
100
AcDbEntity
  8
0
  6
CONTINUOUS
100
AcDbLine
 10
34.46728394567435
 20
278.6815019082096
 30
0.0
 11
34.46728394567435
 21
276.8413034956715
 31
0.0
  0
LINE
  5
8E2
330
1F
100
AcDbEntity
  8
0
  6
CONTINUOUS
100
AcDbLine
 10
34.4242289030492
 20
280.0699054952529
 30
0.0
 11
34.4242289030492
 21
281.2359008695743
 31
0.0
  0
LINE
  5
8E3
330
1F
100
AcDbEntity
  8
0
  6
CONTINUOUS
100
AcDbLine
 10
34.26592082917135
 20
279.9115210529233
 30
0.0
 11
34.4242289030492
 21
280.0699054952529
 31
0.0
  0
LINE
  5
8E4
330
1F
100
AcDbEntity
  8
0
  6
CONTINUOUS
100
AcDbLine
 10
35.75799924522061
 20
279.9115210529233
 30
0.0
 11
35.75799924522061
 21
279.1506603117845
 31
0.0
  0
LINE
  5
8E5
330
1F
100
AcDbEntity
  8
0
  6
CONTINUOUS
100
AcDbLine
 10
34.26592082917135
 20
279.9115210529233
 30
0.0
 11
35.75799924522061
 21
279.9115210529233
 31
0.0
  0
LINE
  5
8E6
330
1F
100
AcDbEntity
  8
0
  6
CONTINUOUS
100
AcDbLine
 10
34.26592082917135
 20
281.0775164272458
 30
0.0
 11
34.26592082917135
 21
279.9115210529233
 31
0.0
  0
LINE
  5
8E7
330
1F
100
AcDbEntity
  8
0
  6
CONTINUOUS
100
AcDbLine
 10
34.26592082917135
 20
281.0775164272458
 30
0.0
 11
34.4242289030492
 21
281.2359008695743
 31
0.0
  0
LINE
  5
8E8
330
1F
100
AcDbEntity
  8
0
  6
CONTINUOUS
100
AcDbLine
 10
34.4242289030492
 20
281.2359008695743
 30
0.0
 11
33.96968760728237
 21
281.2359008695743
 31
0.0
  0
LINE
  5
8E9
330
1F
100
AcDbEntity
  8
0
  6
CONTINUOUS
100
AcDbLine
 10
33.81689855098125
 20
281.0830354448226
 30
0.0
 11
33.96968760728237
 21
281.2359008695743
 31
0.0
  0
ELLIPSE
  5
8EA
330
1F
100
AcDbEntity
  8
0
  6
CONTINUOUS
100
AcDbEllipse
 10
34.00025681529427
 20
281.1567082105307
 30
0.0
 11
-0.4999999999990055
 21
0.0000063045229695
 31
0.0
210
0.0
220
0.0
230
1.0
 40
0.1583844398229271
 41
1.195319426270372
 42
1.570875937178294
  0
LINE
  5
8EB
330
1F
100
AcDbEntity
  8
0
  6
CONTINUOUS
100
AcDbLine
 10
34.00029645502036
 20
281.0775164272458
 30
0.0
 11
34.26592082917135
 21
281.0775164272458
 31
0.0
  0
LINE
  5
8EC
330
1F
100
AcDbEntity
  8
0
  6
CONTINUOUS
100
AcDbLine
 10
40.63683034121459
 20
290.6424048580041
 30
0.0
 11
40.79327949523325
 21
291.6607543758392
 31
0.0
  0
LINE
  5
8ED
330
1F
100
AcDbEntity
  8
0
  6
CONTINUOUS
100
AcDbLine
 10
36.45683017759938
 20
290.6424048580041
 30
0.0
 11
36.61327933161938
 21
291.6607543758392
 31
0.0
  0
LINE
  5
8EE
330
1F
100
AcDbEntity
  8
0
  6
CONTINUOUS
100
AcDbLine
 10
37.97023215531726
 20
291.6607543758392
 30
0.0
 11
38.10140614598434
 21
290.6424048580041
 31
0.0
  0
LINE
  5
8EF
330
1F
100
AcDbEntity
  8
0
  6
CONTINUOUS
100
AcDbLine
 10
38.65404551118036
 20
290.8977171629483
 30
0.0
 11
38.65404551118036
 21
291.7101590448101
 31
0.0
  0
LINE
  5
8F0
330
1F
100
AcDbEntity
  8
0
  6
CONTINUOUS
100
AcDbLine
 10
38.65349323689361
 20
291.7101590448101
 30
0.0
 11
38.65349323689361
 21
290.8977171629483
 31
0.0
  0
LINE
  5
8F1
330
1F
100
AcDbEntity
  8
0
  6
CONTINUOUS
100
AcDbLine
 10
35.75799924522061
 20
287.6447738837263
 30
0.0
 11
35.91630545645443
 21
287.4863894413978
 31
0.0
  0
LINE
  5
8F2
330
1F
100
AcDbEntity
  8
0
  6
CONTINUOUS
100
AcDbLine
 10
34.4242289030492
 20
286.7255287002585
 30
0.0
 11
35.91630545645443
 21
286.7255287002585
 31
0.0
  0
LINE
  5
8F3
330
1F
100
AcDbEntity
  8
0
  6
CONTINUOUS
100
AcDbLine
 10
35.75799924522061
 20
286.8839131425882
 30
0.0
 11
35.91630545645443
 21
286.7255287002585
 31
0.0
  0
LINE
  5
8F4
330
1F
100
AcDbEntity
  8
0
  6
CONTINUOUS
100
AcDbLine
 10
34.00029645502036
 20
290.8977171629483
 30
0.0
 11
36.23998661726114
 21
290.8977171629483
 31
0.0
  0
LINE
  5
8F5
330
1F
100
AcDbEntity
  8
0
  6
CONTINUOUS
100
AcDbLine
 10
35.82321976512139
 20
288.1139322873027
 30
0.0
 11
34.46728394567435
 21
288.1139322873027
 31
0.0
  0
LINE
  5
8F6
330
1F
100
AcDbEntity
  8
0
  6
CONTINUOUS
100
AcDbLine
 10
34.46728394567435
 20
289.9541313983318
 30
0.0
 11
35.82321976512139
 21
289.9541313983318
 31
0.0
  0
LINE
  5
8F7
330
1F
100
AcDbEntity
  8
0
  6
CONTINUOUS
100
AcDbLine
 10
36.33111466854234
 20
287.6447738837263
 30
0.0
 11
35.75799924522061
 21
287.6447738837263
 31
0.0
  0
LINE
  5
8F8
330
1F
100
AcDbEntity
  8
0
  6
CONTINUOUS
100
AcDbLine
 10
35.91630545645443
 20
286.7255287002585
 30
0.0
 11
35.91630545645443
 21
287.4863894413978
 31
0.0
  0
LINE
  5
8F9
330
1F
100
AcDbEntity
  8
0
  6
CONTINUOUS
100
AcDbLine
 10
36.48198520034042
 20
290.8977171629483
 30
0.0
 11
36.48198520034042
 21
290.8061378858806
 31
0.0
  0
LINE
  5
8FA
330
1F
100
AcDbEntity
  8
0
  6
CONTINUOUS
100
AcDbLine
 10
36.49605469047446
 20
290.8977171629483
 30
0.0
 11
36.48198520034042
 21
290.8977171629483
 31
0.0
  0
LINE
  5
8FB
330
1F
100
AcDbEntity
  8
0
  6
CONTINUOUS
100
AcDbLine
 10
40.6376471111123
 20
290.6477172383856
 30
0.0
 11
40.43964700042624
 21
290.6477172383856
 31
0.0
  0
LINE
  5
8FC
330
1F
100
AcDbEntity
  8
0
  6
CONTINUOUS
100
AcDbLine
 10
40.67605392276639
 20
290.8977171629483
 30
0.0
 11
40.42399705588239
 21
290.8977171629483
 31
0.0
  0
ELLIPSE
  5
8FD
330
1F
100
AcDbEntity
  8
0
  6
CONTINUOUS
100
AcDbEllipse
 10
40.43964715421657
 20
290.3977172069508
 30
0.0
 11
0.0
 21
0.25
 31
0.0
210
0.0
220
0.0
230
1.0
 40
0.0625986046035223
 41
0.0
 42
1.570796326794896
  0
LINE
  5
8FE
330
1F
100
AcDbEntity
  8
0
  6
CONTINUOUS
100
AcDbLine
 10
38.30810108422634
 20
290.8977171629483
 30
0.0
 11
38.06851928322931
 21
290.8977171629483
 31
0.0
  0
ELLIPSE
  5
8FF
330
1F
100
AcDbEntity
  8
0
  6
CONTINUOUS
100
AcDbEllipse
 10
38.29241219858317
 20
290.3977172069508
 30
0.0
 11
0.0
 21
0.25
 31
0.0
210
0.0
220
0.0
230
1.0
 40
0.0627538312168099
 41
4.71238898038469
 42
6.283185307179584
  0
LINE
  5
900
330
1F
100
AcDbEntity
  8
0
  6
CONTINUOUS
100
AcDbLine
 10
38.10072162389246
 20
290.6477172383856
 30
0.0
 11
38.29241202413435
 21
290.6477172383856
 31
0.0
  0
LINE
  5
901
330
1F
100
AcDbEntity
  8
0
  6
CONTINUOUS
100
AcDbLine
 10
36.45683017759938
 20
290.6424048580041
 30
0.0
 11
38.10140614598434
 21
290.6424048580041
 31
0.0
  0
LINE
  5
902
330
1F
100
AcDbEntity
  8
0
  6
CONTINUOUS
100
AcDbLine
 10
36.25306983678934
 20
290.6477172383856
 30
0.0
 11
36.45764694749755
 21
290.6477172383856
 31
0.0
  0
LINE
  5
903
330
1F
100
AcDbEntity
  8
0
  6
CONTINUOUS
100
AcDbLine
 10
35.8230642342512
 20
288.1139322873027
 30
0.0
 11
35.8230642342512
 21
289.9541313983318
 31
0.0
  0
LINE
  5
904
330
1F
100
AcDbEntity
  8
0
  6
CONTINUOUS
100
AcDbLine
 10
36.48942181109828
 20
289.5120577178717
 30
0.0
 11
36.48942181109828
 21
287.4863894413978
 31
0.0
  0
LINE
  5
905
330
1F
100
AcDbEntity
  8
0
  6
CONTINUOUS
100
AcDbLine
 10
36.33111466854234
 20
289.6704421602003
 30
0.0
 11
36.48942181109828
 21
289.5120577178717
 31
0.0
  0
LINE
  5
906
330
1F
100
AcDbEntity
  8
0
  6
CONTINUOUS
100
AcDbLine
 10
36.48198520034042
 20
290.8977171629483
 30
0.0
 11
36.23998661726114
 21
290.8977171629483
 31
0.0
  0
ELLIPSE
  5
907
330
1F
100
AcDbEntity
  8
0
  6
CONTINUOUS
100
AcDbEllipse
 10
36.25306944199337
 20
290.3977172069508
 30
0.0
 11
0.0
 21
0.25
 31
0.0
210
0.0
220
0.0
230
1.0
 40
0.0523301658186028
 41
0.0
 42
1.570796326794896
  0
LINE
  5
908
330
1F
100
AcDbEntity
  8
0
  6
CONTINUOUS
100
AcDbLine
 10
35.91630545645443
 20
287.4863894413978
 30
0.0
 11
36.48942181109828
 21
287.4863894413978
 31
0.0
  0
LINE
  5
909
330
1F
100
AcDbEntity
  8
0
  6
CONTINUOUS
100
AcDbLine
 10
36.33111466854234
 20
287.6447738837263
 30
0.0
 11
36.48942181109828
 21
287.4863894413978
 31
0.0
  0
LINE
  5
90A
330
1F
100
AcDbEntity
  8
0
  6
CONTINUOUS
100
AcDbLine
 10
38.30810108422634
 20
290.8977171629483
 30
0.0
 11
40.42399705588239
 21
290.8977171629483
 31
0.0
  0
LINE
  5
90B
330
1F
100
AcDbEntity
  8
0
  6
CONTINUOUS
100
AcDbLine
 10
35.82321976512139
 20
288.1139322873027
 30
0.0
 11
35.82321976512139
 21
289.9541313983318
 31
0.0
  0
LINE
  5
90C
330
1F
100
AcDbEntity
  8
0
  6
CONTINUOUS
100
AcDbLine
 10
40.42399705588239
 20
290.3977171974073
 30
0.0
 11
40.42399705588239
 21
290.8977171629483
 31
0.0
  0
LINE
  5
90D
330
1F
100
AcDbEntity
  8
0
  6
CONTINUOUS
100
AcDbLine
 10
38.30810108422634
 20
290.8977171629483
 30
0.0
 11
38.30810108422634
 21
290.3977171974073
 31
0.0
  0
LINE
  5
90E
330
1F
100
AcDbEntity
  8
0
  6
CONTINUOUS
100
AcDbLine
 10
36.23998661726114
 20
290.3977171974073
 30
0.0
 11
38.30810108422634
 21
290.3977171974073
 31
0.0
  0
LINE
  5
90F
330
1F
100
AcDbEntity
  8
0
  6
CONTINUOUS
100
AcDbLine
 10
36.23998661726114
 20
290.3977171974073
 30
0.0
 11
36.23998661726114
 21
290.8977171629483
 31
0.0
  0
LINE
  5
910
330
1F
100
AcDbEntity
  8
0
  6
CONTINUOUS
100
AcDbLine
 10
36.33111466854234
 20
289.6704421602003
 30
0.0
 11
36.33111466854234
 21
287.6447738837263
 31
0.0
  0
LINE
  5
911
330
1F
100
AcDbEntity
  8
0
  6
CONTINUOUS
100
AcDbLine
 10
34.00029645502036
 20
285.7179182339276
 30
0.0
 11
34.00029645502036
 21
290.8977171629483
 31
0.0
  0
LINE
  5
912
330
1F
100
AcDbEntity
  8
0
  6
CONTINUOUS
100
AcDbLine
 10
35.75799924522061
 20
287.6447738837263
 30
0.0
 11
35.75799924522061
 21
286.8839131425882
 31
0.0
  0
LINE
  5
913
330
1F
100
AcDbEntity
  8
0
  6
CONTINUOUS
100
AcDbLine
 10
34.4242289030492
 20
285.5595337915983
 30
0.0
 11
34.4242289030492
 21
286.7255287002585
 31
0.0
  0
LINE
  5
914
330
1F
100
AcDbEntity
  8
0
  6
CONTINUOUS
100
AcDbLine
 10
34.26592082917135
 20
286.8839131425882
 30
0.0
 11
34.4242289030492
 21
286.7255287002585
 31
0.0
  0
LINE
  5
915
330
1F
100
AcDbEntity
  8
0
  6
CONTINUOUS
100
AcDbLine
 10
34.26592082917135
 20
286.8839131425882
 30
0.0
 11
34.26592082917135
 21
285.7179182339276
 31
0.0
  0
LINE
  5
916
330
1F
100
AcDbEntity
  8
0
  6
CONTINUOUS
100
AcDbLine
 10
35.75799924522061
 20
286.8839131425882
 30
0.0
 11
34.26592082917135
 21
286.8839131425882
 31
0.0
  0
ELLIPSE
  5
917
330
1F
100
AcDbEntity
  8
0
  6
CONTINUOUS
100
AcDbEllipse
 10
34.00025681529427
 20
285.6387262033718
 30
0.0
 11
-0.4999999999990055
 21
-0.0000063045230263
 31
0.0
210
0.0
220
0.0
230
1.0
 40
0.1583844398229271
 41
4.712309370001213
 42
5.087865880909113
  0
LINE
  5
918
330
1F
100
AcDbEntity
  8
0
  6
CONTINUOUS
100
AcDbLine
 10
33.96968760728237
 20
285.5595337915983
 30
0.0
 11
33.81689855098125
 21
285.7123992163506
 31
0.0
  0
LINE
  5
919
330
1F
100
AcDbEntity
  8
0
  6
CONTINUOUS
100
AcDbLine
 10
33.96968760728237
 20
285.5595337915983
 30
0.0
 11
34.4242289030492
 21
285.5595337915983
 31
0.0
  0
LINE
  5
91A
330
1F
100
AcDbEntity
  8
0
  6
CONTINUOUS
100
AcDbLine
 10
34.26592082917135
 20
285.7179182339276
 30
0.0
 11
34.4242289030492
 21
285.5595337915983
 31
0.0
  0
LINE
  5
91B
330
1F
100
AcDbEntity
  8
0
  6
CONTINUOUS
100
AcDbLine
 10
34.26592082917135
 20
285.7179182339276
 30
0.0
 11
34.00029645502036
 21
285.7179182339276
 31
0.0
  0
LINE
  5
91C
330
1F
100
AcDbEntity
  8
0
  6
CONTINUOUS
100
AcDbLine
 10
33.49984840690535
 20
290.8977171629483
 30
0.0
 11
33.70856897174735
 21
290.8977171629483
 31
0.0
  0
LINE
  5
91D
330
1F
100
AcDbEntity
  8
0
  6
CONTINUOUS
100
AcDbLine
 10
32.68504918753524
 20
290.3829321022895
 30
0.0
 11
32.68515535830943
 21
290.3829321022895
 31
0.0
  0
LINE
  5
91E
330
1F
100
AcDbEntity
  8
0
  6
CONTINUOUS
100
AcDbLine
 10
32.68504918753524
 20
289.0829322151656
 30
0.0
 11
32.68515535830943
 21
289.0829322151656
 31
0.0
  0
LINE
  5
91F
330
1F
100
AcDbEntity
  8
0
  6
CONTINUOUS
100
AcDbLine
 10
32.68504918753524
 20
289.0829322151656
 30
0.0
 11
32.68504918753524
 21
290.3829321022895
 31
0.0
  0
LINE
  5
920
330
1F
100
AcDbEntity
  8
0
  6
CONTINUOUS
100
AcDbLine
 10
32.68515535830943
 20
290.3829321022895
 30
0.0
 11
32.71240958213228
 21
290.3829321022895
 31
0.0
  0
LINE
  5
921
330
1F
100
AcDbEntity
  8
0
  6
CONTINUOUS
100
AcDbLine
 10
32.68515535830943
 20
289.0829322151656
 30
0.0
 11
32.71240958213228
 21
289.0829322151656
 31
0.0
  0
LINE
  5
922
330
1F
100
AcDbEntity
  8
0
  6
CONTINUOUS
100
AcDbLine
 10
32.68515535830943
 20
290.3829321022895
 30
0.0
 11
32.68515535830943
 21
289.0829322151656
 31
0.0
  0
LINE
  5
923
330
1F
100
AcDbEntity
  8
0
  6
CONTINUOUS
100
AcDbLine
 10
33.49920951961939
 20
290.6477172383856
 30
0.0
 11
33.49922814607042
 21
290.6477172383856
 31
0.0
  0
LINE
  5
924
330
1F
100
AcDbEntity
  8
0
  6
CONTINUOUS
100
AcDbLine
 10
33.49984840690535
 20
290.6477172383856
 30
0.0
 11
33.50025632619348
 21
290.6477172383856
 31
0.0
  0
LINE
  5
925
330
1F
100
AcDbEntity
  8
0
  6
CONTINUOUS
100
AcDbLine
 10
33.49984840690535
 20
290.6477172383856
 30
0.0
 11
33.49984840690535
 21
290.8977171629483
 31
0.0
  0
LINE
  5
926
330
1F
100
AcDbEntity
  8
0
  6
CONTINUOUS
100
AcDbLine
 10
33.49984840690535
 20
290.8977171629483
 30
0.0
 11
33.49922814607042
 21
290.8977171629483
 31
0.0
  0
LINE
  5
927
330
1F
100
AcDbEntity
  8
0
  6
CONTINUOUS
100
AcDbLine
 10
33.49922814607042
 20
290.8977171629483
 30
0.0
 11
33.49922814607042
 21
290.6477172383856
 31
0.0
  0
LINE
  5
928
330
1F
100
AcDbEntity
  8
0
  6
CONTINUOUS
100
AcDbLine
 10
33.49920951961939
 20
290.6477172383856
 30
0.0
 11
33.49920951961939
 21
290.3829321022895
 31
0.0
  0
LINE
  5
929
330
1F
100
AcDbEntity
  8
0
  6
CONTINUOUS
100
AcDbLine
 10
32.71240958213228
 20
290.3829321022895
 30
0.0
 11
33.50483284532423
 21
290.3829321022895
 31
0.0
  0
LINE
  5
92A
330
1F
100
AcDbEntity
  8
0
  6
CONTINUOUS
100
AcDbLine
 10
33.50483284532423
 20
289.0829322151656
 30
0.0
 11
32.71240958213228
 21
289.0829322151656
 31
0.0
  0
LINE
  5
92B
330
1F
100
AcDbEntity
  8
0
  6
CONTINUOUS
100
AcDbLine
 10
32.71240958213228
 20
289.0829322151656
 30
0.0
 11
32.71240958213228
 21
290.3829321022895
 31
0.0
  0
LINE
  5
92C
330
1F
100
AcDbEntity
  8
0
  6
CONTINUOUS
100
AcDbLine
 10
33.70899179219644
 20
290.8977171629483
 30
0.0
 11
33.70856897174735
 21
290.8977171629483
 31
0.0
  0
LINE
  5
92D
330
1F
100
AcDbEntity
  8
0
  6
CONTINUOUS
100
AcDbLine
 10
33.70856897174735
 20
290.8977171629483
 30
0.0
 11
33.70856897174735
 21
290.6477172383856
 31
0.0
  0
LINE
  5
92E
330
1F
100
AcDbEntity
  8
0
  6
CONTINUOUS
100
AcDbLine
 10
34.56712731360835
 20
288.2139323502597
 30
0.0
 11
34.56712731360835
 21
289.8541313353741
 31
0.0
  0
LINE
  5
92F
330
1F
100
AcDbEntity
  8
0
  6
CONTINUOUS
100
AcDbLine
 10
34.56712731360835
 20
288.2139323502597
 30
0.0
 11
34.56728377580132
 21
288.2139323502597
 31
0.0
  0
LINE
  5
930
330
1F
100
AcDbEntity
  8
0
  6
CONTINUOUS
100
AcDbLine
 10
34.56728377580132
 20
289.8541313353741
 30
0.0
 11
34.56712731360835
 21
289.8541313353741
 31
0.0
  0
LINE
  5
931
330
1F
100
AcDbEntity
  8
0
  6
CONTINUOUS
100
AcDbLine
 10
35.72321993499439
 20
288.2139323502597
 30
0.0
 11
34.56728377580132
 21
288.2139323502597
 31
0.0
  0
LINE
  5
932
330
1F
100
AcDbEntity
  8
0
  6
CONTINUOUS
100
AcDbLine
 10
35.72321993499439
 20
289.8541313353741
 30
0.0
 11
35.72321993499439
 21
288.2139323502597
 31
0.0
  0
LINE
  5
933
330
1F
100
AcDbEntity
  8
0
  6
CONTINUOUS
100
AcDbLine
 10
34.56728377580132
 20
289.8541313353741
 30
0.0
 11
35.72321993499439
 21
289.8541313353741
 31
0.0
  0
LINE
  5
934
330
1F
100
AcDbEntity
  8
0
  6
CONTINUOUS
100
AcDbLine
 10
34.56728377580132
 20
288.2139323502597
 30
0.0
 11
34.56728377580132
 21
289.8541313353741
 31
0.0
  0
LINE
  5
935
330
1F
100
AcDbEntity
  8
0
  6
CONTINUOUS
100
AcDbLine
 10
34.00029645502036
 20
290.8977171629483
 30
0.0
 11
33.70899179219644
 21
290.8977171629483
 31
0.0
  0
LINE
  5
936
330
1F
100
AcDbEntity
  8
0
  6
CONTINUOUS
100
AcDbLine
 10
33.70899179219644
 20
290.8977171629483
 30
0.0
 11
33.70899179219644
 21
290.6477172383856
 31
0.0
  0
LINE
  5
937
330
1F
100
AcDbEntity
  8
0
  6
CONTINUOUS
100
AcDbLine
 10
33.50025632619348
 20
290.6477172383856
 30
0.0
 11
33.70899179219644
 21
290.6477172383856
 31
0.0
  0
LINE
  5
938
330
1F
100
AcDbEntity
  8
0
  6
CONTINUOUS
100
AcDbLine
 10
33.50025632619348
 20
290.6477172383856
 30
0.0
 11
33.50025632619348
 21
290.3829321022895
 31
0.0
  0
LINE
  5
939
330
1F
100
AcDbEntity
  8
0
  6
CONTINUOUS
100
AcDbLine
 10
33.50483284532423
 20
290.3829321022895
 30
0.0
 11
33.50483284532423
 21
289.0829322151656
 31
0.0
  0
LINE
  5
93A
330
1F
100
AcDbEntity
  8
0
  6
CONTINUOUS
100
AcDbLine
 10
34.46728394567435
 20
289.9541313983318
 30
0.0
 11
34.46728394567435
 21
288.1139322873027
 31
0.0
  0
LINE
  5
93B
330
1F
100
AcDbEntity
  8
0
  6
CONTINUOUS
100
AcDbLine
 10
35.75799924522061
 20
296.2273789327405
 30
0.0
 11
35.91630545645443
 21
296.3857633750703
 31
0.0
  0
LINE
  5
93C
330
1F
100
AcDbEntity
  8
0
  6
CONTINUOUS
100
AcDbLine
 10
35.75799924522061
 20
296.9882396738798
 30
0.0
 11
35.91630545645443
 21
297.1466241162083
 31
0.0
  0
LINE
  5
93D
330
1F
100
AcDbEntity
  8
0
  6
CONTINUOUS
100
AcDbLine
 10
35.91630545645443
 20
297.1466241162083
 30
0.0
 11
34.4242289030492
 21
297.1466241162083
 31
0.0
  0
LINE
  5
93E
330
1F
100
AcDbEntity
  8
0
  6
CONTINUOUS
100
AcDbLine
 10
36.23998661726114
 20
292.9744354206886
 30
0.0
 11
34.00029645502036
 21
292.9744354206886
 31
0.0
  0
LINE
  5
93F
330
1F
100
AcDbEntity
  8
0
  6
CONTINUOUS
100
AcDbLine
 10
35.82321976512139
 20
293.9180214181356
 30
0.0
 11
34.46728394567435
 21
293.9180214181356
 31
0.0
  0
LINE
  5
940
330
1F
100
AcDbEntity
  8
0
  6
CONTINUOUS
100
AcDbLine
 10
34.46728394567435
 20
295.7582202963341
 30
0.0
 11
35.82321976512139
 21
295.7582202963341
 31
0.0
  0
LINE
  5
941
330
1F
100
AcDbEntity
  8
0
  6
CONTINUOUS
100
AcDbLine
 10
35.75799924522061
 20
296.2273789327405
 30
0.0
 11
36.33111466854234
 21
296.2273789327405
 31
0.0
  0
LINE
  5
942
330
1F
100
AcDbEntity
  8
0
  6
CONTINUOUS
100
AcDbLine
 10
35.8230642342512
 20
293.9180214181356
 30
0.0
 11
35.8230642342512
 21
295.7582202963341
 31
0.0
  0
LINE
  5
943
330
1F
100
AcDbEntity
  8
0
  6
CONTINUOUS
100
AcDbLine
 10
36.48942181109828
 20
296.3857633750703
 30
0.0
 11
36.48942181109828
 21
294.3600948657658
 31
0.0
  0
LINE
  5
944
330
1F
100
AcDbEntity
  8
0
  6
CONTINUOUS
100
AcDbLine
 10
35.82321976512139
 20
293.9180214181356
 30
0.0
 11
35.82321976512139
 21
295.7582202963341
 31
0.0
  0
LINE
  5
945
330
1F
100
AcDbEntity
  8
0
  6
CONTINUOUS
100
AcDbLine
 10
36.33111466854234
 20
296.2273789327405
 30
0.0
 11
36.33111466854234
 21
294.2017104234364
 31
0.0
  0
LINE
  5
946
330
1F
100
AcDbEntity
  8
0
  6
CONTINUOUS
100
AcDbLine
 10
36.48198520034042
 20
292.9744354206886
 30
0.0
 11
36.48198520034042
 21
293.0660148141728
 31
0.0
  0
ELLIPSE
  5
947
330
1F
100
AcDbEntity
  8
0
  6
CONTINUOUS
100
AcDbEllipse
 10
40.80509026505136
 20
291.1977172069514
 30
0.0
 11
0.0
 21
0.5
 31
0.0
210
0.0
220
0.0
230
1.0
 40
0.0625986046035791
 41
0.0
 42
0.3869234409357994
  0
ELLIPSE
  5
948
330
1F
100
AcDbEntity
  8
0
  6
CONTINUOUS
100
AcDbEllipse
 10
36.62509027764144
 20
291.1977172069514
 30
0.0
 11
0.0
 21
0.5
 31
0.0
210
0.0
220
0.0
230
1.0
 40
0.0625986046035223
 41
0.0
 42
0.3869234409377984
  0
ELLIPSE
  5
949
330
1F
100
AcDbEntity
  8
0
  6
CONTINUOUS
100
AcDbEllipse
 10
37.96032979888627
 20
291.1977172069514
 30
0.0
 11
0.0
 21
0.5
 31
0.0
210
0.0
220
0.0
230
1.0
 40
0.0524853924317768
 41
5.896261866244547
 42
6.283185307179584
  0
LINE
  5
94A
330
1F
100
AcDbEntity
  8
0
  6
CONTINUOUS
100
AcDbLine
 10
36.62509036451047
 20
291.6977172009465
 30
0.0
 11
37.96032940238135
 21
291.6977172009465
 31
0.0
  0
LINE
  5
94B
330
1F
100
AcDbEntity
  8
0
  6
CONTINUOUS
100
AcDbLine
 10
37.97023215531726
 20
291.6607543758392
 30
0.0
 11
36.61327933161938
 21
291.6607543758392
 31
0.0
  0
LINE
  5
94C
330
1F
100
AcDbEntity
  8
0
  6
CONTINUOUS
100
AcDbLine
 10
36.48198520034042
 20
292.9744354206886
 30
0.0
 11
36.49605469047446
 21
292.9744354206886
 31
0.0
  0
ELLIPSE
  5
94D
330
1F
100
AcDbEntity
  8
0
  6
CONTINUOUS
100
AcDbEllipse
 10
40.80509026505136
 20
292.6744354296646
 30
0.0
 11
0.0
 21
0.5
 31
0.0
210
0.0
220
0.0
230
1.0
 40
0.0625986046035791
 41
2.754669212653993
 42
3.14159265358979
  0
ELLIPSE
  5
94E
330
1F
100
AcDbEntity
  8
0
  6
CONTINUOUS
100
AcDbEllipse
 10
36.62509027764144
 20
292.6744354296646
 30
0.0
 11
0.0
 21
0.5
 31
0.0
210
0.0
220
0.0
230
1.0
 40
0.0625986046035223
 41
2.754669212652855
 42
3.14159265358979
  0
ELLIPSE
  5
94F
330
1F
100
AcDbEntity
  8
0
  6
CONTINUOUS
100
AcDbEllipse
 10
37.96032979888627
 20
292.6744354296646
 30
0.0
 11
0.0
 21
0.5
 31
0.0
210
0.0
220
0.0
230
1.0
 40
0.0524853924317768
 41
3.14159265358979
 42
3.528516094525303
  0
LINE
  5
950
330
1F
100
AcDbEntity
  8
0
  6
CONTINUOUS
100
AcDbLine
 10
37.96032940238135
 20
292.1744354263463
 30
0.0
 11
36.62509036451047
 21
292.1744354263463
 31
0.0
  0
LINE
  5
951
330
1F
100
AcDbEntity
  8
0
  6
CONTINUOUS
100
AcDbLine
 10
40.79327949523325
 20
292.2113982660048
 30
0.0
 11
40.63683034121459
 21
293.2297477256323
 31
0.0
  0
LINE
  5
952
330
1F
100
AcDbEntity
  8
0
  6
CONTINUOUS
100
AcDbLine
 10
36.61327933161938
 20
292.2113982660048
 30
0.0
 11
37.97023215531726
 21
292.2113982660048
 31
0.0
  0
LINE
  5
953
330
1F
100
AcDbEntity
  8
0
  6
CONTINUOUS
100
AcDbLine
 10
38.10140614598434
 20
293.2297477256323
 30
0.0
 11
37.97023215531726
 21
292.2113982660048
 31
0.0
  0
LINE
  5
954
330
1F
100
AcDbEntity
  8
0
  6
CONTINUOUS
100
AcDbLine
 10
36.61327933161938
 20
292.2113982660048
 30
0.0
 11
36.45683017759938
 21
293.2297477256323
 31
0.0
  0
LINE
  5
955
330
1F
100
AcDbEntity
  8
0
  6
CONTINUOUS
100
AcDbLine
 10
40.43964700042624
 20
293.2244354616662
 30
0.0
 11
40.6376471111123
 21
293.2244354616662
 31
0.0
  0
LINE
  5
956
330
1F
100
AcDbEntity
  8
0
  6
CONTINUOUS
100
AcDbLine
 10
40.42399705588239
 20
292.9744354206886
 30
0.0
 11
40.67605392276639
 21
292.9744354206886
 31
0.0
  0
ELLIPSE
  5
957
330
1F
100
AcDbEntity
  8
0
  6
CONTINUOUS
100
AcDbEllipse
 10
40.43964715421657
 20
293.4744354296643
 30
0.0
 11
0.0
 21
0.25
 31
0.0
210
0.0
220
0.0
230
1.0
 40
0.0625986046035223
 41
1.570796326794896
 42
3.141592653587975
  0
LINE
  5
958
330
1F
100
AcDbEntity
  8
0
  6
CONTINUOUS
100
AcDbLine
 10
38.06851928322931
 20
292.9744354206886
 30
0.0
 11
38.30810108422634
 21
292.9744354206886
 31
0.0
  0
LINE
  5
959
330
1F
100
AcDbEntity
  8
0
  6
CONTINUOUS
100
AcDbLine
 10
38.10140614598434
 20
293.2297477256323
 30
0.0
 11
36.45683017759938
 21
293.2297477256323
 31
0.0
  0
LINE
  5
95A
330
1F
100
AcDbEntity
  8
0
  6
CONTINUOUS
100
AcDbLine
 10
38.29241202413435
 20
293.2244354616662
 30
0.0
 11
38.10072162389246
 21
293.2244354616662
 31
0.0
  0
ELLIPSE
  5
95B
330
1F
100
AcDbEntity
  8
0
  6
CONTINUOUS
100
AcDbEllipse
 10
38.29241219858317
 20
293.4744354296643
 30
0.0
 11
0.0
 21
0.25
 31
0.0
210
0.0
220
0.0
230
1.0
 40
0.0627538312168099
 41
3.141592653587977
 42
4.71238898038469
  0
LINE
  5
95C
330
1F
100
AcDbEntity
  8
0
  6
CONTINUOUS
100
AcDbLine
 10
36.45764694749755
 20
293.2244354616662
 30
0.0
 11
36.25306983678934
 21
293.2244354616662
 31
0.0
  0
LINE
  5
95D
330
1F
100
AcDbEntity
  8
0
  6
CONTINUOUS
100
AcDbLine
 10
36.33111466854234
 20
294.2017104234364
 30
0.0
 11
36.48942181109828
 21
294.3600948657658
 31
0.0
  0
LINE
  5
95E
330
1F
100
AcDbEntity
  8
0
  6
CONTINUOUS
100
AcDbLine
 10
36.23998661726114
 20
292.9744354206886
 30
0.0
 11
36.48198520034042
 21
292.9744354206886
 31
0.0
  0
ELLIPSE
  5
95F
330
1F
100
AcDbEntity
  8
0
  6
CONTINUOUS
100
AcDbEllipse
 10
36.25306944199337
 20
293.4744354296643
 30
0.0
 11
0.0
 21
0.25
 31
0.0
210
0.0
220
0.0
230
1.0
 40
0.0523301658186028
 41
1.570796326794896
 42
3.14159265358979
  0
LINE
  5
960
330
1F
100
AcDbEntity
  8
0
  6
CONTINUOUS
100
AcDbLine
 10
40.42399705588239
 20
292.9744354206886
 30
0.0
 11
38.30810108422634
 21
292.9744354206886
 31
0.0
  0
LINE
  5
961
330
1F
100
AcDbEntity
  8
0
  6
CONTINUOUS
100
AcDbLine
 10
36.23998661726114
 20
292.9744354206886
 30
0.0
 11
36.23998661726114
 21
293.4744353862297
 31
0.0
  0
LINE
  5
962
330
1F
100
AcDbEntity
  8
0
  6
CONTINUOUS
100
AcDbLine
 10
38.30810108422634
 20
293.4744353862297
 30
0.0
 11
36.23998661726114
 21
293.4744353862297
 31
0.0
  0
LINE
  5
963
330
1F
100
AcDbEntity
  8
0
  6
CONTINUOUS
100
AcDbLine
 10
38.30810108422634
 20
293.4744353862297
 30
0.0
 11
38.30810108422634
 21
292.9744354206886
 31
0.0
  0
LINE
  5
964
330
1F
100
AcDbEntity
  8
0
  6
CONTINUOUS
100
AcDbLine
 10
40.42399705588239
 20
292.9744354206886
 30
0.0
 11
40.42399705588239
 21
293.4744353862297
 31
0.0
  0
LINE
  5
965
330
1F
100
AcDbEntity
  8
0
  6
CONTINUOUS
100
AcDbLine
 10
38.65404737382528
 20
292.0832420515171
 30
0.0
 11
38.65404737382528
 21
292.9744354206886
 31
0.0
  0
LINE
  5
966
330
1F
100
AcDbEntity
  8
0
  6
CONTINUOUS
100
AcDbLine
 10
38.65349603086133
 20
292.4832420414136
 30
0.0
 11
38.65349603086133
 21
292.0832420515171
 31
0.0
  0
SPLINE
  5
967
330
1F
100
AcDbEntity
  8
0
  6
CONTINUOUS
100
AcDbSpline
210
0.0
220
0.0
230
1.0
 70
     8
 71
     3
 72
    15
 73
    11
 74
     0
 42
0.0000000001
 43
0.0000000001
 40
0.0
 40
0.0
 40
0.0
 40
0.0
 40
0.0746038426308414
 40
0.2164025188609785
 40
0.358201185648325
 40
0.4999999766764791
 40
0.6417987677046333
 40
0.7835974344919798
 40
0.9253962674204599
 40
1.0
 40
1.0
 40
1.0
 40
1.0
 10
38.65401477753539
 20
292.9744354206886
 30
0.0
 10
38.65401434376144
 20
292.9334282398376
 30
0.0
 10
38.6540130855194
 20
292.8144791761615
 30
0.0
 10
38.65400318508341
 20
292.6484806550241
 30
0.0
 10
38.65398833897939
 20
292.5143263142676
 30
0.0
 10
38.65397007405135
 20
292.4676999059028
 30
0.0
 10
38.6539518091265
 20
292.5143262833626
 30
0.0
 10
38.65393696301135
 20
292.6484808280638
 30
0.0
 10
38.65392706259239
 20
292.8144789056718
 30
0.0
 10
38.65392580434353
 20
292.9334282220506
 30
0.0
 10
38.65392537056846
 20
292.9744354206886
 30
0.0
  0
LINE
  5
968
330
1F
100
AcDbEntity
  8
0
  6
CONTINUOUS
100
AcDbLine
 10
35.91630545645443
 20
296.3857633750703
 30
0.0
 11
35.91630545645443
 21
297.1466241162083
 31
0.0
  0
LINE
  5
969
330
1F
100
AcDbEntity
  8
0
  6
CONTINUOUS
100
AcDbLine
 10
36.33111466854234
 20
296.2273789327405
 30
0.0
 11
36.48942181109828
 21
296.3857633750703
 31
0.0
  0
LINE
  5
96A
330
1F
100
AcDbEntity
  8
0
  6
CONTINUOUS
100
AcDbLine
 10
36.48942181109828
 20
296.3857633750703
 30
0.0
 11
35.91630545645443
 21
296.3857633750703
 31
0.0
  0
LINE
  5
96B
330
1F
100
AcDbEntity
  8
0
  6
CONTINUOUS
100
AcDbLine
 10
35.72321993499439
 20
295.6582204662085
 30
0.0
 11
35.72321993499439
 21
294.0180212482628
 31
0.0
  0
LINE
  5
96C
330
1F
100
AcDbEntity
  8
0
  6
CONTINUOUS
100
AcDbLine
 10
34.56712731360835
 20
295.6582204662085
 30
0.0
 11
34.56712731360835
 21
294.0180212482628
 31
0.0
  0
LINE
  5
96D
330
1F
100
AcDbEntity
  8
0
  6
CONTINUOUS
100
AcDbLine
 10
34.56728377580132
 20
294.0180212482628
 30
0.0
 11
34.56728377580132
 21
295.6582204662085
 31
0.0
  0
LINE
  5
96E
330
1F
100
AcDbEntity
  8
0
  6
CONTINUOUS
100
AcDbLine
 10
34.46728394567435
 20
295.7582202963341
 30
0.0
 11
34.46728394567435
 21
293.9180214181356
 31
0.0
  0
LINE
  5
96F
330
1F
100
AcDbEntity
  8
0
  6
CONTINUOUS
100
AcDbLine
 10
34.00029645502036
 20
292.9744354206886
 30
0.0
 11
34.00029645502036
 21
298.1542341168788
 31
0.0
  0
LINE
  5
970
330
1F
100
AcDbEntity
  8
0
  6
CONTINUOUS
100
AcDbLine
 10
33.70856897174735
 20
292.9744354206886
 30
0.0
 11
33.49984840690535
 21
292.9744354206886
 31
0.0
  0
LINE
  5
971
330
1F
100
AcDbEntity
  8
0
  6
CONTINUOUS
100
AcDbLine
 10
32.68515535830943
 20
293.4892204813476
 30
0.0
 11
32.68504918753524
 21
293.4892204813476
 31
0.0
  0
LINE
  5
972
330
1F
100
AcDbEntity
  8
0
  6
CONTINUOUS
100
AcDbLine
 10
32.68515535830943
 20
294.7892203684718
 30
0.0
 11
32.68504918753524
 21
294.7892203684718
 31
0.0
  0
LINE
  5
973
330
1F
100
AcDbEntity
  8
0
  6
CONTINUOUS
100
AcDbLine
 10
32.68504918753524
 20
294.7892203684718
 30
0.0
 11
32.68504918753524
 21
293.4892204813476
 31
0.0
  0
LINE
  5
974
330
1F
100
AcDbEntity
  8
0
  6
CONTINUOUS
100
AcDbLine
 10
32.71240958213228
 20
293.4892204813476
 30
0.0
 11
32.68515535830943
 21
293.4892204813476
 31
0.0
  0
LINE
  5
975
330
1F
100
AcDbEntity
  8
0
  6
CONTINUOUS
100
AcDbLine
 10
32.71240958213228
 20
294.7892203684718
 30
0.0
 11
32.68515535830943
 21
294.7892203684718
 31
0.0
  0
LINE
  5
976
330
1F
100
AcDbEntity
  8
0
  6
CONTINUOUS
100
AcDbLine
 10
32.68515535830943
 20
294.7892203684718
 30
0.0
 11
32.68515535830943
 21
293.4892204813476
 31
0.0
  0
LINE
  5
977
330
1F
100
AcDbEntity
  8
0
  6
CONTINUOUS
100
AcDbLine
 10
33.50025632619348
 20
293.2244354616662
 30
0.0
 11
33.49984840690535
 21
293.2244354616662
 31
0.0
  0
LINE
  5
978
330
1F
100
AcDbEntity
  8
0
  6
CONTINUOUS
100
AcDbLine
 10
33.49920951961939
 20
293.2244354616662
 30
0.0
 11
33.49922814607042
 21
293.2244354616662
 31
0.0
  0
LINE
  5
979
330
1F
100
AcDbEntity
  8
0
  6
CONTINUOUS
100
AcDbLine
 10
33.49920951961939
 20
293.4892204813476
 30
0.0
 11
33.49920951961939
 21
293.2244354616662
 31
0.0
  0
LINE
  5
97A
330
1F
100
AcDbEntity
  8
0
  6
CONTINUOUS
100
AcDbLine
 10
33.49922814607042
 20
293.2244354616662
 30
0.0
 11
33.49922814607042
 21
292.9744354206886
 31
0.0
  0
LINE
  5
97B
330
1F
100
AcDbEntity
  8
0
  6
CONTINUOUS
100
AcDbLine
 10
33.49922814607042
 20
292.9744354206886
 30
0.0
 11
33.49984840690535
 21
292.9744354206886
 31
0.0
  0
LINE
  5
97C
330
1F
100
AcDbEntity
  8
0
  6
CONTINUOUS
100
AcDbLine
 10
33.49984840690535
 20
292.9744354206886
 30
0.0
 11
33.49984840690535
 21
293.2244354616662
 31
0.0
  0
LINE
  5
97D
330
1F
100
AcDbEntity
  8
0
  6
CONTINUOUS
100
AcDbLine
 10
33.50483284532423
 20
293.4892204813476
 30
0.0
 11
32.71240958213228
 21
293.4892204813476
 31
0.0
  0
LINE
  5
97E
330
1F
100
AcDbEntity
  8
0
  6
CONTINUOUS
100
AcDbLine
 10
33.50483284532423
 20
294.7892203684718
 30
0.0
 11
32.71240958213228
 21
294.7892203684718
 31
0.0
  0
LINE
  5
97F
330
1F
100
AcDbEntity
  8
0
  6
CONTINUOUS
100
AcDbLine
 10
32.71240958213228
 20
293.4892204813476
 30
0.0
 11
32.71240958213228
 21
294.7892203684718
 31
0.0
  0
LINE
  5
980
330
1F
100
AcDbEntity
  8
0
  6
CONTINUOUS
100
AcDbLine
 10
33.70856897174735
 20
292.9744354206886
 30
0.0
 11
33.70899179219644
 21
292.9744354206886
 31
0.0
  0
LINE
  5
981
330
1F
100
AcDbEntity
  8
0
  6
CONTINUOUS
100
AcDbLine
 10
33.70856897174735
 20
292.9744354206886
 30
0.0
 11
33.70856897174735
 21
293.2244354616662
 31
0.0
  0
LINE
  5
982
330
1F
100
AcDbEntity
  8
0
  6
CONTINUOUS
100
AcDbLine
 10
35.72321993499439
 20
294.0180212482628
 30
0.0
 11
34.56728377580132
 21
294.0180212482628
 31
0.0
  0
LINE
  5
983
330
1F
100
AcDbEntity
  8
0
  6
CONTINUOUS
100
AcDbLine
 10
34.56728377580132
 20
294.0180212482628
 30
0.0
 11
34.56712731360835
 21
294.0180212482628
 31
0.0
  0
LINE
  5
984
330
1F
100
AcDbEntity
  8
0
  6
CONTINUOUS
100
AcDbLine
 10
33.70899179219644
 20
292.9744354206886
 30
0.0
 11
34.00029645502036
 21
292.9744354206886
 31
0.0
  0
LINE
  5
985
330
1F
100
AcDbEntity
  8
0
  6
CONTINUOUS
100
AcDbLine
 10
33.50483284532423
 20
294.7892203684718
 30
0.0
 11
33.50483284532423
 21
293.4892204813476
 31
0.0
  0
LINE
  5
986
330
1F
100
AcDbEntity
  8
0
  6
CONTINUOUS
100
AcDbLine
 10
33.50025632619348
 20
293.4892204813476
 30
0.0
 11
33.50025632619348
 21
293.2244354616662
 31
0.0
  0
LINE
  5
987
330
1F
100
AcDbEntity
  8
0
  6
CONTINUOUS
100
AcDbLine
 10
33.70899179219644
 20
293.2244354616662
 30
0.0
 11
33.50025632619348
 21
293.2244354616662
 31
0.0
  0
LINE
  5
988
330
1F
100
AcDbEntity
  8
0
  6
CONTINUOUS
100
AcDbLine
 10
33.70899179219644
 20
293.2244354616662
 30
0.0
 11
33.70899179219644
 21
292.9744354206886
 31
0.0
  0
LINE
  5
989
330
1F
100
AcDbEntity
  8
0
  6
CONTINUOUS
100
AcDbLine
 10
34.56728377580132
 20
295.6582204662085
 30
0.0
 11
35.72321993499439
 21
295.6582204662085
 31
0.0
  0
LINE
  5
98A
330
1F
100
AcDbEntity
  8
0
  6
CONTINUOUS
100
AcDbLine
 10
34.56712731360835
 20
295.6582204662085
 30
0.0
 11
34.56728377580132
 21
295.6582204662085
 31
0.0
  0
LINE
  5
98B
330
1F
100
AcDbEntity
  8
0
  6
CONTINUOUS
100
AcDbLine
 10
34.4242289030492
 20
297.1466241162083
 30
0.0
 11
34.4242289030492
 21
298.3126185592086
 31
0.0
  0
LINE
  5
98C
330
1F
100
AcDbEntity
  8
0
  6
CONTINUOUS
100
AcDbLine
 10
34.26592082917135
 20
296.9882396738798
 30
0.0
 11
34.4242289030492
 21
297.1466241162083
 31
0.0
  0
LINE
  5
98D
330
1F
100
AcDbEntity
  8
0
  6
CONTINUOUS
100
AcDbLine
 10
35.75799924522061
 20
296.9882396738798
 30
0.0
 11
35.75799924522061
 21
296.2273789327405
 31
0.0
  0
LINE
  5
98E
330
1F
100
AcDbEntity
  8
0
  6
CONTINUOUS
100
AcDbLine
 10
34.26592082917135
 20
296.9882396738798
 30
0.0
 11
35.75799924522061
 21
296.9882396738798
 31
0.0
  0
LINE
  5
98F
330
1F
100
AcDbEntity
  8
0
  6
CONTINUOUS
100
AcDbLine
 10
34.26592082917135
 20
298.1542341168788
 30
0.0
 11
34.26592082917135
 21
296.9882396738798
 31
0.0
  0
LINE
  5
990
330
1F
100
AcDbEntity
  8
0
  6
CONTINUOUS
100
AcDbLine
 10
34.26592082917135
 20
298.1542341168788
 30
0.0
 11
34.4242289030492
 21
298.3126185592086
 31
0.0
  0
LINE
  5
991
330
1F
100
AcDbEntity
  8
0
  6
CONTINUOUS
100
AcDbLine
 10
34.4242289030492
 20
298.3126185592086
 30
0.0
 11
33.96968760728237
 21
298.3126185592086
 31
0.0
  0
LINE
  5
992
330
1F
100
AcDbEntity
  8
0
  6
CONTINUOUS
100
AcDbLine
 10
33.81689855098125
 20
298.1597536001176
 30
0.0
 11
33.96968760728237
 21
298.3126185592086
 31
0.0
  0
ELLIPSE
  5
993
330
1F
100
AcDbEntity
  8
0
  6
CONTINUOUS
100
AcDbEllipse
 10
34.00025681529427
 20
298.2334264332438
 30
0.0
 11
-0.4999999999990055
 21
0.0000063045229979
 31
0.0
210
0.0
220
0.0
230
1.0
 40
0.1583844398229271
 41
1.195319426270428
 42
1.570875937178303
  0
LINE
  5
994
330
1F
100
AcDbEntity
  8
0
  6
CONTINUOUS
100
AcDbLine
 10
34.00029645502036
 20
298.1542341168788
 30
0.0
 11
34.26592082917135
 21
298.1542341168788
 31
0.0
  0
LINE
  5
995
330
1F
100
AcDbEntity
  8
0
  6
CONTINUOUS
100
AcDbLine
 10
40.63683034121459
 20
307.7191237117915
 30
0.0
 11
42.28140630959956
 21
307.7191237117915
 31
0.0
  0
LINE
  5
996
330
1F
100
AcDbEntity
  8
0
  6
CONTINUOUS
100
AcDbLine
 10
43.27690539150832
 20
306.5887756403353
 30
0.0
 11
36.48942181109828
 21
306.5887756403353
 31
0.0
  0
LINE
  5
997
330
1F
100
AcDbEntity
  8
0
  6
CONTINUOUS
100
AcDbLine
 10
40.42399705588239
 20
307.4744354691174
 30
0.0
 11
42.49211152284738
 21
307.4744354691174
 31
0.0
  0
LINE
  5
998
330
1F
100
AcDbEntity
  8
0
  6
CONTINUOUS
100
AcDbLine
 10
43.43536759927338
 20
306.7471600826643
 30
0.0
 11
36.33111466854234
 21
306.7471600826643
 31
0.0
  0
LINE
  5
999
330
1F
100
AcDbEntity
  8
0
  6
CONTINUOUS
100
AcDbLine
 10
45.20171120032114
 20
305.8444356303475
 30
0.0
 11
45.57559204488415
 21
305.8444356303475
 31
0.0
  0
LINE
  5
99A
330
1F
100
AcDbEntity
  8
0
  6
CONTINUOUS
100
AcDbLine
 10
45.20171120032114
 20
307.1444352846406
 30
0.0
 11
45.57559204488415
 21
307.1444352846406
 31
0.0
  0
LINE
  5
99B
330
1F
100
AcDbEntity
  8
0
  6
CONTINUOUS
100
AcDbLine
 10
45.57559204488415
 20
307.1444352846406
 30
0.0
 11
45.57559204488415
 21
305.8444356303475
 31
0.0
  0
LINE
  5
99C
330
1F
100
AcDbEntity
  8
0
  6
CONTINUOUS
100
AcDbLine
 10
45.0002703183834
 20
305.8444356303475
 30
0.0
 11
45.20171120032114
 21
305.8444356303475
 31
0.0
  0
LINE
  5
99D
330
1F
100
AcDbEntity
  8
0
  6
CONTINUOUS
100
AcDbLine
 10
45.0002703183834
 20
307.1444352846406
 30
0.0
 11
45.20171120032114
 21
307.1444352846406
 31
0.0
  0
LINE
  5
99E
330
1F
100
AcDbEntity
  8
0
  6
CONTINUOUS
100
AcDbLine
 10
45.20171120032114
 20
305.8444356303475
 30
0.0
 11
45.20171120032114
 21
307.1444352846406
 31
0.0
  0
LINE
  5
99F
330
1F
100
AcDbEntity
  8
0
  6
CONTINUOUS
100
AcDbLine
 10
43.43536759927338
 20
306.7471600826643
 30
0.0
 11
43.27690539150832
 21
306.5887756403353
 31
0.0
  0
LINE
  5
9A0
330
1F
100
AcDbEntity
  8
0
  6
CONTINUOUS
100
AcDbLine
 10
42.24939582138723
 20
307.9744346197517
 30
0.0
 11
42.24939582138723
 21
307.9676322396661
 31
0.0
  0
LINE
  5
9A1
330
1F
100
AcDbEntity
  8
0
  6
CONTINUOUS
100
AcDbLine
 10
44.99867403149028
 20
308.1995501871965
 30
0.0
 11
44.99886029600543
 21
308.1995501871965
 31
0.0
  0
LINE
  5
9A2
330
1F
100
AcDbEntity
  8
0
  6
CONTINUOUS
100
AcDbLine
 10
44.99966402738732
 20
307.9744346197517
 30
0.0
 11
44.72728104531234
 21
307.9744346197517
 31
0.0
  0
LINE
  5
9A3
330
1F
100
AcDbEntity
  8
0
  6
CONTINUOUS
100
AcDbLine
 10
44.47791244103927
 20
307.9744346197517
 30
0.0
 11
44.72728104531234
 21
307.9744346197517
 31
0.0
  0
LINE
  5
9A4
330
1F
100
AcDbEntity
  8
0
  6
CONTINUOUS
100
AcDbLine
 10
44.72728104531234
 20
307.9744346197517
 30
0.0
 11
44.72728104531234
 21
307.7244359757563
 31
0.0
  0
LINE
  5
9A5
330
1F
100
AcDbEntity
  8
0
  6
CONTINUOUS
100
AcDbLine
 10
42.24939582138723
 20
307.9744346197517
 30
0.0
 11
42.24851944684428
 21
307.9744346197517
 31
0.0
  0
LINE
  5
9A6
330
1F
100
AcDbEntity
  8
0
  6
CONTINUOUS
100
AcDbLine
 10
42.20671869377042
 20
308.2989495185366
 30
0.0
 11
42.28140630959956
 21
307.7191237117915
 31
0.0
  0
LINE
  5
9A7
330
1F
100
AcDbEntity
  8
0
  6
CONTINUOUS
100
AcDbLine
 10
42.49211152284738
 20
307.9744346197517
 30
0.0
 11
42.24939582138723
 21
307.9744346197517
 31
0.0
  0
ELLIPSE
  5
9A8
330
1F
100
AcDbEntity
  8
0
  6
CONTINUOUS
100
AcDbEllipse
 10
42.47898991080638
 20
307.4744354296643
 30
0.0
 11
0.0
 21
0.25
 31
0.0
210
0.0
220
0.0
230
1.0
 40
0.0524853924317768
 41
4.71238898038469
 42
6.283185307179584
  0
LINE
  5
9A9
330
1F
100
AcDbEntity
  8
0
  6
CONTINUOUS
100
AcDbLine
 10
42.47899011909452
 20
307.7244359757563
 30
0.0
 11
42.28072178750632
 21
307.7244359757563
 31
0.0
  0
LINE
  5
9AA
330
1F
100
AcDbEntity
  8
0
  6
CONTINUOUS
100
AcDbLine
 10
42.49211152284738
 20
307.9744346197517
 30
0.0
 11
44.47791244103927
 21
307.9744346197517
 31
0.0
  0
LINE
  5
9AB
330
1F
100
AcDbEntity
  8
0
  6
CONTINUOUS
100
AcDbLine
 10
44.47791244103927
 20
307.9744346197517
 30
0.0
 11
44.47791244103927
 21
307.7244359757563
 31
0.0
  0
LINE
  5
9AC
330
1F
100
AcDbEntity
  8
0
  6
CONTINUOUS
100
AcDbLine
 10
42.49211152284738
 20
307.9744346197517
 30
0.0
 11
42.49211152284738
 21
307.4744354691174
 31
0.0
  0
LINE
  5
9AD
330
1F
100
AcDbEntity
  8
0
  6
CONTINUOUS
100
AcDbLine
 10
45.00029546409314
 20
307.7244359757563
 30
0.0
 11
44.47791244103927
 21
307.7244359757563
 31
0.0
  0
LINE
  5
9AE
330
1F
100
AcDbEntity
  8
0
  6
CONTINUOUS
100
AcDbLine
 10
44.99932875126022
 20
308.1995501871965
 30
0.0
 11
44.99948567911428
 21
308.1995501871965
 31
0.0
  0
LINE
  5
9AF
330
1F
100
AcDbEntity
  8
0
  6
CONTINUOUS
100
AcDbLine
 10
44.99948474779126
 20
308.1455968078044
 30
0.0
 11
44.99942467748518
 21
308.1455968078044
 31
0.0
  0
LINE
  5
9B0
330
1F
100
AcDbEntity
  8
0
  6
CONTINUOUS
100
AcDbLine
 10
44.99950197725934
 20
308.1995501871965
 30
0.0
 11
44.99953783317821
 21
308.1995501871965
 31
0.0
  0
LINE
  5
9B1
330
1F
100
AcDbEntity
  8
0
  6
CONTINUOUS
100
AcDbLine
 10
44.99955645963039
 20
308.1995501871965
 30
0.0
 11
44.99959184988735
 21
308.1995501871965
 31
0.0
  0
LINE
  5
9B2
330
1F
100
AcDbEntity
  8
0
  6
CONTINUOUS
100
AcDbLine
 10
44.99961094200034
 20
308.1995501871965
 30
0.0
 11
44.99964633225839
 21
308.1995501871965
 31
0.0
  0
LINE
  5
9B3
330
1F
100
AcDbEntity
  8
0
  6
CONTINUOUS
100
AcDbLine
 10
44.99966309606429
 20
308.1995501871965
 30
0.0
 11
44.99981955825728
 21
308.1995501871965
 31
0.0
  0
LINE
  5
9B4
330
1F
100
AcDbEntity
  8
0
  6
CONTINUOUS
100
AcDbLine
 10
44.9998125733382
 20
308.1455968078044
 30
0.0
 11
44.99972363203233
 21
308.1455968078044
 31
0.0
  0
LINE
  5
9B5
330
1F
100
AcDbEntity
  8
0
  6
CONTINUOUS
100
AcDbLine
 10
44.99981955825728
 20
308.1995501871965
 30
0.0
 11
45.00000116615932
 21
308.1995501871965
 31
0.0
  0
LWPOLYLINE
  5
9B6
330
1F
100
AcDbEntity
  8
0
  6
CONTINUOUS
100
AcDbPolyline
 90
        9
 70
   128
 43
0.0
 10
44.99981955825728
 20
308.1995501871965
 10
44.99980884804744
 20
308.1190969552661
 10
44.99979720651549
 20
308.0584585424326
 10
44.99978463366026
 20
308.0187469478512
 10
44.9997720608064
 20
308.0006886031296
 10
44.99975948795122
 20
308.0046187843945
 10
44.99974738075729
 20
308.0304592605498
 10
44.99973527356428
 20
308.0777425076626
 10
44.99972363203233
 20
308.1455968078044
  0
LWPOLYLINE
  5
9B7
330
1F
100
AcDbEntity
  8
0
  6
CONTINUOUS
100
AcDbPolyline
 90
        9
 70
   128
 43
0.0
 10
44.99972363203233
 20
308.1455968078044
 10
44.99971897541946
 20
308.0213639642863
 10
44.9997115248384
 20
307.9238954689176
 10
44.99970221161333
 20
307.8646223749788
 10
44.9996915014035
 20
307.8504960741663
 10
44.9996812568554
 20
307.8831743206646
 10
44.99967240929025
 20
307.9588256534007
 10
44.99966589003224
 20
308.0685745682385
 10
44.99966309606429
 20
308.1995501871965
  0
LINE
  5
9B8
330
1F
100
AcDbEntity
  8
0
  6
CONTINUOUS
100
AcDbLine
 10
44.99966309606429
 20
308.1995501871965
 30
0.0
 11
44.99964633225839
 21
308.1995501871965
 31
0.0
  0
LWPOLYLINE
  5
9B9
330
1F
100
AcDbEntity
  8
0
  6
CONTINUOUS
100
AcDbPolyline
 90
        4
 70
   128
 43
0.0
 10
44.99961187332314
 20
307.9744346197517
 10
44.99961047633928
 20
308.0064926054142
 10
44.99960907935542
 20
308.1033129002717
 10
44.99961094200034
 20
308.1995501871965
  0
LWPOLYLINE
  5
9BA
330
1F
100
AcDbEntity
  8
0
  6
CONTINUOUS
100
AcDbPolyline
 90
        4
 70
   128
 43
0.0
 10
44.99964633225839
 20
308.1995501871965
 10
44.9996477292425
 20
308.1033129002717
 10
44.99964633225839
 20
308.0064926054142
 10
44.99964540093514
 20
307.9744346197517
  0
LINE
  5
9BB
330
1F
100
AcDbEntity
  8
0
  6
CONTINUOUS
100
AcDbLine
 10
44.99959184988735
 20
308.1995501871965
 30
0.0
 11
44.99961094200034
 21
308.1995501871965
 31
0.0
  0
LWPOLYLINE
  5
9BC
330
1F
100
AcDbEntity
  8
0
  6
CONTINUOUS
100
AcDbPolyline
 90
        4
 70
   128
 43
0.0
 10
44.9995573909523
 20
307.9744346197517
 10
44.99955599396844
 20
308.0064926054142
 10
44.99955459698434
 20
308.1033129002717
 10
44.99955645963039
 20
308.1995501871965
  0
LWPOLYLINE
  5
9BD
330
1F
100
AcDbEntity
  8
0
  6
CONTINUOUS
100
AcDbPolyline
 90
        4
 70
   128
 43
0.0
 10
44.99959184988735
 20
308.1995501871965
 10
44.99959371253337
 20
308.1033129002717
 10
44.99959231554931
 20
308.0064926054142
 10
44.9995909185652
 20
307.9744346197517
  0
LINE
  5
9BE
330
1F
100
AcDbEntity
  8
0
  6
CONTINUOUS
100
AcDbLine
 10
44.99953783317821
 20
308.1995501871965
 30
0.0
 11
44.99955645963039
 21
308.1995501871965
 31
0.0
  0
LWPOLYLINE
  5
9BF
330
1F
100
AcDbEntity
  8
0
  6
CONTINUOUS
100
AcDbPolyline
 90
        4
 70
   128
 43
0.0
 10
44.99950290858236
 20
307.9744346197517
 10
44.99950197725934
 20
308.0064926054142
 10
44.99950058027548
 20
308.1033129002717
 10
44.99950197725934
 20
308.1995501871965
  0
LWPOLYLINE
  5
9C0
330
1F
100
AcDbEntity
  8
0
  6
CONTINUOUS
100
AcDbPolyline
 90
        4
 70
   128
 43
0.0
 10
44.99953783317821
 20
308.1995501871965
 10
44.99953923016232
 20
308.1033129002717
 10
44.99953783317821
 20
308.0064926054142
 10
44.99953643619436
 20
307.9744346197517
  0
LINE
  5
9C1
330
1F
100
AcDbEntity
  8
0
  6
CONTINUOUS
100
AcDbLine
 10
44.99950197725934
 20
308.1995501871965
 30
0.0
 11
44.99948567911428
 21
308.1995501871965
 31
0.0
  0
LWPOLYLINE
  5
9C2
330
1F
100
AcDbEntity
  8
0
  6
CONTINUOUS
100
AcDbPolyline
 90
        3
 70
   128
 43
0.0
 10
44.99943212806624
 20
307.9744346197517
 10
44.99942933409829
 20
308.0213639642863
 10
44.99942467748518
 20
308.1455968078044
  0
LWPOLYLINE
  5
9C3
330
1F
100
AcDbEntity
  8
0
  6
CONTINUOUS
100
AcDbPolyline
 90
        3
 70
   128
 43
0.0
 10
44.99948567911428
 20
308.1995501871965
 10
44.99948241948527
 20
308.0685745682385
 10
44.99947729721156
 20
307.9744346197517
  0
LWPOLYLINE
  5
9C4
330
1F
100
AcDbEntity
  8
0
  6
CONTINUOUS
100
AcDbPolyline
 90
        9
 70
   128
 43
0.0
 10
44.99942467748518
 20
308.1455968078044
 10
44.9994130359532
 20
308.0777425076626
 10
44.99940092876022
 20
308.0304592605498
 10
44.99938882156627
 20
308.0046187843945
 10
44.99937624871154
 20
308.0006886031296
 10
44.99936367585744
 20
308.0187469478512
 10
44.99935110300225
 20
308.0584585424326
 10
44.99933946147052
 20
308.1190969552661
 10
44.99932875126022
 20
308.1995501871965
  0
LINE
  5
9C5
330
1F
100
AcDbEntity
  8
0
  6
CONTINUOUS
100
AcDbLine
 10
44.99886029600543
 20
308.1995501871965
 30
0.0
 11
44.99932875126022
 21
308.1995501871965
 31
0.0
  0
LINE
  5
9C6
330
1F
100
AcDbEntity
  8
0
  6
CONTINUOUS
100
AcDbLine
 10
44.99867542847437
 20
307.9744346197517
 30
0.0
 11
44.99867403149028
 21
308.1995501871965
 31
0.0
  0
LINE
  5
9C7
330
1F
100
AcDbEntity
  8
0
  6
CONTINUOUS
100
AcDbLine
 10
44.99886029600543
 20
308.1995501871965
 30
0.0
 11
44.99885843336028
 21
307.9744346197517
 31
0.0
  0
LINE
  5
9C8
330
1F
100
AcDbEntity
  8
0
  6
CONTINUOUS
100
AcDbLine
 10
45.00000116615932
 20
308.1995501871965
 30
0.0
 11
46.00007555470324
 21
308.1995501871965
 31
0.0
  0
LINE
  5
9C9
330
1F
100
AcDbEntity
  8
0
  6
CONTINUOUS
100
AcDbLine
 10
45.00000116615932
 20
308.1995501871965
 30
0.0
 11
45.00000116615932
 21
307.7244359757563
 31
0.0
  0
LINE
  5
9CA
330
1F
100
AcDbEntity
  8
0
  6
CONTINUOUS
100
AcDbLine
 10
44.29841258763713
 20
307.9744346197517
 30
0.0
 11
44.29841236461743
 21
308.2989495185366
 31
0.0
  0
LINE
  5
9CB
330
1F
100
AcDbEntity
  8
0
  6
CONTINUOUS
100
AcDbLine
 10
44.99843188762134
 20
308.1177949663065
 30
0.0
 11
44.99842024608938
 21
308.2007776703508
 31
0.0
  0
LINE
  5
9CC
330
1F
100
AcDbEntity
  8
0
  6
CONTINUOUS
100
AcDbLine
 10
44.99842024608938
 20
308.2007776703508
 30
0.0
 11
44.74842020511029
 21
308.2007776703508
 31
0.0
  0
LINE
  5
9CD
330
1F
100
AcDbEntity
  8
0
  6
CONTINUOUS
100
AcDbLine
 10
44.99843188762134
 20
307.9744346197517
 30
0.0
 11
44.99843188762134
 21
308.1177949663065
 31
0.0
  0
LINE
  5
9CE
330
1F
100
AcDbEntity
  8
0
  6
CONTINUOUS
100
AcDbLine
 10
44.99843188762134
 20
308.1177949663065
 30
0.0
 11
44.74843184664337
 21
308.1177949663065
 31
0.0
  0
LINE
  5
9CF
330
1F
100
AcDbEntity
  8
0
  6
CONTINUOUS
100
AcDbLine
 10
44.74841601415938
 20
308.2989495185366
 30
0.0
 11
44.74841647982043
 21
307.9744346197517
 31
0.0
  0
LINE
  5
9D0
330
1F
100
AcDbEntity
  8
0
  6
CONTINUOUS
100
AcDbLine
 10
44.74843184664337
 20
308.1177949663065
 30
0.0
 11
44.74842020511029
 21
308.2007776703508
 31
0.0
  0
LINE
  5
9D1
330
1F
100
AcDbEntity
  8
0
  6
CONTINUOUS
100
AcDbLine
 10
44.74843184664337
 20
307.9744346197517
 30
0.0
 11
44.74843184664337
 21
308.1177949663065
 31
0.0
  0
LINE
  5
9D2
330
1F
100
AcDbEntity
  8
0
  6
CONTINUOUS
100
AcDbLine
 10
32.68504918753524
 20
306.1596501376298
 30
0.0
 11
32.68504918753524
 21
307.4596507232453
 31
0.0
  0
LINE
  5
9D3
330
1F
100
AcDbEntity
  8
0
  6
CONTINUOUS
100
AcDbLine
 10
32.68515535830943
 20
307.4596507232453
 30
0.0
 11
32.68515535830943
 21
306.1596501376298
 31
0.0
  0
LINE
  5
9D4
330
1F
100
AcDbEntity
  8
0
  6
CONTINUOUS
100
AcDbLine
 10
32.71240958213228
 20
306.1596501376298
 30
0.0
 11
32.71240958213228
 21
307.4596507232453
 31
0.0
  0
LINE
  5
9D5
330
1F
100
AcDbEntity
  8
0
  6
CONTINUOUS
100
AcDbLine
 10
33.50483284532423
 20
307.4596507232453
 30
0.0
 11
33.50483284532423
 21
306.1596501376298
 31
0.0
  0
LINE
  5
9D6
330
1F
100
AcDbEntity
  8
0
  6
CONTINUOUS
100
AcDbLine
 10
34.00029645502036
 20
302.7946363892223
 30
0.0
 11
34.00029645502036
 21
307.9744346197517
 31
0.0
  0
LINE
  5
9D7
330
1F
100
AcDbEntity
  8
0
  6
CONTINUOUS
100
AcDbLine
 10
35.75799924522061
 20
304.7214915733606
 30
0.0
 11
35.91630545645443
 21
304.5631071310304
 31
0.0
  0
LINE
  5
9D8
330
1F
100
AcDbEntity
  8
0
  6
CONTINUOUS
100
AcDbLine
 10
34.4242289030492
 20
303.8022463898923
 30
0.0
 11
35.91630545645443
 21
303.8022463898923
 31
0.0
  0
LINE
  5
9D9
330
1F
100
AcDbEntity
  8
0
  6
CONTINUOUS
100
AcDbLine
 10
35.75799924522061
 20
303.9606308322218
 30
0.0
 11
35.91630545645443
 21
303.8022463898923
 31
0.0
  0
LINE
  5
9DA
330
1F
100
AcDbEntity
  8
0
  6
CONTINUOUS
100
AcDbLine
 10
35.82321976512139
 20
305.1906509082586
 30
0.0
 11
34.46728394567435
 21
305.1906509082586
 31
0.0
  0
LINE
  5
9DB
330
1F
100
AcDbEntity
  8
0
  6
CONTINUOUS
100
AcDbLine
 10
34.46728394567435
 20
307.0308493207958
 30
0.0
 11
35.82321976512139
 21
307.0308493207958
 31
0.0
  0
LINE
  5
9DC
330
1F
100
AcDbEntity
  8
0
  6
CONTINUOUS
100
AcDbLine
 10
36.33111466854234
 20
304.7214915733606
 30
0.0
 11
35.75799924522061
 21
304.7214915733606
 31
0.0
  0
LINE
  5
9DD
330
1F
100
AcDbEntity
  8
0
  6
CONTINUOUS
100
AcDbLine
 10
35.8230642342512
 20
305.1906509082586
 30
0.0
 11
35.8230642342512
 21
307.0308493207958
 31
0.0
  0
LINE
  5
9DE
330
1F
100
AcDbEntity
  8
0
  6
CONTINUOUS
100
AcDbLine
 10
36.48942181109828
 20
306.5887756403353
 30
0.0
 11
36.48942181109828
 21
304.5631071310304
 31
0.0
  0
LINE
  5
9DF
330
1F
100
AcDbEntity
  8
0
  6
CONTINUOUS
100
AcDbLine
 10
36.33111466854234
 20
306.7471600826643
 30
0.0
 11
36.48942181109828
 21
306.5887756403353
 31
0.0
  0
LINE
  5
9E0
330
1F
100
AcDbEntity
  8
0
  6
CONTINUOUS
100
AcDbLine
 10
35.91630545645443
 20
303.8022463898923
 30
0.0
 11
35.91630545645443
 21
304.5631071310304
 31
0.0
  0
LINE
  5
9E1
330
1F
100
AcDbEntity
  8
0
  6
CONTINUOUS
100
AcDbLine
 10
35.91630545645443
 20
304.5631071310304
 30
0.0
 11
36.48942181109828
 21
304.5631071310304
 31
0.0
  0
LINE
  5
9E2
330
1F
100
AcDbEntity
  8
0
  6
CONTINUOUS
100
AcDbLine
 10
36.33111466854234
 20
304.7214915733606
 30
0.0
 11
36.48942181109828
 21
304.5631071310304
 31
0.0
  0
LINE
  5
9E3
330
1F
100
AcDbEntity
  8
0
  6
CONTINUOUS
100
AcDbLine
 10
35.82321976512139
 20
305.1906509082586
 30
0.0
 11
35.82321976512139
 21
307.0308493207958
 31
0.0
  0
LINE
  5
9E4
330
1F
100
AcDbEntity
  8
0
  6
CONTINUOUS
100
AcDbLine
 10
36.33111466854234
 20
306.7471600826643
 30
0.0
 11
36.33111466854234
 21
304.7214915733606
 31
0.0
  0
LINE
  5
9E5
330
1F
100
AcDbEntity
  8
0
  6
CONTINUOUS
100
AcDbLine
 10
34.4242289030492
 20
302.6362519468925
 30
0.0
 11
34.4242289030492
 21
303.8022463898923
 31
0.0
  0
LINE
  5
9E6
330
1F
100
AcDbEntity
  8
0
  6
CONTINUOUS
100
AcDbLine
 10
34.26592082917135
 20
303.9606308322218
 30
0.0
 11
34.26592082917135
 21
302.7946363892223
 31
0.0
  0
ELLIPSE
  5
9E7
330
1F
100
AcDbEntity
  8
0
  6
CONTINUOUS
100
AcDbEllipse
 10
34.00025681529427
 20
302.7154444260844
 30
0.0
 11
-0.4999999999990055
 21
-0.0000063045229694
 31
0.0
210
0.0
220
0.0
230
1.0
 40
0.1583844398229839
 41
4.712309370001235
 42
5.087865880909347
  0
LINE
  5
9E8
330
1F
100
AcDbEntity
  8
0
  6
CONTINUOUS
100
AcDbLine
 10
33.96968760728237
 20
302.6362519468925
 30
0.0
 11
33.81689855098125
 21
302.7891173716457
 31
0.0
  0
LINE
  5
9E9
330
1F
100
AcDbEntity
  8
0
  6
CONTINUOUS
100
AcDbLine
 10
33.96968760728237
 20
302.6362519468925
 30
0.0
 11
34.4242289030492
 21
302.6362519468925
 31
0.0
  0
LINE
  5
9EA
330
1F
100
AcDbEntity
  8
0
  6
CONTINUOUS
100
AcDbLine
 10
34.26592082917135
 20
302.7946363892223
 30
0.0
 11
34.4242289030492
 21
302.6362519468925
 31
0.0
  0
LINE
  5
9EB
330
1F
100
AcDbEntity
  8
0
  6
CONTINUOUS
100
AcDbLine
 10
34.26592082917135
 20
302.7946363892223
 30
0.0
 11
34.00029645502036
 21
302.7946363892223
 31
0.0
  0
LINE
  5
9EC
330
1F
100
AcDbEntity
  8
0
  6
CONTINUOUS
100
AcDbLine
 10
32.68504918753524
 20
306.1596501376298
 30
0.0
 11
32.68515535830943
 21
306.1596501376298
 31
0.0
  0
LINE
  5
9ED
330
1F
100
AcDbEntity
  8
0
  6
CONTINUOUS
100
AcDbLine
 10
32.68515535830943
 20
306.1596501376298
 30
0.0
 11
32.71240958213228
 21
306.1596501376298
 31
0.0
  0
LINE
  5
9EE
330
1F
100
AcDbEntity
  8
0
  6
CONTINUOUS
100
AcDbLine
 10
33.50483284532423
 20
306.1596501376298
 30
0.0
 11
32.71240958213228
 21
306.1596501376298
 31
0.0
  0
LINE
  5
9EF
330
1F
100
AcDbEntity
  8
0
  6
CONTINUOUS
100
AcDbLine
 10
35.72321993499439
 20
305.2906507383845
 30
0.0
 11
34.56728377580132
 21
305.2906507383845
 31
0.0
  0
LINE
  5
9F0
330
1F
100
AcDbEntity
  8
0
  6
CONTINUOUS
100
AcDbLine
 10
35.72321993499439
 20
306.9308494906686
 30
0.0
 11
35.72321993499439
 21
305.2906507383845
 31
0.0
  0
LINE
  5
9F1
330
1F
100
AcDbEntity
  8
0
  6
CONTINUOUS
100
AcDbLine
 10
34.56728377580132
 20
306.9308494906686
 30
0.0
 11
35.72321993499439
 21
306.9308494906686
 31
0.0
  0
LINE
  5
9F2
330
1F
100
AcDbEntity
  8
0
  6
CONTINUOUS
100
AcDbLine
 10
34.56712731360835
 20
305.2906507383845
 30
0.0
 11
34.56712731360835
 21
306.9308494906686
 31
0.0
  0
LINE
  5
9F3
330
1F
100
AcDbEntity
  8
0
  6
CONTINUOUS
100
AcDbLine
 10
34.56712731360835
 20
305.2906507383845
 30
0.0
 11
34.56728377580132
 21
305.2906507383845
 31
0.0
  0
LINE
  5
9F4
330
1F
100
AcDbEntity
  8
0
  6
CONTINUOUS
100
AcDbLine
 10
34.56728377580132
 20
305.2906507383845
 30
0.0
 11
34.56728377580132
 21
306.9308494906686
 31
0.0
  0
LINE
  5
9F5
330
1F
100
AcDbEntity
  8
0
  6
CONTINUOUS
100
AcDbLine
 10
34.56728377580132
 20
306.9308494906686
 30
0.0
 11
34.56712731360835
 21
306.9308494906686
 31
0.0
  0
LINE
  5
9F6
330
1F
100
AcDbEntity
  8
0
  6
CONTINUOUS
100
AcDbLine
 10
34.26592082917135
 20
303.9606308322218
 30
0.0
 11
34.4242289030492
 21
303.8022463898923
 31
0.0
  0
LINE
  5
9F7
330
1F
100
AcDbEntity
  8
0
  6
CONTINUOUS
100
AcDbLine
 10
34.46728394567435
 20
307.0308493207958
 30
0.0
 11
34.46728394567435
 21
305.1906509082586
 31
0.0
  0
LINE
  5
9F8
330
1F
100
AcDbEntity
  8
0
  6
CONTINUOUS
100
AcDbLine
 10
35.75799924522061
 20
303.9606308322218
 30
0.0
 11
34.26592082917135
 21
303.9606308322218
 31
0.0
  0
LINE
  5
9F9
330
1F
100
AcDbEntity
  8
0
  6
CONTINUOUS
100
AcDbLine
 10
35.75799924522061
 20
304.7214915733606
 30
0.0
 11
35.75799924522061
 21
303.9606308322218
 31
0.0
  0
LINE
  5
9FA
330
1F
100
AcDbEntity
  8
0
  6
CONTINUOUS
100
AcDbLine
 10
34.00029645502036
 20
307.9744346197517
 30
0.0
 11
36.23998661726114
 21
307.9744346197517
 31
0.0
  0
LINE
  5
9FB
330
1F
100
AcDbEntity
  8
0
  6
CONTINUOUS
100
AcDbLine
 10
36.48198520034042
 20
307.9744346197517
 30
0.0
 11
36.48198520034042
 21
307.8828558083446
 31
0.0
  0
LINE
  5
9FC
330
1F
100
AcDbEntity
  8
0
  6
CONTINUOUS
100
AcDbLine
 10
36.49605469047446
 20
307.9744346197517
 30
0.0
 11
36.48198520034042
 21
307.9744346197517
 31
0.0
  0
LINE
  5
9FD
330
1F
100
AcDbEntity
  8
0
  6
CONTINUOUS
100
AcDbLine
 10
40.63683034121459
 20
307.7191237117915
 30
0.0
 11
40.72590908504753
 21
308.2989495185366
 31
0.0
  0
LINE
  5
9FE
330
1F
100
AcDbEntity
  8
0
  6
CONTINUOUS
100
AcDbLine
 10
36.45683017759938
 20
307.7191237117915
 30
0.0
 11
36.54590892143232
 21
308.2989495185356
 31
0.0
  0
LINE
  5
9FF
330
1F
100
AcDbEntity
  8
0
  6
CONTINUOUS
100
AcDbLine
 10
38.02671853015522
 20
308.2989495185366
 30
0.0
 11
38.10140614598434
 21
307.7191237117915
 31
0.0
  0
LINE
  5
A00
330
1F
100
AcDbEntity
  8
0
  6
CONTINUOUS
100
AcDbLine
 10
40.6376471111123
 20
307.7244359757563
 30
0.0
 11
40.43964700042624
 21
307.7244359757563
 31
0.0
  0
LINE
  5
A01
330
1F
100
AcDbEntity
  8
0
  6
CONTINUOUS
100
AcDbLine
 10
40.67605392276639
 20
307.9744346197517
 30
0.0
 11
40.42399705588239
 21
307.9744346197517
 31
0.0
  0
ELLIPSE
  5
A02
330
1F
100
AcDbEntity
  8
0
  6
CONTINUOUS
100
AcDbEllipse
 10
40.43964715421657
 20
307.4744354296643
 30
0.0
 11
0.0
 21
0.25
 31
0.0
210
0.0
220
0.0
230
1.0
 40
0.0625986046035223
 41
0.0
 42
1.570796326794896
  0
LINE
  5
A03
330
1F
100
AcDbEntity
  8
0
  6
CONTINUOUS
100
AcDbLine
 10
38.30810108422634
 20
307.9744346197517
 30
0.0
 11
38.06851928322931
 21
307.9744346197517
 31
0.0
  0
ELLIPSE
  5
A04
330
1F
100
AcDbEntity
  8
0
  6
CONTINUOUS
100
AcDbEllipse
 10
38.29241219858317
 20
307.4744354296643
 30
0.0
 11
0.0
 21
0.25
 31
0.0
210
0.0
220
0.0
230
1.0
 40
0.0627538312166962
 41
4.71238898038469
 42
6.283185307179584
  0
LINE
  5
A05
330
1F
100
AcDbEntity
  8
0
  6
CONTINUOUS
100
AcDbLine
 10
38.10072162389246
 20
307.7244359757563
 30
0.0
 11
38.29241202413435
 21
307.7244359757563
 31
0.0
  0
LINE
  5
A06
330
1F
100
AcDbEntity
  8
0
  6
CONTINUOUS
100
AcDbLine
 10
36.45683017759938
 20
307.7191237117915
 30
0.0
 11
38.10140614598434
 21
307.7191237117915
 31
0.0
  0
LINE
  5
A07
330
1F
100
AcDbEntity
  8
0
  6
CONTINUOUS
100
AcDbLine
 10
36.25306983678934
 20
307.7244359757563
 30
0.0
 11
36.45764694749755
 21
307.7244359757563
 31
0.0
  0
LINE
  5
A08
330
1F
100
AcDbEntity
  8
0
  6
CONTINUOUS
100
AcDbLine
 10
36.48198520034042
 20
307.9744346197517
 30
0.0
 11
36.23998661726114
 21
307.9744346197517
 31
0.0
  0
ELLIPSE
  5
A09
330
1F
100
AcDbEntity
  8
0
  6
CONTINUOUS
100
AcDbEllipse
 10
36.25306944199337
 20
307.4744354296643
 30
0.0
 11
0.0
 21
0.25
 31
0.0
210
0.0
220
0.0
230
1.0
 40
0.0523301658186028
 41
0.0
 42
1.570796326794896
  0
LINE
  5
A0A
330
1F
100
AcDbEntity
  8
0
  6
CONTINUOUS
100
AcDbLine
 10
38.30810108422634
 20
307.9744346197517
 30
0.0
 11
40.42399705588239
 21
307.9744346197517
 31
0.0
  0
LINE
  5
A0B
330
1F
100
AcDbEntity
  8
0
  6
CONTINUOUS
100
AcDbLine
 10
40.42399705588239
 20
307.4744354691174
 30
0.0
 11
40.42399705588239
 21
307.9744346197517
 31
0.0
  0
LINE
  5
A0C
330
1F
100
AcDbEntity
  8
0
  6
CONTINUOUS
100
AcDbLine
 10
38.30810108422634
 20
307.9744346197517
 30
0.0
 11
38.30810108422634
 21
307.4744354691174
 31
0.0
  0
LINE
  5
A0D
330
1F
100
AcDbEntity
  8
0
  6
CONTINUOUS
100
AcDbLine
 10
36.23998661726114
 20
307.4744354691174
 30
0.0
 11
38.30810108422634
 21
307.4744354691174
 31
0.0
  0
LINE
  5
A0E
330
1F
100
AcDbEntity
  8
0
  6
CONTINUOUS
100
AcDbLine
 10
36.23998661726114
 20
307.4744354691174
 30
0.0
 11
36.23998661726114
 21
307.9744346197517
 31
0.0
  0
LINE
  5
A0F
330
1F
100
AcDbEntity
  8
0
  6
CONTINUOUS
100
AcDbLine
 10
33.49984840690535
 20
307.9744346197517
 30
0.0
 11
33.70856897174735
 21
307.9744346197517
 31
0.0
  0
LINE
  5
A10
330
1F
100
AcDbEntity
  8
0
  6
CONTINUOUS
100
AcDbLine
 10
32.68504918753524
 20
307.4596507232453
 30
0.0
 11
32.68515535830943
 21
307.4596507232453
 31
0.0
  0
LINE
  5
A11
330
1F
100
AcDbEntity
  8
0
  6
CONTINUOUS
100
AcDbLine
 10
32.68515535830943
 20
307.4596507232453
 30
0.0
 11
32.71240958213228
 21
307.4596507232453
 31
0.0
  0
LINE
  5
A12
330
1F
100
AcDbEntity
  8
0
  6
CONTINUOUS
100
AcDbLine
 10
33.49920951961939
 20
307.7244359757563
 30
0.0
 11
33.49922814607042
 21
307.7244359757563
 31
0.0
  0
LINE
  5
A13
330
1F
100
AcDbEntity
  8
0
  6
CONTINUOUS
100
AcDbLine
 10
33.49984840690535
 20
307.7244359757563
 30
0.0
 11
33.50025632619348
 21
307.7244359757563
 31
0.0
  0
LINE
  5
A14
330
1F
100
AcDbEntity
  8
0
  6
CONTINUOUS
100
AcDbLine
 10
33.49984840690535
 20
307.7244359757563
 30
0.0
 11
33.49984840690535
 21
307.9744346197517
 31
0.0
  0
LINE
  5
A15
330
1F
100
AcDbEntity
  8
0
  6
CONTINUOUS
100
AcDbLine
 10
33.49984840690535
 20
307.9744346197517
 30
0.0
 11
33.49922814607042
 21
307.9744346197517
 31
0.0
  0
LINE
  5
A16
330
1F
100
AcDbEntity
  8
0
  6
CONTINUOUS
100
AcDbLine
 10
33.49922814607042
 20
307.9744346197517
 30
0.0
 11
33.49922814607042
 21
307.7244359757563
 31
0.0
  0
LINE
  5
A17
330
1F
100
AcDbEntity
  8
0
  6
CONTINUOUS
100
AcDbLine
 10
33.49920951961939
 20
307.7244359757563
 30
0.0
 11
33.49920951961939
 21
307.4596507232453
 31
0.0
  0
LINE
  5
A18
330
1F
100
AcDbEntity
  8
0
  6
CONTINUOUS
100
AcDbLine
 10
32.71240958213228
 20
307.4596507232453
 30
0.0
 11
33.50483284532423
 21
307.4596507232453
 31
0.0
  0
LINE
  5
A19
330
1F
100
AcDbEntity
  8
0
  6
CONTINUOUS
100
AcDbLine
 10
33.70899179219644
 20
307.9744346197517
 30
0.0
 11
33.70856897174735
 21
307.9744346197517
 31
0.0
  0
LINE
  5
A1A
330
1F
100
AcDbEntity
  8
0
  6
CONTINUOUS
100
AcDbLine
 10
33.70856897174735
 20
307.9744346197517
 30
0.0
 11
33.70856897174735
 21
307.7244359757563
 31
0.0
  0
LINE
  5
A1B
330
1F
100
AcDbEntity
  8
0
  6
CONTINUOUS
100
AcDbLine
 10
34.00029645502036
 20
307.9744346197517
 30
0.0
 11
33.70899179219644
 21
307.9744346197517
 31
0.0
  0
LINE
  5
A1C
330
1F
100
AcDbEntity
  8
0
  6
CONTINUOUS
100
AcDbLine
 10
33.70899179219644
 20
307.9744346197517
 30
0.0
 11
33.70899179219644
 21
307.7244359757563
 31
0.0
  0
LINE
  5
A1D
330
1F
100
AcDbEntity
  8
0
  6
CONTINUOUS
100
AcDbLine
 10
33.50025632619348
 20
307.7244359757563
 30
0.0
 11
33.70899179219644
 21
307.7244359757563
 31
0.0
  0
LINE
  5
A1E
330
1F
100
AcDbEntity
  8
0
  6
CONTINUOUS
100
AcDbLine
 10
33.50025632619348
 20
307.7244359757563
 30
0.0
 11
33.50025632619348
 21
307.4596507232453
 31
0.0
  0
TEXT
  5
AE7
330
1F
100
AcDbEntity
  8
0
100
AcDbText
 10
-3.36081764916107
 20
389.9564286977794
 30
0.0
 40
10.0
  1
SCON-CA-20A~300A-EC-*-1/2
100
AcDbText
  0
ENDSEC
  0
SECTION
  2
OBJECTS
  0
DICTIONARY
  5
C
330
0
100
AcDbDictionary
  3
ACAD_GROUP
350
D
  3
ACAD_LAYOUT
350
1A
  3
ACAD_MLINESTYLE
350
17
  3
ACAD_PLOTSETTINGS
350
19
  3
ACAD_PLOTSTYLENAME
350
E
  3
ACDBHEADERROUNDTRIPXREC
350
BE4
  3
ACDBVARIABLEDICTIONARY
350
AE8
  0
DICTIONARY
  5
2B2
330
2
100
AcDbDictionary
280
     1
  3
ACAD_LAYERSTATES
360
2B3
  0
DICTIONARY
  5
B35
330
1F
100
AcDbDictionary
280
     1
  3
ACAD_LAYOUTSELFREF
360
C05
  0
DICTIONARY
  5
B33
330
1B
100
AcDbDictionary
280
     1
  3
ACAD_LAYOUTSELFREF
360
C04
  0
DICTIONARY
  5
D
102
{ACAD_REACTORS
330
C
102
}
330
C
100
AcDbDictionary
  0
DICTIONARY
  5
1A
102
{ACAD_REACTORS
330
C
102
}
330
C
100
AcDbDictionary
  0
DICTIONARY
  5
17
102
{ACAD_REACTORS
330
C
102
}
330
C
100
AcDbDictionary
  3
STANDARD
350
18
  0
DICTIONARY
  5
19
102
{ACAD_REACTORS
330
C
102
}
330
C
100
AcDbDictionary
  0
ACDBDICTIONARYWDFLT
  5
E
102
{ACAD_REACTORS
330
C
102
}
330
C
100
AcDbDictionary
281
     1
  3
Normal
350
F
100
AcDbDictionaryWithDefault
340
F
  0
DICTIONARY
  5
BE4
102
{ACAD_REACTORS
330
C
102
}
330
C
100
AcDbDictionary
  3
CEPSNTYPE
350
BEE
  3
FINGERPRINTGUID
350
BEF
  3
HYPERLINKBASE
350
BE7
  3
INSUNITS
350
BED
  3
LAYOUTDICT
350
BE9
  3
LWETCUNION
350
BEC
  3
PLOTSETDICT
350
BEA
  3
PLOTSTYLNAMDICT
350
BEB
  3
PSVPSCALE
350
BF1
  3
PUCSBASE
350
BF4
  3
PUCSORGBACK
350
BFA
  3
PUCSORGBOTTOM
350
BF6
  3
PUCSORGFRONT
350
BF9
  3
PUCSORGLEFT
350
BF7
  3
PUCSORGRIGHT
350
BF8
  3
PUCSORGTOP
350
BF5
  3
PUCSORTHOREF
350
BF2
  3
PUCSORTHOVIEW
350
BF3
  3
STYLESHEET
350
BE8
  3
TSTACKALIGN
350
BE5
  3
TSTACKSIZE
350
BE6
  3
UCSBASE
350
BFD
  3
UCSORGBACK
350
C03
  3
UCSORGBOTTOM
350
BFF
  3
UCSORGFRONT
350
C02
  3
UCSORGLEFT
350
C00
  3
UCSORGRIGHT
350
C01
  3
UCSORGTOP
350
BFE
  3
UCSORTHOREF
350
BFB
  3
UCSORTHOVIEW
350
BFC
  3
VERSIONGUID
350
BF0
  0
DICTIONARY
  5
AE8
102
{ACAD_REACTORS
330
C
102
}
330
C
100
AcDbDictionary
  3
DIMASSOC
350
AEA
  3
HIDETEXT
350
AE9
  0
DICTIONARY
  5
2B3
102
{ACAD_REACTORS
330
2B2
102
}
330
2B2
100
AcDbDictionary
  0
XRECORD
  5
C05
102
{ACAD_REACTORS
330
B35
102
}
330
B35
100
AcDbXrecord
340
1F
  0
XRECORD
  5
C04
102
{ACAD_REACTORS
330
B33
102
}
330
B33
100
AcDbXrecord
340
1B
  0
MLINESTYLE
  5
18
102
{ACAD_REACTORS
330
17
102
}
330
17
100
AcDbMlineStyle
  2
STANDARD
 70
     0
  3

 62
   256
 51
90.0
 52
90.0
 71
     2
 49
0.5
 62
   256
  6
BYLAYER
 49
-0.5
 62
   256
  6
BYLAYER
  0
ACDBPLACEHOLDER
  5
F
102
{ACAD_REACTORS
330
E
102
}
330
E
100
AcDbPlaceHolder
280
     0
  0
XRECORD
  5
BEE
102
{ACAD_REACTORS
330
BE4
102
}
330
BE4
100
AcDbXrecord
 90
        0
  0
XRECORD
  5
BEF
102
{ACAD_REACTORS
330
BE4
102
}
330
BE4
100
AcDbXrecord
  1
{DFE87AFF-CEDA-490C-9593-3352DB0660B4}
  0
XRECORD
  5
BE7
102
{ACAD_REACTORS
330
BE4
102
}
330
BE4
100
AcDbXrecord
  1

  0
XRECORD
  5
BED
102
{ACAD_REACTORS
330
BE4
102
}
330
BE4
100
AcDbXrecord
 90
        4
  0
XRECORD
  5
BE9
102
{ACAD_REACTORS
330
BE4
102
}
330
BE4
100
AcDbXrecord
340
1A
  0
XRECORD
  5
BEC
102
{ACAD_REACTORS
330
BE4
102
}
330
BE4
100
AcDbXrecord
 90
    10781
  0
XRECORD
  5
BEA
102
{ACAD_REACTORS
330
BE4
102
}
330
BE4
100
AcDbXrecord
340
19
  0
XRECORD
  5
BEB
102
{ACAD_REACTORS
330
BE4
102
}
330
BE4
100
AcDbXrecord
340
E
  0
XRECORD
  5
BF1
102
{ACAD_REACTORS
330
BE4
102
}
330
BE4
100
AcDbXrecord
 40
0.0
  0
XRECORD
  5
BF4
102
{ACAD_REACTORS
330
BE4
102
}
330
BE4
100
AcDbXrecord
340
0
  0
XRECORD
  5
BFA
102
{ACAD_REACTORS
330
BE4
102
}
330
BE4
100
AcDbXrecord
 10
0.0
 20
0.0
 30
0.0
  0
XRECORD
  5
BF6
102
{ACAD_REACTORS
330
BE4
102
}
330
BE4
100
AcDbXrecord
 10
0.0
 20
0.0
 30
0.0
  0
XRECORD
  5
BF9
102
{ACAD_REACTORS
330
BE4
102
}
330
BE4
100
AcDbXrecord
 10
0.0
 20
0.0
 30
0.0
  0
XRECORD
  5
BF7
102
{ACAD_REACTORS
330
BE4
102
}
330
BE4
100
AcDbXrecord
 10
0.0
 20
0.0
 30
0.0
  0
XRECORD
  5
BF8
102
{ACAD_REACTORS
330
BE4
102
}
330
BE4
100
AcDbXrecord
 10
0.0
 20
0.0
 30
0.0
  0
XRECORD
  5
BF5
102
{ACAD_REACTORS
330
BE4
102
}
330
BE4
100
AcDbXrecord
 10
0.0
 20
0.0
 30
0.0
  0
XRECORD
  5
BF2
102
{ACAD_REACTORS
330
BE4
102
}
330
BE4
100
AcDbXrecord
340
0
  0
XRECORD
  5
BF3
102
{ACAD_REACTORS
330
BE4
102
}
330
BE4
100
AcDbXrecord
 70
     0
  0
XRECORD
  5
BE8
102
{ACAD_REACTORS
330
BE4
102
}
330
BE4
100
AcDbXrecord
  1

  0
XRECORD
  5
BE5
102
{ACAD_REACTORS
330
BE4
102
}
330
BE4
100
AcDbXrecord
 90
        1
  0
XRECORD
  5
BE6
102
{ACAD_REACTORS
330
BE4
102
}
330
BE4
100
AcDbXrecord
 90
       70
  0
XRECORD
  5
BFD
102
{ACAD_REACTORS
330
BE4
102
}
330
BE4
100
AcDbXrecord
340
0
  0
XRECORD
  5
C03
102
{ACAD_REACTORS
330
BE4
102
}
330
BE4
100
AcDbXrecord
 10
0.0
 20
0.0
 30
0.0
  0
XRECORD
  5
BFF
102
{ACAD_REACTORS
330
BE4
102
}
330
BE4
100
AcDbXrecord
 10
0.0
 20
0.0
 30
0.0
  0
XRECORD
  5
C02
102
{ACAD_REACTORS
330
BE4
102
}
330
BE4
100
AcDbXrecord
 10
0.0
 20
0.0
 30
0.0
  0
XRECORD
  5
C00
102
{ACAD_REACTORS
330
BE4
102
}
330
BE4
100
AcDbXrecord
 10
0.0
 20
0.0
 30
0.0
  0
XRECORD
  5
C01
102
{ACAD_REACTORS
330
BE4
102
}
330
BE4
100
AcDbXrecord
 10
0.0
 20
0.0
 30
0.0
  0
XRECORD
  5
BFE
102
{ACAD_REACTORS
330
BE4
102
}
330
BE4
100
AcDbXrecord
 10
0.0
 20
0.0
 30
0.0
  0
XRECORD
  5
BFB
102
{ACAD_REACTORS
330
BE4
102
}
330
BE4
100
AcDbXrecord
340
0
  0
XRECORD
  5
BFC
102
{ACAD_REACTORS
330
BE4
102
}
330
BE4
100
AcDbXrecord
 70
     0
  0
XRECORD
  5
BF0
102
{ACAD_REACTORS
330
BE4
102
}
330
BE4
100
AcDbXrecord
  1
{744BCACF-880C-4370-91E0-39ECDBEA6073}
  0
DICTIONARYVAR
  5
AEA
102
{ACAD_REACTORS
330
AE8
102
}
330
AE8
100
DictionaryVariables
280
     0
  1
2
  0
DICTIONARYVAR
  5
AE9
102
{ACAD_REACTORS
330
AE8
102
}
330
AE8
100
DictionaryVariables
280
     0
  1
1
  0
ENDSEC
  0
EOF
