  0
SECTION
  2
HEADER
  9
$ACADVER
  1
AC1014
  9
$ACADMAINTVER
 70
     9
  9
$DWGCODEPAGE
  3
ANSI_932
  9
$INSBASE
 10
0.0
 20
0.0
 30
0.0
  9
$EXTMIN
 10
-2.967632833813937
 20
-0.0000017314484921
 30
0.0
  9
$EXTMAX
 10
278.9999953209118
 20
411.9277956729465
 30
0.0
  9
$LIMMIN
 10
0.0
 20
0.0
  9
$LIMMAX
 10
420.0
 20
297.0
  9
$ORTHOMODE
 70
     0
  9
$REGENMODE
 70
     1
  9
$FILLMODE
 70
     1
  9
$QTEXTMODE
 70
     0
  9
$MIRRTEXT
 70
     1
  9
$DRAGMODE
 70
     2
  9
$LTSCALE
 40
1.0
  9
$OSMODE
 70
    55
  9
$ATTMODE
 70
     1
  9
$TEXTSIZE
 40
2.5
  9
$TRACEWID
 40
1.0
  9
$TEXTSTYLE
  7
STANDARD
  9
$CLAYER
  8
0
  9
$CELTYPE
  6
BYLAYER
  9
$CECOLOR
 62
   256
  9
$CELTSCALE
 40
1.0
  9
$DELOBJ
 70
     1
  9
$DISPSILH
 70
     0
  9
$DIMSCALE
 40
1.0
  9
$DIMASZ
 40
2.5
  9
$DIMEXO
 40
0.625
  9
$DIMDLI
 40
3.75
  9
$DIMRND
 40
0.0
  9
$DIMDLE
 40
0.0
  9
$DIMEXE
 40
1.25
  9
$DIMTP
 40
0.0
  9
$DIMTM
 40
0.0
  9
$DIMTXT
 40
2.5
  9
$DIMCEN
 40
2.5
  9
$DIMTSZ
 40
0.0
  9
$DIMTOL
 70
     0
  9
$DIMLIM
 70
     0
  9
$DIMTIH
 70
     0
  9
$DIMTOH
 70
     0
  9
$DIMSE1
 70
     0
  9
$DIMSE2
 70
     0
  9
$DIMTAD
 70
     1
  9
$DIMZIN
 70
     8
  9
$DIMBLK
  1

  9
$DIMASO
 70
     1
  9
$DIMSHO
 70
     1
  9
$DIMPOST
  1

  9
$DIMAPOST
  1

  9
$DIMALT
 70
     0
  9
$DIMALTD
 70
     3
  9
$DIMALTF
 40
0.03937007874016
  9
$DIMLFAC
 40
1.0
  9
$DIMTOFL
 70
     1
  9
$DIMTVP
 40
0.0
  9
$DIMTIX
 70
     0
  9
$DIMSOXD
 70
     0
  9
$DIMSAH
 70
     0
  9
$DIMBLK1
  1

  9
$DIMBLK2
  1

  9
$DIMSTYLE
  2
ISO-25
  9
$DIMCLRD
 70
     0
  9
$DIMCLRE
 70
     0
  9
$DIMCLRT
 70
     0
  9
$DIMTFAC
 40
1.0
  9
$DIMGAP
 40
0.625
  9
$DIMJUST
 70
     0
  9
$DIMSD1
 70
     0
  9
$DIMSD2
 70
     0
  9
$DIMTOLJ
 70
     0
  9
$DIMTZIN
 70
     8
  9
$DIMALTZ
 70
     0
  9
$DIMALTTZ
 70
     0
  9
$DIMFIT
 70
     3
  9
$DIMUPT
 70
     0
  9
$DIMUNIT
 70
     2
  9
$DIMDEC
 70
     2
  9
$DIMTDEC
 70
     2
  9
$DIMALTU
 70
     2
  9
$DIMALTTD
 70
     3
  9
$DIMTXSTY
  7
STANDARD
  9
$DIMAUNIT
 70
     0
  9
$LUNITS
 70
     2
  9
$LUPREC
 70
     4
  9
$SKETCHINC
 40
1.0
  9
$FILLETRAD
 40
10.0
  9
$AUNITS
 70
     0
  9
$AUPREC
 70
     0
  9
$MENU
  1
.
  9
$ELEVATION
 40
0.0
  9
$PELEVATION
 40
0.0
  9
$THICKNESS
 40
0.0
  9
$LIMCHECK
 70
     0
  9
$BLIPMODE
 70
     0
  9
$CHAMFERA
 40
10.0
  9
$CHAMFERB
 40
10.0
  9
$CHAMFERC
 40
20.0
  9
$CHAMFERD
 40
0.0
  9
$SKPOLY
 70
     0
  9
$TDCREATE
 40
2455874.711750104
  9
$TDUPDATE
 40
2456013.762152442
  9
$TDINDWG
 40
0.0048418634
  9
$TDUSRTIMER
 40
0.0048413310
  9
$USRTIMER
 70
     1
  9
$ANGBASE
 50
0.0
  9
$ANGDIR
 70
     0
  9
$PDMODE
 70
     0
  9
$PDSIZE
 40
0.0
  9
$PLINEWID
 40
0.0
  9
$COORDS
 70
     1
  9
$SPLFRAME
 70
     0
  9
$SPLINETYPE
 70
     6
  9
$SPLINESEGS
 70
     8
  9
$ATTDIA
 70
     0
  9
$ATTREQ
 70
     1
  9
$HANDLING
 70
 22529
  9
$HANDSEED
  5
952
  9
$SURFTAB1
 70
     6
  9
$SURFTAB2
 70
     6
  9
$SURFTYPE
 70
     6
  9
$SURFU
 70
     6
  9
$SURFV
 70
     6
  9
$UCSNAME
  2

  9
$UCSORG
 10
0.0
 20
0.0
 30
0.0
  9
$UCSXDIR
 10
1.0
 20
0.0
 30
0.0
  9
$UCSYDIR
 10
0.0
 20
1.0
 30
0.0
  9
$PUCSNAME
  2

  9
$PUCSORG
 10
0.0
 20
0.0
 30
0.0
  9
$PUCSXDIR
 10
1.0
 20
0.0
 30
0.0
  9
$PUCSYDIR
 10
0.0
 20
1.0
 30
0.0
  9
$USERI1
 70
     0
  9
$USERI2
 70
     0
  9
$USERI3
 70
     0
  9
$USERI4
 70
     0
  9
$USERI5
 70
     0
  9
$USERR1
 40
0.0
  9
$USERR2
 40
0.0
  9
$USERR3
 40
0.0
  9
$USERR4
 40
0.0
  9
$USERR5
 40
0.0
  9
$WORLDVIEW
 70
     1
  9
$SHADEDGE
 70
     3
  9
$SHADEDIF
 70
    70
  9
$TILEMODE
 70
     1
  9
$MAXACTVP
 70
    64
  9
$PINSBASE
 10
0.0
 20
0.0
 30
0.0
  9
$PLIMCHECK
 70
     0
  9
$PEXTMIN
 10
1.000000000000000E+20
 20
1.000000000000000E+20
 30
1.000000000000000E+20
  9
$PEXTMAX
 10
-1.000000000000000E+20
 20
-1.000000000000000E+20
 30
-1.000000000000000E+20
  9
$PLIMMIN
 10
0.0
 20
0.0
  9
$PLIMMAX
 10
420.0
 20
297.0
  9
$UNITMODE
 70
     0
  9
$VISRETAIN
 70
     1
  9
$PLINEGEN
 70
     0
  9
$PSLTSCALE
 70
     1
  9
$TREEDEPTH
 70
  3020
  9
$PICKSTYLE
 70
     1
  9
$CMLSTYLE
  2
STANDARD
  9
$CMLJUST
 70
     0
  9
$CMLSCALE
 40
20.0
  9
$PROXYGRAPHICS
 70
     1
  9
$MEASUREMENT
 70
     1
  0
ENDSEC
  0
SECTION
  2
CLASSES
  0
CLASS
  1
ACDBDICTIONARYWDFLT
  2
AcDbDictionaryWithDefault
  3
AutoCAD 2000
 90
        0
280
     0
281
     0
  0
CLASS
  1
ACDBPLACEHOLDER
  2
AcDbPlaceHolder
  3
AutoCAD 2000
 90
        0
280
     0
281
     0
  0
CLASS
  1
LAYOUT
  2
AcDbLayout
  3
AutoCAD 2000
 90
        0
280
     0
281
     0
  0
CLASS
  1
DICTIONARYVAR
  2
AcDbDictionaryVar
  3
AutoCAD 2000
 90
        0
280
     0
281
     0
  0
CLASS
  1
LONG_TRANSACTION
  2
AcDbLongTransaction
  3
AutoCAD 2000
 90
        0
280
     0
281
     0
  0
CLASS
  1
LWPOLYLINE
  2
AcDbPolyline
  3
AutoCAD 2000
 90
        0
280
     0
281
     1
  0
CLASS
  1
HATCH
  2
AcDbHatch
  3
AutoCAD 2000
 90
        0
280
     0
281
     1
  0
CLASS
  1
XRECORD
  2
AcDbXrecord
  3
AutoCAD 2000
 90
        0
280
     0
281
     0
  0
CLASS
  1
LONG_TRANSACTION
  2
AcDbLongTransaction
  3
AutoCAD 2000
 90
        0
280
     0
281
     0
  0
CLASS
  1
LWPOLYLINE
  2
AcDbPolyline
  3
AutoCAD 2000
 90
        0
280
     0
281
     1
  0
CLASS
  1
HATCH
  2
AcDbHatch
  3
AutoCAD 2000
 90
        0
280
     0
281
     1
  0
CLASS
  1
XRECORD
  2
AcDbXrecord
  3
AutoCAD 2000
 90
        0
280
     0
281
     0
  0
CLASS
  1
LONG_TRANSACTION
  2
AcDbLongTransaction
  3
AutoCAD 2000
 90
        0
280
     0
281
     0
  0
CLASS
  1
LWPOLYLINE
  2
AcDbPolyline
  3
AutoCAD 2000
 90
        0
280
     0
281
     1
  0
CLASS
  1
HATCH
  2
AcDbHatch
  3
AutoCAD 2000
 90
        0
280
     0
281
     1
  0
CLASS
  1
XRECORD
  2
AcDbXrecord
  3
AutoCAD 2000
 90
        0
280
     0
281
     0
  0
CLASS
  1
LONG_TRANSACTION
  2
AcDbLongTransaction
  3
AutoCAD 2000
 90
        0
280
     0
281
     0
  0
CLASS
  1
LWPOLYLINE
  2
AcDbPolyline
  3
AutoCAD 2000
 90
        0
280
     0
281
     1
  0
CLASS
  1
HATCH
  2
AcDbHatch
  3
AutoCAD 2000
 90
        0
280
     0
281
     1
  0
CLASS
  1
XRECORD
  2
AcDbXrecord
  3
AutoCAD 2000
 90
        0
280
     0
281
     0
  0
ENDSEC
  0
SECTION
  2
TABLES
  0
TABLE
  2
VPORT
  5
8
330
0
100
AcDbSymbolTable
 70
     2
  0
VPORT
  5
92F
330
8
100
AcDbSymbolTableRecord
100
AcDbViewportTableRecord
  2
*ACTIVE
 70
     0
 10
0.0
 20
0.0
 11
1.0
 21
1.0
 12
138.0143746733836
 22
205.9639900162163
 13
0.0
 23
0.0
 14
10.0
 24
10.0
 15
10.0
 25
10.0
 16
0.0
 26
0.0
 36
1.0
 17
0.0
 27
0.0
 37
0.0
 40
414.9457136594687
 41
1.46415552855407
 42
50.0
 43
0.0
 44
0.0
 50
0.0
 51
0.0
 71
     0
 72
   100
 73
     1
 74
     3
 75
     0
 76
     0
 77
     0
 78
     0
  0
ENDTAB
  0
TABLE
  2
LTYPE
  5
5
330
0
100
AcDbSymbolTable
 70
     1
  0
LTYPE
  5
14
330
5
100
AcDbSymbolTableRecord
100
AcDbLinetypeTableRecord
  2
BYBLOCK
 70
     0
  3

 72
    65
 73
     0
 40
0.0
  0
LTYPE
  5
15
330
5
100
AcDbSymbolTableRecord
100
AcDbLinetypeTableRecord
  2
BYLAYER
 70
     0
  3

 72
    65
 73
     0
 40
0.0
  0
LTYPE
  5
16
330
5
100
AcDbSymbolTableRecord
100
AcDbLinetypeTableRecord
  2
CONTINUOUS
 70
     0
  3
Solid line
 72
    65
 73
     0
 40
0.0
  0
ENDTAB
  0
TABLE
  2
LAYER
  5
2
102
{ACAD_XDICTIONARY
360
175
102
}
330
0
100
AcDbSymbolTable
 70
     3
  0
LAYER
  5
10
330
2
100
AcDbSymbolTableRecord
100
AcDbLayerTableRecord
  2
0
 70
     0
 62
     7
  6
CONTINUOUS
  0
LAYER
  5
171
330
2
100
AcDbSymbolTableRecord
100
AcDbLayerTableRecord
  2
DEFPOINTS
 70
     0
 62
    -7
  6
CONTINUOUS
  0
LAYER
  5
172
330
2
100
AcDbSymbolTableRecord
100
AcDbLayerTableRecord
  2
1
 70
     0
 62
     3
  6
CONTINUOUS
  0
ENDTAB
  0
TABLE
  2
STYLE
  5
3
330
0
100
AcDbSymbolTable
 70
     1
  0
STYLE
  5
11
330
3
100
AcDbSymbolTableRecord
100
AcDbTextStyleTableRecord
  2
STANDARD
 70
     0
 40
0.0
 41
1.0
 50
0.0
 71
     0
 42
2.5
  3
txt
  4

  0
ENDTAB
  0
TABLE
  2
VIEW
  5
6
330
0
100
AcDbSymbolTable
 70
     0
  0
ENDTAB
  0
TABLE
  2
UCS
  5
7
330
0
100
AcDbSymbolTable
 70
     0
  0
ENDTAB
  0
TABLE
  2
APPID
  5
9
330
0
100
AcDbSymbolTable
 70
     1
  0
APPID
  5
12
330
9
100
AcDbSymbolTableRecord
100
AcDbRegAppTableRecord
  2
ACAD
 70
     0
  0
ENDTAB
  0
TABLE
  2
DIMSTYLE
  5
A
330
0
100
AcDbSymbolTable
 70
     2
  0
DIMSTYLE
105
27
330
A
100
AcDbSymbolTableRecord
100
AcDbDimStyleTableRecord
  2
ISO-25
 70
     0
  3

  4

  5

  6

  7

 40
1.0
 41
2.5
 42
0.625
 43
3.75
 44
1.25
 45
0.0
 46
0.0
 47
0.0
 48
0.0
140
2.5
141
2.5
142
0.0
143
0.03937007874016
144
1.0
145
0.0
146
1.0
147
0.625
 71
     0
 72
     0
 73
     0
 74
     0
 75
     0
 76
     0
 77
     1
 78
     8
170
     0
171
     3
172
     1
173
     0
174
     0
175
     0
176
     0
177
     0
178
     0
270
     2
271
     2
272
     2
273
     2
274
     3
340
11
275
     0
280
     0
281
     0
282
     0
283
     0
284
     8
285
     0
286
     0
287
     3
288
     0
  0
DIMSTYLE
105
174
330
A
100
AcDbSymbolTableRecord
100
AcDbDimStyleTableRecord
  2
STANDARD
 70
     0
  3

  4

  5

  6

  7

 40
1.0
 41
2.5
 42
0.625
 43
3.75
 44
1.25
 45
0.0
 46
0.0
 47
0.0
 48
0.0
140
2.5
141
2.5
142
0.0
143
0.0394
144
1.0
145
0.0
146
1.0
147
0.625
 71
     0
 72
     0
 73
     0
 74
     0
 75
     0
 76
     0
 77
     1
 78
     8
170
     0
171
     4
172
     1
173
     0
174
     0
175
     0
176
     0
177
     0
178
     0
270
     2
271
     4
272
     4
273
     8
274
     4
340
11
275
     0
280
     0
281
     0
282
     0
283
     1
284
     0
285
     0
286
     0
287
     3
288
     0
  0
ENDTAB
  0
TABLE
  2
BLOCK_RECORD
  5
1
330
0
100
AcDbSymbolTable
 70
     2
  0
BLOCK_RECORD
  5
1F
102
{ACAD_XDICTIONARY
360
8D3
102
}
330
1
100
AcDbSymbolTableRecord
100
AcDbBlockTableRecord
  2
*MODEL_SPACE
  0
BLOCK_RECORD
  5
1B
102
{ACAD_XDICTIONARY
360
8D1
102
}
330
1
100
AcDbSymbolTableRecord
100
AcDbBlockTableRecord
  2
*PAPER_SPACE
  0
BLOCK_RECORD
  5
2B
330
1
100
AcDbSymbolTableRecord
100
AcDbBlockTableRecord
  2
A$C413B70EE
  0
BLOCK_RECORD
  5
FD
330
1
100
AcDbSymbolTableRecord
100
AcDbBlockTableRecord
  2
A$C40301A48
  0
ENDTAB
  0
ENDSEC
  0
SECTION
  2
BLOCKS
  0
BLOCK
  5
20
330
1F
100
AcDbEntity
  8
0
100
AcDbBlockBegin
  2
*MODEL_SPACE
 70
     0
 10
0.0
 20
0.0
 30
0.0
  3
*MODEL_SPACE
  1

  0
ENDBLK
  5
21
330
1F
100
AcDbEntity
  8
0
100
AcDbBlockEnd
  0
BLOCK
  5
1C
330
1B
100
AcDbEntity
 67
     1
  8
0
100
AcDbBlockBegin
  2
*PAPER_SPACE
 70
     0
 10
0.0
 20
0.0
 30
0.0
  3
*PAPER_SPACE
  1

  0
ENDBLK
  5
1D
330
1B
100
AcDbEntity
 67
     1
  8
0
100
AcDbBlockEnd
  0
BLOCK
  5
FB
330
2B
100
AcDbEntity
  8
0
100
AcDbBlockBegin
  2
A$C413B70EE
 70
     0
 10
0.0
 20
0.0
 30
0.0
  3
A$C413B70EE
  1

  0
LINE
  5
2C
330
2B
100
AcDbEntity
  8
0
100
AcDbLine
 10
127.5999998339284
 20
200.3690727306389
 30
0.0
 11
127.5999998339284
 21
6.63093194633106
 31
0.0
  0
LINE
  5
2D
330
2B
100
AcDbEntity
  8
0
100
AcDbLine
 10
122.5999998339284
 20
6.500002338485045
 30
0.0
 11
122.5999998339284
 21
16.50000233848504
 31
0.0
  0
LINE
  5
2E
330
2B
100
AcDbEntity
  8
0
100
AcDbLine
 10
6.599999833929357
 20
16.50000233848504
 30
0.0
 11
6.599999833929357
 21
190.5000023384846
 31
0.0
  0
LINE
  5
2F
330
2B
100
AcDbEntity
  8
0
100
AcDbLine
 10
6.599999833929357
 20
190.5000023384846
 30
0.0
 11
122.5999998339284
 21
190.5000023384846
 31
0.0
  0
LINE
  5
30
330
2B
100
AcDbEntity
  8
0
100
AcDbLine
 10
6.599999833929357
 20
16.50000233848504
 30
0.0
 11
122.5999998339284
 21
16.50000233848504
 31
0.0
  0
LINE
  5
31
330
2B
100
AcDbEntity
  8
0
100
AcDbLine
 10
122.5999998339284
 20
200.5000023384849
 30
0.0
 11
127.5999998339284
 21
200.3690727306389
 31
0.0
  0
LINE
  5
32
330
2B
100
AcDbEntity
  8
0
100
AcDbLine
 10
124.014039598665
 20
200.4629744041099
 30
0.0
 11
124.0140395986643
 21
6.537030272860023
 31
0.0
  0
LINE
  5
33
330
2B
100
AcDbEntity
  8
0
100
AcDbLine
 10
122.5999998339284
 20
6.500002338485045
 30
0.0
 11
127.5999998339284
 21
6.63093194633106
 31
0.0
  0
LINE
  5
34
330
2B
100
AcDbEntity
  8
0
100
AcDbLine
 10
6.599999833929357
 20
16.50000233848504
 30
0.0
 11
6.599999833929357
 21
190.5000023384846
 31
0.0
  0
LINE
  5
35
330
2B
100
AcDbEntity
  8
0
100
AcDbLine
 10
6.599999833929357
 20
190.5000023384846
 30
0.0
 11
123.9878536770973
 21
190.5000023384846
 31
0.0
  0
LINE
  5
36
330
2B
100
AcDbEntity
  8
0
100
AcDbLine
 10
23.59999983392935
 20
16.50000233848504
 30
0.0
 11
23.59999983392935
 21
190.5000023384846
 31
0.0
  0
LINE
  5
37
330
2B
100
AcDbEntity
  8
0
100
AcDbLine
 10
105.5999998339291
 20
16.50000233848504
 30
0.0
 11
105.5999998339291
 21
190.5000023384846
 31
0.0
  0
LINE
  5
38
330
2B
100
AcDbEntity
  8
0
100
AcDbLine
 10
23.59999983392935
 20
189.5000023384849
 30
0.0
 11
105.5999998339291
 21
189.5000023384849
 31
0.0
  0
LINE
  5
39
330
2B
100
AcDbEntity
  8
0
100
AcDbLine
 10
28.59999983392935
 20
187.5000023384849
 30
0.0
 11
30.59999983392935
 21
187.5000023384849
 31
0.0
  0
LINE
  5
3A
330
2B
100
AcDbEntity
  8
0
100
AcDbLine
 10
28.59999983392935
 20
17.50000233848504
 30
0.0
 11
28.59999983392935
 21
70.75000233848505
 31
0.0
  0
LINE
  5
3B
330
2B
100
AcDbEntity
  8
0
100
AcDbLine
 10
30.59999983392935
 20
17.50000233848504
 30
0.0
 11
30.59999983392935
 21
70.75000233848505
 31
0.0
  0
LINE
  5
3C
330
2B
100
AcDbEntity
  8
0
100
AcDbLine
 10
28.59999983392935
 20
136.2500023384846
 30
0.0
 11
30.59999983392935
 21
136.2500023384846
 31
0.0
  0
LINE
  5
3D
330
2B
100
AcDbEntity
  8
0
100
AcDbLine
 10
28.59999983392935
 20
70.75000233848505
 30
0.0
 11
30.59999983392935
 21
70.75000233848505
 31
0.0
  0
LINE
  5
3E
330
2B
100
AcDbEntity
  8
0
100
AcDbLine
 10
23.59999983392935
 20
17.50000233848504
 30
0.0
 11
105.5999998339291
 21
17.50000233848504
 31
0.0
  0
LINE
  5
3F
330
2B
100
AcDbEntity
  8
0
100
AcDbLine
 10
28.59999983392935
 20
19.50000233848504
 30
0.0
 11
30.59999983392935
 21
19.50000233848504
 31
0.0
  0
LINE
  5
40
330
2B
100
AcDbEntity
  8
0
100
AcDbLine
 10
28.59999983392935
 20
136.2500023384846
 30
0.0
 11
28.59999983392935
 21
189.5000023384849
 31
0.0
  0
LINE
  5
41
330
2B
100
AcDbEntity
  8
0
100
AcDbLine
 10
30.59999983392935
 20
136.2500023384846
 30
0.0
 11
30.59999983392935
 21
189.5000023384849
 31
0.0
  0
LINE
  5
42
330
2B
100
AcDbEntity
  8
0
100
AcDbLine
 10
35.59999983392936
 20
187.5000023384849
 30
0.0
 11
37.59999983392936
 21
187.5000023384849
 31
0.0
  0
LINE
  5
43
330
2B
100
AcDbEntity
  8
0
100
AcDbLine
 10
35.59999983392936
 20
17.50000233848504
 30
0.0
 11
35.59999983392936
 21
70.75000233848505
 31
0.0
  0
LINE
  5
44
330
2B
100
AcDbEntity
  8
0
100
AcDbLine
 10
37.59999983392936
 20
17.50000233848504
 30
0.0
 11
37.59999983392936
 21
70.75000233848505
 31
0.0
  0
LINE
  5
45
330
2B
100
AcDbEntity
  8
0
100
AcDbLine
 10
35.59999983392936
 20
136.2500023384846
 30
0.0
 11
37.59999983392936
 21
136.2500023384846
 31
0.0
  0
LINE
  5
46
330
2B
100
AcDbEntity
  8
0
100
AcDbLine
 10
35.59999983392936
 20
70.75000233848505
 30
0.0
 11
37.59999983392936
 21
70.75000233848505
 31
0.0
  0
LINE
  5
47
330
2B
100
AcDbEntity
  8
0
100
AcDbLine
 10
35.59999983392936
 20
19.50000233848504
 30
0.0
 11
37.59999983392936
 21
19.50000233848504
 31
0.0
  0
LINE
  5
48
330
2B
100
AcDbEntity
  8
0
100
AcDbLine
 10
35.59999983392936
 20
136.2500023384846
 30
0.0
 11
35.59999983392936
 21
189.5000023384849
 31
0.0
  0
LINE
  5
49
330
2B
100
AcDbEntity
  8
0
100
AcDbLine
 10
37.59999983392936
 20
136.2500023384846
 30
0.0
 11
37.59999983392936
 21
189.5000023384849
 31
0.0
  0
LINE
  5
4A
330
2B
100
AcDbEntity
  8
0
100
AcDbLine
 10
42.59999983392936
 20
187.5000023384849
 30
0.0
 11
44.59999983392934
 21
187.5000023384849
 31
0.0
  0
LINE
  5
4B
330
2B
100
AcDbEntity
  8
0
100
AcDbLine
 10
42.59999983392936
 20
17.50000233848504
 30
0.0
 11
42.59999983392936
 21
70.75000233848505
 31
0.0
  0
LINE
  5
4C
330
2B
100
AcDbEntity
  8
0
100
AcDbLine
 10
44.59999983392934
 20
17.50000233848504
 30
0.0
 11
44.59999983392934
 21
70.75000233848505
 31
0.0
  0
LINE
  5
4D
330
2B
100
AcDbEntity
  8
0
100
AcDbLine
 10
42.59999983392936
 20
136.2500023384846
 30
0.0
 11
44.59999983392934
 21
136.2500023384846
 31
0.0
  0
LINE
  5
4E
330
2B
100
AcDbEntity
  8
0
100
AcDbLine
 10
42.59999983392936
 20
70.75000233848505
 30
0.0
 11
44.59999983392934
 21
70.75000233848505
 31
0.0
  0
LINE
  5
4F
330
2B
100
AcDbEntity
  8
0
100
AcDbLine
 10
42.59999983392936
 20
19.50000233848504
 30
0.0
 11
44.59999983392934
 21
19.50000233848504
 31
0.0
  0
LINE
  5
50
330
2B
100
AcDbEntity
  8
0
100
AcDbLine
 10
42.59999983392936
 20
136.2500023384846
 30
0.0
 11
42.59999983392936
 21
189.5000023384849
 31
0.0
  0
LINE
  5
51
330
2B
100
AcDbEntity
  8
0
100
AcDbLine
 10
44.59999983392934
 20
136.2500023384846
 30
0.0
 11
44.59999983392934
 21
189.5000023384849
 31
0.0
  0
LINE
  5
52
330
2B
100
AcDbEntity
  8
0
100
AcDbLine
 10
49.59999983392936
 20
17.50000233848504
 30
0.0
 11
49.59999983392936
 21
70.75000233848505
 31
0.0
  0
LINE
  5
53
330
2B
100
AcDbEntity
  8
0
100
AcDbLine
 10
51.59999983392935
 20
17.50000233848504
 30
0.0
 11
51.59999983392935
 21
70.75000233848505
 31
0.0
  0
LINE
  5
54
330
2B
100
AcDbEntity
  8
0
100
AcDbLine
 10
49.59999983392936
 20
136.2500023384846
 30
0.0
 11
51.59999983392935
 21
136.2500023384846
 31
0.0
  0
LINE
  5
55
330
2B
100
AcDbEntity
  8
0
100
AcDbLine
 10
49.59999983392936
 20
70.75000233848505
 30
0.0
 11
51.59999983392935
 21
70.75000233848505
 31
0.0
  0
LINE
  5
56
330
2B
100
AcDbEntity
  8
0
100
AcDbLine
 10
49.59999983392936
 20
19.50000233848504
 30
0.0
 11
51.59999983392935
 21
19.50000233848504
 31
0.0
  0
LINE
  5
57
330
2B
100
AcDbEntity
  8
0
100
AcDbLine
 10
49.59999983392936
 20
136.2500023384846
 30
0.0
 11
49.59999983392936
 21
189.5000023384849
 31
0.0
  0
LINE
  5
58
330
2B
100
AcDbEntity
  8
0
100
AcDbLine
 10
51.59999983392935
 20
136.2500023384846
 30
0.0
 11
51.59999983392935
 21
189.5000023384849
 31
0.0
  0
LINE
  5
59
330
2B
100
AcDbEntity
  8
0
100
AcDbLine
 10
56.59999983392935
 20
187.5000023384849
 30
0.0
 11
58.59999983392936
 21
187.5000023384849
 31
0.0
  0
LINE
  5
5A
330
2B
100
AcDbEntity
  8
0
100
AcDbLine
 10
56.59999983392935
 20
17.50000233848504
 30
0.0
 11
56.59999983392935
 21
70.75000233848505
 31
0.0
  0
LINE
  5
5B
330
2B
100
AcDbEntity
  8
0
100
AcDbLine
 10
58.59999983392936
 20
17.50000233848504
 30
0.0
 11
58.59999983392936
 21
70.75000233848505
 31
0.0
  0
LINE
  5
5C
330
2B
100
AcDbEntity
  8
0
100
AcDbLine
 10
56.59999983392935
 20
136.2500023384846
 30
0.0
 11
58.59999983392936
 21
136.2500023384846
 31
0.0
  0
LINE
  5
5D
330
2B
100
AcDbEntity
  8
0
100
AcDbLine
 10
56.59999983392935
 20
70.75000233848505
 30
0.0
 11
58.59999983392936
 21
70.75000233848505
 31
0.0
  0
LINE
  5
5E
330
2B
100
AcDbEntity
  8
0
100
AcDbLine
 10
56.59999983392935
 20
19.50000233848504
 30
0.0
 11
58.59999983392936
 21
19.50000233848504
 31
0.0
  0
LINE
  5
5F
330
2B
100
AcDbEntity
  8
0
100
AcDbLine
 10
56.59999983392935
 20
136.2500023384846
 30
0.0
 11
56.59999983392935
 21
189.5000023384849
 31
0.0
  0
LINE
  5
60
330
2B
100
AcDbEntity
  8
0
100
AcDbLine
 10
58.59999983392936
 20
136.2500023384846
 30
0.0
 11
58.59999983392936
 21
189.5000023384849
 31
0.0
  0
LINE
  5
61
330
2B
100
AcDbEntity
  8
0
100
AcDbLine
 10
63.59999983392936
 20
187.5000023384849
 30
0.0
 11
65.59999983392936
 21
187.5000023384849
 31
0.0
  0
LINE
  5
62
330
2B
100
AcDbEntity
  8
0
100
AcDbLine
 10
63.59999983392936
 20
17.50000233848504
 30
0.0
 11
63.59999983392936
 21
70.75000233848505
 31
0.0
  0
LINE
  5
63
330
2B
100
AcDbEntity
  8
0
100
AcDbLine
 10
65.59999983392936
 20
17.50000233848504
 30
0.0
 11
65.59999983392936
 21
70.75000233848505
 31
0.0
  0
LINE
  5
64
330
2B
100
AcDbEntity
  8
0
100
AcDbLine
 10
63.59999983392936
 20
136.2500023384846
 30
0.0
 11
65.59999983392936
 21
136.2500023384846
 31
0.0
  0
LINE
  5
65
330
2B
100
AcDbEntity
  8
0
100
AcDbLine
 10
63.59999983392936
 20
70.75000233848505
 30
0.0
 11
65.59999983392936
 21
70.75000233848505
 31
0.0
  0
LINE
  5
66
330
2B
100
AcDbEntity
  8
0
100
AcDbLine
 10
63.59999983392936
 20
19.50000233848504
 30
0.0
 11
65.59999983392936
 21
19.50000233848504
 31
0.0
  0
LINE
  5
67
330
2B
100
AcDbEntity
  8
0
100
AcDbLine
 10
63.59999983392936
 20
136.2500023384846
 30
0.0
 11
63.59999983392936
 21
189.5000023384849
 31
0.0
  0
LINE
  5
68
330
2B
100
AcDbEntity
  8
0
100
AcDbLine
 10
65.59999983392936
 20
136.2500023384846
 30
0.0
 11
65.59999983392936
 21
189.5000023384849
 31
0.0
  0
LINE
  5
69
330
2B
100
AcDbEntity
  8
0
100
AcDbLine
 10
70.59999983392936
 20
187.5000023384849
 30
0.0
 11
72.59999983392936
 21
187.5000023384849
 31
0.0
  0
LINE
  5
6A
330
2B
100
AcDbEntity
  8
0
100
AcDbLine
 10
70.59999983392936
 20
17.50000233848504
 30
0.0
 11
70.59999983392936
 21
70.75000233848505
 31
0.0
  0
LINE
  5
6B
330
2B
100
AcDbEntity
  8
0
100
AcDbLine
 10
72.59999983392936
 20
17.50000233848504
 30
0.0
 11
72.59999983392936
 21
70.75000233848505
 31
0.0
  0
LINE
  5
6C
330
2B
100
AcDbEntity
  8
0
100
AcDbLine
 10
70.59999983392936
 20
136.2500023384846
 30
0.0
 11
72.59999983392936
 21
136.2500023384846
 31
0.0
  0
LINE
  5
6D
330
2B
100
AcDbEntity
  8
0
100
AcDbLine
 10
70.59999983392936
 20
70.75000233848505
 30
0.0
 11
72.59999983392936
 21
70.75000233848505
 31
0.0
  0
LINE
  5
6E
330
2B
100
AcDbEntity
  8
0
100
AcDbLine
 10
70.59999983392936
 20
19.50000233848504
 30
0.0
 11
72.59999983392936
 21
19.50000233848504
 31
0.0
  0
LINE
  5
6F
330
2B
100
AcDbEntity
  8
0
100
AcDbLine
 10
70.59999983392936
 20
136.2500023384846
 30
0.0
 11
70.59999983392936
 21
189.5000023384849
 31
0.0
  0
LINE
  5
70
330
2B
100
AcDbEntity
  8
0
100
AcDbLine
 10
72.59999983392936
 20
136.2500023384846
 30
0.0
 11
72.59999983392936
 21
189.5000023384849
 31
0.0
  0
LINE
  5
71
330
2B
100
AcDbEntity
  8
0
100
AcDbLine
 10
77.59999983392936
 20
187.5000023384849
 30
0.0
 11
79.59999983392936
 21
187.5000023384849
 31
0.0
  0
LINE
  5
72
330
2B
100
AcDbEntity
  8
0
100
AcDbLine
 10
77.59999983392936
 20
17.50000233848504
 30
0.0
 11
77.59999983392936
 21
70.75000233848505
 31
0.0
  0
LINE
  5
73
330
2B
100
AcDbEntity
  8
0
100
AcDbLine
 10
79.59999983392936
 20
17.50000233848504
 30
0.0
 11
79.59999983392936
 21
70.75000233848505
 31
0.0
  0
LINE
  5
74
330
2B
100
AcDbEntity
  8
0
100
AcDbLine
 10
77.59999983392936
 20
136.2500023384846
 30
0.0
 11
79.59999983392936
 21
136.2500023384846
 31
0.0
  0
LINE
  5
75
330
2B
100
AcDbEntity
  8
0
100
AcDbLine
 10
77.59999983392936
 20
70.75000233848505
 30
0.0
 11
79.59999983392936
 21
70.75000233848505
 31
0.0
  0
LINE
  5
76
330
2B
100
AcDbEntity
  8
0
100
AcDbLine
 10
77.59999983392936
 20
19.50000233848504
 30
0.0
 11
79.59999983392936
 21
19.50000233848504
 31
0.0
  0
LINE
  5
77
330
2B
100
AcDbEntity
  8
0
100
AcDbLine
 10
77.59999983392936
 20
136.2500023384846
 30
0.0
 11
77.59999983392936
 21
189.5000023384849
 31
0.0
  0
LINE
  5
78
330
2B
100
AcDbEntity
  8
0
100
AcDbLine
 10
79.59999983392936
 20
136.2500023384846
 30
0.0
 11
79.59999983392936
 21
189.5000023384849
 31
0.0
  0
LINE
  5
79
330
2B
100
AcDbEntity
  8
0
100
AcDbLine
 10
84.59999983392936
 20
187.5000023384849
 30
0.0
 11
86.59999983392934
 21
187.5000023384849
 31
0.0
  0
LINE
  5
7A
330
2B
100
AcDbEntity
  8
0
100
AcDbLine
 10
84.59999983392936
 20
17.50000233848504
 30
0.0
 11
84.59999983392936
 21
70.75000233848505
 31
0.0
  0
LINE
  5
7B
330
2B
100
AcDbEntity
  8
0
100
AcDbLine
 10
86.59999983392934
 20
17.50000233848504
 30
0.0
 11
86.59999983392934
 21
70.75000233848505
 31
0.0
  0
LINE
  5
7C
330
2B
100
AcDbEntity
  8
0
100
AcDbLine
 10
84.59999983392936
 20
136.2500023384846
 30
0.0
 11
86.59999983392934
 21
136.2500023384846
 31
0.0
  0
LINE
  5
7D
330
2B
100
AcDbEntity
  8
0
100
AcDbLine
 10
84.59999983392936
 20
70.75000233848505
 30
0.0
 11
86.59999983392934
 21
70.75000233848505
 31
0.0
  0
LINE
  5
7E
330
2B
100
AcDbEntity
  8
0
100
AcDbLine
 10
84.59999983392936
 20
19.50000233848504
 30
0.0
 11
86.59999983392934
 21
19.50000233848504
 31
0.0
  0
LINE
  5
7F
330
2B
100
AcDbEntity
  8
0
100
AcDbLine
 10
84.59999983392936
 20
136.2500023384846
 30
0.0
 11
84.59999983392936
 21
189.5000023384849
 31
0.0
  0
LINE
  5
80
330
2B
100
AcDbEntity
  8
0
100
AcDbLine
 10
86.59999983392934
 20
136.2500023384846
 30
0.0
 11
86.59999983392934
 21
189.5000023384849
 31
0.0
  0
LINE
  5
81
330
2B
100
AcDbEntity
  8
0
100
AcDbLine
 10
91.59999983392937
 20
187.5000023384849
 30
0.0
 11
93.59999983392937
 21
187.5000023384849
 31
0.0
  0
LINE
  5
82
330
2B
100
AcDbEntity
  8
0
100
AcDbLine
 10
91.59999983392937
 20
17.50000233848504
 30
0.0
 11
91.59999983392937
 21
70.75000233848505
 31
0.0
  0
LINE
  5
83
330
2B
100
AcDbEntity
  8
0
100
AcDbLine
 10
93.59999983392937
 20
17.50000233848504
 30
0.0
 11
93.59999983392937
 21
70.75000233848505
 31
0.0
  0
LINE
  5
84
330
2B
100
AcDbEntity
  8
0
100
AcDbLine
 10
91.59999983392937
 20
136.2500023384846
 30
0.0
 11
93.59999983392937
 21
136.2500023384846
 31
0.0
  0
LINE
  5
85
330
2B
100
AcDbEntity
  8
0
100
AcDbLine
 10
91.59999983392937
 20
70.75000233848505
 30
0.0
 11
93.59999983392937
 21
70.75000233848505
 31
0.0
  0
LINE
  5
86
330
2B
100
AcDbEntity
  8
0
100
AcDbLine
 10
91.59999983392937
 20
19.50000233848504
 30
0.0
 11
93.59999983392937
 21
19.50000233848504
 31
0.0
  0
LINE
  5
87
330
2B
100
AcDbEntity
  8
0
100
AcDbLine
 10
91.59999983392937
 20
136.2500023384846
 30
0.0
 11
91.59999983392937
 21
189.5000023384849
 31
0.0
  0
LINE
  5
88
330
2B
100
AcDbEntity
  8
0
100
AcDbLine
 10
93.59999983392937
 20
136.2500023384846
 30
0.0
 11
93.59999983392937
 21
189.5000023384849
 31
0.0
  0
LINE
  5
89
330
2B
100
AcDbEntity
  8
0
100
AcDbLine
 10
98.59999983392938
 20
187.5000023384849
 30
0.0
 11
100.5999998339291
 21
187.5000023384849
 31
0.0
  0
LINE
  5
8A
330
2B
100
AcDbEntity
  8
0
100
AcDbLine
 10
98.59999983392938
 20
17.50000233848504
 30
0.0
 11
98.59999983392938
 21
70.75000233848505
 31
0.0
  0
LINE
  5
8B
330
2B
100
AcDbEntity
  8
0
100
AcDbLine
 10
100.5999998339291
 20
17.50000233848504
 30
0.0
 11
100.5999998339291
 21
70.75000233848505
 31
0.0
  0
LINE
  5
8C
330
2B
100
AcDbEntity
  8
0
100
AcDbLine
 10
98.59999983392938
 20
136.2500023384846
 30
0.0
 11
100.5999998339291
 21
136.2500023384846
 31
0.0
  0
LINE
  5
8D
330
2B
100
AcDbEntity
  8
0
100
AcDbLine
 10
98.59999983392938
 20
70.75000233848505
 30
0.0
 11
100.5999998339291
 21
70.75000233848505
 31
0.0
  0
LINE
  5
8E
330
2B
100
AcDbEntity
  8
0
100
AcDbLine
 10
98.59999983392938
 20
19.50000233848504
 30
0.0
 11
100.5999998339291
 21
19.50000233848504
 31
0.0
  0
LINE
  5
8F
330
2B
100
AcDbEntity
  8
0
100
AcDbLine
 10
98.59999983392938
 20
136.2500023384846
 30
0.0
 11
98.59999983392938
 21
189.5000023384849
 31
0.0
  0
LINE
  5
90
330
2B
100
AcDbEntity
  8
0
100
AcDbLine
 10
100.5999998339291
 20
136.2500023384846
 30
0.0
 11
100.5999998339291
 21
189.5000023384849
 31
0.0
  0
LINE
  5
91
330
2B
100
AcDbEntity
  8
0
100
AcDbLine
 10
28.59999983392935
 20
165.0000023384849
 30
0.0
 11
30.59999983392935
 21
165.0000023384849
 31
0.0
  0
LINE
  5
92
330
2B
100
AcDbEntity
  8
0
100
AcDbLine
 10
28.59999983392935
 20
162.0000023384849
 30
0.0
 11
30.59999983392935
 21
162.0000023384849
 31
0.0
  0
LINE
  5
93
330
2B
100
AcDbEntity
  8
0
100
AcDbLine
 10
28.59999983392935
 20
45.00000233848505
 30
0.0
 11
30.59999983392935
 21
45.00000233848505
 31
0.0
  0
LINE
  5
94
330
2B
100
AcDbEntity
  8
0
100
AcDbLine
 10
28.59999983392935
 20
42.00000233848505
 30
0.0
 11
30.59999983392935
 21
42.00000233848505
 31
0.0
  0
LINE
  5
95
330
2B
100
AcDbEntity
  8
0
100
AcDbLine
 10
35.59999983392936
 20
165.0000023384849
 30
0.0
 11
37.59999983392936
 21
165.0000023384849
 31
0.0
  0
LINE
  5
96
330
2B
100
AcDbEntity
  8
0
100
AcDbLine
 10
35.59999983392936
 20
162.0000023384849
 30
0.0
 11
37.59999983392936
 21
162.0000023384849
 31
0.0
  0
LINE
  5
97
330
2B
100
AcDbEntity
  8
0
100
AcDbLine
 10
35.59999983392936
 20
45.00000233848505
 30
0.0
 11
37.59999983392936
 21
45.00000233848505
 31
0.0
  0
LINE
  5
98
330
2B
100
AcDbEntity
  8
0
100
AcDbLine
 10
35.59999983392936
 20
42.00000233848505
 30
0.0
 11
37.59999983392936
 21
42.00000233848505
 31
0.0
  0
LINE
  5
99
330
2B
100
AcDbEntity
  8
0
100
AcDbLine
 10
42.59999983392936
 20
165.0000023384849
 30
0.0
 11
44.59999983392934
 21
165.0000023384849
 31
0.0
  0
LINE
  5
9A
330
2B
100
AcDbEntity
  8
0
100
AcDbLine
 10
42.59999983392936
 20
162.0000023384849
 30
0.0
 11
44.59999983392934
 21
162.0000023384849
 31
0.0
  0
LINE
  5
9B
330
2B
100
AcDbEntity
  8
0
100
AcDbLine
 10
42.59999983392936
 20
45.00000233848505
 30
0.0
 11
44.59999983392934
 21
45.00000233848505
 31
0.0
  0
LINE
  5
9C
330
2B
100
AcDbEntity
  8
0
100
AcDbLine
 10
42.59999983392936
 20
42.00000233848505
 30
0.0
 11
44.59999983392934
 21
42.00000233848505
 31
0.0
  0
LINE
  5
9D
330
2B
100
AcDbEntity
  8
0
100
AcDbLine
 10
49.59999983392936
 20
165.0000023384849
 30
0.0
 11
51.59999983392935
 21
165.0000023384849
 31
0.0
  0
LINE
  5
9E
330
2B
100
AcDbEntity
  8
0
100
AcDbLine
 10
49.59999983392936
 20
162.0000023384849
 30
0.0
 11
51.59999983392935
 21
162.0000023384849
 31
0.0
  0
LINE
  5
9F
330
2B
100
AcDbEntity
  8
0
100
AcDbLine
 10
49.59999983392936
 20
45.00000233848505
 30
0.0
 11
51.59999983392935
 21
45.00000233848505
 31
0.0
  0
LINE
  5
A0
330
2B
100
AcDbEntity
  8
0
100
AcDbLine
 10
49.59999983392936
 20
42.00000233848505
 30
0.0
 11
51.59999983392935
 21
42.00000233848505
 31
0.0
  0
LINE
  5
A1
330
2B
100
AcDbEntity
  8
0
100
AcDbLine
 10
56.59999983392935
 20
165.0000023384849
 30
0.0
 11
58.59999983392936
 21
165.0000023384849
 31
0.0
  0
LINE
  5
A2
330
2B
100
AcDbEntity
  8
0
100
AcDbLine
 10
56.59999983392935
 20
162.0000023384849
 30
0.0
 11
58.59999983392936
 21
162.0000023384849
 31
0.0
  0
LINE
  5
A3
330
2B
100
AcDbEntity
  8
0
100
AcDbLine
 10
56.59999983392935
 20
45.00000233848505
 30
0.0
 11
58.59999983392936
 21
45.00000233848505
 31
0.0
  0
LINE
  5
A4
330
2B
100
AcDbEntity
  8
0
100
AcDbLine
 10
56.59999983392935
 20
42.00000233848505
 30
0.0
 11
58.59999983392936
 21
42.00000233848505
 31
0.0
  0
LINE
  5
A5
330
2B
100
AcDbEntity
  8
0
100
AcDbLine
 10
63.59999983392936
 20
165.0000023384849
 30
0.0
 11
65.59999983392936
 21
165.0000023384849
 31
0.0
  0
LINE
  5
A6
330
2B
100
AcDbEntity
  8
0
100
AcDbLine
 10
63.59999983392936
 20
162.0000023384849
 30
0.0
 11
65.59999983392936
 21
162.0000023384849
 31
0.0
  0
LINE
  5
A7
330
2B
100
AcDbEntity
  8
0
100
AcDbLine
 10
63.59999983392936
 20
45.00000233848505
 30
0.0
 11
65.59999983392936
 21
45.00000233848505
 31
0.0
  0
LINE
  5
A8
330
2B
100
AcDbEntity
  8
0
100
AcDbLine
 10
63.59999983392936
 20
42.00000233848505
 30
0.0
 11
65.59999983392936
 21
42.00000233848505
 31
0.0
  0
LINE
  5
A9
330
2B
100
AcDbEntity
  8
0
100
AcDbLine
 10
70.59999983392936
 20
165.0000023384849
 30
0.0
 11
72.59999983392936
 21
165.0000023384849
 31
0.0
  0
LINE
  5
AA
330
2B
100
AcDbEntity
  8
0
100
AcDbLine
 10
70.59999983392936
 20
162.0000023384849
 30
0.0
 11
72.59999983392936
 21
162.0000023384849
 31
0.0
  0
LINE
  5
AB
330
2B
100
AcDbEntity
  8
0
100
AcDbLine
 10
70.59999983392936
 20
45.00000233848505
 30
0.0
 11
72.59999983392936
 21
45.00000233848505
 31
0.0
  0
LINE
  5
AC
330
2B
100
AcDbEntity
  8
0
100
AcDbLine
 10
70.59999983392936
 20
42.00000233848505
 30
0.0
 11
72.59999983392936
 21
42.00000233848505
 31
0.0
  0
LINE
  5
AD
330
2B
100
AcDbEntity
  8
0
100
AcDbLine
 10
77.59999983392936
 20
165.0000023384849
 30
0.0
 11
79.59999983392936
 21
165.0000023384849
 31
0.0
  0
LINE
  5
AE
330
2B
100
AcDbEntity
  8
0
100
AcDbLine
 10
77.59999983392936
 20
162.0000023384849
 30
0.0
 11
79.59999983392936
 21
162.0000023384849
 31
0.0
  0
LINE
  5
AF
330
2B
100
AcDbEntity
  8
0
100
AcDbLine
 10
77.59999983392936
 20
45.00000233848505
 30
0.0
 11
79.59999983392936
 21
45.00000233848505
 31
0.0
  0
LINE
  5
B0
330
2B
100
AcDbEntity
  8
0
100
AcDbLine
 10
77.59999983392936
 20
42.00000233848505
 30
0.0
 11
79.59999983392936
 21
42.00000233848505
 31
0.0
  0
LINE
  5
B1
330
2B
100
AcDbEntity
  8
0
100
AcDbLine
 10
84.59999983392936
 20
165.0000023384849
 30
0.0
 11
86.59999983392934
 21
165.0000023384849
 31
0.0
  0
LINE
  5
B2
330
2B
100
AcDbEntity
  8
0
100
AcDbLine
 10
84.59999983392936
 20
162.0000023384849
 30
0.0
 11
86.59999983392934
 21
162.0000023384849
 31
0.0
  0
LINE
  5
B3
330
2B
100
AcDbEntity
  8
0
100
AcDbLine
 10
84.59999983392936
 20
45.00000233848505
 30
0.0
 11
86.59999983392934
 21
45.00000233848505
 31
0.0
  0
LINE
  5
B4
330
2B
100
AcDbEntity
  8
0
100
AcDbLine
 10
84.59999983392936
 20
42.00000233848505
 30
0.0
 11
86.59999983392934
 21
42.00000233848505
 31
0.0
  0
LINE
  5
B5
330
2B
100
AcDbEntity
  8
0
100
AcDbLine
 10
91.59999983392937
 20
165.0000023384849
 30
0.0
 11
93.59999983392937
 21
165.0000023384849
 31
0.0
  0
LINE
  5
B6
330
2B
100
AcDbEntity
  8
0
100
AcDbLine
 10
91.59999983392937
 20
162.0000023384849
 30
0.0
 11
93.59999983392937
 21
162.0000023384849
 31
0.0
  0
LINE
  5
B7
330
2B
100
AcDbEntity
  8
0
100
AcDbLine
 10
91.59999983392937
 20
45.00000233848505
 30
0.0
 11
93.59999983392937
 21
45.00000233848505
 31
0.0
  0
LINE
  5
B8
330
2B
100
AcDbEntity
  8
0
100
AcDbLine
 10
91.59999983392937
 20
42.00000233848505
 30
0.0
 11
93.59999983392937
 21
42.00000233848505
 31
0.0
  0
LINE
  5
B9
330
2B
100
AcDbEntity
  8
0
100
AcDbLine
 10
98.59999983392938
 20
165.0000023384849
 30
0.0
 11
100.5999998339291
 21
165.0000023384849
 31
0.0
  0
LINE
  5
BA
330
2B
100
AcDbEntity
  8
0
100
AcDbLine
 10
98.59999983392938
 20
162.0000023384849
 30
0.0
 11
100.5999998339291
 21
162.0000023384849
 31
0.0
  0
LINE
  5
BB
330
2B
100
AcDbEntity
  8
0
100
AcDbLine
 10
98.59999983392938
 20
45.00000233848505
 30
0.0
 11
100.5999998339291
 21
45.00000233848505
 31
0.0
  0
LINE
  5
BC
330
2B
100
AcDbEntity
  8
0
100
AcDbLine
 10
98.59999983392938
 20
42.00000233848505
 30
0.0
 11
100.5999998339291
 21
42.00000233848505
 31
0.0
  0
LINE
  5
BD
330
2B
100
AcDbEntity
  8
0
100
AcDbLine
 10
78.59999983392936
 20
17.50000233848504
 30
0.0
 11
78.59999983392835
 21
17.00000233848504
 31
0.0
  0
LINE
  5
BE
330
2B
100
AcDbEntity
  8
0
100
AcDbLine
 10
23.59999983392935
 20
17.00000233848504
 30
0.0
 11
78.59999983392936
 21
17.00000233848504
 31
0.0
  0
LINE
  5
BF
330
2B
100
AcDbEntity
  8
0
100
AcDbLine
 10
123.9878536770963
 20
16.50000233848504
 30
0.0
 11
123.9878536770973
 21
190.5000023384846
 31
0.0
  0
LINE
  5
C0
330
2B
100
AcDbEntity
  8
0
100
AcDbLine
 10
3.199999833929495
 20
57.20000307217538
 30
0.0
 11
3.199999833929495
 21
37.00000307217532
 31
0.0
  0
LINE
  5
C1
330
2B
100
AcDbEntity
  8
0
100
AcDbLine
 10
4.099999833929357
 20
33.50000307217532
 30
0.0
 11
3.599999833929357
 21
34.00000307217532
 31
0.0
  0
LINE
  5
C2
330
2B
100
AcDbEntity
  8
0
100
AcDbLine
 10
3.599999833929472
 20
34.90000307217542
 30
0.0
 11
3.599999833929357
 21
34.00000307217532
 31
0.0
  0
LINE
  5
C3
330
2B
100
AcDbEntity
  8
0
100
AcDbLine
 10
4.899999833929538
 20
33.50000307217532
 30
0.0
 11
4.099999833929357
 21
33.50000307217532
 31
0.0
  0
ARC
  5
C4
330
2B
100
AcDbEntity
  8
0
100
AcDbCircle
 10
4.599999833929471
 20
34.90000307217531
 30
0.0
 40
1.0
100
AcDbArc
 50
90.0
 51
180.0
  0
LINE
  5
C5
330
2B
100
AcDbEntity
  8
0
100
AcDbLine
 10
6.599999833929357
 20
35.90000307217538
 30
0.0
 11
4.599999833929471
 21
35.90000307217531
 31
0.0
  0
LINE
  5
C6
330
2B
100
AcDbEntity
  8
0
100
AcDbLine
 10
6.599999833929357
 20
34.70000307217537
 30
0.0
 11
4.899999833929655
 21
34.70000307217537
 31
0.0
  0
LINE
  5
C7
330
2B
100
AcDbEntity
  8
0
100
AcDbLine
 10
6.599999833929357
 20
37.00000307217528
 30
0.0
 11
3.199999833929495
 21
37.00000307217532
 31
0.0
  0
LINE
  5
C8
330
2B
100
AcDbEntity
  8
0
100
AcDbLine
 10
4.899999833929538
 20
33.50000307217532
 30
0.0
 11
4.899999833929538
 21
34.70000307217537
 31
0.0
  0
LINE
  5
C9
330
2B
100
AcDbEntity
  8
0
100
AcDbLine
 10
4.099999833929587
 20
60.70000307217537
 30
0.0
 11
3.599999833929587
 21
60.20000307217538
 31
0.0
  0
LINE
  5
CA
330
2B
100
AcDbEntity
  8
0
100
AcDbLine
 10
3.599999833929587
 20
60.20000307217538
 30
0.0
 11
3.599999833929587
 21
59.30000307217529
 31
0.0
  0
LINE
  5
CB
330
2B
100
AcDbEntity
  8
0
100
AcDbLine
 10
4.899999833929538
 20
60.70000307217537
 30
0.0
 11
4.099999833929587
 21
60.70000307217537
 31
0.0
  0
ARC
  5
CC
330
2B
100
AcDbEntity
  8
0
100
AcDbCircle
 10
4.599999833929587
 20
59.3000030721754
 30
0.0
 40
1.0
100
AcDbArc
 50
180.0
 51
270.0
  0
LINE
  5
CD
330
2B
100
AcDbEntity
  8
0
100
AcDbLine
 10
6.599999833929357
 20
58.3000030721754
 30
0.0
 11
4.599999833929587
 21
58.3000030721754
 31
0.0
  0
LINE
  5
CE
330
2B
100
AcDbEntity
  8
0
100
AcDbLine
 10
3.199999833929495
 20
57.20000307217538
 30
0.0
 11
6.599999833929357
 21
57.20000307217538
 31
0.0
  0
LINE
  5
CF
330
2B
100
AcDbEntity
  8
0
100
AcDbLine
 10
6.599999833929357
 20
59.50000307217544
 30
0.0
 11
4.899999833929427
 21
59.50000307217544
 31
0.0
  0
LINE
  5
D0
330
2B
100
AcDbEntity
  8
0
100
AcDbLine
 10
4.899999833929538
 20
59.50000307217533
 30
0.0
 11
4.899999833929538
 21
60.70000307217537
 31
0.0
  0
LINE
  5
D1
330
2B
100
AcDbEntity
  8
0
100
AcDbLine
 10
6.599999833929357
 20
21.50000307217532
 30
0.0
 11
4.099999833929246
 21
21.50000307217532
 31
0.0
  0
LINE
  5
D2
330
2B
100
AcDbEntity
  8
0
100
AcDbLine
 10
4.099999833929246
 20
21.50000307217532
 30
0.0
 11
4.099999833929246
 21
27.00000307217532
 31
0.0
  0
LINE
  5
D3
330
2B
100
AcDbEntity
  8
0
100
AcDbLine
 10
4.099999833929246
 20
27.00000307217532
 30
0.0
 11
6.599999833929357
 21
27.00000307217532
 31
0.0
  0
LINE
  5
D4
330
2B
100
AcDbEntity
  8
0
100
AcDbLine
 10
6.599999833929357
 20
62.14000233848515
 30
0.0
 11
5.599999833929358
 21
62.14000233848515
 31
0.0
  0
LINE
  5
D5
330
2B
100
AcDbEntity
  8
0
100
AcDbLine
 10
5.599999833929358
 20
62.14000233848515
 30
0.0
 11
5.599999833929358
 21
59.50000307217544
 31
0.0
  0
LINE
  5
D6
330
2B
100
AcDbEntity
  8
0
100
AcDbLine
 10
-0.000000166070663
 20
112.5000023384849
 30
0.0
 11
6.599999833929357
 21
112.5000023384849
 31
0.0
  0
LINE
  5
D7
330
2B
100
AcDbEntity
  8
0
100
AcDbLine
 10
6.599999833929357
 20
136.6600023384848
 30
0.0
 11
-0.000000166070663
 21
136.6600023384848
 31
0.0
  0
LINE
  5
D8
330
2B
100
AcDbEntity
  8
0
100
AcDbLine
 10
-0.000000166070663
 20
136.6600023384848
 30
0.0
 11
-0.000000166070663
 21
112.5000023384849
 31
0.0
  0
LINE
  5
D9
330
2B
100
AcDbEntity
  8
0
100
AcDbLine
 10
1.299999833929404
 20
71.34000233848508
 30
0.0
 11
1.299999833929404
 21
99.80000233848514
 31
0.0
  0
LINE
  5
DA
330
2B
100
AcDbEntity
  8
0
100
AcDbLine
 10
1.299999833929404
 20
75.45000233848509
 30
0.0
 11
5.599999833929246
 21
75.45000233848509
 31
0.0
  0
LINE
  5
DB
330
2B
100
AcDbEntity
  8
0
100
AcDbLine
 10
5.599999833929358
 20
71.34000233848508
 30
0.0
 11
1.299999833929404
 21
71.34000233848508
 31
0.0
  0
LINE
  5
DC
330
2B
100
AcDbEntity
  8
0
100
AcDbLine
 10
1.299999833929404
 20
95.69000233848512
 30
0.0
 11
6.599999833929357
 21
95.69000233848512
 31
0.0
  0
LINE
  5
DD
330
2B
100
AcDbEntity
  8
0
100
AcDbLine
 10
1.299999833929404
 20
90.69000233848512
 30
0.0
 11
6.599999833929357
 21
90.69000233848512
 31
0.0
  0
LINE
  5
DE
330
2B
100
AcDbEntity
  8
0
100
AcDbLine
 10
1.299999833929404
 20
83.0700023384851
 30
0.0
 11
6.599999833929357
 21
83.0700023384851
 31
0.0
  0
LINE
  5
DF
330
2B
100
AcDbEntity
  8
0
100
AcDbLine
 10
1.299999833929404
 20
88.07000233848507
 30
0.0
 11
6.599999833929357
 21
88.07000233848507
 31
0.0
  0
LINE
  5
E0
330
2B
100
AcDbEntity
  8
0
100
AcDbLine
 10
1.299999833929404
 20
80.4500023384851
 30
0.0
 11
5.799999833929632
 21
80.4500023384851
 31
0.0
  0
LINE
  5
E1
330
2B
100
AcDbEntity
  8
0
100
AcDbLine
 10
5.799999833929632
 20
99.80000233848514
 30
0.0
 11
1.299999833929404
 21
99.80000233848514
 31
0.0
  0
LINE
  5
E2
330
2B
100
AcDbEntity
  8
0
100
AcDbLine
 10
49.59999983392936
 20
187.5000023384849
 30
0.0
 11
51.59999983392935
 21
187.5000023384849
 31
0.0
  0
LINE
  5
E3
330
2B
100
AcDbEntity
  8
0
100
AcDbLine
 10
122.5999998339284
 20
190.5000023384846
 30
0.0
 11
122.5999998339284
 21
200.5000023384849
 31
0.0
  0
LINE
  5
E4
330
2B
100
AcDbEntity
  8
0
100
AcDbLine
 10
6.599999833929357
 20
16.50000233848504
 30
0.0
 11
123.9878536770973
 21
16.50000233848504
 31
0.0
  0
LINE
  5
E5
330
2B
100
AcDbEntity
  8
0
100
AcDbLine
 10
25.59999983392935
 20
0.0000023384850465
 30
0.0
 11
25.59999983392935
 21
8.500002338485044
 31
0.0
  0
LINE
  5
E6
330
2B
100
AcDbEntity
  8
0
100
AcDbLine
 10
77.59999983392835
 20
0.0000023384850465
 30
0.0
 11
77.59999983392835
 21
16.50000233848504
 31
0.0
  0
LINE
  5
E7
330
2B
100
AcDbEntity
  8
0
100
AcDbLine
 10
25.59999983392935
 20
0.0000023384850465
 30
0.0
 11
77.59999983392835
 21
0.0000023384850465
 31
0.0
  0
LINE
  5
E8
330
2B
100
AcDbEntity
  8
0
100
AcDbLine
 10
35.59999983392936
 20
0.0000023384850465
 30
0.0
 11
35.59999983392936
 21
16.50000233848504
 31
0.0
  0
LINE
  5
E9
330
2B
100
AcDbEntity
  8
0
100
AcDbLine
 10
25.59999983392935
 20
8.500002338485044
 30
0.0
 11
35.59999983392936
 21
8.500002338485044
 31
0.0
  0
LINE
  5
EA
330
2B
100
AcDbEntity
  8
0
100
AcDbLine
 10
37.59999983392936
 20
9.500002338485046
 30
0.0
 11
37.59999983392936
 21
0.0000023384850465
 31
0.0
  0
LINE
  5
EB
330
2B
100
AcDbEntity
  8
0
100
AcDbLine
 10
75.59999983392835
 20
9.500002338485046
 30
0.0
 11
75.59999983392835
 21
0.0000023384850465
 31
0.0
  0
LINE
  5
EC
330
2B
100
AcDbEntity
  8
0
100
AcDbLine
 10
5.599999833929358
 20
58.3000030721754
 30
0.0
 11
5.599999833929358
 21
57.20000307217538
 31
0.0
  0
LINE
  5
ED
330
2B
100
AcDbEntity
  8
0
100
AcDbLine
 10
5.599999833929358
 20
37.00000307217532
 30
0.0
 11
5.599999833929358
 21
35.90000307217532
 31
0.0
  0
LINE
  5
EE
330
2B
100
AcDbEntity
  8
0
100
AcDbLine
 10
5.599999833929358
 20
34.70000307217537
 30
0.0
 11
5.599999833929358
 21
27.00000307217532
 31
0.0
  0
LINE
  5
EF
330
2B
100
AcDbEntity
  8
0
100
AcDbLine
 10
6.599999833929357
 20
157.9400023384851
 30
0.0
 11
5.595637893078333
 21
157.9400023384851
 31
0.0
  0
LINE
  5
F0
330
2B
100
AcDbEntity
  8
0
100
AcDbLine
 10
6.599999833929357
 20
68.70000307217536
 30
0.0
 11
5.599999833929358
 21
68.70000307217536
 31
0.0
  0
LINE
  5
F1
330
2B
100
AcDbEntity
  8
0
100
AcDbLine
 10
5.599999833929358
 20
68.70000307217536
 30
0.0
 11
5.599999833929246
 21
77.10000307217547
 31
0.0
  0
LINE
  5
F2
330
2B
100
AcDbEntity
  8
0
100
AcDbLine
 10
5.599999833929246
 20
77.10000307217547
 30
0.0
 11
6.599999833929357
 21
77.10000307217547
 31
0.0
  0
LINE
  5
F3
330
2B
100
AcDbEntity
  8
0
100
AcDbLine
 10
6.599999833929357
 20
78.60000307217545
 30
0.0
 11
5.799999833929632
 21
78.60000307217545
 31
0.0
  0
LINE
  5
F4
330
2B
100
AcDbEntity
  8
0
100
AcDbLine
 10
5.799999833929632
 20
78.60000307217545
 30
0.0
 11
5.799999833929632
 21
81.60000307217547
 31
0.0
  0
LINE
  5
F5
330
2B
100
AcDbEntity
  8
0
100
AcDbLine
 10
5.799999833929632
 20
81.60000307217547
 30
0.0
 11
6.599999833929357
 21
81.60000307217547
 31
0.0
  0
LINE
  5
F6
330
2B
100
AcDbEntity
  8
0
100
AcDbLine
 10
6.599999833929357
 20
98.60000307217545
 30
0.0
 11
5.799999833929632
 21
98.60000307217545
 31
0.0
  0
LINE
  5
F7
330
2B
100
AcDbEntity
  8
0
100
AcDbLine
 10
5.799999833929632
 20
98.60000307217545
 30
0.0
 11
5.799999833929632
 21
101.6000030721754
 31
0.0
  0
LINE
  5
F8
330
2B
100
AcDbEntity
  8
0
100
AcDbLine
 10
5.799999833929632
 20
101.6000030721754
 30
0.0
 11
6.599999833929357
 21
101.6000030721754
 31
0.0
  0
LINE
  5
F9
330
2B
100
AcDbEntity
  8
0
  6
CONTINUOUS
100
AcDbLine
 10
5.595637893078333
 20
157.9400023384851
 30
0.0
 11
5.595637893078333
 21
142.5400023384848
 31
0.0
  0
LINE
  5
FA
330
2B
100
AcDbEntity
  8
0
  6
CONTINUOUS
100
AcDbLine
 10
5.595637893078333
 20
142.5400023384848
 30
0.0
 11
6.599999833929357
 21
142.5400023384848
 31
0.0
  0
ENDBLK
  5
FC
330
2B
100
AcDbEntity
  8
0
100
AcDbBlockEnd
  0
BLOCK
  5
FF
330
FD
100
AcDbEntity
  8
0
100
AcDbBlockBegin
  2
A$C40301A48
 70
     0
 10
0.0
 20
0.0
 30
0.0
  3
A$C40301A48
  1

  0
INSERT
  5
FE
330
FD
100
AcDbEntity
  8
0
100
AcDbBlockReference
  2
A$C413B70EE
 10
-6.599999833929357
 20
-190.5000023384846
 30
0.0
  0
ENDBLK
  5
100
330
FD
100
AcDbEntity
  8
0
100
AcDbBlockEnd
  0
ENDSEC
  0
SECTION
  2
ENTITIES
  0
LINE
  5
4B0
330
1F
100
AcDbEntity
  8
1
100
AcDbLine
 10
21.49999532091281
 20
359.9738123469826
 30
0.0
 11
36.49999532091283
 21
359.9738123469826
 31
0.0
  0
LINE
  5
4B1
330
1F
100
AcDbEntity
  8
1
100
AcDbLine
 10
21.49999532091281
 20
175.9738123469826
 30
0.0
 11
36.49999532091283
 21
175.9738123469826
 31
0.0
  0
LINE
  5
4B2
330
1F
100
AcDbEntity
  8
1
100
AcDbLine
 10
28.99999532091282
 20
352.4738123469826
 30
0.0
 11
28.99999532091282
 21
367.4738123469826
 31
0.0
  0
LINE
  5
4B3
330
1F
100
AcDbEntity
  8
1
100
AcDbLine
 10
28.99999532091282
 20
168.4738123469825
 30
0.0
 11
28.99999532091282
 21
183.4738123469826
 31
0.0
  0
LINE
  5
4BF
330
1F
100
AcDbEntity
  8
0
100
AcDbLine
 10
-0.0000046790871693
 20
363.8949117897845
 30
0.0
 11
-0.0000046790871693
 21
172.0527129041816
 31
0.0
  0
LINE
  5
4C0
330
1F
100
AcDbEntity
  8
0
100
AcDbLine
 10
57.99999532091283
 20
363.9738123469826
 30
0.0
 11
57.99999532091283
 21
171.9738123469826
 31
0.0
  0
LINE
  5
4C1
330
1F
100
AcDbEntity
  8
0
100
AcDbLine
 10
0.9738183726049099
 20
364.8945691147595
 30
0.0
 11
3.99999532091283
 21
364.9738123469826
 31
0.0
  0
LINE
  5
4C2
330
1F
100
AcDbEntity
  8
0
100
AcDbLine
 10
26.89999532091269
 20
175.9738123469826
 30
0.0
 11
26.89999532091269
 21
170.9738123469825
 31
0.0
  0
LINE
  5
4C3
330
1F
100
AcDbEntity
  8
0
100
AcDbLine
 10
0.4869068467587569
 20
354.8818188877326
 30
0.0
 11
3.99999532091283
 21
354.9738123469826
 31
0.0
  0
LINE
  5
4C4
330
1F
100
AcDbEntity
  8
0
100
AcDbLine
 10
0.4869068467587569
 20
181.0658058062326
 30
0.0
 11
3.99999532091283
 21
180.9738123469826
 31
0.0
  0
LINE
  5
4C5
330
1F
100
AcDbEntity
  8
0
100
AcDbLine
 10
4.999995320912828
 20
201.6069927718954
 30
0.0
 11
4.999995320912828
 21
354.9476264254132
 31
0.0
  0
ARC
  5
4C6
330
1F
100
AcDbEntity
  8
0
100
AcDbCircle
 10
4.299995320912785
 20
197.9738123469826
 30
0.0
 40
3.699999999995998
100
AcDbArc
 50
0.0
 51
79.09453000325759
  0
LINE
  5
4C7
330
1F
100
AcDbEntity
  8
0
100
AcDbLine
 10
7.999995320908737
 20
197.9738123469826
 30
0.0
 11
7.999995320907827
 21
181.0785560332593
 31
0.0
  0
LINE
  5
4C8
330
1F
100
AcDbEntity
  8
0
100
AcDbLine
 10
0.9738183726049099
 20
171.0530555792054
 30
0.0
 11
3.99999532091283
 21
170.9738123469825
 31
0.0
  0
LINE
  5
4C9
330
1F
100
AcDbEntity
  8
0
100
AcDbLine
 10
4.999995320912828
 20
350.9738123469826
 30
0.0
 11
5.013083795065766
 21
350.9741550807405
 31
0.0
  0
LINE
  5
4CA
330
1F
100
AcDbEntity
  8
0
100
AcDbLine
 10
3.99999532091283
 20
364.9738123469826
 30
0.0
 11
56.99999532091283
 21
364.9738123469826
 31
0.0
  0
LINE
  5
4CB
330
1F
100
AcDbEntity
  8
0
100
AcDbLine
 10
3.99999532091283
 20
354.9738123469826
 30
0.0
 11
4.999995320912828
 21
354.9476264254132
 31
0.0
  0
LINE
  5
4CC
330
1F
100
AcDbEntity
  8
0
100
AcDbLine
 10
3.99999532091283
 20
180.9738123469826
 30
0.0
 11
7.999995320907827
 21
181.0785560332593
 31
0.0
  0
LINE
  5
4CD
330
1F
100
AcDbEntity
  8
0
100
AcDbLine
 10
3.99999532091283
 20
170.9738123469825
 30
0.0
 11
26.89999532091269
 21
170.9738123469825
 31
0.0
  0
CIRCLE
  5
4CE
330
1F
100
AcDbEntity
  8
0
100
AcDbCircle
 10
28.99999532091282
 20
359.9738123469826
 30
0.0
 40
2.1
  0
ARC
  5
4CF
330
1F
100
AcDbEntity
  8
0
100
AcDbCircle
 10
28.99999532091282
 20
359.9738123469826
 30
0.0
 40
5.5
100
AcDbArc
 50
180.0
 51
245.3800226713518
  0
ARC
  5
4D0
330
1F
100
AcDbEntity
  8
0
100
AcDbCircle
 10
28.99999532091282
 20
175.9738123469826
 30
0.0
 40
5.5
100
AcDbArc
 50
0.0
 51
65.3800226713519
  0
ARC
  5
4D1
330
1F
100
AcDbEntity
  8
0
100
AcDbCircle
 10
28.99999532091282
 20
175.9738123469826
 30
0.0
 40
2.1
100
AcDbArc
 50
0.0
 51
180.0
  0
LINE
  5
4D2
330
1F
100
AcDbEntity
  8
0
100
AcDbLine
 10
31.09999532091273
 20
170.9738123469825
 30
0.0
 11
34.49999532091192
 21
170.9738123469825
 31
0.0
  0
LINE
  5
4D3
330
1F
100
AcDbEntity
  8
0
100
AcDbLine
 10
34.49999532091283
 20
359.9738123469826
 30
0.0
 11
34.49999532091283
 21
364.9738123469826
 31
0.0
  0
LINE
  5
4D4
330
1F
100
AcDbEntity
  8
0
100
AcDbLine
 10
23.49999532091282
 20
359.9738123469826
 30
0.0
 11
23.49999532091282
 21
364.9738123469826
 31
0.0
  0
LINE
  5
4D5
330
1F
100
AcDbEntity
  8
0
100
AcDbLine
 10
23.49999532091282
 20
175.9738123469826
 30
0.0
 11
23.49999532091282
 21
170.9738123469825
 31
0.0
  0
LINE
  5
4D6
330
1F
100
AcDbEntity
  8
0
100
AcDbLine
 10
31.09999532091273
 20
175.9738123469826
 30
0.0
 11
31.09999532091273
 21
170.9738123469825
 31
0.0
  0
LINE
  5
4D7
330
1F
100
AcDbEntity
  8
0
100
AcDbLine
 10
34.49999532091283
 20
175.9738123469826
 30
0.0
 11
34.49999532091283
 21
170.9738123469825
 31
0.0
  0
CIRCLE
  5
4D8
330
1F
100
AcDbEntity
  8
0
100
AcDbCircle
 10
3.99999532091283
 20
195.9738123469826
 30
0.0
 40
2.0
  0
CIRCLE
  5
4D9
330
1F
100
AcDbEntity
  8
0
100
AcDbCircle
 10
3.99999532091283
 20
195.9738123469826
 30
0.0
 40
1.6
  0
CIRCLE
  5
4DA
330
1F
100
AcDbEntity
  8
0
100
AcDbCircle
 10
3.99999532091283
 20
185.9738123469826
 30
0.0
 40
2.0
  0
CIRCLE
  5
4DB
330
1F
100
AcDbEntity
  8
0
100
AcDbCircle
 10
3.99999532091283
 20
185.9738123469826
 30
0.0
 40
1.6
  0
ARC
  5
4DC
330
1F
100
AcDbEntity
  8
0
100
AcDbCircle
 10
0.9999953209128308
 20
363.8949117897845
 30
0.0
 40
1.0
100
AcDbArc
 50
91.50000000000281
 51
180.0
  0
ARC
  5
4DD
330
1F
100
AcDbEntity
  8
0
100
AcDbCircle
 10
56.99999532091283
 20
363.9738123469826
 30
0.0
 40
1.0
100
AcDbArc
 50
0.0
 51
90.0
  0
ARC
  5
4DE
330
1F
100
AcDbEntity
  8
0
100
AcDbCircle
 10
0.9999953209128308
 20
172.0527129041816
 30
0.0
 40
1.0
100
AcDbArc
 50
180.0
 51
268.4999999999971
  0
ARC
  5
4DF
330
1F
100
AcDbEntity
  8
0
100
AcDbCircle
 10
56.99999532091283
 20
171.9738123469826
 30
0.0
 40
1.0
100
AcDbArc
 50
270.0
 51
0.0
  0
ARC
  5
4E0
330
1F
100
AcDbEntity
  8
0
100
AcDbCircle
 10
0.4999953209128308
 20
354.3819902252455
 30
0.0
 40
0.5
100
AcDbArc
 50
91.50000000000281
 51
180.0
  0
ARC
  5
4E1
330
1F
100
AcDbEntity
  8
0
100
AcDbCircle
 10
0.4999953209128308
 20
181.5656344687203
 30
0.0
 40
0.5
100
AcDbArc
 50
180.0
 51
268.4999999999971
  0
LINE
  5
4E2
330
1F
100
AcDbEntity
  8
0
100
AcDbLine
 10
5.999995320911692
 20
180.9738123469826
 30
0.0
 11
57.99999532091283
 21
180.9738123469826
 31
0.0
  0
LINE
  5
4E3
330
1F
100
AcDbEntity
  8
0
100
AcDbLine
 10
5.999995320912829
 20
354.4738123469826
 30
0.0
 11
4.999995320912828
 21
354.4738123469826
 31
0.0
  0
LINE
  5
4E4
330
1F
100
AcDbEntity
  8
0
100
AcDbLine
 10
5.999995320912829
 20
354.9738123469826
 30
0.0
 11
5.999995320911692
 21
202.3555928070204
 31
0.0
  0
LINE
  5
4E5
330
1F
100
AcDbEntity
  8
0
100
AcDbLine
 10
5.999995320912829
 20
354.9738123469826
 30
0.0
 11
57.99999532091283
 21
354.9738123469826
 31
0.0
  0
ARC
  5
4E6
330
1F
100
AcDbEntity
  8
0
100
AcDbCircle
 10
4.299995320912785
 20
197.9738123469826
 30
0.0
 40
4.699999999995998
100
AcDbArc
 50
0.0
 51
68.79523363710617
  0
LINE
  5
4E7
330
1F
100
AcDbEntity
  8
0
100
AcDbLine
 10
8.999995320908737
 20
197.9738123469826
 30
0.0
 11
8.999995320907828
 21
180.9738123469826
 31
0.0
  0
LINE
  5
4E8
330
1F
100
AcDbEntity
  8
0
100
AcDbLine
 10
8.999995320907828
 20
181.4738123469826
 30
0.0
 11
7.999995320907827
 21
181.4738123469826
 31
0.0
  0
LINE
  5
4E9
330
1F
100
AcDbEntity
  8
0
100
AcDbLine
 10
55.99999532091283
 20
182.9738123469826
 30
0.0
 11
55.99999532091283
 21
352.9738123469826
 31
0.0
  0
LINE
  5
4EA
330
1F
100
AcDbEntity
  8
0
100
AcDbLine
 10
55.99999532091283
 20
352.9738123469826
 30
0.0
 11
7.999995320912829
 21
352.9738123469826
 31
0.0
  0
ARC
  5
4EB
330
1F
100
AcDbEntity
  8
0
100
AcDbCircle
 10
4.299995320912785
 20
197.9738123469826
 30
0.0
 40
6.699999999996
100
AcDbArc
 50
0.0
 51
56.47925960398929
  0
LINE
  5
4EC
330
1F
100
AcDbEntity
  8
0
100
AcDbLine
 10
10.99999532090873
 20
197.9738123469826
 30
0.0
 11
10.99999532090782
 21
182.9738123469826
 31
0.0
  0
LINE
  5
4ED
330
1F
100
AcDbEntity
  8
0
100
AcDbLine
 10
55.99999532091283
 20
182.9738123469826
 30
0.0
 11
10.99999532090782
 21
182.9738123469826
 31
0.0
  0
LINE
  5
4EE
330
1F
100
AcDbEntity
  8
0
100
AcDbLine
 10
7.999995320912829
 20
352.9738123469826
 30
0.0
 11
7.999995320911692
 21
203.5595083644865
 31
0.0
  0
LINE
  5
4EF
330
1F
100
AcDbEntity
  8
0
100
AcDbLine
 10
57.99999532091283
 20
180.9738123469826
 30
0.0
 11
57.99999532091283
 21
354.9738123469826
 31
0.0
  0
LINE
  5
4F0
330
1F
100
AcDbEntity
  8
0
100
AcDbLine
 10
4.999995320912828
 20
201.6069927718965
 30
0.0
 11
4.999995320912828
 21
354.4738123469826
 31
0.0
  0
LINE
  5
4F1
330
1F
100
AcDbEntity
  8
0
100
AcDbLine
 10
7.999995320908737
 20
197.9738123469826
 30
0.0
 11
7.999995320907827
 21
181.4738123469826
 31
0.0
  0
ARC
  5
4F2
330
1F
100
AcDbEntity
  8
0
100
AcDbCircle
 10
4.299995320912785
 20
197.9738123469826
 30
0.0
 40
3.699999999995998
100
AcDbArc
 50
0.0
 51
79.09453000325759
  0
LINE
  5
4F3
330
1F
100
AcDbEntity
  8
0
100
AcDbLine
 10
5.999995320909648
 20
181.0261841901203
 30
0.0
 11
5.999995320911692
 21
180.9738123469826
 31
0.0
  0
LINE
  5
4F4
330
1F
100
AcDbEntity
  8
0
100
AcDbLine
 10
35.19999544282995
 20
263.0738121876385
 30
0.0
 11
35.19999544282995
 21
247.0738121876386
 31
0.0
  0
LINE
  5
4F5
330
1F
100
AcDbEntity
  8
0
100
AcDbLine
 10
38.59999544282981
 20
247.0738121876386
 30
0.0
 11
35.19999544282995
 21
247.0738121876386
 31
0.0
  0
LINE
  5
4F6
330
1F
100
AcDbEntity
  8
0
100
AcDbLine
 10
38.59999544282981
 20
263.0738121876385
 30
0.0
 11
35.19999544282995
 21
263.0738121876385
 31
0.0
  0
LINE
  5
4F7
330
1F
100
AcDbEntity
  8
0
100
AcDbLine
 10
38.59999544282981
 20
263.0738121876385
 30
0.0
 11
38.59999544282981
 21
267.5738121876384
 31
0.0
  0
LINE
  5
4F8
330
1F
100
AcDbEntity
  8
0
100
AcDbLine
 10
49.99999544283082
 20
185.1738121876385
 30
0.0
 11
38.59999544282981
 21
185.1738121876385
 31
0.0
  0
LINE
  5
4F9
330
1F
100
AcDbEntity
  8
0
100
AcDbLine
 10
38.59999544282981
 20
247.0738121876386
 30
0.0
 11
38.59999544282981
 21
232.6738121876385
 31
0.0
  0
LINE
  5
4FA
330
1F
100
AcDbEntity
  8
0
100
AcDbLine
 10
11.09999532090773
 20
183.1738123469826
 30
0.0
 11
55.69999532091197
 21
183.1738123469826
 31
0.0
  0
LINE
  5
4FB
330
1F
100
AcDbEntity
  8
0
100
AcDbLine
 10
55.69999532091197
 20
352.7738123469826
 30
0.0
 11
55.69999532091197
 21
183.1738123469826
 31
0.0
  0
LINE
  5
4FC
330
1F
100
AcDbEntity
  8
0
100
AcDbLine
 10
11.09999532090885
 20
197.9738123469826
 30
0.0
 11
11.09999532090773
 21
183.1738123469826
 31
0.0
  0
ARC
  5
4FD
330
1F
100
AcDbEntity
  8
0
100
AcDbCircle
 10
4.199995320911738
 20
197.9738123469826
 30
0.0
 40
6.899999999996
100
AcDbArc
 50
0.0
 51
55.58261128953699
  0
LINE
  5
4FE
330
1F
100
AcDbEntity
  8
0
100
AcDbLine
 10
8.09999532091183
 20
352.7738123469826
 30
0.0
 11
8.09999532091183
 21
203.6659121352816
 31
0.0
  0
LINE
  5
4FF
330
1F
100
AcDbEntity
  8
0
100
AcDbLine
 10
55.69999532091197
 20
352.7738123469826
 30
0.0
 11
8.09999532091183
 21
352.7738123469826
 31
0.0
  0
LINE
  5
500
330
1F
100
AcDbEntity
  8
0
100
AcDbLine
 10
25.19999544282971
 20
260.1738121876385
 30
0.0
 11
25.19999544282971
 21
256.5738121876385
 31
0.0
  0
LINE
  5
501
330
1F
100
AcDbEntity
  8
0
100
AcDbLine
 10
23.59999544282981
 20
271.4738121876385
 30
0.0
 11
23.59999544282981
 21
260.1738121876385
 31
0.0
  0
LINE
  5
502
330
1F
100
AcDbEntity
  8
0
100
AcDbLine
 10
12.99999544282968
 20
271.4738121876385
 30
0.0
 11
23.59999544282981
 21
271.4738121876385
 31
0.0
  0
LINE
  5
503
330
1F
100
AcDbEntity
  8
0
100
AcDbLine
 10
23.59999544282981
 20
239.5738121876386
 30
0.0
 11
25.19999544282971
 21
239.5738121876386
 31
0.0
  0
LINE
  5
504
330
1F
100
AcDbEntity
  8
0
100
AcDbLine
 10
23.59999544282981
 20
256.5738121876385
 30
0.0
 11
25.19999544282971
 21
256.5738121876385
 31
0.0
  0
LINE
  5
505
330
1F
100
AcDbEntity
  8
0
100
AcDbLine
 10
23.59999544282981
 20
260.1738121876385
 30
0.0
 11
25.19999544282971
 21
260.1738121876385
 31
0.0
  0
LINE
  5
506
330
1F
100
AcDbEntity
  8
0
100
AcDbLine
 10
23.59999544282981
 20
243.1738121876385
 30
0.0
 11
25.19999544282971
 21
243.1738121876385
 31
0.0
  0
LINE
  5
507
330
1F
100
AcDbEntity
  8
0
100
AcDbLine
 10
25.19999544282971
 20
243.1738121876385
 30
0.0
 11
25.19999544282971
 21
239.5738121876386
 31
0.0
  0
LINE
  5
508
330
1F
100
AcDbEntity
  8
0
100
AcDbLine
 10
23.59999544282981
 20
256.5738121876385
 30
0.0
 11
23.59999544282981
 21
243.1738121876385
 31
0.0
  0
LINE
  5
509
330
1F
100
AcDbEntity
  8
0
100
AcDbLine
 10
23.59999544282981
 20
185.1738121876385
 30
0.0
 11
12.99999544282968
 21
185.1738121876385
 31
0.0
  0
LINE
  5
50A
330
1F
100
AcDbEntity
  8
0
100
AcDbLine
 10
23.59999544282981
 20
239.5738121876386
 30
0.0
 11
23.59999544282981
 21
185.1738121876385
 31
0.0
  0
LINE
  5
50B
330
1F
100
AcDbEntity
  8
0
100
AcDbLine
 10
12.99999544282968
 20
271.4738121876385
 30
0.0
 11
12.99999544282968
 21
185.1738121876385
 31
0.0
  0
LINE
  5
50C
330
1F
100
AcDbEntity
  8
0
100
AcDbLine
 10
12.99999544282968
 20
275.9738121876385
 30
0.0
 11
25.39999544282977
 21
275.9738121876385
 31
0.0
  0
LINE
  5
50D
330
1F
100
AcDbEntity
  8
0
100
AcDbLine
 10
22.89999544282977
 20
339.0738121876386
 30
0.0
 11
22.89999544282977
 21
331.0738121876386
 31
0.0
  0
LINE
  5
50E
330
1F
100
AcDbEntity
  8
0
100
AcDbLine
 10
12.99999544282968
 20
306.0738121876386
 30
0.0
 11
22.29999544282986
 21
306.0738121876386
 31
0.0
  0
LINE
  5
50F
330
1F
100
AcDbEntity
  8
0
100
AcDbLine
 10
22.29999544282986
 20
322.8738121876385
 30
0.0
 11
25.89999544282977
 21
322.8738121876385
 31
0.0
  0
CIRCLE
  5
510
330
1F
100
AcDbEntity
  8
0
100
AcDbCircle
 10
16.59999544282982
 20
342.9738121876383
 30
0.0
 40
1.399999999999999
  0
LINE
  5
511
330
1F
100
AcDbEntity
  8
0
100
AcDbLine
 10
12.99999544282968
 20
302.1738121876385
 30
0.0
 11
12.99999544282968
 21
275.9738121876385
 31
0.0
  0
LINE
  5
512
330
1F
100
AcDbEntity
  8
0
100
AcDbLine
 10
22.89999544282977
 20
331.0738121876386
 30
0.0
 11
25.89999544282977
 21
331.0738121876386
 31
0.0
  0
LINE
  5
513
330
1F
100
AcDbEntity
  8
0
100
AcDbLine
 10
12.99999544282968
 20
302.1738121876385
 30
0.0
 11
25.39999544282977
 21
302.1738121876385
 31
0.0
  0
CIRCLE
  5
514
330
1F
100
AcDbEntity
  8
0
100
AcDbCircle
 10
16.59999544282982
 20
347.7738121876384
 30
0.0
 40
1.399999999999999
  0
CIRCLE
  5
515
330
1F
100
AcDbEntity
  8
0
100
AcDbCircle
 10
21.6999954428297
 20
347.7738121876384
 30
0.0
 40
1.399999999999999
  0
LINE
  5
516
330
1F
100
AcDbEntity
  8
0
100
AcDbLine
 10
25.89999544282977
 20
331.0738121876386
 30
0.0
 11
25.89999544282977
 21
322.8738121876385
 31
0.0
  0
LINE
  5
517
330
1F
100
AcDbEntity
  8
0
100
AcDbLine
 10
22.89999544282977
 20
339.0738121876386
 30
0.0
 11
12.99999544282968
 21
339.0738121876386
 31
0.0
  0
LINE
  5
518
330
1F
100
AcDbEntity
  8
0
100
AcDbLine
 10
12.99999544282968
 20
339.0738121876386
 30
0.0
 11
12.99999544282968
 21
306.0738121876386
 31
0.0
  0
CIRCLE
  5
519
330
1F
100
AcDbEntity
  8
0
100
AcDbCircle
 10
21.6999954428297
 20
342.9738121876383
 30
0.0
 40
1.399999999999999
  0
LINE
  5
51A
330
1F
100
AcDbEntity
  8
0
100
AcDbLine
 10
22.29999544282986
 20
322.8738121876385
 30
0.0
 11
22.29999544282986
 21
306.0738121876386
 31
0.0
  0
LINE
  5
51B
330
1F
100
AcDbEntity
  8
0
100
AcDbLine
 10
49.99999544283082
 20
230.6738121876385
 30
0.0
 11
38.59999544282981
 21
230.6738121876385
 31
0.0
  0
LINE
  5
51C
330
1F
100
AcDbEntity
  8
0
100
AcDbLine
 10
49.99999544283082
 20
232.6738121876385
 30
0.0
 11
38.59999544282981
 21
232.6738121876385
 31
0.0
  0
LINE
  5
51D
330
1F
100
AcDbEntity
  8
0
100
AcDbLine
 10
49.99999544283082
 20
267.5738121876384
 30
0.0
 11
38.59999544282981
 21
267.5738121876384
 31
0.0
  0
LINE
  5
51E
330
1F
100
AcDbEntity
  8
0
100
AcDbLine
 10
49.99999544283082
 20
267.5738121876384
 30
0.0
 11
49.99999544283082
 21
232.6738121876385
 31
0.0
  0
LINE
  5
51F
330
1F
100
AcDbEntity
  8
0
100
AcDbLine
 10
49.99999544283082
 20
230.6738121876385
 30
0.0
 11
49.99999544283082
 21
185.1738121876385
 31
0.0
  0
LINE
  5
520
330
1F
100
AcDbEntity
  8
0
100
AcDbLine
 10
38.59999544282981
 20
230.6738121876385
 30
0.0
 11
38.59999544282981
 21
185.1738121876385
 31
0.0
  0
LINE
  5
521
330
1F
100
AcDbEntity
  8
0
100
AcDbLine
 10
25.39999544282977
 20
302.1738121876385
 30
0.0
 11
25.39999544282977
 21
275.9738121876385
 31
0.0
  0
CIRCLE
  5
522
330
1F
100
AcDbEntity
  8
0
100
AcDbCircle
 10
18.24999532091169
 20
334.8038123469825
 30
0.0
 40
1.290290050200999
  0
LINE
  5
523
330
1F
100
AcDbEntity
  8
0
100
AcDbLine
 10
21.99999532091169
 20
338.5538123469824
 30
0.0
 11
14.09999532091183
 21
338.5538123469824
 31
0.0
  0
LINE
  5
524
330
1F
100
AcDbEntity
  8
0
100
AcDbLine
 10
21.99999532091169
 20
331.0538123469835
 30
0.0
 11
14.09999532091183
 21
331.0538123469835
 31
0.0
  0
LINE
  5
525
330
1F
100
AcDbEntity
  8
0
100
AcDbLine
 10
21.99999532091169
 20
331.0538123469835
 30
0.0
 11
21.99999532091169
 21
338.5538123469824
 31
0.0
  0
LINE
  5
526
330
1F
100
AcDbEntity
  8
0
100
AcDbLine
 10
14.49999532091168
 20
331.0538123469835
 30
0.0
 11
14.49999532091168
 21
338.5538123469824
 31
0.0
  0
LINE
  5
527
330
1F
100
AcDbEntity
  8
0
100
AcDbLine
 10
14.09999532091183
 20
337.6438123469823
 30
0.0
 11
14.09999532091183
 21
338.5538123469824
 31
0.0
  0
LINE
  5
528
330
1F
100
AcDbEntity
  8
0
100
AcDbLine
 10
14.09999532091274
 20
337.6438123469834
 30
0.0
 11
14.49999532091168
 21
337.6438123469834
 31
0.0
  0
LINE
  5
529
330
1F
100
AcDbEntity
  8
0
100
AcDbLine
 10
14.09999532091274
 20
337.0438123469833
 30
0.0
 11
14.49999532091168
 21
337.0438123469833
 31
0.0
  0
LINE
  5
52A
330
1F
100
AcDbEntity
  8
0
100
AcDbLine
 10
14.09999532091274
 20
331.9638123469835
 30
0.0
 11
14.49999532091168
 21
331.9638123469835
 31
0.0
  0
LINE
  5
52B
330
1F
100
AcDbEntity
  8
0
100
AcDbLine
 10
14.09999532091274
 20
332.5638123469833
 30
0.0
 11
14.49999532091168
 21
332.5638123469833
 31
0.0
  0
LINE
  5
52C
330
1F
100
AcDbEntity
  8
0
100
AcDbLine
 10
14.09999532091274
 20
335.1038123469833
 30
0.0
 11
14.49999532091168
 21
335.1038123469833
 31
0.0
  0
LINE
  5
52D
330
1F
100
AcDbEntity
  8
0
100
AcDbLine
 10
14.09999532091274
 20
334.5038123469833
 30
0.0
 11
14.49999532091168
 21
334.5038123469833
 31
0.0
  0
LINE
  5
52E
330
1F
100
AcDbEntity
  8
0
100
AcDbLine
 10
14.09999532091183
 20
331.0538123469835
 30
0.0
 11
14.09999532091183
 21
331.9638123469835
 31
0.0
  0
LINE
  5
52F
330
1F
100
AcDbEntity
  8
0
100
AcDbLine
 10
14.09999532091183
 20
307.0138123469825
 30
0.0
 11
21.34999532091272
 21
307.0138123469825
 31
0.0
  0
CIRCLE
  5
530
330
1F
100
AcDbEntity
  8
0
100
AcDbCircle
 10
17.59999532091182
 20
319.9638123469826
 30
0.0
 40
1.0
  0
CIRCLE
  5
531
330
1F
100
AcDbEntity
  8
0
100
AcDbCircle
 10
17.59999532091182
 20
316.4638123469823
 30
0.0
 40
1.0
  0
CIRCLE
  5
532
330
1F
100
AcDbEntity
  8
0
100
AcDbCircle
 10
17.59999532091182
 20
312.9638123469823
 30
0.0
 40
1.0
  0
CIRCLE
  5
533
330
1F
100
AcDbEntity
  8
0
100
AcDbCircle
 10
17.59999532091182
 20
309.4638123469826
 30
0.0
 40
1.0
  0
LINE
  5
534
330
1F
100
AcDbEntity
  8
0
100
AcDbLine
 10
21.34999532091272
 20
307.0138123469825
 30
0.0
 11
21.34999532091272
 21
322.4138123469824
 31
0.0
  0
LINE
  5
535
330
1F
100
AcDbEntity
  8
0
100
AcDbLine
 10
21.34999532091272
 20
322.4138123469824
 30
0.0
 11
14.09999532091183
 21
322.4138123469824
 31
0.0
  0
LINE
  5
536
330
1F
100
AcDbEntity
  8
0
100
AcDbLine
 10
14.09999532091183
 20
322.4138123469824
 30
0.0
 11
14.09999532091183
 21
307.0138123469825
 31
0.0
  0
LINE
  5
537
330
1F
100
AcDbEntity
  8
0
100
AcDbLine
 10
24.29999532091278
 20
324.8638123469825
 30
0.0
 11
19.52450039192081
 21
324.8638123469825
 31
0.0
  0
LINE
  5
538
330
1F
100
AcDbEntity
  8
0
100
AcDbLine
 10
24.29999532091278
 20
328.6038123469825
 30
0.0
 11
19.52450039192081
 21
328.6038123469825
 31
0.0
  0
LINE
  5
539
330
1F
100
AcDbEntity
  8
0
100
AcDbLine
 10
24.29999532091278
 20
323.4138123469824
 30
0.0
 11
14.09999532091274
 21
323.4138123469824
 31
0.0
  0
LINE
  5
53A
330
1F
100
AcDbEntity
  8
0
100
AcDbLine
 10
24.29999532091278
 20
330.0538123469825
 30
0.0
 11
14.09999532091274
 21
330.0538123469825
 31
0.0
  0
LINE
  5
53B
330
1F
100
AcDbEntity
  8
0
100
AcDbLine
 10
24.29999532091278
 20
327.4038123469825
 30
0.0
 11
21.29999532091278
 21
327.4038123469825
 31
0.0
  0
LINE
  5
53C
330
1F
100
AcDbEntity
  8
0
100
AcDbLine
 10
24.29999532091278
 20
326.0638123469825
 30
0.0
 11
21.29999532091278
 21
326.0638123469825
 31
0.0
  0
LINE
  5
53D
330
1F
100
AcDbEntity
  8
0
100
AcDbLine
 10
24.29999532091278
 20
324.8638123469825
 30
0.0
 11
21.29999532091278
 21
324.8638123469825
 31
0.0
  0
LINE
  5
53E
330
1F
100
AcDbEntity
  8
0
100
AcDbLine
 10
21.29999532091278
 20
327.4038123469825
 30
0.0
 11
21.29999532091278
 21
328.6038123469825
 31
0.0
  0
LINE
  5
53F
330
1F
100
AcDbEntity
  8
0
100
AcDbLine
 10
21.29999532091278
 20
324.8638123469825
 30
0.0
 11
21.29999532091278
 21
326.0638123469825
 31
0.0
  0
LINE
  5
540
330
1F
100
AcDbEntity
  8
0
100
AcDbLine
 10
22.79999532091278
 20
326.0638123469825
 30
0.0
 11
22.79999532091278
 21
327.4038123469825
 31
0.0
  0
LINE
  5
541
330
1F
100
AcDbEntity
  8
0
100
AcDbLine
 10
23.29999532091278
 20
327.4038123469825
 30
0.0
 11
23.29999532091278
 21
328.6038123469825
 31
0.0
  0
LINE
  5
542
330
1F
100
AcDbEntity
  8
0
100
AcDbLine
 10
23.29999532091278
 20
324.8638123469825
 30
0.0
 11
23.29999532091278
 21
326.0638123469825
 31
0.0
  0
LINE
  5
543
330
1F
100
AcDbEntity
  8
0
100
AcDbLine
 10
24.29999532091278
 20
323.4138123469824
 30
0.0
 11
24.29999532091278
 21
330.0538123469825
 31
0.0
  0
LINE
  5
544
330
1F
100
AcDbEntity
  8
0
100
AcDbLine
 10
19.52450039192081
 20
328.6038123469825
 30
0.0
 11
19.52450039192081
 21
324.8638123469825
 31
0.0
  0
LINE
  5
545
330
1F
100
AcDbEntity
  8
0
100
AcDbLine
 10
14.09999532091274
 20
323.4138123469824
 30
0.0
 11
14.09999532091274
 21
330.0538123469825
 31
0.0
  0
LINE
  5
546
330
1F
100
AcDbEntity
  8
0
100
AcDbLine
 10
14.09999532091274
 20
293.6338123469825
 30
0.0
 11
15.59999532091183
 21
293.6338123469825
 31
0.0
  0
LINE
  5
547
330
1F
100
AcDbEntity
  8
0
100
AcDbLine
 10
14.09999532091274
 20
288.5538123469824
 30
0.0
 11
15.59999532091183
 21
288.5538123469824
 31
0.0
  0
LINE
  5
548
330
1F
100
AcDbEntity
  8
0
100
AcDbLine
 10
14.09999532091274
 20
283.4738123469826
 30
0.0
 11
15.59999532091183
 21
283.4738123469826
 31
0.0
  0
LINE
  5
549
330
1F
100
AcDbEntity
  8
0
100
AcDbLine
 10
14.09999532091183
 20
298.1338123469825
 30
0.0
 11
15.59999532091183
 21
298.1338123469825
 31
0.0
  0
LINE
  5
54A
330
1F
100
AcDbEntity
  8
0
100
AcDbLine
 10
14.09999532091183
 20
276.9738123469826
 30
0.0
 11
15.59999532091183
 21
276.9738123469826
 31
0.0
  0
LINE
  5
54B
330
1F
100
AcDbEntity
  8
0
100
AcDbLine
 10
19.5999953209118
 20
293.1338123469823
 30
0.0
 11
20.59999532091182
 21
293.1338123469823
 31
0.0
  0
LINE
  5
54C
330
1F
100
AcDbEntity
  8
0
100
AcDbLine
 10
19.5999953209118
 20
288.0538123469825
 30
0.0
 11
20.59999532091182
 21
288.0538123469825
 31
0.0
  0
LINE
  5
54D
330
1F
100
AcDbEntity
  8
0
100
AcDbLine
 10
19.5999953209118
 20
282.9738123469826
 30
0.0
 11
20.59999532091182
 21
282.9738123469826
 31
0.0
  0
LINE
  5
54E
330
1F
100
AcDbEntity
  8
0
100
AcDbLine
 10
15.59999532091183
 20
301.1338123469823
 30
0.0
 11
16.59999532091183
 21
301.1338123469823
 31
0.0
  0
LINE
  5
54F
330
1F
100
AcDbEntity
  8
0
100
AcDbLine
 10
16.59999532091183
 20
301.1338123469823
 30
0.0
 11
16.59999532091183
 21
276.9738123469826
 31
0.0
  0
LINE
  5
550
330
1F
100
AcDbEntity
  8
0
100
AcDbLine
 10
24.08499532091173
 20
301.1338123469823
 30
0.0
 11
23.58499532091173
 21
301.1338123469823
 31
0.0
  0
LINE
  5
551
330
1F
100
AcDbEntity
  8
0
100
AcDbLine
 10
23.58499532091173
 20
301.1338123469823
 30
0.0
 11
23.58499532091173
 21
276.9738123469826
 31
0.0
  0
LINE
  5
552
330
1F
100
AcDbEntity
  8
0
100
AcDbLine
 10
24.94499532091162
 20
301.1338123469823
 30
0.0
 11
24.94499532091162
 21
276.9738123469826
 31
0.0
  0
LINE
  5
553
330
1F
100
AcDbEntity
  8
0
100
AcDbLine
 10
15.59999532091183
 20
301.1338123469823
 30
0.0
 11
15.59999532091183
 21
300.1338123469825
 31
0.0
  0
LINE
  5
554
330
1F
100
AcDbEntity
  8
0
100
AcDbLine
 10
16.59999532091183
 20
300.1338123469825
 30
0.0
 11
23.58499532091173
 21
300.1338123469825
 31
0.0
  0
LINE
  5
555
330
1F
100
AcDbEntity
  8
0
100
AcDbLine
 10
15.59999532091183
 20
276.9738123469826
 30
0.0
 11
15.59999532091183
 21
277.9738123469826
 31
0.0
  0
LINE
  5
556
330
1F
100
AcDbEntity
  8
0
100
AcDbLine
 10
16.59999532091183
 20
277.9738123469826
 30
0.0
 11
23.58499532091173
 21
277.9738123469826
 31
0.0
  0
LINE
  5
557
330
1F
100
AcDbEntity
  8
0
100
AcDbLine
 10
15.59999532091183
 20
276.9738123469826
 30
0.0
 11
24.94499532091162
 21
276.9738123469826
 31
0.0
  0
LINE
  5
558
330
1F
100
AcDbEntity
  8
0
100
AcDbLine
 10
24.94499532091162
 20
301.1338123469823
 30
0.0
 11
15.59999532091183
 21
301.1338123469823
 31
0.0
  0
LINE
  5
559
330
1F
100
AcDbEntity
  8
0
100
AcDbLine
 10
15.59999532091183
 20
301.1338123469823
 30
0.0
 11
15.59999532091183
 21
276.9738123469826
 31
0.0
  0
LINE
  5
55A
330
1F
100
AcDbEntity
  8
0
100
AcDbLine
 10
20.59999532091182
 20
293.1338123469823
 30
0.0
 11
20.59999532091182
 21
295.1338123469824
 31
0.0
  0
LINE
  5
55B
330
1F
100
AcDbEntity
  8
0
100
AcDbLine
 10
20.59999532091182
 20
295.1338123469824
 30
0.0
 11
19.5999953209118
 21
295.1338123469824
 31
0.0
  0
LINE
  5
55C
330
1F
100
AcDbEntity
  8
0
100
AcDbLine
 10
19.5999953209118
 20
295.1338123469824
 30
0.0
 11
19.5999953209118
 21
293.1338123469823
 31
0.0
  0
LINE
  5
55D
330
1F
100
AcDbEntity
  8
0
100
AcDbLine
 10
20.59999532091182
 20
288.0538123469825
 30
0.0
 11
20.59999532091182
 21
290.0538123469825
 31
0.0
  0
LINE
  5
55E
330
1F
100
AcDbEntity
  8
0
100
AcDbLine
 10
20.59999532091182
 20
290.0538123469825
 30
0.0
 11
19.5999953209118
 21
290.0538123469825
 31
0.0
  0
LINE
  5
55F
330
1F
100
AcDbEntity
  8
0
100
AcDbLine
 10
19.5999953209118
 20
290.0538123469825
 30
0.0
 11
19.5999953209118
 21
288.0538123469825
 31
0.0
  0
LINE
  5
560
330
1F
100
AcDbEntity
  8
0
100
AcDbLine
 10
20.59999532091182
 20
282.9738123469826
 30
0.0
 11
20.59999532091182
 21
284.9738123469826
 31
0.0
  0
LINE
  5
561
330
1F
100
AcDbEntity
  8
0
100
AcDbLine
 10
20.59999532091182
 20
284.9738123469826
 30
0.0
 11
19.5999953209118
 21
284.9738123469826
 31
0.0
  0
LINE
  5
562
330
1F
100
AcDbEntity
  8
0
100
AcDbLine
 10
19.5999953209118
 20
284.9738123469826
 30
0.0
 11
19.5999953209118
 21
282.9738123469826
 31
0.0
  0
LINE
  5
563
330
1F
100
AcDbEntity
  8
0
100
AcDbLine
 10
15.59999532091183
 20
276.9738123469826
 30
0.0
 11
15.59999532091183
 21
279.9738123469826
 31
0.0
  0
LINE
  5
564
330
1F
100
AcDbEntity
  8
0
100
AcDbLine
 10
15.59999532091183
 20
279.9738123469826
 30
0.0
 11
14.09999532091183
 21
279.9738123469826
 31
0.0
  0
LINE
  5
565
330
1F
100
AcDbEntity
  8
0
100
AcDbLine
 10
14.09999532091183
 20
279.9738123469826
 30
0.0
 11
14.09999532091183
 21
276.9738123469826
 31
0.0
  0
LINE
  5
566
330
1F
100
AcDbEntity
  8
0
100
AcDbLine
 10
15.59999532091183
 20
283.4738123469826
 30
0.0
 11
15.59999532091183
 21
284.4738123469826
 31
0.0
  0
LINE
  5
567
330
1F
100
AcDbEntity
  8
0
100
AcDbLine
 10
15.59999532091183
 20
284.4738123469826
 30
0.0
 11
14.09999532091274
 21
284.4738123469826
 31
0.0
  0
LINE
  5
568
330
1F
100
AcDbEntity
  8
0
100
AcDbLine
 10
15.59999532091183
 20
288.5538123469824
 30
0.0
 11
15.59999532091183
 21
289.5538123469825
 31
0.0
  0
LINE
  5
569
330
1F
100
AcDbEntity
  8
0
100
AcDbLine
 10
15.59999532091183
 20
289.5538123469825
 30
0.0
 11
14.09999532091274
 21
289.5538123469825
 31
0.0
  0
LINE
  5
56A
330
1F
100
AcDbEntity
  8
0
100
AcDbLine
 10
15.59999532091183
 20
293.6338123469825
 30
0.0
 11
15.59999532091183
 21
294.6338123469825
 31
0.0
  0
LINE
  5
56B
330
1F
100
AcDbEntity
  8
0
100
AcDbLine
 10
15.59999532091183
 20
294.6338123469825
 30
0.0
 11
14.09999532091274
 21
294.6338123469825
 31
0.0
  0
LINE
  5
56C
330
1F
100
AcDbEntity
  8
0
100
AcDbLine
 10
15.59999532091183
 20
298.1338123469825
 30
0.0
 11
15.59999532091183
 21
301.1338123469823
 31
0.0
  0
LINE
  5
56D
330
1F
100
AcDbEntity
  8
0
100
AcDbLine
 10
15.59999532091183
 20
301.1338123469823
 30
0.0
 11
14.09999532091183
 21
301.1338123469823
 31
0.0
  0
LINE
  5
56E
330
1F
100
AcDbEntity
  8
0
100
AcDbLine
 10
14.09999532091183
 20
301.1338123469823
 30
0.0
 11
14.09999532091183
 21
298.1338123469825
 31
0.0
  0
LINE
  5
56F
330
1F
100
AcDbEntity
  8
0
100
AcDbLine
 10
14.09999532091183
 20
185.9738123469826
 30
0.0
 11
22.69999532091173
 21
185.9738123469826
 31
0.0
  0
CIRCLE
  5
570
330
1F
100
AcDbEntity
  8
0
100
AcDbCircle
 10
18.09999532091182
 20
193.5938123469824
 30
0.0
 40
2.0
  0
CIRCLE
  5
571
330
1F
100
AcDbEntity
  8
0
100
AcDbCircle
 10
18.09999532091182
 20
198.6738123469826
 30
0.0
 40
2.0
  0
CIRCLE
  5
572
330
1F
100
AcDbEntity
  8
0
100
AcDbCircle
 10
18.09999532091182
 20
198.6738123469826
 30
0.0
 40
2.0
  0
CIRCLE
  5
573
330
1F
100
AcDbEntity
  8
0
100
AcDbCircle
 10
18.09999532091182
 20
203.7538123469833
 30
0.0
 40
2.0
  0
CIRCLE
  5
574
330
1F
100
AcDbEntity
  8
0
100
AcDbCircle
 10
18.09999532091182
 20
203.7538123469833
 30
0.0
 40
2.0
  0
CIRCLE
  5
575
330
1F
100
AcDbEntity
  8
0
100
AcDbCircle
 10
18.09999532091182
 20
213.9138123469824
 30
0.0
 40
2.0
  0
CIRCLE
  5
576
330
1F
100
AcDbEntity
  8
0
100
AcDbCircle
 10
18.09999532091182
 20
213.9138123469824
 30
0.0
 40
2.0
  0
CIRCLE
  5
577
330
1F
100
AcDbEntity
  8
0
100
AcDbCircle
 10
18.09999532091182
 20
218.9938123469834
 30
0.0
 40
2.0
  0
CIRCLE
  5
578
330
1F
100
AcDbEntity
  8
0
100
AcDbCircle
 10
18.09999532091182
 20
188.8438123469825
 30
0.0
 40
1.0
  0
CIRCLE
  5
579
330
1F
100
AcDbEntity
  8
0
100
AcDbCircle
 10
18.09999532091182
 20
188.8438123469825
 30
0.0
 40
1.5
  0
CIRCLE
  5
57A
330
1F
100
AcDbEntity
  8
0
100
AcDbCircle
 10
18.09999532091182
 20
223.7438123469835
 30
0.0
 40
1.0
  0
CIRCLE
  5
57B
330
1F
100
AcDbEntity
  8
0
100
AcDbCircle
 10
18.09999532091182
 20
223.7438123469835
 30
0.0
 40
1.5
  0
CIRCLE
  5
57C
330
1F
100
AcDbEntity
  8
0
100
AcDbCircle
 10
18.09999532091182
 20
208.8338123469825
 30
0.0
 40
2.0
  0
LINE
  5
57D
330
1F
100
AcDbEntity
  8
0
100
AcDbLine
 10
22.69999532091173
 20
185.9738123469826
 30
0.0
 11
22.69999532091173
 21
226.6138123469824
 31
0.0
  0
LINE
  5
57E
330
1F
100
AcDbEntity
  8
0
100
AcDbLine
 10
22.69999532091173
 20
226.6138123469824
 30
0.0
 11
14.09999532091183
 21
226.6138123469824
 31
0.0
  0
LINE
  5
57F
330
1F
100
AcDbEntity
  8
0
100
AcDbLine
 10
14.09999532091183
 20
226.6138123469824
 30
0.0
 11
14.09999532091183
 21
185.9738123469826
 31
0.0
  0
LINE
  5
580
330
1F
100
AcDbEntity
  8
0
100
AcDbLine
 10
47.44999532091287
 20
204.0900954895746
 30
0.0
 11
47.44999532091287
 21
219.0575292043916
 31
0.0
  0
LINE
  5
581
330
1F
100
AcDbEntity
  8
0
100
AcDbLine
 10
41.14999532091268
 20
219.6738123469827
 30
0.0
 11
41.14999532091268
 21
203.4738123469826
 31
0.0
  0
LINE
  5
582
330
1F
100
AcDbEntity
  8
0
100
AcDbLine
 10
42.69999532091286
 20
220.1738123469827
 30
0.0
 11
42.69999532091286
 21
202.9738123469825
 31
0.0
  0
LINE
  5
583
330
1F
100
AcDbEntity
  8
0
100
AcDbLine
 10
45.89999532091267
 20
202.9738123469825
 30
0.0
 11
45.89999532091267
 21
220.1738123469827
 31
0.0
  0
LINE
  5
584
330
1F
100
AcDbEntity
  8
0
100
AcDbLine
 10
39.69999532091287
 20
229.1738123469825
 30
0.0
 11
39.69999532091287
 21
193.9738123469826
 31
0.0
  0
LINE
  5
585
330
1F
100
AcDbEntity
  8
0
100
AcDbLine
 10
48.79999532091279
 20
192.9738123469826
 30
0.0
 11
48.79999532091279
 21
230.1738123469827
 31
0.0
  0
LINE
  5
586
330
1F
100
AcDbEntity
  8
0
100
AcDbLine
 10
49.09999532091274
 20
200.3738123469825
 30
0.0
 11
49.09999532091274
 21
193.2738123469825
 31
0.0
  0
CIRCLE
  5
587
330
1F
100
AcDbEntity
  8
0
100
AcDbCircle
 10
44.29999532091279
 20
195.9438123469826
 30
0.0
 40
1.399999999999999
  0
ARC
  5
588
330
1F
100
AcDbEntity
  8
0
100
AcDbCircle
 10
48.79999532091279
 20
193.2738123469825
 30
0.0
 40
0.3
100
AcDbArc
 50
270.0
 51
0.0
  0
LINE
  5
589
330
1F
100
AcDbEntity
  8
0
100
AcDbLine
 10
40.49999532091283
 20
192.9738123469826
 30
0.0
 11
48.79999532091279
 21
192.9738123469826
 31
0.0
  0
ARC
  5
58A
330
1F
100
AcDbEntity
  8
0
100
AcDbCircle
 10
40.49999532091283
 20
193.4738123469826
 30
0.0
 40
0.5
100
AcDbArc
 50
180.0
 51
270.0
  0
LINE
  5
58B
330
1F
100
AcDbEntity
  8
0
100
AcDbLine
 10
39.99999532091283
 20
193.9738123469826
 30
0.0
 11
39.99999532091283
 21
193.4738123469826
 31
0.0
  0
LINE
  5
58C
330
1F
100
AcDbEntity
  8
0
100
AcDbLine
 10
39.69999532091287
 20
193.9738123469826
 30
0.0
 11
48.79999532091279
 21
193.9738123469826
 31
0.0
  0
ARC
  5
58D
330
1F
100
AcDbEntity
  8
0
100
AcDbCircle
 10
45.44999532091288
 20
204.0900954895746
 30
0.0
 40
2.0
100
AcDbArc
 50
284.9999999999943
 51
0.0
  0
LINE
  5
58E
330
1F
100
AcDbEntity
  8
0
100
AcDbLine
 10
43.66763341111775
 20
201.5419606944044
 30
0.0
 11
45.96763341111794
 21
202.1582438369953
 31
0.0
  0
ARC
  5
58F
330
1F
100
AcDbEntity
  8
0
100
AcDbCircle
 10
43.14999532091269
 20
203.4738123469826
 30
0.0
 40
2.0
100
AcDbArc
 50
180.0
 51
284.9999999999943
  0
LINE
  5
590
330
1F
100
AcDbEntity
  8
0
100
AcDbLine
 10
42.69999532091286
 20
202.9738123469825
 30
0.0
 11
45.89999532091267
 21
202.9738123469825
 31
0.0
  0
LINE
  5
591
330
1F
100
AcDbEntity
  8
0
100
AcDbLine
 10
48.79999532091279
 20
200.3738123469825
 30
0.0
 11
49.09999532091274
 21
200.3738123469825
 31
0.0
  0
LINE
  5
592
330
1F
100
AcDbEntity
  8
0
100
AcDbLine
 10
47.44999532091287
 20
197.9738123469826
 30
0.0
 11
47.44999532091287
 21
200.3738123469825
 31
0.0
  0
LINE
  5
593
330
1F
100
AcDbEntity
  8
0
100
AcDbLine
 10
41.14999532091268
 20
200.3738123469825
 30
0.0
 11
41.14999532091268
 21
197.9738123469826
 31
0.0
  0
LINE
  5
594
330
1F
100
AcDbEntity
  8
0
100
AcDbLine
 10
41.14999532091268
 20
200.3738123469825
 30
0.0
 11
47.44999532091287
 21
200.3738123469825
 31
0.0
  0
LINE
  5
595
330
1F
100
AcDbEntity
  8
0
100
AcDbLine
 10
41.14999532091268
 20
198.4738123469826
 30
0.0
 11
47.44999532091287
 21
198.4738123469826
 31
0.0
  0
LINE
  5
596
330
1F
100
AcDbEntity
  8
0
100
AcDbLine
 10
41.14999532091268
 20
197.9738123469826
 30
0.0
 11
47.44999532091287
 21
197.9738123469826
 31
0.0
  0
ARC
  5
597
330
1F
100
AcDbEntity
  8
0
100
AcDbCircle
 10
48.79999532091279
 20
229.8738123469834
 30
0.0
 40
0.3
100
AcDbArc
 50
0.0
 51
90.0
  0
LINE
  5
598
330
1F
100
AcDbEntity
  8
0
100
AcDbLine
 10
49.09999532091274
 20
229.8738123469834
 30
0.0
 11
49.09999532091274
 21
222.7738123469825
 31
0.0
  0
LINE
  5
599
330
1F
100
AcDbEntity
  8
0
100
AcDbLine
 10
40.49999532091283
 20
230.1738123469827
 30
0.0
 11
48.79999532091279
 21
230.1738123469835
 31
0.0
  0
ARC
  5
59A
330
1F
100
AcDbEntity
  8
0
100
AcDbCircle
 10
45.44999532091288
 20
219.0575292043916
 30
0.0
 40
2.0
100
AcDbArc
 50
0.0
 51
75.00000000000555
  0
LINE
  5
59B
330
1F
100
AcDbEntity
  8
0
100
AcDbLine
 10
43.66763341111775
 20
221.6056639995604
 30
0.0
 11
45.96763341111794
 21
220.9893808569693
 31
0.0
  0
ARC
  5
59C
330
1F
100
AcDbEntity
  8
0
100
AcDbCircle
 10
43.14999532091269
 20
219.6738123469827
 30
0.0
 40
2.0
100
AcDbArc
 50
75.00000000000555
 51
180.0
  0
LINE
  5
59D
330
1F
100
AcDbEntity
  8
0
100
AcDbLine
 10
45.89999532091267
 20
220.1738123469827
 30
0.0
 11
42.69999532091286
 21
220.1738123469834
 31
0.0
  0
ARC
  5
59E
330
1F
100
AcDbEntity
  8
0
100
AcDbCircle
 10
40.49999532091283
 20
229.6738123469824
 30
0.0
 40
0.5
100
AcDbArc
 50
90.0
 51
180.0
  0
LINE
  5
59F
330
1F
100
AcDbEntity
  8
0
100
AcDbLine
 10
39.99999532091283
 20
229.6738123469824
 30
0.0
 11
39.99999532091283
 21
229.1738123469825
 31
0.0
  0
LINE
  5
5A0
330
1F
100
AcDbEntity
  8
0
100
AcDbLine
 10
39.69999532091287
 20
229.1738123469825
 30
0.0
 11
48.79999532091279
 21
229.1738123469825
 31
0.0
  0
LINE
  5
5A1
330
1F
100
AcDbEntity
  8
0
100
AcDbLine
 10
48.79999532091279
 20
222.7738123469825
 30
0.0
 11
49.09999532091274
 21
222.7738123469825
 31
0.0
  0
LINE
  5
5A2
330
1F
100
AcDbEntity
  8
0
100
AcDbLine
 10
47.44999532091287
 20
222.7738123469825
 30
0.0
 11
47.44999532091287
 21
225.1738123469836
 31
0.0
  0
LINE
  5
5A3
330
1F
100
AcDbEntity
  8
0
100
AcDbLine
 10
41.14999532091268
 20
225.1738123469836
 30
0.0
 11
41.14999532091268
 21
222.7738123469825
 31
0.0
  0
LINE
  5
5A4
330
1F
100
AcDbEntity
  8
0
100
AcDbLine
 10
41.14999532091268
 20
222.7738123469825
 30
0.0
 11
47.44999532091287
 21
222.7738123469825
 31
0.0
  0
LINE
  5
5A5
330
1F
100
AcDbEntity
  8
0
100
AcDbLine
 10
41.14999532091268
 20
224.6738123469826
 30
0.0
 11
47.44999532091287
 21
224.6738123469826
 31
0.0
  0
LINE
  5
5A6
330
1F
100
AcDbEntity
  8
0
100
AcDbLine
 10
41.14999532091268
 20
225.1738123469825
 30
0.0
 11
47.44999532091287
 21
225.1738123469825
 31
0.0
  0
CIRCLE
  5
5A7
330
1F
100
AcDbEntity
  8
0
100
AcDbCircle
 10
44.29999532091279
 20
227.2038123469826
 30
0.0
 40
1.399999999999999
  0
LINE
  5
5A8
330
1F
100
AcDbEntity
  8
0
100
AcDbLine
 10
48.79999532091279
 20
215.3838123469834
 30
0.0
 11
49.09999532091274
 21
215.3838123469834
 31
0.0
  0
LINE
  5
5A9
330
1F
100
AcDbEntity
  8
0
100
AcDbLine
 10
48.79999532091279
 20
214.1138123469834
 30
0.0
 11
49.09999532091274
 21
214.1138123469834
 31
0.0
  0
LINE
  5
5AA
330
1F
100
AcDbEntity
  8
0
100
AcDbLine
 10
48.79999532091279
 20
212.8438123469833
 30
0.0
 11
49.09999532091274
 21
212.8438123469833
 31
0.0
  0
LINE
  5
5AB
330
1F
100
AcDbEntity
  8
0
100
AcDbLine
 10
48.79999532091279
 20
211.5738123469834
 30
0.0
 11
49.09999532091274
 21
211.5738123469834
 31
0.0
  0
LINE
  5
5AC
330
1F
100
AcDbEntity
  8
0
100
AcDbLine
 10
48.79999532091279
 20
210.3038123469834
 30
0.0
 11
49.09999532091274
 21
210.3038123469834
 31
0.0
  0
LINE
  5
5AD
330
1F
100
AcDbEntity
  8
0
100
AcDbLine
 10
48.79999532091279
 20
209.0338123469833
 30
0.0
 11
49.09999532091274
 21
209.0338123469833
 31
0.0
  0
LINE
  5
5AE
330
1F
100
AcDbEntity
  8
0
100
AcDbLine
 10
48.79999532091279
 20
207.7638123469834
 30
0.0
 11
49.09999532091274
 21
207.7638123469834
 31
0.0
  0
LINE
  5
5AF
330
1F
100
AcDbEntity
  8
0
100
AcDbLine
 10
48.79999532091279
 20
217.9238123469835
 30
0.0
 11
49.09999532091274
 21
217.9238123469835
 31
0.0
  0
LINE
  5
5B0
330
1F
100
AcDbEntity
  8
0
100
AcDbLine
 10
48.79999532091279
 20
216.6538123469833
 30
0.0
 11
49.09999532091274
 21
216.6538123469833
 31
0.0
  0
LINE
  5
5B1
330
1F
100
AcDbEntity
  8
0
100
AcDbLine
 10
48.79999532091279
 20
215.3838123469834
 30
0.0
 11
49.09999532091274
 21
215.3838123469834
 31
0.0
  0
LINE
  5
5B2
330
1F
100
AcDbEntity
  8
0
100
AcDbLine
 10
48.79999532091279
 20
219.1938123469826
 30
0.0
 11
49.09999532091274
 21
219.1938123469826
 31
0.0
  0
LINE
  5
5B3
330
1F
100
AcDbEntity
  8
0
100
AcDbLine
 10
48.79999532091279
 20
217.9238123469835
 30
0.0
 11
49.09999532091274
 21
217.9238123469835
 31
0.0
  0
LINE
  5
5B4
330
1F
100
AcDbEntity
  8
0
100
AcDbLine
 10
48.79999532091279
 20
207.7638123469834
 30
0.0
 11
49.09999532091274
 21
207.7638123469834
 31
0.0
  0
LINE
  5
5B5
330
1F
100
AcDbEntity
  8
0
100
AcDbLine
 10
48.79999532091279
 20
206.4938123469834
 30
0.0
 11
49.09999532091274
 21
206.4938123469834
 31
0.0
  0
LINE
  5
5B6
330
1F
100
AcDbEntity
  8
0
100
AcDbLine
 10
48.79999532091279
 20
205.2238123469833
 30
0.0
 11
49.09999532091274
 21
205.2238123469833
 31
0.0
  0
LINE
  5
5B7
330
1F
100
AcDbEntity
  8
0
100
AcDbLine
 10
48.79999532091279
 20
203.9538123469834
 30
0.0
 11
49.09999532091274
 21
203.9538123469834
 31
0.0
  0
LINE
  5
5B8
330
1F
100
AcDbEntity
  8
0
100
AcDbLine
 10
14.09999532091274
 20
185.1738121876385
 30
0.0
 11
14.09999532091274
 21
271.4738121876385
 31
0.0
  0
LINE
  5
5B9
330
1F
100
AcDbEntity
  8
0
100
AcDbLine
 10
53.44721713475769
 20
172.9738123469826
 30
0.0
 11
51.43302969457181
 21
172.9738123469826
 31
0.0
  0
LINE
  5
5BA
330
1F
100
AcDbEntity
  8
0
100
AcDbLine
 10
36.56696094725271
 20
172.9738123469826
 30
0.0
 11
34.5527735070666
 21
172.9738123469826
 31
0.0
  0
LINE
  5
5BB
330
1F
100
AcDbEntity
  8
0
100
AcDbLine
 10
36.49999532091192
 20
180.9738123469826
 30
0.0
 11
36.49999532091192
 21
173.9738123469826
 31
0.0
  0
LINE
  5
5BC
330
1F
100
AcDbEntity
  8
0
100
AcDbLine
 10
53.49999532091192
 20
164.4738123469825
 30
0.0
 11
34.49999532091192
 21
164.4738123469825
 31
0.0
  0
ARC
  5
5BD
330
1F
100
AcDbEntity
  8
0
100
AcDbCircle
 10
43.99999532091192
 20
173.9738123469826
 30
0.0
 40
7.5
100
AcDbArc
 50
180.0
 51
0.0
  0
ARC
  5
5BE
330
1F
100
AcDbEntity
  8
0
100
AcDbCircle
 10
43.99999532091192
 20
173.9738123469826
 30
0.0
 40
9.5
100
AcDbArc
 50
186.042328419057
 51
353.9576715809428
  0
LINE
  5
5BF
330
1F
100
AcDbEntity
  8
0
100
AcDbLine
 10
34.49999532091192
 20
164.4738123469825
 30
0.0
 11
34.49999532091192
 21
180.9738123469826
 31
0.0
  0
LINE
  5
5C0
330
1F
100
AcDbEntity
  8
0
100
AcDbLine
 10
53.49999532091192
 20
164.4738123469825
 30
0.0
 11
53.49999532091192
 21
180.9738123469826
 31
0.0
  0
LINE
  5
5C1
330
1F
100
AcDbEntity
  8
0
100
AcDbLine
 10
51.49999532091192
 20
180.9738123469826
 30
0.0
 11
51.49999532091192
 21
173.9738123469826
 31
0.0
  0
LINE
  5
5C2
330
1F
100
AcDbEntity
  8
0
100
AcDbLine
 10
49.09999532091183
 20
185.9738123469826
 30
0.0
 11
49.09999532091183
 21
191.4738123469826
 31
0.0
  0
CIRCLE
  5
5C3
330
1F
100
AcDbEntity
  8
0
100
AcDbCircle
 10
45.66999532091176
 20
187.4738123469826
 30
0.0
 40
0.32
  0
CIRCLE
  5
5C4
330
1F
100
AcDbEntity
  8
0
100
AcDbCircle
 10
45.66999532091176
 20
189.9738123469824
 30
0.0
 40
0.32
  0
LINE
  5
5C5
330
1F
100
AcDbEntity
  8
0
100
AcDbLine
 10
42.59999532091183
 20
185.9738123469826
 30
0.0
 11
43.59999532091181
 21
185.9738123469826
 31
0.0
  0
LINE
  5
5C6
330
1F
100
AcDbEntity
  8
0
100
AcDbLine
 10
43.59999532091181
 20
185.9738123469826
 30
0.0
 11
43.59999532091181
 21
191.4738123469826
 31
0.0
  0
LINE
  5
5C7
330
1F
100
AcDbEntity
  8
0
100
AcDbLine
 10
43.59999532091181
 20
187.9738123469826
 30
0.0
 11
43.59999532091181
 21
189.4738123469826
 31
0.0
  0
LINE
  5
5C8
330
1F
100
AcDbEntity
  8
0
100
AcDbLine
 10
43.59999532091181
 20
189.4738123469826
 30
0.0
 11
42.59999532091183
 21
189.4738123469826
 31
0.0
  0
LINE
  5
5C9
330
1F
100
AcDbEntity
  8
0
100
AcDbLine
 10
42.59999532091183
 20
189.4738123469826
 30
0.0
 11
42.59999532091183
 21
187.9738123469826
 31
0.0
  0
LINE
  5
5CA
330
1F
100
AcDbEntity
  8
0
100
AcDbLine
 10
42.59999532091183
 20
187.9738123469826
 30
0.0
 11
43.59999532091181
 21
187.9738123469826
 31
0.0
  0
LINE
  5
5CB
330
1F
100
AcDbEntity
  8
0
100
AcDbLine
 10
49.09999532091183
 20
191.4738123469826
 30
0.0
 11
42.59999532091183
 21
191.4738123469826
 31
0.0
  0
LINE
  5
5CC
330
1F
100
AcDbEntity
  8
0
100
AcDbLine
 10
42.59999532091183
 20
191.4738123469826
 30
0.0
 11
42.59999532091183
 21
185.9738123469826
 31
0.0
  0
LINE
  5
5CD
330
1F
100
AcDbEntity
  8
0
100
AcDbLine
 10
42.59999532091183
 20
185.9738123469826
 30
0.0
 11
49.09999532091183
 21
185.9738123469826
 31
0.0
  0
CIRCLE
  5
5CE
330
1F
100
AcDbEntity
  8
0
100
AcDbCircle
 10
18.09999532091182
 20
238.6138123469824
 30
0.0
 40
0.75
  0
LINE
  5
5CF
330
1F
100
AcDbEntity
  8
0
100
AcDbLine
 10
22.59999532091182
 20
234.6138123469824
 30
0.0
 11
22.59999532091182
 21
265.1138123469825
 31
0.0
  0
LINE
  5
5D0
330
1F
100
AcDbEntity
  8
0
100
AcDbLine
 10
14.09999532091183
 20
270.4738123469826
 30
0.0
 11
14.09999532091183
 21
229.6138123469825
 31
0.0
  0
LINE
  5
5D1
330
1F
100
AcDbEntity
  8
0
100
AcDbLine
 10
20.29999532091165
 20
239.9238123469825
 30
0.0
 11
20.29999532091165
 21
237.3038123469825
 31
0.0
  0
ARC
  5
5D2
330
1F
100
AcDbEntity
  8
0
100
AcDbCircle
 10
18.09999532091182
 20
238.6138123469824
 30
0.0
 40
2.9
100
AcDbArc
 50
133.6028189726939
 51
226.3971810273058
  0
CIRCLE
  5
5D3
330
1F
100
AcDbEntity
  8
0
100
AcDbCircle
 10
18.09999532091182
 20
238.6138123469824
 30
0.0
 40
1.5
  0
CIRCLE
  5
5D4
330
1F
100
AcDbEntity
  8
0
100
AcDbCircle
 10
18.06360926050865
 20
232.5138123469826
 30
0.0
 40
2.0
  0
LINE
  5
5D5
330
1F
100
AcDbEntity
  8
0
100
AcDbLine
 10
14.09999532091183
 20
229.6138123469825
 30
0.0
 11
21.09999532091181
 21
229.6138123469825
 31
0.0
  0
LINE
  5
5D6
330
1F
100
AcDbEntity
  8
0
100
AcDbLine
 10
16.09999532091183
 20
235.6138123469825
 30
0.0
 11
21.09999532091181
 21
235.6138123469825
 31
0.0
  0
LINE
  5
5D7
330
1F
100
AcDbEntity
  8
0
100
AcDbLine
 10
16.09999532091183
 20
236.5138123469824
 30
0.0
 11
16.09999532091183
 21
235.6138123469825
 31
0.0
  0
LINE
  5
5D8
330
1F
100
AcDbEntity
  8
0
100
AcDbLine
 10
21.09999532091181
 20
229.6138123469825
 30
0.0
 11
21.09999532091181
 21
234.6138123469824
 31
0.0
  0
CIRCLE
  5
5D9
330
1F
100
AcDbEntity
  8
0
100
AcDbCircle
 10
18.06360926050865
 20
232.5138123469826
 30
0.0
 40
0.9
  0
LINE
  5
5DA
330
1F
100
AcDbEntity
  8
0
100
AcDbLine
 10
21.09999532091181
 20
234.6138123469824
 30
0.0
 11
22.59999532091182
 21
234.6138123469824
 31
0.0
  0
LINE
  5
5DB
330
1F
100
AcDbEntity
  8
0
100
AcDbLine
 10
20.29999532091165
 20
237.3038123469825
 30
0.0
 11
21.09999532091181
 21
237.3038123469825
 31
0.0
  0
LINE
  5
5DC
330
1F
100
AcDbEntity
  8
0
100
AcDbLine
 10
21.09999532091181
 20
237.3038123469825
 30
0.0
 11
21.09999532091181
 21
235.6138123469825
 31
0.0
  0
ARC
  5
5DD
330
1F
100
AcDbEntity
  8
0
100
AcDbCircle
 10
18.09999532091182
 20
261.4738123469826
 30
0.0
 40
2.9
100
AcDbArc
 50
133.6028189726939
 51
226.3971810273058
  0
LINE
  5
5DE
330
1F
100
AcDbEntity
  8
0
100
AcDbLine
 10
21.09999532091181
 20
260.1638123469824
 30
0.0
 11
21.09999532091181
 21
255.1638123469824
 31
0.0
  0
LINE
  5
5DF
330
1F
100
AcDbEntity
  8
0
100
AcDbLine
 10
21.09999532091181
 20
252.5438123469824
 30
0.0
 11
21.09999532091181
 21
247.5438123469825
 31
0.0
  0
LINE
  5
5E0
330
1F
100
AcDbEntity
  8
0
100
AcDbLine
 10
16.09999532091183
 20
251.7538123469825
 30
0.0
 11
16.09999532091183
 21
248.3338123469825
 31
0.0
  0
ARC
  5
5E1
330
1F
100
AcDbEntity
  8
0
100
AcDbCircle
 10
18.09999532091182
 20
246.2338123469826
 30
0.0
 40
2.9
100
AcDbArc
 50
133.6028189726939
 51
226.3971810273058
  0
LINE
  5
5E2
330
1F
100
AcDbEntity
  8
0
100
AcDbLine
 10
16.09999532091183
 20
244.1338123469825
 30
0.0
 11
16.09999532091183
 21
240.7138123469826
 31
0.0
  0
CIRCLE
  5
5E3
330
1F
100
AcDbEntity
  8
0
100
AcDbCircle
 10
18.09999532091182
 20
246.2338123469826
 30
0.0
 40
1.5
  0
LINE
  5
5E4
330
1F
100
AcDbEntity
  8
0
100
AcDbLine
 10
21.09999532091181
 20
244.9238123469827
 30
0.0
 11
21.09999532091181
 21
239.9238123469825
 31
0.0
  0
LINE
  5
5E5
330
1F
100
AcDbEntity
  8
0
100
AcDbLine
 10
20.29999532091165
 20
239.9238123469825
 30
0.0
 11
21.09999532091181
 21
239.9238123469825
 31
0.0
  0
LINE
  5
5E6
330
1F
100
AcDbEntity
  8
0
100
AcDbLine
 10
22.59999532091182
 20
242.1638123469824
 30
0.0
 11
24.29999532091164
 21
242.1638123469824
 31
0.0
  0
LINE
  5
5E7
330
1F
100
AcDbEntity
  8
0
100
AcDbLine
 10
24.29999532091164
 20
240.5638123469825
 30
0.0
 11
22.59999532091182
 21
240.5638123469825
 31
0.0
  0
LINE
  5
5E8
330
1F
100
AcDbEntity
  8
0
100
AcDbLine
 10
24.29999532091164
 20
242.1638123469824
 30
0.0
 11
24.29999532091164
 21
240.5638123469825
 31
0.0
  0
CIRCLE
  5
5E9
330
1F
100
AcDbEntity
  8
0
100
AcDbCircle
 10
18.09999532091182
 20
246.2338123469826
 30
0.0
 40
0.75
  0
LINE
  5
5EA
330
1F
100
AcDbEntity
  8
0
100
AcDbLine
 10
20.29999532091165
 20
244.9238123469827
 30
0.0
 11
21.09999532091181
 21
244.9238123469827
 31
0.0
  0
LINE
  5
5EB
330
1F
100
AcDbEntity
  8
0
100
AcDbLine
 10
20.29999532091165
 20
247.5438123469825
 30
0.0
 11
21.09999532091181
 21
247.5438123469825
 31
0.0
  0
LINE
  5
5EC
330
1F
100
AcDbEntity
  8
0
100
AcDbLine
 10
20.29999532091165
 20
247.5438123469825
 30
0.0
 11
20.29999532091165
 21
244.9238123469827
 31
0.0
  0
ARC
  5
5ED
330
1F
100
AcDbEntity
  8
0
100
AcDbCircle
 10
18.09999532091182
 20
253.8538123469824
 30
0.0
 40
2.9
100
AcDbArc
 50
133.6028189726939
 51
226.3971810273058
  0
LINE
  5
5EE
330
1F
100
AcDbEntity
  8
0
100
AcDbLine
 10
16.09999532091183
 20
259.3738123469825
 30
0.0
 11
16.09999532091183
 21
255.9538123469826
 31
0.0
  0
LINE
  5
5EF
330
1F
100
AcDbEntity
  8
0
100
AcDbLine
 10
24.29999532091164
 20
257.5638123469825
 30
0.0
 11
22.59999532091182
 21
257.5638123469825
 31
0.0
  0
LINE
  5
5F0
330
1F
100
AcDbEntity
  8
0
100
AcDbLine
 10
24.29999532091164
 20
259.1638123469824
 30
0.0
 11
22.59999532091182
 21
259.1638123469824
 31
0.0
  0
LINE
  5
5F1
330
1F
100
AcDbEntity
  8
0
100
AcDbLine
 10
24.29999532091164
 20
259.1638123469824
 30
0.0
 11
24.29999532091164
 21
257.5638123469825
 31
0.0
  0
LINE
  5
5F2
330
1F
100
AcDbEntity
  8
0
100
AcDbLine
 10
20.29999532091165
 20
255.1638123469824
 30
0.0
 11
21.09999532091181
 21
255.1638123469824
 31
0.0
  0
CIRCLE
  5
5F3
330
1F
100
AcDbEntity
  8
0
100
AcDbCircle
 10
18.09999532091182
 20
253.8538123469824
 30
0.0
 40
0.75
  0
LINE
  5
5F4
330
1F
100
AcDbEntity
  8
0
100
AcDbLine
 10
20.29999532091165
 20
252.5438123469824
 30
0.0
 11
21.09999532091181
 21
252.5438123469824
 31
0.0
  0
CIRCLE
  5
5F5
330
1F
100
AcDbEntity
  8
0
100
AcDbCircle
 10
18.09999532091182
 20
253.8538123469824
 30
0.0
 40
1.5
  0
LINE
  5
5F6
330
1F
100
AcDbEntity
  8
0
100
AcDbLine
 10
20.29999532091165
 20
255.1638123469824
 30
0.0
 11
20.29999532091165
 21
252.5438123469824
 31
0.0
  0
LINE
  5
5F7
330
1F
100
AcDbEntity
  8
0
100
AcDbLine
 10
21.09999532091181
 20
265.4738123469826
 30
0.0
 11
21.09999532091181
 21
270.4738123469826
 31
0.0
  0
CIRCLE
  5
5F8
330
1F
100
AcDbEntity
  8
0
100
AcDbCircle
 10
18.09999532091182
 20
267.5738123469824
 30
0.0
 40
2.0
  0
LINE
  5
5F9
330
1F
100
AcDbEntity
  8
0
100
AcDbLine
 10
21.09999532091181
 20
264.1138123469825
 30
0.0
 11
16.09999532091183
 21
264.1138123469825
 31
0.0
  0
LINE
  5
5FA
330
1F
100
AcDbEntity
  8
0
100
AcDbLine
 10
16.09999532091183
 20
264.1138123469825
 30
0.0
 11
16.09999532091183
 21
263.5738123469824
 31
0.0
  0
LINE
  5
5FB
330
1F
100
AcDbEntity
  8
0
100
AcDbLine
 10
21.09999532091181
 20
265.4738123469826
 30
0.0
 11
22.59999532091182
 21
265.4738123469826
 31
0.0
  0
CIRCLE
  5
5FC
330
1F
100
AcDbEntity
  8
0
100
AcDbCircle
 10
18.09999532091182
 20
267.5738123469824
 30
0.0
 40
0.9
  0
LINE
  5
5FD
330
1F
100
AcDbEntity
  8
0
100
AcDbLine
 10
20.29999532091165
 20
262.7838123469826
 30
0.0
 11
21.09999532091181
 21
262.7838123469826
 31
0.0
  0
LINE
  5
5FE
330
1F
100
AcDbEntity
  8
0
100
AcDbLine
 10
21.09999532091181
 20
264.1138123469825
 30
0.0
 11
21.09999532091181
 21
262.7838123469826
 31
0.0
  0
LINE
  5
5FF
330
1F
100
AcDbEntity
  8
0
100
AcDbLine
 10
20.29999532091165
 20
260.1638123469824
 30
0.0
 11
21.09999532091181
 21
260.1638123469824
 31
0.0
  0
CIRCLE
  5
600
330
1F
100
AcDbEntity
  8
0
100
AcDbCircle
 10
18.09999532091182
 20
261.4738123469826
 30
0.0
 40
0.75
  0
LINE
  5
601
330
1F
100
AcDbEntity
  8
0
100
AcDbLine
 10
20.29999532091165
 20
262.7838123469826
 30
0.0
 11
20.29999532091165
 21
260.1638123469824
 31
0.0
  0
CIRCLE
  5
602
330
1F
100
AcDbEntity
  8
0
100
AcDbCircle
 10
18.09999532091182
 20
261.4738123469826
 30
0.0
 40
1.5
  0
LINE
  5
603
330
1F
100
AcDbEntity
  8
0
100
AcDbLine
 10
22.59999532091182
 20
265.4738123469826
 30
0.0
 11
22.59999532091182
 21
265.1138123469825
 31
0.0
  0
LINE
  5
604
330
1F
100
AcDbEntity
  8
0
100
AcDbLine
 10
14.09999532091183
 20
270.4738123469826
 30
0.0
 11
21.09999532091181
 21
270.4738123469826
 31
0.0
  0
LINE
  5
605
330
1F
100
AcDbEntity
  8
0
100
AcDbLine
 10
14.09999532091183
 20
265.2338123469826
 30
0.0
 11
14.09999532091183
 21
270.4738123469826
 31
0.0
  0
LINE
  5
606
330
1F
100
AcDbEntity
  8
0
100
AcDbLine
 10
14.09999532091183
 20
270.4738123469826
 30
0.0
 11
21.09999532091181
 21
270.4738123469826
 31
0.0
  0
LINE
  5
607
330
1F
100
AcDbEntity
  8
0
100
AcDbLine
 10
21.09999532091181
 20
270.4738123469826
 30
0.0
 11
21.09999532091181
 21
265.2338123469826
 31
0.0
  0
LINE
  5
608
330
1F
100
AcDbEntity
  8
0
100
AcDbLine
 10
14.09999532091183
 20
234.8538123469825
 30
0.0
 11
14.09999532091183
 21
229.6138123469825
 31
0.0
  0
LINE
  5
609
330
1F
100
AcDbEntity
  8
0
100
AcDbLine
 10
14.09999532091183
 20
229.6138123469825
 30
0.0
 11
21.09999532091181
 21
229.6138123469825
 31
0.0
  0
LINE
  5
60A
330
1F
100
AcDbEntity
  8
0
100
AcDbLine
 10
21.09999532091181
 20
229.6138123469825
 30
0.0
 11
21.09999532091181
 21
234.8538123469825
 31
0.0
  0
LINE
  5
60B
330
1F
100
AcDbEntity
  8
0
100
AcDbLine
 10
41.19999532091195
 20
242.0738123469825
 30
0.0
 11
49.09999532091183
 21
242.0738123469825
 31
0.0
  0
LINE
  5
60C
330
1F
100
AcDbEntity
  8
0
100
AcDbLine
 10
42.14999532091177
 20
243.0738123469824
 30
0.0
 11
48.14999532091178
 21
243.0738123469824
 31
0.0
  0
LINE
  5
60D
330
1F
100
AcDbEntity
  8
0
100
AcDbLine
 10
43.14999532091177
 20
243.0738123469824
 30
0.0
 11
44.14999532091179
 21
243.0738123469824
 31
0.0
  0
LINE
  5
60E
330
1F
100
AcDbEntity
  8
0
100
AcDbLine
 10
44.94999532091195
 20
243.0738123469824
 30
0.0
 11
44.94999532091195
 21
246.0738123469825
 31
0.0
  0
LINE
  5
60F
330
1F
100
AcDbEntity
  8
0
100
AcDbLine
 10
48.14999532091178
 20
243.0738123469824
 30
0.0
 11
48.14999532091178
 21
246.0738123469825
 31
0.0
  0
LINE
  5
610
330
1F
100
AcDbEntity
  8
0
100
AcDbLine
 10
48.14999532091178
 20
246.0738123469825
 30
0.0
 11
42.14999532091177
 21
246.0738123469825
 31
0.0
  0
LINE
  5
611
330
1F
100
AcDbEntity
  8
0
100
AcDbLine
 10
42.14999532091177
 20
246.0738123469825
 30
0.0
 11
42.14999532091177
 21
243.0738123469824
 31
0.0
  0
LINE
  5
612
330
1F
100
AcDbEntity
  8
0
100
AcDbLine
 10
44.14999532091179
 20
243.0738123469824
 30
0.0
 11
44.14999532091179
 21
246.0738123469825
 31
0.0
  0
LINE
  5
613
330
1F
100
AcDbEntity
  8
0
100
AcDbLine
 10
44.14999532091179
 20
246.0738123469825
 30
0.0
 11
43.14999532091177
 21
246.0738123469825
 31
0.0
  0
LINE
  5
614
330
1F
100
AcDbEntity
  8
0
100
AcDbLine
 10
43.14999532091177
 20
246.0738123469825
 30
0.0
 11
43.14999532091177
 21
243.0738123469824
 31
0.0
  0
LINE
  5
615
330
1F
100
AcDbEntity
  8
0
100
AcDbLine
 10
49.09999532091183
 20
242.0738123469825
 30
0.0
 11
49.09999532091183
 21
247.0738123469824
 31
0.0
  0
LINE
  5
616
330
1F
100
AcDbEntity
  8
0
100
AcDbLine
 10
49.09999532091183
 20
247.0738123469824
 30
0.0
 11
41.19999532091195
 21
247.0738123469824
 31
0.0
  0
LINE
  5
617
330
1F
100
AcDbEntity
  8
0
100
AcDbLine
 10
41.19999532091195
 20
247.0738123469824
 30
0.0
 11
41.19999532091195
 21
242.0738123469825
 31
0.0
  0
CIRCLE
  5
618
330
1F
100
AcDbEntity
  8
0
100
AcDbCircle
 10
2.499995320912828
 20
203.9738123469826
 30
0.0
 40
2.149999999999999
  0
CIRCLE
  5
619
330
1F
100
AcDbEntity
  8
0
100
AcDbCircle
 10
2.499995320912828
 20
203.9738123469826
 30
0.0
 40
1.85
  0
LINE
  5
61A
330
1F
100
AcDbEntity
  8
0
100
AcDbLine
 10
1.149995320912694
 20
203.6738123469826
 30
0.0
 11
3.849995320912738
 21
203.6738123469826
 31
0.0
  0
LINE
  5
61B
330
1F
100
AcDbEntity
  8
0
100
AcDbLine
 10
2.349995320912739
 20
203.9738123469826
 30
0.0
 11
2.349995320912739
 21
205.3238123469824
 31
0.0
  0
LINE
  5
61C
330
1F
100
AcDbEntity
  8
0
100
AcDbLine
 10
2.649995320911784
 20
203.9738123469826
 30
0.0
 11
2.649995320911784
 21
205.3238123469824
 31
0.0
  0
ARC
  5
61D
330
1F
100
AcDbEntity
  8
0
100
AcDbCircle
 10
2.499995320912828
 20
205.3238123469824
 30
0.0
 40
0.15
100
AcDbArc
 50
0.0
 51
180.0
  0
ARC
  5
61E
330
1F
100
AcDbEntity
  8
0
100
AcDbCircle
 10
1.149995320912694
 20
203.8238123469824
 30
0.0
 40
0.15
100
AcDbArc
 50
90.0
 51
270.0
  0
ARC
  5
61F
330
1F
100
AcDbEntity
  8
0
100
AcDbCircle
 10
3.849995320912738
 20
203.8238123469824
 30
0.0
 40
0.15
100
AcDbArc
 50
270.0
 51
90.0
  0
LINE
  5
620
330
1F
100
AcDbEntity
  8
0
100
AcDbLine
 10
1.149995320912694
 20
203.9738123469826
 30
0.0
 11
2.349995320912739
 21
203.9738123469826
 31
0.0
  0
LINE
  5
621
330
1F
100
AcDbEntity
  8
0
100
AcDbLine
 10
2.649995320911784
 20
203.9738123469826
 30
0.0
 11
3.849995320912738
 21
203.9738123469826
 31
0.0
  0
LINE
  5
622
330
1F
100
AcDbEntity
  8
0
100
AcDbLine
 10
1.549995320912785
 20
203.3238123469824
 30
0.0
 11
3.449995320911738
 21
203.3238123469824
 31
0.0
  0
LINE
  5
623
330
1F
100
AcDbEntity
  8
0
100
AcDbLine
 10
1.549995320912785
 20
203.0238123469826
 30
0.0
 11
3.449995320911738
 21
203.0238123469826
 31
0.0
  0
LINE
  5
624
330
1F
100
AcDbEntity
  8
0
100
AcDbLine
 10
1.949995320912874
 20
202.6738123469824
 30
0.0
 11
3.049995320911647
 21
202.6738123469824
 31
0.0
  0
LINE
  5
625
330
1F
100
AcDbEntity
  8
0
100
AcDbLine
 10
1.949995320912874
 20
202.3738123469825
 30
0.0
 11
3.049995320911647
 21
202.3738123469825
 31
0.0
  0
ARC
  5
626
330
1F
100
AcDbEntity
  8
0
100
AcDbCircle
 10
1.949995320912874
 20
202.5238123469825
 30
0.0
 40
0.15
100
AcDbArc
 50
90.0
 51
270.0
  0
ARC
  5
627
330
1F
100
AcDbEntity
  8
0
100
AcDbCircle
 10
3.049995320911647
 20
202.5238123469825
 30
0.0
 40
0.15
100
AcDbArc
 50
270.0
 51
90.0
  0
ARC
  5
628
330
1F
100
AcDbEntity
  8
0
100
AcDbCircle
 10
1.549995320912785
 20
203.1738123469827
 30
0.0
 40
0.15
100
AcDbArc
 50
90.0
 51
270.0
  0
ARC
  5
629
330
1F
100
AcDbEntity
  8
0
100
AcDbCircle
 10
3.449995320911738
 20
203.1738123469827
 30
0.0
 40
0.15
100
AcDbArc
 50
270.0
 51
90.0
  0
LINE
  5
62A
330
1F
100
AcDbEntity
  8
0
100
AcDbLine
 10
49.09999532091183
 20
241.5738123469825
 30
0.0
 11
41.84999532091183
 21
241.5738123469825
 31
0.0
  0
CIRCLE
  5
62B
330
1F
100
AcDbEntity
  8
0
100
AcDbCircle
 10
45.59999532091183
 20
235.6238123469825
 30
0.0
 40
1.0
  0
CIRCLE
  5
62C
330
1F
100
AcDbEntity
  8
0
100
AcDbCircle
 10
45.59999532091183
 20
239.1238123469825
 30
0.0
 40
1.0
  0
LINE
  5
62D
330
1F
100
AcDbEntity
  8
0
100
AcDbLine
 10
41.84999532091183
 20
241.5738123469825
 30
0.0
 11
41.84999532091183
 21
233.1738123469826
 31
0.0
  0
LINE
  5
62E
330
1F
100
AcDbEntity
  8
0
100
AcDbLine
 10
41.84999532091183
 20
233.1738123469826
 30
0.0
 11
49.09999532091183
 21
233.1738123469826
 31
0.0
  0
LINE
  5
62F
330
1F
100
AcDbEntity
  8
0
100
AcDbLine
 10
49.09999532091183
 20
233.1738123469826
 30
0.0
 11
49.09999532091183
 21
241.5738123469825
 31
0.0
  0
LINE
  5
630
330
1F
100
AcDbEntity
  8
0
100
AcDbLine
 10
41.19999532091195
 20
262.0738123469824
 30
0.0
 11
49.09999532091183
 21
262.0738123469824
 31
0.0
  0
LINE
  5
631
330
1F
100
AcDbEntity
  8
0
100
AcDbLine
 10
42.14999532091177
 20
263.0738123469825
 30
0.0
 11
48.14999532091178
 21
263.0738123469825
 31
0.0
  0
LINE
  5
632
330
1F
100
AcDbEntity
  8
0
100
AcDbLine
 10
43.14999532091177
 20
263.0738123469825
 30
0.0
 11
44.14999532091179
 21
263.0738123469825
 31
0.0
  0
LINE
  5
633
330
1F
100
AcDbEntity
  8
0
100
AcDbLine
 10
44.94999532091195
 20
263.0738123469825
 30
0.0
 11
44.94999532091195
 21
266.0738123469824
 31
0.0
  0
LINE
  5
634
330
1F
100
AcDbEntity
  8
0
100
AcDbLine
 10
49.09999532091183
 20
262.0738123469824
 30
0.0
 11
49.09999532091183
 21
267.0738123469825
 31
0.0
  0
LINE
  5
635
330
1F
100
AcDbEntity
  8
0
100
AcDbLine
 10
49.09999532091183
 20
267.0738123469825
 30
0.0
 11
41.19999532091195
 21
267.0738123469825
 31
0.0
  0
LINE
  5
636
330
1F
100
AcDbEntity
  8
0
100
AcDbLine
 10
41.19999532091195
 20
267.0738123469825
 30
0.0
 11
41.19999532091195
 21
262.0738123469824
 31
0.0
  0
LINE
  5
637
330
1F
100
AcDbEntity
  8
0
100
AcDbLine
 10
44.14999532091179
 20
263.0738123469825
 30
0.0
 11
44.14999532091179
 21
266.0738123469824
 31
0.0
  0
LINE
  5
638
330
1F
100
AcDbEntity
  8
0
100
AcDbLine
 10
44.14999532091179
 20
266.0738123469824
 30
0.0
 11
43.14999532091177
 21
266.0738123469824
 31
0.0
  0
LINE
  5
639
330
1F
100
AcDbEntity
  8
0
100
AcDbLine
 10
43.14999532091177
 20
266.0738123469824
 30
0.0
 11
43.14999532091177
 21
263.0738123469825
 31
0.0
  0
LINE
  5
63A
330
1F
100
AcDbEntity
  8
0
100
AcDbLine
 10
48.14999532091178
 20
263.0738123469825
 30
0.0
 11
48.14999532091178
 21
266.0738123469824
 31
0.0
  0
LINE
  5
63B
330
1F
100
AcDbEntity
  8
0
100
AcDbLine
 10
48.14999532091178
 20
266.0738123469824
 30
0.0
 11
42.14999532091177
 21
266.0738123469824
 31
0.0
  0
LINE
  5
63C
330
1F
100
AcDbEntity
  8
0
100
AcDbLine
 10
42.14999532091177
 20
266.0738123469824
 30
0.0
 11
42.14999532091177
 21
263.0738123469825
 31
0.0
  0
CIRCLE
  5
63D
330
1F
100
AcDbEntity
  8
0
100
AcDbCircle
 10
42.59999532091272
 20
254.5738123469825
 30
0.0
 40
5.5
  0
LINE
  5
63E
330
1F
100
AcDbEntity
  8
0
100
AcDbLine
 10
36.29999532091186
 20
247.5738123469824
 30
0.0
 11
36.29999532091186
 21
261.5738123469824
 31
0.0
  0
LINE
  5
63F
330
1F
100
AcDbEntity
  8
0
100
AcDbLine
 10
49.09999532091274
 20
247.5738123469824
 30
0.0
 11
49.09999532091274
 21
253.4738123469826
 31
0.0
  0
LINE
  5
640
330
1F
100
AcDbEntity
  8
0
100
AcDbLine
 10
49.09999532091274
 20
247.5738123469824
 30
0.0
 11
36.29999532091186
 21
247.5738123469824
 31
0.0
  0
LINE
  5
641
330
1F
100
AcDbEntity
  8
0
100
AcDbLine
 10
49.09999532091274
 20
261.5738123469824
 30
0.0
 11
36.29999532091186
 21
261.5738123469824
 31
0.0
  0
LINE
  5
642
330
1F
100
AcDbEntity
  8
0
100
AcDbLine
 10
49.09999532091274
 20
255.6738123469826
 30
0.0
 11
49.09999532091274
 21
261.5738123469824
 31
0.0
  0
LINE
  5
643
330
1F
100
AcDbEntity
  8
0
100
AcDbLine
 10
14.09999532091274
 20
306.0738121876386
 30
0.0
 11
14.09999532091274
 21
339.0738121876386
 31
0.0
  0
LINE
  5
644
330
1F
100
AcDbEntity
  8
0
100
AcDbLine
 10
14.09999532091274
 20
275.9738121876385
 30
0.0
 11
14.09999532091274
 21
302.1738121876385
 31
0.0
  0
LINE
  5
645
330
1F
100
AcDbEntity
  8
0
100
AcDbLine
 10
49.09999532091274
 20
267.5738121876384
 30
0.0
 11
49.09999532091274
 21
232.6738121876385
 31
0.0
  0
LINE
  5
646
330
1F
100
AcDbEntity
  8
0
100
AcDbLine
 10
49.09999532091274
 20
230.6738121876385
 30
0.0
 11
49.09999532091274
 21
185.1738121876385
 31
0.0
  0
ARC
  5
647
330
1F
100
AcDbEntity
  8
0
100
AcDbCircle
 10
28.99999532091282
 20
359.9738123469826
 30
0.0
 40
5.5
100
AcDbArc
 50
294.6199773286481
 51
0.0
  0
ARC
  5
648
330
1F
100
AcDbEntity
  8
0
100
AcDbCircle
 10
28.99999532091282
 20
175.9738123469826
 30
0.0
 40
5.5
100
AcDbArc
 50
114.6199773286481
 51
180.0
  0
LINE
  5
649
330
1F
100
AcDbEntity
  8
0
100
AcDbLine
 10
53.49999532091192
 20
170.9738123469825
 30
0.0
 11
56.99999532091283
 21
170.9738123469825
 31
0.0
  0
LINE
  5
64A
330
1F
100
AcDbEntity
  8
0
  6
CONTINUOUS
 62
     0
100
AcDbLine
 10
48.18999532091289
 20
299.1488123469835
 30
0.0
 11
48.18999532091289
 21
286.6488123469823
 31
0.0
  0
LINE
  5
64B
330
1F
100
AcDbEntity
  8
0
  6
CONTINUOUS
 62
     0
100
AcDbLine
 10
48.18999532091289
 20
286.6488123469823
 30
0.0
 11
43.06999532091277
 21
286.6488123469823
 31
0.0
  0
LINE
  5
64C
330
1F
100
AcDbEntity
  8
0
  6
CONTINUOUS
 62
     0
100
AcDbLine
 10
43.06999532091277
 20
286.6488123469823
 30
0.0
 11
43.06999532091277
 21
299.1488123469835
 31
0.0
  0
LINE
  5
64D
330
1F
100
AcDbEntity
  8
0
  6
CONTINUOUS
 62
     0
100
AcDbLine
 10
43.06999532091277
 20
299.1488123469835
 30
0.0
 11
48.18999532091289
 21
299.1488123469835
 31
0.0
  0
LINE
  5
64E
330
1F
100
AcDbEntity
  8
0
  6
CONTINUOUS
 62
     0
100
AcDbLine
 10
39.68999532091288
 20
299.1488123469835
 30
0.0
 11
39.68999532091288
 21
286.6488123469823
 31
0.0
  0
LINE
  5
64F
330
1F
100
AcDbEntity
  8
0
  6
CONTINUOUS
 62
     0
100
AcDbLine
 10
39.68999532091288
 20
286.6488123469823
 30
0.0
 11
34.56999532091185
 21
286.6488123469823
 31
0.0
  0
LINE
  5
650
330
1F
100
AcDbEntity
  8
0
  6
CONTINUOUS
 62
     0
100
AcDbLine
 10
34.56999532091185
 20
286.6488123469823
 30
0.0
 11
34.56999532091185
 21
299.1488123469835
 31
0.0
  0
LINE
  5
651
330
1F
100
AcDbEntity
  8
0
  6
CONTINUOUS
 62
     0
100
AcDbLine
 10
34.56999532091185
 20
299.1488123469835
 30
0.0
 11
39.68999532091288
 21
299.1488123469835
 31
0.0
  0
LINE
  5
652
330
1F
100
AcDbEntity
  8
0
  6
CONTINUOUS
 62
     0
100
AcDbLine
 10
33.56999532091275
 20
299.5488123469826
 30
0.0
 11
33.56999532091275
 21
293.8988123469826
 31
0.0
  0
LINE
  5
653
330
1F
100
AcDbEntity
  8
0
  6
CONTINUOUS
 62
     0
100
AcDbLine
 10
49.18999532091288
 20
299.5488123469826
 30
0.0
 11
33.56999532091275
 21
299.5488123469826
 31
0.0
  0
LINE
  5
654
330
1F
100
AcDbEntity
  8
0
  6
CONTINUOUS
 62
     0
100
AcDbLine
 10
33.56999532091275
 20
286.2488123469832
 30
0.0
 11
49.18999532091288
 21
286.2488123469832
 31
0.0
  0
LINE
  5
655
330
1F
100
AcDbEntity
  8
0
  6
CONTINUOUS
 62
     0
100
AcDbLine
 10
48.58999532091274
 20
300.1488123469826
 30
0.0
 11
48.58999532091274
 21
285.6488123469826
 31
0.0
  0
LINE
  5
656
330
1F
100
AcDbEntity
  8
0
  6
CONTINUOUS
 62
     0
100
AcDbLine
 10
34.1699953209129
 20
300.1488123469826
 30
0.0
 11
34.1699953209129
 21
285.6488123469826
 31
0.0
  0
LINE
  5
657
330
1F
100
AcDbEntity
  8
0
  6
CONTINUOUS
 62
     0
100
AcDbLine
 10
32.99999532091283
 20
286.6488123469823
 30
0.0
 11
32.99999532091283
 21
299.1488123469835
 31
0.0
  0
LINE
  5
658
330
1F
100
AcDbEntity
  8
0
  6
CONTINUOUS
 62
     0
100
AcDbLine
 10
32.99999532091283
 20
300.6188123469833
 30
0.0
 11
32.99999532091283
 21
298.3188123469833
 31
0.0
  0
LINE
  5
659
330
1F
100
AcDbEntity
  8
0
  6
CONTINUOUS
 62
     0
100
AcDbLine
 10
32.99999532091283
 20
287.4788123469833
 30
0.0
 11
32.99999532091283
 21
285.1788123469832
 31
0.0
  0
LINE
  5
65A
330
1F
100
AcDbEntity
  8
0
  6
CONTINUOUS
 62
     0
100
AcDbLine
 10
32.99999532091283
 20
297.5188123469823
 30
0.0
 11
32.99999532091283
 21
288.2788123469834
 31
0.0
  0
LINE
  5
65B
330
1F
100
AcDbEntity
  8
0
  6
CONTINUOUS
 62
     0
100
AcDbLine
 10
45.62999532091271
 20
299.1488123469835
 30
0.0
 11
45.62999532091271
 21
286.6488123469823
 31
0.0
  0
LINE
  5
65C
330
1F
100
AcDbEntity
  8
0
  6
CONTINUOUS
 62
     0
100
AcDbLine
 10
37.12999532091271
 20
299.1488123469835
 30
0.0
 11
37.12999532091271
 21
286.6488123469823
 31
0.0
  0
LINE
  5
65D
330
1F
100
AcDbEntity
  8
0
  6
CONTINUOUS
 62
     0
100
AcDbLine
 10
37.12999532091271
 20
296.8588123469826
 30
0.0
 11
36.72999532091285
 21
296.8588123469826
 31
0.0
  0
LINE
  5
65E
330
1F
100
AcDbEntity
  8
0
  6
CONTINUOUS
 62
     0
100
AcDbLine
 10
36.72999532091285
 20
296.8588123469826
 30
0.0
 11
36.72999532091285
 21
295.9388123469825
 31
0.0
  0
LINE
  5
65F
330
1F
100
AcDbEntity
  8
0
  6
CONTINUOUS
 62
     0
100
AcDbLine
 10
36.72999532091285
 20
294.3588123469826
 30
0.0
 11
36.72999532091285
 21
293.4388123469825
 31
0.0
  0
LINE
  5
660
330
1F
100
AcDbEntity
  8
0
  6
CONTINUOUS
 62
     0
100
AcDbLine
 10
36.72999532091285
 20
292.3588123469826
 30
0.0
 11
36.72999532091285
 21
291.4388123469825
 31
0.0
  0
LINE
  5
661
330
1F
100
AcDbEntity
  8
0
  6
CONTINUOUS
 62
     0
100
AcDbLine
 10
36.72999532091285
 20
289.8588123469835
 30
0.0
 11
36.72999532091285
 21
288.9388123469823
 31
0.0
  0
LINE
  5
662
330
1F
100
AcDbEntity
  8
0
  6
CONTINUOUS
 62
     0
100
AcDbLine
 10
36.72999532091285
 20
295.9388123469825
 30
0.0
 11
37.12999532091271
 21
295.9388123469825
 31
0.0
  0
LINE
  5
663
330
1F
100
AcDbEntity
  8
0
  6
CONTINUOUS
 62
     0
100
AcDbLine
 10
36.72999532091285
 20
294.3588123469826
 30
0.0
 11
37.12999532091271
 21
294.3588123469826
 31
0.0
  0
LINE
  5
664
330
1F
100
AcDbEntity
  8
0
  6
CONTINUOUS
 62
     0
100
AcDbLine
 10
36.72999532091285
 20
293.4388123469825
 30
0.0
 11
37.12999532091271
 21
293.4388123469825
 31
0.0
  0
LINE
  5
665
330
1F
100
AcDbEntity
  8
0
  6
CONTINUOUS
 62
     0
100
AcDbLine
 10
36.72999532091285
 20
292.3588123469826
 30
0.0
 11
37.12999532091271
 21
292.3588123469826
 31
0.0
  0
LINE
  5
666
330
1F
100
AcDbEntity
  8
0
  6
CONTINUOUS
 62
     0
100
AcDbLine
 10
36.72999532091285
 20
291.4388123469825
 30
0.0
 11
37.12999532091271
 21
291.4388123469825
 31
0.0
  0
LINE
  5
667
330
1F
100
AcDbEntity
  8
0
  6
CONTINUOUS
 62
     0
100
AcDbLine
 10
36.72999532091285
 20
289.8588123469835
 30
0.0
 11
37.12999532091271
 21
289.8588123469835
 31
0.0
  0
LINE
  5
668
330
1F
100
AcDbEntity
  8
0
  6
CONTINUOUS
 62
     0
100
AcDbLine
 10
36.72999532091285
 20
288.9388123469823
 30
0.0
 11
37.12999532091271
 21
288.9388123469823
 31
0.0
  0
LINE
  5
669
330
1F
100
AcDbEntity
  8
0
  6
CONTINUOUS
 62
     0
100
AcDbLine
 10
45.12999532091271
 20
296.8588123469826
 30
0.0
 11
45.12999532091271
 21
295.9388123469825
 31
0.0
  0
LINE
  5
66A
330
1F
100
AcDbEntity
  8
0
  6
CONTINUOUS
 62
     0
100
AcDbLine
 10
45.12999532091271
 20
294.3588123469826
 30
0.0
 11
45.12999532091271
 21
293.4388123469825
 31
0.0
  0
LINE
  5
66B
330
1F
100
AcDbEntity
  8
0
  6
CONTINUOUS
 62
     0
100
AcDbLine
 10
45.12999532091271
 20
292.3588123469826
 30
0.0
 11
45.12999532091271
 21
291.4388123469825
 31
0.0
  0
LINE
  5
66C
330
1F
100
AcDbEntity
  8
0
  6
CONTINUOUS
 62
     0
100
AcDbLine
 10
45.12999532091271
 20
289.8588123469835
 30
0.0
 11
45.12999532091271
 21
288.9388123469823
 31
0.0
  0
LINE
  5
66D
330
1F
100
AcDbEntity
  8
0
  6
CONTINUOUS
 62
     0
100
AcDbLine
 10
45.12999532091271
 20
296.8588123469826
 30
0.0
 11
45.62999532091271
 21
296.8588123469826
 31
0.0
  0
LINE
  5
66E
330
1F
100
AcDbEntity
  8
0
  6
CONTINUOUS
 62
     0
100
AcDbLine
 10
45.12999532091271
 20
295.9388123469825
 30
0.0
 11
45.62999532091271
 21
295.9388123469825
 31
0.0
  0
LINE
  5
66F
330
1F
100
AcDbEntity
  8
0
  6
CONTINUOUS
 62
     0
100
AcDbLine
 10
45.12999532091271
 20
294.3588123469826
 30
0.0
 11
45.62999532091271
 21
294.3588123469826
 31
0.0
  0
LINE
  5
670
330
1F
100
AcDbEntity
  8
0
  6
CONTINUOUS
 62
     0
100
AcDbLine
 10
45.12999532091271
 20
293.4388123469825
 30
0.0
 11
45.62999532091271
 21
293.4388123469825
 31
0.0
  0
LINE
  5
671
330
1F
100
AcDbEntity
  8
0
  6
CONTINUOUS
 62
     0
100
AcDbLine
 10
45.12999532091271
 20
292.3588123469826
 30
0.0
 11
45.62999532091271
 21
292.3588123469826
 31
0.0
  0
LINE
  5
672
330
1F
100
AcDbEntity
  8
0
  6
CONTINUOUS
 62
     0
100
AcDbLine
 10
45.12999532091271
 20
291.4388123469825
 30
0.0
 11
45.62999532091271
 21
291.4388123469825
 31
0.0
  0
LINE
  5
673
330
1F
100
AcDbEntity
  8
0
  6
CONTINUOUS
 62
     0
100
AcDbLine
 10
45.12999532091271
 20
289.8588123469835
 30
0.0
 11
45.62999532091271
 21
289.8588123469835
 31
0.0
  0
LINE
  5
674
330
1F
100
AcDbEntity
  8
0
  6
CONTINUOUS
 62
     0
100
AcDbLine
 10
45.12999532091271
 20
288.9388123469823
 30
0.0
 11
45.62999532091271
 21
288.9388123469823
 31
0.0
  0
LINE
  5
675
330
1F
100
AcDbEntity
  8
0
  6
CONTINUOUS
 62
     0
100
AcDbLine
 10
48.58999532091274
 20
299.5488123469826
 30
0.0
 11
48.58999532091274
 21
300.1488123469826
 31
0.0
  0
LINE
  5
676
330
1F
100
AcDbEntity
  8
0
  6
CONTINUOUS
 62
     0
100
AcDbLine
 10
34.1699953209129
 20
300.1488123469826
 30
0.0
 11
34.1699953209129
 21
299.5488123469826
 31
0.0
  0
LINE
  5
677
330
1F
100
AcDbEntity
  8
0
  6
CONTINUOUS
 62
     0
100
AcDbLine
 10
34.1699953209129
 20
299.5488123469826
 30
0.0
 11
33.56999532091275
 21
299.5488123469826
 31
0.0
  0
LINE
  5
678
330
1F
100
AcDbEntity
  8
0
  6
CONTINUOUS
 62
     0
100
AcDbLine
 10
34.1699953209129
 20
286.2488123469832
 30
0.0
 11
33.56999532091275
 21
286.2488123469832
 31
0.0
  0
LINE
  5
679
330
1F
100
AcDbEntity
  8
0
  6
CONTINUOUS
 62
     0
100
AcDbLine
 10
34.1699953209129
 20
286.2488123469832
 30
0.0
 11
34.1699953209129
 21
285.6488123469826
 31
0.0
  0
LINE
  5
67A
330
1F
100
AcDbEntity
  8
0
  6
CONTINUOUS
 62
     0
100
AcDbLine
 10
48.58999532091274
 20
286.2488123469832
 30
0.0
 11
48.58999532091274
 21
285.6488123469826
 31
0.0
  0
LINE
  5
67B
330
1F
100
AcDbEntity
  8
0
  6
CONTINUOUS
 62
     0
100
AcDbLine
 10
48.58999532091274
 20
286.2488123469832
 30
0.0
 11
49.18999532091288
 21
286.2488123469832
 31
0.0
  0
LINE
  5
67C
330
1F
100
AcDbEntity
  8
0
  6
CONTINUOUS
 62
     0
100
AcDbLine
 10
49.18999532091288
 20
299.5488123469826
 30
0.0
 11
48.58999532091274
 21
299.5488123469826
 31
0.0
  0
LINE
  5
67D
330
1F
100
AcDbEntity
  8
0
  6
CONTINUOUS
 62
     0
100
AcDbLine
 10
48.8899953209127
 20
299.5488123469826
 30
0.0
 11
48.8899953209127
 21
286.2488123469832
 31
0.0
  0
LINE
  5
67E
330
1F
100
AcDbEntity
  8
0
  6
CONTINUOUS
 62
     0
100
AcDbLine
 10
48.58999532091274
 20
285.9488123469834
 30
0.0
 11
34.1699953209129
 21
285.9488123469834
 31
0.0
  0
LINE
  5
67F
330
1F
100
AcDbEntity
  8
0
  6
CONTINUOUS
 62
     0
100
AcDbLine
 10
34.1699953209129
 20
285.9488123469834
 30
0.0
 11
34.06999532091276
 21
285.9488123469834
 31
0.0
  0
LINE
  5
680
330
1F
100
AcDbEntity
  8
0
  6
CONTINUOUS
 62
     0
100
AcDbLine
 10
33.86999532091272
 20
286.2488123469832
 30
0.0
 11
33.86999532091272
 21
299.5488123469826
 31
0.0
  0
LINE
  5
681
330
1F
100
AcDbEntity
  8
0
  6
CONTINUOUS
 62
     0
100
AcDbLine
 10
34.1699953209129
 20
299.8488123469833
 30
0.0
 11
34.06999532091276
 21
299.8488123469833
 31
0.0
  0
LINE
  5
682
330
1F
100
AcDbEntity
  8
0
  6
CONTINUOUS
 62
     0
100
AcDbLine
 10
34.1699953209129
 20
299.8488123469833
 30
0.0
 11
48.58999532091274
 21
299.8488123469833
 31
0.0
  0
LINE
  5
683
330
1F
100
AcDbEntity
  8
0
  6
CONTINUOUS
 62
     0
100
AcDbLine
 10
48.8899953209127
 20
299.5488123469826
 30
0.0
 11
48.8899953209127
 21
299.6488123469826
 31
0.0
  0
LINE
  5
684
330
1F
100
AcDbEntity
  8
0
  6
CONTINUOUS
 62
     0
100
AcDbLine
 10
48.8899953209127
 20
286.2488123469832
 30
0.0
 11
48.8899953209127
 21
286.1488123469835
 31
0.0
  0
LINE
  5
685
330
1F
100
AcDbEntity
  8
0
  6
CONTINUOUS
 62
     0
100
AcDbLine
 10
48.58999532091274
 20
285.9488123469834
 30
0.0
 11
48.68999532091288
 21
285.9488123469834
 31
0.0
  0
LINE
  5
686
330
1F
100
AcDbEntity
  8
0
  6
CONTINUOUS
 62
     0
100
AcDbLine
 10
48.58999532091274
 20
299.8488123469833
 30
0.0
 11
48.68999532091288
 21
299.8488123469833
 31
0.0
  0
LINE
  5
687
330
1F
100
AcDbEntity
  8
0
  6
CONTINUOUS
 62
     0
100
AcDbLine
 10
33.86999532091272
 20
299.5488123469826
 30
0.0
 11
33.86999532091272
 21
299.6488123469826
 31
0.0
  0
LINE
  5
688
330
1F
100
AcDbEntity
  8
0
  6
CONTINUOUS
 62
     0
100
AcDbLine
 10
33.86999532091272
 20
286.2488123469832
 30
0.0
 11
33.86999532091272
 21
286.1488123469835
 31
0.0
  0
LINE
  5
689
330
1F
100
AcDbEntity
  8
0
  6
CONTINUOUS
 62
     0
100
AcDbLine
 10
33.56999532091275
 20
297.3588123469833
 30
0.0
 11
32.99999532091283
 21
297.3588123469833
 31
0.0
  0
LINE
  5
68A
330
1F
100
AcDbEntity
  8
0
  6
CONTINUOUS
 62
     0
100
AcDbLine
 10
33.56999532091275
 20
288.4388123469824
 30
0.0
 11
32.99999532091283
 21
288.4388123469824
 31
0.0
  0
LINE
  5
68B
330
1F
100
AcDbEntity
  8
0
  6
CONTINUOUS
 62
     0
100
AcDbLine
 10
32.99999532091283
 20
296.8588123469826
 30
0.0
 11
32.99999532091283
 21
295.9388123469825
 31
0.0
  0
LINE
  5
68C
330
1F
100
AcDbEntity
  8
0
  6
CONTINUOUS
 62
     0
100
AcDbLine
 10
32.99999532091283
 20
294.3588123469826
 30
0.0
 11
32.99999532091283
 21
293.4388123469825
 31
0.0
  0
LINE
  5
68D
330
1F
100
AcDbEntity
  8
0
  6
CONTINUOUS
 62
     0
100
AcDbLine
 10
32.99999532091283
 20
292.3588123469826
 30
0.0
 11
32.99999532091283
 21
291.4388123469825
 31
0.0
  0
LINE
  5
68E
330
1F
100
AcDbEntity
  8
0
  6
CONTINUOUS
 62
     0
100
AcDbLine
 10
32.99999532091283
 20
289.8588123469835
 30
0.0
 11
32.99999532091283
 21
288.9388123469823
 31
0.0
  0
LINE
  5
68F
330
1F
100
AcDbEntity
  8
0
  6
CONTINUOUS
 62
     0
100
AcDbLine
 10
32.99999532091283
 20
300.1200269218825
 30
0.0
 11
33.86999532091272
 21
299.8488123469833
 31
0.0
  0
LINE
  5
690
330
1F
100
AcDbEntity
  8
0
  6
CONTINUOUS
 62
     0
100
AcDbLine
 10
32.99999532091283
 20
285.6775977720845
 30
0.0
 11
33.86999532091272
 21
285.9488123469834
 31
0.0
  0
ARC
  5
691
330
1F
100
AcDbEntity
  8
0
  6
CONTINUOUS
 62
     0
100
AcDbCircle
 10
48.68999532091288
 20
299.6488123469826
 30
0.0
 40
0.2
100
AcDbArc
 50
0.0
 51
90.0
  0
ARC
  5
692
330
1F
100
AcDbEntity
  8
0
  6
CONTINUOUS
 62
     0
100
AcDbCircle
 10
48.68999532091288
 20
286.1488123469835
 30
0.0
 40
0.2
100
AcDbArc
 50
270.0
 51
0.0
  0
ARC
  5
693
330
1F
100
AcDbEntity
  8
0
  6
CONTINUOUS
 62
     0
100
AcDbCircle
 10
34.06999532091276
 20
286.1488123469835
 30
0.0
 40
0.2
100
AcDbArc
 50
180.0
 51
270.0
  0
ARC
  5
694
330
1F
100
AcDbEntity
  8
0
  6
CONTINUOUS
 62
     0
100
AcDbCircle
 10
34.06999532091276
 20
299.6488123469826
 30
0.0
 40
0.2
100
AcDbArc
 50
90.0
 51
180.0
  0
LINE
  5
695
330
1F
100
AcDbEntity
  8
0
  6
CONTINUOUS
 62
     0
100
AcDbLine
 10
36.72999532091285
 20
293.8988123469826
 30
0.0
 11
33.56999532091275
 21
293.8988123469826
 31
0.0
  0
LINE
  5
696
330
1F
100
AcDbEntity
  8
0
  6
CONTINUOUS
 62
     0
100
AcDbLine
 10
36.72999532091285
 20
291.8988123469834
 30
0.0
 11
33.56999532091275
 21
291.8988123469834
 31
0.0
  0
LINE
  5
697
330
1F
100
AcDbEntity
  8
0
  6
CONTINUOUS
 62
     0
100
AcDbLine
 10
45.12999532091271
 20
293.8988123469826
 30
0.0
 11
49.18999532091288
 21
293.8988123469826
 31
0.0
  0
LINE
  5
698
330
1F
100
AcDbEntity
  8
0
  6
CONTINUOUS
 62
     0
100
AcDbLine
 10
45.12999532091271
 20
291.8988123469834
 30
0.0
 11
49.18999532091288
 21
291.8988123469834
 31
0.0
  0
LINE
  5
699
330
1F
100
AcDbEntity
  8
0
  6
CONTINUOUS
 62
     0
100
AcDbLine
 10
48.58999532091274
 20
300.1488123469826
 30
0.0
 11
34.1699953209129
 21
300.1488123469826
 31
0.0
  0
LINE
  5
69A
330
1F
100
AcDbEntity
  8
0
  6
CONTINUOUS
 62
     0
100
AcDbLine
 10
34.1699953209129
 20
285.6488123469826
 30
0.0
 11
48.58999532091274
 21
285.6488123469826
 31
0.0
  0
LINE
  5
69B
330
1F
100
AcDbEntity
  8
0
  6
CONTINUOUS
 62
     0
100
AcDbLine
 10
49.18999532091288
 20
293.8988123469826
 30
0.0
 11
49.18999532091288
 21
299.5488123469826
 31
0.0
  0
LINE
  5
69C
330
1F
100
AcDbEntity
  8
0
  6
CONTINUOUS
 62
     0
100
AcDbLine
 10
49.18999532091288
 20
291.8988123469834
 30
0.0
 11
49.18999532091288
 21
286.2488123469832
 31
0.0
  0
LINE
  5
69D
330
1F
100
AcDbEntity
  8
0
  6
CONTINUOUS
 62
     0
100
AcDbLine
 10
33.56999532091275
 20
291.8988123469834
 30
0.0
 11
33.56999532091275
 21
286.2488123469832
 31
0.0
  0
LINE
  5
69E
330
1F
100
AcDbEntity
  8
0
 62
     0
100
AcDbLine
 10
49.09999532091274
 20
318.4488083469395
 30
0.0
 11
49.09999532091274
 21
315.7488083469383
 31
0.0
  0
LINE
  5
69F
330
1F
100
AcDbEntity
  8
0
 62
     0
100
AcDbLine
 10
47.49999532091192
 20
315.7488083469383
 30
0.0
 11
47.49999532091192
 21
318.4488083469395
 31
0.0
  0
LINE
  5
6A0
330
1F
100
AcDbEntity
  8
0
 62
     0
100
AcDbLine
 10
49.09999532091274
 20
318.4488083469395
 30
0.0
 11
47.49999532091192
 21
318.4488083469395
 31
0.0
  0
LINE
  5
6A1
330
1F
100
AcDbEntity
  8
0
 62
     0
100
AcDbLine
 10
49.09999532091274
 20
315.7488083469383
 30
0.0
 11
47.49999532091192
 21
315.7488083469383
 31
0.0
  0
LINE
  5
6A2
330
1F
100
AcDbEntity
  8
0
 62
     0
100
AcDbLine
 10
49.09999532091274
 20
312.9488123469793
 30
0.0
 11
49.09999532091274
 21
310.2488123469786
 31
0.0
  0
LINE
  5
6A3
330
1F
100
AcDbEntity
  8
0
 62
     0
100
AcDbLine
 10
47.49999532091192
 20
310.2488123469786
 30
0.0
 11
47.49999532091192
 21
312.9488123469793
 31
0.0
  0
LINE
  5
6A4
330
1F
100
AcDbEntity
  8
0
 62
     0
100
AcDbLine
 10
49.09999532091274
 20
312.9488123469793
 30
0.0
 11
47.49999532091192
 21
312.9488123469793
 31
0.0
  0
LINE
  5
6A5
330
1F
100
AcDbEntity
  8
0
 62
     0
100
AcDbLine
 10
49.09999532091274
 20
310.2488123469786
 30
0.0
 11
47.49999532091192
 21
310.2488123469786
 31
0.0
  0
LINE
  5
6A6
330
1F
100
AcDbEntity
  8
0
 62
     0
100
AcDbLine
 10
31.99999532091283
 20
303.3988123469814
 30
0.0
 11
50.10006912950597
 21
303.3988123469823
 31
0.0
  0
LINE
  5
6A7
330
1F
100
AcDbEntity
  8
0
 62
     0
100
AcDbLine
 10
31.99999532091396
 20
282.3988123469811
 30
0.0
 11
50.10006912950597
 21
282.3988123469823
 31
0.0
  0
LINE
  5
6A8
330
1F
100
AcDbEntity
  8
0
 62
     0
100
AcDbLine
 10
50.10006912950597
 20
303.3988123469823
 30
0.0
 11
50.10006912950597
 21
282.3988123469823
 31
0.0
  0
LINE
  5
6A9
330
1F
100
AcDbEntity
  8
0
 62
     0
 48
5.0
100
AcDbLine
 10
31.99999532091283
 20
303.3988123469814
 30
0.0
 11
31.99999532091396
 21
282.3988123469811
 31
0.0
  0
LINE
  5
6AA
330
1F
100
AcDbEntity
  8
0
 62
     0
100
AcDbLine
 10
32.99999532091283
 20
303.3988123469814
 30
0.0
 11
32.99999532091283
 21
282.3988123469823
 31
0.0
  0
LINE
  5
6AB
330
1F
100
AcDbEntity
  8
0
 62
     0
100
AcDbLine
 10
44.99999532091282
 20
300.1488123469826
 30
0.0
 11
44.99999532091282
 21
303.3988123469823
 31
0.0
  0
LINE
  5
6AC
330
1F
100
AcDbEntity
  8
0
 62
     0
100
AcDbLine
 10
44.99999532091282
 20
303.3988123469823
 30
0.0
 11
46.59999532091274
 21
303.3988123469823
 31
0.0
  0
LINE
  5
6AD
330
1F
100
AcDbEntity
  8
0
 62
     0
100
AcDbLine
 10
46.59999532091274
 20
303.3988123469823
 30
0.0
 11
46.59999532091274
 21
300.1488123469826
 31
0.0
  0
LINE
  5
6AE
330
1F
100
AcDbEntity
  8
0
 62
     0
100
AcDbLine
 10
44.99999532091282
 20
285.6488123469826
 30
0.0
 11
44.99999532091282
 21
282.3988123469823
 31
0.0
  0
LINE
  5
6AF
330
1F
100
AcDbEntity
  8
0
 62
     0
100
AcDbLine
 10
44.99999532091282
 20
282.3988123469823
 30
0.0
 11
46.59999532091274
 21
282.3988123469823
 31
0.0
  0
LINE
  5
6B0
330
1F
100
AcDbEntity
  8
0
 62
     0
100
AcDbLine
 10
46.59999532091274
 20
282.3988123469823
 30
0.0
 11
46.59999532091274
 21
285.6488123469826
 31
0.0
  0
INSERT
  5
6B1
330
1F
100
AcDbEntity
  8
0
100
AcDbBlockReference
  2
A$C40301A48
 10
157.9999953209128
 20
354.9738123469826
 30
0.0
  0
LINE
  5
6B2
330
1F
100
AcDbEntity
  8
0
100
AcDbLine
 10
26.70870747343474
 20
4.379163791619474
 30
0.0
 11
26.70870747343474
 21
21.97381234698355
 31
0.0
  0
LINE
  5
6B3
330
1F
100
AcDbEntity
  8
0
100
AcDbLine
 10
31.29128316838978
 20
4.259164823886521
 30
0.0
 11
31.29128316838978
 21
21.97381234698262
 31
0.0
  0
LINE
  5
6B4
330
1F
100
AcDbEntity
  8
0
100
AcDbLine
 10
5.999995320912829
 20
4.921440503844451
 30
0.0
 11
5.999995320912829
 21
20.97381234698264
 31
0.0
  0
LINE
  5
6B5
330
1F
100
AcDbEntity
  8
0
100
AcDbLine
 10
4.999995320912828
 20
20.9999982685515
 30
0.0
 11
4.999995320912828
 21
4.973812346981731
 31
0.0
  0
LINE
  5
6B6
330
1F
100
AcDbEntity
  8
0
100
AcDbLine
 10
-0.0000046790871693
 20
21.41966502775856
 30
0.0
 11
-0.0000046790871693
 21
-0.0000017314484921
 31
0.0
  0
LINE
  5
6B7
330
1F
100
AcDbEntity
  8
0
100
AcDbLine
 10
57.99999532091283
 20
3.585958503814481
 30
0.0
 11
57.99999532091283
 21
120.9738123469825
 31
0.0
  0
LINE
  5
6B8
330
1F
100
AcDbEntity
  8
0
100
AcDbLine
 10
53.49999532091283
 20
86.97381234698262
 30
0.0
 11
53.49999532091283
 21
91.97381234698262
 31
0.0
  0
LINE
  5
6B9
330
1F
100
AcDbEntity
  8
0
100
AcDbLine
 10
54.49999532091283
 20
96.97381234698262
 30
0.0
 11
54.49999532091283
 21
70.97381234698264
 31
0.0
  0
LINE
  5
6BA
330
1F
100
AcDbEntity
  8
0
100
AcDbLine
 10
33.49999532091283
 20
70.97381234698264
 30
0.0
 11
33.49999532091283
 21
96.97381234698262
 31
0.0
  0
ARC
  5
6BB
330
1F
100
AcDbEntity
  8
0
100
AcDbCircle
 10
2.399995320912693
 20
89.31966502775869
 30
0.0
 40
0.6
100
AcDbArc
 50
0.0
 51
88.09084756699929
  0
LINE
  5
6BC
330
1F
100
AcDbEntity
  8
0
100
AcDbLine
 10
5.999995320912829
 20
82.97381234698354
 30
0.0
 11
5.999995320912829
 21
109.6057317736805
 31
0.0
  0
LINE
  5
6BD
330
1F
100
AcDbEntity
  8
0
100
AcDbLine
 10
4.999995320912828
 20
110.4710173264255
 30
0.0
 11
4.999995320912828
 21
82.99999826855151
 31
0.0
  0
LINE
  5
6BE
330
1F
100
AcDbEntity
  8
0
100
AcDbLine
 10
56.99999532091283
 20
21.97381234698262
 30
0.0
 11
56.99999532091283
 21
103.9738123469825
 31
0.0
  0
LINE
  5
6BF
330
1F
100
AcDbEntity
  8
0
100
AcDbLine
 10
15.99999532091283
 20
103.9738123469825
 30
0.0
 11
15.99999532091283
 21
21.97381234698262
 31
0.0
  0
LINE
  5
6C0
330
1F
100
AcDbEntity
  8
0
100
AcDbLine
 10
28.19999532091287
 20
105.4738123469826
 30
0.0
 11
19.99999532091282
 21
105.4738123469826
 31
0.0
  0
LINE
  5
6C1
330
1F
100
AcDbEntity
  8
0
100
AcDbLine
 10
19.99999532091282
 20
117.4738123469825
 30
0.0
 11
28.19999532091287
 21
117.4738123469825
 31
0.0
  0
LINE
  5
6C2
330
1F
100
AcDbEntity
  8
0
100
AcDbLine
 10
19.99999532091282
 20
109.4738123469825
 30
0.0
 11
23.19999532091287
 21
109.4738123469825
 31
0.0
  0
LINE
  5
6C3
330
1F
100
AcDbEntity
  8
0
100
AcDbLine
 10
19.99999532091282
 20
113.4738123469825
 30
0.0
 11
23.19999532091287
 21
113.4738123469825
 31
0.0
  0
LINE
  5
6C4
330
1F
100
AcDbEntity
  8
0
100
AcDbLine
 10
32.99999532091283
 20
89.97381234698265
 30
0.0
 11
15.99999532091283
 21
89.97381234698265
 31
0.0
  0
LINE
  5
6C5
330
1F
100
AcDbEntity
  8
0
100
AcDbLine
 10
32.99999532091283
 20
91.97381234698262
 30
0.0
 11
15.99999532091283
 21
91.97381234698262
 31
0.0
  0
LINE
  5
6C6
330
1F
100
AcDbEntity
  8
0
100
AcDbLine
 10
56.99999532091283
 20
96.97381234698262
 30
0.0
 11
53.44721713475769
 21
96.97381234698262
 31
0.0
  0
LINE
  5
6C7
330
1F
100
AcDbEntity
  8
0
100
AcDbLine
 10
56.99999532091283
 20
98.97381234698263
 30
0.0
 11
53.44721713475769
 21
98.97381234698263
 31
0.0
  0
LINE
  5
6C8
330
1F
100
AcDbEntity
  8
0
100
AcDbLine
 10
15.99999532091283
 20
103.9738123469825
 30
0.0
 11
57.99999532091283
 21
103.9738123469825
 31
0.0
  0
LINE
  5
6C9
330
1F
100
AcDbEntity
  8
0
100
AcDbLine
 10
5.999995320912829
 20
120.9738123469825
 30
0.0
 11
57.99999532091283
 21
120.9738123469825
 31
0.0
  0
LINE
  5
6CA
330
1F
100
AcDbEntity
  8
0
100
AcDbLine
 10
19.99999532091282
 20
109.4738123469825
 30
0.0
 11
19.99999532091282
 21
105.4738123469826
 31
0.0
  0
LINE
  5
6CB
330
1F
100
AcDbEntity
  8
0
100
AcDbLine
 10
-0.0000046790871693
 20
90.58033150934351
 30
0.0
 11
-0.0000046790871693
 21
120.8952545822745
 31
0.0
  0
LINE
  5
6CC
330
1F
100
AcDbEntity
  8
0
100
AcDbLine
 10
7.999995320912829
 20
120.4738123469826
 30
0.0
 11
7.999995320912829
 21
110.9738123469835
 31
0.0
  0
LINE
  5
6CD
330
1F
100
AcDbEntity
  8
0
100
AcDbLine
 10
8.999995320912828
 20
120.9738123469825
 30
0.0
 11
8.999995320912828
 21
110.1347127158055
 31
0.0
  0
LINE
  5
6CE
330
1F
100
AcDbEntity
  8
0
100
AcDbLine
 10
7.999995320912829
 20
110.9999982685515
 30
0.0
 11
7.999995320912829
 21
120.8952545822745
 31
0.0
  0
LINE
  5
6CF
330
1F
100
AcDbEntity
  8
0
100
AcDbLine
 10
5.999995320912829
 20
120.9738123469825
 30
0.0
 11
5.999995320912829
 21
120.9476264254124
 31
0.0
  0
LINE
  5
6D0
330
1F
100
AcDbEntity
  8
0
100
AcDbLine
 10
5.999995320912829
 20
120.9738123469825
 30
0.0
 11
5.999995320912829
 21
120.9476264254137
 31
0.0
  0
LINE
  5
6D1
330
1F
100
AcDbEntity
  8
0
100
AcDbLine
 10
7.999995320912829
 20
120.4738123469826
 30
0.0
 11
8.999995320912828
 21
120.4738123469826
 31
0.0
  0
LINE
  5
6D2
330
1F
100
AcDbEntity
  8
0
100
AcDbLine
 10
3.99999532091283
 20
120.9999982685515
 30
0.0
 11
7.999995320912829
 21
120.8952545822745
 31
0.0
  0
LINE
  5
6D3
330
1F
100
AcDbEntity
  8
0
100
AcDbLine
 10
-0.0000046790871693
 20
120.8952545822745
 30
0.0
 11
3.99999532091283
 21
120.9999982685515
 31
0.0
  0
LINE
  5
6D4
330
1F
100
AcDbEntity
  8
0
100
AcDbLine
 10
4.999995320912828
 20
110.4448314048577
 30
0.0
 11
7.999995320912829
 21
110.9738123469835
 31
0.0
  0
LINE
  5
6D5
330
1F
100
AcDbEntity
  8
0
100
AcDbLine
 10
8.999995320912828
 20
110.1347127158055
 30
0.0
 11
5.999995320912829
 21
109.6057317736805
 31
0.0
  0
LINE
  5
6D6
330
1F
100
AcDbEntity
  8
0
100
AcDbLine
 10
7.999995320912829
 20
110.9999982685515
 30
0.0
 11
4.999995320912828
 21
110.4710173264255
 31
0.0
  0
LINE
  5
6D7
330
1F
100
AcDbEntity
  8
0
100
AcDbLine
 10
19.99999532091282
 20
113.4738123469825
 30
0.0
 11
19.99999532091282
 21
117.4738123469825
 31
0.0
  0
LINE
  5
6D8
330
1F
100
AcDbEntity
  8
0
100
AcDbLine
 10
-0.0000046790871693
 20
98.41966502775861
 30
0.0
 11
-0.0000046790871693
 21
97.58033150934352
 31
0.0
  0
POINT
  5
6D9
330
1F
100
AcDbEntity
  8
0
100
AcDbPoint
 10
-0.0000046790871693
 20
98.99999826855058
 30
0.0
  0
POINT
  5
6DA
330
1F
100
AcDbEntity
  8
0
100
AcDbPoint
 10
2.99999532091283
 20
99.09999826855051
 30
0.0
  0
ARC
  5
6DB
330
1F
100
AcDbEntity
  8
0
100
AcDbCircle
 10
2.399995320912693
 20
99.68033150934253
 30
0.0
 40
0.6
100
AcDbArc
 50
271.9091524330006
 51
0.0
  0
ARC
  5
6DC
330
1F
100
AcDbEntity
  8
0
100
AcDbCircle
 10
0.5999953209127398
 20
98.41966502775861
 30
0.0
 40
0.6
100
AcDbArc
 50
91.9091524330007
 51
180.0
  0
LINE
  5
6DD
330
1F
100
AcDbEntity
  8
0
100
AcDbLine
 10
2.419984219051912
 20
99.08066456515555
 30
0.0
 11
0.5800064227728399
 21
99.01933197194649
 31
0.0
  0
LINE
  5
6DE
330
1F
100
AcDbEntity
  8
0
100
AcDbLine
 10
2.99999532091283
 20
103.3196650277586
 30
0.0
 11
2.99999532091283
 21
99.68033150934253
 31
0.0
  0
POINT
  5
6DF
330
1F
100
AcDbEntity
  8
0
100
AcDbPoint
 10
2.99999532091283
 20
103.8999982685504
 30
0.0
  0
ARC
  5
6E0
330
1F
100
AcDbEntity
  8
0
100
AcDbCircle
 10
0.5999953209127398
 20
104.5803315093434
 30
0.0
 40
0.6
100
AcDbArc
 50
180.0
 51
268.0908475669992
  0
LINE
  5
6E1
330
1F
100
AcDbEntity
  8
0
100
AcDbLine
 10
0.5800064227728399
 20
103.9806645651554
 30
0.0
 11
2.419984219051912
 21
103.9193319719465
 31
0.0
  0
ARC
  5
6E2
330
1F
100
AcDbEntity
  8
0
100
AcDbCircle
 10
2.399995320912693
 20
103.3196650277586
 30
0.0
 40
0.6
100
AcDbArc
 50
0.0
 51
88.09084756699929
  0
POINT
  5
6E3
330
1F
100
AcDbEntity
  8
0
100
AcDbPoint
 10
-0.0000046790871693
 20
89.9999982685515
 30
0.0
  0
ARC
  5
6E4
330
1F
100
AcDbEntity
  8
0
100
AcDbCircle
 10
2.399995320912693
 20
92.68033150934252
 30
0.0
 40
0.6
100
AcDbArc
 50
271.9091524330006
 51
0.0
  0
ARC
  5
6E5
330
1F
100
AcDbEntity
  8
0
100
AcDbCircle
 10
0.5999953209127398
 20
91.41966502775858
 30
0.0
 40
0.6
100
AcDbArc
 50
91.9091524330007
 51
180.0
  0
ARC
  5
6E6
330
1F
100
AcDbEntity
  8
0
100
AcDbCircle
 10
0.5999953209118303
 20
90.58033150934351
 30
0.0
 40
0.6
100
AcDbArc
 50
180.0
 51
268.0908475669992
  0
LINE
  5
6E7
330
1F
100
AcDbEntity
  8
0
100
AcDbLine
 10
-0.0000046790871693
 20
91.41966502775858
 30
0.0
 11
-0.0000046790871693
 21
90.58033150934351
 31
0.0
  0
LINE
  5
6E8
330
1F
100
AcDbEntity
  8
0
100
AcDbLine
 10
0.5800064227728399
 20
89.98066456515539
 30
0.0
 11
2.419984219051912
 21
89.91933197194658
 31
0.0
  0
LINE
  5
6E9
330
1F
100
AcDbEntity
  8
0
100
AcDbLine
 10
2.419984219051912
 20
92.08066456515551
 30
0.0
 11
0.5800064227728399
 21
92.01933197194648
 31
0.0
  0
POINT
  5
6EA
330
1F
100
AcDbEntity
  8
0
100
AcDbPoint
 10
2.99999532091283
 20
96.89999826855043
 30
0.0
  0
POINT
  5
6EB
330
1F
100
AcDbEntity
  8
0
100
AcDbPoint
 10
-0.0000046790871693
 20
96.99999826855059
 30
0.0
  0
ARC
  5
6EC
330
1F
100
AcDbEntity
  8
0
100
AcDbCircle
 10
2.399995320912693
 20
96.31966502775869
 30
0.0
 40
0.6
100
AcDbArc
 50
0.0
 51
88.09084756699929
  0
ARC
  5
6ED
330
1F
100
AcDbEntity
  8
0
100
AcDbCircle
 10
0.5999953209127398
 20
97.58033150934352
 30
0.0
 40
0.6
100
AcDbArc
 50
180.0
 51
268.0908475669992
  0
LINE
  5
6EE
330
1F
100
AcDbEntity
  8
0
100
AcDbLine
 10
0.5800064227728399
 20
96.9806645651554
 30
0.0
 11
2.419984219051912
 21
96.91933197194657
 31
0.0
  0
LINE
  5
6EF
330
1F
100
AcDbEntity
  8
0
100
AcDbLine
 10
2.99999532091283
 20
96.31966502775869
 30
0.0
 11
2.99999532091283
 21
92.68033150934252
 31
0.0
  0
LINE
  5
6F0
330
1F
100
AcDbEntity
  8
0
100
AcDbLine
 10
28.19999532091287
 20
105.4738123469826
 30
0.0
 11
28.19999532091287
 21
117.4738123469825
 31
0.0
  0
LINE
  5
6F1
330
1F
100
AcDbEntity
  8
0
100
AcDbLine
 10
23.19999532091287
 20
107.4738123469826
 30
0.0
 11
25.19999532091287
 21
107.4738123469826
 31
0.0
  0
LINE
  5
6F2
330
1F
100
AcDbEntity
  8
0
100
AcDbLine
 10
23.19999532091287
 20
109.4738123469825
 30
0.0
 11
23.19999532091287
 21
107.4738123469826
 31
0.0
  0
LINE
  5
6F3
330
1F
100
AcDbEntity
  8
0
100
AcDbLine
 10
23.19999532091287
 20
115.4738123469825
 30
0.0
 11
25.19999532091287
 21
115.4738123469825
 31
0.0
  0
LINE
  5
6F4
330
1F
100
AcDbEntity
  8
0
100
AcDbLine
 10
23.19999532091287
 20
113.4738123469825
 30
0.0
 11
23.19999532091287
 21
115.4738123469825
 31
0.0
  0
LINE
  5
6F5
330
1F
100
AcDbEntity
  8
0
100
AcDbLine
 10
25.19999532091287
 20
107.4738123469826
 30
0.0
 11
25.19999532091287
 21
115.4738123469825
 31
0.0
  0
LINE
  5
6F6
330
1F
100
AcDbEntity
  8
0
100
AcDbLine
 10
33.49999532091283
 20
98.97381234698263
 30
0.0
 11
33.49999532091283
 21
103.9738123469825
 31
0.0
  0
LINE
  5
6F7
330
1F
100
AcDbEntity
  8
0
100
AcDbLine
 10
32.99999532091283
 20
89.97381234698265
 30
0.0
 11
32.99999532091283
 21
91.97381234698262
 31
0.0
  0
LINE
  5
6F8
330
1F
100
AcDbEntity
  8
0
100
AcDbLine
 10
55.99999532091283
 20
96.97381234698262
 30
0.0
 11
55.99999532091283
 21
98.97381234698263
 31
0.0
  0
LINE
  5
6F9
330
1F
100
AcDbEntity
  8
0
100
AcDbLine
 10
54.99999532091283
 20
96.97381234698262
 30
0.0
 11
54.99999532091283
 21
98.97381234698263
 31
0.0
  0
LINE
  5
6FA
330
1F
100
AcDbEntity
  8
0
100
AcDbLine
 10
54.49999532091283
 20
103.9738123469825
 30
0.0
 11
54.49999532091283
 21
98.97381234698263
 31
0.0
  0
ARC
  5
6FB
330
1F
100
AcDbEntity
  8
0
100
AcDbCircle
 10
52.99999532091283
 20
91.97381234698262
 30
0.0
 40
0.5
100
AcDbArc
 50
0.0
 51
26.56294527601312
  0
LINE
  5
6FC
330
1F
100
AcDbEntity
  8
0
100
AcDbLine
 10
55.99999532091283
 20
89.97381234698265
 30
0.0
 11
55.99999532091283
 21
91.97381234698262
 31
0.0
  0
LINE
  5
6FD
330
1F
100
AcDbEntity
  8
0
100
AcDbLine
 10
54.99999532091283
 20
89.97381234698265
 30
0.0
 11
54.99999532091283
 21
91.97381234698262
 31
0.0
  0
LINE
  5
6FE
330
1F
100
AcDbEntity
  8
0
100
AcDbLine
 10
56.99999532091283
 20
89.97381234698265
 30
0.0
 11
54.99999532091283
 21
89.97381234698265
 31
0.0
  0
LINE
  5
6FF
330
1F
100
AcDbEntity
  8
0
100
AcDbLine
 10
56.99999532091283
 20
91.97381234698262
 30
0.0
 11
54.99999532091283
 21
91.97381234698262
 31
0.0
  0
LINE
  5
700
330
1F
100
AcDbEntity
  8
0
100
AcDbLine
 10
32.99999532091283
 20
47.97381234698264
 30
0.0
 11
15.99999532091283
 21
47.97381234698264
 31
0.0
  0
LINE
  5
701
330
1F
100
AcDbEntity
  8
0
100
AcDbLine
 10
32.99999532091283
 20
49.97381234698264
 30
0.0
 11
15.99999532091283
 21
49.97381234698264
 31
0.0
  0
LINE
  5
702
330
1F
100
AcDbEntity
  8
0
100
AcDbLine
 10
56.99999532091283
 20
26.97381234698264
 30
0.0
 11
15.99999532091283
 21
26.97381234698264
 31
0.0
  0
LINE
  5
703
330
1F
100
AcDbEntity
  8
0
100
AcDbLine
 10
56.99999532091283
 20
28.97381234698264
 30
0.0
 11
15.99999532091283
 21
28.97381234698264
 31
0.0
  0
LINE
  5
704
330
1F
100
AcDbEntity
  8
0
100
AcDbLine
 10
56.99999532091283
 20
33.97381234698264
 30
0.0
 11
15.99999532091283
 21
33.97381234698264
 31
0.0
  0
LINE
  5
705
330
1F
100
AcDbEntity
  8
0
100
AcDbLine
 10
56.99999532091283
 20
35.97381234698264
 30
0.0
 11
15.99999532091283
 21
35.97381234698264
 31
0.0
  0
LINE
  5
706
330
1F
100
AcDbEntity
  8
0
100
AcDbLine
 10
56.99999532091283
 20
40.97381234698263
 30
0.0
 11
15.99999532091283
 21
40.97381234698263
 31
0.0
  0
LINE
  5
707
330
1F
100
AcDbEntity
  8
0
100
AcDbLine
 10
56.99999532091283
 20
42.97381234698264
 30
0.0
 11
15.99999532091283
 21
42.97381234698264
 31
0.0
  0
LINE
  5
708
330
1F
100
AcDbEntity
  8
0
100
AcDbLine
 10
56.99999532091283
 20
54.97381234698264
 30
0.0
 11
53.49999532091283
 21
54.97381234698264
 31
0.0
  0
LINE
  5
709
330
1F
100
AcDbEntity
  8
0
100
AcDbLine
 10
56.99999532091283
 20
56.97381234698264
 30
0.0
 11
53.49999532091283
 21
56.97381234698264
 31
0.0
  0
LINE
  5
70A
330
1F
100
AcDbEntity
  8
0
100
AcDbLine
 10
56.99999532091283
 20
61.97381234698264
 30
0.0
 11
53.49999532091283
 21
61.97381234698264
 31
0.0
  0
LINE
  5
70B
330
1F
100
AcDbEntity
  8
0
100
AcDbLine
 10
15.99999532091283
 20
21.97381234698262
 30
0.0
 11
57.99999532091283
 21
21.97381234698262
 31
0.0
  0
LINE
  5
70C
330
1F
100
AcDbEntity
  8
0
100
AcDbLine
 10
32.99999532091283
 20
75.97381234698264
 30
0.0
 11
15.99999532091283
 21
75.97381234698264
 31
0.0
  0
LINE
  5
70D
330
1F
100
AcDbEntity
  8
0
100
AcDbLine
 10
32.99999532091283
 20
77.97381234698264
 30
0.0
 11
15.99999532091283
 21
77.97381234698264
 31
0.0
  0
LINE
  5
70E
330
1F
100
AcDbEntity
  8
0
100
AcDbLine
 10
32.99999532091283
 20
82.97381234698264
 30
0.0
 11
15.99999532091283
 21
82.97381234698264
 31
0.0
  0
LINE
  5
70F
330
1F
100
AcDbEntity
  8
0
100
AcDbLine
 10
32.99999532091283
 20
84.97381234698265
 30
0.0
 11
15.99999532091283
 21
84.97381234698265
 31
0.0
  0
LINE
  5
710
330
1F
100
AcDbEntity
  8
0
100
AcDbLine
 10
56.99999532091283
 20
63.97381234698264
 30
0.0
 11
53.49999532091283
 21
63.97381234698264
 31
0.0
  0
LINE
  5
711
330
1F
100
AcDbEntity
  8
0
100
AcDbLine
 10
56.99999532091283
 20
68.97381234698264
 30
0.0
 11
53.49999532091283
 21
68.97381234698264
 31
0.0
  0
LINE
  5
712
330
1F
100
AcDbEntity
  8
0
100
AcDbLine
 10
56.99999532091283
 20
70.97381234698264
 30
0.0
 11
53.49999532091283
 21
70.97381234698264
 31
0.0
  0
LINE
  5
713
330
1F
100
AcDbEntity
  8
0
100
AcDbLine
 10
2.99999532091283
 20
54.31966502775868
 30
0.0
 11
2.99999532091283
 21
50.68033150934253
 31
0.0
  0
LINE
  5
714
330
1F
100
AcDbEntity
  8
0
100
AcDbLine
 10
5.999995320912829
 20
32.97381234698355
 30
0.0
 11
5.999995320912829
 21
70.97381234698264
 31
0.0
  0
LINE
  5
715
330
1F
100
AcDbEntity
  8
0
100
AcDbLine
 10
4.999995320912828
 20
70.9999982685515
 30
0.0
 11
4.999995320912828
 21
32.99999826855151
 31
0.0
  0
LINE
  5
716
330
1F
100
AcDbEntity
  8
0
100
AcDbLine
 10
2.99999532091283
 20
75.31966502775867
 30
0.0
 11
2.99999532091283
 21
71.68033150934252
 31
0.0
  0
LINE
  5
717
330
1F
100
AcDbEntity
  8
0
100
AcDbLine
 10
4.999995320912828
 20
70.9999982685506
 30
0.0
 11
4.999995320912828
 21
82.99999826855151
 31
0.0
  0
LINE
  5
718
330
1F
100
AcDbEntity
  8
0
100
AcDbLine
 10
4.499995320912828
 20
82.99999826855151
 30
0.0
 11
4.499995320912828
 21
70.9999982685515
 31
0.0
  0
LINE
  5
719
330
1F
100
AcDbEntity
  8
0
100
AcDbLine
 10
3.699995320912876
 20
82.99999826855151
 30
0.0
 11
3.699995320912876
 21
71.09999826855052
 31
0.0
  0
LINE
  5
71A
330
1F
100
AcDbEntity
  8
0
100
AcDbLine
 10
9.699995320911739
 20
81.47381234698263
 30
0.0
 11
9.699995320911739
 21
72.47381234698264
 31
0.0
  0
LINE
  5
71B
330
1F
100
AcDbEntity
  8
0
100
AcDbLine
 10
7.999995320911692
 20
81.47381234698263
 30
0.0
 11
7.999995320911692
 21
72.47381234698264
 31
0.0
  0
LINE
  5
71C
330
1F
100
AcDbEntity
  8
0
100
AcDbLine
 10
9.499995320912828
 20
80.99999826855151
 30
0.0
 11
9.499995320912828
 21
72.99999826855151
 31
0.0
  0
LINE
  5
71D
330
1F
100
AcDbEntity
  8
0
100
AcDbLine
 10
8.699995320912876
 20
80.99999826855151
 30
0.0
 11
8.699995320912876
 21
72.99999826855151
 31
0.0
  0
LINE
  5
71E
330
1F
100
AcDbEntity
  8
0
100
AcDbLine
 10
8.099995320912737
 20
80.99999826855151
 30
0.0
 11
8.099995320912737
 21
72.99999826855151
 31
0.0
  0
LINE
  5
71F
330
1F
100
AcDbEntity
  8
0
100
AcDbLine
 10
2.99999532091283
 20
82.31966502775867
 30
0.0
 11
2.99999532091283
 21
78.68033150934252
 31
0.0
  0
LINE
  5
720
330
1F
100
AcDbEntity
  8
0
100
AcDbLine
 10
5.999995320912829
 20
82.97381234698354
 30
0.0
 11
4.999995320912828
 21
82.97381234698354
 31
0.0
  0
LINE
  5
721
330
1F
100
AcDbEntity
  8
0
100
AcDbLine
 10
9.699995320911739
 20
81.47381234698263
 30
0.0
 11
7.999995320911692
 21
81.47381234698263
 31
0.0
  0
LINE
  5
722
330
1F
100
AcDbEntity
  8
0
100
AcDbLine
 10
4.999995320912828
 20
82.99999826855151
 30
0.0
 11
3.699995320912876
 21
82.99999826855151
 31
0.0
  0
POINT
  5
723
330
1F
100
AcDbEntity
  8
0
100
AcDbPoint
 10
-0.0000046790871693
 20
82.99999826855151
 30
0.0
  0
ARC
  5
724
330
1F
100
AcDbEntity
  8
0
100
AcDbCircle
 10
2.399995320912693
 20
82.31966502775867
 30
0.0
 40
0.6
100
AcDbArc
 50
0.0
 51
88.09084756699929
  0
ARC
  5
725
330
1F
100
AcDbEntity
  8
0
100
AcDbCircle
 10
2.399995320912693
 20
85.68033150934253
 30
0.0
 40
0.6
100
AcDbArc
 50
271.9091524330006
 51
0.0
  0
LINE
  5
726
330
1F
100
AcDbEntity
  8
0
100
AcDbLine
 10
9.499995320912828
 20
80.99999826855151
 30
0.0
 11
7.999995320911692
 21
80.99999826855151
 31
0.0
  0
ARC
  5
727
330
1F
100
AcDbEntity
  8
0
100
AcDbCircle
 10
0.5999953209127398
 20
84.4196650277586
 30
0.0
 40
0.6
100
AcDbArc
 50
91.9091524330007
 51
180.0
  0
ARC
  5
728
330
1F
100
AcDbEntity
  8
0
100
AcDbCircle
 10
0.5999953209127398
 20
83.58033150934351
 30
0.0
 40
0.6
100
AcDbArc
 50
180.0
 51
268.0908475669992
  0
LINE
  5
729
330
1F
100
AcDbEntity
  8
0
100
AcDbLine
 10
-0.0000046790871693
 20
84.4196650277586
 30
0.0
 11
-0.0000046790871693
 21
83.58033150934351
 31
0.0
  0
LINE
  5
72A
330
1F
100
AcDbEntity
  8
0
100
AcDbLine
 10
0.5800064227728399
 20
82.9806645651554
 30
0.0
 11
2.419984219051912
 21
82.91933197194657
 31
0.0
  0
LINE
  5
72B
330
1F
100
AcDbEntity
  8
0
100
AcDbLine
 10
2.419984219051912
 20
85.08066456515553
 30
0.0
 11
0.5800064227728399
 21
85.01933197194649
 31
0.0
  0
LINE
  5
72C
330
1F
100
AcDbEntity
  8
0
100
AcDbLine
 10
2.99999532091283
 20
89.31966502775869
 30
0.0
 11
2.99999532091283
 21
85.68033150934253
 31
0.0
  0
LINE
  5
72D
330
1F
100
AcDbEntity
  8
0
100
AcDbLine
 10
9.699995320911739
 20
72.47381234698264
 30
0.0
 11
7.999995320911692
 21
72.47381234698264
 31
0.0
  0
POINT
  5
72E
330
1F
100
AcDbEntity
  8
0
100
AcDbPoint
 10
-0.0000046790871693
 20
75.9999982685515
 30
0.0
  0
ARC
  5
72F
330
1F
100
AcDbEntity
  8
0
100
AcDbCircle
 10
2.399995320912693
 20
75.31966502775867
 30
0.0
 40
0.6
100
AcDbArc
 50
0.0
 51
88.09084756699929
  0
ARC
  5
730
330
1F
100
AcDbEntity
  8
0
100
AcDbCircle
 10
2.399995320912693
 20
78.68033150934252
 30
0.0
 40
0.6
100
AcDbArc
 50
271.9091524330006
 51
0.0
  0
LINE
  5
731
330
1F
100
AcDbEntity
  8
0
100
AcDbLine
 10
9.499995320912828
 20
72.99999826855151
 30
0.0
 11
7.999995320911692
 21
72.99999826855151
 31
0.0
  0
ARC
  5
732
330
1F
100
AcDbEntity
  8
0
100
AcDbCircle
 10
0.5999953209127398
 20
77.41966502775858
 30
0.0
 40
0.6
100
AcDbArc
 50
91.9091524330007
 51
180.0
  0
ARC
  5
733
330
1F
100
AcDbEntity
  8
0
100
AcDbCircle
 10
0.5999953209127398
 20
76.58033150934352
 30
0.0
 40
0.6
100
AcDbArc
 50
180.0
 51
268.0908475669992
  0
LINE
  5
734
330
1F
100
AcDbEntity
  8
0
100
AcDbLine
 10
-0.0000046790871693
 20
77.41966502775858
 30
0.0
 11
-0.0000046790871693
 21
76.58033150934352
 31
0.0
  0
LINE
  5
735
330
1F
100
AcDbEntity
  8
0
100
AcDbLine
 10
0.5800064227728399
 20
75.98066456515539
 30
0.0
 11
2.419984219051912
 21
75.91933197194656
 31
0.0
  0
LINE
  5
736
330
1F
100
AcDbEntity
  8
0
100
AcDbLine
 10
2.419984219051912
 20
78.08066456515553
 30
0.0
 11
0.5800064227728399
 21
78.01933197194649
 31
0.0
  0
LINE
  5
737
330
1F
100
AcDbEntity
  8
0
100
AcDbLine
 10
-0.0000046790871693
 20
64.61966502775954
 30
0.0
 11
-0.0000046790871693
 21
59.58033150934261
 31
0.0
  0
ARC
  5
738
330
1F
100
AcDbEntity
  8
0
100
AcDbCircle
 10
0.5999953209118303
 20
64.41966502775859
 30
0.0
 40
0.6
100
AcDbArc
 50
91.9091524330007
 51
180.0
  0
LINE
  5
739
330
1F
100
AcDbEntity
  8
0
100
AcDbLine
 10
0.5800064227728399
 20
65.01933197194649
 30
0.0
 11
2.999995320911693
 21
65.0999982685505
 31
0.0
  0
ARC
  5
73A
330
1F
100
AcDbEntity
  8
0
100
AcDbCircle
 10
0.5999953209118303
 20
64.61966502775954
 30
0.0
 40
0.6
100
AcDbArc
 50
91.9091524330007
 51
180.0
  0
LINE
  5
73B
330
1F
100
AcDbEntity
  8
0
100
AcDbLine
 10
0.5800064227728399
 20
65.21933197194653
 30
0.0
 11
2.999995320911693
 21
65.29999826855146
 31
0.0
  0
POINT
  5
73C
330
1F
100
AcDbEntity
  8
0
100
AcDbPoint
 10
-0.0000046790871693
 20
68.9999982685515
 30
0.0
  0
ARC
  5
73D
330
1F
100
AcDbEntity
  8
0
100
AcDbCircle
 10
2.399995320912693
 20
64.68033150934252
 30
0.0
 40
0.6
100
AcDbArc
 50
271.9091524329875
 51
0.0
  0
ARC
  5
73E
330
1F
100
AcDbEntity
  8
0
100
AcDbCircle
 10
2.399995320912693
 20
68.31966502775867
 30
0.0
 40
0.6
100
AcDbArc
 50
0.0
 51
88.09084756699929
  0
ARC
  5
73F
330
1F
100
AcDbEntity
  8
0
100
AcDbCircle
 10
0.5999953209127398
 20
69.58033150934352
 30
0.0
 40
0.6
100
AcDbArc
 50
180.0
 51
268.0908475669992
  0
ARC
  5
740
330
1F
100
AcDbEntity
  8
0
100
AcDbCircle
 10
0.5999953209127398
 20
63.41966502775857
 30
0.0
 40
0.6
100
AcDbArc
 50
91.9091524330007
 51
180.0
  0
LINE
  5
741
330
1F
100
AcDbEntity
  8
0
100
AcDbLine
 10
-0.0000046790871693
 20
70.41966502775858
 30
0.0
 11
-0.0000046790871693
 21
69.58033150934352
 31
0.0
  0
LINE
  5
742
330
1F
100
AcDbEntity
  8
0
100
AcDbLine
 10
2.419984219051912
 20
64.08066456515553
 30
0.0
 11
0.5800064227728399
 21
64.01933197194647
 31
0.0
  0
LINE
  5
743
330
1F
100
AcDbEntity
  8
0
100
AcDbLine
 10
2.99999532091283
 20
68.31966502775867
 30
0.0
 11
2.99999532091283
 21
64.68033150934252
 31
0.0
  0
LINE
  5
744
330
1F
100
AcDbEntity
  8
0
100
AcDbLine
 10
0.5800064227728399
 20
68.9806645651554
 30
0.0
 11
2.419984219051912
 21
68.91933197194657
 31
0.0
  0
LINE
  5
745
330
1F
100
AcDbEntity
  8
0
100
AcDbLine
 10
5.999995320912829
 20
70.97381234698264
 30
0.0
 11
4.999995320912828
 21
70.97381234698264
 31
0.0
  0
LINE
  5
746
330
1F
100
AcDbEntity
  8
0
100
AcDbLine
 10
4.999995320912828
 20
70.9999982685515
 30
0.0
 11
3.699995320912876
 21
70.9999982685515
 31
0.0
  0
ARC
  5
747
330
1F
100
AcDbEntity
  8
0
100
AcDbCircle
 10
2.399995320912693
 20
71.68033150934252
 30
0.0
 40
0.6
100
AcDbArc
 50
271.9091524330006
 51
0.0
  0
LINE
  5
748
330
1F
100
AcDbEntity
  8
0
100
AcDbLine
 10
2.419984219051912
 20
71.08066456515553
 30
0.0
 11
0.5800064227728399
 21
71.01933197194648
 31
0.0
  0
ARC
  5
749
330
1F
100
AcDbEntity
  8
0
100
AcDbCircle
 10
0.5999953209118303
 20
70.41966502775858
 30
0.0
 40
0.6
100
AcDbArc
 50
91.9091524330007
 51
180.0
  0
ARC
  5
74A
330
1F
100
AcDbEntity
  8
0
100
AcDbCircle
 10
0.5999953209118303
 20
59.58033150934261
 30
0.0
 40
0.6
100
AcDbArc
 50
180.0
 51
268.0908475669992
  0
LINE
  5
74B
330
1F
100
AcDbEntity
  8
0
100
AcDbLine
 10
0.5800064227728399
 20
58.9806645651554
 30
0.0
 11
2.999995320911693
 21
58.89999826855046
 31
0.0
  0
POINT
  5
74C
330
1F
100
AcDbEntity
  8
0
100
AcDbPoint
 10
-0.0000046790871693
 20
54.99999826855059
 30
0.0
  0
POINT
  5
74D
330
1F
100
AcDbEntity
  8
0
100
AcDbPoint
 10
-0.0000046790871693
 20
61.9999982685506
 30
0.0
  0
ARC
  5
74E
330
1F
100
AcDbEntity
  8
0
100
AcDbCircle
 10
2.399995320912693
 20
57.68033150934253
 30
0.0
 40
0.6
100
AcDbArc
 50
271.9091524330006
 51
0.0
  0
ARC
  5
74F
330
1F
100
AcDbEntity
  8
0
100
AcDbCircle
 10
2.399995320912693
 20
61.31966502775867
 30
0.0
 40
0.6
100
AcDbArc
 50
0.0
 51
88.09084756699929
  0
ARC
  5
750
330
1F
100
AcDbEntity
  8
0
100
AcDbCircle
 10
0.5999953209127398
 20
62.58033150934352
 30
0.0
 40
0.6
100
AcDbArc
 50
180.0
 51
268.0908475669992
  0
ARC
  5
751
330
1F
100
AcDbEntity
  8
0
100
AcDbCircle
 10
0.5999953209127398
 20
56.41966502775858
 30
0.0
 40
0.6
100
AcDbArc
 50
91.9091524330007
 51
180.0
  0
ARC
  5
752
330
1F
100
AcDbEntity
  8
0
100
AcDbCircle
 10
0.5999953209127398
 20
55.58033150934353
 30
0.0
 40
0.6
100
AcDbArc
 50
180.0
 51
268.0908475669992
  0
LINE
  5
753
330
1F
100
AcDbEntity
  8
0
100
AcDbLine
 10
-0.0000046790871693
 20
56.41966502775858
 30
0.0
 11
-0.0000046790871693
 21
55.58033150934353
 31
0.0
  0
LINE
  5
754
330
1F
100
AcDbEntity
  8
0
100
AcDbLine
 10
0.5800064227728399
 20
54.98066456515539
 30
0.0
 11
2.419984219051912
 21
54.91933197194658
 31
0.0
  0
LINE
  5
755
330
1F
100
AcDbEntity
  8
0
100
AcDbLine
 10
2.419984219051912
 20
57.08066456515552
 30
0.0
 11
0.5800064227728399
 21
57.01933197194648
 31
0.0
  0
LINE
  5
756
330
1F
100
AcDbEntity
  8
0
100
AcDbLine
 10
2.99999532091283
 20
61.31966502775867
 30
0.0
 11
2.99999532091283
 21
57.68033150934253
 31
0.0
  0
LINE
  5
757
330
1F
100
AcDbEntity
  8
0
100
AcDbLine
 10
0.5800064227728399
 20
61.98066456515539
 30
0.0
 11
2.419984219051912
 21
61.91933197194657
 31
0.0
  0
ARC
  5
758
330
1F
100
AcDbEntity
  8
0
100
AcDbCircle
 10
2.399995320912693
 20
54.31966502775868
 30
0.0
 40
0.6
100
AcDbArc
 50
0.0
 51
88.09084756699929
  0
ARC
  5
759
330
1F
100
AcDbEntity
  8
0
100
AcDbCircle
 10
2.399995320912693
 20
36.68033150934252
 30
0.0
 40
0.6
100
AcDbArc
 50
271.9091524330006
 51
0.0
  0
LINE
  5
75A
330
1F
100
AcDbEntity
  8
0
100
AcDbLine
 10
2.99999532091283
 20
47.31966502775867
 30
0.0
 11
2.99999532091283
 21
43.68033150934253
 31
0.0
  0
POINT
  5
75B
330
1F
100
AcDbEntity
  8
0
100
AcDbPoint
 10
-0.0000046790871693
 20
47.99999826855152
 30
0.0
  0
ARC
  5
75C
330
1F
100
AcDbEntity
  8
0
100
AcDbCircle
 10
2.399995320912693
 20
47.31966502775867
 30
0.0
 40
0.6
100
AcDbArc
 50
0.0
 51
88.09084756699929
  0
ARC
  5
75D
330
1F
100
AcDbEntity
  8
0
100
AcDbCircle
 10
2.399995320912693
 20
50.68033150934253
 30
0.0
 40
0.6
100
AcDbArc
 50
271.9091524330006
 51
0.0
  0
ARC
  5
75E
330
1F
100
AcDbEntity
  8
0
100
AcDbCircle
 10
0.5999953209118303
 20
49.41966502775859
 30
0.0
 40
0.6
100
AcDbArc
 50
91.9091524330007
 51
180.0
  0
ARC
  5
75F
330
1F
100
AcDbEntity
  8
0
100
AcDbCircle
 10
0.5999953209127398
 20
48.58033150934351
 30
0.0
 40
0.6
100
AcDbArc
 50
180.0
 51
268.0908475669992
  0
LINE
  5
760
330
1F
100
AcDbEntity
  8
0
100
AcDbLine
 10
-0.0000046790871693
 20
49.41966502775859
 30
0.0
 11
-0.0000046790871693
 21
48.58033150934351
 31
0.0
  0
LINE
  5
761
330
1F
100
AcDbEntity
  8
0
100
AcDbLine
 10
0.5800064227728399
 20
47.98066456515539
 30
0.0
 11
2.419984219051912
 21
47.91933197194658
 31
0.0
  0
LINE
  5
762
330
1F
100
AcDbEntity
  8
0
100
AcDbLine
 10
2.419984219051912
 20
50.08066456515553
 30
0.0
 11
0.5800064227728399
 21
50.01933197194649
 31
0.0
  0
POINT
  5
763
330
1F
100
AcDbEntity
  8
0
100
AcDbPoint
 10
-0.0000046790871693
 20
40.9999982685506
 30
0.0
  0
ARC
  5
764
330
1F
100
AcDbEntity
  8
0
100
AcDbCircle
 10
2.399995320912693
 20
40.31966502775865
 30
0.0
 40
0.6
100
AcDbArc
 50
0.0
 51
88.09084756699929
  0
ARC
  5
765
330
1F
100
AcDbEntity
  8
0
100
AcDbCircle
 10
2.399995320912693
 20
43.68033150934253
 30
0.0
 40
0.6
100
AcDbArc
 50
271.9091524330006
 51
0.0
  0
ARC
  5
766
330
1F
100
AcDbEntity
  8
0
100
AcDbCircle
 10
0.5999953209118303
 20
42.41966502775857
 30
0.0
 40
0.6
100
AcDbArc
 50
91.9091524330007
 51
180.0
  0
ARC
  5
767
330
1F
100
AcDbEntity
  8
0
100
AcDbCircle
 10
0.5999953209118303
 20
41.58033150934352
 30
0.0
 40
0.6
100
AcDbArc
 50
180.0
 51
268.0908475669992
  0
LINE
  5
768
330
1F
100
AcDbEntity
  8
0
100
AcDbLine
 10
-0.0000046790871693
 20
42.41966502775857
 30
0.0
 11
-0.0000046790871693
 21
41.58033150934352
 31
0.0
  0
LINE
  5
769
330
1F
100
AcDbEntity
  8
0
100
AcDbLine
 10
0.5800064227728399
 20
40.98066456515539
 30
0.0
 11
2.419984219051912
 21
40.91933197194657
 31
0.0
  0
LINE
  5
76A
330
1F
100
AcDbEntity
  8
0
100
AcDbLine
 10
2.419984219051912
 20
43.08066456515553
 30
0.0
 11
0.5800064227728399
 21
43.01933197194649
 31
0.0
  0
LINE
  5
76B
330
1F
100
AcDbEntity
  8
0
100
AcDbLine
 10
2.99999532091283
 20
40.31966502775865
 30
0.0
 11
2.99999532091283
 21
36.68033150934252
 31
0.0
  0
ARC
  5
76C
330
1F
100
AcDbEntity
  8
0
100
AcDbCircle
 10
0.5999953209118303
 20
27.58033150934352
 30
0.0
 40
0.6
100
AcDbArc
 50
180.0
 51
268.0908475669992
  0
LINE
  5
76D
330
1F
100
AcDbEntity
  8
0
100
AcDbLine
 10
9.699995320911739
 20
31.47381234698264
 30
0.0
 11
9.699995320911739
 21
22.47381234698264
 31
0.0
  0
LINE
  5
76E
330
1F
100
AcDbEntity
  8
0
100
AcDbLine
 10
7.999995320911692
 20
31.47381234698264
 30
0.0
 11
7.999995320911692
 21
22.47381234698264
 31
0.0
  0
LINE
  5
76F
330
1F
100
AcDbEntity
  8
0
100
AcDbLine
 10
4.999995320912828
 20
32.99999826855151
 30
0.0
 11
4.999995320912828
 21
20.99999826855059
 31
0.0
  0
LINE
  5
770
330
1F
100
AcDbEntity
  8
0
100
AcDbLine
 10
4.499995320912828
 20
32.99999826855151
 30
0.0
 11
4.499995320912828
 21
20.9999982685515
 31
0.0
  0
LINE
  5
771
330
1F
100
AcDbEntity
  8
0
100
AcDbLine
 10
3.699995320912876
 20
32.99999826855151
 30
0.0
 11
3.699995320912876
 21
21.09999826855049
 31
0.0
  0
LINE
  5
772
330
1F
100
AcDbEntity
  8
0
100
AcDbLine
 10
9.499995320912828
 20
30.9999982685515
 30
0.0
 11
9.499995320912828
 21
22.9999982685515
 31
0.0
  0
LINE
  5
773
330
1F
100
AcDbEntity
  8
0
100
AcDbLine
 10
8.699995320912876
 20
30.9999982685515
 30
0.0
 11
8.699995320912876
 21
22.9999982685515
 31
0.0
  0
LINE
  5
774
330
1F
100
AcDbEntity
  8
0
100
AcDbLine
 10
8.099995320912737
 20
30.9999982685515
 30
0.0
 11
8.099995320912737
 21
22.9999982685515
 31
0.0
  0
ARC
  5
775
330
1F
100
AcDbEntity
  8
0
100
AcDbCircle
 10
2.399995320912693
 20
29.68033150934251
 30
0.0
 40
0.6
100
AcDbArc
 50
271.9091524330006
 51
0.0
  0
ARC
  5
776
330
1F
100
AcDbEntity
  8
0
100
AcDbCircle
 10
0.5999953209127398
 20
28.41966502775857
 30
0.0
 40
0.6
100
AcDbArc
 50
91.9091524330007
 51
180.0
  0
LINE
  5
777
330
1F
100
AcDbEntity
  8
0
100
AcDbLine
 10
-0.0000046790871693
 20
28.41966502775857
 30
0.0
 11
-0.0000046790871693
 21
27.58033150934352
 31
0.0
  0
LINE
  5
778
330
1F
100
AcDbEntity
  8
0
100
AcDbLine
 10
2.419984219051912
 20
29.08066456515553
 30
0.0
 11
0.5800064227728399
 21
29.01933197194648
 31
0.0
  0
LINE
  5
779
330
1F
100
AcDbEntity
  8
0
100
AcDbLine
 10
5.999995320912829
 20
32.97381234698355
 30
0.0
 11
4.999995320912828
 21
32.97381234698355
 31
0.0
  0
LINE
  5
77A
330
1F
100
AcDbEntity
  8
0
100
AcDbLine
 10
9.699995320911739
 20
31.47381234698264
 30
0.0
 11
7.999995320911692
 21
31.47381234698264
 31
0.0
  0
LINE
  5
77B
330
1F
100
AcDbEntity
  8
0
100
AcDbLine
 10
4.999995320912828
 20
32.99999826855151
 30
0.0
 11
3.699995320912876
 21
32.99999826855151
 31
0.0
  0
POINT
  5
77C
330
1F
100
AcDbEntity
  8
0
100
AcDbPoint
 10
-0.0000046790871693
 20
33.9999982685515
 30
0.0
  0
ARC
  5
77D
330
1F
100
AcDbEntity
  8
0
100
AcDbCircle
 10
2.399995320912693
 20
33.31966502775866
 30
0.0
 40
0.6
100
AcDbArc
 50
0.0
 51
88.09084756699929
  0
LINE
  5
77E
330
1F
100
AcDbEntity
  8
0
100
AcDbLine
 10
9.499995320912828
 20
30.9999982685515
 30
0.0
 11
7.999995320911692
 21
30.9999982685515
 31
0.0
  0
ARC
  5
77F
330
1F
100
AcDbEntity
  8
0
100
AcDbCircle
 10
0.5999953209118303
 20
35.41966502775856
 30
0.0
 40
0.6
100
AcDbArc
 50
91.9091524330007
 51
180.0
  0
ARC
  5
780
330
1F
100
AcDbEntity
  8
0
100
AcDbCircle
 10
0.5999953209127398
 20
34.58033150934351
 30
0.0
 40
0.6
100
AcDbArc
 50
180.0
 51
268.0908475669992
  0
LINE
  5
781
330
1F
100
AcDbEntity
  8
0
100
AcDbLine
 10
-0.0000046790871693
 20
35.41966502775856
 30
0.0
 11
-0.0000046790871693
 21
34.58033150934351
 31
0.0
  0
LINE
  5
782
330
1F
100
AcDbEntity
  8
0
100
AcDbLine
 10
0.5800064227728399
 20
33.98066456515539
 30
0.0
 11
2.419984219051912
 21
33.91933197194656
 31
0.0
  0
LINE
  5
783
330
1F
100
AcDbEntity
  8
0
100
AcDbLine
 10
2.419984219051912
 20
36.08066456515553
 30
0.0
 11
0.5800064227728399
 21
36.01933197194647
 31
0.0
  0
LINE
  5
784
330
1F
100
AcDbEntity
  8
0
100
AcDbLine
 10
2.99999532091283
 20
33.31966502775866
 30
0.0
 11
2.99999532091283
 21
29.68033150934251
 31
0.0
  0
LINE
  5
785
330
1F
100
AcDbEntity
  8
0
100
AcDbLine
 10
5.999995320912829
 20
20.97381234698264
 30
0.0
 11
4.999995320912828
 21
20.97381234698264
 31
0.0
  0
LINE
  5
786
330
1F
100
AcDbEntity
  8
0
100
AcDbLine
 10
4.999995320912828
 20
20.9999982685515
 30
0.0
 11
3.699995320912876
 21
20.9999982685515
 31
0.0
  0
LINE
  5
787
330
1F
100
AcDbEntity
  8
0
100
AcDbLine
 10
9.699995320911739
 20
22.47381234698264
 30
0.0
 11
7.999995320911692
 21
22.47381234698264
 31
0.0
  0
POINT
  5
788
330
1F
100
AcDbEntity
  8
0
100
AcDbPoint
 10
-0.0000046790871693
 20
21.9999982685506
 30
0.0
  0
POINT
  5
789
330
1F
100
AcDbEntity
  8
0
100
AcDbPoint
 10
-0.0000046790871693
 20
26.9999982685506
 30
0.0
  0
ARC
  5
78A
330
1F
100
AcDbEntity
  8
0
100
AcDbCircle
 10
2.499995320912828
 20
22.58360930254434
 30
0.0
 40
0.5
100
AcDbArc
 50
271.9091524330006
 51
0.0
  0
ARC
  5
78B
330
1F
100
AcDbEntity
  8
0
100
AcDbCircle
 10
2.399995320912693
 20
26.31966502775867
 30
0.0
 40
0.6
100
AcDbArc
 50
0.0
 51
88.09084756699929
  0
LINE
  5
78C
330
1F
100
AcDbEntity
  8
0
100
AcDbLine
 10
9.499995320912828
 20
22.9999982685515
 30
0.0
 11
7.999995320911692
 21
22.9999982685515
 31
0.0
  0
LINE
  5
78D
330
1F
100
AcDbEntity
  8
0
100
AcDbLine
 10
2.516652736028845
 20
22.08388684905435
 30
0.0
 11
0.5800064227728399
 21
22.01933197194648
 31
0.0
  0
LINE
  5
78E
330
1F
100
AcDbEntity
  8
0
100
AcDbLine
 10
2.99999532091283
 20
26.31966502775867
 30
0.0
 11
2.99999532091283
 21
22.58360930254434
 31
0.0
  0
LINE
  5
78F
330
1F
100
AcDbEntity
  8
0
100
AcDbLine
 10
0.5800064227728399
 20
26.98066456515539
 30
0.0
 11
2.419984219051912
 21
26.91933197194657
 31
0.0
  0
ARC
  5
790
330
1F
100
AcDbEntity
  8
0
100
AcDbCircle
 10
0.5999953209127398
 20
21.41966502775856
 30
0.0
 40
0.6
100
AcDbArc
 50
91.9091524330007
 51
180.0
  0
LINE
  5
791
330
1F
100
AcDbEntity
  8
0
100
AcDbLine
 10
54.49999532091283
 20
54.97381234698264
 30
0.0
 11
54.49999532091283
 21
48.97381234698264
 31
0.0
  0
LINE
  5
792
330
1F
100
AcDbEntity
  8
0
100
AcDbLine
 10
33.49999532091283
 20
48.97381234698264
 30
0.0
 11
33.49999532091283
 21
54.97381234698264
 31
0.0
  0
LINE
  5
793
330
1F
100
AcDbEntity
  8
0
100
AcDbLine
 10
32.99999532091283
 20
82.97381234698264
 30
0.0
 11
32.99999532091283
 21
84.97381234698265
 31
0.0
  0
LINE
  5
794
330
1F
100
AcDbEntity
  8
0
100
AcDbLine
 10
32.99999532091283
 20
75.97381234698264
 30
0.0
 11
32.99999532091283
 21
77.97381234698264
 31
0.0
  0
LINE
  5
795
330
1F
100
AcDbEntity
  8
0
100
AcDbLine
 10
33.49999532091283
 20
63.97381234698264
 30
0.0
 11
33.49999532091283
 21
68.97381234698264
 31
0.0
  0
LINE
  5
796
330
1F
100
AcDbEntity
  8
0
100
AcDbLine
 10
33.49999532091283
 20
56.97381234698264
 30
0.0
 11
33.49999532091283
 21
61.97381234698264
 31
0.0
  0
LINE
  5
797
330
1F
100
AcDbEntity
  8
0
100
AcDbLine
 10
55.99999532091283
 20
82.97381234698264
 30
0.0
 11
55.99999532091283
 21
84.97381234698265
 31
0.0
  0
LINE
  5
798
330
1F
100
AcDbEntity
  8
0
100
AcDbLine
 10
54.99999532091283
 20
82.97381234698264
 30
0.0
 11
54.99999532091283
 21
84.97381234698265
 31
0.0
  0
LINE
  5
799
330
1F
100
AcDbEntity
  8
0
100
AcDbLine
 10
56.99999532091283
 20
82.97381234698264
 30
0.0
 11
54.99999532091283
 21
82.97381234698264
 31
0.0
  0
LINE
  5
79A
330
1F
100
AcDbEntity
  8
0
100
AcDbLine
 10
56.99999532091283
 20
84.97381234698265
 30
0.0
 11
54.99999532091283
 21
84.97381234698265
 31
0.0
  0
LINE
  5
79B
330
1F
100
AcDbEntity
  8
0
100
AcDbLine
 10
55.99999532091283
 20
75.97381234698264
 30
0.0
 11
55.99999532091283
 21
77.97381234698264
 31
0.0
  0
LINE
  5
79C
330
1F
100
AcDbEntity
  8
0
100
AcDbLine
 10
54.99999532091283
 20
75.97381234698264
 30
0.0
 11
54.99999532091283
 21
77.97381234698264
 31
0.0
  0
LINE
  5
79D
330
1F
100
AcDbEntity
  8
0
100
AcDbLine
 10
56.99999532091283
 20
75.97381234698264
 30
0.0
 11
54.99999532091283
 21
75.97381234698264
 31
0.0
  0
LINE
  5
79E
330
1F
100
AcDbEntity
  8
0
100
AcDbLine
 10
56.99999532091283
 20
77.97381234698264
 30
0.0
 11
54.99999532091283
 21
77.97381234698264
 31
0.0
  0
LINE
  5
79F
330
1F
100
AcDbEntity
  8
0
100
AcDbLine
 10
55.99999532091283
 20
61.97381234698264
 30
0.0
 11
55.99999532091283
 21
63.97381234698264
 31
0.0
  0
LINE
  5
7A0
330
1F
100
AcDbEntity
  8
0
100
AcDbLine
 10
54.99999532091283
 20
61.97381234698264
 30
0.0
 11
54.99999532091283
 21
63.97381234698264
 31
0.0
  0
LINE
  5
7A1
330
1F
100
AcDbEntity
  8
0
100
AcDbLine
 10
54.49999532091283
 20
68.97381234698264
 30
0.0
 11
54.49999532091283
 21
63.97381234698264
 31
0.0
  0
LINE
  5
7A2
330
1F
100
AcDbEntity
  8
0
100
AcDbLine
 10
55.99999532091283
 20
68.97381234698264
 30
0.0
 11
55.99999532091283
 21
70.97381234698264
 31
0.0
  0
LINE
  5
7A3
330
1F
100
AcDbEntity
  8
0
100
AcDbLine
 10
54.99999532091283
 20
68.97381234698264
 30
0.0
 11
54.99999532091283
 21
70.97381234698264
 31
0.0
  0
LINE
  5
7A4
330
1F
100
AcDbEntity
  8
0
100
AcDbLine
 10
54.49999532091283
 20
61.97381234698264
 30
0.0
 11
54.49999532091283
 21
56.97381234698264
 31
0.0
  0
LINE
  5
7A5
330
1F
100
AcDbEntity
  8
0
100
AcDbLine
 10
55.99999532091283
 20
54.97381234698264
 30
0.0
 11
55.99999532091283
 21
56.97381234698264
 31
0.0
  0
LINE
  5
7A6
330
1F
100
AcDbEntity
  8
0
100
AcDbLine
 10
54.99999532091283
 20
54.97381234698264
 30
0.0
 11
54.99999532091283
 21
56.97381234698264
 31
0.0
  0
LINE
  5
7A7
330
1F
100
AcDbEntity
  8
0
100
AcDbLine
 10
38.99999532091283
 20
49.97381234698264
 30
0.0
 11
48.99999532091283
 21
49.97381234698264
 31
0.0
  0
LINE
  5
7A8
330
1F
100
AcDbEntity
  8
0
100
AcDbLine
 10
54.49999532091283
 20
48.97381234698264
 30
0.0
 11
33.49999532091283
 21
48.97381234698264
 31
0.0
  0
LINE
  5
7A9
330
1F
100
AcDbEntity
  8
0
100
AcDbLine
 10
32.99999532091283
 20
47.97381234698264
 30
0.0
 11
32.99999532091283
 21
49.97381234698264
 31
0.0
  0
ARC
  5
7AA
330
1F
100
AcDbEntity
  8
0
100
AcDbCircle
 10
38.99999532091283
 20
50.47381234698264
 30
0.0
 40
0.5
100
AcDbArc
 50
251.3748222726488
 51
270.0
  0
ARC
  5
7AB
330
1F
100
AcDbEntity
  8
0
100
AcDbCircle
 10
48.99999532091283
 20
50.47381234698264
 30
0.0
 40
0.5
100
AcDbArc
 50
270.0
 51
288.625177727351
  0
LINE
  5
7AC
330
1F
100
AcDbEntity
  8
0
100
AcDbLine
 10
55.99999532091283
 20
47.97381234698264
 30
0.0
 11
55.99999532091283
 21
49.97381234698264
 31
0.0
  0
LINE
  5
7AD
330
1F
100
AcDbEntity
  8
0
100
AcDbLine
 10
54.99999532091283
 20
47.97381234698264
 30
0.0
 11
54.99999532091283
 21
49.97381234698264
 31
0.0
  0
LINE
  5
7AE
330
1F
100
AcDbEntity
  8
0
100
AcDbLine
 10
56.99999532091283
 20
47.97381234698264
 30
0.0
 11
54.99999532091283
 21
47.97381234698264
 31
0.0
  0
LINE
  5
7AF
330
1F
100
AcDbEntity
  8
0
100
AcDbLine
 10
56.99999532091283
 20
49.97381234698264
 30
0.0
 11
54.99999532091283
 21
49.97381234698264
 31
0.0
  0
LINE
  5
7B0
330
1F
100
AcDbEntity
  8
0
100
AcDbLine
 10
55.99999532091283
 20
40.97381234698263
 30
0.0
 11
55.99999532091283
 21
42.97381234698264
 31
0.0
  0
LINE
  5
7B1
330
1F
100
AcDbEntity
  8
0
100
AcDbLine
 10
54.99999532091283
 20
40.97381234698263
 30
0.0
 11
54.99999532091283
 21
42.97381234698264
 31
0.0
  0
LINE
  5
7B2
330
1F
100
AcDbEntity
  8
0
100
AcDbLine
 10
55.99999532091283
 20
26.97381234698264
 30
0.0
 11
55.99999532091283
 21
28.97381234698264
 31
0.0
  0
LINE
  5
7B3
330
1F
100
AcDbEntity
  8
0
100
AcDbLine
 10
54.99999532091283
 20
26.97381234698264
 30
0.0
 11
54.99999532091283
 21
28.97381234698264
 31
0.0
  0
LINE
  5
7B4
330
1F
100
AcDbEntity
  8
0
100
AcDbLine
 10
55.99999532091283
 20
33.97381234698264
 30
0.0
 11
55.99999532091283
 21
35.97381234698264
 31
0.0
  0
LINE
  5
7B5
330
1F
100
AcDbEntity
  8
0
100
AcDbLine
 10
54.99999532091283
 20
33.97381234698264
 30
0.0
 11
54.99999532091283
 21
35.97381234698264
 31
0.0
  0
LINE
  5
7B6
330
1F
100
AcDbEntity
  8
0
100
AcDbLine
 10
57.99999532091283
 20
3.585958503814481
 30
0.0
 11
4.999995320912828
 21
4.973812346982637
 31
0.0
  0
LINE
  5
7B7
330
1F
100
AcDbEntity
  8
0
100
AcDbLine
 10
3.99999532091283
 20
4.999998268551506
 30
0.0
 11
57.99999532091283
 21
3.585958503814481
 31
0.0
  0
LINE
  5
7B8
330
1F
100
AcDbEntity
  8
0
100
AcDbLine
 10
-0.0000046790871693
 20
-0.0000017314484921
 30
0.0
 11
57.99999532091283
 21
-0.0000017314484921
 31
0.0
  0
LINE
  5
7B9
330
1F
100
AcDbEntity
  8
0
100
AcDbLine
 10
3.99999532091283
 20
4.999998268551506
 30
0.0
 11
-0.0000046790871693
 21
4.895254582274673
 31
0.0
  0
LINE
  5
7BA
330
1F
100
AcDbEntity
  8
0
100
AcDbLine
 10
31.09999532091273
 20
3.799998268550551
 30
0.0
 11
31.09999532091273
 21
-0.0000017314484921
 31
0.0
  0
LINE
  5
7BB
330
1F
100
AcDbEntity
  8
0
100
AcDbLine
 10
26.89999532091178
 20
3.799998268550551
 30
0.0
 11
26.89999532091178
 21
-0.0000017314484921
 31
0.0
  0
LINE
  5
7BC
330
1F
100
AcDbEntity
  8
0
100
AcDbLine
 10
23.49999532091282
 20
3.799998268550551
 30
0.0
 11
34.49999532091283
 21
3.799998268550551
 31
0.0
  0
LINE
  5
7BD
330
1F
100
AcDbEntity
  8
0
100
AcDbLine
 10
23.49999532091282
 20
4.489372797951546
 30
0.0
 11
23.49999532091282
 21
3.799998268550551
 31
0.0
  0
LINE
  5
7BE
330
1F
100
AcDbEntity
  8
0
100
AcDbLine
 10
34.49999532091283
 20
4.201327660691731
 30
0.0
 11
34.49999532091283
 21
3.799998268550551
 31
0.0
  0
LINE
  5
7BF
330
1F
100
AcDbEntity
  8
0
100
AcDbLine
 10
57.99999532091283
 20
-0.0000017314484921
 30
0.0
 11
57.99999532091283
 21
3.585958503814481
 31
0.0
  0
LINE
  5
7C0
330
1F
100
AcDbEntity
  8
0
100
AcDbLine
 10
41.14999532091268
 20
120.9738123469825
 30
0.0
 11
41.14999532091268
 21
124.3738123469825
 31
0.0
  0
LINE
  5
7C1
330
1F
100
AcDbEntity
  8
0
100
AcDbLine
 10
41.14999532091268
 20
124.3738123469825
 30
0.0
 11
47.44999532091287
 21
124.3738123469825
 31
0.0
  0
LINE
  5
7C2
330
1F
100
AcDbEntity
  8
0
100
AcDbLine
 10
47.44999532091287
 20
124.3738123469825
 30
0.0
 11
47.44999532091287
 21
120.9738123469825
 31
0.0
  0
LINE
  5
7C3
330
1F
100
AcDbEntity
  8
0
100
AcDbLine
 10
15.59999532091183
 20
126.2738123469826
 30
0.0
 11
15.59999532091183
 21
127.5738123469824
 31
0.0
  0
LINE
  5
7C4
330
1F
100
AcDbEntity
  8
0
100
AcDbLine
 10
15.59999532091183
 20
127.5738123469824
 30
0.0
 11
24.94499532091162
 21
127.5738123469824
 31
0.0
  0
LINE
  5
7C5
330
1F
100
AcDbEntity
  8
0
100
AcDbLine
 10
24.94499532091162
 20
127.5738123469824
 30
0.0
 11
24.94499532091162
 21
120.9738123469825
 31
0.0
  0
LINE
  5
7C6
330
1F
100
AcDbEntity
  8
0
100
AcDbLine
 10
15.19999532091174
 20
121.9738123469825
 30
0.0
 11
15.19999532091174
 21
126.2738123469826
 31
0.0
  0
LINE
  5
7C7
330
1F
100
AcDbEntity
  8
0
100
AcDbLine
 10
15.19999532091174
 20
126.2738123469826
 30
0.0
 11
21.09999532091181
 21
126.2738123469826
 31
0.0
  0
LINE
  5
7C8
330
1F
100
AcDbEntity
  8
0
100
AcDbLine
 10
21.09999532091181
 20
126.2738123469826
 30
0.0
 11
21.09999532091181
 21
121.9738123469825
 31
0.0
  0
LINE
  5
7C9
330
1F
100
AcDbEntity
  8
0
100
AcDbLine
 10
14.09999532091274
 20
120.9738123469825
 30
0.0
 11
14.09999532091274
 21
121.9738123469825
 31
0.0
  0
LINE
  5
7CA
330
1F
100
AcDbEntity
  8
0
100
AcDbLine
 10
14.09999532091274
 20
121.9738123469825
 30
0.0
 11
22.69999532091173
 21
121.9738123469825
 31
0.0
  0
LINE
  5
7CB
330
1F
100
AcDbEntity
  8
0
100
AcDbLine
 10
22.69999532091173
 20
121.9738123469825
 30
0.0
 11
22.69999532091173
 21
120.9738123469825
 31
0.0
  0
LINE
  5
7CC
330
1F
100
AcDbEntity
  8
0
100
AcDbLine
 10
48.99999532091283
 20
49.99999826855059
 30
0.0
 11
38.99999532091283
 21
49.99999826855059
 31
0.0
  0
LINE
  5
7CD
330
1F
100
AcDbEntity
  8
0
100
AcDbLine
 10
51.49999532091283
 20
101.9999982685504
 30
0.0
 11
49.99999532091283
 21
101.9999982685504
 31
0.0
  0
LINE
  5
7CE
330
1F
100
AcDbEntity
  8
0
100
AcDbLine
 10
53.49999532091283
 20
51.9999982685506
 30
0.0
 11
34.49999532091283
 21
51.9999982685506
 31
0.0
  0
LINE
  5
7CF
330
1F
100
AcDbEntity
  8
0
100
AcDbLine
 10
34.49999532091283
 20
89.99999826855058
 30
0.0
 11
53.49999532091283
 21
89.99999826855058
 31
0.0
  0
LINE
  5
7D0
330
1F
100
AcDbEntity
  8
0
100
AcDbLine
 10
34.49999532091283
 20
91.99999826855059
 30
0.0
 11
53.49999532091283
 21
91.99999826855059
 31
0.0
  0
LINE
  5
7D1
330
1F
100
AcDbEntity
  8
0
100
AcDbLine
 10
34.5527735070666
 20
101.9999982685504
 30
0.0
 11
53.44721713475769
 21
101.9999982685504
 31
0.0
  0
LINE
  5
7D2
330
1F
100
AcDbEntity
  8
0
100
AcDbLine
 10
34.5527735070666
 20
101.9999982685504
 30
0.0
 11
34.5527735070666
 21
91.99999826855059
 31
0.0
  0
LINE
  5
7D3
330
1F
100
AcDbEntity
  8
0
100
AcDbLine
 10
53.44721713475769
 20
101.9999982685504
 30
0.0
 11
53.44721713475769
 21
91.99999826855059
 31
0.0
  0
LINE
  5
7D4
330
1F
100
AcDbEntity
  8
0
100
AcDbLine
 10
53.49999532091283
 20
91.99999826855059
 30
0.0
 11
53.49999532091283
 21
49.99999826855059
 31
0.0
  0
LINE
  5
7D5
330
1F
100
AcDbEntity
  8
0
100
AcDbLine
 10
53.49999532091283
 20
49.99999826855059
 30
0.0
 11
34.49999532091283
 21
49.99999826855059
 31
0.0
  0
LINE
  5
7D6
330
1F
100
AcDbEntity
  8
0
100
AcDbLine
 10
34.49999532091283
 20
49.99999826855059
 30
0.0
 11
34.49999532091283
 21
91.99999826855059
 31
0.0
  0
LINE
  5
7D7
330
1F
100
AcDbEntity
  8
0
100
AcDbLine
 10
38.99999532091283
 20
51.9999982685506
 30
0.0
 11
38.99999532091283
 21
49.97381234698264
 31
0.0
  0
ARC
  5
7D8
330
1F
100
AcDbEntity
  8
0
100
AcDbCircle
 10
35.29999532091277
 20
81.9999982685506
 30
0.0
 40
1.05
100
AcDbArc
 50
139.6324064558172
 51
220.3675935441825
  0
LINE
  5
7D9
330
1F
100
AcDbEntity
  8
0
100
AcDbLine
 10
48.99999532091283
 20
49.97381234698264
 30
0.0
 11
48.99999532091283
 21
51.9999982685506
 31
0.0
  0
LINE
  5
7DA
330
1F
100
AcDbEntity
  8
0
100
AcDbLine
 10
34.5527735070666
 20
98.97381234698263
 30
0.0
 11
15.99999532091283
 21
98.97381234698263
 31
0.0
  0
LINE
  5
7DB
330
1F
100
AcDbEntity
  8
0
100
AcDbLine
 10
34.5527735070666
 20
96.97381234698262
 30
0.0
 11
15.99999532091283
 21
96.97381234698262
 31
0.0
  0
LINE
  5
7DC
330
1F
100
AcDbEntity
  8
0
100
AcDbLine
 10
34.49999532091283
 20
70.97381234698264
 30
0.0
 11
15.99999532091283
 21
70.97381234698264
 31
0.0
  0
LINE
  5
7DD
330
1F
100
AcDbEntity
  8
0
100
AcDbLine
 10
34.49999532091283
 20
68.97381234698264
 30
0.0
 11
15.99999532091283
 21
68.97381234698264
 31
0.0
  0
LINE
  5
7DE
330
1F
100
AcDbEntity
  8
0
100
AcDbLine
 10
34.49999532091283
 20
63.97381234698264
 30
0.0
 11
15.99999532091283
 21
63.97381234698264
 31
0.0
  0
LINE
  5
7DF
330
1F
100
AcDbEntity
  8
0
100
AcDbLine
 10
34.49999532091283
 20
61.97381234698264
 30
0.0
 11
15.99999532091283
 21
61.97381234698264
 31
0.0
  0
LINE
  5
7E0
330
1F
100
AcDbEntity
  8
0
100
AcDbLine
 10
34.49999532091283
 20
56.97381234698264
 30
0.0
 11
15.99999532091283
 21
56.97381234698264
 31
0.0
  0
LINE
  5
7E1
330
1F
100
AcDbEntity
  8
0
100
AcDbLine
 10
34.49999532091283
 20
54.97381234698264
 30
0.0
 11
15.99999532091283
 21
54.97381234698264
 31
0.0
  0
LINE
  5
7E2
330
1F
100
AcDbEntity
  8
0
100
AcDbLine
 10
48.99999532091283
 20
49.99999826855059
 30
0.0
 11
53.49999532091283
 21
49.99999826855059
 31
0.0
  0
LINE
  5
7E3
330
1F
100
AcDbEntity
  8
0
100
AcDbLine
 10
53.49999532091283
 20
49.99999826855059
 30
0.0
 11
53.49999532091283
 21
49.99999826855059
 31
0.0
  0
TEXT
  5
8AC
330
1F
100
AcDbEntity
  8
0
100
AcDbText
 10
-2.967632833813937
 20
401.9277956729464
 30
0.0
 40
10.0
  1
SCON-CA-20A~300A-ML-*-1/2
100
AcDbText
  0
ENDSEC
  0
SECTION
  2
OBJECTS
  0
DICTIONARY
  5
C
330
0
100
AcDbDictionary
  3
ACAD_GROUP
350
D
  3
ACAD_LAYOUT
350
1A
  3
ACAD_MLINESTYLE
350
17
  3
ACAD_PLOTSETTINGS
350
19
  3
ACAD_PLOTSTYLENAME
350
E
  3
ACDBHEADERROUNDTRIPXREC
350
930
  3
ACDBVARIABLEDICTIONARY
350
8AD
  0
DICTIONARY
  5
175
330
2
100
AcDbDictionary
280
     1
  3
ACAD_LAYERSTATES
360
176
  0
DICTIONARY
  5
8D3
330
1F
100
AcDbDictionary
280
     1
  3
ACAD_LAYOUTSELFREF
360
951
  0
DICTIONARY
  5
8D1
330
1B
100
AcDbDictionary
280
     1
  3
ACAD_LAYOUTSELFREF
360
950
  0
DICTIONARY
  5
D
102
{ACAD_REACTORS
330
C
102
}
330
C
100
AcDbDictionary
  0
DICTIONARY
  5
1A
102
{ACAD_REACTORS
330
C
102
}
330
C
100
AcDbDictionary
  0
DICTIONARY
  5
17
102
{ACAD_REACTORS
330
C
102
}
330
C
100
AcDbDictionary
  3
STANDARD
350
18
  0
DICTIONARY
  5
19
102
{ACAD_REACTORS
330
C
102
}
330
C
100
AcDbDictionary
  0
ACDBDICTIONARYWDFLT
  5
E
102
{ACAD_REACTORS
330
C
102
}
330
C
100
AcDbDictionary
281
     1
  3
Normal
350
F
100
AcDbDictionaryWithDefault
340
F
  0
DICTIONARY
  5
930
102
{ACAD_REACTORS
330
C
102
}
330
C
100
AcDbDictionary
  3
CEPSNTYPE
350
93A
  3
FINGERPRINTGUID
350
93B
  3
HYPERLINKBASE
350
933
  3
INSUNITS
350
939
  3
LAYOUTDICT
350
935
  3
LWETCUNION
350
938
  3
PLOTSETDICT
350
936
  3
PLOTSTYLNAMDICT
350
937
  3
PSVPSCALE
350
93D
  3
PUCSBASE
350
940
  3
PUCSORGBACK
350
946
  3
PUCSORGBOTTOM
350
942
  3
PUCSORGFRONT
350
945
  3
PUCSORGLEFT
350
943
  3
PUCSORGRIGHT
350
944
  3
PUCSORGTOP
350
941
  3
PUCSORTHOREF
350
93E
  3
PUCSORTHOVIEW
350
93F
  3
STYLESHEET
350
934
  3
TSTACKALIGN
350
931
  3
TSTACKSIZE
350
932
  3
UCSBASE
350
949
  3
UCSORGBACK
350
94F
  3
UCSORGBOTTOM
350
94B
  3
UCSORGFRONT
350
94E
  3
UCSORGLEFT
350
94C
  3
UCSORGRIGHT
350
94D
  3
UCSORGTOP
350
94A
  3
UCSORTHOREF
350
947
  3
UCSORTHOVIEW
350
948
  3
VERSIONGUID
350
93C
  0
DICTIONARY
  5
8AD
102
{ACAD_REACTORS
330
C
102
}
330
C
100
AcDbDictionary
  3
DIMASSOC
350
8AF
  3
HIDETEXT
350
8AE
  0
DICTIONARY
  5
176
102
{ACAD_REACTORS
330
175
102
}
330
175
100
AcDbDictionary
  0
XRECORD
  5
951
102
{ACAD_REACTORS
330
8D3
102
}
330
8D3
100
AcDbXrecord
340
1F
  0
XRECORD
  5
950
102
{ACAD_REACTORS
330
8D1
102
}
330
8D1
100
AcDbXrecord
340
1B
  0
MLINESTYLE
  5
18
102
{ACAD_REACTORS
330
17
102
}
330
17
100
AcDbMlineStyle
  2
STANDARD
 70
     0
  3

 62
   256
 51
90.0
 52
90.0
 71
     2
 49
0.5
 62
   256
  6
BYLAYER
 49
-0.5
 62
   256
  6
BYLAYER
  0
ACDBPLACEHOLDER
  5
F
102
{ACAD_REACTORS
330
E
102
}
330
E
100
AcDbPlaceHolder
280
     0
  0
XRECORD
  5
93A
102
{ACAD_REACTORS
330
930
102
}
330
930
100
AcDbXrecord
 90
        0
  0
XRECORD
  5
93B
102
{ACAD_REACTORS
330
930
102
}
330
930
100
AcDbXrecord
  1
{9C9005F1-30DA-4D53-AD6A-DDCEAAAF184E}
  0
XRECORD
  5
933
102
{ACAD_REACTORS
330
930
102
}
330
930
100
AcDbXrecord
  1

  0
XRECORD
  5
939
102
{ACAD_REACTORS
330
930
102
}
330
930
100
AcDbXrecord
 90
        4
  0
XRECORD
  5
935
102
{ACAD_REACTORS
330
930
102
}
330
930
100
AcDbXrecord
340
1A
  0
XRECORD
  5
938
102
{ACAD_REACTORS
330
930
102
}
330
930
100
AcDbXrecord
 90
    10781
  0
XRECORD
  5
936
102
{ACAD_REACTORS
330
930
102
}
330
930
100
AcDbXrecord
340
19
  0
XRECORD
  5
937
102
{ACAD_REACTORS
330
930
102
}
330
930
100
AcDbXrecord
340
E
  0
XRECORD
  5
93D
102
{ACAD_REACTORS
330
930
102
}
330
930
100
AcDbXrecord
 40
0.0
  0
XRECORD
  5
940
102
{ACAD_REACTORS
330
930
102
}
330
930
100
AcDbXrecord
340
0
  0
XRECORD
  5
946
102
{ACAD_REACTORS
330
930
102
}
330
930
100
AcDbXrecord
 10
0.0
 20
0.0
 30
0.0
  0
XRECORD
  5
942
102
{ACAD_REACTORS
330
930
102
}
330
930
100
AcDbXrecord
 10
0.0
 20
0.0
 30
0.0
  0
XRECORD
  5
945
102
{ACAD_REACTORS
330
930
102
}
330
930
100
AcDbXrecord
 10
0.0
 20
0.0
 30
0.0
  0
XRECORD
  5
943
102
{ACAD_REACTORS
330
930
102
}
330
930
100
AcDbXrecord
 10
0.0
 20
0.0
 30
0.0
  0
XRECORD
  5
944
102
{ACAD_REACTORS
330
930
102
}
330
930
100
AcDbXrecord
 10
0.0
 20
0.0
 30
0.0
  0
XRECORD
  5
941
102
{ACAD_REACTORS
330
930
102
}
330
930
100
AcDbXrecord
 10
0.0
 20
0.0
 30
0.0
  0
XRECORD
  5
93E
102
{ACAD_REACTORS
330
930
102
}
330
930
100
AcDbXrecord
340
0
  0
XRECORD
  5
93F
102
{ACAD_REACTORS
330
930
102
}
330
930
100
AcDbXrecord
 70
     0
  0
XRECORD
  5
934
102
{ACAD_REACTORS
330
930
102
}
330
930
100
AcDbXrecord
  1

  0
XRECORD
  5
931
102
{ACAD_REACTORS
330
930
102
}
330
930
100
AcDbXrecord
 90
        1
  0
XRECORD
  5
932
102
{ACAD_REACTORS
330
930
102
}
330
930
100
AcDbXrecord
 90
       70
  0
XRECORD
  5
949
102
{ACAD_REACTORS
330
930
102
}
330
930
100
AcDbXrecord
340
0
  0
XRECORD
  5
94F
102
{ACAD_REACTORS
330
930
102
}
330
930
100
AcDbXrecord
 10
0.0
 20
0.0
 30
0.0
  0
XRECORD
  5
94B
102
{ACAD_REACTORS
330
930
102
}
330
930
100
AcDbXrecord
 10
0.0
 20
0.0
 30
0.0
  0
XRECORD
  5
94E
102
{ACAD_REACTORS
330
930
102
}
330
930
100
AcDbXrecord
 10
0.0
 20
0.0
 30
0.0
  0
XRECORD
  5
94C
102
{ACAD_REACTORS
330
930
102
}
330
930
100
AcDbXrecord
 10
0.0
 20
0.0
 30
0.0
  0
XRECORD
  5
94D
102
{ACAD_REACTORS
330
930
102
}
330
930
100
AcDbXrecord
 10
0.0
 20
0.0
 30
0.0
  0
XRECORD
  5
94A
102
{ACAD_REACTORS
330
930
102
}
330
930
100
AcDbXrecord
 10
0.0
 20
0.0
 30
0.0
  0
XRECORD
  5
947
102
{ACAD_REACTORS
330
930
102
}
330
930
100
AcDbXrecord
340
0
  0
XRECORD
  5
948
102
{ACAD_REACTORS
330
930
102
}
330
930
100
AcDbXrecord
 70
     0
  0
XRECORD
  5
93C
102
{ACAD_REACTORS
330
930
102
}
330
930
100
AcDbXrecord
  1
{46DA8BF7-A3BE-4213-BAD4-9D5F6BFAB855}
  0
DICTIONARYVAR
  5
8AF
102
{ACAD_REACTORS
330
8AD
102
}
330
8AD
100
DictionaryVariables
280
     0
  1
2
  0
DICTIONARYVAR
  5
8AE
102
{ACAD_REACTORS
330
8AD
102
}
330
8AD
100
DictionaryVariables
280
     0
  1
1
  0
ENDSEC
  0
EOF
