  0
SECTION
  2
HEADER
  9
$ACADVER
  1
AC1015
  9
$ACADMAINTVER
 70
     6
  9
$DWGCODEPAGE
  3
ANSI_932
  9
$INSBASE
 10
0.0
 20
0.0
 30
0.0
  9
$EXTMIN
 10
-3.702785517849406
 20
-0.031206863269972
 30
-0.000000000000013
  9
$EXTMAX
 10
301.3389103945105
 20
427.4977640230019
 30
0.0000000000000023
  9
$LIMMIN
 10
0.0
 20
0.0
  9
$LIMMAX
 10
420.0
 20
297.0
  9
$ORTHOMODE
 70
     0
  9
$REGENMODE
 70
     1
  9
$FILLMODE
 70
     1
  9
$QTEXTMODE
 70
     0
  9
$MIRRTEXT
 70
     1
  9
$LTSCALE
 40
1.0
  9
$ATTMODE
 70
     1
  9
$TEXTSIZE
 40
2.5
  9
$TRACEWID
 40
1.0
  9
$TEXTSTYLE
  7
STANDARD
  9
$CLAYER
  8
0
  9
$CELTYPE
  6
BYLAYER
  9
$CECOLOR
 62
   256
  9
$CELTSCALE
 40
1.0
  9
$DISPSILH
 70
     0
  9
$DIMSCALE
 40
1.0
  9
$DIMASZ
 40
2.5
  9
$DIMEXO
 40
0.625
  9
$DIMDLI
 40
3.75
  9
$DIMRND
 40
0.0
  9
$DIMDLE
 40
0.0
  9
$DIMEXE
 40
1.25
  9
$DIMTP
 40
0.0
  9
$DIMTM
 40
0.0
  9
$DIMTXT
 40
2.5
  9
$DIMCEN
 40
2.5
  9
$DIMTSZ
 40
0.0
  9
$DIMTOL
 70
     0
  9
$DIMLIM
 70
     0
  9
$DIMTIH
 70
     0
  9
$DIMTOH
 70
     0
  9
$DIMSE1
 70
     0
  9
$DIMSE2
 70
     0
  9
$DIMTAD
 70
     1
  9
$DIMZIN
 70
     8
  9
$DIMBLK
  1

  9
$DIMASO
 70
     1
  9
$DIMSHO
 70
     1
  9
$DIMPOST
  1

  9
$DIMAPOST
  1

  9
$DIMALT
 70
     0
  9
$DIMALTD
 70
     3
  9
$DIMALTF
 40
0.03937007874016
  9
$DIMLFAC
 40
1.0
  9
$DIMTOFL
 70
     1
  9
$DIMTVP
 40
0.0
  9
$DIMTIX
 70
     0
  9
$DIMSOXD
 70
     0
  9
$DIMSAH
 70
     0
  9
$DIMBLK1
  1

  9
$DIMBLK2
  1

  9
$DIMSTYLE
  2
ISO-25
  9
$DIMCLRD
 70
     0
  9
$DIMCLRE
 70
     0
  9
$DIMCLRT
 70
     0
  9
$DIMTFAC
 40
1.0
  9
$DIMGAP
 40
0.625
  9
$DIMJUST
 70
     0
  9
$DIMSD1
 70
     0
  9
$DIMSD2
 70
     0
  9
$DIMTOLJ
 70
     0
  9
$DIMTZIN
 70
     8
  9
$DIMALTZ
 70
     0
  9
$DIMALTTZ
 70
     0
  9
$DIMUPT
 70
     0
  9
$DIMDEC
 70
     2
  9
$DIMTDEC
 70
     2
  9
$DIMALTU
 70
     2
  9
$DIMALTTD
 70
     3
  9
$DIMTXSTY
  7
STANDARD
  9
$DIMAUNIT
 70
     0
  9
$DIMADEC
 70
     0
  9
$DIMALTRND
 40
0.0
  9
$DIMAZIN
 70
     0
  9
$DIMDSEP
 70
    46
  9
$DIMATFIT
 70
     3
  9
$DIMFRAC
 70
     0
  9
$DIMLDRBLK
  1

  9
$DIMLUNIT
 70
     2
  9
$DIMLWD
 70
    -2
  9
$DIMLWE
 70
    -2
  9
$DIMTMOVE
 70
     0
  9
$LUNITS
 70
     2
  9
$LUPREC
 70
     4
  9
$SKETCHINC
 40
1.0
  9
$FILLETRAD
 40
10.0
  9
$AUNITS
 70
     0
  9
$AUPREC
 70
     0
  9
$MENU
  1
.
  9
$ELEVATION
 40
0.0
  9
$PELEVATION
 40
0.0
  9
$THICKNESS
 40
0.0
  9
$LIMCHECK
 70
     0
  9
$CHAMFERA
 40
10.0
  9
$CHAMFERB
 40
10.0
  9
$CHAMFERC
 40
20.0
  9
$CHAMFERD
 40
0.0
  9
$SKPOLY
 70
     0
  9
$TDCREATE
 40
2455874.794318321
  9
$TDUCREATE
 40
2455874.419318321
  9
$TDUPDATE
 40
2456843.672391134
  9
$TDUUPDATE
 40
2456843.297391134
  9
$TDINDWG
 40
0.0222435880
  9
$TDUSRTIMER
 40
0.0222426505
  9
$USRTIMER
 70
     1
  9
$ANGBASE
 50
0.0
  9
$ANGDIR
 70
     0
  9
$PDMODE
 70
     0
  9
$PDSIZE
 40
0.0
  9
$PLINEWID
 40
0.0
  9
$SPLFRAME
 70
     0
  9
$SPLINETYPE
 70
     6
  9
$SPLINESEGS
 70
     8
  9
$HANDSEED
  5
10EF
  9
$SURFTAB1
 70
     6
  9
$SURFTAB2
 70
     6
  9
$SURFTYPE
 70
     6
  9
$SURFU
 70
     6
  9
$SURFV
 70
     6
  9
$UCSBASE
  2

  9
$UCSNAME
  2

  9
$UCSORG
 10
0.0
 20
0.0
 30
0.0
  9
$UCSXDIR
 10
1.0
 20
0.0
 30
0.0
  9
$UCSYDIR
 10
0.0
 20
1.0
 30
0.0
  9
$UCSORTHOREF
  2

  9
$UCSORTHOVIEW
 70
     0
  9
$UCSORGTOP
 10
0.0
 20
0.0
 30
0.0
  9
$UCSORGBOTTOM
 10
0.0
 20
0.0
 30
0.0
  9
$UCSORGLEFT
 10
0.0
 20
0.0
 30
0.0
  9
$UCSORGRIGHT
 10
0.0
 20
0.0
 30
0.0
  9
$UCSORGFRONT
 10
0.0
 20
0.0
 30
0.0
  9
$UCSORGBACK
 10
0.0
 20
0.0
 30
0.0
  9
$PUCSBASE
  2

  9
$PUCSNAME
  2

  9
$PUCSORG
 10
0.0
 20
0.0
 30
0.0
  9
$PUCSXDIR
 10
1.0
 20
0.0
 30
0.0
  9
$PUCSYDIR
 10
0.0
 20
1.0
 30
0.0
  9
$PUCSORTHOREF
  2

  9
$PUCSORTHOVIEW
 70
     0
  9
$PUCSORGTOP
 10
0.0
 20
0.0
 30
0.0
  9
$PUCSORGBOTTOM
 10
0.0
 20
0.0
 30
0.0
  9
$PUCSORGLEFT
 10
0.0
 20
0.0
 30
0.0
  9
$PUCSORGRIGHT
 10
0.0
 20
0.0
 30
0.0
  9
$PUCSORGFRONT
 10
0.0
 20
0.0
 30
0.0
  9
$PUCSORGBACK
 10
0.0
 20
0.0
 30
0.0
  9
$USERI1
 70
     0
  9
$USERI2
 70
     0
  9
$USERI3
 70
     0
  9
$USERI4
 70
     0
  9
$USERI5
 70
     0
  9
$USERR1
 40
0.0
  9
$USERR2
 40
0.0
  9
$USERR3
 40
0.0
  9
$USERR4
 40
0.0
  9
$USERR5
 40
0.0
  9
$WORLDVIEW
 70
     1
  9
$SHADEDGE
 70
     3
  9
$SHADEDIF
 70
    70
  9
$TILEMODE
 70
     1
  9
$MAXACTVP
 70
    64
  9
$PINSBASE
 10
0.0
 20
0.0
 30
0.0
  9
$PLIMCHECK
 70
     0
  9
$PEXTMIN
 10
1.000000000000000E+20
 20
1.000000000000000E+20
 30
1.000000000000000E+20
  9
$PEXTMAX
 10
-1.000000000000000E+20
 20
-1.000000000000000E+20
 30
-1.000000000000000E+20
  9
$PLIMMIN
 10
0.0
 20
0.0
  9
$PLIMMAX
 10
420.0
 20
297.0
  9
$UNITMODE
 70
     0
  9
$VISRETAIN
 70
     1
  9
$PLINEGEN
 70
     0
  9
$PSLTSCALE
 70
     1
  9
$TREEDEPTH
 70
  3020
  9
$CMLSTYLE
  2
STANDARD
  9
$CMLJUST
 70
     0
  9
$CMLSCALE
 40
20.0
  9
$PROXYGRAPHICS
 70
     1
  9
$MEASUREMENT
 70
     1
  9
$CELWEIGHT
370
    -1
  9
$ENDCAPS
280
     0
  9
$JOINSTYLE
280
     0
  9
$LWDISPLAY
290
     0
  9
$INSUNITS
 70
     4
  9
$HYPERLINKBASE
  1

  9
$STYLESHEET
  1

  9
$XEDIT
290
     1
  9
$CEPSNTYPE
380
     0
  9
$PSTYLEMODE
290
     1
  9
$FINGERPRINTGUID
  2
{59234AB0-AE73-4C98-BD35-D00B5BF71858}
  9
$VERSIONGUID
  2
{4CB9B5B5-7FBD-4E4A-B693-FCFA8779232A}
  9
$EXTNAMES
290
     1
  9
$PSVPSCALE
 40
0.0
  9
$OLESTARTUP
290
     0
  0
ENDSEC
  0
SECTION
  2
CLASSES
  0
CLASS
  1
ACDBDICTIONARYWDFLT
  2
AcDbDictionaryWithDefault
  3
AutoCAD 2000
 90
        0
280
     0
281
     0
  0
CLASS
  1
ACDBPLACEHOLDER
  2
AcDbPlaceHolder
  3
AutoCAD 2000
 90
        0
280
     0
281
     0
  0
CLASS
  1
LAYOUT
  2
AcDbLayout
  3
AutoCAD 2000
 90
        0
280
     0
281
     0
  0
CLASS
  1
DICTIONARYVAR
  2
AcDbDictionaryVar
  3
AutoCAD 2000
 90
        0
280
     0
281
     0
  0
CLASS
  1
LONG_TRANSACTION
  2
AcDbLongTransaction
  3
AutoCAD 2000
 90
    32768
280
     0
281
     0
  0
CLASS
  1
LWPOLYLINE
  2
AcDbPolyline
  3
AutoCAD 2000
 90
    32768
280
     0
281
     1
  0
CLASS
  1
HATCH
  2
AcDbHatch
  3
AutoCAD 2000
 90
    32768
280
     0
281
     1
  0
CLASS
  1
XRECORD
  2
AcDbXrecord
  3
AutoCAD 2000
 90
    32768
280
     0
281
     0
  0
CLASS
  1
LONG_TRANSACTION
  2
AcDbLongTransaction
  3
AutoCAD 2000
 90
    32768
280
     0
281
     0
  0
CLASS
  1
LWPOLYLINE
  2
AcDbPolyline
  3
AutoCAD 2000
 90
    32768
280
     0
281
     1
  0
CLASS
  1
HATCH
  2
AcDbHatch
  3
AutoCAD 2000
 90
    32768
280
     0
281
     1
  0
CLASS
  1
XRECORD
  2
AcDbXrecord
  3
AutoCAD 2000
 90
    32768
280
     0
281
     0
  0
CLASS
  1
LONG_TRANSACTION
  2
AcDbLongTransaction
  3
AutoCAD 2000
 90
    32768
280
     0
281
     0
  0
CLASS
  1
LWPOLYLINE
  2
AcDbPolyline
  3
AutoCAD 2000
 90
    32768
280
     0
281
     1
  0
CLASS
  1
HATCH
  2
AcDbHatch
  3
AutoCAD 2000
 90
    32768
280
     0
281
     1
  0
CLASS
  1
XRECORD
  2
AcDbXrecord
  3
AutoCAD 2000
 90
    32768
280
     0
281
     0
  0
CLASS
  1
LONG_TRANSACTION
  2
AcDbLongTransaction
  3
AutoCAD 2000
 90
    32768
280
     0
281
     0
  0
CLASS
  1
LWPOLYLINE
  2
AcDbPolyline
  3
AutoCAD 2000
 90
    32768
280
     0
281
     1
  0
CLASS
  1
HATCH
  2
AcDbHatch
  3
AutoCAD 2000
 90
    32768
280
     0
281
     1
  0
CLASS
  1
XRECORD
  2
AcDbXrecord
  3
AutoCAD 2000
 90
    32768
280
     0
281
     0
  0
CLASS
  1
LONG_TRANSACTION
  2
AcDbLongTransaction
  3
AutoCAD 2000
 90
    32768
280
     0
281
     0
  0
CLASS
  1
LWPOLYLINE
  2
AcDbPolyline
  3
AutoCAD 2000
 90
    32768
280
     0
281
     1
  0
CLASS
  1
HATCH
  2
AcDbHatch
  3
AutoCAD 2000
 90
    32768
280
     0
281
     1
  0
CLASS
  1
XRECORD
  2
AcDbXrecord
  3
AutoCAD 2000
 90
    32768
280
     0
281
     0
  0
CLASS
  1
LONG_TRANSACTION
  2
AcDbLongTransaction
  3
AutoCAD 2000
 90
    32768
280
     0
281
     0
  0
CLASS
  1
LWPOLYLINE
  2
AcDbPolyline
  3
AutoCAD 2000
 90
    32768
280
     0
281
     1
  0
CLASS
  1
HATCH
  2
AcDbHatch
  3
AutoCAD 2000
 90
    32768
280
     0
281
     1
  0
CLASS
  1
XRECORD
  2
AcDbXrecord
  3
AutoCAD 2000
 90
    32768
280
     0
281
     0
  0
CLASS
  1
LONG_TRANSACTION
  2
AcDbLongTransaction
  3
AutoCAD 2000
 90
    32768
280
     0
281
     0
  0
CLASS
  1
LWPOLYLINE
  2
AcDbPolyline
  3
AutoCAD 2000
 90
    32768
280
     0
281
     1
  0
CLASS
  1
HATCH
  2
AcDbHatch
  3
AutoCAD 2000
 90
    32768
280
     0
281
     1
  0
CLASS
  1
XRECORD
  2
AcDbXrecord
  3
AutoCAD 2000
 90
    32768
280
     0
281
     0
  0
ENDSEC
  0
SECTION
  2
TABLES
  0
TABLE
  2
VPORT
  5
8
330
0
100
AcDbSymbolTable
 70
     2
  0
VPORT
  5
10CE
330
8
100
AcDbSymbolTableRecord
100
AcDbViewportTableRecord
  2
*Active
 70
     0
 10
0.0
 20
0.0
 11
1.0
 21
1.0
 12
148.8180624383305
 22
213.733278579866
 13
0.0
 23
0.0
 14
10.0
 24
10.0
 15
10.0
 25
10.0
 16
0.0
 26
0.0
 36
1.0
 17
0.0
 27
0.0
 37
0.0
 40
431.4274113502805
 41
2.319634703196347
 42
50.0
 43
0.0
 44
0.0
 50
0.0
 51
0.0
 71
     0
 72
   100
 73
     1
 74
     3
 75
     0
 76
     0
 77
     0
 78
     0
281
     0
 65
     1
110
0.0
120
0.0
130
0.0
111
1.0
121
0.0
131
0.0
112
0.0
122
1.0
132
0.0
 79
     0
146
0.0
  0
ENDTAB
  0
TABLE
  2
LTYPE
  5
5
330
0
100
AcDbSymbolTable
 70
     2
  0
LTYPE
  5
14
330
5
100
AcDbSymbolTableRecord
100
AcDbLinetypeTableRecord
  2
BYBLOCK
 70
     0
  3

 72
    65
 73
     0
 40
0.0
  0
LTYPE
  5
15
330
5
100
AcDbSymbolTableRecord
100
AcDbLinetypeTableRecord
  2
BYLAYER
 70
     0
  3

 72
    65
 73
     0
 40
0.0
  0
LTYPE
  5
16
330
5
100
AcDbSymbolTableRecord
100
AcDbLinetypeTableRecord
  2
CONTINUOUS
 70
     0
  3
Solid line
 72
    65
 73
     0
 40
0.0
  0
LTYPE
  5
47D
330
5
100
AcDbSymbolTableRecord
100
AcDbLinetypeTableRecord
  2
CENTER
 70
     0
  3
__ . __ . __ . __ . __ . __ . __ . __ . __ . __
 72
    65
 73
     4
 40
1.0
 49
0.5
 74
     0
 49
-0.25
 74
     0
 49
0.0
 74
     0
 49
-0.25
 74
     0
  0
ENDTAB
  0
TABLE
  2
LAYER
  5
2
102
{ACAD_XDICTIONARY
360
480
102
}
330
0
100
AcDbSymbolTable
 70
     2
  0
LAYER
  5
10
330
2
100
AcDbSymbolTableRecord
100
AcDbLayerTableRecord
  2
0
 70
     0
 62
     7
  6
CONTINUOUS
370
    -3
390
F
  0
LAYER
  5
47E
330
2
100
AcDbSymbolTableRecord
100
AcDbLayerTableRecord
  2
1
 70
     0
 62
     3
  6
CONTINUOUS
370
    -3
390
F
  0
ENDTAB
  0
TABLE
  2
STYLE
  5
3
330
0
100
AcDbSymbolTable
 70
     1
  0
STYLE
  5
11
330
3
100
AcDbSymbolTableRecord
100
AcDbTextStyleTableRecord
  2
STANDARD
 70
     0
 40
0.0
 41
1.0
 50
0.0
 71
     0
 42
2.5
  3
txt
  4

  0
ENDTAB
  0
TABLE
  2
VIEW
  5
6
330
0
100
AcDbSymbolTable
 70
     0
  0
ENDTAB
  0
TABLE
  2
UCS
  5
7
330
0
100
AcDbSymbolTable
 70
     0
  0
ENDTAB
  0
TABLE
  2
APPID
  5
9
330
0
100
AcDbSymbolTable
 70
     1
  0
APPID
  5
12
330
9
100
AcDbSymbolTableRecord
100
AcDbRegAppTableRecord
  2
ACAD
 70
     0
  0
ENDTAB
  0
TABLE
  2
DIMSTYLE
  5
A
330
0
100
AcDbSymbolTable
 70
     2
100
AcDbDimStyleTable
 71
     0
  0
DIMSTYLE
105
27
330
A
100
AcDbSymbolTableRecord
100
AcDbDimStyleTableRecord
  2
ISO-25
 70
     0
 41
2.5
 42
0.625
 43
3.75
 44
1.25
 73
     0
 74
     0
 77
     1
 78
     8
140
2.5
141
2.5
143
0.03937007874016
147
0.625
171
     3
172
     1
271
     2
272
     2
274
     3
283
     0
284
     8
340
11
  0
DIMSTYLE
105
47F
330
A
100
AcDbSymbolTableRecord
100
AcDbDimStyleTableRecord
  2
STANDARD
 70
     0
 41
2.5
 42
0.625
 43
3.75
 44
1.25
 73
     0
 74
     0
 77
     1
 78
     8
140
2.5
141
2.5
143
0.0394
147
0.625
171
     4
172
     1
273
     8
274
     4
340
11
  0
ENDTAB
  0
TABLE
  2
BLOCK_RECORD
  5
1
330
0
100
AcDbSymbolTable
 70
     4
  0
BLOCK_RECORD
  5
1F
102
{ACAD_XDICTIONARY
360
7F0
102
}
330
1
100
AcDbSymbolTableRecord
100
AcDbBlockTableRecord
  2
*MODEL_SPACE
340
10CA
  0
BLOCK_RECORD
  5
1B
102
{ACAD_XDICTIONARY
360
7EE
102
}
330
1
100
AcDbSymbolTableRecord
100
AcDbBlockTableRecord
  2
*PAPER_SPACE
340
10CB
  0
BLOCK_RECORD
  5
2B
330
1
100
AcDbSymbolTableRecord
100
AcDbBlockTableRecord
  2
A$C7A762DB8
340
0
102
{BLKREFS
331
E7C
102
}
  0
BLOCK_RECORD
  5
191
330
1
100
AcDbSymbolTableRecord
100
AcDbBlockTableRecord
  2
A$C413B70EE
340
0
102
{BLKREFS
331
E75
102
}
  0
BLOCK_RECORD
  5
263
330
1
100
AcDbSymbolTableRecord
100
AcDbBlockTableRecord
  2
A$C5CFD6E8C
340
0
102
{BLKREFS
331
FFA
331
FFC
102
}
  0
BLOCK_RECORD
  5
84C
330
1
100
AcDbSymbolTableRecord
100
AcDbBlockTableRecord
  2
A$C57E26210
340
0
102
{BLKREFS
331
EC3
102
}
  0
ENDTAB
  0
ENDSEC
  0
SECTION
  2
BLOCKS
  0
BLOCK
  5
20
330
1F
100
AcDbEntity
  8
0
100
AcDbBlockBegin
  2
*MODEL_SPACE
 70
     0
 10
0.0
 20
0.0
 30
0.0
  3
*MODEL_SPACE
  1

  0
ENDBLK
  5
21
330
1F
100
AcDbEntity
  8
0
100
AcDbBlockEnd
  0
BLOCK
  5
1C
330
1B
100
AcDbEntity
 67
     1
  8
0
100
AcDbBlockBegin
  2
*PAPER_SPACE
 70
     0
 10
0.0
 20
0.0
 30
0.0
  3
*PAPER_SPACE
  1

  0
ENDBLK
  5
1D
330
1B
100
AcDbEntity
 67
     1
  8
0
100
AcDbBlockEnd
  0
BLOCK
  5
18F
330
2B
100
AcDbEntity
  8
0
100
AcDbBlockBegin
  2
A$C7A762DB8
 70
     0
 10
0.0
 20
0.0
 30
0.0
  3
A$C7A762DB8
  1

  0
LINE
  5
2C
330
2B
100
AcDbEntity
  8
0
100
AcDbLine
 10
67.49999625813416
 20
49.99999727219666
 30
0.0
 11
48.49999625813413
 21
49.99999727219669
 31
0.0
  0
LINE
  5
2D
330
2B
100
AcDbEntity
  8
0
100
AcDbLine
 10
48.55277444428816
 20
101.9999972721965
 30
0.0
 11
67.44721807197925
 21
101.9999972721965
 31
0.0
  0
LINE
  5
2E
330
2B
100
AcDbEntity
  8
0
100
AcDbLine
 10
48.49999625813413
 20
91.99999727219669
 30
0.0
 11
67.49999625813416
 21
91.99999727219664
 31
0.0
  0
LINE
  5
2F
330
2B
100
AcDbEntity
  8
0
100
AcDbLine
 10
48.49999625813413
 20
89.99999727219664
 30
0.0
 11
67.49999625813416
 21
89.99999727219664
 31
0.0
  0
LINE
  5
30
330
2B
100
AcDbEntity
  8
0
100
AcDbLine
 10
67.49999625813416
 20
51.99999727219664
 30
0.0
 11
48.49999625813413
 21
51.99999727219664
 31
0.0
  0
LINE
  5
31
330
2B
100
AcDbEntity
  8
0
100
AcDbLine
 10
17.99999625813416
 20
4.999997272197671
 30
0.0
 11
71.99999625813416
 21
3.585957507460647
 31
0.0
  0
LINE
  5
32
330
2B
100
AcDbEntity
  8
0
100
AcDbLine
 10
71.99999625813416
 20
3.585957507460647
 30
0.0
 11
18.99999625813416
 21
4.97381135062869
 31
0.0
  0
LINE
  5
33
330
2B
100
AcDbEntity
  8
0
100
AcDbLine
 10
68.49999625813416
 20
48.97381135062869
 30
0.0
 11
47.49999625813415
 21
48.97381135062869
 31
0.0
  0
LINE
  5
34
330
2B
100
AcDbEntity
  8
0
100
AcDbLine
 10
29.99999625813416
 20
21.97381135062868
 30
0.0
 11
71.99999625813416
 21
21.97381135062868
 31
0.0
  0
LINE
  5
35
330
2B
100
AcDbEntity
  8
0
100
AcDbLine
 10
70.99999625813416
 20
42.97381135062869
 30
0.0
 11
29.99999625813416
 21
42.97381135062869
 31
0.0
  0
LINE
  5
36
330
2B
100
AcDbEntity
  8
0
100
AcDbLine
 10
70.99999625813416
 20
40.97381135062867
 30
0.0
 11
29.99999625813416
 21
40.97381135062867
 31
0.0
  0
LINE
  5
37
330
2B
100
AcDbEntity
  8
0
100
AcDbLine
 10
70.99999625813416
 20
35.97381135062867
 30
0.0
 11
29.99999625813416
 21
35.97381135062867
 31
0.0
  0
LINE
  5
38
330
2B
100
AcDbEntity
  8
0
100
AcDbLine
 10
70.99999625813416
 20
33.97381135062869
 30
0.0
 11
29.99999625813416
 21
33.97381135062869
 31
0.0
  0
LINE
  5
39
330
2B
100
AcDbEntity
  8
0
100
AcDbLine
 10
70.99999625813416
 20
28.97381135062869
 30
0.0
 11
29.99999625813416
 21
28.97381135062869
 31
0.0
  0
LINE
  5
3A
330
2B
100
AcDbEntity
  8
0
100
AcDbLine
 10
70.99999625813416
 20
26.97381135062869
 30
0.0
 11
29.99999625813416
 21
26.97381135062869
 31
0.0
  0
LINE
  5
3B
330
2B
100
AcDbEntity
  8
0
100
AcDbLine
 10
19.99999625813416
 20
120.9738113506287
 30
0.0
 11
71.99999625813416
 21
120.9738113506287
 31
0.0
  0
LINE
  5
3C
330
2B
100
AcDbEntity
  8
0
100
AcDbLine
 10
29.99999625813416
 20
103.9738113506285
 30
0.0
 11
71.99999625813416
 21
103.9738113506285
 31
0.0
  0
LINE
  5
3D
330
2B
100
AcDbEntity
  8
0
100
AcDbLine
 10
-0.0000037418658394
 20
-0.0000027278023111
 30
0.0
 11
71.99999625813416
 21
-0.0000027278023254
 31
0.0
  0
LINE
  5
3E
330
2B
100
AcDbEntity
  8
0
100
AcDbLine
 10
-0.0000037418658394
 20
78.99999727219769
 30
0.0
 11
-0.0000037418658394
 21
53.99999727219768
 31
0.0
  0
LINE
  5
3F
330
2B
100
AcDbEntity
  8
0
100
AcDbLine
 10
48.49999625813413
 20
49.99999727219669
 30
0.0
 11
48.49999625813413
 21
91.99999727219669
 31
0.0
  0
LINE
  5
40
330
2B
100
AcDbEntity
  8
0
100
AcDbLine
 10
18.99999625813416
 20
70.99999727219767
 30
0.0
 11
18.99999625813416
 21
32.99999727219766
 31
0.0
  0
LINE
  5
41
330
2B
100
AcDbEntity
  8
0
100
AcDbLine
 10
19.99999625813416
 20
32.97381135062966
 30
0.0
 11
19.99999625813416
 21
70.97381135062869
 31
0.0
  0
LINE
  5
42
330
2B
100
AcDbEntity
  8
0
100
AcDbLine
 10
29.99999625813416
 20
103.9738113506285
 30
0.0
 11
29.99999625813416
 21
21.97381135062868
 31
0.0
  0
ARC
  5
43
330
2B
100
AcDbEntity
  8
0
100
AcDbCircle
 10
0.9999962581341604
 20
56.05153804514964
 30
0.0
 40
1.0
100
AcDbArc
 50
93.03047684586102
 51
180.0
  0
LINE
  5
44
330
2B
100
AcDbEntity
  8
0
100
AcDbLine
 10
17.99999625813416
 20
4.999997272197671
 30
0.0
 11
-0.0000037418658394
 21
4.52865068395171
 31
0.0
  0
LINE
  5
45
330
2B
100
AcDbEntity
  8
0
100
AcDbLine
 10
-0.0000037418658394
 20
21.17551498883972
 30
0.0
 11
-0.0000037418658394
 21
-0.0000027278023111
 31
0.0
  0
LINE
  5
46
330
2B
100
AcDbEntity
  8
0
100
AcDbLine
 10
0.1464428675408271
 20
53.64644388160439
 30
0.0
 11
3.99999625813416
 21
51.99999727219767
 31
0.0
  0
LINE
  5
47
330
2B
100
AcDbEntity
  8
0
100
AcDbLine
 10
0.4738282800130948
 20
21.67482975621773
 30
0.0
 11
11.57850019249917
 21
22.2568009508177
 31
0.0
  0
LINE
  5
48
330
2B
100
AcDbEntity
  8
0
100
AcDbLine
 10
0.9471291169941196
 20
29.05013960001873
 30
0.0
 11
11.57929696984524
 21
29.61301907458164
 31
0.0
  0
LINE
  5
49
330
2B
100
AcDbEntity
  8
0
100
AcDbLine
 10
0.9471291169941196
 20
26.94985494437573
 30
0.0
 11
11.57929696984524
 21
26.38697546981267
 31
0.0
  0
LINE
  5
4A
330
2B
100
AcDbEntity
  8
0
100
AcDbLine
 10
0.9471291169941196
 20
54.94985494437571
 30
0.0
 11
11.57929696984524
 21
54.38697546981268
 31
0.0
  0
LINE
  5
4B
330
2B
100
AcDbEntity
  8
0
100
AcDbLine
 10
0.9471291169941196
 20
50.05013960001871
 30
0.0
 11
11.57929696984524
 21
50.61301907458164
 31
0.0
  0
LINE
  5
4C
330
2B
100
AcDbEntity
  8
0
100
AcDbLine
 10
0.9471291169941196
 20
47.94985494437571
 30
0.0
 11
11.57929696984524
 21
47.38697546981268
 31
0.0
  0
LINE
  5
4D
330
2B
100
AcDbEntity
  8
0
100
AcDbLine
 10
0.9471291169941196
 20
43.05013960001871
 30
0.0
 11
11.57929696984524
 21
43.61301907458164
 31
0.0
  0
LINE
  5
4E
330
2B
100
AcDbEntity
  8
0
100
AcDbLine
 10
0.9471291169941196
 20
40.94985494437572
 30
0.0
 11
11.57929696984524
 21
40.38697546981268
 31
0.0
  0
LINE
  5
4F
330
2B
100
AcDbEntity
  8
0
100
AcDbLine
 10
0.9471291169941196
 20
36.05013960001871
 30
0.0
 11
11.57929696984524
 21
36.61301907458164
 31
0.0
  0
LINE
  5
50
330
2B
100
AcDbEntity
  8
0
100
AcDbLine
 10
0.9471291169941196
 20
33.94985494437573
 30
0.0
 11
11.57929696984524
 21
33.38697546981268
 31
0.0
  0
POINT
  5
51
330
2B
100
AcDbEntity
  8
0
100
AcDbPoint
 10
-0.0000037418658394
 20
21.64999727219766
 30
0.0
  0
ARC
  5
52
330
2B
100
AcDbEntity
  8
0
100
AcDbCircle
 10
0.4999962581341606
 20
21.17551498883972
 30
0.0
 40
0.5
100
AcDbArc
 50
92.9999999999991
 51
180.0
  0
LINE
  5
53
330
2B
100
AcDbEntity
  8
0
100
AcDbLine
 10
-0.0000037418658394
 20
28.05153804514965
 30
0.0
 11
-0.0000037418658394
 21
27.9484564992447
 31
0.0
  0
ARC
  5
54
330
2B
100
AcDbEntity
  8
0
100
AcDbCircle
 10
0.9999962581341604
 20
28.05153804514965
 30
0.0
 40
1.0
100
AcDbArc
 50
93.03047684586102
 51
180.0
  0
ARC
  5
55
330
2B
100
AcDbEntity
  8
0
100
AcDbCircle
 10
0.9999962581341604
 20
27.9484564992447
 30
0.0
 40
1.0
100
AcDbArc
 50
180.0
 51
266.9695231541389
  0
LINE
  5
56
330
2B
100
AcDbEntity
  8
0
100
AcDbLine
 10
-0.0000037418658394
 20
35.05153804514964
 30
0.0
 11
-0.0000037418658394
 21
34.94845649924467
 31
0.0
  0
ARC
  5
57
330
2B
100
AcDbEntity
  8
0
100
AcDbCircle
 10
0.9999962581341604
 20
35.05153804514964
 30
0.0
 40
1.0
100
AcDbArc
 50
93.03047684586102
 51
180.0
  0
ARC
  5
58
330
2B
100
AcDbEntity
  8
0
100
AcDbCircle
 10
0.9999962581341604
 20
34.94845649924469
 30
0.0
 40
1.0
100
AcDbArc
 50
180.0
 51
266.9695231541389
  0
ARC
  5
59
330
2B
100
AcDbEntity
  8
0
100
AcDbCircle
 10
0.4999962581341606
 20
53.99999727219768
 30
0.0
 40
0.5
100
AcDbArc
 50
180.0
 51
224.9999999999904
  0
LINE
  5
5A
330
2B
100
AcDbEntity
  8
0
100
AcDbLine
 10
-0.0000037418658394
 20
42.05153804514964
 30
0.0
 11
-0.0000037418658394
 21
41.94845649924467
 31
0.0
  0
ARC
  5
5B
330
2B
100
AcDbEntity
  8
0
100
AcDbCircle
 10
0.9999962581341604
 20
42.05153804514964
 30
0.0
 40
1.0
100
AcDbArc
 50
93.03047684586102
 51
180.0
  0
ARC
  5
5C
330
2B
100
AcDbEntity
  8
0
100
AcDbCircle
 10
0.9999962581341604
 20
41.94845649924467
 30
0.0
 40
1.0
100
AcDbArc
 50
180.0
 51
266.9695231541389
  0
LINE
  5
5D
330
2B
100
AcDbEntity
  8
0
100
AcDbLine
 10
-0.0000037418658394
 20
56.05153804514964
 30
0.0
 11
-0.0000037418658394
 21
55.94845649924469
 31
0.0
  0
ARC
  5
5E
330
2B
100
AcDbEntity
  8
0
100
AcDbCircle
 10
0.9999962581341604
 20
55.94845649924469
 30
0.0
 40
1.0
100
AcDbArc
 50
180.0
 51
266.9695231541389
  0
LINE
  5
5F
330
2B
100
AcDbEntity
  8
0
100
AcDbLine
 10
-0.0000037418658394
 20
49.05153804514964
 30
0.0
 11
-0.0000037418658394
 21
48.94845649924469
 31
0.0
  0
ARC
  5
60
330
2B
100
AcDbEntity
  8
0
100
AcDbCircle
 10
0.9999962581341604
 20
49.05153804514964
 30
0.0
 40
1.0
100
AcDbArc
 50
93.03047684586102
 51
180.0
  0
ARC
  5
61
330
2B
100
AcDbEntity
  8
0
100
AcDbCircle
 10
0.9999962581341604
 20
48.94845649924469
 30
0.0
 40
1.0
100
AcDbArc
 50
180.0
 51
266.9695231541389
  0
ARC
  5
62
330
2B
100
AcDbEntity
  8
0
100
AcDbCircle
 10
11.49999625813416
 20
38.11092140688574
 30
0.0
 40
1.5
100
AcDbArc
 50
273.030476845861
 51
0.0
  0
LINE
  5
63
330
2B
100
AcDbEntity
  8
0
100
AcDbLine
 10
12.99999625813416
 20
31.88907313750871
 30
0.0
 11
12.99999625813416
 21
31.11092140688572
 31
0.0
  0
ARC
  5
64
330
2B
100
AcDbEntity
  8
0
100
AcDbCircle
 10
11.49999625813416
 20
31.11092140688572
 30
0.0
 40
1.5
100
AcDbArc
 50
273.030476845861
 51
0.0
  0
LINE
  5
65
330
2B
100
AcDbEntity
  8
0
100
AcDbLine
 10
12.99999625813416
 20
24.88907313750871
 30
0.0
 11
12.99999625813416
 21
23.75474525294964
 31
0.0
  0
ARC
  5
66
330
2B
100
AcDbEntity
  8
0
100
AcDbCircle
 10
11.49999625813416
 20
24.88907313750873
 30
0.0
 40
1.5
100
AcDbArc
 50
0.0
 51
86.96952315413897
  0
ARC
  5
67
330
2B
100
AcDbEntity
  8
0
100
AcDbCircle
 10
11.49999625813416
 20
23.75474525294966
 30
0.0
 40
1.5
100
AcDbArc
 50
273.0000000000056
 51
0.0
  0
ARC
  5
68
330
2B
100
AcDbEntity
  8
0
100
AcDbCircle
 10
11.49999625813416
 20
31.88907313750873
 30
0.0
 40
1.5
100
AcDbArc
 50
0.0
 51
86.96952315413897
  0
LINE
  5
69
330
2B
100
AcDbEntity
  8
0
  6
Continuous
100
AcDbLine
 10
5.999996258134157
 20
46.49999727219767
 30
0.0
 11
12.86994943312026
 21
46.49999727219767
 31
0.0
  0
LINE
  5
6A
330
2B
100
AcDbEntity
  8
0
  6
Continuous
100
AcDbLine
 10
3.999996258134046
 20
54.78823256631528
 30
0.0
 11
3.99999625813416
 21
53.99999727219768
 31
0.0
  0
LINE
  5
6B
330
2B
100
AcDbEntity
  8
0
  6
Continuous
100
AcDbLine
 10
5.999996258134157
 20
54.68235021337403
 30
0.0
 11
5.999996258134157
 21
50.31764433102035
 31
0.0
  0
LINE
  5
6C
330
2B
100
AcDbEntity
  8
0
100
AcDbLine
 10
1.999996258134158
 20
54.8941149192565
 30
0.0
 11
1.999996258134158
 21
54.85450553640181
 31
0.0
  0
LINE
  5
6D
330
2B
100
AcDbEntity
  8
0
100
AcDbLine
 10
3.99999625813416
 20
47.78823256631528
 30
0.0
 11
3.99999625813416
 21
46.99999727219767
 31
0.0
  0
LINE
  5
6E
330
2B
100
AcDbEntity
  8
0
100
AcDbLine
 10
5.999996258134157
 20
50.31764433102035
 30
0.0
 11
5.999996258134157
 21
53.99999727219768
 31
0.0
  0
LINE
  5
6F
330
2B
100
AcDbEntity
  8
0
  6
Continuous
100
AcDbLine
 10
5.999996258134157
 20
47.68235021337403
 30
0.0
 11
5.999996258134157
 21
46.49999727219767
 31
0.0
  0
LINE
  5
70
330
2B
100
AcDbEntity
  8
0
100
AcDbLine
 10
1.999996258134158
 20
52.85450553640176
 30
0.0
 11
1.999996258134158
 21
51.99999727219767
 31
0.0
  0
LINE
  5
71
330
2B
100
AcDbEntity
  8
0
100
AcDbLine
 10
1.999996258134158
 20
54.85450553640181
 30
0.0
 11
3.99999625813416
 21
53.99999727219768
 31
0.0
  0
LINE
  5
72
330
2B
100
AcDbEntity
  8
0
100
AcDbLine
 10
1.999996258134158
 20
54.85450553640176
 30
0.0
 11
1.999996258134158
 21
54.8941149192565
 31
0.0
  0
ARC
  5
73
330
2B
100
AcDbEntity
  8
0
100
AcDbCircle
 10
2.49999625813416
 20
51.99999727219767
 30
0.0
 40
0.5
100
AcDbArc
 50
180.0
 51
270.0
  0
ARC
  5
74
330
2B
100
AcDbEntity
  8
0
100
AcDbCircle
 10
3.49999625813416
 20
51.99999727219767
 30
0.0
 40
0.5
100
AcDbArc
 50
270.0
 51
0.0
  0
LINE
  5
75
330
2B
100
AcDbEntity
  8
0
100
AcDbLine
 10
2.49999625813416
 20
51.49999727219768
 30
0.0
 11
3.49999625813416
 21
51.49999727219768
 31
0.0
  0
ARC
  5
76
330
2B
100
AcDbEntity
  8
0
100
AcDbCircle
 10
4.499996258134159
 20
46.99999727219767
 30
0.0
 40
0.5
100
AcDbArc
 50
180.0
 51
270.0
  0
ARC
  5
77
330
2B
100
AcDbEntity
  8
0
100
AcDbCircle
 10
5.499996258134386
 20
46.99999727219767
 30
0.0
 40
0.5
100
AcDbArc
 50
270.0
 51
0.0
  0
ARC
  5
78
330
2B
100
AcDbEntity
  8
0
100
AcDbCircle
 10
5.499996258134157
 20
53.99999727219768
 30
0.0
 40
0.5
100
AcDbArc
 50
0.0
 51
90.0
  0
ARC
  5
79
330
2B
100
AcDbEntity
  8
0
100
AcDbCircle
 10
4.499996258134159
 20
53.99999727219768
 30
0.0
 40
0.5
100
AcDbArc
 50
90.0
 51
180.0
  0
LINE
  5
7A
330
2B
100
AcDbEntity
  8
0
100
AcDbLine
 10
3.99999625813416
 20
51.9999972721978
 30
0.0
 11
3.99999625813416
 21
50.21176197807914
 31
0.0
  0
LINE
  5
7B
330
2B
100
AcDbEntity
  8
0
100
AcDbLine
 10
5.499996258134157
 20
54.49999727219767
 30
0.0
 11
4.499996258134159
 21
54.49999727219767
 31
0.0
  0
LINE
  5
7C
330
2B
100
AcDbEntity
  8
0
100
AcDbLine
 10
5.999996258134387
 20
46.99999727219767
 30
0.0
 11
5.999996258134387
 21
47.68235021337402
 31
0.0
  0
LINE
  5
7D
330
2B
100
AcDbEntity
  8
0
100
AcDbLine
 10
4.499996258134159
 20
46.49999727219767
 30
0.0
 11
5.499996258134386
 21
46.49999727219767
 31
0.0
  0
LINE
  5
7E
330
2B
100
AcDbEntity
  8
0
100
AcDbLine
 10
12.99999625813416
 20
38.88907313750872
 30
0.0
 11
12.99999625813416
 21
38.11092140688572
 31
0.0
  0
LINE
  5
7F
330
2B
100
AcDbEntity
  8
0
100
AcDbLine
 10
11.99999625813416
 20
43.69670784451272
 30
0.0
 11
11.99999625813416
 21
46.49999727219767
 31
0.0
  0
LINE
  5
80
330
2B
100
AcDbEntity
  8
0
100
AcDbLine
 10
12.99999625813416
 20
45.88907313750872
 30
0.0
 11
12.99999625813416
 21
45.11092140688572
 31
0.0
  0
ARC
  5
81
330
2B
100
AcDbEntity
  8
0
100
AcDbCircle
 10
11.49999625813416
 20
45.88907313750872
 30
0.0
 40
1.5
100
AcDbArc
 50
0.0
 51
86.96952315413897
  0
ARC
  5
82
330
2B
100
AcDbEntity
  8
0
100
AcDbCircle
 10
11.49999625813416
 20
45.11092140688572
 30
0.0
 40
1.5
100
AcDbArc
 50
273.030476845861
 51
0.0
  0
ARC
  5
83
330
2B
100
AcDbEntity
  8
0
100
AcDbCircle
 10
11.49999625813416
 20
38.88907313750872
 30
0.0
 40
1.5
100
AcDbArc
 50
0.0
 51
86.96952315413897
  0
LINE
  5
84
330
2B
100
AcDbEntity
  8
0
100
AcDbLine
 10
12.99999625813416
 20
52.88907313750872
 30
0.0
 11
12.99999625813416
 21
52.11092140688572
 31
0.0
  0
ARC
  5
85
330
2B
100
AcDbEntity
  8
0
100
AcDbCircle
 10
11.49999625813416
 20
52.88907313750872
 30
0.0
 40
1.5
100
AcDbArc
 50
0.0
 51
86.96952315413897
  0
ARC
  5
86
330
2B
100
AcDbEntity
  8
0
100
AcDbCircle
 10
11.49999625813416
 20
52.11092140688572
 30
0.0
 40
1.5
100
AcDbArc
 50
273.030476845861
 51
0.0
  0
LINE
  5
87
330
2B
100
AcDbEntity
  8
0
100
AcDbLine
 10
18.99999625813416
 20
20.99999727219767
 30
0.0
 11
18.99999625813416
 21
4.973811350627665
 31
0.0
  0
LINE
  5
88
330
2B
100
AcDbEntity
  8
0
100
AcDbLine
 10
19.99999625813416
 20
4.921439507490672
 30
0.0
 11
19.99999625813416
 21
20.97381135062869
 31
0.0
  0
LINE
  5
89
330
2B
100
AcDbEntity
  8
0
100
AcDbLine
 10
45.2912841056111
 20
4.259163827532685
 30
0.0
 11
45.2912841056111
 21
21.97381135062868
 31
0.0
  0
LINE
  5
8A
330
2B
100
AcDbEntity
  8
0
100
AcDbLine
 10
40.70870841065607
 20
4.37916279526564
 30
0.0
 11
40.70870841065607
 21
21.97381135062971
 31
0.0
  0
LINE
  5
8B
330
2B
100
AcDbEntity
  8
0
100
AcDbLine
 10
40.89999625813312
 20
3.799997272196661
 30
0.0
 11
40.89999625813312
 21
-0.0000027278023254
 31
0.0
  0
LINE
  5
8C
330
2B
100
AcDbEntity
  8
0
100
AcDbLine
 10
45.09999625813406
 20
3.799997272196661
 30
0.0
 11
45.09999625813406
 21
-0.0000027278023254
 31
0.0
  0
LINE
  5
8D
330
2B
100
AcDbEntity
  8
0
100
AcDbLine
 10
37.49999625813415
 20
3.799997272196661
 30
0.0
 11
48.49999625813413
 21
3.799997272196661
 31
0.0
  0
LINE
  5
8E
330
2B
100
AcDbEntity
  8
0
100
AcDbLine
 10
37.49999625813415
 20
4.489371801597711
 30
0.0
 11
37.49999625813415
 21
3.799997272196661
 31
0.0
  0
LINE
  5
8F
330
2B
100
AcDbEntity
  8
0
100
AcDbLine
 10
48.49999625813413
 20
4.20132666433767
 30
0.0
 11
48.49999625813413
 21
3.799997272196661
 31
0.0
  0
LINE
  5
90
330
2B
100
AcDbEntity
  8
0
100
AcDbLine
 10
48.49999625813413
 20
54.9738113506287
 30
0.0
 11
29.99999625813416
 21
54.9738113506287
 31
0.0
  0
LINE
  5
91
330
2B
100
AcDbEntity
  8
0
100
AcDbLine
 10
46.99999625813414
 20
49.9738113506287
 30
0.0
 11
29.99999625813416
 21
49.9738113506287
 31
0.0
  0
LINE
  5
92
330
2B
100
AcDbEntity
  8
0
100
AcDbLine
 10
46.99999625813414
 20
47.97381135062869
 30
0.0
 11
29.99999625813416
 21
47.97381135062869
 31
0.0
  0
LINE
  5
93
330
2B
100
AcDbEntity
  8
0
100
AcDbLine
 10
23.49999625813416
 20
22.99999727219767
 30
0.0
 11
21.99999625813313
 21
22.99999727219767
 31
0.0
  0
LINE
  5
94
330
2B
100
AcDbEntity
  8
0
100
AcDbLine
 10
23.69999625813306
 20
22.47381135062869
 30
0.0
 11
21.99999625813313
 21
22.47381135062869
 31
0.0
  0
LINE
  5
95
330
2B
100
AcDbEntity
  8
0
100
AcDbLine
 10
18.99999625813416
 20
20.99999727219767
 30
0.0
 11
17.6999962581342
 21
20.99999727219767
 31
0.0
  0
LINE
  5
96
330
2B
100
AcDbEntity
  8
0
100
AcDbLine
 10
19.99999625813416
 20
20.97381135062869
 30
0.0
 11
18.99999625813416
 21
20.97381135062869
 31
0.0
  0
LINE
  5
97
330
2B
100
AcDbEntity
  8
0
100
AcDbLine
 10
23.49999625813416
 20
30.99999727219767
 30
0.0
 11
21.99999625813313
 21
30.99999727219767
 31
0.0
  0
LINE
  5
98
330
2B
100
AcDbEntity
  8
0
100
AcDbLine
 10
18.99999625813416
 20
32.99999727219766
 30
0.0
 11
17.6999962581342
 21
32.99999727219766
 31
0.0
  0
LINE
  5
99
330
2B
100
AcDbEntity
  8
0
100
AcDbLine
 10
23.69999625813306
 20
31.47381135062869
 30
0.0
 11
21.99999625813313
 21
31.47381135062869
 31
0.0
  0
LINE
  5
9A
330
2B
100
AcDbEntity
  8
0
100
AcDbLine
 10
19.99999625813416
 20
32.97381135062966
 30
0.0
 11
18.99999625813416
 21
32.97381135062966
 31
0.0
  0
LINE
  5
9B
330
2B
100
AcDbEntity
  8
0
100
AcDbLine
 10
22.09999625813407
 20
30.99999727219767
 30
0.0
 11
22.09999625813407
 21
22.99999727219767
 31
0.0
  0
LINE
  5
9C
330
2B
100
AcDbEntity
  8
0
100
AcDbLine
 10
22.6999962581342
 20
30.99999727219767
 30
0.0
 11
22.6999962581342
 21
22.99999727219767
 31
0.0
  0
LINE
  5
9D
330
2B
100
AcDbEntity
  8
0
100
AcDbLine
 10
23.49999625813416
 20
30.99999727219767
 30
0.0
 11
23.49999625813416
 21
22.99999727219767
 31
0.0
  0
LINE
  5
9E
330
2B
100
AcDbEntity
  8
0
100
AcDbLine
 10
17.6999962581342
 20
32.99999727219766
 30
0.0
 11
17.6999962581342
 21
21.09999727219667
 31
0.0
  0
LINE
  5
9F
330
2B
100
AcDbEntity
  8
0
100
AcDbLine
 10
18.49999625813416
 20
32.99999727219766
 30
0.0
 11
18.49999625813416
 21
20.99999727219767
 31
0.0
  0
LINE
  5
A0
330
2B
100
AcDbEntity
  8
0
100
AcDbLine
 10
18.99999625813416
 20
32.99999727219766
 30
0.0
 11
18.99999625813416
 21
20.99999727219663
 31
0.0
  0
LINE
  5
A1
330
2B
100
AcDbEntity
  8
0
100
AcDbLine
 10
21.99999625813313
 20
31.47381135062869
 30
0.0
 11
21.99999625813313
 21
22.47381135062869
 31
0.0
  0
LINE
  5
A2
330
2B
100
AcDbEntity
  8
0
100
AcDbLine
 10
23.69999625813306
 20
31.47381135062869
 30
0.0
 11
23.69999625813306
 21
22.47381135062869
 31
0.0
  0
LINE
  5
A3
330
2B
100
AcDbEntity
  8
0
100
AcDbLine
 10
46.99999625813414
 20
47.97381135062869
 30
0.0
 11
46.99999625813414
 21
49.9738113506287
 31
0.0
  0
LINE
  5
A4
330
2B
100
AcDbEntity
  8
0
100
AcDbLine
 10
47.49999625813415
 20
48.97381135062869
 30
0.0
 11
47.49999625813415
 21
54.9738113506287
 31
0.0
  0
LINE
  5
A5
330
2B
100
AcDbEntity
  8
0
100
AcDbLine
 10
-0.0000037418658394
 20
120.5286506839515
 30
0.0
 11
17.9999962581371
 21
120.9999972721965
 31
0.0
  0
LINE
  5
A6
330
2B
100
AcDbEntity
  8
0
100
AcDbLine
 10
10.79999625813513
 20
96.42823256631473
 30
0.0
 11
10.79999625813513
 21
92.57176197807972
 31
0.0
  0
LINE
  5
A7
330
2B
100
AcDbEntity
  8
0
100
AcDbLine
 10
12.99999625813416
 20
94.88907313750871
 30
0.0
 11
12.99999625813416
 21
94.11092140688571
 31
0.0
  0
LINE
  5
A8
330
2B
100
AcDbEntity
  8
0
100
AcDbLine
 10
0.1464428675408271
 20
79.35355066279097
 30
0.0
 11
3.99999625813416
 21
80.99999727219769
 31
0.0
  0
LINE
  5
A9
330
2B
100
AcDbEntity
  8
0
100
AcDbLine
 10
0.9471291169941196
 20
64.05013960001872
 30
0.0
 11
11.57929696984524
 21
64.61301907458164
 31
0.0
  0
LINE
  5
AA
330
2B
100
AcDbEntity
  8
0
100
AcDbLine
 10
0.9471291169941196
 20
61.94985494437571
 30
0.0
 11
11.57929696984524
 21
61.38697546981268
 31
0.0
  0
LINE
  5
AB
330
2B
100
AcDbEntity
  8
0
100
AcDbLine
 10
0.9471291169941196
 20
57.0501396000187
 30
0.0
 11
11.57929696984524
 21
57.61301907458165
 31
0.0
  0
LINE
  5
AC
330
2B
100
AcDbEntity
  8
0
100
AcDbLine
 10
0.9471291169941196
 20
92.0501396000187
 30
0.0
 11
11.57929696984524
 21
92.61301907458165
 31
0.0
  0
LINE
  5
AD
330
2B
100
AcDbEntity
  8
0
100
AcDbLine
 10
0.9471291169941196
 20
89.94985494437569
 30
0.0
 11
11.57929696984524
 21
89.38697546981268
 31
0.0
  0
LINE
  5
AE
330
2B
100
AcDbEntity
  8
0
100
AcDbLine
 10
0.9471291169941196
 20
85.05013960001873
 30
0.0
 11
11.57929696984524
 21
85.61301907458163
 31
0.0
  0
LINE
  5
AF
330
2B
100
AcDbEntity
  8
0
100
AcDbLine
 10
0.9471291169941196
 20
82.94985494437572
 30
0.0
 11
11.57929696984524
 21
82.38697546981269
 31
0.0
  0
LINE
  5
B0
330
2B
100
AcDbEntity
  8
0
100
AcDbLine
 10
0.9471291169941196
 20
78.05013960001872
 30
0.0
 11
11.57929696984524
 21
78.61301907458164
 31
0.0
  0
LINE
  5
B1
330
2B
100
AcDbEntity
  8
0
100
AcDbLine
 10
0.9471291169941196
 20
75.94985494437572
 30
0.0
 11
11.57929696984524
 21
75.38697546981268
 31
0.0
  0
LINE
  5
B2
330
2B
100
AcDbEntity
  8
0
100
AcDbLine
 10
0.9471291169941196
 20
71.05013960001873
 30
0.0
 11
11.57929696984524
 21
71.61301907458164
 31
0.0
  0
LINE
  5
B3
330
2B
100
AcDbEntity
  8
0
100
AcDbLine
 10
0.9471291169941196
 20
68.94985494437571
 30
0.0
 11
11.57929696984524
 21
68.38697546981268
 31
0.0
  0
LINE
  5
B4
330
2B
100
AcDbEntity
  8
0
100
AcDbLine
 10
-0.0000037418658394
 20
63.05153804514964
 30
0.0
 11
-0.0000037418658394
 21
62.94845649924468
 31
0.0
  0
ARC
  5
B5
330
2B
100
AcDbEntity
  8
0
100
AcDbCircle
 10
0.9999962581341604
 20
63.05153804514964
 30
0.0
 40
1.0
100
AcDbArc
 50
93.03047684586102
 51
180.0
  0
ARC
  5
B6
330
2B
100
AcDbEntity
  8
0
100
AcDbCircle
 10
0.9999962581341604
 20
62.94845649924468
 30
0.0
 40
1.0
100
AcDbArc
 50
180.0
 51
266.9695231541389
  0
LINE
  5
B7
330
2B
100
AcDbEntity
  8
0
100
AcDbLine
 10
-0.0000037418658394
 20
70.05153804514964
 30
0.0
 11
-0.0000037418658394
 21
69.94845649924468
 31
0.0
  0
ARC
  5
B8
330
2B
100
AcDbEntity
  8
0
100
AcDbCircle
 10
0.9999962581341604
 20
70.05153804514964
 30
0.0
 40
1.0
100
AcDbArc
 50
93.03047684586102
 51
180.0
  0
ARC
  5
B9
330
2B
100
AcDbEntity
  8
0
100
AcDbCircle
 10
0.9999962581341604
 20
69.94845649924468
 30
0.0
 40
1.0
100
AcDbArc
 50
180.0
 51
266.9695231541389
  0
ARC
  5
BA
330
2B
100
AcDbEntity
  8
0
100
AcDbCircle
 10
0.4999962581341606
 20
78.99999727219769
 30
0.0
 40
0.5
100
AcDbArc
 50
134.9999999999726
 51
180.0
  0
LINE
  5
BB
330
2B
100
AcDbEntity
  8
0
100
AcDbLine
 10
-0.0000037418658394
 20
77.05153804514964
 30
0.0
 11
-0.0000037418658394
 21
76.94845649924468
 31
0.0
  0
ARC
  5
BC
330
2B
100
AcDbEntity
  8
0
100
AcDbCircle
 10
0.9999962581341604
 20
77.05153804514964
 30
0.0
 40
1.0
100
AcDbArc
 50
93.03047684586102
 51
180.0
  0
ARC
  5
BD
330
2B
100
AcDbEntity
  8
0
100
AcDbCircle
 10
0.9999962581341604
 20
76.94845649924468
 30
0.0
 40
1.0
100
AcDbArc
 50
180.0
 51
266.9695231541389
  0
LINE
  5
BE
330
2B
100
AcDbEntity
  8
0
100
AcDbLine
 10
-0.0000037418658394
 20
84.05153804514965
 30
0.0
 11
-0.0000037418658394
 21
83.94845649924468
 31
0.0
  0
ARC
  5
BF
330
2B
100
AcDbEntity
  8
0
100
AcDbCircle
 10
0.9999962581341604
 20
84.05153804514965
 30
0.0
 40
1.0
100
AcDbArc
 50
93.03047684586102
 51
180.0
  0
ARC
  5
C0
330
2B
100
AcDbEntity
  8
0
100
AcDbCircle
 10
0.9999962581341604
 20
83.94845649924468
 30
0.0
 40
1.0
100
AcDbArc
 50
180.0
 51
266.9695231541389
  0
LINE
  5
C1
330
2B
100
AcDbEntity
  8
0
100
AcDbLine
 10
-0.0000037418658394
 20
91.05153804514962
 30
0.0
 11
-0.0000037418658394
 21
90.94845649924469
 31
0.0
  0
ARC
  5
C2
330
2B
100
AcDbEntity
  8
0
100
AcDbCircle
 10
0.9999962581341604
 20
91.05153804514962
 30
0.0
 40
1.0
100
AcDbArc
 50
93.03047684586102
 51
180.0
  0
ARC
  5
C3
330
2B
100
AcDbEntity
  8
0
100
AcDbCircle
 10
0.9999962581341604
 20
90.94845649924469
 30
0.0
 40
1.0
100
AcDbArc
 50
180.0
 51
266.9695231541389
  0
LINE
  5
C4
330
2B
100
AcDbEntity
  8
0
  6
Continuous
100
AcDbLine
 10
3.99999625813416
 20
75.78823256631527
 30
0.0
 11
3.99999625813416
 21
71.21176197807912
 31
0.0
  0
LINE
  5
C5
330
2B
100
AcDbEntity
  8
0
  6
Continuous
100
AcDbLine
 10
5.999996258134157
 20
75.68235021337404
 30
0.0
 11
5.999996258134157
 21
71.31764433102034
 31
0.0
  0
LINE
  5
C6
330
2B
100
AcDbEntity
  8
0
100
AcDbLine
 10
1.999996258134158
 20
71.10587962513791
 30
0.0
 11
1.999996258134158
 21
75.89411491925651
 31
0.0
  0
LINE
  5
C7
330
2B
100
AcDbEntity
  8
0
100
AcDbLine
 10
1.9999962581345
 20
75.89411491925648
 30
0.0
 11
1.999996258134386
 21
71.10587962513794
 31
0.0
  0
ARC
  5
C8
330
2B
100
AcDbEntity
  8
0
100
AcDbCircle
 10
11.49999625813416
 20
73.88907313750872
 30
0.0
 40
1.5
100
AcDbArc
 50
0.0
 51
86.96952315413897
  0
LINE
  5
C9
330
2B
100
AcDbEntity
  8
0
  6
Continuous
100
AcDbLine
 10
3.99999625813416
 20
61.78823256631527
 30
0.0
 11
3.99999625813416
 21
57.21176197807913
 31
0.0
  0
LINE
  5
CA
330
2B
100
AcDbEntity
  8
0
  6
Continuous
100
AcDbLine
 10
3.99999625813416
 20
68.78823256631529
 30
0.0
 11
3.99999625813416
 21
64.21176197807914
 31
0.0
  0
LINE
  5
CB
330
2B
100
AcDbEntity
  8
0
  6
Continuous
100
AcDbLine
 10
5.999996258134157
 20
68.68235021337404
 30
0.0
 11
5.999996258134157
 21
64.31764433102036
 31
0.0
  0
LINE
  5
CC
330
2B
100
AcDbEntity
  8
0
100
AcDbLine
 10
1.999996258134158
 20
61.89411491925651
 30
0.0
 11
1.999996258134158
 21
57.10587962513793
 31
0.0
  0
LINE
  5
CD
330
2B
100
AcDbEntity
  8
0
100
AcDbLine
 10
1.999996258134158
 20
64.10587962513793
 30
0.0
 11
1.999996258134158
 21
68.89411491925651
 31
0.0
  0
LINE
  5
CE
330
2B
100
AcDbEntity
  8
0
  6
Continuous
100
AcDbLine
 10
5.999996258134157
 20
61.68235021337403
 30
0.0
 11
5.999996258134157
 21
57.31764433102036
 31
0.0
  0
LINE
  5
CF
330
2B
100
AcDbEntity
  8
0
100
AcDbLine
 10
1.999996258134158
 20
57.10587962513793
 30
0.0
 11
1.999996258134158
 21
61.89411491925651
 31
0.0
  0
LINE
  5
D0
330
2B
100
AcDbEntity
  8
0
100
AcDbLine
 10
1.999996258134386
 20
68.89411491925651
 30
0.0
 11
1.999996258134158
 21
64.10587962513793
 31
0.0
  0
LINE
  5
D1
330
2B
100
AcDbEntity
  8
0
100
AcDbLine
 10
12.99999625813416
 20
59.88907313750871
 30
0.0
 11
12.99999625813416
 21
59.11092140688572
 31
0.0
  0
ARC
  5
D2
330
2B
100
AcDbEntity
  8
0
100
AcDbCircle
 10
11.49999625813416
 20
59.88907313750871
 30
0.0
 40
1.5
100
AcDbArc
 50
0.0
 51
86.96952315413897
  0
ARC
  5
D3
330
2B
100
AcDbEntity
  8
0
100
AcDbCircle
 10
11.49999625813416
 20
59.11092140688572
 30
0.0
 40
1.5
100
AcDbArc
 50
273.030476845861
 51
0.0
  0
LINE
  5
D4
330
2B
100
AcDbEntity
  8
0
100
AcDbLine
 10
12.99999625813416
 20
66.8890731375087
 30
0.0
 11
12.99999625813416
 21
66.11092140688572
 31
0.0
  0
ARC
  5
D5
330
2B
100
AcDbEntity
  8
0
100
AcDbCircle
 10
11.49999625813416
 20
66.8890731375087
 30
0.0
 40
1.5
100
AcDbArc
 50
0.0
 51
86.96952315413897
  0
LINE
  5
D6
330
2B
100
AcDbEntity
  8
0
100
AcDbLine
 10
12.99999625813416
 20
73.88907313750872
 30
0.0
 11
12.99999625813416
 21
73.11092140688572
 31
0.0
  0
ARC
  5
D7
330
2B
100
AcDbEntity
  8
0
100
AcDbCircle
 10
11.49999625813416
 20
73.11092140688572
 30
0.0
 40
1.5
100
AcDbArc
 50
273.030476845861
 51
0.0
  0
ARC
  5
D8
330
2B
100
AcDbEntity
  8
0
100
AcDbCircle
 10
11.49999625813416
 20
66.11092140688572
 30
0.0
 40
1.5
100
AcDbArc
 50
273.030476845861
 51
0.0
  0
LWPOLYLINE
  5
D9
330
2B
100
AcDbEntity
  8
0
100
AcDbPolyline
 90
        3
 70
     0
 43
0.0
 10
12.86994943312071
 20
86.49999727219769
 10
5.999996258134157
 20
86.49999727219769
 10
5.999996258134157
 20
85.31764433102036
  0
LINE
  5
DA
330
2B
100
AcDbEntity
  8
0
  6
Continuous
100
AcDbLine
 10
3.99999625813416
 20
78.99999727219769
 30
0.0
 11
3.99999625813416
 21
78.21176197807914
 31
0.0
  0
LINE
  5
DB
330
2B
100
AcDbEntity
  8
0
  6
Continuous
100
AcDbLine
 10
5.999996258134157
 20
82.68235021337403
 30
0.0
 11
5.999996258134157
 21
78.31764433102034
 31
0.0
  0
LINE
  5
DC
330
2B
100
AcDbEntity
  8
0
100
AcDbLine
 10
1.999996258134158
 20
78.10587962513792
 30
0.0
 11
1.999996258134158
 21
78.14548900799362
 31
0.0
  0
LINE
  5
DD
330
2B
100
AcDbEntity
  8
0
100
AcDbLine
 10
3.99999625813416
 20
82.78823256631527
 30
0.0
 11
3.99999625813416
 21
80.99999727219769
 31
0.0
  0
LINE
  5
DE
330
2B
100
AcDbEntity
  8
0
100
AcDbLine
 10
5.999996258134157
 20
85.31764433102035
 30
0.0
 11
5.999996258134157
 21
85.99999727219769
 31
0.0
  0
LINE
  5
DF
330
2B
100
AcDbEntity
  8
0
100
AcDbLine
 10
1.999996258134615
 20
78.14548900799384
 30
0.0
 11
1.9999962581345
 21
78.10587962513794
 31
0.0
  0
LINE
  5
E0
330
2B
100
AcDbEntity
  8
0
100
AcDbLine
 10
1.999996258134615
 20
78.14548900799384
 30
0.0
 11
3.99999625813416
 21
78.99999727219769
 31
0.0
  0
ARC
  5
E1
330
2B
100
AcDbEntity
  8
0
100
AcDbCircle
 10
3.499996258134383
 20
80.99999727219769
 30
0.0
 40
0.5
100
AcDbArc
 50
0.0
 51
90.0
  0
ARC
  5
E2
330
2B
100
AcDbEntity
  8
0
100
AcDbCircle
 10
2.499996258134383
 20
80.99999727219769
 30
0.0
 40
0.5
100
AcDbArc
 50
90.0
 51
180.0
  0
LINE
  5
E3
330
2B
100
AcDbEntity
  8
0
100
AcDbLine
 10
1.999996258134386
 20
80.99999727219769
 30
0.0
 11
1.999996258134615
 21
80.14548900799384
 31
0.0
  0
LINE
  5
E4
330
2B
100
AcDbEntity
  8
0
100
AcDbLine
 10
3.499996258134383
 20
81.49999727219769
 30
0.0
 11
2.499996258134383
 21
81.49999727219769
 31
0.0
  0
ARC
  5
E5
330
2B
100
AcDbEntity
  8
0
100
AcDbCircle
 10
4.499996258134159
 20
78.99999727219769
 30
0.0
 40
0.5
100
AcDbArc
 50
180.0
 51
270.0
  0
ARC
  5
E6
330
2B
100
AcDbEntity
  8
0
100
AcDbCircle
 10
5.499996258134386
 20
78.99999727219769
 30
0.0
 40
0.5
100
AcDbArc
 50
270.0
 51
0.0
  0
ARC
  5
E7
330
2B
100
AcDbEntity
  8
0
100
AcDbCircle
 10
5.499996258134157
 20
85.99999727219769
 30
0.0
 40
0.5
100
AcDbArc
 50
0.0
 51
90.0
  0
ARC
  5
E8
330
2B
100
AcDbEntity
  8
0
100
AcDbCircle
 10
4.499996258134159
 20
85.99999727219769
 30
0.0
 40
0.5
100
AcDbArc
 50
90.0
 51
180.0
  0
LINE
  5
E9
330
2B
100
AcDbEntity
  8
0
100
AcDbLine
 10
3.99999625813416
 20
85.99999727219769
 30
0.0
 11
3.99999625813416
 21
85.21176197807914
 31
0.0
  0
LINE
  5
EA
330
2B
100
AcDbEntity
  8
0
100
AcDbLine
 10
5.499996258134157
 20
86.49999727219769
 30
0.0
 11
4.499996258134159
 21
86.49999727219769
 31
0.0
  0
LINE
  5
EB
330
2B
100
AcDbEntity
  8
0
100
AcDbLine
 10
5.999996258134387
 20
78.99999727219769
 30
0.0
 11
5.999996258134157
 21
82.68235021337401
 31
0.0
  0
LINE
  5
EC
330
2B
100
AcDbEntity
  8
0
100
AcDbLine
 10
4.499996258134159
 20
78.49999727219769
 30
0.0
 11
5.499996258134386
 21
78.49999727219769
 31
0.0
  0
LINE
  5
ED
330
2B
100
AcDbEntity
  8
0
  6
Continuous
100
AcDbLine
 10
5.999996258134157
 20
86.49999727219769
 30
0.0
 11
5.999996258134157
 21
85.31764433102036
 31
0.0
  0
LINE
  5
EE
330
2B
100
AcDbEntity
  8
0
100
AcDbLine
 10
12.99999625813416
 20
80.88907313750871
 30
0.0
 11
12.99999625813416
 21
80.11092140688573
 31
0.0
  0
ARC
  5
EF
330
2B
100
AcDbEntity
  8
0
100
AcDbCircle
 10
11.49999625813416
 20
80.11092140688573
 30
0.0
 40
1.5
100
AcDbArc
 50
273.030476845861
 51
0.0
  0
LINE
  5
F0
330
2B
100
AcDbEntity
  8
0
100
AcDbLine
 10
11.99999625813416
 20
86.49999727219769
 30
0.0
 11
11.99999625813416
 21
89.3032866998817
 31
0.0
  0
LINE
  5
F1
330
2B
100
AcDbEntity
  8
0
100
AcDbLine
 10
10.79999625813513
 20
89.0489597465187
 30
0.0
 11
11.99999625813416
 21
89.01753664063575
 31
0.0
  0
LINE
  5
F2
330
2B
100
AcDbEntity
  8
0
100
AcDbLine
 10
12.99999625813416
 20
87.88907313750872
 30
0.0
 11
12.99999625813416
 21
87.11092140688572
 31
0.0
  0
ARC
  5
F3
330
2B
100
AcDbEntity
  8
0
100
AcDbCircle
 10
11.49999625813416
 20
87.11092140688572
 30
0.0
 40
1.5
100
AcDbArc
 50
273.030476845861
 51
0.0
  0
ARC
  5
F4
330
2B
100
AcDbEntity
  8
0
100
AcDbCircle
 10
11.49999625813416
 20
94.11092140688571
 30
0.0
 40
1.5
100
AcDbArc
 50
273.030476845861
 51
0.0
  0
LINE
  5
F5
330
2B
100
AcDbEntity
  8
0
100
AcDbLine
 10
10.79999625813513
 20
89.42823256631468
 30
0.0
 11
10.79999625813513
 21
89.0489597465187
 31
0.0
  0
ARC
  5
F6
330
2B
100
AcDbEntity
  8
0
100
AcDbCircle
 10
11.49999625813416
 20
87.88907313750872
 30
0.0
 40
1.5
100
AcDbArc
 50
0.0
 51
86.96952315413897
  0
ARC
  5
F7
330
2B
100
AcDbEntity
  8
0
100
AcDbCircle
 10
11.49999625813416
 20
80.88907313750871
 30
0.0
 40
1.5
100
AcDbArc
 50
0.0
 51
86.96952315413897
  0
LINE
  5
F8
330
2B
100
AcDbEntity
  8
0
100
AcDbLine
 10
0.9471291169941196
 20
96.94985494437574
 30
0.0
 11
11.57929696984524
 21
96.38697546981269
 31
0.0
  0
LINE
  5
F9
330
2B
100
AcDbEntity
  8
0
100
AcDbLine
 10
0.4738282800130948
 20
104.3251647881775
 30
0.0
 11
11.57850019249917
 21
103.7431935935775
 31
0.0
  0
LINE
  5
FA
330
2B
100
AcDbEntity
  8
0
100
AcDbLine
 10
0.9471291169941196
 20
99.05013960001872
 30
0.0
 11
11.57929696984524
 21
99.61301907458164
 31
0.0
  0
LINE
  5
FB
330
2B
100
AcDbEntity
  8
0
100
AcDbLine
 10
-0.0000037418658394
 20
104.8244795555546
 30
0.0
 11
-0.0000037418658394
 21
120.5286506839515
 31
0.0
  0
LINE
  5
FC
330
2B
100
AcDbEntity
  8
0
100
AcDbLine
 10
-0.0000037418658394
 20
98.05153804514963
 30
0.0
 11
-0.0000037418658394
 21
97.94845649924468
 31
0.0
  0
POINT
  5
FD
330
2B
100
AcDbEntity
  8
0
100
AcDbPoint
 10
-0.0000037418658394
 20
104.3499972721966
 30
0.0
  0
ARC
  5
FE
330
2B
100
AcDbEntity
  8
0
100
AcDbCircle
 10
0.4999962581341606
 20
104.8244795555546
 30
0.0
 40
0.5
100
AcDbArc
 50
180.0
 51
266.9999999999943
  0
ARC
  5
FF
330
2B
100
AcDbEntity
  8
0
100
AcDbCircle
 10
0.9999962581341604
 20
98.05153804514963
 30
0.0
 40
1.0
100
AcDbArc
 50
93.03047684586102
 51
180.0
  0
ARC
  5
100
330
2B
100
AcDbEntity
  8
0
100
AcDbCircle
 10
0.9999962581341604
 20
97.94845649924468
 30
0.0
 40
1.0
100
AcDbArc
 50
180.0
 51
266.9695231541389
  0
ARC
  5
101
330
2B
100
AcDbEntity
  8
0
100
AcDbCircle
 10
11.49999625813416
 20
94.88907313750871
 30
0.0
 40
1.5
100
AcDbArc
 50
0.0
 51
86.96952315413897
  0
LINE
  5
102
330
2B
100
AcDbEntity
  8
0
100
AcDbLine
 10
10.79999625813513
 20
103.7839932559404
 30
0.0
 11
10.79999625813513
 21
99.56600128845366
 31
0.0
  0
LINE
  5
103
330
2B
100
AcDbEntity
  8
0
100
AcDbLine
 10
12.99999625813416
 20
102.2452492914456
 30
0.0
 11
12.99999625813416
 21
101.1109214068855
 31
0.0
  0
ARC
  5
104
330
2B
100
AcDbEntity
  8
0
100
AcDbCircle
 10
11.49999625813416
 20
102.2452492914456
 30
0.0
 40
1.5
100
AcDbArc
 50
0.0
 51
87.00000000000093
  0
ARC
  5
105
330
2B
100
AcDbEntity
  8
0
100
AcDbCircle
 10
11.49999625813416
 20
101.1109214068855
 30
0.0
 40
1.5
100
AcDbArc
 50
273.030476845861
 51
0.0
  0
LINE
  5
106
330
2B
100
AcDbEntity
  8
0
100
AcDbLine
 10
48.55277444428816
 20
101.9999972721965
 30
0.0
 11
48.55277444428816
 21
91.99999727219669
 31
0.0
  0
LINE
  5
107
330
2B
100
AcDbEntity
  8
0
100
AcDbLine
 10
18.99999625813416
 20
110.4710163300716
 30
0.0
 11
18.99999625813416
 21
82.99999727219768
 31
0.0
  0
LINE
  5
108
330
2B
100
AcDbEntity
  8
0
100
AcDbLine
 10
19.99999625813416
 20
82.97381135062966
 30
0.0
 11
19.99999625813416
 21
109.6057307773266
 31
0.0
  0
LINE
  5
109
330
2B
100
AcDbEntity
  8
0
100
AcDbLine
 10
47.49999625813415
 20
70.97381135062869
 30
0.0
 11
47.49999625813415
 21
96.97381135062869
 31
0.0
  0
LINE
  5
10A
330
2B
100
AcDbEntity
  8
0
100
AcDbLine
 10
48.49999625813413
 20
56.97381135062869
 30
0.0
 11
29.99999625813416
 21
56.97381135062869
 31
0.0
  0
LINE
  5
10B
330
2B
100
AcDbEntity
  8
0
100
AcDbLine
 10
48.49999625813413
 20
61.97381135062869
 30
0.0
 11
29.99999625813416
 21
61.97381135062869
 31
0.0
  0
LINE
  5
10C
330
2B
100
AcDbEntity
  8
0
100
AcDbLine
 10
48.49999625813413
 20
63.97381135062869
 30
0.0
 11
29.99999625813416
 21
63.97381135062869
 31
0.0
  0
LINE
  5
10D
330
2B
100
AcDbEntity
  8
0
100
AcDbLine
 10
48.49999625813413
 20
68.97381135062869
 30
0.0
 11
29.99999625813416
 21
68.97381135062869
 31
0.0
  0
LINE
  5
10E
330
2B
100
AcDbEntity
  8
0
100
AcDbLine
 10
48.49999625813413
 20
70.97381135062869
 30
0.0
 11
29.99999625813416
 21
70.97381135062869
 31
0.0
  0
LINE
  5
10F
330
2B
100
AcDbEntity
  8
0
100
AcDbLine
 10
46.99999625813414
 20
84.9738113506287
 30
0.0
 11
29.99999625813416
 21
84.9738113506287
 31
0.0
  0
LINE
  5
110
330
2B
100
AcDbEntity
  8
0
100
AcDbLine
 10
46.99999625813414
 20
82.97381135062869
 30
0.0
 11
29.99999625813416
 21
82.97381135062869
 31
0.0
  0
LINE
  5
111
330
2B
100
AcDbEntity
  8
0
100
AcDbLine
 10
46.99999625813414
 20
77.97381135062869
 30
0.0
 11
29.99999625813416
 21
77.97381135062869
 31
0.0
  0
LINE
  5
112
330
2B
100
AcDbEntity
  8
0
100
AcDbLine
 10
46.99999625813414
 20
75.97381135062869
 30
0.0
 11
29.99999625813416
 21
75.97381135062869
 31
0.0
  0
LINE
  5
113
330
2B
100
AcDbEntity
  8
0
100
AcDbLine
 10
46.99999625813414
 20
91.97381135062867
 30
0.0
 11
29.99999625813416
 21
91.97381135062867
 31
0.0
  0
LINE
  5
114
330
2B
100
AcDbEntity
  8
0
100
AcDbLine
 10
46.99999625813414
 20
89.9738113506287
 30
0.0
 11
29.99999625813416
 21
89.9738113506287
 31
0.0
  0
LINE
  5
115
330
2B
100
AcDbEntity
  8
0
100
AcDbLine
 10
22.09999625813407
 20
80.99999727219767
 30
0.0
 11
22.09999625813407
 21
72.99999727219767
 31
0.0
  0
LINE
  5
116
330
2B
100
AcDbEntity
  8
0
100
AcDbLine
 10
22.6999962581342
 20
80.99999727219767
 30
0.0
 11
22.6999962581342
 21
72.99999727219767
 31
0.0
  0
LINE
  5
117
330
2B
100
AcDbEntity
  8
0
100
AcDbLine
 10
23.49999625813416
 20
80.99999727219767
 30
0.0
 11
23.49999625813416
 21
72.99999727219767
 31
0.0
  0
LINE
  5
118
330
2B
100
AcDbEntity
  8
0
100
AcDbLine
 10
21.99999625813313
 20
81.4738113506287
 30
0.0
 11
21.99999625813313
 21
72.4738113506287
 31
0.0
  0
LINE
  5
119
330
2B
100
AcDbEntity
  8
0
100
AcDbLine
 10
23.69999625813306
 20
81.4738113506287
 30
0.0
 11
23.69999625813306
 21
72.4738113506287
 31
0.0
  0
LINE
  5
11A
330
2B
100
AcDbEntity
  8
0
100
AcDbLine
 10
17.6999962581342
 20
82.99999727219768
 30
0.0
 11
17.6999962581342
 21
71.09999727219667
 31
0.0
  0
LINE
  5
11B
330
2B
100
AcDbEntity
  8
0
100
AcDbLine
 10
18.49999625813416
 20
82.99999727219768
 30
0.0
 11
18.49999625813416
 21
70.99999727219767
 31
0.0
  0
LINE
  5
11C
330
2B
100
AcDbEntity
  8
0
100
AcDbLine
 10
18.99999625813416
 20
70.99999727219665
 30
0.0
 11
18.99999625813416
 21
82.99999727219768
 31
0.0
  0
LINE
  5
11D
330
2B
100
AcDbEntity
  8
0
100
AcDbLine
 10
18.99999625813416
 20
70.99999727219767
 30
0.0
 11
17.6999962581342
 21
70.99999727219767
 31
0.0
  0
LINE
  5
11E
330
2B
100
AcDbEntity
  8
0
100
AcDbLine
 10
19.99999625813416
 20
70.97381135062869
 30
0.0
 11
18.99999625813416
 21
70.97381135062869
 31
0.0
  0
LINE
  5
11F
330
2B
100
AcDbEntity
  8
0
100
AcDbLine
 10
23.49999625813416
 20
72.99999727219767
 30
0.0
 11
21.99999625813313
 21
72.99999727219767
 31
0.0
  0
LINE
  5
120
330
2B
100
AcDbEntity
  8
0
100
AcDbLine
 10
23.69999625813306
 20
72.4738113506287
 30
0.0
 11
21.99999625813313
 21
72.4738113506287
 31
0.0
  0
LINE
  5
121
330
2B
100
AcDbEntity
  8
0
100
AcDbLine
 10
23.49999625813416
 20
80.99999727219767
 30
0.0
 11
21.99999625813313
 21
80.99999727219767
 31
0.0
  0
LINE
  5
122
330
2B
100
AcDbEntity
  8
0
100
AcDbLine
 10
18.99999625813416
 20
82.99999727219768
 30
0.0
 11
17.6999962581342
 21
82.99999727219768
 31
0.0
  0
LINE
  5
123
330
2B
100
AcDbEntity
  8
0
100
AcDbLine
 10
23.69999625813306
 20
81.4738113506287
 30
0.0
 11
21.99999625813313
 21
81.4738113506287
 31
0.0
  0
LINE
  5
124
330
2B
100
AcDbEntity
  8
0
100
AcDbLine
 10
19.99999625813416
 20
82.97381135062966
 30
0.0
 11
18.99999625813416
 21
82.97381135062966
 31
0.0
  0
LINE
  5
125
330
2B
100
AcDbEntity
  8
0
100
AcDbLine
 10
47.49999625813415
 20
56.97381135062869
 30
0.0
 11
47.49999625813415
 21
61.97381135062869
 31
0.0
  0
LINE
  5
126
330
2B
100
AcDbEntity
  8
0
100
AcDbLine
 10
47.49999625813415
 20
63.97381135062869
 30
0.0
 11
47.49999625813415
 21
68.97381135062869
 31
0.0
  0
ARC
  5
127
330
2B
100
AcDbEntity
  8
0
100
AcDbCircle
 10
49.29999625813412
 20
81.99999727219667
 30
0.0
 40
1.05
100
AcDbArc
 50
139.6324064558195
 51
220.3675935441804
  0
LINE
  5
128
330
2B
100
AcDbEntity
  8
0
100
AcDbLine
 10
46.99999625813414
 20
75.97381135062869
 30
0.0
 11
46.99999625813414
 21
77.97381135062869
 31
0.0
  0
LINE
  5
129
330
2B
100
AcDbEntity
  8
0
100
AcDbLine
 10
46.99999625813414
 20
82.97381135062869
 30
0.0
 11
46.99999625813414
 21
84.9738113506287
 31
0.0
  0
LINE
  5
12A
330
2B
100
AcDbEntity
  8
0
100
AcDbLine
 10
46.99999625813414
 20
89.9738113506287
 30
0.0
 11
46.99999625813414
 21
91.97381135062867
 31
0.0
  0
LINE
  5
12B
330
2B
100
AcDbEntity
  8
0
100
AcDbLine
 10
48.55277444428816
 20
96.97381135062869
 30
0.0
 11
29.99999625813416
 21
96.97381135062869
 31
0.0
  0
LINE
  5
12C
330
2B
100
AcDbEntity
  8
0
100
AcDbLine
 10
48.55277444428816
 20
98.9738113506287
 30
0.0
 11
29.99999625813416
 21
98.9738113506287
 31
0.0
  0
LINE
  5
12D
330
2B
100
AcDbEntity
  8
0
100
AcDbLine
 10
28.09999625813407
 20
121.9738113506287
 30
0.0
 11
36.69999625813328
 21
121.9738113506287
 31
0.0
  0
LINE
  5
12E
330
2B
100
AcDbEntity
  8
0
100
AcDbLine
 10
29.19999625813318
 20
126.2738113506287
 30
0.0
 11
35.09999625813316
 21
126.2738113506287
 31
0.0
  0
LINE
  5
12F
330
2B
100
AcDbEntity
  8
0
100
AcDbLine
 10
29.59999625813316
 20
127.5738113506285
 30
0.0
 11
38.94499625813319
 21
127.5738113506285
 31
0.0
  0
LINE
  5
130
330
2B
100
AcDbEntity
  8
0
100
AcDbLine
 10
21.99999625813416
 20
110.9999972721974
 30
0.0
 11
21.99999625813416
 21
120.8952535859205
 31
0.0
  0
LINE
  5
131
330
2B
100
AcDbEntity
  8
0
100
AcDbLine
 10
22.99999625813416
 20
120.9738113506287
 30
0.0
 11
22.99999625813416
 21
110.1347117194515
 31
0.0
  0
LINE
  5
132
330
2B
100
AcDbEntity
  8
0
100
AcDbLine
 10
21.99999625813416
 20
120.4738113506285
 30
0.0
 11
21.99999625813416
 21
110.9738113506296
 31
0.0
  0
LINE
  5
133
330
2B
100
AcDbEntity
  8
0
100
AcDbLine
 10
21.99999625813416
 20
110.9999972721974
 30
0.0
 11
18.99999625813416
 21
110.4710163300716
 31
0.0
  0
LINE
  5
134
330
2B
100
AcDbEntity
  8
0
100
AcDbLine
 10
22.99999625813416
 20
110.1347117194515
 30
0.0
 11
19.99999625813416
 21
109.6057307773266
 31
0.0
  0
LINE
  5
135
330
2B
100
AcDbEntity
  8
0
100
AcDbLine
 10
18.99999625813416
 20
110.4448304085035
 30
0.0
 11
21.99999625813416
 21
110.9738113506296
 31
0.0
  0
LINE
  5
136
330
2B
100
AcDbEntity
  8
0
100
AcDbLine
 10
17.99999625813416
 20
120.9999972721975
 30
0.0
 11
21.99999625813416
 21
120.8952535859205
 31
0.0
  0
LINE
  5
137
330
2B
100
AcDbEntity
  8
0
100
AcDbLine
 10
21.99999625813416
 20
120.4738113506285
 30
0.0
 11
22.99999625813416
 21
120.4738113506285
 31
0.0
  0
LINE
  5
138
330
2B
100
AcDbEntity
  8
0
100
AcDbLine
 10
19.99999625813416
 20
120.9738113506287
 30
0.0
 11
19.99999625813416
 21
120.9476254290595
 31
0.0
  0
LINE
  5
139
330
2B
100
AcDbEntity
  8
0
100
AcDbLine
 10
19.99999625813416
 20
120.9738113506287
 30
0.0
 11
19.99999625813416
 21
120.9476254290589
 31
0.0
  0
LINE
  5
13A
330
2B
100
AcDbEntity
  8
0
100
AcDbLine
 10
28.09999625813407
 20
120.9738113506287
 30
0.0
 11
28.09999625813407
 21
121.9738113506287
 31
0.0
  0
LINE
  5
13B
330
2B
100
AcDbEntity
  8
0
100
AcDbLine
 10
29.19999625813318
 20
121.9738113506287
 30
0.0
 11
29.19999625813318
 21
126.2738113506287
 31
0.0
  0
LINE
  5
13C
330
2B
100
AcDbEntity
  8
0
100
AcDbLine
 10
29.59999625813316
 20
126.2738113506285
 30
0.0
 11
29.59999625813316
 21
127.5738113506285
 31
0.0
  0
LINE
  5
13D
330
2B
100
AcDbEntity
  8
0
100
AcDbLine
 10
39.1999962581342
 20
107.4738113506287
 30
0.0
 11
39.1999962581342
 21
115.4738113506285
 31
0.0
  0
LINE
  5
13E
330
2B
100
AcDbEntity
  8
0
100
AcDbLine
 10
42.19999625813421
 20
105.4738113506285
 30
0.0
 11
42.19999625813421
 21
117.4738113506285
 31
0.0
  0
LINE
  5
13F
330
2B
100
AcDbEntity
  8
0
100
AcDbLine
 10
42.19999625813421
 20
105.4738113506285
 30
0.0
 11
33.99999625813416
 21
105.4738113506285
 31
0.0
  0
LINE
  5
140
330
2B
100
AcDbEntity
  8
0
100
AcDbLine
 10
37.1999962581342
 20
109.4738113506287
 30
0.0
 11
37.1999962581342
 21
107.4738113506287
 31
0.0
  0
LINE
  5
141
330
2B
100
AcDbEntity
  8
0
100
AcDbLine
 10
37.1999962581342
 20
107.4738113506287
 30
0.0
 11
39.1999962581342
 21
107.4738113506287
 31
0.0
  0
LINE
  5
142
330
2B
100
AcDbEntity
  8
0
100
AcDbLine
 10
33.99999625813416
 20
109.4738113506287
 30
0.0
 11
33.99999625813416
 21
105.4738113506285
 31
0.0
  0
LINE
  5
143
330
2B
100
AcDbEntity
  8
0
100
AcDbLine
 10
33.99999625813416
 20
109.4738113506287
 30
0.0
 11
37.1999962581342
 21
109.4738113506287
 31
0.0
  0
LINE
  5
144
330
2B
100
AcDbEntity
  8
0
100
AcDbLine
 10
47.49999625813415
 20
98.9738113506287
 30
0.0
 11
47.49999625813415
 21
103.9738113506285
 31
0.0
  0
LINE
  5
145
330
2B
100
AcDbEntity
  8
0
100
AcDbLine
 10
33.99999625813416
 20
117.4738113506285
 30
0.0
 11
42.19999625813421
 21
117.4738113506285
 31
0.0
  0
LINE
  5
146
330
2B
100
AcDbEntity
  8
0
100
AcDbLine
 10
36.69999625813328
 20
121.9738113506287
 30
0.0
 11
36.69999625813328
 21
120.9738113506287
 31
0.0
  0
LINE
  5
147
330
2B
100
AcDbEntity
  8
0
100
AcDbLine
 10
35.09999625813316
 20
126.2738113506287
 30
0.0
 11
35.09999625813316
 21
121.9738113506287
 31
0.0
  0
LINE
  5
148
330
2B
100
AcDbEntity
  8
0
100
AcDbLine
 10
38.94499625813319
 20
127.5738113506285
 30
0.0
 11
38.94499625813319
 21
120.9738113506287
 31
0.0
  0
LINE
  5
149
330
2B
100
AcDbEntity
  8
0
100
AcDbLine
 10
37.1999962581342
 20
113.4738113506287
 30
0.0
 11
37.1999962581342
 21
115.4738113506285
 31
0.0
  0
LINE
  5
14A
330
2B
100
AcDbEntity
  8
0
100
AcDbLine
 10
37.1999962581342
 20
115.4738113506285
 30
0.0
 11
39.1999962581342
 21
115.4738113506285
 31
0.0
  0
LINE
  5
14B
330
2B
100
AcDbEntity
  8
0
100
AcDbLine
 10
33.99999625813416
 20
113.4738113506287
 30
0.0
 11
33.99999625813416
 21
117.4738113506285
 31
0.0
  0
LINE
  5
14C
330
2B
100
AcDbEntity
  8
0
100
AcDbLine
 10
33.99999625813416
 20
113.4738113506287
 30
0.0
 11
37.1999962581342
 21
113.4738113506287
 31
0.0
  0
LINE
  5
14D
330
2B
100
AcDbEntity
  8
0
100
AcDbLine
 10
67.49999625813416
 20
91.99999727219664
 30
0.0
 11
67.49999625813416
 21
49.99999727219666
 31
0.0
  0
LINE
  5
14E
330
2B
100
AcDbEntity
  8
0
100
AcDbLine
 10
68.99999625813416
 20
54.9738113506287
 30
0.0
 11
68.99999625813416
 21
56.97381135062869
 31
0.0
  0
LINE
  5
14F
330
2B
100
AcDbEntity
  8
0
100
AcDbLine
 10
69.99999625813416
 20
54.9738113506287
 30
0.0
 11
69.99999625813416
 21
56.97381135062869
 31
0.0
  0
LINE
  5
150
330
2B
100
AcDbEntity
  8
0
100
AcDbLine
 10
70.99999625813416
 20
21.97381135062868
 30
0.0
 11
70.99999625813416
 21
103.9738113506285
 31
0.0
  0
LINE
  5
151
330
2B
100
AcDbEntity
  8
0
100
AcDbLine
 10
71.99999625813416
 20
3.585957507460647
 30
0.0
 11
71.99999625813416
 21
120.9738113506287
 31
0.0
  0
LINE
  5
152
330
2B
100
AcDbEntity
  8
0
100
AcDbLine
 10
71.99999625813416
 20
-0.0000027278023254
 30
0.0
 11
71.99999625813416
 21
3.585957507460647
 31
0.0
  0
LINE
  5
153
330
2B
100
AcDbEntity
  8
0
100
AcDbLine
 10
62.99999625813414
 20
49.99999727219666
 30
0.0
 11
67.49999625813416
 21
49.99999727219666
 31
0.0
  0
LINE
  5
154
330
2B
100
AcDbEntity
  8
0
100
AcDbLine
 10
62.99999625813414
 20
49.99999727219666
 30
0.0
 11
52.99999625813414
 21
49.99999727219669
 31
0.0
  0
LINE
  5
155
330
2B
100
AcDbEntity
  8
0
100
AcDbLine
 10
52.99999625813414
 20
49.9738113506287
 30
0.0
 11
62.99999625813414
 21
49.9738113506287
 31
0.0
  0
LINE
  5
156
330
2B
100
AcDbEntity
  8
0
100
AcDbLine
 10
52.99999625813414
 20
51.99999727219664
 30
0.0
 11
52.99999625813414
 21
49.9738113506287
 31
0.0
  0
ARC
  5
157
330
2B
100
AcDbEntity
  8
0
100
AcDbCircle
 10
52.99999625813414
 20
50.47381135062869
 30
0.0
 40
0.5
100
AcDbArc
 50
251.374822272642
 51
270.0
  0
LINE
  5
158
330
2B
100
AcDbEntity
  8
0
100
AcDbLine
 10
62.99999625813414
 20
49.9738113506287
 30
0.0
 11
62.99999625813414
 21
51.99999727219664
 31
0.0
  0
ARC
  5
159
330
2B
100
AcDbEntity
  8
0
100
AcDbCircle
 10
62.99999625813414
 20
50.47381135062869
 30
0.0
 40
0.5
100
AcDbArc
 50
270.0
 51
288.6251777273578
  0
LINE
  5
15A
330
2B
100
AcDbEntity
  8
0
100
AcDbLine
 10
68.99999625813416
 20
33.97381135062869
 30
0.0
 11
68.99999625813416
 21
35.97381135062867
 31
0.0
  0
LINE
  5
15B
330
2B
100
AcDbEntity
  8
0
100
AcDbLine
 10
69.99999625813416
 20
33.97381135062869
 30
0.0
 11
69.99999625813416
 21
35.97381135062867
 31
0.0
  0
LINE
  5
15C
330
2B
100
AcDbEntity
  8
0
100
AcDbLine
 10
68.99999625813416
 20
26.97381135062869
 30
0.0
 11
68.99999625813416
 21
28.97381135062869
 31
0.0
  0
LINE
  5
15D
330
2B
100
AcDbEntity
  8
0
100
AcDbLine
 10
69.99999625813416
 20
26.97381135062869
 30
0.0
 11
69.99999625813416
 21
28.97381135062869
 31
0.0
  0
LINE
  5
15E
330
2B
100
AcDbEntity
  8
0
100
AcDbLine
 10
67.49999625813416
 20
49.99999727219666
 30
0.0
 11
67.49999625813416
 21
49.99999727219666
 31
0.0
  0
LINE
  5
15F
330
2B
100
AcDbEntity
  8
0
100
AcDbLine
 10
68.99999625813416
 20
40.97381135062867
 30
0.0
 11
68.99999625813416
 21
42.97381135062869
 31
0.0
  0
LINE
  5
160
330
2B
100
AcDbEntity
  8
0
100
AcDbLine
 10
69.99999625813416
 20
40.97381135062867
 30
0.0
 11
69.99999625813416
 21
42.97381135062869
 31
0.0
  0
LINE
  5
161
330
2B
100
AcDbEntity
  8
0
100
AcDbLine
 10
70.99999625813416
 20
49.9738113506287
 30
0.0
 11
68.99999625813416
 21
49.9738113506287
 31
0.0
  0
LINE
  5
162
330
2B
100
AcDbEntity
  8
0
100
AcDbLine
 10
70.99999625813416
 20
47.97381135062869
 30
0.0
 11
68.99999625813416
 21
47.97381135062869
 31
0.0
  0
LINE
  5
163
330
2B
100
AcDbEntity
  8
0
100
AcDbLine
 10
68.99999625813416
 20
47.97381135062869
 30
0.0
 11
68.99999625813416
 21
49.9738113506287
 31
0.0
  0
LINE
  5
164
330
2B
100
AcDbEntity
  8
0
100
AcDbLine
 10
69.99999625813416
 20
47.97381135062869
 30
0.0
 11
69.99999625813416
 21
49.9738113506287
 31
0.0
  0
LINE
  5
165
330
2B
100
AcDbEntity
  8
0
100
AcDbLine
 10
68.49999625813416
 20
54.9738113506287
 30
0.0
 11
68.49999625813416
 21
48.97381135062869
 31
0.0
  0
LINE
  5
166
330
2B
100
AcDbEntity
  8
0
100
AcDbLine
 10
70.99999625813416
 20
54.9738113506287
 30
0.0
 11
67.49999625813416
 21
54.9738113506287
 31
0.0
  0
LINE
  5
167
330
2B
100
AcDbEntity
  8
0
100
AcDbLine
 10
67.44721807197925
 20
101.9999972721965
 30
0.0
 11
67.44721807197925
 21
91.99999727219664
 31
0.0
  0
LINE
  5
168
330
2B
100
AcDbEntity
  8
0
100
AcDbLine
 10
68.49999625813416
 20
96.97381135062869
 30
0.0
 11
68.49999625813416
 21
70.97381135062869
 31
0.0
  0
LINE
  5
169
330
2B
100
AcDbEntity
  8
0
100
AcDbLine
 10
68.49999625813416
 20
61.97381135062869
 30
0.0
 11
68.49999625813416
 21
56.97381135062869
 31
0.0
  0
LINE
  5
16A
330
2B
100
AcDbEntity
  8
0
100
AcDbLine
 10
68.99999625813416
 20
68.97381135062869
 30
0.0
 11
68.99999625813416
 21
70.97381135062869
 31
0.0
  0
LINE
  5
16B
330
2B
100
AcDbEntity
  8
0
100
AcDbLine
 10
69.99999625813416
 20
68.97381135062869
 30
0.0
 11
69.99999625813416
 21
70.97381135062869
 31
0.0
  0
LINE
  5
16C
330
2B
100
AcDbEntity
  8
0
100
AcDbLine
 10
68.49999625813416
 20
68.97381135062869
 30
0.0
 11
68.49999625813416
 21
63.97381135062869
 31
0.0
  0
LINE
  5
16D
330
2B
100
AcDbEntity
  8
0
100
AcDbLine
 10
68.99999625813416
 20
61.97381135062869
 30
0.0
 11
68.99999625813416
 21
63.97381135062869
 31
0.0
  0
LINE
  5
16E
330
2B
100
AcDbEntity
  8
0
100
AcDbLine
 10
69.99999625813416
 20
61.97381135062869
 30
0.0
 11
69.99999625813416
 21
63.97381135062869
 31
0.0
  0
LINE
  5
16F
330
2B
100
AcDbEntity
  8
0
100
AcDbLine
 10
70.99999625813416
 20
70.97381135062869
 30
0.0
 11
67.49999625813416
 21
70.97381135062869
 31
0.0
  0
LINE
  5
170
330
2B
100
AcDbEntity
  8
0
100
AcDbLine
 10
70.99999625813416
 20
68.97381135062869
 30
0.0
 11
67.49999625813416
 21
68.97381135062869
 31
0.0
  0
LINE
  5
171
330
2B
100
AcDbEntity
  8
0
100
AcDbLine
 10
70.99999625813416
 20
63.97381135062869
 30
0.0
 11
67.49999625813416
 21
63.97381135062869
 31
0.0
  0
LINE
  5
172
330
2B
100
AcDbEntity
  8
0
100
AcDbLine
 10
70.99999625813416
 20
61.97381135062869
 30
0.0
 11
67.49999625813416
 21
61.97381135062869
 31
0.0
  0
LINE
  5
173
330
2B
100
AcDbEntity
  8
0
100
AcDbLine
 10
70.99999625813416
 20
56.97381135062869
 30
0.0
 11
67.49999625813416
 21
56.97381135062869
 31
0.0
  0
LINE
  5
174
330
2B
100
AcDbEntity
  8
0
100
AcDbLine
 10
70.99999625813416
 20
77.97381135062869
 30
0.0
 11
68.99999625813416
 21
77.97381135062869
 31
0.0
  0
LINE
  5
175
330
2B
100
AcDbEntity
  8
0
100
AcDbLine
 10
70.99999625813416
 20
75.97381135062869
 30
0.0
 11
68.99999625813416
 21
75.97381135062869
 31
0.0
  0
LINE
  5
176
330
2B
100
AcDbEntity
  8
0
100
AcDbLine
 10
68.99999625813416
 20
75.97381135062869
 30
0.0
 11
68.99999625813416
 21
77.97381135062869
 31
0.0
  0
LINE
  5
177
330
2B
100
AcDbEntity
  8
0
100
AcDbLine
 10
69.99999625813416
 20
75.97381135062869
 30
0.0
 11
69.99999625813416
 21
77.97381135062869
 31
0.0
  0
LINE
  5
178
330
2B
100
AcDbEntity
  8
0
100
AcDbLine
 10
70.99999625813416
 20
84.9738113506287
 30
0.0
 11
68.99999625813416
 21
84.9738113506287
 31
0.0
  0
LINE
  5
179
330
2B
100
AcDbEntity
  8
0
100
AcDbLine
 10
70.99999625813416
 20
82.97381135062869
 30
0.0
 11
68.99999625813416
 21
82.97381135062869
 31
0.0
  0
LINE
  5
17A
330
2B
100
AcDbEntity
  8
0
100
AcDbLine
 10
68.99999625813416
 20
82.97381135062869
 30
0.0
 11
68.99999625813416
 21
84.9738113506287
 31
0.0
  0
LINE
  5
17B
330
2B
100
AcDbEntity
  8
0
100
AcDbLine
 10
69.99999625813416
 20
82.97381135062869
 30
0.0
 11
69.99999625813416
 21
84.9738113506287
 31
0.0
  0
LINE
  5
17C
330
2B
100
AcDbEntity
  8
0
100
AcDbLine
 10
70.99999625813416
 20
91.97381135062867
 30
0.0
 11
68.99999625813416
 21
91.97381135062867
 31
0.0
  0
LINE
  5
17D
330
2B
100
AcDbEntity
  8
0
100
AcDbLine
 10
70.99999625813416
 20
89.9738113506287
 30
0.0
 11
68.99999625813416
 21
89.9738113506287
 31
0.0
  0
LINE
  5
17E
330
2B
100
AcDbEntity
  8
0
100
AcDbLine
 10
68.99999625813416
 20
89.9738113506287
 30
0.0
 11
68.99999625813416
 21
91.97381135062867
 31
0.0
  0
LINE
  5
17F
330
2B
100
AcDbEntity
  8
0
100
AcDbLine
 10
69.99999625813416
 20
89.9738113506287
 30
0.0
 11
69.99999625813416
 21
91.97381135062867
 31
0.0
  0
ARC
  5
180
330
2B
100
AcDbEntity
  8
0
100
AcDbCircle
 10
66.99999625813416
 20
91.97381135062867
 30
0.0
 40
0.5
100
AcDbArc
 50
0.0
 51
26.56294527600511
  0
LINE
  5
181
330
2B
100
AcDbEntity
  8
0
100
AcDbLine
 10
67.49999625813416
 20
86.97381135062867
 30
0.0
 11
67.49999625813416
 21
91.97381135062867
 31
0.0
  0
LINE
  5
182
330
2B
100
AcDbEntity
  8
0
100
AcDbLine
 10
65.49999625813416
 20
101.9999972721965
 30
0.0
 11
63.99999625813414
 21
101.9999972721965
 31
0.0
  0
LINE
  5
183
330
2B
100
AcDbEntity
  8
0
100
AcDbLine
 10
55.14999625813425
 20
124.3738113506287
 30
0.0
 11
61.4499962581342
 21
124.3738113506287
 31
0.0
  0
LINE
  5
184
330
2B
100
AcDbEntity
  8
0
100
AcDbLine
 10
55.14999625813425
 20
120.9738113506287
 30
0.0
 11
55.14999625813425
 21
124.3738113506287
 31
0.0
  0
LINE
  5
185
330
2B
100
AcDbEntity
  8
0
100
AcDbLine
 10
61.4499962581342
 20
124.3738113506287
 30
0.0
 11
61.4499962581342
 21
120.9738113506287
 31
0.0
  0
LINE
  5
186
330
2B
100
AcDbEntity
  8
0
100
AcDbLine
 10
68.49999625813416
 20
103.9738113506285
 30
0.0
 11
68.49999625813416
 21
98.9738113506287
 31
0.0
  0
LINE
  5
187
330
2B
100
AcDbEntity
  8
0
100
AcDbLine
 10
68.99999625813416
 20
96.97381135062869
 30
0.0
 11
68.99999625813416
 21
98.9738113506287
 31
0.0
  0
LINE
  5
188
330
2B
100
AcDbEntity
  8
0
100
AcDbLine
 10
69.99999625813416
 20
96.97381135062869
 30
0.0
 11
69.99999625813416
 21
98.9738113506287
 31
0.0
  0
LINE
  5
189
330
2B
100
AcDbEntity
  8
0
100
AcDbLine
 10
70.99999625813416
 20
98.9738113506287
 30
0.0
 11
67.44721807197925
 21
98.9738113506287
 31
0.0
  0
LINE
  5
18A
330
2B
100
AcDbEntity
  8
0
100
AcDbLine
 10
70.99999625813416
 20
96.97381135062869
 30
0.0
 11
67.44721807197925
 21
96.97381135062869
 31
0.0
  0
LINE
  5
18B
330
2B
100
AcDbEntity
  8
0
100
AcDbLine
 10
19.99999625813416
 20
120.9738113506287
 30
0.0
 11
71.99999625813416
 21
120.9738113506287
 31
0.0
  0
LINE
  5
18C
330
2B
100
AcDbEntity
  8
0
100
AcDbLine
 10
55.14999625813425
 20
120.9738113506287
 30
0.0
 11
55.14999625813425
 21
124.3738113506287
 31
0.0
  0
LINE
  5
18D
330
2B
100
AcDbEntity
  8
0
100
AcDbLine
 10
55.14999625813425
 20
124.3738113506287
 30
0.0
 11
61.4499962581342
 21
124.3738113506287
 31
0.0
  0
LINE
  5
18E
330
2B
100
AcDbEntity
  8
0
100
AcDbLine
 10
61.4499962581342
 20
124.3738113506287
 30
0.0
 11
61.4499962581342
 21
120.9738113506287
 31
0.0
  0
ENDBLK
  5
190
330
2B
100
AcDbEntity
  8
0
100
AcDbBlockEnd
  0
BLOCK
  5
261
330
191
100
AcDbEntity
  8
0
100
AcDbBlockBegin
  2
A$C413B70EE
 70
     0
 10
0.0
 20
0.0
 30
0.0
  3
A$C413B70EE
  1

  0
LINE
  5
192
330
191
100
AcDbEntity
  8
0
100
AcDbLine
 10
127.5999998339284
 20
200.3690727306389
 30
0.0
 11
127.5999998339284
 21
6.63093194633106
 31
0.0
  0
LINE
  5
193
330
191
100
AcDbEntity
  8
0
100
AcDbLine
 10
122.5999998339284
 20
6.500002338485045
 30
0.0
 11
122.5999998339284
 21
16.50000233848504
 31
0.0
  0
LINE
  5
194
330
191
100
AcDbEntity
  8
0
100
AcDbLine
 10
6.599999833929357
 20
16.50000233848504
 30
0.0
 11
6.599999833929357
 21
190.5000023384846
 31
0.0
  0
LINE
  5
195
330
191
100
AcDbEntity
  8
0
100
AcDbLine
 10
6.599999833929357
 20
190.5000023384846
 30
0.0
 11
122.5999998339284
 21
190.5000023384846
 31
0.0
  0
LINE
  5
196
330
191
100
AcDbEntity
  8
0
100
AcDbLine
 10
6.599999833929357
 20
16.50000233848504
 30
0.0
 11
122.5999998339284
 21
16.50000233848504
 31
0.0
  0
LINE
  5
197
330
191
100
AcDbEntity
  8
0
100
AcDbLine
 10
122.5999998339284
 20
200.5000023384849
 30
0.0
 11
127.5999998339284
 21
200.3690727306389
 31
0.0
  0
LINE
  5
198
330
191
100
AcDbEntity
  8
0
100
AcDbLine
 10
124.014039598665
 20
200.4629744041099
 30
0.0
 11
124.0140395986643
 21
6.537030272860023
 31
0.0
  0
LINE
  5
199
330
191
100
AcDbEntity
  8
0
100
AcDbLine
 10
122.5999998339284
 20
6.500002338485045
 30
0.0
 11
127.5999998339284
 21
6.63093194633106
 31
0.0
  0
LINE
  5
19A
330
191
100
AcDbEntity
  8
0
100
AcDbLine
 10
6.599999833929357
 20
16.50000233848504
 30
0.0
 11
6.599999833929357
 21
190.5000023384846
 31
0.0
  0
LINE
  5
19B
330
191
100
AcDbEntity
  8
0
100
AcDbLine
 10
6.599999833929357
 20
190.5000023384846
 30
0.0
 11
123.9878536770973
 21
190.5000023384846
 31
0.0
  0
LINE
  5
19C
330
191
100
AcDbEntity
  8
0
100
AcDbLine
 10
23.59999983392935
 20
16.50000233848504
 30
0.0
 11
23.59999983392935
 21
190.5000023384846
 31
0.0
  0
LINE
  5
19D
330
191
100
AcDbEntity
  8
0
100
AcDbLine
 10
105.5999998339291
 20
16.50000233848504
 30
0.0
 11
105.5999998339291
 21
190.5000023384846
 31
0.0
  0
LINE
  5
19E
330
191
100
AcDbEntity
  8
0
100
AcDbLine
 10
23.59999983392935
 20
189.5000023384849
 30
0.0
 11
105.5999998339291
 21
189.5000023384849
 31
0.0
  0
LINE
  5
19F
330
191
100
AcDbEntity
  8
0
100
AcDbLine
 10
28.59999983392935
 20
187.5000023384849
 30
0.0
 11
30.59999983392935
 21
187.5000023384849
 31
0.0
  0
LINE
  5
1A0
330
191
100
AcDbEntity
  8
0
100
AcDbLine
 10
28.59999983392935
 20
17.50000233848504
 30
0.0
 11
28.59999983392935
 21
70.75000233848505
 31
0.0
  0
LINE
  5
1A1
330
191
100
AcDbEntity
  8
0
100
AcDbLine
 10
30.59999983392935
 20
17.50000233848504
 30
0.0
 11
30.59999983392935
 21
70.75000233848505
 31
0.0
  0
LINE
  5
1A2
330
191
100
AcDbEntity
  8
0
100
AcDbLine
 10
28.59999983392935
 20
136.2500023384842
 30
0.0
 11
30.59999983392935
 21
136.2500023384842
 31
0.0
  0
LINE
  5
1A3
330
191
100
AcDbEntity
  8
0
100
AcDbLine
 10
28.59999983392935
 20
70.75000233848505
 30
0.0
 11
30.59999983392935
 21
70.75000233848505
 31
0.0
  0
LINE
  5
1A4
330
191
100
AcDbEntity
  8
0
100
AcDbLine
 10
23.59999983392935
 20
17.50000233848504
 30
0.0
 11
105.5999998339291
 21
17.50000233848504
 31
0.0
  0
LINE
  5
1A5
330
191
100
AcDbEntity
  8
0
100
AcDbLine
 10
28.59999983392935
 20
19.50000233848504
 30
0.0
 11
30.59999983392935
 21
19.50000233848504
 31
0.0
  0
LINE
  5
1A6
330
191
100
AcDbEntity
  8
0
100
AcDbLine
 10
28.59999983392935
 20
136.2500023384842
 30
0.0
 11
28.59999983392935
 21
189.5000023384849
 31
0.0
  0
LINE
  5
1A7
330
191
100
AcDbEntity
  8
0
100
AcDbLine
 10
30.59999983392935
 20
136.2500023384842
 30
0.0
 11
30.59999983392935
 21
189.5000023384849
 31
0.0
  0
LINE
  5
1A8
330
191
100
AcDbEntity
  8
0
100
AcDbLine
 10
35.59999983392936
 20
187.5000023384849
 30
0.0
 11
37.59999983392936
 21
187.5000023384849
 31
0.0
  0
LINE
  5
1A9
330
191
100
AcDbEntity
  8
0
100
AcDbLine
 10
35.59999983392936
 20
17.50000233848504
 30
0.0
 11
35.59999983392936
 21
70.75000233848505
 31
0.0
  0
LINE
  5
1AA
330
191
100
AcDbEntity
  8
0
100
AcDbLine
 10
37.59999983392936
 20
17.50000233848504
 30
0.0
 11
37.59999983392936
 21
70.75000233848505
 31
0.0
  0
LINE
  5
1AB
330
191
100
AcDbEntity
  8
0
100
AcDbLine
 10
35.59999983392936
 20
136.2500023384842
 30
0.0
 11
37.59999983392936
 21
136.2500023384842
 31
0.0
  0
LINE
  5
1AC
330
191
100
AcDbEntity
  8
0
100
AcDbLine
 10
35.59999983392936
 20
70.75000233848505
 30
0.0
 11
37.59999983392936
 21
70.75000233848505
 31
0.0
  0
LINE
  5
1AD
330
191
100
AcDbEntity
  8
0
100
AcDbLine
 10
35.59999983392936
 20
19.50000233848504
 30
0.0
 11
37.59999983392936
 21
19.50000233848504
 31
0.0
  0
LINE
  5
1AE
330
191
100
AcDbEntity
  8
0
100
AcDbLine
 10
35.59999983392936
 20
136.2500023384842
 30
0.0
 11
35.59999983392936
 21
189.5000023384849
 31
0.0
  0
LINE
  5
1AF
330
191
100
AcDbEntity
  8
0
100
AcDbLine
 10
37.59999983392936
 20
136.2500023384842
 30
0.0
 11
37.59999983392936
 21
189.5000023384849
 31
0.0
  0
LINE
  5
1B0
330
191
100
AcDbEntity
  8
0
100
AcDbLine
 10
42.59999983392936
 20
187.5000023384849
 30
0.0
 11
44.59999983392934
 21
187.5000023384849
 31
0.0
  0
LINE
  5
1B1
330
191
100
AcDbEntity
  8
0
100
AcDbLine
 10
42.59999983392936
 20
17.50000233848504
 30
0.0
 11
42.59999983392936
 21
70.75000233848505
 31
0.0
  0
LINE
  5
1B2
330
191
100
AcDbEntity
  8
0
100
AcDbLine
 10
44.59999983392934
 20
17.50000233848504
 30
0.0
 11
44.59999983392934
 21
70.75000233848505
 31
0.0
  0
LINE
  5
1B3
330
191
100
AcDbEntity
  8
0
100
AcDbLine
 10
42.59999983392936
 20
136.2500023384842
 30
0.0
 11
44.59999983392934
 21
136.2500023384842
 31
0.0
  0
LINE
  5
1B4
330
191
100
AcDbEntity
  8
0
100
AcDbLine
 10
42.59999983392936
 20
70.75000233848505
 30
0.0
 11
44.59999983392934
 21
70.75000233848505
 31
0.0
  0
LINE
  5
1B5
330
191
100
AcDbEntity
  8
0
100
AcDbLine
 10
42.59999983392936
 20
19.50000233848504
 30
0.0
 11
44.59999983392934
 21
19.50000233848504
 31
0.0
  0
LINE
  5
1B6
330
191
100
AcDbEntity
  8
0
100
AcDbLine
 10
42.59999983392936
 20
136.2500023384842
 30
0.0
 11
42.59999983392936
 21
189.5000023384849
 31
0.0
  0
LINE
  5
1B7
330
191
100
AcDbEntity
  8
0
100
AcDbLine
 10
44.59999983392934
 20
136.2500023384842
 30
0.0
 11
44.59999983392934
 21
189.5000023384849
 31
0.0
  0
LINE
  5
1B8
330
191
100
AcDbEntity
  8
0
100
AcDbLine
 10
49.59999983392936
 20
17.50000233848504
 30
0.0
 11
49.59999983392936
 21
70.75000233848505
 31
0.0
  0
LINE
  5
1B9
330
191
100
AcDbEntity
  8
0
100
AcDbLine
 10
51.59999983392935
 20
17.50000233848504
 30
0.0
 11
51.59999983392935
 21
70.75000233848505
 31
0.0
  0
LINE
  5
1BA
330
191
100
AcDbEntity
  8
0
100
AcDbLine
 10
49.59999983392936
 20
136.2500023384842
 30
0.0
 11
51.59999983392935
 21
136.2500023384842
 31
0.0
  0
LINE
  5
1BB
330
191
100
AcDbEntity
  8
0
100
AcDbLine
 10
49.59999983392936
 20
70.75000233848505
 30
0.0
 11
51.59999983392935
 21
70.75000233848505
 31
0.0
  0
LINE
  5
1BC
330
191
100
AcDbEntity
  8
0
100
AcDbLine
 10
49.59999983392936
 20
19.50000233848504
 30
0.0
 11
51.59999983392935
 21
19.50000233848504
 31
0.0
  0
LINE
  5
1BD
330
191
100
AcDbEntity
  8
0
100
AcDbLine
 10
49.59999983392936
 20
136.2500023384842
 30
0.0
 11
49.59999983392936
 21
189.5000023384849
 31
0.0
  0
LINE
  5
1BE
330
191
100
AcDbEntity
  8
0
100
AcDbLine
 10
51.59999983392935
 20
136.2500023384842
 30
0.0
 11
51.59999983392935
 21
189.5000023384849
 31
0.0
  0
LINE
  5
1BF
330
191
100
AcDbEntity
  8
0
100
AcDbLine
 10
56.59999983392935
 20
187.5000023384849
 30
0.0
 11
58.59999983392936
 21
187.5000023384849
 31
0.0
  0
LINE
  5
1C0
330
191
100
AcDbEntity
  8
0
100
AcDbLine
 10
56.59999983392935
 20
17.50000233848504
 30
0.0
 11
56.59999983392935
 21
70.75000233848505
 31
0.0
  0
LINE
  5
1C1
330
191
100
AcDbEntity
  8
0
100
AcDbLine
 10
58.59999983392936
 20
17.50000233848504
 30
0.0
 11
58.59999983392936
 21
70.75000233848505
 31
0.0
  0
LINE
  5
1C2
330
191
100
AcDbEntity
  8
0
100
AcDbLine
 10
56.59999983392935
 20
136.2500023384842
 30
0.0
 11
58.59999983392936
 21
136.2500023384842
 31
0.0
  0
LINE
  5
1C3
330
191
100
AcDbEntity
  8
0
100
AcDbLine
 10
56.59999983392935
 20
70.75000233848505
 30
0.0
 11
58.59999983392936
 21
70.75000233848505
 31
0.0
  0
LINE
  5
1C4
330
191
100
AcDbEntity
  8
0
100
AcDbLine
 10
56.59999983392935
 20
19.50000233848504
 30
0.0
 11
58.59999983392936
 21
19.50000233848504
 31
0.0
  0
LINE
  5
1C5
330
191
100
AcDbEntity
  8
0
100
AcDbLine
 10
56.59999983392935
 20
136.2500023384842
 30
0.0
 11
56.59999983392935
 21
189.5000023384849
 31
0.0
  0
LINE
  5
1C6
330
191
100
AcDbEntity
  8
0
100
AcDbLine
 10
58.59999983392936
 20
136.2500023384842
 30
0.0
 11
58.59999983392936
 21
189.5000023384849
 31
0.0
  0
LINE
  5
1C7
330
191
100
AcDbEntity
  8
0
100
AcDbLine
 10
63.59999983392936
 20
187.5000023384849
 30
0.0
 11
65.59999983392936
 21
187.5000023384849
 31
0.0
  0
LINE
  5
1C8
330
191
100
AcDbEntity
  8
0
100
AcDbLine
 10
63.59999983392936
 20
17.50000233848504
 30
0.0
 11
63.59999983392936
 21
70.75000233848505
 31
0.0
  0
LINE
  5
1C9
330
191
100
AcDbEntity
  8
0
100
AcDbLine
 10
65.59999983392936
 20
17.50000233848504
 30
0.0
 11
65.59999983392936
 21
70.75000233848505
 31
0.0
  0
LINE
  5
1CA
330
191
100
AcDbEntity
  8
0
100
AcDbLine
 10
63.59999983392936
 20
136.2500023384842
 30
0.0
 11
65.59999983392936
 21
136.2500023384842
 31
0.0
  0
LINE
  5
1CB
330
191
100
AcDbEntity
  8
0
100
AcDbLine
 10
63.59999983392936
 20
70.75000233848505
 30
0.0
 11
65.59999983392936
 21
70.75000233848505
 31
0.0
  0
LINE
  5
1CC
330
191
100
AcDbEntity
  8
0
100
AcDbLine
 10
63.59999983392936
 20
19.50000233848504
 30
0.0
 11
65.59999983392936
 21
19.50000233848504
 31
0.0
  0
LINE
  5
1CD
330
191
100
AcDbEntity
  8
0
100
AcDbLine
 10
63.59999983392936
 20
136.2500023384842
 30
0.0
 11
63.59999983392936
 21
189.5000023384849
 31
0.0
  0
LINE
  5
1CE
330
191
100
AcDbEntity
  8
0
100
AcDbLine
 10
65.59999983392936
 20
136.2500023384842
 30
0.0
 11
65.59999983392936
 21
189.5000023384849
 31
0.0
  0
LINE
  5
1CF
330
191
100
AcDbEntity
  8
0
100
AcDbLine
 10
70.59999983392936
 20
187.5000023384849
 30
0.0
 11
72.59999983392936
 21
187.5000023384849
 31
0.0
  0
LINE
  5
1D0
330
191
100
AcDbEntity
  8
0
100
AcDbLine
 10
70.59999983392936
 20
17.50000233848504
 30
0.0
 11
70.59999983392936
 21
70.75000233848505
 31
0.0
  0
LINE
  5
1D1
330
191
100
AcDbEntity
  8
0
100
AcDbLine
 10
72.59999983392936
 20
17.50000233848504
 30
0.0
 11
72.59999983392936
 21
70.75000233848505
 31
0.0
  0
LINE
  5
1D2
330
191
100
AcDbEntity
  8
0
100
AcDbLine
 10
70.59999983392936
 20
136.2500023384842
 30
0.0
 11
72.59999983392936
 21
136.2500023384842
 31
0.0
  0
LINE
  5
1D3
330
191
100
AcDbEntity
  8
0
100
AcDbLine
 10
70.59999983392936
 20
70.75000233848505
 30
0.0
 11
72.59999983392936
 21
70.75000233848505
 31
0.0
  0
LINE
  5
1D4
330
191
100
AcDbEntity
  8
0
100
AcDbLine
 10
70.59999983392936
 20
19.50000233848504
 30
0.0
 11
72.59999983392936
 21
19.50000233848504
 31
0.0
  0
LINE
  5
1D5
330
191
100
AcDbEntity
  8
0
100
AcDbLine
 10
70.59999983392936
 20
136.2500023384842
 30
0.0
 11
70.59999983392936
 21
189.5000023384849
 31
0.0
  0
LINE
  5
1D6
330
191
100
AcDbEntity
  8
0
100
AcDbLine
 10
72.59999983392936
 20
136.2500023384842
 30
0.0
 11
72.59999983392936
 21
189.5000023384849
 31
0.0
  0
LINE
  5
1D7
330
191
100
AcDbEntity
  8
0
100
AcDbLine
 10
77.59999983392936
 20
187.5000023384849
 30
0.0
 11
79.59999983392936
 21
187.5000023384849
 31
0.0
  0
LINE
  5
1D8
330
191
100
AcDbEntity
  8
0
100
AcDbLine
 10
77.59999983392936
 20
17.50000233848504
 30
0.0
 11
77.59999983392936
 21
70.75000233848505
 31
0.0
  0
LINE
  5
1D9
330
191
100
AcDbEntity
  8
0
100
AcDbLine
 10
79.59999983392936
 20
17.50000233848504
 30
0.0
 11
79.59999983392936
 21
70.75000233848505
 31
0.0
  0
LINE
  5
1DA
330
191
100
AcDbEntity
  8
0
100
AcDbLine
 10
77.59999983392936
 20
136.2500023384842
 30
0.0
 11
79.59999983392936
 21
136.2500023384842
 31
0.0
  0
LINE
  5
1DB
330
191
100
AcDbEntity
  8
0
100
AcDbLine
 10
77.59999983392936
 20
70.75000233848505
 30
0.0
 11
79.59999983392936
 21
70.75000233848505
 31
0.0
  0
LINE
  5
1DC
330
191
100
AcDbEntity
  8
0
100
AcDbLine
 10
77.59999983392936
 20
19.50000233848504
 30
0.0
 11
79.59999983392936
 21
19.50000233848504
 31
0.0
  0
LINE
  5
1DD
330
191
100
AcDbEntity
  8
0
100
AcDbLine
 10
77.59999983392936
 20
136.2500023384842
 30
0.0
 11
77.59999983392936
 21
189.5000023384849
 31
0.0
  0
LINE
  5
1DE
330
191
100
AcDbEntity
  8
0
100
AcDbLine
 10
79.59999983392936
 20
136.2500023384842
 30
0.0
 11
79.59999983392936
 21
189.5000023384849
 31
0.0
  0
LINE
  5
1DF
330
191
100
AcDbEntity
  8
0
100
AcDbLine
 10
84.59999983392936
 20
187.5000023384849
 30
0.0
 11
86.59999983392934
 21
187.5000023384849
 31
0.0
  0
LINE
  5
1E0
330
191
100
AcDbEntity
  8
0
100
AcDbLine
 10
84.59999983392936
 20
17.50000233848504
 30
0.0
 11
84.59999983392936
 21
70.75000233848505
 31
0.0
  0
LINE
  5
1E1
330
191
100
AcDbEntity
  8
0
100
AcDbLine
 10
86.59999983392934
 20
17.50000233848504
 30
0.0
 11
86.59999983392934
 21
70.75000233848505
 31
0.0
  0
LINE
  5
1E2
330
191
100
AcDbEntity
  8
0
100
AcDbLine
 10
84.59999983392936
 20
136.2500023384842
 30
0.0
 11
86.59999983392934
 21
136.2500023384842
 31
0.0
  0
LINE
  5
1E3
330
191
100
AcDbEntity
  8
0
100
AcDbLine
 10
84.59999983392936
 20
70.75000233848505
 30
0.0
 11
86.59999983392934
 21
70.75000233848505
 31
0.0
  0
LINE
  5
1E4
330
191
100
AcDbEntity
  8
0
100
AcDbLine
 10
84.59999983392936
 20
19.50000233848504
 30
0.0
 11
86.59999983392934
 21
19.50000233848504
 31
0.0
  0
LINE
  5
1E5
330
191
100
AcDbEntity
  8
0
100
AcDbLine
 10
84.59999983392936
 20
136.2500023384842
 30
0.0
 11
84.59999983392936
 21
189.5000023384849
 31
0.0
  0
LINE
  5
1E6
330
191
100
AcDbEntity
  8
0
100
AcDbLine
 10
86.59999983392934
 20
136.2500023384842
 30
0.0
 11
86.59999983392934
 21
189.5000023384849
 31
0.0
  0
LINE
  5
1E7
330
191
100
AcDbEntity
  8
0
100
AcDbLine
 10
91.59999983392937
 20
187.5000023384849
 30
0.0
 11
93.59999983392937
 21
187.5000023384849
 31
0.0
  0
LINE
  5
1E8
330
191
100
AcDbEntity
  8
0
100
AcDbLine
 10
91.59999983392937
 20
17.50000233848504
 30
0.0
 11
91.59999983392937
 21
70.75000233848505
 31
0.0
  0
LINE
  5
1E9
330
191
100
AcDbEntity
  8
0
100
AcDbLine
 10
93.59999983392937
 20
17.50000233848504
 30
0.0
 11
93.59999983392937
 21
70.75000233848505
 31
0.0
  0
LINE
  5
1EA
330
191
100
AcDbEntity
  8
0
100
AcDbLine
 10
91.59999983392937
 20
136.2500023384842
 30
0.0
 11
93.59999983392937
 21
136.2500023384842
 31
0.0
  0
LINE
  5
1EB
330
191
100
AcDbEntity
  8
0
100
AcDbLine
 10
91.59999983392937
 20
70.75000233848505
 30
0.0
 11
93.59999983392937
 21
70.75000233848505
 31
0.0
  0
LINE
  5
1EC
330
191
100
AcDbEntity
  8
0
100
AcDbLine
 10
91.59999983392937
 20
19.50000233848504
 30
0.0
 11
93.59999983392937
 21
19.50000233848504
 31
0.0
  0
LINE
  5
1ED
330
191
100
AcDbEntity
  8
0
100
AcDbLine
 10
91.59999983392937
 20
136.2500023384842
 30
0.0
 11
91.59999983392937
 21
189.5000023384849
 31
0.0
  0
LINE
  5
1EE
330
191
100
AcDbEntity
  8
0
100
AcDbLine
 10
93.59999983392937
 20
136.2500023384842
 30
0.0
 11
93.59999983392937
 21
189.5000023384849
 31
0.0
  0
LINE
  5
1EF
330
191
100
AcDbEntity
  8
0
100
AcDbLine
 10
98.59999983392938
 20
187.5000023384849
 30
0.0
 11
100.5999998339291
 21
187.5000023384849
 31
0.0
  0
LINE
  5
1F0
330
191
100
AcDbEntity
  8
0
100
AcDbLine
 10
98.59999983392938
 20
17.50000233848504
 30
0.0
 11
98.59999983392938
 21
70.75000233848505
 31
0.0
  0
LINE
  5
1F1
330
191
100
AcDbEntity
  8
0
100
AcDbLine
 10
100.5999998339291
 20
17.50000233848504
 30
0.0
 11
100.5999998339291
 21
70.75000233848505
 31
0.0
  0
LINE
  5
1F2
330
191
100
AcDbEntity
  8
0
100
AcDbLine
 10
98.59999983392938
 20
136.2500023384842
 30
0.0
 11
100.5999998339291
 21
136.2500023384842
 31
0.0
  0
LINE
  5
1F3
330
191
100
AcDbEntity
  8
0
100
AcDbLine
 10
98.59999983392938
 20
70.75000233848505
 30
0.0
 11
100.5999998339291
 21
70.75000233848505
 31
0.0
  0
LINE
  5
1F4
330
191
100
AcDbEntity
  8
0
100
AcDbLine
 10
98.59999983392938
 20
19.50000233848504
 30
0.0
 11
100.5999998339291
 21
19.50000233848504
 31
0.0
  0
LINE
  5
1F5
330
191
100
AcDbEntity
  8
0
100
AcDbLine
 10
98.59999983392938
 20
136.2500023384842
 30
0.0
 11
98.59999983392938
 21
189.5000023384849
 31
0.0
  0
LINE
  5
1F6
330
191
100
AcDbEntity
  8
0
100
AcDbLine
 10
100.5999998339291
 20
136.2500023384842
 30
0.0
 11
100.5999998339291
 21
189.5000023384849
 31
0.0
  0
LINE
  5
1F7
330
191
100
AcDbEntity
  8
0
100
AcDbLine
 10
28.59999983392935
 20
165.0000023384849
 30
0.0
 11
30.59999983392935
 21
165.0000023384849
 31
0.0
  0
LINE
  5
1F8
330
191
100
AcDbEntity
  8
0
100
AcDbLine
 10
28.59999983392935
 20
162.0000023384849
 30
0.0
 11
30.59999983392935
 21
162.0000023384849
 31
0.0
  0
LINE
  5
1F9
330
191
100
AcDbEntity
  8
0
100
AcDbLine
 10
28.59999983392935
 20
45.00000233848505
 30
0.0
 11
30.59999983392935
 21
45.00000233848505
 31
0.0
  0
LINE
  5
1FA
330
191
100
AcDbEntity
  8
0
100
AcDbLine
 10
28.59999983392935
 20
42.00000233848505
 30
0.0
 11
30.59999983392935
 21
42.00000233848505
 31
0.0
  0
LINE
  5
1FB
330
191
100
AcDbEntity
  8
0
100
AcDbLine
 10
35.59999983392936
 20
165.0000023384849
 30
0.0
 11
37.59999983392936
 21
165.0000023384849
 31
0.0
  0
LINE
  5
1FC
330
191
100
AcDbEntity
  8
0
100
AcDbLine
 10
35.59999983392936
 20
162.0000023384849
 30
0.0
 11
37.59999983392936
 21
162.0000023384849
 31
0.0
  0
LINE
  5
1FD
330
191
100
AcDbEntity
  8
0
100
AcDbLine
 10
35.59999983392936
 20
45.00000233848505
 30
0.0
 11
37.59999983392936
 21
45.00000233848505
 31
0.0
  0
LINE
  5
1FE
330
191
100
AcDbEntity
  8
0
100
AcDbLine
 10
35.59999983392936
 20
42.00000233848505
 30
0.0
 11
37.59999983392936
 21
42.00000233848505
 31
0.0
  0
LINE
  5
1FF
330
191
100
AcDbEntity
  8
0
100
AcDbLine
 10
42.59999983392936
 20
165.0000023384849
 30
0.0
 11
44.59999983392934
 21
165.0000023384849
 31
0.0
  0
LINE
  5
200
330
191
100
AcDbEntity
  8
0
100
AcDbLine
 10
42.59999983392936
 20
162.0000023384849
 30
0.0
 11
44.59999983392934
 21
162.0000023384849
 31
0.0
  0
LINE
  5
201
330
191
100
AcDbEntity
  8
0
100
AcDbLine
 10
42.59999983392936
 20
45.00000233848505
 30
0.0
 11
44.59999983392934
 21
45.00000233848505
 31
0.0
  0
LINE
  5
202
330
191
100
AcDbEntity
  8
0
100
AcDbLine
 10
42.59999983392936
 20
42.00000233848505
 30
0.0
 11
44.59999983392934
 21
42.00000233848505
 31
0.0
  0
LINE
  5
203
330
191
100
AcDbEntity
  8
0
100
AcDbLine
 10
49.59999983392936
 20
165.0000023384849
 30
0.0
 11
51.59999983392935
 21
165.0000023384849
 31
0.0
  0
LINE
  5
204
330
191
100
AcDbEntity
  8
0
100
AcDbLine
 10
49.59999983392936
 20
162.0000023384849
 30
0.0
 11
51.59999983392935
 21
162.0000023384849
 31
0.0
  0
LINE
  5
205
330
191
100
AcDbEntity
  8
0
100
AcDbLine
 10
49.59999983392936
 20
45.00000233848505
 30
0.0
 11
51.59999983392935
 21
45.00000233848505
 31
0.0
  0
LINE
  5
206
330
191
100
AcDbEntity
  8
0
100
AcDbLine
 10
49.59999983392936
 20
42.00000233848505
 30
0.0
 11
51.59999983392935
 21
42.00000233848505
 31
0.0
  0
LINE
  5
207
330
191
100
AcDbEntity
  8
0
100
AcDbLine
 10
56.59999983392935
 20
165.0000023384849
 30
0.0
 11
58.59999983392936
 21
165.0000023384849
 31
0.0
  0
LINE
  5
208
330
191
100
AcDbEntity
  8
0
100
AcDbLine
 10
56.59999983392935
 20
162.0000023384849
 30
0.0
 11
58.59999983392936
 21
162.0000023384849
 31
0.0
  0
LINE
  5
209
330
191
100
AcDbEntity
  8
0
100
AcDbLine
 10
56.59999983392935
 20
45.00000233848505
 30
0.0
 11
58.59999983392936
 21
45.00000233848505
 31
0.0
  0
LINE
  5
20A
330
191
100
AcDbEntity
  8
0
100
AcDbLine
 10
56.59999983392935
 20
42.00000233848505
 30
0.0
 11
58.59999983392936
 21
42.00000233848505
 31
0.0
  0
LINE
  5
20B
330
191
100
AcDbEntity
  8
0
100
AcDbLine
 10
63.59999983392936
 20
165.0000023384849
 30
0.0
 11
65.59999983392936
 21
165.0000023384849
 31
0.0
  0
LINE
  5
20C
330
191
100
AcDbEntity
  8
0
100
AcDbLine
 10
63.59999983392936
 20
162.0000023384849
 30
0.0
 11
65.59999983392936
 21
162.0000023384849
 31
0.0
  0
LINE
  5
20D
330
191
100
AcDbEntity
  8
0
100
AcDbLine
 10
63.59999983392936
 20
45.00000233848505
 30
0.0
 11
65.59999983392936
 21
45.00000233848505
 31
0.0
  0
LINE
  5
20E
330
191
100
AcDbEntity
  8
0
100
AcDbLine
 10
63.59999983392936
 20
42.00000233848505
 30
0.0
 11
65.59999983392936
 21
42.00000233848505
 31
0.0
  0
LINE
  5
20F
330
191
100
AcDbEntity
  8
0
100
AcDbLine
 10
70.59999983392936
 20
165.0000023384849
 30
0.0
 11
72.59999983392936
 21
165.0000023384849
 31
0.0
  0
LINE
  5
210
330
191
100
AcDbEntity
  8
0
100
AcDbLine
 10
70.59999983392936
 20
162.0000023384849
 30
0.0
 11
72.59999983392936
 21
162.0000023384849
 31
0.0
  0
LINE
  5
211
330
191
100
AcDbEntity
  8
0
100
AcDbLine
 10
70.59999983392936
 20
45.00000233848505
 30
0.0
 11
72.59999983392936
 21
45.00000233848505
 31
0.0
  0
LINE
  5
212
330
191
100
AcDbEntity
  8
0
100
AcDbLine
 10
70.59999983392936
 20
42.00000233848505
 30
0.0
 11
72.59999983392936
 21
42.00000233848505
 31
0.0
  0
LINE
  5
213
330
191
100
AcDbEntity
  8
0
100
AcDbLine
 10
77.59999983392936
 20
165.0000023384849
 30
0.0
 11
79.59999983392936
 21
165.0000023384849
 31
0.0
  0
LINE
  5
214
330
191
100
AcDbEntity
  8
0
100
AcDbLine
 10
77.59999983392936
 20
162.0000023384849
 30
0.0
 11
79.59999983392936
 21
162.0000023384849
 31
0.0
  0
LINE
  5
215
330
191
100
AcDbEntity
  8
0
100
AcDbLine
 10
77.59999983392936
 20
45.00000233848505
 30
0.0
 11
79.59999983392936
 21
45.00000233848505
 31
0.0
  0
LINE
  5
216
330
191
100
AcDbEntity
  8
0
100
AcDbLine
 10
77.59999983392936
 20
42.00000233848505
 30
0.0
 11
79.59999983392936
 21
42.00000233848505
 31
0.0
  0
LINE
  5
217
330
191
100
AcDbEntity
  8
0
100
AcDbLine
 10
84.59999983392936
 20
165.0000023384849
 30
0.0
 11
86.59999983392934
 21
165.0000023384849
 31
0.0
  0
LINE
  5
218
330
191
100
AcDbEntity
  8
0
100
AcDbLine
 10
84.59999983392936
 20
162.0000023384849
 30
0.0
 11
86.59999983392934
 21
162.0000023384849
 31
0.0
  0
LINE
  5
219
330
191
100
AcDbEntity
  8
0
100
AcDbLine
 10
84.59999983392936
 20
45.00000233848505
 30
0.0
 11
86.59999983392934
 21
45.00000233848505
 31
0.0
  0
LINE
  5
21A
330
191
100
AcDbEntity
  8
0
100
AcDbLine
 10
84.59999983392936
 20
42.00000233848505
 30
0.0
 11
86.59999983392934
 21
42.00000233848505
 31
0.0
  0
LINE
  5
21B
330
191
100
AcDbEntity
  8
0
100
AcDbLine
 10
91.59999983392937
 20
165.0000023384849
 30
0.0
 11
93.59999983392937
 21
165.0000023384849
 31
0.0
  0
LINE
  5
21C
330
191
100
AcDbEntity
  8
0
100
AcDbLine
 10
91.59999983392937
 20
162.0000023384849
 30
0.0
 11
93.59999983392937
 21
162.0000023384849
 31
0.0
  0
LINE
  5
21D
330
191
100
AcDbEntity
  8
0
100
AcDbLine
 10
91.59999983392937
 20
45.00000233848505
 30
0.0
 11
93.59999983392937
 21
45.00000233848505
 31
0.0
  0
LINE
  5
21E
330
191
100
AcDbEntity
  8
0
100
AcDbLine
 10
91.59999983392937
 20
42.00000233848505
 30
0.0
 11
93.59999983392937
 21
42.00000233848505
 31
0.0
  0
LINE
  5
21F
330
191
100
AcDbEntity
  8
0
100
AcDbLine
 10
98.59999983392938
 20
165.0000023384849
 30
0.0
 11
100.5999998339291
 21
165.0000023384849
 31
0.0
  0
LINE
  5
220
330
191
100
AcDbEntity
  8
0
100
AcDbLine
 10
98.59999983392938
 20
162.0000023384849
 30
0.0
 11
100.5999998339291
 21
162.0000023384849
 31
0.0
  0
LINE
  5
221
330
191
100
AcDbEntity
  8
0
100
AcDbLine
 10
98.59999983392938
 20
45.00000233848505
 30
0.0
 11
100.5999998339291
 21
45.00000233848505
 31
0.0
  0
LINE
  5
222
330
191
100
AcDbEntity
  8
0
100
AcDbLine
 10
98.59999983392938
 20
42.00000233848505
 30
0.0
 11
100.5999998339291
 21
42.00000233848505
 31
0.0
  0
LINE
  5
223
330
191
100
AcDbEntity
  8
0
100
AcDbLine
 10
78.59999983392936
 20
17.50000233848504
 30
0.0
 11
78.59999983392835
 21
17.00000233848504
 31
0.0
  0
LINE
  5
224
330
191
100
AcDbEntity
  8
0
100
AcDbLine
 10
23.59999983392935
 20
17.00000233848504
 30
0.0
 11
78.59999983392936
 21
17.00000233848504
 31
0.0
  0
LINE
  5
225
330
191
100
AcDbEntity
  8
0
100
AcDbLine
 10
123.9878536770963
 20
16.50000233848504
 30
0.0
 11
123.9878536770973
 21
190.5000023384846
 31
0.0
  0
LINE
  5
226
330
191
100
AcDbEntity
  8
0
100
AcDbLine
 10
3.199999833929495
 20
57.20000307217538
 30
0.0
 11
3.199999833929495
 21
37.00000307217532
 31
0.0
  0
LINE
  5
227
330
191
100
AcDbEntity
  8
0
100
AcDbLine
 10
4.099999833929357
 20
33.50000307217532
 30
0.0
 11
3.599999833929357
 21
34.00000307217532
 31
0.0
  0
LINE
  5
228
330
191
100
AcDbEntity
  8
0
100
AcDbLine
 10
3.599999833929472
 20
34.90000307217542
 30
0.0
 11
3.599999833929357
 21
34.00000307217532
 31
0.0
  0
LINE
  5
229
330
191
100
AcDbEntity
  8
0
100
AcDbLine
 10
4.899999833929538
 20
33.50000307217532
 30
0.0
 11
4.099999833929357
 21
33.50000307217532
 31
0.0
  0
ARC
  5
22A
330
191
100
AcDbEntity
  8
0
100
AcDbCircle
 10
4.599999833929471
 20
34.90000307217531
 30
0.0
 40
1.0
100
AcDbArc
 50
90.0
 51
180.0
  0
LINE
  5
22B
330
191
100
AcDbEntity
  8
0
100
AcDbLine
 10
6.599999833929357
 20
35.90000307217538
 30
0.0
 11
4.599999833929471
 21
35.90000307217531
 31
0.0
  0
LINE
  5
22C
330
191
100
AcDbEntity
  8
0
100
AcDbLine
 10
6.599999833929357
 20
34.70000307217537
 30
0.0
 11
4.899999833929655
 21
34.70000307217537
 31
0.0
  0
LINE
  5
22D
330
191
100
AcDbEntity
  8
0
100
AcDbLine
 10
6.599999833929357
 20
37.00000307217528
 30
0.0
 11
3.199999833929495
 21
37.00000307217532
 31
0.0
  0
LINE
  5
22E
330
191
100
AcDbEntity
  8
0
100
AcDbLine
 10
4.899999833929538
 20
33.50000307217532
 30
0.0
 11
4.899999833929538
 21
34.70000307217537
 31
0.0
  0
LINE
  5
22F
330
191
100
AcDbEntity
  8
0
100
AcDbLine
 10
4.099999833929587
 20
60.70000307217537
 30
0.0
 11
3.599999833929587
 21
60.20000307217538
 31
0.0
  0
LINE
  5
230
330
191
100
AcDbEntity
  8
0
100
AcDbLine
 10
3.599999833929587
 20
60.20000307217538
 30
0.0
 11
3.599999833929587
 21
59.30000307217529
 31
0.0
  0
LINE
  5
231
330
191
100
AcDbEntity
  8
0
100
AcDbLine
 10
4.899999833929538
 20
60.70000307217537
 30
0.0
 11
4.099999833929587
 21
60.70000307217537
 31
0.0
  0
ARC
  5
232
330
191
100
AcDbEntity
  8
0
100
AcDbCircle
 10
4.599999833929587
 20
59.3000030721754
 30
0.0
 40
1.0
100
AcDbArc
 50
180.0
 51
270.0
  0
LINE
  5
233
330
191
100
AcDbEntity
  8
0
100
AcDbLine
 10
6.599999833929357
 20
58.3000030721754
 30
0.0
 11
4.599999833929587
 21
58.3000030721754
 31
0.0
  0
LINE
  5
234
330
191
100
AcDbEntity
  8
0
100
AcDbLine
 10
3.199999833929495
 20
57.20000307217538
 30
0.0
 11
6.599999833929357
 21
57.20000307217538
 31
0.0
  0
LINE
  5
235
330
191
100
AcDbEntity
  8
0
100
AcDbLine
 10
6.599999833929357
 20
59.50000307217544
 30
0.0
 11
4.899999833929427
 21
59.50000307217544
 31
0.0
  0
LINE
  5
236
330
191
100
AcDbEntity
  8
0
100
AcDbLine
 10
4.899999833929538
 20
59.50000307217533
 30
0.0
 11
4.899999833929538
 21
60.70000307217537
 31
0.0
  0
LINE
  5
237
330
191
100
AcDbEntity
  8
0
100
AcDbLine
 10
6.599999833929357
 20
21.50000307217532
 30
0.0
 11
4.099999833929246
 21
21.50000307217532
 31
0.0
  0
LINE
  5
238
330
191
100
AcDbEntity
  8
0
100
AcDbLine
 10
4.099999833929246
 20
21.50000307217532
 30
0.0
 11
4.099999833929246
 21
27.00000307217532
 31
0.0
  0
LINE
  5
239
330
191
100
AcDbEntity
  8
0
100
AcDbLine
 10
4.099999833929246
 20
27.00000307217532
 30
0.0
 11
6.599999833929357
 21
27.00000307217532
 31
0.0
  0
LINE
  5
23A
330
191
100
AcDbEntity
  8
0
100
AcDbLine
 10
6.599999833929357
 20
62.14000233848515
 30
0.0
 11
5.599999833929358
 21
62.14000233848515
 31
0.0
  0
LINE
  5
23B
330
191
100
AcDbEntity
  8
0
100
AcDbLine
 10
5.599999833929358
 20
62.14000233848515
 30
0.0
 11
5.599999833929358
 21
59.50000307217544
 31
0.0
  0
LINE
  5
23C
330
191
100
AcDbEntity
  8
0
100
AcDbLine
 10
-0.000000166070663
 20
112.5000023384849
 30
0.0
 11
6.599999833929357
 21
112.5000023384849
 31
0.0
  0
LINE
  5
23D
330
191
100
AcDbEntity
  8
0
100
AcDbLine
 10
6.599999833929357
 20
136.6600023384848
 30
0.0
 11
-0.000000166070663
 21
136.6600023384848
 31
0.0
  0
LINE
  5
23E
330
191
100
AcDbEntity
  8
0
100
AcDbLine
 10
-0.000000166070663
 20
136.6600023384848
 30
0.0
 11
-0.000000166070663
 21
112.5000023384849
 31
0.0
  0
LINE
  5
23F
330
191
100
AcDbEntity
  8
0
100
AcDbLine
 10
1.299999833929404
 20
71.34000233848508
 30
0.0
 11
1.299999833929404
 21
99.80000233848514
 31
0.0
  0
LINE
  5
240
330
191
100
AcDbEntity
  8
0
100
AcDbLine
 10
1.299999833929404
 20
75.45000233848509
 30
0.0
 11
5.599999833929246
 21
75.45000233848509
 31
0.0
  0
LINE
  5
241
330
191
100
AcDbEntity
  8
0
100
AcDbLine
 10
5.599999833929358
 20
71.34000233848508
 30
0.0
 11
1.299999833929404
 21
71.34000233848508
 31
0.0
  0
LINE
  5
242
330
191
100
AcDbEntity
  8
0
100
AcDbLine
 10
1.299999833929404
 20
95.69000233848512
 30
0.0
 11
6.599999833929357
 21
95.69000233848512
 31
0.0
  0
LINE
  5
243
330
191
100
AcDbEntity
  8
0
100
AcDbLine
 10
1.299999833929404
 20
90.69000233848512
 30
0.0
 11
6.599999833929357
 21
90.69000233848512
 31
0.0
  0
LINE
  5
244
330
191
100
AcDbEntity
  8
0
100
AcDbLine
 10
1.299999833929404
 20
83.0700023384851
 30
0.0
 11
6.599999833929357
 21
83.0700023384851
 31
0.0
  0
LINE
  5
245
330
191
100
AcDbEntity
  8
0
100
AcDbLine
 10
1.299999833929404
 20
88.07000233848507
 30
0.0
 11
6.599999833929357
 21
88.07000233848507
 31
0.0
  0
LINE
  5
246
330
191
100
AcDbEntity
  8
0
100
AcDbLine
 10
1.299999833929404
 20
80.4500023384851
 30
0.0
 11
5.799999833929632
 21
80.4500023384851
 31
0.0
  0
LINE
  5
247
330
191
100
AcDbEntity
  8
0
100
AcDbLine
 10
5.799999833929632
 20
99.80000233848514
 30
0.0
 11
1.299999833929404
 21
99.80000233848514
 31
0.0
  0
LINE
  5
248
330
191
100
AcDbEntity
  8
0
100
AcDbLine
 10
49.59999983392936
 20
187.5000023384849
 30
0.0
 11
51.59999983392935
 21
187.5000023384849
 31
0.0
  0
LINE
  5
249
330
191
100
AcDbEntity
  8
0
100
AcDbLine
 10
122.5999998339284
 20
190.5000023384846
 30
0.0
 11
122.5999998339284
 21
200.5000023384849
 31
0.0
  0
LINE
  5
24A
330
191
100
AcDbEntity
  8
0
100
AcDbLine
 10
6.599999833929357
 20
16.50000233848504
 30
0.0
 11
123.9878536770973
 21
16.50000233848504
 31
0.0
  0
LINE
  5
24B
330
191
100
AcDbEntity
  8
0
100
AcDbLine
 10
25.59999983392935
 20
0.0000023384850465
 30
0.0
 11
25.59999983392935
 21
8.500002338485044
 31
0.0
  0
LINE
  5
24C
330
191
100
AcDbEntity
  8
0
100
AcDbLine
 10
77.59999983392835
 20
0.0000023384850465
 30
0.0
 11
77.59999983392835
 21
16.50000233848504
 31
0.0
  0
LINE
  5
24D
330
191
100
AcDbEntity
  8
0
100
AcDbLine
 10
25.59999983392935
 20
0.0000023384850465
 30
0.0
 11
77.59999983392835
 21
0.0000023384850465
 31
0.0
  0
LINE
  5
24E
330
191
100
AcDbEntity
  8
0
100
AcDbLine
 10
35.59999983392936
 20
0.0000023384850465
 30
0.0
 11
35.59999983392936
 21
16.50000233848504
 31
0.0
  0
LINE
  5
24F
330
191
100
AcDbEntity
  8
0
100
AcDbLine
 10
25.59999983392935
 20
8.500002338485044
 30
0.0
 11
35.59999983392936
 21
8.500002338485044
 31
0.0
  0
LINE
  5
250
330
191
100
AcDbEntity
  8
0
100
AcDbLine
 10
37.59999983392936
 20
9.500002338485046
 30
0.0
 11
37.59999983392936
 21
0.0000023384850465
 31
0.0
  0
LINE
  5
251
330
191
100
AcDbEntity
  8
0
100
AcDbLine
 10
75.59999983392835
 20
9.500002338485046
 30
0.0
 11
75.59999983392835
 21
0.0000023384850465
 31
0.0
  0
LINE
  5
252
330
191
100
AcDbEntity
  8
0
100
AcDbLine
 10
5.599999833929358
 20
58.3000030721754
 30
0.0
 11
5.599999833929358
 21
57.20000307217538
 31
0.0
  0
LINE
  5
253
330
191
100
AcDbEntity
  8
0
100
AcDbLine
 10
5.599999833929358
 20
37.00000307217532
 30
0.0
 11
5.599999833929358
 21
35.90000307217532
 31
0.0
  0
LINE
  5
254
330
191
100
AcDbEntity
  8
0
100
AcDbLine
 10
5.599999833929358
 20
34.70000307217537
 30
0.0
 11
5.599999833929358
 21
27.00000307217532
 31
0.0
  0
LINE
  5
255
330
191
100
AcDbEntity
  8
0
100
AcDbLine
 10
6.599999833929357
 20
157.9400023384851
 30
0.0
 11
5.595637893078333
 21
157.9400023384851
 31
0.0
  0
LINE
  5
256
330
191
100
AcDbEntity
  8
0
100
AcDbLine
 10
6.599999833929357
 20
68.70000307217536
 30
0.0
 11
5.599999833929358
 21
68.70000307217536
 31
0.0
  0
LINE
  5
257
330
191
100
AcDbEntity
  8
0
100
AcDbLine
 10
5.599999833929358
 20
68.70000307217536
 30
0.0
 11
5.599999833929246
 21
77.10000307217547
 31
0.0
  0
LINE
  5
258
330
191
100
AcDbEntity
  8
0
100
AcDbLine
 10
5.599999833929246
 20
77.10000307217547
 30
0.0
 11
6.599999833929357
 21
77.10000307217547
 31
0.0
  0
LINE
  5
259
330
191
100
AcDbEntity
  8
0
100
AcDbLine
 10
6.599999833929357
 20
78.60000307217545
 30
0.0
 11
5.799999833929632
 21
78.60000307217545
 31
0.0
  0
LINE
  5
25A
330
191
100
AcDbEntity
  8
0
100
AcDbLine
 10
5.799999833929632
 20
78.60000307217545
 30
0.0
 11
5.799999833929632
 21
81.60000307217547
 31
0.0
  0
LINE
  5
25B
330
191
100
AcDbEntity
  8
0
100
AcDbLine
 10
5.799999833929632
 20
81.60000307217547
 30
0.0
 11
6.599999833929357
 21
81.60000307217547
 31
0.0
  0
LINE
  5
25C
330
191
100
AcDbEntity
  8
0
100
AcDbLine
 10
6.599999833929357
 20
98.60000307217545
 30
0.0
 11
5.799999833929632
 21
98.60000307217545
 31
0.0
  0
LINE
  5
25D
330
191
100
AcDbEntity
  8
0
100
AcDbLine
 10
5.799999833929632
 20
98.60000307217545
 30
0.0
 11
5.799999833929632
 21
101.6000030721754
 31
0.0
  0
LINE
  5
25E
330
191
100
AcDbEntity
  8
0
100
AcDbLine
 10
5.799999833929632
 20
101.6000030721754
 30
0.0
 11
6.599999833929357
 21
101.6000030721754
 31
0.0
  0
LINE
  5
25F
330
191
100
AcDbEntity
  8
0
  6
Continuous
100
AcDbLine
 10
5.595637893078333
 20
157.9400023384851
 30
0.0
 11
5.595637893078333
 21
142.5400023384848
 31
0.0
  0
LINE
  5
260
330
191
100
AcDbEntity
  8
0
  6
Continuous
100
AcDbLine
 10
5.595637893078333
 20
142.5400023384848
 30
0.0
 11
6.599999833929357
 21
142.5400023384848
 31
0.0
  0
ENDBLK
  5
262
330
191
100
AcDbEntity
  8
0
100
AcDbBlockEnd
  0
BLOCK
  5
268
330
263
100
AcDbEntity
  8
0
 48
5.0
100
AcDbBlockBegin
  2
A$C5CFD6E8C
 70
     0
 10
0.0
 20
0.0
 30
0.0
  3
A$C5CFD6E8C
  1

  0
LINE
  5
264
330
263
100
AcDbEntity
  8
0
 62
     0
100
AcDbLine
 10
1.599997211020308
 20
2.70000247964549
 30
0.0
 11
1.599997211020308
 21
0.0000024796447633
 31
0.0
  0
LINE
  5
265
330
263
100
AcDbEntity
  8
0
 62
     0
100
AcDbLine
 10
-0.0000027889800549
 20
0.0000024796447633
 30
0.0
 11
-0.0000027889800549
 21
2.70000247964549
 31
0.0
  0
LINE
  5
266
330
263
100
AcDbEntity
  8
0
  6
CENTER
 62
     0
100
AcDbLine
 10
1.599997211020308
 20
2.70000247964549
 30
0.0
 11
-0.0000027889800549
 21
2.70000247964549
 31
0.0
  0
LINE
  5
267
330
263
100
AcDbEntity
  8
0
  6
CENTER
 62
     0
100
AcDbLine
 10
1.599997211020308
 20
0.0000024796447633
 30
0.0
 11
-0.0000027889800549
 21
0.0000024796447633
 31
0.0
  0
ENDBLK
  5
269
330
263
100
AcDbEntity
  8
0
 48
5.0
100
AcDbBlockEnd
  0
BLOCK
  5
978
330
84C
100
AcDbEntity
  8
0
100
AcDbBlockBegin
  2
A$C57E26210
 70
     0
 10
0.0
 20
0.0
 30
0.0
  3
A$C57E26210
  1

  0
LWPOLYLINE
  5
84D
330
84C
100
AcDbEntity
  8
0
  6
Continuous
 62
     7
100
AcDbPolyline
 90
        6
 70
   128
 43
0.0
 10
14.01098777450738
 20
13.70000042456694
 10
14.01101385153947
 20
13.73618789452621
 10
14.01103899724899
 20
13.84311397064038
 10
14.01106181465206
 20
14.01594182911821
 10
14.01108113959549
 20
14.24685348260709
 10
14.01109627358732
 20
14.52540368277141
  0
LINE
  5
84E
330
84C
100
AcDbEntity
  8
0
  6
Continuous
 62
     7
100
AcDbLine
 10
12.60161499403533
 20
16.4000004946024
 30
0.0
 11
12.60161499403533
 21
11.05000050242551
 31
0.0
  0
LINE
  5
84F
330
84C
100
AcDbEntity
  8
0
  6
Continuous
 62
     7
100
AcDbLine
 10
9.84153018243728
 20
15.02000023114987
 30
0.0
 11
9.84153018243728
 21
12.82000047590144
 31
0.0
  0
LINE
  5
850
330
84C
100
AcDbEntity
  8
0
  6
Continuous
 62
     7
100
AcDbLine
 10
9.84094903715072
 20
12.82000047590144
 30
0.0
 11
9.84094903715072
 21
15.02000023114987
 31
0.0
  0
LINE
  5
851
330
84C
100
AcDbEntity
  8
0
  6
Continuous
 62
     7
100
AcDbLine
 10
8.440949087069611
 20
12.82000047590144
 30
0.0
 11
8.440949087069611
 21
15.02000023114987
 31
0.0
  0
LINE
  5
852
330
84C
100
AcDbEntity
  8
0
  6
Continuous
 62
     7
100
AcDbLine
 10
10.10161504991468
 20
11.5314819334776
 30
0.0
 11
10.10161504991468
 21
15.10000037464806
 31
0.0
  0
LWPOLYLINE
  5
853
330
84C
100
AcDbEntity
  8
0
  6
Continuous
 62
     7
100
AcDbPolyline
 90
        9
 70
   128
 43
0.0
 10
5.2715680273634
 20
15.04331449482151
 10
5.271541950331311
 20
14.85185645956107
 10
5.271514010654072
 20
14.69383197340675
 10
5.27148607097683
 20
14.57070600676843
 10
5.271456268654445
 20
14.48361896413871
 10
5.271426466332058
 20
14.43337783652848
 10
5.271395732687096
 20
14.4204487508864
 10
5.271365930364709
 20
14.44495091650196
 10
5.271336128042321
 20
14.50665755632826
  0
LINE
  5
854
330
84C
100
AcDbEntity
  8
0
  6
Continuous
 62
     7
100
AcDbLine
 10
7.501344260798077
 20
14.397877216968
 30
0.0
 11
7.501602237151246
 21
15.0676578699381
 31
0.0
  0
LWPOLYLINE
  5
855
330
84C
100
AcDbEntity
  8
0
  6
Continuous
 62
     7
100
AcDbPolyline
 90
        7
 70
   128
 43
0.0
 10
7.241400954352003
 20
14.42000031906673
 10
7.241426100061516
 20
14.43337783652848
 10
7.241455902383902
 20
14.48361896413871
 10
7.241485704706293
 20
14.57070600676843
 10
7.241514575706105
 20
14.69383197340675
 10
7.241541584060769
 20
14.85185645956107
 10
7.241555553899386
 20
14.94534448224612
  0
LINE
  5
856
330
84C
100
AcDbEntity
  8
0
100
AcDbLine
 10
0.000000310167934
 20
18.10000062051676
 30
0.0
 11
0.0000003101688435
 21
0.0000001943440111
 31
0.0
  0
LINE
  5
857
330
84C
100
AcDbEntity
  8
0
100
AcDbLine
 10
14.30159928746593
 20
18.10000062051721
 30
0.0
 11
14.30159928746673
 21
0.0000001943440111
 31
0.0
  0
LINE
  5
858
330
84C
100
AcDbEntity
  8
0
  6
Continuous
 62
     7
100
AcDbLine
 10
3.001614538059806
 20
15.10000037464806
 30
0.0
 11
3.001614538059806
 21
3.000000440213169
 31
0.0
  0
LINE
  5
859
330
84C
100
AcDbEntity
  8
0
  6
Continuous
 62
     7
100
AcDbLine
 10
1.701614883766751
 20
1.700000320258823
 30
0.0
 11
1.701614883766751
 21
16.4000004946024
 31
0.0
  0
LINE
  5
85A
330
84C
100
AcDbEntity
  8
0
  6
Continuous
 62
     7
100
AcDbLine
 10
1.501599391029458
 20
1.50000019434401
 30
0.0
 11
1.501599391029458
 21
16.60000062051722
 31
0.0
  0
LINE
  5
85B
330
84C
100
AcDbEntity
  8
0
  6
Continuous
 62
     7
100
AcDbLine
 10
12.80159928746638
 20
1.50000019434401
 30
0.0
 11
12.80159928746638
 21
16.60000062051722
 31
0.0
  0
LINE
  5
85C
330
84C
100
AcDbEntity
  8
0
  6
Continuous
 62
     7
100
AcDbLine
 10
1.500000310168843
 20
16.60000062051722
 30
0.0
 11
1.500000310168843
 21
1.50000019434401
 31
0.0
  0
LINE
  5
85D
330
84C
100
AcDbEntity
  8
0
100
AcDbLine
 10
14.30159928746673
 20
0.0000001943440111
 30
0.0
 11
0.0000003101688435
 21
0.0000001943440111
 31
0.0
  0
LWPOLYLINE
  5
85E
330
84C
100
AcDbEntity
  8
0
  6
Continuous
 62
     7
100
AcDbPolyline
 90
        8
 70
   128
 43
0.0
 10
12.86098786540446
 20
1.957631152752128
 10
12.86099997259793
 20
1.96641212764689
 10
12.86102372132359
 20
2.036008001002755
 10
12.86104560740408
 20
2.171743609640087
 10
12.86106469951683
 20
2.366876178118673
 10
12.86108006633934
 20
2.61171436372706
 10
12.86109077654896
 20
2.894097421947208
 10
12.86109636448441
 20
3.200000566127982
  0
LWPOLYLINE
  5
85F
330
84C
100
AcDbEntity
  8
0
  6
Continuous
 62
     7
100
AcDbPolyline
 90
       11
 70
   128
 43
0.0
 10
12.86093757398544
 20
1.957631152752128
 10
12.86094036795316
 20
1.938643813762155
 10
12.86096365101752
 20
1.835101232561554
 10
12.86098786540446
 20
1.80000061604687
 10
12.8610120797914
 20
1.835101232561554
 10
12.86103489719448
 20
1.938643813762155
 10
12.86105538629112
 20
2.105436236295188
 10
12.86107261575875
 20
2.327114757779326
 10
12.8610856542748
 20
2.592563111963951
 10
12.86109357051667
 20
2.888471302273956
 10
12.86109636448441
 20
3.200000566127982
  0
LWPOLYLINE
  5
860
330
84C
100
AcDbEntity
  8
0
  6
Continuous
 62
     7
100
AcDbPolyline
 90
        8
 70
   128
 43
0.0
 10
13.31098779946683
 20
1.80000061604687
 10
13.3110117810231
 20
1.835101232561554
 10
13.31103483125684
 20
1.938643813762155
 10
13.31105555318413
 20
2.105436236295188
 10
13.31107254982112
 20
2.327114757779326
 10
13.31108558833715
 20
2.592563111963951
 10
13.31109373740969
 20
2.888471302273956
 10
13.31109629854677
 20
3.200000566127982
  0
LINE
  5
861
330
84C
100
AcDbEntity
  8
0
  6
Continuous
 62
     7
100
AcDbLine
 10
12.60161499403533
 20
7.050000312435712
 30
0.0
 11
12.60161499403533
 21
1.700000320258823
 31
0.0
  0
LINE
  5
862
330
84C
100
AcDbEntity
  8
0
  6
Continuous
 62
     7
100
AcDbLine
 10
7.753813703582864
 20
2.805033647152868
 30
0.0
 11
7.753813703582864
 21
3.000000440213169
 31
0.0
  0
LWPOLYLINE
  5
863
330
84C
100
AcDbEntity
  8
0
  6
Continuous
 62
     7
100
AcDbPolyline
 90
        9
 70
   128
 43
0.0
 10
7.501602237151246
 20
3.032342944923128
 10
7.50160503111897
 20
3.022724245372501
 10
7.501607825086692
 20
3.007636354002443
 10
7.501609687731843
 20
2.987521183374608
 10
7.501611550376992
 20
2.962968726340021
 10
7.501613413022141
 20
2.934700292232718
 10
7.501614344344716
 20
2.903544292482818
 10
7.501614344344716
 20
2.870414820197311
 10
7.501615275667289
 20
2.836284176144089
  0
LINE
  5
864
330
84C
100
AcDbEntity
  8
0
  6
Continuous
 62
     7
100
AcDbLine
 10
7.75377458803473
 20
2.805033647152868
 30
0.0
 11
7.75377458803473
 21
3.000000440213169
 31
0.0
  0
LWPOLYLINE
  5
865
330
84C
100
AcDbEntity
  8
0
  6
Continuous
 62
     7
100
AcDbPolyline
 90
        5
 70
   128
 43
0.0
 10
5.271576409266572
 20
2.971513145300831
 10
5.271576409266572
 20
2.970420703920805
 10
5.271579203234296
 20
2.918112040194952
 10
5.271581997202018
 20
2.860760730388846
 10
5.271584791169741
 20
2.805033647152868
  0
LWPOLYLINE
  5
866
330
84C
100
AcDbEntity
  8
0
  6
Continuous
 62
     7
100
AcDbPolyline
 90
        9
 70
   128
 43
0.0
 10
5.351602164135556
 20
3.032342944923128
 10
5.35160495810328
 20
3.022724245372501
 10
5.351607752071004
 20
3.007636354002443
 10
5.351609614716153
 20
2.987521183374608
 10
5.351611477361299
 20
2.962968726340021
 10
5.35161334000645
 20
2.934700292232718
 10
5.351614271329026
 20
2.903544292482818
 10
5.351615202651601
 20
2.870414820197311
 10
5.351615202651601
 20
2.836284176144089
  0
LINE
  5
867
330
84C
100
AcDbEntity
  8
0
  6
Continuous
 62
     7
100
AcDbLine
 10
5.099416774736027
 20
3.000000440213169
 30
0.0
 11
5.099416774736027
 21
2.805033647152868
 31
0.0
  0
LINE
  5
868
330
84C
100
AcDbEntity
  8
0
  6
Continuous
 62
     7
100
AcDbLine
 10
14.30159928746661
 20
1.520000346633878
 30
0.0
 11
13.71073077343521
 21
1.520000346633878
 31
0.0
  0
LINE
  5
869
330
84C
100
AcDbEntity
  8
0
  6
Continuous
 62
     7
100
AcDbLine
 10
14.30159928746661
 20
1.760000311467138
 30
0.0
 11
13.71073077343521
 21
1.760000311467138
 31
0.0
  0
LINE
  5
86A
330
84C
100
AcDbEntity
  8
0
  6
Continuous
 62
     7
100
AcDbLine
 10
13.31098779946683
 20
1.80000061604687
 30
0.0
 11
14.30159928746661
 21
2.196245026731048
 31
0.0
  0
LINE
  5
86B
330
84C
100
AcDbEntity
  8
0
  6
Continuous
 62
     7
100
AcDbLine
 10
5.351615202651601
 20
2.836284176144089
 30
0.0
 11
7.501615275667289
 21
2.836284176144089
 31
0.0
  0
LINE
  5
86C
330
84C
100
AcDbEntity
  8
0
  6
Continuous
 62
     7
100
AcDbLine
 10
12.60161499403533
 20
1.700000320258823
 30
0.0
 11
1.701614883766751
 21
1.700000320258823
 31
0.0
  0
LINE
  5
86D
330
84C
100
AcDbEntity
  8
0
  6
Continuous
 62
     7
100
AcDbLine
 10
1.501599391029458
 20
1.50000019434401
 30
0.0
 11
12.80159928746638
 21
1.50000019434401
 31
0.0
  0
LINE
  5
86E
330
84C
100
AcDbEntity
  8
0
  6
Continuous
 62
     7
100
AcDbLine
 10
5.351615202651601
 20
2.836284176144089
 30
0.0
 11
5.351615202651601
 21
2.805033647152868
 31
0.0
  0
LINE
  5
86F
330
84C
100
AcDbEntity
  8
0
  6
Continuous
 62
     7
100
AcDbLine
 10
5.099416774736027
 20
2.805033647152868
 30
0.0
 11
5.351615202651601
 21
2.805033647152868
 31
0.0
  0
LINE
  5
870
330
84C
100
AcDbEntity
  8
0
  6
Continuous
 62
     7
100
AcDbLine
 10
2.611246024296856
 20
1.50000019434401
 30
0.0
 11
3.536772978530506
 21
1.42997963789412
 31
0.0
  0
LINE
  5
871
330
84C
100
AcDbEntity
  8
0
  6
Continuous
 62
     7
100
AcDbLine
 10
3.536772978530506
 20
1.229979977640595
 30
0.0
 11
2.346888248847105
 21
1.320000220719063
 31
0.0
  0
LINE
  5
872
330
84C
100
AcDbEntity
  8
0
  6
Continuous
 62
     7
100
AcDbLine
 10
1.919974637256244
 20
1.50000019434401
 30
0.0
 11
1.919974637256244
 21
1.320000220719063
 31
0.0
  0
LINE
  5
873
330
84C
100
AcDbEntity
  8
0
  6
Continuous
 62
     7
100
AcDbLine
 10
1.919974637256244
 20
1.320000220719063
 30
0.0
 11
2.346888248847105
 21
1.320000220719063
 31
0.0
  0
LINE
  5
874
330
84C
100
AcDbEntity
  8
0
  6
Continuous
 62
     7
100
AcDbLine
 10
3.536772978530506
 20
1.229979977640595
 30
0.0
 11
3.536772978530506
 21
1.42997963789412
 31
0.0
  0
LINE
  5
875
330
84C
100
AcDbEntity
  8
0
  6
Continuous
 62
     7
100
AcDbLine
 10
4.060192097948172
 20
1.45373581412741
 30
0.0
 11
3.536772978530506
 21
1.42997963789412
 31
0.0
  0
LINE
  5
876
330
84C
100
AcDbEntity
  8
0
  6
Continuous
 62
     7
100
AcDbLine
 10
3.536772978530506
 20
1.229979977640595
 30
0.0
 11
4.060192097948172
 21
1.253736153873886
 31
0.0
  0
LWPOLYLINE
  5
877
330
84C
100
AcDbEntity
  8
0
  6
Continuous
 62
     7
100
AcDbPolyline
 90
       10
 70
   128
 43
0.0
 10
1.701614883766751
 20
1.700000320258823
 10
1.666884933636764
 20
1.665270835790123
 10
1.633210171983819
 20
1.631596539798465
 10
1.601613190994839
 20
1.60000049013206
 10
1.573054184244254
 20
1.571442880365339
 10
1.548400213049034
 20
1.54679170313784
 10
1.528401923404316
 20
1.526795276138273
 10
1.513666537628751
 20
1.512061753007855
 10
1.504640159235574
 20
1.503038634243693
 10
1.501599391029458
 20
1.50000019434401
  0
LINE
  5
878
330
84C
100
AcDbEntity
  8
0
  6
Continuous
 62
     7
100
AcDbLine
 10
1.500000310168843
 20
1.50000019434401
 30
0.0
 11
1.501599391029458
 21
1.50000019434401
 31
0.0
  0
LINE
  5
879
330
84C
100
AcDbEntity
  8
0
  6
Continuous
 62
     7
100
AcDbLine
 10
11.06027566738543
 20
1.320000220719063
 30
0.0
 11
11.06027549334089
 21
0.0000001943440111
 31
0.0
  0
LINE
  5
87A
330
84C
100
AcDbEntity
  8
0
  6
Continuous
 62
     7
100
AcDbLine
 10
11.06131595470124
 20
1.50000019434401
 30
0.0
 11
11.06131595470124
 21
0.0000001943440111
 31
0.0
  0
LINE
  5
87B
330
84C
100
AcDbEntity
  8
0
  6
Continuous
 62
     7
100
AcDbLine
 10
9.120715380684712
 20
1.320000220719063
 30
0.0
 11
11.06071525164065
 21
1.320000220719063
 31
0.0
  0
LINE
  5
87C
330
84C
100
AcDbEntity
  8
0
  6
Continuous
 62
     7
100
AcDbLine
 10
8.820692141578772
 20
1.50000019434401
 30
0.0
 11
8.820692141578772
 21
1.320000220719063
 31
0.0
  0
LINE
  5
87D
330
84C
100
AcDbEntity
  8
0
  6
Continuous
 62
     7
100
AcDbLine
 10
9.120715380684712
 20
1.320000220719063
 30
0.0
 11
8.820692141578772
 21
1.320000220719063
 31
0.0
  0
LINE
  5
87E
330
84C
100
AcDbEntity
  8
0
  6
Continuous
 62
     7
100
AcDbLine
 10
9.120715380684712
 20
1.50000019434401
 30
0.0
 11
9.120715380684712
 21
1.320000220719063
 31
0.0
  0
LINE
  5
87F
330
84C
100
AcDbEntity
  8
0
  6
Continuous
 62
     7
100
AcDbLine
 10
12.7603389034432
 20
0.0000001943440111
 30
0.0
 11
12.7603389034432
 21
0.1890975466699274
 31
0.0
  0
LINE
  5
880
330
84C
100
AcDbEntity
  8
0
  6
Continuous
 62
     7
100
AcDbLine
 10
12.6613160306972
 20
0.0000001943440111
 30
0.0
 11
12.6613160306972
 21
1.50000019434401
 31
0.0
  0
LINE
  5
881
330
84C
100
AcDbEntity
  8
0
  6
Continuous
 62
     7
100
AcDbLine
 10
12.80159928746638
 20
1.957631152752128
 30
0.0
 11
12.86098786540446
 21
1.957631152752128
 31
0.0
  0
LINE
  5
882
330
84C
100
AcDbEntity
  8
0
  6
Continuous
 62
     7
100
AcDbLine
 10
12.86098786540446
 20
1.80000061604687
 30
0.0
 11
13.31098779946683
 21
1.80000061604687
 31
0.0
  0
LINE
  5
883
330
84C
100
AcDbEntity
  8
0
  6
Continuous
 62
     7
100
AcDbLine
 10
13.61069206059096
 20
1.320000220719063
 30
0.0
 11
13.61069206059096
 21
1.520000346633878
 31
0.0
  0
LINE
  5
884
330
84C
100
AcDbEntity
  8
0
  6
Continuous
 62
     7
100
AcDbLine
 10
13.71073077343521
 20
1.520000346633878
 30
0.0
 11
13.71073077343521
 21
1.760000311467138
 31
0.0
  0
LINE
  5
885
330
84C
100
AcDbEntity
  8
0
  6
Continuous
 62
     7
100
AcDbLine
 10
13.71073077343521
 20
1.760000311467138
 30
0.0
 11
12.80159928746638
 21
1.760000311467138
 31
0.0
  0
LINE
  5
886
330
84C
100
AcDbEntity
  8
0
  6
Continuous
 62
     7
100
AcDbLine
 10
13.71073077343521
 20
1.520000346633878
 30
0.0
 11
12.80159928746638
 21
1.520000346633878
 31
0.0
  0
LINE
  5
887
330
84C
100
AcDbEntity
  8
0
  6
Continuous
 62
     7
100
AcDbLine
 10
13.31071538761374
 20
1.520000346633878
 30
0.0
 11
13.31071538761374
 21
1.320000220719063
 31
0.0
  0
LINE
  5
888
330
84C
100
AcDbEntity
  8
0
  6
Continuous
 62
     7
100
AcDbLine
 10
12.6613160306972
 20
1.320000220719063
 30
0.0
 11
13.31071538761374
 21
1.320000220719063
 31
0.0
  0
LINE
  5
889
330
84C
100
AcDbEntity
  8
0
  6
Continuous
 62
     7
100
AcDbLine
 10
13.31071538761374
 20
1.320000220719063
 30
0.0
 11
13.61069206059096
 21
1.320000220719063
 31
0.0
  0
LINE
  5
88A
330
84C
100
AcDbEntity
  8
0
  6
Continuous
 62
     7
100
AcDbLine
 10
12.6613160306972
 20
0.1890975466699274
 30
0.0
 11
12.7603389034432
 21
0.1890975466699274
 31
0.0
  0
LINE
  5
88B
330
84C
100
AcDbEntity
  8
0
  6
Continuous
 62
     7
100
AcDbLine
 10
12.6613160306972
 20
0.5318168035478266
 30
0.0
 11
12.76031468905626
 21
0.5318168035478266
 31
0.0
  0
LWPOLYLINE
  5
88C
330
84C
100
AcDbEntity
  8
0
  6
Continuous
 62
     7
100
AcDbPolyline
 90
        9
 70
   128
 43
0.0
 10
12.7603389034432
 20
0.1890975466699274
 10
12.76033424683032
 20
0.197316468390909
 10
12.76032912455616
 20
0.2181734374494226
 10
12.76032493360458
 20
0.2508293322057398
 10
12.76032120831428
 20
0.2939672625393541
 10
12.76031841434655
 20
0.3458503118486078
 10
12.76031608604012
 20
0.4043867296309145
 10
12.76031515471752
 20
0.4672202697724971
 10
12.76031468905626
 20
0.5318168035478266
  0
LINE
  5
88D
330
84C
100
AcDbEntity
  8
0
  6
Continuous
 62
     7
100
AcDbLine
 10
12.76031468905626
 20
0.5318168035478266
 30
0.0
 11
12.76031468905626
 21
0.9427368125648172
 31
0.0
  0
LINE
  5
88E
330
84C
100
AcDbEntity
  8
0
  6
Continuous
 62
     7
100
AcDbLine
 10
12.76030304752407
 20
1.092736557754959
 30
0.0
 11
12.6613160306972
 21
1.092736557754959
 31
0.0
  0
LWPOLYLINE
  5
88F
330
84C
100
AcDbEntity
  8
0
  6
Continuous
 62
     7
100
AcDbPolyline
 90
        9
 70
   128
 43
0.0
 10
12.76031468905626
 20
0.9427368125648172
 10
12.76031468905626
 20
0.97199989918181
 10
12.76031375773367
 20
1.000138879451242
 10
12.76031282641111
 20
1.02607155654141
 10
12.76031142942724
 20
1.04880234662005
 10
12.76030956678209
 20
1.067456737789598
 10
12.76030770413695
 20
1.081318542990175
 10
12.76030537583051
 20
1.089854114386525
 10
12.76030304752407
 20
1.092736557754959
  0
LWPOLYLINE
  5
890
330
84C
100
AcDbEntity
  8
0
  6
Continuous
 62
     7
100
AcDbPolyline
 90
        9
 70
   128
 43
0.0
 10
12.80159928746638
 20
1.50000019434401
 10
12.79775944449125
 20
1.503843296948159
 10
12.78638147659717
 20
1.515224524471249
 10
12.76790217407165
 20
1.533706620964494
 10
12.74303167037783
 20
1.558578987303462
 10
12.71272643379983
 20
1.588886552187885
 10
12.67815061755594
 20
1.623463765415635
 10
12.64063275329886
 20
1.660982560995307
 10
12.60161499403533
 20
1.700000320258823
  0
LINE
  5
891
330
84C
100
AcDbEntity
  8
0
  6
Continuous
 62
     7
100
AcDbLine
 10
12.76031468905626
 20
0.9427368125648172
 30
0.0
 11
12.6613160306972
 21
0.9427368125648172
 31
0.0
  0
LINE
  5
892
330
84C
100
AcDbEntity
  8
0
  6
Continuous
 62
     7
100
AcDbLine
 10
7.501615275667289
 20
2.836284176144089
 30
0.0
 11
7.501615275667289
 21
2.805033647152868
 31
0.0
  0
LINE
  5
893
330
84C
100
AcDbEntity
  8
0
  6
Continuous
 62
     7
100
AcDbLine
 10
7.501615275667289
 20
2.805033647152868
 30
0.0
 11
7.753813703582864
 21
2.805033647152868
 31
0.0
  0
LINE
  5
894
330
84C
100
AcDbEntity
  8
0
  6
Continuous
 62
     7
100
AcDbLine
 10
14.26027558654664
 20
1.092736557754959
 30
0.0
 11
14.30159928746673
 21
1.092736557754959
 31
0.0
  0
LINE
  5
895
330
84C
100
AcDbEntity
  8
0
  6
Continuous
 62
     7
100
AcDbLine
 10
14.26027558654664
 20
1.520000346633878
 30
0.0
 11
14.26027544037424
 21
0.0000001944299584
 31
0.0
  0
LINE
  5
896
330
84C
100
AcDbEntity
  8
0
  6
Continuous
 62
     7
100
AcDbLine
 10
14.26027558654664
 20
2.179715730878793
 30
0.0
 11
14.26027558654664
 21
1.760000311467138
 31
0.0
  0
LINE
  5
897
330
84C
100
AcDbEntity
  8
0
  6
Continuous
 62
     7
100
AcDbLine
 10
13.46080779940007
 20
9.435000399523687
 30
0.0
 11
14.30159928746626
 21
9.435000399523687
 31
0.0
  0
LINE
  5
898
330
84C
100
AcDbEntity
  8
0
  6
Continuous
 62
     7
100
AcDbLine
 10
14.30159928746626
 20
9.935000394168582
 30
0.0
 11
13.46080779940007
 21
9.935000394168582
 31
0.0
  0
LINE
  5
899
330
84C
100
AcDbEntity
  8
0
  6
Continuous
 62
     7
100
AcDbLine
 10
12.80159928746638
 20
11.97500032808193
 30
0.0
 11
14.30159928746616
 21
11.97500032808193
 31
0.0
  0
LINE
  5
89A
330
84C
100
AcDbEntity
  8
0
  6
Continuous
 62
     7
100
AcDbLine
 10
14.30159928746616
 20
12.47500041003831
 30
0.0
 11
12.80159928746638
 21
12.47500041003831
 31
0.0
  0
LINE
  5
89B
330
84C
100
AcDbEntity
  8
0
  6
Continuous
 62
     7
100
AcDbLine
 10
14.01098777450738
 20
13.70000042456694
 30
0.0
 11
14.30159928746603
 21
13.99061193752547
 31
0.0
  0
LINE
  5
89C
330
84C
100
AcDbEntity
  8
0
  6
Continuous
 62
     7
100
AcDbLine
 10
14.30159928746661
 20
3.200000566127982
 30
0.0
 11
13.31109629854677
 21
3.200000566127982
 31
0.0
  0
LINE
  5
89D
330
84C
100
AcDbEntity
  8
0
  6
Continuous
 62
     7
100
AcDbLine
 10
14.01109627358732
 20
3.574597132089817
 30
0.0
 11
14.30159928746661
 21
3.574597132089817
 31
0.0
  0
LINE
  5
89E
330
84C
100
AcDbEntity
  8
0
  6
Continuous
 62
     7
100
AcDbLine
 10
14.30159928746661
 20
4.109388877334819
 30
0.0
 11
14.01098777450738
 21
4.400000390294278
 31
0.0
  0
LINE
  5
89F
330
84C
100
AcDbEntity
  8
0
  6
Continuous
 62
     7
100
AcDbLine
 10
12.80159928746638
 20
4.855000362429108
 30
0.0
 11
14.30159928746649
 21
4.855000362429108
 31
0.0
  0
LINE
  5
8A0
330
84C
100
AcDbEntity
  8
0
  6
Continuous
 62
     7
100
AcDbLine
 10
14.30159928746638
 20
6.895000296342457
 30
0.0
 11
13.36083241649089
 21
6.895000296342457
 31
0.0
  0
LINE
  5
8A1
330
84C
100
AcDbEntity
  8
0
  6
Continuous
 62
     7
100
AcDbLine
 10
14.30159928746638
 20
7.395000378298846
 30
0.0
 11
13.36083241649089
 21
7.395000378298846
 31
0.0
  0
LINE
  5
8A2
330
84C
100
AcDbEntity
  8
0
  6
Continuous
 62
     7
100
AcDbLine
 10
3.472384129689316
 20
8.15000042289057
 30
0.0
 11
3.472384129689316
 21
8.850000412483041
 31
0.0
  0
LINE
  5
8A3
330
84C
100
AcDbEntity
  8
0
  6
Continuous
 62
     7
100
AcDbLine
 10
12.46080786831794
 20
10.70057968113133
 30
0.0
 11
12.46080786831794
 21
7.399421133729902
 31
0.0
  0
LINE
  5
8A4
330
84C
100
AcDbEntity
  8
0
  6
Continuous
 62
     7
100
AcDbLine
 10
12.46076130218921
 20
7.399421133729902
 30
0.0
 11
12.46076130218921
 21
10.70057968113133
 31
0.0
  0
LINE
  5
8A5
330
84C
100
AcDbEntity
  8
0
  6
Continuous
 62
     7
100
AcDbLine
 10
13.46080779940007
 20
7.399421133729902
 30
0.0
 11
13.46080779940007
 21
10.70057968113133
 31
0.0
  0
LINE
  5
8A6
330
84C
100
AcDbEntity
  8
0
  6
Continuous
 62
     7
100
AcDbLine
 10
12.60161499403533
 20
11.05000050242551
 30
0.0
 11
12.60161499403533
 21
7.050000312435712
 31
0.0
  0
LINE
  5
8A7
330
84C
100
AcDbEntity
  8
0
  6
Continuous
 62
     7
100
AcDbLine
 10
13.36083241649089
 20
11.55000035155126
 30
0.0
 11
13.36083241649089
 21
6.550000463309967
 31
0.0
  0
LINE
  5
8A8
330
84C
100
AcDbEntity
  8
0
  6
Continuous
 62
     7
100
AcDbLine
 10
7.501602237151246
 20
3.032342944923128
 30
0.0
 11
5.351602164135556
 21
3.032342944923128
 31
0.0
  0
LINE
  5
8A9
330
84C
100
AcDbEntity
  8
0
  6
Continuous
 62
     7
100
AcDbLine
 10
5.351344187782386
 20
3.702123597893205
 30
0.0
 11
7.501344260798077
 21
3.702123597893205
 31
0.0
  0
LINE
  5
8AA
330
84C
100
AcDbEntity
  8
0
  6
Continuous
 62
     7
100
AcDbLine
 10
3.472384129689316
 20
8.15000042289057
 30
0.0
 11
3.00145900718985
 21
8.15000042289057
 31
0.0
  0
LWPOLYLINE
  5
8AB
330
84C
100
AcDbEntity
  8
0
  6
Continuous
 62
     7
100
AcDbPolyline
 90
        7
 70
   128
 43
0.0
 10
7.241555553899386
 20
3.154656332615103
 10
7.241541584060769
 20
3.248144355300154
 10
7.241514575706105
 20
3.406168841454473
 10
7.241485704706293
 20
3.529294808092798
 10
7.241455902383902
 20
3.616381850722517
 10
7.241426100061516
 20
3.666622978332725
 10
7.241400954352003
 20
3.680000495794502
  0
LINE
  5
8AC
330
84C
100
AcDbEntity
  8
0
  6
Continuous
 62
     7
100
AcDbLine
 10
7.241400954352003
 20
3.680000495794502
 30
0.0
 11
5.271400389299968
 21
3.680000495794502
 31
0.0
  0
LINE
  5
8AD
330
84C
100
AcDbEntity
  8
0
  6
Continuous
 62
     7
100
AcDbLine
 10
3.00145900718985
 20
7.750000403891588
 30
0.0
 11
3.472384129689316
 21
7.750000403891588
 31
0.0
  0
LINE
  5
8AE
330
84C
100
AcDbEntity
  8
0
  6
Continuous
 62
     7
100
AcDbLine
 10
3.472384129689316
 20
7.050000312435712
 30
0.0
 11
3.00145900718985
 21
7.050000312435712
 31
0.0
  0
LINE
  5
8AF
330
84C
100
AcDbEntity
  8
0
  6
Continuous
 62
     7
100
AcDbLine
 10
3.472384129689316
 20
5.950000318396177
 30
0.0
 11
3.00145900718985
 21
5.950000318396177
 31
0.0
  0
LINE
  5
8B0
330
84C
100
AcDbEntity
  8
0
  6
Continuous
 62
     7
100
AcDbLine
 10
3.00145900718985
 20
6.650000293436732
 30
0.0
 11
3.472384129689316
 21
6.650000293436732
 31
0.0
  0
LINE
  5
8B1
330
84C
100
AcDbEntity
  8
0
  6
Continuous
 62
     7
100
AcDbLine
 10
3.00145900718985
 20
5.550000299397196
 30
0.0
 11
3.472384129689316
 21
5.550000299397196
 31
0.0
  0
LINE
  5
8B2
330
84C
100
AcDbEntity
  8
0
  6
Continuous
 62
     7
100
AcDbLine
 10
3.00145900718985
 20
4.850000557187286
 30
0.0
 11
3.472384129689316
 21
4.850000557187286
 31
0.0
  0
LINE
  5
8B3
330
84C
100
AcDbEntity
  8
0
  6
Continuous
 62
     7
100
AcDbLine
 10
3.472384129689316
 20
7.050000312435712
 30
0.0
 11
3.472384129689316
 21
7.750000403891588
 31
0.0
  0
LINE
  5
8B4
330
84C
100
AcDbEntity
  8
0
  6
Continuous
 62
     7
100
AcDbLine
 10
3.472384129689316
 20
5.950000318396177
 30
0.0
 11
3.472384129689316
 21
6.650000293436732
 31
0.0
  0
LINE
  5
8B5
330
84C
100
AcDbEntity
  8
0
  6
Continuous
 62
     7
100
AcDbLine
 10
3.472384129689316
 20
4.850000557187286
 30
0.0
 11
3.472384129689316
 21
5.550000299397196
 31
0.0
  0
LWPOLYLINE
  5
8B6
330
84C
100
AcDbEntity
  8
0
  6
Continuous
 62
     7
100
AcDbPolyline
 90
        9
 70
   128
 43
0.0
 10
5.271538225041011
 20
3.000000440213169
 10
5.271532637105565
 20
3.036639601621118
 10
5.271506560073476
 20
3.186994180712189
 10
5.271479551718811
 20
3.303336393717017
 10
5.271450680718999
 20
3.384550516191211
 10
5.271422741041758
 20
3.429857962462391
 10
5.271393870041947
 20
3.438823804888214
 10
5.27136499904213
 20
3.411362827453102
 10
5.271336128042321
 20
3.347738128784383
  0
LINE
  5
8B7
330
84C
100
AcDbEntity
  8
0
  6
Continuous
 62
     7
100
AcDbLine
 10
5.271336128042321
 20
3.347738128784383
 30
0.0
 11
5.271336128042321
 21
3.593343258532968
 31
0.0
  0
LWPOLYLINE
  5
8B8
330
84C
100
AcDbEntity
  8
0
  6
Continuous
 62
     7
100
AcDbPolyline
 90
        9
 70
   128
 43
0.0
 10
5.271336128042321
 20
3.593343258532968
 10
5.271365930364709
 20
3.655049898359266
 10
5.271395732687096
 20
3.679552063974823
 10
5.271426466332058
 20
3.666622978332725
 10
5.271456268654445
 20
3.616381850722517
 10
5.27148607097683
 20
3.529294808092798
 10
5.271514010654072
 20
3.406168841454473
 10
5.271541950331311
 20
3.248144355300154
 10
5.2715680273634
 20
3.056686320039716
  0
LWPOLYLINE
  5
8B9
330
84C
100
AcDbEntity
  8
0
  6
Continuous
 62
     7
100
AcDbPolyline
 90
        3
 70
   128
 43
0.0
 10
5.2715680273634
 20
3.056686320039716
 10
5.271572683976273
 20
3.01685737881371
 10
5.271573615298846
 20
3.000000440213169
  0
LINE
  5
8BA
330
84C
100
AcDbEntity
  8
0
  6
Continuous
 62
     7
100
AcDbLine
 10
5.271465581880191
 20
3.347738128784383
 30
0.0
 11
5.271336128042321
 21
3.347738128784383
 31
0.0
  0
LINE
  5
8BB
330
84C
100
AcDbEntity
  8
0
  6
Continuous
 62
     7
100
AcDbLine
 10
5.351576087103467
 20
2.971513145300831
 30
0.0
 11
5.351576087103467
 21
3.000000440213169
 31
0.0
  0
LINE
  5
8BC
330
84C
100
AcDbEntity
  8
0
  6
Continuous
 62
     7
100
AcDbLine
 10
5.351602164135556
 20
3.032342944923128
 30
0.0
 11
5.351555598006825
 21
3.154656332615103
 31
0.0
  0
LINE
  5
8BD
330
84C
100
AcDbEntity
  8
0
  6
Continuous
 62
     7
100
AcDbLine
 10
5.351567705200293
 20
3.056686320039716
 30
0.0
 11
5.2715680273634
 21
3.056686320039716
 31
0.0
  0
LINE
  5
8BE
330
84C
100
AcDbEntity
  8
0
  6
Continuous
 62
     7
100
AcDbLine
 10
5.351257574782948
 20
3.680000495794502
 30
0.0
 11
5.351257574782948
 21
3.702123597893205
 31
0.0
  0
LINE
  5
8BF
330
84C
100
AcDbEntity
  8
0
  6
Continuous
 62
     7
100
AcDbLine
 10
5.351257574782948
 20
3.702123597893205
 30
0.0
 11
5.351344187782386
 21
3.702123597893205
 31
0.0
  0
LINE
  5
8C0
330
84C
100
AcDbEntity
  8
0
  6
Continuous
 62
     7
100
AcDbLine
 10
5.351353501008134
 20
3.680000495794502
 30
0.0
 11
5.351344187782386
 21
3.702123597893205
 31
0.0
  0
LINE
  5
8C1
330
84C
100
AcDbEntity
  8
0
  6
Continuous
 62
     7
100
AcDbLine
 10
4.671529931054691
 20
3.080000583711353
 30
0.0
 11
3.001614538059806
 21
3.080000583711353
 31
0.0
  0
LINE
  5
8C2
330
84C
100
AcDbEntity
  8
0
  6
Continuous
 62
     7
100
AcDbLine
 10
3.001614538059806
 20
3.000000440213169
 30
0.0
 11
5.099416774736027
 21
3.000000440213169
 31
0.0
  0
LINE
  5
8C3
330
84C
100
AcDbEntity
  8
0
  6
Continuous
 62
     7
100
AcDbLine
 10
4.671529931054691
 20
3.000000440213169
 30
0.0
 11
4.671529931054691
 21
3.080000583711353
 31
0.0
  0
LINE
  5
8C4
330
84C
100
AcDbEntity
  8
0
  6
Continuous
 62
     7
100
AcDbLine
 10
5.351576087103467
 20
3.000000440213169
 30
0.0
 11
5.099416774736027
 21
3.000000440213169
 31
0.0
  0
LINE
  5
8C5
330
84C
100
AcDbEntity
  8
0
  6
Continuous
 62
     7
100
AcDbLine
 10
11.0607613521081
 20
7.399421133729902
 30
0.0
 11
11.76075504072126
 21
7.399421133729902
 31
0.0
  0
LINE
  5
8C6
330
84C
100
AcDbEntity
  8
0
  6
Continuous
 62
     7
100
AcDbLine
 10
10.10076102711374
 20
5.28000033895978
 30
0.0
 11
10.10076102711374
 21
6.56851888138362
 31
0.0
  0
LINE
  5
8C7
330
84C
100
AcDbEntity
  8
0
  6
Continuous
 62
     7
100
AcDbLine
 10
10.10161504991468
 20
6.56851888138362
 30
0.0
 11
10.10076102711374
 21
6.56851888138362
 31
0.0
  0
LINE
  5
8C8
330
84C
100
AcDbEntity
  8
0
  6
Continuous
 62
     7
100
AcDbLine
 10
11.76083234049497
 20
6.56851888138362
 30
0.0
 11
11.76083234049497
 21
7.550000394392098
 31
0.0
  0
LINE
  5
8C9
330
84C
100
AcDbEntity
  8
0
  6
Continuous
 62
     7
100
AcDbLine
 10
11.76075504072126
 20
6.56851888138362
 30
0.0
 11
11.76075504072126
 21
7.399421133729902
 31
0.0
  0
LINE
  5
8CA
330
84C
100
AcDbEntity
  8
0
  6
Continuous
 62
     7
100
AcDbLine
 10
11.0607613521081
 20
6.56851888138362
 30
0.0
 11
11.0607613521081
 21
7.399421133729902
 31
0.0
  0
LINE
  5
8CB
330
84C
100
AcDbEntity
  8
0
  6
Continuous
 62
     7
100
AcDbLine
 10
9.84153018243728
 20
5.28000033895978
 30
0.0
 11
9.84153018243728
 21
3.080000583711353
 31
0.0
  0
LINE
  5
8CC
330
84C
100
AcDbEntity
  8
0
  6
Continuous
 62
     7
100
AcDbLine
 10
9.84094903715072
 20
3.080000583711353
 30
0.0
 11
9.84094903715072
 21
5.28000033895978
 31
0.0
  0
LINE
  5
8CD
330
84C
100
AcDbEntity
  8
0
  6
Continuous
 62
     7
100
AcDbLine
 10
8.440949087069611
 20
3.080000583711353
 30
0.0
 11
8.440949087069611
 21
5.28000033895978
 31
0.0
  0
LINE
  5
8CE
330
84C
100
AcDbEntity
  8
0
  6
Continuous
 62
     7
100
AcDbLine
 10
10.10161504991468
 20
3.000000440213169
 30
0.0
 11
10.10161504991468
 21
6.56851888138362
 31
0.0
  0
LINE
  5
8CF
330
84C
100
AcDbEntity
  8
0
  6
Continuous
 62
     7
100
AcDbLine
 10
11.76083234049497
 20
7.550000394392098
 30
0.0
 11
12.01083238147315
 21
7.550000394392098
 31
0.0
  0
LINE
  5
8D0
330
84C
100
AcDbEntity
  8
0
  6
Continuous
 62
     7
100
AcDbLine
 10
10.10161504991468
 20
6.56851888138362
 30
0.0
 11
11.90161478616414
 21
6.56851888138362
 31
0.0
  0
LINE
  5
8D1
330
84C
100
AcDbEntity
  8
0
  6
Continuous
 62
     7
100
AcDbLine
 10
12.16082095079241
 20
7.550000394392098
 30
0.0
 11
12.16082095079241
 21
7.050000312435712
 31
0.0
  0
LINE
  5
8D2
330
84C
100
AcDbEntity
  8
0
  6
Continuous
 62
     7
100
AcDbLine
 10
12.52222579814611
 20
7.550000394392098
 30
0.0
 11
12.60081591926631
 21
7.550000394392098
 31
0.0
  0
LINE
  5
8D3
330
84C
100
AcDbEntity
  8
0
  6
Continuous
 62
     7
100
AcDbLine
 10
12.60078471996006
 20
7.050000312435712
 30
0.0
 11
12.60078471996006
 21
7.399421133729902
 31
0.0
  0
LINE
  5
8D4
330
84C
100
AcDbEntity
  8
0
  6
Continuous
 62
     7
100
AcDbLine
 10
12.60080800302444
 20
7.399421133729902
 30
0.0
 11
12.60080800302444
 21
7.550000394392098
 31
0.0
  0
LINE
  5
8D5
330
84C
100
AcDbEntity
  8
0
  6
Continuous
 62
     7
100
AcDbLine
 10
12.46080786831794
 20
7.399421133729902
 30
0.0
 11
12.60080800302444
 21
7.399421133729902
 31
0.0
  0
LINE
  5
8D6
330
84C
100
AcDbEntity
  8
0
  6
Continuous
 62
     7
100
AcDbLine
 10
12.46076130218921
 20
7.399421133729902
 30
0.0
 11
12.46080786831794
 21
7.399421133729902
 31
0.0
  0
LINE
  5
8D7
330
84C
100
AcDbEntity
  8
0
  6
Continuous
 62
     7
100
AcDbLine
 10
13.36083241649089
 20
7.399421133729902
 30
0.0
 11
13.46080779940007
 21
7.399421133729902
 31
0.0
  0
LINE
  5
8D8
330
84C
100
AcDbEntity
  8
0
  6
Continuous
 62
     7
100
AcDbLine
 10
12.16082095079241
 20
7.399421133729902
 30
0.0
 11
12.46076130218921
 21
7.399421133729902
 31
0.0
  0
LINE
  5
8D9
330
84C
100
AcDbEntity
  8
0
  6
Continuous
 62
     7
100
AcDbLine
 10
12.80159928746638
 20
6.550000463309967
 30
0.0
 11
13.36083241649089
 21
6.550000463309967
 31
0.0
  0
LINE
  5
8DA
330
84C
100
AcDbEntity
  8
0
  6
Continuous
 62
     7
100
AcDbLine
 10
12.86109636448441
 20
3.200000566127982
 30
0.0
 11
12.80159928746638
 21
3.200000566127982
 31
0.0
  0
LINE
  5
8DB
330
84C
100
AcDbEntity
  8
0
  6
Continuous
 62
     7
100
AcDbLine
 10
13.31109629854677
 20
3.200000566127982
 30
0.0
 11
12.86109636448441
 21
3.200000566127982
 31
0.0
  0
LINE
  5
8DC
330
84C
100
AcDbEntity
  8
0
  6
Continuous
 62
     7
100
AcDbLine
 10
14.01098777450738
 20
4.400000390294278
 30
0.0
 11
12.80159928746638
 21
4.400000390294278
 31
0.0
  0
LWPOLYLINE
  5
8DD
330
84C
100
AcDbEntity
  8
0
  6
Continuous
 62
     7
100
AcDbPolyline
 90
        6
 70
   128
 43
0.0
 10
14.01098777450738
 20
4.400000390294278
 10
14.01101385153947
 20
4.363812920335021
 10
14.01103899724899
 20
4.256886844220844
 10
14.01106181465206
 20
4.084058985743013
 10
14.01108113959549
 20
3.853147332254136
 10
14.01109627358732
 20
3.574597132089817
  0
LINE
  5
8DE
330
84C
100
AcDbEntity
  8
0
  6
Continuous
 62
     7
100
AcDbLine
 10
12.80159928746638
 20
3.574597132089817
 30
0.0
 11
14.01109627358732
 21
3.574597132089817
 31
0.0
  0
LINE
  5
8DF
330
84C
100
AcDbEntity
  8
0
  6
Continuous
 62
     7
100
AcDbLine
 10
12.01083238147315
 20
7.550000394392098
 30
0.0
 11
12.16082095079241
 21
7.550000394392098
 31
0.0
  0
LINE
  5
8E0
330
84C
100
AcDbEntity
  8
0
  6
Continuous
 62
     7
100
AcDbLine
 10
12.60161499403533
 20
7.050000312435712
 30
0.0
 11
11.90161478616414
 21
7.050000312435712
 31
0.0
  0
LINE
  5
8E1
330
84C
100
AcDbEntity
  8
0
  6
Continuous
 62
     7
100
AcDbLine
 10
12.01083238147315
 20
7.050000312435712
 30
0.0
 11
12.01083238147315
 21
7.550000394392098
 31
0.0
  0
LINE
  5
8E2
330
84C
100
AcDbEntity
  8
0
  6
Continuous
 62
     7
100
AcDbLine
 10
11.90140523858485
 20
7.050000312435712
 30
0.0
 11
11.90161478616414
 21
7.050000312435712
 31
0.0
  0
LINE
  5
8E3
330
84C
100
AcDbEntity
  8
0
  6
Continuous
 62
     7
100
AcDbLine
 10
11.90161478616414
 20
7.050000312435712
 30
0.0
 11
11.90161478616414
 21
6.56851888138362
 31
0.0
  0
LINE
  5
8E4
330
84C
100
AcDbEntity
  8
0
  6
Continuous
 62
     7
100
AcDbLine
 10
11.90140523858485
 20
6.56851888138362
 30
0.0
 11
11.90140523858485
 21
7.050000312435712
 31
0.0
  0
LINE
  5
8E5
330
84C
100
AcDbEntity
  8
0
  6
Continuous
 62
     7
100
AcDbLine
 10
10.10153029956039
 20
5.28000033895978
 30
0.0
 11
9.84153018243728
 21
5.28000033895978
 31
0.0
  0
LINE
  5
8E6
330
84C
100
AcDbEntity
  8
0
  6
Continuous
 62
     7
100
AcDbLine
 10
9.84153018243728
 20
5.28000033895978
 30
0.0
 11
9.84094903715072
 21
5.28000033895978
 31
0.0
  0
LINE
  5
8E7
330
84C
100
AcDbEntity
  8
0
  6
Continuous
 62
     7
100
AcDbLine
 10
9.84094903715072
 20
5.28000033895978
 30
0.0
 11
8.440949087069611
 21
5.28000033895978
 31
0.0
  0
LINE
  5
8E8
330
84C
100
AcDbEntity
  8
0
  6
Continuous
 62
     7
100
AcDbLine
 10
8.440949087069611
 20
5.28000033895978
 30
0.0
 11
8.440760959909539
 21
5.28000033895978
 31
0.0
  0
LINE
  5
8E9
330
84C
100
AcDbEntity
  8
0
  6
Continuous
 62
     7
100
AcDbLine
 10
11.76076109431801
 20
7.550000394392098
 30
0.0
 11
11.76083234049497
 21
7.550000394392098
 31
0.0
  0
LINE
  5
8EA
330
84C
100
AcDbEntity
  8
0
  6
Continuous
 62
     7
100
AcDbLine
 10
7.501344260798077
 20
3.702123597893205
 30
0.0
 11
7.501602237151246
 21
3.032342944923128
 31
0.0
  0
LINE
  5
8EB
330
84C
100
AcDbEntity
  8
0
  6
Continuous
 62
     7
100
AcDbLine
 10
7.841530320273022
 20
3.080000583711353
 30
0.0
 11
7.841530320273022
 21
3.000000440213169
 31
0.0
  0
LINE
  5
8EC
330
84C
100
AcDbEntity
  8
0
  6
Continuous
 62
     7
100
AcDbLine
 10
7.841530320273022
 20
3.080000583711353
 30
0.0
 11
7.840761047826387
 21
3.080000583711353
 31
0.0
  0
LINE
  5
8ED
330
84C
100
AcDbEntity
  8
0
  6
Continuous
 62
     7
100
AcDbLine
 10
7.753813703582864
 20
3.000000440213169
 30
0.0
 11
7.75377458803473
 21
3.000000440213169
 31
0.0
  0
LINE
  5
8EE
330
84C
100
AcDbEntity
  8
0
  6
Continuous
 62
     7
100
AcDbLine
 10
7.75377458803473
 20
3.000000440213169
 30
0.0
 11
7.501608756409266
 21
3.000000440213169
 31
0.0
  0
LINE
  5
8EF
330
84C
100
AcDbEntity
  8
0
  6
Continuous
 62
     7
100
AcDbLine
 10
7.753813703582864
 20
3.000000440213169
 30
0.0
 11
10.10161504991468
 21
3.000000440213169
 31
0.0
  0
LINE
  5
8F0
330
84C
100
AcDbEntity
  8
0
  6
Continuous
 62
     7
100
AcDbLine
 10
9.84153018243728
 20
3.080000583711353
 30
0.0
 11
7.841530320273022
 21
3.080000583711353
 31
0.0
  0
LINE
  5
8F1
330
84C
100
AcDbEntity
  8
0
  6
Continuous
 62
     7
100
AcDbLine
 10
5.351344187782386
 20
14.397877216968
 30
0.0
 11
7.501344260798077
 21
14.397877216968
 31
0.0
  0
LINE
  5
8F2
330
84C
100
AcDbEntity
  8
0
  6
Continuous
 62
     7
100
AcDbLine
 10
5.271400389299968
 20
14.42000031906673
 30
0.0
 11
7.241400954352003
 21
14.42000031906673
 31
0.0
  0
LINE
  5
8F3
330
84C
100
AcDbEntity
  8
0
  6
Continuous
 62
     7
100
AcDbLine
 10
5.351353501008134
 20
14.42000031906673
 30
0.0
 11
5.351344187782386
 21
14.397877216968
 31
0.0
  0
LINE
  5
8F4
330
84C
100
AcDbEntity
  8
0
  6
Continuous
 62
     7
100
AcDbLine
 10
5.351257574782948
 20
14.397877216968
 30
0.0
 11
5.351344187782386
 21
14.397877216968
 31
0.0
  0
LINE
  5
8F5
330
84C
100
AcDbEntity
  8
0
  6
Continuous
 62
     7
100
AcDbLine
 10
5.351257574782948
 20
14.397877216968
 30
0.0
 11
5.351257574782948
 21
14.42000031906673
 31
0.0
  0
LINE
  5
8F6
330
84C
100
AcDbEntity
  8
0
  6
Continuous
 62
     7
100
AcDbLine
 10
3.00145900718985
 20
13.25000025767391
 30
0.0
 11
3.472384129689316
 21
13.25000025767391
 31
0.0
  0
LINE
  5
8F7
330
84C
100
AcDbEntity
  8
0
  6
Continuous
 62
     7
100
AcDbLine
 10
3.472384129689316
 20
12.55000051546403
 30
0.0
 11
3.00145900718985
 21
12.55000051546403
 31
0.0
  0
LINE
  5
8F8
330
84C
100
AcDbEntity
  8
0
  6
Continuous
 62
     7
100
AcDbLine
 10
3.00145900718985
 20
11.05000050242551
 30
0.0
 11
3.472384129689316
 21
11.05000050242551
 31
0.0
  0
LINE
  5
8F9
330
84C
100
AcDbEntity
  8
0
  6
Continuous
 62
     7
100
AcDbLine
 10
3.00145900718985
 20
12.15000049646505
 30
0.0
 11
3.472384129689316
 21
12.15000049646505
 31
0.0
  0
LINE
  5
8FA
330
84C
100
AcDbEntity
  8
0
  6
Continuous
 62
     7
100
AcDbLine
 10
3.472384129689316
 20
11.45000052142449
 30
0.0
 11
3.00145900718985
 21
11.45000052142449
 31
0.0
  0
LINE
  5
8FB
330
84C
100
AcDbEntity
  8
0
  6
Continuous
 62
     7
100
AcDbLine
 10
3.472384129689316
 20
12.55000051546403
 30
0.0
 11
3.472384129689316
 21
13.25000025767391
 31
0.0
  0
LINE
  5
8FC
330
84C
100
AcDbEntity
  8
0
  6
Continuous
 62
     7
100
AcDbLine
 10
3.472384129689316
 20
11.45000052142449
 30
0.0
 11
3.472384129689316
 21
12.15000049646505
 31
0.0
  0
LINE
  5
8FD
330
84C
100
AcDbEntity
  8
0
  6
Continuous
 62
     7
100
AcDbLine
 10
3.00145900718985
 20
8.850000412483041
 30
0.0
 11
3.472384129689316
 21
8.850000412483041
 31
0.0
  0
LINE
  5
8FE
330
84C
100
AcDbEntity
  8
0
  6
Continuous
 62
     7
100
AcDbLine
 10
3.472384129689316
 20
9.250000402378192
 30
0.0
 11
3.00145900718985
 21
9.250000402378192
 31
0.0
  0
LINE
  5
8FF
330
84C
100
AcDbEntity
  8
0
  6
Continuous
 62
     7
100
AcDbLine
 10
3.00145900718985
 20
9.950000391970661
 30
0.0
 11
3.472384129689316
 21
9.950000391970661
 31
0.0
  0
LINE
  5
900
330
84C
100
AcDbEntity
  8
0
  6
Continuous
 62
     7
100
AcDbLine
 10
3.472384129689316
 20
10.35000041096964
 30
0.0
 11
3.00145900718985
 21
10.35000041096964
 31
0.0
  0
LINE
  5
901
330
84C
100
AcDbEntity
  8
0
  6
Continuous
 62
     7
100
AcDbLine
 10
3.472384129689316
 20
9.250000402378192
 30
0.0
 11
3.472384129689316
 21
9.950000391970661
 31
0.0
  0
LINE
  5
902
330
84C
100
AcDbEntity
  8
0
  6
Continuous
 62
     7
100
AcDbLine
 10
3.472384129689316
 20
10.35000041096964
 30
0.0
 11
3.472384129689316
 21
11.05000050242551
 31
0.0
  0
LINE
  5
903
330
84C
100
AcDbEntity
  8
0
  6
Continuous
 62
     7
100
AcDbLine
 10
11.90161478616414
 20
11.05000050242551
 30
0.0
 11
12.60161499403533
 21
11.05000050242551
 31
0.0
  0
LINE
  5
904
330
84C
100
AcDbEntity
  8
0
  6
Continuous
 62
     7
100
AcDbLine
 10
12.01083238147315
 20
10.55000042046913
 30
0.0
 11
12.16082095079241
 21
10.55000042046913
 31
0.0
  0
LINE
  5
905
330
84C
100
AcDbEntity
  8
0
  6
Continuous
 62
     7
100
AcDbLine
 10
11.90161478616414
 20
11.5314819334776
 30
0.0
 11
11.90161478616414
 21
11.05000050242551
 31
0.0
  0
LINE
  5
906
330
84C
100
AcDbEntity
  8
0
  6
Continuous
 62
     7
100
AcDbLine
 10
11.90140523858485
 20
11.05000050242551
 30
0.0
 11
11.90140523858485
 21
11.5314819334776
 31
0.0
  0
LINE
  5
907
330
84C
100
AcDbEntity
  8
0
  6
Continuous
 62
     7
100
AcDbLine
 10
11.90161478616414
 20
11.05000050242551
 30
0.0
 11
11.90140523858485
 21
11.05000050242551
 31
0.0
  0
LINE
  5
908
330
84C
100
AcDbEntity
  8
0
  6
Continuous
 62
     7
100
AcDbLine
 10
9.84153018243728
 20
12.82000047590144
 30
0.0
 11
10.10153029956039
 21
12.82000047590144
 31
0.0
  0
LINE
  5
909
330
84C
100
AcDbEntity
  8
0
  6
Continuous
 62
     7
100
AcDbLine
 10
9.84094903715072
 20
12.82000047590144
 30
0.0
 11
9.84153018243728
 21
12.82000047590144
 31
0.0
  0
LINE
  5
90A
330
84C
100
AcDbEntity
  8
0
  6
Continuous
 62
     7
100
AcDbLine
 10
8.440949087069611
 20
12.82000047590144
 30
0.0
 11
9.84094903715072
 21
12.82000047590144
 31
0.0
  0
LINE
  5
90B
330
84C
100
AcDbEntity
  8
0
  6
Continuous
 62
     7
100
AcDbLine
 10
8.440760959909539
 20
12.82000047590144
 30
0.0
 11
8.440949087069611
 21
12.82000047590144
 31
0.0
  0
LINE
  5
90C
330
84C
100
AcDbEntity
  8
0
  6
Continuous
 62
     7
100
AcDbLine
 10
10.10076102711374
 20
11.5314819334776
 30
0.0
 11
10.10161504991468
 21
11.5314819334776
 31
0.0
  0
LINE
  5
90D
330
84C
100
AcDbEntity
  8
0
  6
Continuous
 62
     7
100
AcDbLine
 10
10.10076102711374
 20
11.5314819334776
 30
0.0
 11
10.10076102711374
 21
12.82000047590144
 31
0.0
  0
LINE
  5
90E
330
84C
100
AcDbEntity
  8
0
  6
Continuous
 62
     7
100
AcDbLine
 10
11.76075504072126
 20
10.70057968113133
 30
0.0
 11
11.0607613521081
 21
10.70057968113133
 31
0.0
  0
LINE
  5
90F
330
84C
100
AcDbEntity
  8
0
  6
Continuous
 62
     7
100
AcDbLine
 10
11.76075504072126
 20
10.70057968113133
 30
0.0
 11
11.76075504072126
 21
11.5314819334776
 31
0.0
  0
LINE
  5
910
330
84C
100
AcDbEntity
  8
0
  6
Continuous
 62
     7
100
AcDbLine
 10
11.0607613521081
 20
10.70057968113133
 30
0.0
 11
11.0607613521081
 21
11.5314819334776
 31
0.0
  0
LINE
  5
911
330
84C
100
AcDbEntity
  8
0
  6
Continuous
 62
     7
100
AcDbLine
 10
11.90161478616414
 20
11.5314819334776
 30
0.0
 11
10.10161504991468
 21
11.5314819334776
 31
0.0
  0
LINE
  5
912
330
84C
100
AcDbEntity
  8
0
  6
Continuous
 62
     7
100
AcDbLine
 10
11.76076109431801
 20
10.55000042046913
 30
0.0
 11
11.76083234049497
 21
10.55000042046913
 31
0.0
  0
LINE
  5
913
330
84C
100
AcDbEntity
  8
0
100
AcDbLine
 10
11.05892571531353
 20
9.050699830684152
 30
0.0
 11
11.55892571531353
 21
9.050699830684152
 31
0.0
  0
LINE
  5
914
330
84C
100
AcDbEntity
  8
0
  6
Continuous
 62
     7
100
AcDbLine
 10
11.76083234049497
 20
10.55000042046913
 30
0.0
 11
12.01083238147315
 21
10.55000042046913
 31
0.0
  0
LINE
  5
915
330
84C
100
AcDbEntity
  8
0
  6
Continuous
 62
     7
100
AcDbLine
 10
11.76083234049497
 20
10.55000042046913
 30
0.0
 11
11.76083234049497
 21
11.5314819334776
 31
0.0
  0
LINE
  5
916
330
84C
100
AcDbEntity
  8
0
  6
Continuous
 62
     7
100
AcDbLine
 10
12.01083238147315
 20
11.05000050242551
 30
0.0
 11
12.01083238147315
 21
10.55000042046913
 31
0.0
  0
LINE
  5
917
330
84C
100
AcDbEntity
  8
0
100
AcDbLine
 10
11.55892571531353
 20
9.050699830684152
 30
0.0
 11
11.05892571531353
 21
9.050699830684152
 31
0.0
  0
LINE
  5
918
330
84C
100
AcDbEntity
  8
0
  6
Continuous
 62
     7
100
AcDbLine
 10
12.80159928746638
 20
13.70000042456694
 30
0.0
 11
14.01098777450738
 21
13.70000042456694
 31
0.0
  0
LINE
  5
919
330
84C
100
AcDbEntity
  8
0
  6
Continuous
 62
     7
100
AcDbLine
 10
13.36083241649089
 20
11.55000035155126
 30
0.0
 11
12.80159928746638
 21
11.55000035155126
 31
0.0
  0
LINE
  5
91A
330
84C
100
AcDbEntity
  8
0
  6
Continuous
 62
     7
100
AcDbLine
 10
12.60080800302444
 20
10.70057968113133
 30
0.0
 11
12.46080786831794
 21
10.70057968113133
 31
0.0
  0
LINE
  5
91B
330
84C
100
AcDbEntity
  8
0
  6
Continuous
 62
     7
100
AcDbLine
 10
12.46080786831794
 20
10.70057968113133
 30
0.0
 11
12.46076130218921
 21
10.70057968113133
 31
0.0
  0
LINE
  5
91C
330
84C
100
AcDbEntity
  8
0
  6
Continuous
 62
     7
100
AcDbLine
 10
13.46080779940007
 20
10.70057968113133
 30
0.0
 11
13.36083241649089
 21
10.70057968113133
 31
0.0
  0
LINE
  5
91D
330
84C
100
AcDbEntity
  8
0
  6
Continuous
 62
     7
100
AcDbLine
 10
12.46076130218921
 20
10.70057968113133
 30
0.0
 11
12.16082095079241
 21
10.70057968113133
 31
0.0
  0
LINE
  5
91E
330
84C
100
AcDbEntity
  8
0
  6
Continuous
 62
     7
100
AcDbLine
 10
12.60078471996006
 20
10.70057968113133
 30
0.0
 11
12.60078471996006
 21
11.05000050242551
 31
0.0
  0
LINE
  5
91F
330
84C
100
AcDbEntity
  8
0
  6
Continuous
 62
     7
100
AcDbLine
 10
12.60081591926631
 20
10.55000042046913
 30
0.0
 11
12.52222579814611
 21
10.55000042046913
 31
0.0
  0
LINE
  5
920
330
84C
100
AcDbEntity
  8
0
  6
Continuous
 62
     7
100
AcDbLine
 10
12.60080800302444
 20
10.55000042046913
 30
0.0
 11
12.60080800302444
 21
10.70057968113133
 31
0.0
  0
LINE
  5
921
330
84C
100
AcDbEntity
  8
0
  6
Continuous
 62
     7
100
AcDbLine
 10
12.16082095079241
 20
11.05000050242551
 30
0.0
 11
12.16082095079241
 21
10.55000042046913
 31
0.0
  0
LINE
  5
922
330
84C
100
AcDbEntity
  8
0
  6
Continuous
 62
     7
100
AcDbLine
 10
14.26027628503857
 20
9.435000399523687
 30
0.0
 11
14.26027605220792
 21
7.395000378298846
 31
0.0
  0
LINE
  5
923
330
84C
100
AcDbEntity
  8
0
  6
Continuous
 62
     7
100
AcDbLine
 10
14.26027628503857
 20
8.165000420692649
 30
0.0
 11
14.30159928746638
 21
8.165000420692649
 31
0.0
  0
LINE
  5
924
330
84C
100
AcDbEntity
  8
0
  6
Continuous
 62
     7
100
AcDbLine
 10
14.26027628503857
 20
8.665000415337543
 30
0.0
 11
14.30159928746638
 21
8.665000415337543
 31
0.0
  0
LINE
  5
925
330
84C
100
AcDbEntity
  8
0
  6
Continuous
 62
     7
100
AcDbLine
 10
14.30159928746649
 20
4.355000280472721
 30
0.0
 11
14.0559876514983
 21
4.355000280472721
 31
0.0
  0
LINE
  5
926
330
84C
100
AcDbEntity
  8
0
  6
Continuous
 62
     7
100
AcDbLine
 10
14.30159928746649
 20
5.625000404822912
 30
0.0
 11
14.26027605220792
 21
5.625000404822912
 31
0.0
  0
LINE
  5
927
330
84C
100
AcDbEntity
  8
0
  6
Continuous
 62
     7
100
AcDbLine
 10
14.26027605220792
 20
6.125000486779297
 30
0.0
 11
14.30159928746638
 21
6.125000486779297
 31
0.0
  0
LINE
  5
928
330
84C
100
AcDbEntity
  8
0
  6
Continuous
 62
     7
100
AcDbLine
 10
14.26027605220792
 20
6.895000296342457
 30
0.0
 11
14.26027581937727
 21
4.855000362429108
 31
0.0
  0
LINE
  5
929
330
84C
100
AcDbEntity
  8
0
  6
Continuous
 62
     7
100
AcDbLine
 10
14.26027581937727
 20
3.574597132089817
 30
0.0
 11
14.26027581937727
 21
3.200000566127982
 31
0.0
  0
LINE
  5
92A
330
84C
100
AcDbEntity
  8
0
  6
Continuous
 62
     7
100
AcDbLine
 10
14.26027581937727
 20
4.355000280472721
 30
0.0
 11
14.26027581937727
 21
4.150712345424381
 31
0.0
  0
LINE
  5
92B
330
84C
100
AcDbEntity
  8
0
  6
Continuous
 62
     7
100
AcDbLine
 10
14.26027651786919
 20
10.70500043656238
 30
0.0
 11
14.30159928746616
 21
10.70500043656238
 31
0.0
  0
LINE
  5
92C
330
84C
100
AcDbEntity
  8
0
  6
Continuous
 62
     7
100
AcDbLine
 10
14.30159928746616
 20
11.20500051851877
 30
0.0
 11
14.26027651786919
 21
11.20500051851877
 31
0.0
  0
LINE
  5
92D
330
84C
100
AcDbEntity
  8
0
  6
Continuous
 62
     7
100
AcDbLine
 10
14.30159928746616
 20
13.24500045243212
 30
0.0
 11
14.26027675069986
 21
13.24500045243212
 31
0.0
  0
LINE
  5
92E
330
84C
100
AcDbEntity
  8
0
  6
Continuous
 62
     7
100
AcDbLine
 10
14.30159928746603
 20
13.7450005343885
 30
0.0
 11
14.26027675069986
 21
13.7450005343885
 31
0.0
  0
LINE
  5
92F
330
84C
100
AcDbEntity
  8
0
  6
Continuous
 62
     7
100
AcDbLine
 10
14.26027651786919
 20
11.97500032808193
 30
0.0
 11
14.26027628503857
 21
9.935000394168582
 31
0.0
  0
LINE
  5
930
330
84C
100
AcDbEntity
  8
0
  6
Continuous
 62
     7
100
AcDbLine
 10
14.26027675069986
 20
13.94928940075942
 30
0.0
 11
14.26027651786919
 21
12.47500041003831
 31
0.0
  0
LINE
  5
931
330
84C
100
AcDbEntity
  8
0
100
AcDbLine
 10
14.30159928746593
 20
18.10000062051721
 30
0.0
 11
0.000000310167934
 21
18.10000062051676
 31
0.0
  0
LINE
  5
932
330
84C
100
AcDbEntity
  8
0
  6
Continuous
 62
     7
100
AcDbLine
 10
14.30159928746603
 20
14.52540368277141
 30
0.0
 11
14.01109627358732
 21
14.52540368277141
 31
0.0
  0
LINE
  5
933
330
84C
100
AcDbEntity
  8
0
  6
Continuous
 62
     7
100
AcDbLine
 10
13.31109629854677
 20
14.90000024873324
 30
0.0
 11
14.30159928746603
 21
14.90000024873324
 31
0.0
  0
LINE
  5
934
330
84C
100
AcDbEntity
  8
0
  6
Continuous
 62
     7
100
AcDbLine
 10
14.30159928746593
 20
15.90375578813018
 30
0.0
 11
13.31098779946683
 21
16.30000019881435
 31
0.0
  0
LINE
  5
935
330
84C
100
AcDbEntity
  8
0
  6
Continuous
 62
     7
100
AcDbLine
 10
13.71073077343521
 20
16.34000050339408
 30
0.0
 11
14.30159928746593
 21
16.34000050339408
 31
0.0
  0
LINE
  5
936
330
84C
100
AcDbEntity
  8
0
  6
Continuous
 62
     7
100
AcDbLine
 10
13.71073077343521
 20
16.58000046822735
 30
0.0
 11
14.30159928746593
 21
16.58000046822735
 31
0.0
  0
LINE
  5
937
330
84C
100
AcDbEntity
  8
0
  6
Continuous
 62
     7
100
AcDbLine
 10
7.501615275667289
 20
15.26371663871714
 30
0.0
 11
5.351615202651601
 21
15.26371663871714
 31
0.0
  0
LINE
  5
938
330
84C
100
AcDbEntity
  8
0
  6
Continuous
 62
     7
100
AcDbLine
 10
5.351602164135556
 20
15.0676578699381
 30
0.0
 11
7.501602237151246
 21
15.0676578699381
 31
0.0
  0
LINE
  5
939
330
84C
100
AcDbEntity
  8
0
  6
Continuous
 62
     7
100
AcDbLine
 10
1.701614883766751
 20
16.4000004946024
 30
0.0
 11
12.60161499403533
 21
16.4000004946024
 31
0.0
  0
LINE
  5
93A
330
84C
100
AcDbEntity
  8
0
  6
Continuous
 62
     7
100
AcDbLine
 10
12.80159928746638
 20
16.60000062051722
 30
0.0
 11
1.501599391029458
 21
16.60000062051722
 31
0.0
  0
LINE
  5
93B
330
84C
100
AcDbEntity
  8
0
  6
Continuous
 62
     7
100
AcDbLine
 10
3.536772978530506
 20
16.8700208372206
 30
0.0
 11
2.346888248847105
 21
16.78000059414215
 31
0.0
  0
LINE
  5
93C
330
84C
100
AcDbEntity
  8
0
  6
Continuous
 62
     7
100
AcDbLine
 10
3.536772978530506
 20
16.67002117696709
 30
0.0
 11
2.611246024296856
 21
16.60000062051722
 31
0.0
  0
LINE
  5
93D
330
84C
100
AcDbEntity
  8
0
  6
Continuous
 62
     7
100
AcDbLine
 10
1.919974637256244
 20
16.78000059414215
 30
0.0
 11
1.919974637256244
 21
16.60000062051722
 31
0.0
  0
LINE
  5
93E
330
84C
100
AcDbEntity
  8
0
  6
Continuous
 62
     7
100
AcDbLine
 10
1.919974637256244
 20
16.78000059414215
 30
0.0
 11
2.346888248847105
 21
16.78000059414215
 31
0.0
  0
LINE
  5
93F
330
84C
100
AcDbEntity
  8
0
  6
Continuous
 62
     7
100
AcDbLine
 10
3.536772978530506
 20
16.8700208372206
 30
0.0
 11
3.536772978530506
 21
16.67002117696709
 31
0.0
  0
LINE
  5
940
330
84C
100
AcDbEntity
  8
0
  6
Continuous
 62
     7
100
AcDbLine
 10
4.060192097948172
 20
16.64626500073381
 30
0.0
 11
3.536772978530506
 21
16.67002117696709
 31
0.0
  0
LINE
  5
941
330
84C
100
AcDbEntity
  8
0
  6
Continuous
 62
     7
100
AcDbLine
 10
4.060192097948172
 20
16.84626466098733
 30
0.0
 11
3.536772978530506
 21
16.8700208372206
 31
0.0
  0
LINE
  5
942
330
84C
100
AcDbEntity
  8
0
  6
Continuous
 62
     7
100
AcDbLine
 10
5.351602164135556
 20
15.0676578699381
 30
0.0
 11
5.351555598006825
 21
14.94534448224612
 31
0.0
  0
LWPOLYLINE
  5
943
330
84C
100
AcDbEntity
  8
0
  6
Continuous
 62
     7
100
AcDbPolyline
 90
        9
 70
   128
 43
0.0
 10
5.271336128042321
 20
14.75226268607682
 10
5.27136499904213
 20
14.68863798740811
 10
5.271393870041947
 20
14.66117700997298
 10
5.271422741041758
 20
14.67014285239883
 10
5.271450680718999
 20
14.71545029867002
 10
5.271479551718811
 20
14.79666442114421
 10
5.271506560073476
 20
14.91300663414904
 10
5.271532637105565
 20
15.0633612132401
 10
5.271538225041011
 20
15.10000037464806
  0
LINE
  5
944
330
84C
100
AcDbEntity
  8
0
  6
Continuous
 62
     7
100
AcDbLine
 10
5.271336128042321
 20
14.50665755632826
 30
0.0
 11
5.271336128042321
 21
14.75226268607682
 31
0.0
  0
LINE
  5
945
330
84C
100
AcDbEntity
  8
0
  6
Continuous
 62
     7
100
AcDbLine
 10
5.271336128042321
 20
14.75226268607682
 30
0.0
 11
5.271465581880191
 21
14.75226268607682
 31
0.0
  0
LWPOLYLINE
  5
946
330
84C
100
AcDbEntity
  8
0
  6
Continuous
 62
     7
100
AcDbPolyline
 90
        5
 70
   128
 43
0.0
 10
5.271584791169741
 20
15.29496716770835
 10
5.271581997202018
 20
15.23924008447238
 10
5.271579203234296
 20
15.18188877466625
 10
5.271576409266572
 20
15.12958011094042
 10
5.271576409266572
 20
15.12848766956039
  0
LWPOLYLINE
  5
947
330
84C
100
AcDbEntity
  8
0
  6
Continuous
 62
     7
100
AcDbPolyline
 90
        3
 70
   128
 43
0.0
 10
5.271573615298846
 20
15.10000037464806
 10
5.271572683976273
 20
15.08314343604752
 10
5.2715680273634
 20
15.04331449482151
  0
LINE
  5
948
330
84C
100
AcDbEntity
  8
0
  6
Continuous
 62
     7
100
AcDbLine
 10
5.351615202651601
 20
15.26371663871714
 30
0.0
 11
5.351615202651601
 21
15.29496716770835
 31
0.0
  0
LINE
  5
949
330
84C
100
AcDbEntity
  8
0
  6
Continuous
 62
     7
100
AcDbLine
 10
5.351576087103467
 20
15.12848766956039
 30
0.0
 11
5.351576087103467
 21
15.10000037464806
 31
0.0
  0
LWPOLYLINE
  5
94A
330
84C
100
AcDbEntity
  8
0
  6
Continuous
 62
     7
100
AcDbPolyline
 90
        9
 70
   128
 43
0.0
 10
5.351602164135556
 20
15.0676578699381
 10
5.35160495810328
 20
15.07727656948873
 10
5.351607752071004
 20
15.09236446085878
 10
5.351609614716153
 20
15.11247963148661
 10
5.351611477361299
 20
15.1370320885212
 10
5.35161334000645
 20
15.16530052262851
 10
5.351614271329026
 20
15.19645652237841
 10
5.351615202651601
 20
15.22958599466392
 10
5.351615202651601
 20
15.26371663871714
  0
LINE
  5
94B
330
84C
100
AcDbEntity
  8
0
  6
Continuous
 62
     7
100
AcDbLine
 10
5.2715680273634
 20
15.04331449482151
 30
0.0
 11
5.351567705200293
 21
15.04331449482151
 31
0.0
  0
LINE
  5
94C
330
84C
100
AcDbEntity
  8
0
  6
Continuous
 62
     7
100
AcDbLine
 10
3.001614538059806
 20
15.02000023114987
 30
0.0
 11
4.671529931054691
 21
15.02000023114987
 31
0.0
  0
LINE
  5
94D
330
84C
100
AcDbEntity
  8
0
  6
Continuous
 62
     7
100
AcDbLine
 10
5.099416774736027
 20
15.10000037464806
 30
0.0
 11
3.001614538059806
 21
15.10000037464806
 31
0.0
  0
LINE
  5
94E
330
84C
100
AcDbEntity
  8
0
  6
Continuous
 62
     7
100
AcDbLine
 10
4.671529931054691
 20
15.02000023114987
 30
0.0
 11
4.671529931054691
 21
15.10000037464806
 31
0.0
  0
LINE
  5
94F
330
84C
100
AcDbEntity
  8
0
  6
Continuous
 62
     7
100
AcDbLine
 10
5.099416774736027
 20
15.29496716770835
 30
0.0
 11
5.099416774736027
 21
15.10000037464806
 31
0.0
  0
LINE
  5
950
330
84C
100
AcDbEntity
  8
0
  6
Continuous
 62
     7
100
AcDbLine
 10
5.351615202651601
 20
15.29496716770835
 30
0.0
 11
5.099416774736027
 21
15.29496716770835
 31
0.0
  0
LINE
  5
951
330
84C
100
AcDbEntity
  8
0
  6
Continuous
 62
     7
100
AcDbLine
 10
5.099416774736027
 20
15.10000037464806
 30
0.0
 11
5.351576087103467
 21
15.10000037464806
 31
0.0
  0
LWPOLYLINE
  5
952
330
84C
100
AcDbEntity
  8
0
  6
Continuous
 62
     7
100
AcDbPolyline
 90
       10
 70
   128
 43
0.0
 10
1.701614883766751
 20
16.4000004946024
 10
1.666884933636764
 20
16.4347299790711
 10
1.633210171983819
 20
16.46840427506274
 10
1.601613190994839
 20
16.50000032472917
 10
1.573054184244254
 20
16.52855793449589
 10
1.548400213049034
 20
16.55320911172339
 10
1.528401923404316
 20
16.57320553872295
 10
1.513666537628751
 20
16.58793906185334
 10
1.504640159235574
 20
16.59696218061753
 10
1.501599391029458
 20
16.60000062051722
  0
LINE
  5
953
330
84C
100
AcDbEntity
  8
0
  6
Continuous
 62
     7
100
AcDbLine
 10
1.501599391029458
 20
16.60000062051722
 30
0.0
 11
1.500000310168843
 21
16.60000062051722
 31
0.0
  0
LINE
  5
954
330
84C
100
AcDbEntity
  8
0
  6
Continuous
 62
     7
100
AcDbLine
 10
11.06131595470124
 20
18.10000062051721
 30
0.0
 11
11.06131595470124
 21
16.60000062051722
 31
0.0
  0
LINE
  5
955
330
84C
100
AcDbEntity
  8
0
  6
Continuous
 62
     7
100
AcDbLine
 10
11.06071525164065
 20
16.78000059414215
 30
0.0
 11
9.120715380684712
 21
16.78000059414215
 31
0.0
  0
LINE
  5
956
330
84C
100
AcDbEntity
  8
0
  6
Continuous
 62
     7
100
AcDbLine
 10
8.820692141578772
 20
16.78000059414215
 30
0.0
 11
8.820692141578772
 21
16.60000062051722
 31
0.0
  0
LINE
  5
957
330
84C
100
AcDbEntity
  8
0
  6
Continuous
 62
     7
100
AcDbLine
 10
9.120715380684712
 20
16.78000059414215
 30
0.0
 11
8.820692141578772
 21
16.78000059414215
 31
0.0
  0
LINE
  5
958
330
84C
100
AcDbEntity
  8
0
  6
Continuous
 62
     7
100
AcDbLine
 10
9.120715380684712
 20
16.60000062051722
 30
0.0
 11
9.120715380684712
 21
16.78000059414215
 31
0.0
  0
LINE
  5
959
330
84C
100
AcDbEntity
  8
0
  6
Continuous
 62
     7
100
AcDbLine
 10
12.6613160306972
 20
16.60000062051722
 30
0.0
 11
12.6613160306972
 21
18.10000062051721
 31
0.0
  0
LWPOLYLINE
  5
95A
330
84C
100
AcDbEntity
  8
0
  6
Continuous
 62
     7
100
AcDbPolyline
 90
        9
 70
   128
 43
0.0
 10
12.80159928746638
 20
16.60000062051722
 10
12.79775944449125
 20
16.59615751791307
 10
12.78638147659717
 20
16.58477629038998
 10
12.76790217407165
 20
16.56629419389673
 10
12.74303167037783
 20
16.54142182755776
 10
12.71272643379983
 20
16.51111426267333
 10
12.67815061755594
 20
16.47653704944556
 10
12.64063275329886
 20
16.43901825386591
 10
12.60161499403533
 20
16.4000004946024
  0
LINE
  5
95B
330
84C
100
AcDbEntity
  8
0
  6
Continuous
 62
     7
100
AcDbLine
 10
13.61069206059096
 20
16.58000046822735
 30
0.0
 11
13.61069206059096
 21
16.78000059414215
 31
0.0
  0
LINE
  5
95C
330
84C
100
AcDbEntity
  8
0
  6
Continuous
 62
     7
100
AcDbLine
 10
12.80159928746638
 20
16.58000046822735
 30
0.0
 11
13.71073077343521
 21
16.58000046822735
 31
0.0
  0
LINE
  5
95D
330
84C
100
AcDbEntity
  8
0
  6
Continuous
 62
     7
100
AcDbLine
 10
13.31071538761374
 20
16.58000046822735
 30
0.0
 11
13.31071538761374
 21
16.78000059414215
 31
0.0
  0
LINE
  5
95E
330
84C
100
AcDbEntity
  8
0
  6
Continuous
 62
     7
100
AcDbLine
 10
13.31071538761374
 20
16.78000059414215
 30
0.0
 11
12.6613160306972
 21
16.78000059414215
 31
0.0
  0
LINE
  5
95F
330
84C
100
AcDbEntity
  8
0
  6
Continuous
 62
     7
100
AcDbLine
 10
13.61069206059096
 20
16.78000059414215
 30
0.0
 11
13.31071538761374
 21
16.78000059414215
 31
0.0
  0
LWPOLYLINE
  5
960
330
84C
100
AcDbEntity
  8
0
  6
Continuous
 62
     7
100
AcDbPolyline
 90
        8
 70
   128
 43
0.0
 10
12.86109636448441
 20
14.90000024873324
 10
12.86109077654896
 20
15.20590339291401
 10
12.86108006633934
 20
15.48828645113417
 10
12.86106469951683
 20
15.73312463674255
 10
12.86104560740408
 20
15.92825720522114
 10
12.86102372132359
 20
16.06399281385846
 10
12.86099997259793
 20
16.13358868721434
 10
12.86098786540446
 20
16.14236966210909
  0
LWPOLYLINE
  5
961
330
84C
100
AcDbEntity
  8
0
  6
Continuous
 62
     7
100
AcDbPolyline
 90
        8
 70
   128
 43
0.0
 10
13.31109629854677
 20
14.90000024873324
 10
13.31109373740969
 20
15.21152951258724
 10
13.31108558833715
 20
15.50743770289727
 10
13.31107254982112
 20
15.7728860570819
 10
13.31105555318413
 20
15.99456457856603
 10
13.31103483125684
 20
16.16135700109905
 10
13.3110117810231
 20
16.26489958229965
 10
13.31098779946683
 20
16.30000019881435
  0
LWPOLYLINE
  5
962
330
84C
100
AcDbEntity
  8
0
  6
Continuous
 62
     7
100
AcDbPolyline
 90
       11
 70
   128
 43
0.0
 10
12.86109636448441
 20
14.90000024873324
 10
12.86109357051667
 20
15.21152951258724
 10
12.8610856542748
 20
15.50743770289727
 10
12.86107261575875
 20
15.7728860570819
 10
12.86105538629112
 20
15.99456457856603
 10
12.86103489719448
 20
16.16135700109905
 10
12.8610120797914
 20
16.26489958229965
 10
12.86098786540446
 20
16.30000019881435
 10
12.86096365101752
 20
16.26489958229965
 10
12.86094036795316
 20
16.16135700109905
 10
12.86093757398544
 20
16.14236966210909
  0
LINE
  5
963
330
84C
100
AcDbEntity
  8
0
  6
Continuous
 62
     7
100
AcDbLine
 10
14.01109627358732
 20
14.52540368277141
 30
0.0
 11
12.80159928746638
 21
14.52540368277141
 31
0.0
  0
LINE
  5
964
330
84C
100
AcDbEntity
  8
0
  6
Continuous
 62
     7
100
AcDbLine
 10
12.80159928746638
 20
14.90000024873324
 30
0.0
 11
12.86109636448441
 21
14.90000024873324
 31
0.0
  0
LINE
  5
965
330
84C
100
AcDbEntity
  8
0
  6
Continuous
 62
     7
100
AcDbLine
 10
12.86109636448441
 20
14.90000024873324
 30
0.0
 11
13.31109629854677
 21
14.90000024873324
 31
0.0
  0
LINE
  5
966
330
84C
100
AcDbEntity
  8
0
  6
Continuous
 62
     7
100
AcDbLine
 10
12.86098786540446
 20
16.14236966210909
 30
0.0
 11
12.80159928746638
 21
16.14236966210909
 31
0.0
  0
LINE
  5
967
330
84C
100
AcDbEntity
  8
0
  6
Continuous
 62
     7
100
AcDbLine
 10
13.31098779946683
 20
16.30000019881435
 30
0.0
 11
12.86098786540446
 21
16.30000019881435
 31
0.0
  0
LINE
  5
968
330
84C
100
AcDbEntity
  8
0
  6
Continuous
 62
     7
100
AcDbLine
 10
12.80159928746638
 20
16.34000050339408
 30
0.0
 11
13.71073077343521
 21
16.34000050339408
 31
0.0
  0
LINE
  5
969
330
84C
100
AcDbEntity
  8
0
  6
Continuous
 62
     7
100
AcDbLine
 10
13.71073077343521
 20
16.58000046822735
 30
0.0
 11
13.71073077343521
 21
16.34000050339408
 31
0.0
  0
LINE
  5
96A
330
84C
100
AcDbEntity
  8
0
  6
Continuous
 62
     7
100
AcDbLine
 10
7.841530320273022
 20
15.10000037464806
 30
0.0
 11
7.841530320273022
 21
15.02000023114987
 31
0.0
  0
LINE
  5
96B
330
84C
100
AcDbEntity
  8
0
  6
Continuous
 62
     7
100
AcDbLine
 10
7.840761047826387
 20
15.02000023114987
 30
0.0
 11
7.841530320273022
 21
15.02000023114987
 31
0.0
  0
LINE
  5
96C
330
84C
100
AcDbEntity
  8
0
  6
Continuous
 62
     7
100
AcDbLine
 10
7.753813703582864
 20
15.10000037464806
 30
0.0
 11
7.753813703582864
 21
15.29496716770835
 31
0.0
  0
LINE
  5
96D
330
84C
100
AcDbEntity
  8
0
  6
Continuous
 62
     7
100
AcDbLine
 10
7.753813703582864
 20
15.29496716770835
 30
0.0
 11
7.501615275667289
 21
15.29496716770835
 31
0.0
  0
LINE
  5
96E
330
84C
100
AcDbEntity
  8
0
  6
Continuous
 62
     7
100
AcDbLine
 10
7.501615275667289
 20
15.26371663871714
 30
0.0
 11
7.501615275667289
 21
15.29496716770835
 31
0.0
  0
LWPOLYLINE
  5
96F
330
84C
100
AcDbEntity
  8
0
  6
Continuous
 62
     7
100
AcDbPolyline
 90
        9
 70
   128
 43
0.0
 10
7.501602237151246
 20
15.0676578699381
 10
7.50160503111897
 20
15.07727656948873
 10
7.501607825086692
 20
15.09236446085878
 10
7.501609687731843
 20
15.11247963148661
 10
7.501611550376992
 20
15.1370320885212
 10
7.501613413022141
 20
15.16530052262851
 10
7.501614344344716
 20
15.19645652237841
 10
7.501614344344716
 20
15.22958599466392
 10
7.501615275667289
 20
15.26371663871714
  0
LINE
  5
970
330
84C
100
AcDbEntity
  8
0
  6
Continuous
 62
     7
100
AcDbLine
 10
7.75377458803473
 20
15.10000037464806
 30
0.0
 11
7.75377458803473
 21
15.29496716770835
 31
0.0
  0
LINE
  5
971
330
84C
100
AcDbEntity
  8
0
  6
Continuous
 62
     7
100
AcDbLine
 10
7.75377458803473
 20
15.10000037464806
 30
0.0
 11
7.753813703582864
 21
15.10000037464806
 31
0.0
  0
LINE
  5
972
330
84C
100
AcDbEntity
  8
0
  6
Continuous
 62
     7
100
AcDbLine
 10
7.501608756409266
 20
15.10000037464806
 30
0.0
 11
7.75377458803473
 21
15.10000037464806
 31
0.0
  0
LINE
  5
973
330
84C
100
AcDbEntity
  8
0
  6
Continuous
 62
     7
100
AcDbLine
 10
10.10161504991468
 20
15.10000037464806
 30
0.0
 11
7.753813703582864
 21
15.10000037464806
 31
0.0
  0
LINE
  5
974
330
84C
100
AcDbEntity
  8
0
  6
Continuous
 62
     7
100
AcDbLine
 10
7.841530320273022
 20
15.02000023114987
 30
0.0
 11
9.84153018243728
 21
15.02000023114987
 31
0.0
  0
LINE
  5
975
330
84C
100
AcDbEntity
  8
0
  6
Continuous
 62
     7
100
AcDbLine
 10
14.26027712916535
 20
18.10000062025346
 30
0.0
 11
14.2602769835305
 21
16.58000046822735
 31
0.0
  0
LINE
  5
976
330
84C
100
AcDbEntity
  8
0
  6
Continuous
 62
     7
100
AcDbLine
 10
14.2602769835305
 20
16.34000050339408
 30
0.0
 11
14.2602769835305
 21
15.92028461832114
 31
0.0
  0
LINE
  5
977
330
84C
100
AcDbEntity
  8
0
  6
Continuous
 62
     7
100
AcDbLine
 10
14.26027675069986
 20
14.90000024873324
 30
0.0
 11
14.26027675069986
 21
14.52540368277141
 31
0.0
  0
ENDBLK
  5
979
330
84C
100
AcDbEntity
  8
0
100
AcDbBlockEnd
  0
ENDSEC
  0
SECTION
  2
ENTITIES
  0
ARC
  5
E60
330
1F
100
AcDbEntity
  8
0
100
AcDbCircle
 10
57.14999943563942
 20
203.4738137935947
 30
0.0
 40
2.0
100
AcDbArc
 50
180.0
 51
284.9999999999943
  0
ARC
  5
E61
330
1F
100
AcDbEntity
  8
0
100
AcDbCircle
 10
18.19999943563846
 20
197.9738137935948
 30
0.0
 40
6.899999999996
100
AcDbArc
 50
0.0
 51
55.58261128952914
  0
ARC
  5
E62
330
1F
100
AcDbEntity
  8
0
100
AcDbCircle
 10
18.29999943563939
 20
197.9738137935948
 30
0.0
 40
6.699999999996
100
AcDbArc
 50
0.0
 51
56.47925960397116
  0
ARC
  5
E63
330
1F
100
AcDbEntity
  8
0
100
AcDbCircle
 10
18.29999943563939
 20
197.9738137935948
 30
0.0
 40
3.699999999995998
100
AcDbArc
 50
0.0
 51
79.0945300032578
  0
ARC
  5
E64
330
1F
100
AcDbEntity
  8
0
100
AcDbCircle
 10
18.29999943563939
 20
197.9738137935948
 30
0.0
 40
4.699999999995998
100
AcDbArc
 50
0.0
 51
68.79523363709399
  0
ARC
  5
E65
330
1F
100
AcDbEntity
  8
0
100
AcDbCircle
 10
18.29999943563939
 20
197.9738137935948
 30
0.0
 40
3.699999999995998
100
AcDbArc
 50
0.0
 51
79.0945300032578
  0
LINE
  5
E66
330
1F
100
AcDbEntity
  8
0
100
AcDbLine
 10
-0.0000005643605618
 20
363.5283103344277
 30
0.0
 11
-0.0000005643605618
 21
172.4193172527616
 31
0.0
  0
LINE
  5
E67
330
1F
100
AcDbEntity
  8
0
100
AcDbLine
 10
69.69999943563846
 20
352.7738137935949
 30
0.0
 11
69.69999943563846
 21
183.173813793595
 31
0.0
  0
LINE
  5
E68
330
1F
100
AcDbEntity
  8
0
100
AcDbLine
 10
71.99999943563944
 20
180.9738137935943
 30
0.0
 11
71.99999943563944
 21
354.9738137935948
 31
0.0
  0
LINE
  5
E69
330
1F
100
AcDbEntity
  8
0
100
AcDbLine
 10
69.99999943563944
 20
182.9738137935945
 30
0.0
 11
69.99999943563944
 21
352.9738137935948
 31
0.0
  0
LINE
  5
E6A
330
1F
100
AcDbEntity
  8
0
100
AcDbLine
 10
71.99999943563944
 20
363.9738137935946
 30
0.0
 11
71.99999943563944
 21
171.9738137935947
 31
0.0
  0
LINE
  5
E6B
330
1F
100
AcDbEntity
  8
0
100
AcDbLine
 10
28.09999943563946
 20
185.1738136342511
 30
0.0
 11
28.09999943563946
 21
271.4738136342508
 31
0.0
  0
LINE
  5
E6C
330
1F
100
AcDbEntity
  8
0
100
AcDbLine
 10
26.9999995575564
 20
271.4738136342508
 30
0.0
 11
26.9999995575564
 21
185.1738136342511
 31
0.0
  0
LINE
  5
E6D
330
1F
100
AcDbEntity
  8
0
100
AcDbLine
 10
28.09999943563843
 20
226.6138137935945
 30
0.0
 11
28.09999943563843
 21
185.9738137935947
 31
0.0
  0
LINE
  5
E6E
330
1F
100
AcDbEntity
  8
0
100
AcDbLine
 10
36.69999943563846
 20
185.9738137935947
 30
0.0
 11
36.69999943563846
 21
226.6138137935945
 31
0.0
  0
LINE
  5
E6F
330
1F
100
AcDbEntity
  8
0
100
AcDbLine
 10
37.59999955755643
 20
239.5738136342504
 30
0.0
 11
37.59999955755643
 21
185.1738136342511
 31
0.0
  0
LINE
  5
E70
330
1F
100
AcDbEntity
  8
0
100
AcDbLine
 10
63.09999943563923
 20
230.6738136342511
 30
0.0
 11
63.09999943563923
 21
185.1738136342511
 31
0.0
  0
LINE
  5
E71
330
1F
100
AcDbEntity
  8
0
100
AcDbLine
 10
52.59999955755643
 20
230.6738136342511
 30
0.0
 11
52.59999955755643
 21
185.1738136342511
 31
0.0
  0
LINE
  5
E72
330
1F
100
AcDbEntity
  8
0
100
AcDbLine
 10
63.99999955755743
 20
230.6738136342511
 30
0.0
 11
63.99999955755743
 21
185.1738136342511
 31
0.0
  0
LINE
  5
E73
330
1F
100
AcDbEntity
  8
0
100
AcDbLine
 10
62.79999943563939
 20
192.9738137935947
 30
0.0
 11
62.79999943563939
 21
230.173813793595
 31
0.0
  0
LINE
  5
E74
330
1F
100
AcDbEntity
  8
0
100
AcDbLine
 10
53.6999994356396
 20
229.173813793595
 30
0.0
 11
53.6999994356396
 21
193.9738137935948
 31
0.0
  0
INSERT
  5
E75
330
1F
100
AcDbEntity
  8
0
100
AcDbBlockReference
  2
A$C413B70EE
 10
165.39999960171
 20
164.4738114551095
 30
0.0
  0
LINE
  5
E76
330
1F
100
AcDbEntity
  8
0
100
AcDbLine
 10
50.56696506197932
 20
172.9738137935948
 30
0.0
 11
48.55277762179344
 21
172.9738137935948
 31
0.0
  0
ARC
  5
E77
330
1F
100
AcDbEntity
  8
0
100
AcDbCircle
 10
57.9999994356384
 20
173.9738137935948
 30
0.0
 40
9.5
100
AcDbArc
 50
186.0423284190444
 51
353.9576715809555
  0
LINE
  5
E78
330
1F
100
AcDbEntity
  8
0
100
AcDbLine
 10
67.49999943563842
 20
164.4738137935945
 30
0.0
 11
48.4999994356384
 21
164.4738137935945
 31
0.0
  0
LINE
  5
E79
330
1F
100
AcDbEntity
  8
0
100
AcDbLine
 10
25.09999943563434
 20
183.173813793595
 30
0.0
 11
69.69999943563846
 21
183.173813793595
 31
0.0
  0
LINE
  5
E7A
330
1F
100
AcDbEntity
  8
0
100
AcDbLine
 10
69.99999943563944
 20
182.9738137935945
 30
0.0
 11
24.99999943563432
 21
182.9738137935945
 31
0.0
  0
LINE
  5
E7B
330
1F
100
AcDbEntity
  8
0
100
AcDbLine
 10
19.99999943563841
 20
180.9738137935943
 30
0.0
 11
71.99999943563944
 21
180.9738137935943
 31
0.0
  0
INSERT
  5
E7C
330
1F
100
AcDbEntity
  8
0
100
AcDbBlockReference
  2
A$C7A762DB8
 10
0.0000031775051639
 20
0.0000024429660925
 30
0.0
  0
LINE
  5
E7D
330
1F
100
AcDbEntity
  8
1
100
AcDbLine
 10
35.49999943563943
 20
175.9738137935947
 30
0.0
 11
50.49999943563943
 21
175.9738137935947
 31
0.0
  0
CIRCLE
  5
E7E
330
1F
100
AcDbEntity
  8
0
100
AcDbCircle
 10
17.99999943563942
 20
195.9738137935947
 30
0.0
 40
1.6
  0
CIRCLE
  5
E7F
330
1F
100
AcDbEntity
  8
0
100
AcDbCircle
 10
17.99999943563942
 20
195.9738137935947
 30
0.0
 40
2.0
  0
CIRCLE
  5
E80
330
1F
100
AcDbEntity
  8
0
100
AcDbCircle
 10
17.99999943563942
 20
185.9738137935947
 30
0.0
 40
2.0
  0
CIRCLE
  5
E81
330
1F
100
AcDbEntity
  8
0
100
AcDbCircle
 10
17.99999943563942
 20
185.9738137935947
 30
0.0
 40
1.6
  0
LINE
  5
E82
330
1F
100
AcDbEntity
  8
0
100
AcDbLine
 10
17.99999943563942
 20
170.9738137935945
 30
0.0
 11
0.9738224873312899
 21
171.4196599277866
 31
0.0
  0
LINE
  5
E83
330
1F
100
AcDbEntity
  8
0
100
AcDbLine
 10
0.4869109614852505
 20
181.4324101548135
 30
0.0
 11
17.99999943563942
 21
180.9738137935943
 31
0.0
  0
ARC
  5
E84
330
1F
100
AcDbEntity
  8
0
100
AcDbCircle
 10
0.4999994356394384
 20
181.9322388173019
 30
0.0
 40
0.5
100
AcDbArc
 50
180.0
 51
268.4999999999971
  0
ARC
  5
E85
330
1F
100
AcDbEntity
  8
0
100
AcDbCircle
 10
0.9999994356394379
 20
172.4193172527616
 30
0.0
 40
1.0
100
AcDbArc
 50
180.0
 51
268.4999999999971
  0
LINE
  5
E86
330
1F
100
AcDbEntity
  8
0
100
AcDbLine
 10
48.4999994356384
 20
164.4738137935945
 30
0.0
 11
48.4999994356384
 21
180.9738137935943
 31
0.0
  0
LINE
  5
E87
330
1F
100
AcDbEntity
  8
1
100
AcDbLine
 10
42.99999943563954
 20
168.4738137935943
 30
0.0
 11
42.99999943563954
 21
183.4738137935947
 31
0.0
  0
CIRCLE
  5
E88
330
1F
100
AcDbEntity
  8
0
100
AcDbCircle
 10
32.09999943563843
 20
198.673813793595
 30
0.0
 40
2.0
  0
CIRCLE
  5
E89
330
1F
100
AcDbEntity
  8
0
100
AcDbCircle
 10
32.09999943563843
 20
198.673813793595
 30
0.0
 40
2.0
  0
CIRCLE
  5
E8A
330
1F
100
AcDbEntity
  8
0
100
AcDbCircle
 10
32.09999943563843
 20
193.5938137935945
 30
0.0
 40
2.0
  0
LINE
  5
E8B
330
1F
100
AcDbEntity
  8
0
100
AcDbLine
 10
28.09999943563843
 20
185.9738137935947
 30
0.0
 11
36.69999943563846
 21
185.9738137935947
 31
0.0
  0
LINE
  5
E8C
330
1F
100
AcDbEntity
  8
0
100
AcDbLine
 10
37.59999955755643
 20
185.1738136342511
 30
0.0
 11
26.9999995575564
 21
185.1738136342511
 31
0.0
  0
LINE
  5
E8D
330
1F
100
AcDbEntity
  8
0
100
AcDbLine
 10
17.99999943563942
 20
170.9738137935945
 30
0.0
 11
40.74999943563944
 21
170.9738137935945
 31
0.0
  0
LINE
  5
E8E
330
1F
100
AcDbEntity
  8
0
100
AcDbLine
 10
17.99999943563942
 20
170.9738137935945
 30
0.0
 11
40.89999943563941
 21
170.9738137935945
 31
0.0
  0
LINE
  5
E8F
330
1F
100
AcDbEntity
  8
0
100
AcDbLine
 10
25.09999943563525
 20
197.9738137935948
 30
0.0
 11
25.09999943563434
 21
183.173813793595
 31
0.0
  0
LINE
  5
E90
330
1F
100
AcDbEntity
  8
0
100
AcDbLine
 10
21.99999943563534
 20
197.9738137935948
 30
0.0
 11
21.99999943563432
 21
181.4738137935948
 31
0.0
  0
LINE
  5
E91
330
1F
100
AcDbEntity
  8
0
100
AcDbLine
 10
24.99999943563532
 20
197.9738137935948
 30
0.0
 11
24.99999943563432
 21
182.9738137935945
 31
0.0
  0
LINE
  5
E92
330
1F
100
AcDbEntity
  8
0
100
AcDbLine
 10
22.99999943563546
 20
197.9738137935948
 30
0.0
 11
22.99999943563432
 21
180.9738137935943
 31
0.0
  0
LINE
  5
E93
330
1F
100
AcDbEntity
  8
0
100
AcDbLine
 10
21.99999943563534
 20
197.9738137935948
 30
0.0
 11
21.99999943563432
 21
181.0785574798716
 31
0.0
  0
LINE
  5
E94
330
1F
100
AcDbEntity
  8
0
100
AcDbLine
 10
17.99999943563942
 20
180.9738137935943
 30
0.0
 11
21.99999943563534
 21
181.0785574798716
 31
0.0
  0
LINE
  5
E95
330
1F
100
AcDbEntity
  8
0
100
AcDbLine
 10
17.99999943563942
 20
180.9738137935943
 30
0.0
 11
21.99999943563432
 21
181.0785574798716
 31
0.0
  0
LINE
  5
E96
330
1F
100
AcDbEntity
  8
0
100
AcDbLine
 10
19.99999943563691
 20
181.0261856367324
 30
0.0
 11
19.99999943563841
 21
180.9738137935943
 31
0.0
  0
LINE
  5
E97
330
1F
100
AcDbEntity
  8
0
100
AcDbLine
 10
22.99999943563432
 20
181.4738137935948
 30
0.0
 11
21.99999943563432
 21
181.4738137935943
 31
0.0
  0
CIRCLE
  5
E98
330
1F
100
AcDbEntity
  8
0
100
AcDbCircle
 10
32.09999943563843
 20
188.8438137935946
 30
0.0
 40
1.5
  0
CIRCLE
  5
E99
330
1F
100
AcDbEntity
  8
0
100
AcDbCircle
 10
32.09999943563843
 20
188.8438137935946
 30
0.0
 40
1.0
  0
ARC
  5
E9A
330
1F
100
AcDbEntity
  8
0
100
AcDbCircle
 10
42.99999943563954
 20
175.9738137935947
 30
0.0
 40
2.1
100
AcDbArc
 50
0.0
 51
180.0
  0
ARC
  5
E9B
330
1F
100
AcDbEntity
  8
0
100
AcDbCircle
 10
42.99999943563954
 20
175.9738137935947
 30
0.0
 40
5.5
100
AcDbArc
 50
114.6199773286485
 51
180.0
  0
LINE
  5
E9C
330
1F
100
AcDbEntity
  8
0
100
AcDbLine
 10
37.49999943563944
 20
175.9738137935947
 30
0.0
 11
37.49999943563944
 21
170.9738137935945
 31
0.0
  0
LINE
  5
E9D
330
1F
100
AcDbEntity
  8
0
100
AcDbLine
 10
40.89999943563941
 20
175.9738137935947
 30
0.0
 11
40.89999943563941
 21
170.9738137935945
 31
0.0
  0
ARC
  5
E9E
330
1F
100
AcDbEntity
  8
0
100
AcDbCircle
 10
42.99999943563954
 20
175.9738137935947
 30
0.0
 40
5.5
100
AcDbArc
 50
0.0
 51
65.3800226713514
  0
LINE
  5
E9F
330
1F
100
AcDbEntity
  8
0
100
AcDbLine
 10
45.09999943563946
 20
170.9738137935945
 30
0.0
 11
48.4999994356384
 21
170.9738137935945
 31
0.0
  0
LINE
  5
EA0
330
1F
100
AcDbEntity
  8
0
100
AcDbLine
 10
45.09999943563946
 20
175.9738137935947
 30
0.0
 11
45.09999943563946
 21
170.9738137935945
 31
0.0
  0
LINE
  5
EA1
330
1F
100
AcDbEntity
  8
0
100
AcDbLine
 10
48.49999943563943
 20
175.9738137935947
 30
0.0
 11
48.49999943563943
 21
170.9738137935945
 31
0.0
  0
ARC
  5
EA2
330
1F
100
AcDbEntity
  8
0
100
AcDbCircle
 10
57.9999994356384
 20
173.9738137935948
 30
0.0
 40
7.5
100
AcDbArc
 50
180.0
 51
0.0
  0
LINE
  5
EA3
330
1F
100
AcDbEntity
  8
0
100
AcDbLine
 10
67.49999943563842
 20
164.4738137935945
 30
0.0
 11
67.49999943563842
 21
180.9738137935943
 31
0.0
  0
LINE
  5
EA4
330
1F
100
AcDbEntity
  8
0
100
AcDbLine
 10
67.44722124948443
 20
172.9738137935948
 30
0.0
 11
65.43303380929842
 21
172.9738137935948
 31
0.0
  0
LINE
  5
EA5
330
1F
100
AcDbEntity
  8
0
100
AcDbLine
 10
63.99999955755743
 20
185.1738136342511
 30
0.0
 11
52.59999955755643
 21
185.1738136342511
 31
0.0
  0
LINE
  5
EA6
330
1F
100
AcDbEntity
  8
0
100
AcDbLine
 10
50.49999943563829
 20
180.9738137935943
 30
0.0
 11
50.4999994356384
 21
173.9738137935948
 31
0.0
  0
LINE
  5
EA7
330
1F
100
AcDbEntity
  8
0
100
AcDbLine
 10
65.4999994356383
 20
180.9738137935943
 30
0.0
 11
65.49999943563841
 21
173.9738137935948
 31
0.0
  0
CIRCLE
  5
EA8
330
1F
100
AcDbEntity
  8
0
100
AcDbCircle
 10
58.29999943563928
 20
195.943813793595
 30
0.0
 40
1.399999999999999
  0
LINE
  5
EA9
330
1F
100
AcDbEntity
  8
0
100
AcDbLine
 10
55.14999943563942
 20
197.9738137935948
 30
0.0
 11
61.44999943563937
 21
197.9738137935948
 31
0.0
  0
LINE
  5
EAA
330
1F
100
AcDbEntity
  8
0
100
AcDbLine
 10
55.14999943563942
 20
198.4738137935947
 30
0.0
 11
61.44999943563937
 21
198.4738137935947
 31
0.0
  0
LINE
  5
EAB
330
1F
100
AcDbEntity
  8
0
100
AcDbLine
 10
55.14999943563942
 20
200.3738137935948
 30
0.0
 11
61.44999943563937
 21
200.3738137935948
 31
0.0
  0
LINE
  5
EAC
330
1F
100
AcDbEntity
  8
0
100
AcDbLine
 10
56.59999943563843
 20
185.9738137935947
 30
0.0
 11
63.09999943563844
 21
185.9738137935947
 31
0.0
  0
LINE
  5
EAD
330
1F
100
AcDbEntity
  8
0
100
AcDbLine
 10
53.6999994356396
 20
193.9738137935948
 30
0.0
 11
62.79999943563939
 21
193.9738137935948
 31
0.0
  0
LINE
  5
EAE
330
1F
100
AcDbEntity
  8
0
100
AcDbLine
 10
54.49999943563944
 20
192.9738137935947
 30
0.0
 11
62.79999943563939
 21
192.9738137935947
 31
0.0
  0
LINE
  5
EAF
330
1F
100
AcDbEntity
  8
0
100
AcDbLine
 10
63.09999943563844
 20
191.4738137935945
 30
0.0
 11
56.59999943563843
 21
191.4738137935945
 31
0.0
  0
ARC
  5
EB0
330
1F
100
AcDbEntity
  8
0
100
AcDbCircle
 10
54.49999943563944
 20
193.4738137935943
 30
0.0
 40
0.5
100
AcDbArc
 50
180.0
 51
270.0
  0
LINE
  5
EB1
330
1F
100
AcDbEntity
  8
0
100
AcDbLine
 10
56.59999943563843
 20
191.4738137935945
 30
0.0
 11
56.59999943563843
 21
185.9738137935947
 31
0.0
  0
LINE
  5
EB2
330
1F
100
AcDbEntity
  8
0
100
AcDbLine
 10
57.59999943563844
 20
185.9738137935947
 30
0.0
 11
57.59999943563844
 21
191.4738137935945
 31
0.0
  0
LINE
  5
EB3
330
1F
100
AcDbEntity
  8
0
100
AcDbLine
 10
56.59999943563843
 20
189.4738137935947
 30
0.0
 11
56.59999943563843
 21
187.9738137935945
 31
0.0
  0
LINE
  5
EB4
330
1F
100
AcDbEntity
  8
0
100
AcDbLine
 10
57.59999943563844
 20
187.9738137935945
 30
0.0
 11
57.59999943563844
 21
189.4738137935947
 31
0.0
  0
LINE
  5
EB5
330
1F
100
AcDbEntity
  8
0
100
AcDbLine
 10
56.59999943563843
 20
185.9738137935947
 30
0.0
 11
57.59999943563844
 21
185.9738137935947
 31
0.0
  0
LINE
  5
EB6
330
1F
100
AcDbEntity
  8
0
100
AcDbLine
 10
56.59999943563843
 20
187.9738137935945
 30
0.0
 11
57.59999943563844
 21
187.9738137935945
 31
0.0
  0
LINE
  5
EB7
330
1F
100
AcDbEntity
  8
0
100
AcDbLine
 10
57.59999943563844
 20
189.4738137935947
 30
0.0
 11
56.59999943563843
 21
189.4738137935947
 31
0.0
  0
LINE
  5
EB8
330
1F
100
AcDbEntity
  8
0
100
AcDbLine
 10
53.99999943563944
 20
193.9738137935948
 30
0.0
 11
53.99999943563944
 21
193.4738137935943
 31
0.0
  0
LINE
  5
EB9
330
1F
100
AcDbEntity
  8
0
100
AcDbLine
 10
55.14999943563942
 20
200.3738137935948
 30
0.0
 11
55.14999943563942
 21
197.9738137935948
 31
0.0
  0
LINE
  5
EBA
330
1F
100
AcDbEntity
  8
0
100
AcDbLine
 10
63.09999943563923
 20
200.3738137935948
 30
0.0
 11
63.09999943563923
 21
193.2738137935949
 31
0.0
  0
ARC
  5
EBB
330
1F
100
AcDbEntity
  8
0
100
AcDbCircle
 10
62.79999943563939
 20
193.2738137935949
 30
0.0
 40
0.3
100
AcDbArc
 50
270.0
 51
0.0
  0
CIRCLE
  5
EBC
330
1F
100
AcDbEntity
  8
0
100
AcDbCircle
 10
59.66999943563838
 20
187.4738137935947
 30
0.0
 40
0.32
  0
CIRCLE
  5
EBD
330
1F
100
AcDbEntity
  8
0
100
AcDbCircle
 10
59.66999943563838
 20
189.9738137935947
 30
0.0
 40
0.32
  0
LINE
  5
EBE
330
1F
100
AcDbEntity
  8
0
100
AcDbLine
 10
63.09999943563844
 20
185.9738137935947
 30
0.0
 11
63.09999943563844
 21
191.4738137935945
 31
0.0
  0
LINE
  5
EBF
330
1F
100
AcDbEntity
  8
0
100
AcDbLine
 10
62.79999943563939
 20
200.3738137935948
 30
0.0
 11
63.09999943563923
 21
200.3738137935948
 31
0.0
  0
LINE
  5
EC0
330
1F
100
AcDbEntity
  8
0
100
AcDbLine
 10
61.44999943563937
 20
197.9738137935948
 30
0.0
 11
61.44999943563937
 21
200.3738137935948
 31
0.0
  0
ARC
  5
EC1
330
1F
100
AcDbEntity
  8
0
100
AcDbCircle
 10
70.99999943563943
 20
171.9738137935947
 30
0.0
 40
1.0
100
AcDbArc
 50
270.0
 51
0.0
  0
LINE
  5
EC2
330
1F
100
AcDbEntity
  8
0
100
AcDbLine
 10
67.4999994356383
 20
170.9738137935945
 30
0.0
 11
70.99999943563943
 21
170.9738137935945
 31
0.0
  0
INSERT
  5
EC3
330
1F
100
AcDbEntity
  8
0
100
AcDbBlockReference
  2
A$C57E26210
 10
48.03868278378889
 20
282.9481504570236
 30
0.0
  0
LINE
  5
EC4
330
1F
100
AcDbEntity
  8
0
  6
Continuous
100
AcDbLine
 10
62.34028176108608
 20
301.0481508831968
 30
0.0
 11
48.03868278378809
 21
301.0481508831968
 31
0.0
  0
LINE
  5
EC5
330
1F
100
AcDbEntity
  8
0
  6
Continuous
100
AcDbLine
 10
62.34028176108688
 20
282.9481504570236
 30
0.0
 11
48.03868278378889
 21
282.9481504570236
 31
0.0
  0
LINE
  5
EC6
330
1F
100
AcDbEntity
  8
0
100
AcDbLine
 10
52.59999955755643
 20
263.0738136342506
 30
0.0
 11
49.19999955755635
 21
263.0738136342506
 31
0.0
  0
LINE
  5
EC7
330
1F
100
AcDbEntity
  8
0
100
AcDbLine
 10
63.09999943563923
 20
261.5738137935947
 30
0.0
 11
50.29999943563836
 21
261.5738137935947
 31
0.0
  0
LINE
  5
EC8
330
1F
100
AcDbEntity
  8
0
100
AcDbLine
 10
52.59999955755643
 20
247.0738136342506
 30
0.0
 11
49.19999955755635
 21
247.0738136342506
 31
0.0
  0
LINE
  5
EC9
330
1F
100
AcDbEntity
  8
0
100
AcDbLine
 10
63.09999943563923
 20
247.5738137935945
 30
0.0
 11
50.29999943563836
 21
247.5738137935945
 31
0.0
  0
LINE
  5
ECA
330
1F
100
AcDbEntity
  8
0
100
AcDbLine
 10
17.99999943563942
 20
364.9738137935948
 30
0.0
 11
70.99999943563943
 21
364.9738137935948
 31
0.0
  0
LINE
  5
ECB
330
1F
100
AcDbEntity
  8
0
100
AcDbLine
 10
69.69999943563846
 20
352.7738137935949
 30
0.0
 11
22.09999943563842
 21
352.7738137935949
 31
0.0
  0
LINE
  5
ECC
330
1F
100
AcDbEntity
  8
0
100
AcDbLine
 10
69.99999943563944
 20
352.9738137935948
 30
0.0
 11
21.99999943563943
 21
352.9738137935948
 31
0.0
  0
LINE
  5
ECD
330
1F
100
AcDbEntity
  8
0
100
AcDbLine
 10
19.99999943563942
 20
354.9738137935948
 30
0.0
 11
71.99999943563944
 21
354.9738137935948
 31
0.0
  0
LINE
  5
ECE
330
1F
100
AcDbEntity
  8
0
100
AcDbLine
 10
17.99999943563942
 20
364.9738137935948
 30
0.0
 11
70.99999943563943
 21
364.9738137935948
 31
0.0
  0
LINE
  5
ECF
330
1F
100
AcDbEntity
  8
1
100
AcDbLine
 10
35.49999943563943
 20
359.9738137935946
 30
0.0
 11
50.49999943563943
 21
359.9738137935946
 31
0.0
  0
LINE
  5
ED0
330
1F
100
AcDbEntity
  8
0
100
AcDbLine
 10
33.52450450664742
 20
328.6038137935948
 30
0.0
 11
33.52450450664742
 21
324.8638137935945
 31
0.0
  0
LINE
  5
ED1
330
1F
100
AcDbEntity
  8
0
100
AcDbLine
 10
37.29999943563928
 20
327.4038137935946
 30
0.0
 11
37.29999943563928
 21
328.6038137935948
 31
0.0
  0
LINE
  5
ED2
330
1F
100
AcDbEntity
  8
0
100
AcDbLine
 10
35.29999943563939
 20
327.4038137935946
 30
0.0
 11
35.29999943563939
 21
328.6038137935948
 31
0.0
  0
LINE
  5
ED3
330
1F
100
AcDbEntity
  8
0
100
AcDbLine
 10
28.09999943563957
 20
306.0738136342506
 30
0.0
 11
28.09999943563946
 21
339.0738136342506
 31
0.0
  0
LINE
  5
ED4
330
1F
100
AcDbEntity
  8
0
100
AcDbLine
 10
26.9999995575564
 20
339.0738136342506
 30
0.0
 11
26.9999995575564
 21
306.0738136342506
 31
0.0
  0
LINE
  5
ED5
330
1F
100
AcDbEntity
  8
0
100
AcDbLine
 10
28.09999943563946
 20
323.4138137935948
 30
0.0
 11
28.09999943563946
 21
330.0538137935947
 31
0.0
  0
LINE
  5
ED6
330
1F
100
AcDbEntity
  8
0
100
AcDbLine
 10
38.29999943563939
 20
323.4138137935948
 30
0.0
 11
38.29999943563939
 21
330.0538137935947
 31
0.0
  0
LINE
  5
ED7
330
1F
100
AcDbEntity
  8
0
100
AcDbLine
 10
39.89999955755638
 20
331.0738136342506
 30
0.0
 11
39.89999955755638
 21
322.8738136342509
 31
0.0
  0
LINE
  5
ED8
330
1F
100
AcDbEntity
  8
0
100
AcDbLine
 10
22.09999943563842
 20
352.7738137935949
 30
0.0
 11
22.09999943563842
 21
203.6659135818937
 31
0.0
  0
LINE
  5
ED9
330
1F
100
AcDbEntity
  8
0
100
AcDbLine
 10
18.99999943563942
 20
201.6069942185086
 30
0.0
 11
18.99999943563942
 21
354.4738137935946
 31
0.0
  0
LINE
  5
EDA
330
1F
100
AcDbEntity
  8
0
100
AcDbLine
 10
21.99999943563943
 20
352.9738137935948
 30
0.0
 11
21.99999943563839
 21
203.559509811099
 31
0.0
  0
LINE
  5
EDB
330
1F
100
AcDbEntity
  8
0
100
AcDbLine
 10
19.99999943563942
 20
354.9738137935948
 30
0.0
 11
19.99999943563841
 21
202.3555942536328
 31
0.0
  0
LINE
  5
EDC
330
1F
100
AcDbEntity
  8
0
100
AcDbLine
 10
18.99999943563942
 20
201.6069942185072
 30
0.0
 11
18.99999943563942
 21
354.9476278720259
 31
0.0
  0
LINE
  5
EDD
330
1F
100
AcDbEntity
  8
0
100
AcDbLine
 10
37.59999955755643
 20
271.4738136342508
 30
0.0
 11
37.59999955755643
 21
260.1738136342508
 31
0.0
  0
LINE
  5
EDE
330
1F
100
AcDbEntity
  8
0
100
AcDbLine
 10
28.09999943563843
 20
270.4738137935947
 30
0.0
 11
28.09999943563843
 21
229.6138137935946
 31
0.0
  0
LINE
  5
EDF
330
1F
100
AcDbEntity
  8
0
100
AcDbLine
 10
36.59999943563843
 20
234.6138137935946
 30
0.0
 11
36.59999943563843
 21
265.1138137935946
 31
0.0
  0
LINE
  5
EE0
330
1F
100
AcDbEntity
  8
0
100
AcDbLine
 10
15.14999943563941
 20
203.6738137935949
 30
0.0
 11
17.84999943563946
 21
203.6738137935949
 31
0.0
  0
CIRCLE
  5
EE1
330
1F
100
AcDbEntity
  8
0
100
AcDbCircle
 10
16.49999943563942
 20
203.9738137935946
 30
0.0
 40
1.85
  0
CIRCLE
  5
EE2
330
1F
100
AcDbEntity
  8
0
100
AcDbCircle
 10
16.49999943563942
 20
203.9738137935946
 30
0.0
 40
2.149999999999999
  0
ARC
  5
EE3
330
1F
100
AcDbEntity
  8
0
100
AcDbCircle
 10
17.04999943563848
 20
202.5238137935948
 30
0.0
 40
0.15
100
AcDbArc
 50
270.0
 51
90.0
  0
LINE
  5
EE4
330
1F
100
AcDbEntity
  8
0
100
AcDbLine
 10
15.54999943563939
 20
203.0238137935948
 30
0.0
 11
17.44999943563846
 21
203.0238137935948
 31
0.0
  0
LINE
  5
EE5
330
1F
100
AcDbEntity
  8
0
100
AcDbLine
 10
15.54999943563939
 20
203.3238137935945
 30
0.0
 11
17.44999943563846
 21
203.3238137935945
 31
0.0
  0
LINE
  5
EE6
330
1F
100
AcDbEntity
  8
0
100
AcDbLine
 10
16.64999943563827
 20
203.9738137935946
 30
0.0
 11
17.84999943563946
 21
203.9738137935946
 31
0.0
  0
LINE
  5
EE7
330
1F
100
AcDbEntity
  8
0
100
AcDbLine
 10
15.14999943563941
 20
203.9738137935946
 30
0.0
 11
16.34999943563923
 21
203.9738137935946
 31
0.0
  0
ARC
  5
EE8
330
1F
100
AcDbEntity
  8
0
100
AcDbCircle
 10
15.14999943563941
 20
203.8238137935945
 30
0.0
 40
0.15
100
AcDbArc
 50
90.0
 51
270.0
  0
ARC
  5
EE9
330
1F
100
AcDbEntity
  8
0
100
AcDbCircle
 10
15.54999943563939
 20
203.173813793595
 30
0.0
 40
0.15
100
AcDbArc
 50
90.0
 51
270.0
  0
ARC
  5
EEA
330
1F
100
AcDbEntity
  8
0
100
AcDbCircle
 10
15.94999943563935
 20
202.5238137935948
 30
0.0
 40
0.15
100
AcDbArc
 50
90.0
 51
270.0
  0
LINE
  5
EEB
330
1F
100
AcDbEntity
  8
0
100
AcDbLine
 10
15.94999943563935
 20
202.3738137935948
 30
0.0
 11
17.04999943563848
 21
202.3738137935948
 31
0.0
  0
LINE
  5
EEC
330
1F
100
AcDbEntity
  8
0
100
AcDbLine
 10
15.94999943563935
 20
202.673813793595
 30
0.0
 11
17.04999943563848
 21
202.673813793595
 31
0.0
  0
ARC
  5
EED
330
1F
100
AcDbEntity
  8
0
100
AcDbCircle
 10
16.49999943563942
 20
205.3238137935947
 30
0.0
 40
0.15
100
AcDbArc
 50
0.0
 51
180.0
  0
LINE
  5
EEE
330
1F
100
AcDbEntity
  8
0
100
AcDbLine
 10
16.64999943563827
 20
203.9738137935946
 30
0.0
 11
16.64999943563827
 21
205.3238137935947
 31
0.0
  0
LINE
  5
EEF
330
1F
100
AcDbEntity
  8
0
100
AcDbLine
 10
16.34999943563923
 20
203.9738137935946
 30
0.0
 11
16.34999943563923
 21
205.3238137935947
 31
0.0
  0
CIRCLE
  5
EF0
330
1F
100
AcDbEntity
  8
0
100
AcDbCircle
 10
32.06361337523526
 20
232.5138137935947
 30
0.0
 40
2.0
  0
CIRCLE
  5
EF1
330
1F
100
AcDbEntity
  8
0
100
AcDbCircle
 10
32.06361337523526
 20
232.5138137935947
 30
0.0
 40
0.9
  0
LINE
  5
EF2
330
1F
100
AcDbEntity
  8
0
100
AcDbLine
 10
35.09999943563844
 20
229.6138137935946
 30
0.0
 11
35.09999943563844
 21
234.8538137935948
 31
0.0
  0
LINE
  5
EF3
330
1F
100
AcDbEntity
  8
0
100
AcDbLine
 10
35.09999943563844
 20
229.6138137935946
 30
0.0
 11
35.09999943563844
 21
234.6138137935946
 31
0.0
  0
LINE
  5
EF4
330
1F
100
AcDbEntity
  8
0
100
AcDbLine
 10
28.09999943563843
 20
234.8538137935948
 30
0.0
 11
28.09999943563843
 21
229.6138137935946
 31
0.0
  0
CIRCLE
  5
EF5
330
1F
100
AcDbEntity
  8
0
100
AcDbCircle
 10
32.09999943563843
 20
218.993813793596
 30
0.0
 40
2.0
  0
CIRCLE
  5
EF6
330
1F
100
AcDbEntity
  8
0
100
AcDbCircle
 10
32.09999943563843
 20
213.9138137935947
 30
0.0
 40
2.0
  0
CIRCLE
  5
EF7
330
1F
100
AcDbEntity
  8
0
100
AcDbCircle
 10
32.09999943563843
 20
213.9138137935947
 30
0.0
 40
2.0
  0
LINE
  5
EF8
330
1F
100
AcDbEntity
  8
0
100
AcDbLine
 10
36.69999943563846
 20
226.6138137935945
 30
0.0
 11
28.09999943563843
 21
226.6138137935945
 31
0.0
  0
LINE
  5
EF9
330
1F
100
AcDbEntity
  8
0
100
AcDbLine
 10
28.09999943563843
 20
229.6138137935946
 30
0.0
 11
35.09999943563844
 21
229.6138137935946
 31
0.0
  0
LINE
  5
EFA
330
1F
100
AcDbEntity
  8
0
100
AcDbLine
 10
28.09999943563843
 20
229.6138137935946
 30
0.0
 11
35.09999943563844
 21
229.6138137935946
 31
0.0
  0
CIRCLE
  5
EFB
330
1F
100
AcDbEntity
  8
0
100
AcDbCircle
 10
32.09999943563843
 20
208.8338137935948
 30
0.0
 40
2.0
  0
CIRCLE
  5
EFC
330
1F
100
AcDbEntity
  8
0
100
AcDbCircle
 10
32.09999943563843
 20
203.7538137935959
 30
0.0
 40
2.0
  0
CIRCLE
  5
EFD
330
1F
100
AcDbEntity
  8
0
100
AcDbCircle
 10
32.09999943563843
 20
203.7538137935959
 30
0.0
 40
2.0
  0
ARC
  5
EFE
330
1F
100
AcDbEntity
  8
0
100
AcDbCircle
 10
17.44999943563846
 20
203.173813793595
 30
0.0
 40
0.15
100
AcDbArc
 50
270.0
 51
90.0
  0
ARC
  5
EFF
330
1F
100
AcDbEntity
  8
0
100
AcDbCircle
 10
17.84999943563946
 20
203.8238137935945
 30
0.0
 40
0.15
100
AcDbArc
 50
270.0
 51
90.0
  0
CIRCLE
  5
F00
330
1F
100
AcDbEntity
  8
0
100
AcDbCircle
 10
32.09999943563843
 20
223.743813793596
 30
0.0
 40
1.5
  0
CIRCLE
  5
F01
330
1F
100
AcDbEntity
  8
0
100
AcDbCircle
 10
32.09999943563843
 20
223.743813793596
 30
0.0
 40
1.0
  0
LINE
  5
F02
330
1F
100
AcDbEntity
  8
0
100
AcDbLine
 10
35.09999943563844
 20
264.1138137935945
 30
0.0
 11
30.09999943563844
 21
264.1138137935945
 31
0.0
  0
LINE
  5
F03
330
1F
100
AcDbEntity
  8
0
100
AcDbLine
 10
30.09999943563844
 20
235.6138137935946
 30
0.0
 11
35.09999943563844
 21
235.6138137935946
 31
0.0
  0
LINE
  5
F04
330
1F
100
AcDbEntity
  8
0
100
AcDbLine
 10
30.09999943563844
 20
251.7538137935948
 30
0.0
 11
30.09999943563844
 21
248.3338137935944
 31
0.0
  0
LINE
  5
F05
330
1F
100
AcDbEntity
  8
0
100
AcDbLine
 10
30.09999943563844
 20
244.1338137935945
 30
0.0
 11
30.09999943563844
 21
240.713813793595
 31
0.0
  0
ARC
  5
F06
330
1F
100
AcDbEntity
  8
0
100
AcDbCircle
 10
32.09999943563843
 20
238.6138137935946
 30
0.0
 40
2.9
100
AcDbArc
 50
133.6028189727071
 51
226.3971810272925
  0
CIRCLE
  5
F07
330
1F
100
AcDbEntity
  8
0
100
AcDbCircle
 10
32.09999943563843
 20
238.6138137935946
 30
0.0
 40
1.5
  0
CIRCLE
  5
F08
330
1F
100
AcDbEntity
  8
0
100
AcDbCircle
 10
32.09999943563843
 20
238.6138137935946
 30
0.0
 40
0.75
  0
LINE
  5
F09
330
1F
100
AcDbEntity
  8
0
100
AcDbLine
 10
30.09999943563844
 20
236.5138137935947
 30
0.0
 11
30.09999943563844
 21
235.6138137935946
 31
0.0
  0
ARC
  5
F0A
330
1F
100
AcDbEntity
  8
0
100
AcDbCircle
 10
32.09999943563843
 20
246.233813793595
 30
0.0
 40
2.9
100
AcDbArc
 50
133.6028189727071
 51
226.3971810272925
  0
CIRCLE
  5
F0B
330
1F
100
AcDbEntity
  8
0
100
AcDbCircle
 10
32.09999943563843
 20
246.233813793595
 30
0.0
 40
1.5
  0
CIRCLE
  5
F0C
330
1F
100
AcDbEntity
  8
0
100
AcDbCircle
 10
32.09999943563843
 20
246.233813793595
 30
0.0
 40
0.75
  0
LINE
  5
F0D
330
1F
100
AcDbEntity
  8
0
100
AcDbLine
 10
30.09999943563844
 20
259.3738137935948
 30
0.0
 11
30.09999943563844
 21
255.9538137935948
 31
0.0
  0
ARC
  5
F0E
330
1F
100
AcDbEntity
  8
0
100
AcDbCircle
 10
32.09999943563843
 20
253.8538137935947
 30
0.0
 40
2.9
100
AcDbArc
 50
133.6028189727071
 51
226.3971810272925
  0
CIRCLE
  5
F0F
330
1F
100
AcDbEntity
  8
0
100
AcDbCircle
 10
32.09999943563843
 20
253.8538137935947
 30
0.0
 40
1.5
  0
CIRCLE
  5
F10
330
1F
100
AcDbEntity
  8
0
100
AcDbCircle
 10
32.09999943563843
 20
253.8538137935947
 30
0.0
 40
0.75
  0
ARC
  5
F11
330
1F
100
AcDbEntity
  8
0
100
AcDbCircle
 10
32.09999943563843
 20
261.4738137935948
 30
0.0
 40
2.9
100
AcDbArc
 50
133.6028189727071
 51
226.3971810272925
  0
CIRCLE
  5
F12
330
1F
100
AcDbEntity
  8
0
100
AcDbCircle
 10
32.09999943563843
 20
261.4738137935948
 30
0.0
 40
1.5
  0
CIRCLE
  5
F13
330
1F
100
AcDbEntity
  8
0
100
AcDbCircle
 10
32.09999943563843
 20
261.4738137935948
 30
0.0
 40
0.75
  0
LINE
  5
F14
330
1F
100
AcDbEntity
  8
0
100
AcDbLine
 10
30.09999943563844
 20
264.1138137935945
 30
0.0
 11
30.09999943563844
 21
263.5738137935947
 31
0.0
  0
LINE
  5
F15
330
1F
100
AcDbEntity
  8
0
100
AcDbLine
 10
50.29999943563836
 20
247.5738137935945
 30
0.0
 11
50.29999943563836
 21
261.5738137935947
 31
0.0
  0
LINE
  5
F16
330
1F
100
AcDbEntity
  8
0
100
AcDbLine
 10
49.19999955755635
 20
263.0738136342506
 30
0.0
 11
49.19999955755635
 21
247.0738136342506
 31
0.0
  0
LINE
  5
F17
330
1F
100
AcDbEntity
  8
0
100
AcDbLine
 10
37.59999955755643
 20
256.5738136342506
 30
0.0
 11
37.59999955755643
 21
243.1738136342511
 31
0.0
  0
LINE
  5
F18
330
1F
100
AcDbEntity
  8
0
100
AcDbLine
 10
35.09999943563844
 20
252.5438137935949
 30
0.0
 11
35.09999943563844
 21
247.5438137935948
 31
0.0
  0
LINE
  5
F19
330
1F
100
AcDbEntity
  8
0
100
AcDbLine
 10
39.19999955755633
 20
243.1738136342511
 30
0.0
 11
39.19999955755633
 21
239.5738136342504
 31
0.0
  0
LINE
  5
F1A
330
1F
100
AcDbEntity
  8
0
100
AcDbLine
 10
38.29999943563836
 20
242.1638137935948
 30
0.0
 11
38.29999943563836
 21
240.5638137935949
 31
0.0
  0
LINE
  5
F1B
330
1F
100
AcDbEntity
  8
0
100
AcDbLine
 10
35.09999943563844
 20
244.923813793595
 30
0.0
 11
35.09999943563844
 21
239.923813793595
 31
0.0
  0
LINE
  5
F1C
330
1F
100
AcDbEntity
  8
0
100
AcDbLine
 10
37.59999955755643
 20
239.5738136342504
 30
0.0
 11
39.19999955755633
 21
239.5738136342504
 31
0.0
  0
LINE
  5
F1D
330
1F
100
AcDbEntity
  8
0
100
AcDbLine
 10
38.29999943563836
 20
240.5638137935949
 30
0.0
 11
36.59999943563843
 21
240.5638137935949
 31
0.0
  0
LINE
  5
F1E
330
1F
100
AcDbEntity
  8
0
100
AcDbLine
 10
34.29999943563837
 20
239.923813793595
 30
0.0
 11
34.29999943563837
 21
237.3038137935947
 31
0.0
  0
LINE
  5
F1F
330
1F
100
AcDbEntity
  8
0
100
AcDbLine
 10
35.09999943563844
 20
237.3038137935947
 30
0.0
 11
35.09999943563844
 21
235.6138137935946
 31
0.0
  0
LINE
  5
F20
330
1F
100
AcDbEntity
  8
0
100
AcDbLine
 10
34.29999943563837
 20
237.3038137935947
 30
0.0
 11
35.09999943563844
 21
237.3038137935947
 31
0.0
  0
LINE
  5
F21
330
1F
100
AcDbEntity
  8
0
100
AcDbLine
 10
35.09999943563844
 20
234.6138137935946
 30
0.0
 11
36.59999943563843
 21
234.6138137935946
 31
0.0
  0
LINE
  5
F22
330
1F
100
AcDbEntity
  8
0
100
AcDbLine
 10
34.29999943563837
 20
239.923813793595
 30
0.0
 11
35.09999943563844
 21
239.923813793595
 31
0.0
  0
LINE
  5
F23
330
1F
100
AcDbEntity
  8
0
100
AcDbLine
 10
36.59999943563843
 20
242.1638137935948
 30
0.0
 11
38.29999943563836
 21
242.1638137935948
 31
0.0
  0
LINE
  5
F24
330
1F
100
AcDbEntity
  8
0
100
AcDbLine
 10
37.59999955755643
 20
243.1738136342511
 30
0.0
 11
39.19999955755633
 21
243.1738136342511
 31
0.0
  0
LINE
  5
F25
330
1F
100
AcDbEntity
  8
0
100
AcDbLine
 10
34.29999943563837
 20
247.5438137935948
 30
0.0
 11
34.29999943563837
 21
244.923813793595
 31
0.0
  0
LINE
  5
F26
330
1F
100
AcDbEntity
  8
0
100
AcDbLine
 10
34.29999943563837
 20
244.923813793595
 30
0.0
 11
35.09999943563844
 21
244.923813793595
 31
0.0
  0
LINE
  5
F27
330
1F
100
AcDbEntity
  8
0
100
AcDbLine
 10
34.29999943563837
 20
247.5438137935948
 30
0.0
 11
35.09999943563844
 21
247.5438137935948
 31
0.0
  0
LINE
  5
F28
330
1F
100
AcDbEntity
  8
0
100
AcDbLine
 10
35.09999943563844
 20
260.1638137935948
 30
0.0
 11
35.09999943563844
 21
255.1638137935948
 31
0.0
  0
LINE
  5
F29
330
1F
100
AcDbEntity
  8
0
100
AcDbLine
 10
34.29999943563837
 20
255.1638137935948
 30
0.0
 11
34.29999943563837
 21
252.5438137935949
 31
0.0
  0
LINE
  5
F2A
330
1F
100
AcDbEntity
  8
0
100
AcDbLine
 10
34.29999943563837
 20
252.5438137935949
 30
0.0
 11
35.09999943563844
 21
252.5438137935949
 31
0.0
  0
LINE
  5
F2B
330
1F
100
AcDbEntity
  8
0
100
AcDbLine
 10
34.29999943563837
 20
255.1638137935948
 30
0.0
 11
35.09999943563844
 21
255.1638137935948
 31
0.0
  0
LINE
  5
F2C
330
1F
100
AcDbEntity
  8
0
100
AcDbLine
 10
38.29999943563836
 20
257.5638137935948
 30
0.0
 11
36.59999943563843
 21
257.5638137935948
 31
0.0
  0
LINE
  5
F2D
330
1F
100
AcDbEntity
  8
0
100
AcDbLine
 10
37.59999955755643
 20
256.5738136342506
 30
0.0
 11
39.19999955755633
 21
256.5738136342506
 31
0.0
  0
LINE
  5
F2E
330
1F
100
AcDbEntity
  8
0
100
AcDbLine
 10
38.29999943563836
 20
259.1638137935948
 30
0.0
 11
36.59999943563843
 21
259.1638137935948
 31
0.0
  0
LINE
  5
F2F
330
1F
100
AcDbEntity
  8
0
100
AcDbLine
 10
37.59999955755643
 20
260.1738136342508
 30
0.0
 11
39.19999955755633
 21
260.1738136342508
 31
0.0
  0
LINE
  5
F30
330
1F
100
AcDbEntity
  8
0
100
AcDbLine
 10
35.09999943563844
 20
264.1138137935945
 30
0.0
 11
35.09999943563844
 21
262.7838137935947
 31
0.0
  0
LINE
  5
F31
330
1F
100
AcDbEntity
  8
0
100
AcDbLine
 10
34.29999943563837
 20
262.7838137935947
 30
0.0
 11
34.29999943563837
 21
260.1638137935948
 31
0.0
  0
LINE
  5
F32
330
1F
100
AcDbEntity
  8
0
100
AcDbLine
 10
34.29999943563837
 20
260.1638137935948
 30
0.0
 11
35.09999943563844
 21
260.1638137935948
 31
0.0
  0
LINE
  5
F33
330
1F
100
AcDbEntity
  8
0
100
AcDbLine
 10
34.29999943563837
 20
262.7838137935947
 30
0.0
 11
35.09999943563844
 21
262.7838137935947
 31
0.0
  0
LINE
  5
F34
330
1F
100
AcDbEntity
  8
0
100
AcDbLine
 10
38.29999943563836
 20
259.1638137935948
 30
0.0
 11
38.29999943563836
 21
257.5638137935948
 31
0.0
  0
LINE
  5
F35
330
1F
100
AcDbEntity
  8
0
100
AcDbLine
 10
39.19999955755633
 20
260.1738136342508
 30
0.0
 11
39.19999955755633
 21
256.5738136342506
 31
0.0
  0
LINE
  5
F36
330
1F
100
AcDbEntity
  8
0
  6
Continuous
100
AcDbLine
 10
48.03868278378809
 20
301.0481508831968
 30
0.0
 11
48.03868278378889
 21
282.9481504570236
 31
0.0
  0
LINE
  5
F37
330
1F
100
AcDbEntity
  8
0
100
AcDbLine
 10
28.09999943563946
 20
275.9738136342507
 30
0.0
 11
28.09999943563946
 21
302.1738136342511
 31
0.0
  0
LINE
  5
F38
330
1F
100
AcDbEntity
  8
0
100
AcDbLine
 10
26.9999995575564
 20
302.1738136342511
 30
0.0
 11
26.9999995575564
 21
275.9738136342507
 31
0.0
  0
LINE
  5
F39
330
1F
100
AcDbEntity
  8
0
100
AcDbLine
 10
29.59999943563842
 20
301.1338137935946
 30
0.0
 11
29.59999943563842
 21
276.9738137935947
 31
0.0
  0
LINE
  5
F3A
330
1F
100
AcDbEntity
  8
0
100
AcDbLine
 10
37.58499943563845
 20
301.1338137935946
 30
0.0
 11
37.58499943563845
 21
276.9738137935947
 31
0.0
  0
LINE
  5
F3B
330
1F
100
AcDbEntity
  8
0
100
AcDbLine
 10
30.59999943563842
 20
301.1338137935946
 30
0.0
 11
30.59999943563842
 21
276.9738137935947
 31
0.0
  0
LINE
  5
F3C
330
1F
100
AcDbEntity
  8
0
100
AcDbLine
 10
39.39999955755638
 20
302.1738136342511
 30
0.0
 11
39.39999955755638
 21
275.9738136342507
 31
0.0
  0
LINE
  5
F3D
330
1F
100
AcDbEntity
  8
0
100
AcDbLine
 10
38.94499943563845
 20
301.1338137935946
 30
0.0
 11
38.94499943563845
 21
276.9738137935947
 31
0.0
  0
LINE
  5
F3E
330
1F
100
AcDbEntity
  8
0
100
AcDbLine
 10
33.59999943563855
 20
288.0538137935947
 30
0.0
 11
34.59999943563843
 21
288.0538137935947
 31
0.0
  0
LINE
  5
F3F
330
1F
100
AcDbEntity
  8
0
100
AcDbLine
 10
34.59999943563843
 20
290.0538137935947
 30
0.0
 11
33.59999943563855
 21
290.0538137935947
 31
0.0
  0
LINE
  5
F40
330
1F
100
AcDbEntity
  8
0
100
AcDbLine
 10
34.59999943563843
 20
295.1338137935946
 30
0.0
 11
33.59999943563855
 21
295.1338137935946
 31
0.0
  0
LINE
  5
F41
330
1F
100
AcDbEntity
  8
0
100
AcDbLine
 10
33.59999943563855
 20
293.1338137935946
 30
0.0
 11
34.59999943563843
 21
293.1338137935946
 31
0.0
  0
LINE
  5
F42
330
1F
100
AcDbEntity
  8
0
100
AcDbLine
 10
30.59999943563842
 20
277.9738137935948
 30
0.0
 11
37.58499943563845
 21
277.9738137935948
 31
0.0
  0
LINE
  5
F43
330
1F
100
AcDbEntity
  8
0
100
AcDbLine
 10
33.59999943563855
 20
282.9738137935947
 30
0.0
 11
34.59999943563843
 21
282.9738137935947
 31
0.0
  0
LINE
  5
F44
330
1F
100
AcDbEntity
  8
0
100
AcDbLine
 10
34.59999943563843
 20
284.9738137935947
 30
0.0
 11
33.59999943563855
 21
284.9738137935947
 31
0.0
  0
CIRCLE
  5
F45
330
1F
100
AcDbEntity
  8
0
100
AcDbCircle
 10
32.09999943563843
 20
267.5738137935947
 30
0.0
 40
2.0
  0
LINE
  5
F46
330
1F
100
AcDbEntity
  8
0
100
AcDbLine
 10
26.9999995575564
 20
275.9738136342507
 30
0.0
 11
39.39999955755638
 21
275.9738136342507
 31
0.0
  0
LINE
  5
F47
330
1F
100
AcDbEntity
  8
0
100
AcDbLine
 10
28.09999943563843
 20
270.4738137935947
 30
0.0
 11
35.09999943563844
 21
270.4738137935947
 31
0.0
  0
LINE
  5
F48
330
1F
100
AcDbEntity
  8
0
100
AcDbLine
 10
28.09999943563843
 20
270.4738137935947
 30
0.0
 11
35.09999943563844
 21
270.4738137935947
 31
0.0
  0
LINE
  5
F49
330
1F
100
AcDbEntity
  8
0
100
AcDbLine
 10
26.9999995575564
 20
271.4738136342508
 30
0.0
 11
37.59999955755643
 21
271.4738136342508
 31
0.0
  0
LINE
  5
F4A
330
1F
100
AcDbEntity
  8
0
100
AcDbLine
 10
29.59999943563842
 20
276.9738137935947
 30
0.0
 11
38.94499943563845
 21
276.9738137935947
 31
0.0
  0
LINE
  5
F4B
330
1F
100
AcDbEntity
  8
0
100
AcDbLine
 10
28.09999943563843
 20
265.233813793595
 30
0.0
 11
28.09999943563843
 21
270.4738137935947
 31
0.0
  0
CIRCLE
  5
F4C
330
1F
100
AcDbEntity
  8
0
100
AcDbCircle
 10
32.09999943563843
 20
267.5738137935947
 30
0.0
 40
0.9
  0
LINE
  5
F4D
330
1F
100
AcDbEntity
  8
0
100
AcDbLine
 10
28.09999943563843
 20
276.9738137935947
 30
0.0
 11
29.59999943563842
 21
276.9738137935947
 31
0.0
  0
LINE
  5
F4E
330
1F
100
AcDbEntity
  8
0
100
AcDbLine
 10
29.59999943563842
 20
279.9738137935948
 30
0.0
 11
28.09999943563843
 21
279.9738137935948
 31
0.0
  0
LINE
  5
F4F
330
1F
100
AcDbEntity
  8
0
100
AcDbLine
 10
28.09999943563843
 20
279.9738137935948
 30
0.0
 11
28.09999943563843
 21
276.9738137935947
 31
0.0
  0
LINE
  5
F50
330
1F
100
AcDbEntity
  8
0
100
AcDbLine
 10
29.59999943563842
 20
276.9738137935947
 30
0.0
 11
29.59999943563842
 21
279.9738137935948
 31
0.0
  0
LINE
  5
F51
330
1F
100
AcDbEntity
  8
0
100
AcDbLine
 10
29.59999943563842
 20
276.9738137935947
 30
0.0
 11
29.59999943563842
 21
277.9738137935948
 31
0.0
  0
LINE
  5
F52
330
1F
100
AcDbEntity
  8
0
100
AcDbLine
 10
33.59999943563855
 20
290.0538137935947
 30
0.0
 11
33.59999943563855
 21
288.0538137935947
 31
0.0
  0
LINE
  5
F53
330
1F
100
AcDbEntity
  8
0
100
AcDbLine
 10
28.09999943563946
 20
283.4738137935947
 30
0.0
 11
29.59999943563842
 21
283.4738137935947
 31
0.0
  0
LINE
  5
F54
330
1F
100
AcDbEntity
  8
0
100
AcDbLine
 10
29.59999943563842
 20
284.4738137935948
 30
0.0
 11
28.09999943563946
 21
284.4738137935948
 31
0.0
  0
LINE
  5
F55
330
1F
100
AcDbEntity
  8
0
100
AcDbLine
 10
33.59999943563855
 20
284.9738137935947
 30
0.0
 11
33.59999943563855
 21
282.9738137935947
 31
0.0
  0
LINE
  5
F56
330
1F
100
AcDbEntity
  8
0
100
AcDbLine
 10
29.59999943563842
 20
283.4738137935947
 30
0.0
 11
29.59999943563842
 21
284.4738137935948
 31
0.0
  0
LINE
  5
F57
330
1F
100
AcDbEntity
  8
0
100
AcDbLine
 10
29.59999943563842
 20
289.5538137935947
 30
0.0
 11
28.09999943563946
 21
289.5538137935947
 31
0.0
  0
LINE
  5
F58
330
1F
100
AcDbEntity
  8
0
100
AcDbLine
 10
28.09999943563946
 20
288.5538137935947
 30
0.0
 11
29.59999943563842
 21
288.5538137935947
 31
0.0
  0
LINE
  5
F59
330
1F
100
AcDbEntity
  8
0
100
AcDbLine
 10
29.59999943563842
 20
294.6338137935946
 30
0.0
 11
28.09999943563946
 21
294.6338137935946
 31
0.0
  0
LINE
  5
F5A
330
1F
100
AcDbEntity
  8
0
100
AcDbLine
 10
28.09999943563946
 20
293.6338137935946
 30
0.0
 11
29.59999943563842
 21
293.6338137935946
 31
0.0
  0
LINE
  5
F5B
330
1F
100
AcDbEntity
  8
0
100
AcDbLine
 10
33.59999943563855
 20
295.1338137935946
 30
0.0
 11
33.59999943563855
 21
293.1338137935946
 31
0.0
  0
LINE
  5
F5C
330
1F
100
AcDbEntity
  8
0
100
AcDbLine
 10
29.59999943563842
 20
288.5538137935947
 30
0.0
 11
29.59999943563842
 21
289.5538137935947
 31
0.0
  0
LINE
  5
F5D
330
1F
100
AcDbEntity
  8
0
100
AcDbLine
 10
29.59999943563842
 20
293.6338137935946
 30
0.0
 11
29.59999943563842
 21
294.6338137935946
 31
0.0
  0
LINE
  5
F5E
330
1F
100
AcDbEntity
  8
0
100
AcDbLine
 10
36.59999943563843
 20
265.4738137935948
 30
0.0
 11
36.59999943563843
 21
265.1138137935946
 31
0.0
  0
LINE
  5
F5F
330
1F
100
AcDbEntity
  8
0
100
AcDbLine
 10
35.09999943563844
 20
265.4738137935948
 30
0.0
 11
36.59999943563843
 21
265.4738137935948
 31
0.0
  0
LINE
  5
F60
330
1F
100
AcDbEntity
  8
0
100
AcDbLine
 10
35.09999943563844
 20
270.4738137935947
 30
0.0
 11
35.09999943563844
 21
265.233813793595
 31
0.0
  0
LINE
  5
F61
330
1F
100
AcDbEntity
  8
0
100
AcDbLine
 10
35.09999943563844
 20
265.4738137935948
 30
0.0
 11
35.09999943563844
 21
270.4738137935947
 31
0.0
  0
LINE
  5
F62
330
1F
100
AcDbEntity
  8
0
100
AcDbLine
 10
34.59999943563843
 20
288.0538137935947
 30
0.0
 11
34.59999943563843
 21
290.0538137935947
 31
0.0
  0
LINE
  5
F63
330
1F
100
AcDbEntity
  8
0
100
AcDbLine
 10
34.59999943563843
 20
282.9738137935947
 30
0.0
 11
34.59999943563843
 21
284.9738137935947
 31
0.0
  0
LINE
  5
F64
330
1F
100
AcDbEntity
  8
0
100
AcDbLine
 10
34.59999943563843
 20
293.1338137935946
 30
0.0
 11
34.59999943563843
 21
295.1338137935946
 31
0.0
  0
LINE
  5
F65
330
1F
100
AcDbEntity
  8
0
100
AcDbLine
 10
38.29999943563939
 20
324.8638137935945
 30
0.0
 11
33.52450450664742
 21
324.8638137935945
 31
0.0
  0
LINE
  5
F66
330
1F
100
AcDbEntity
  8
0
100
AcDbLine
 10
30.59999943563842
 20
300.1338137935946
 30
0.0
 11
37.58499943563845
 21
300.1338137935946
 31
0.0
  0
LINE
  5
F67
330
1F
100
AcDbEntity
  8
0
100
AcDbLine
 10
26.9999995575564
 20
302.1738136342511
 30
0.0
 11
39.39999955755638
 21
302.1738136342511
 31
0.0
  0
LINE
  5
F68
330
1F
100
AcDbEntity
  8
0
100
AcDbLine
 10
38.94499943563845
 20
301.1338137935946
 30
0.0
 11
29.59999943563842
 21
301.1338137935946
 31
0.0
  0
LINE
  5
F69
330
1F
100
AcDbEntity
  8
0
100
AcDbLine
 10
26.9999995575564
 20
306.0738136342506
 30
0.0
 11
36.29999955755646
 21
306.0738136342506
 31
0.0
  0
LINE
  5
F6A
330
1F
100
AcDbEntity
  8
0
100
AcDbLine
 10
28.09999943563843
 20
307.0138137935947
 30
0.0
 11
35.34999943563922
 21
307.0138137935947
 31
0.0
  0
LINE
  5
F6B
330
1F
100
AcDbEntity
  8
0
100
AcDbLine
 10
38.29999943563939
 20
323.4138137935948
 30
0.0
 11
28.09999943563946
 21
323.4138137935948
 31
0.0
  0
LINE
  5
F6C
330
1F
100
AcDbEntity
  8
0
100
AcDbLine
 10
35.34999943563922
 20
322.4138137935948
 30
0.0
 11
28.09999943563843
 21
322.4138137935948
 31
0.0
  0
LINE
  5
F6D
330
1F
100
AcDbEntity
  8
0
100
AcDbLine
 10
28.09999943563843
 20
322.4138137935948
 30
0.0
 11
28.09999943563843
 21
307.0138137935947
 31
0.0
  0
LINE
  5
F6E
330
1F
100
AcDbEntity
  8
0
100
AcDbLine
 10
28.09999943563843
 20
298.1338137935946
 30
0.0
 11
29.59999943563842
 21
298.1338137935946
 31
0.0
  0
LINE
  5
F6F
330
1F
100
AcDbEntity
  8
0
100
AcDbLine
 10
29.59999943563842
 20
301.1338137935946
 30
0.0
 11
28.09999943563843
 21
301.1338137935946
 31
0.0
  0
LINE
  5
F70
330
1F
100
AcDbEntity
  8
0
100
AcDbLine
 10
28.09999943563843
 20
301.1338137935946
 30
0.0
 11
28.09999943563843
 21
298.1338137935946
 31
0.0
  0
LINE
  5
F71
330
1F
100
AcDbEntity
  8
0
100
AcDbLine
 10
29.59999943563842
 20
298.1338137935946
 30
0.0
 11
29.59999943563842
 21
301.1338137935946
 31
0.0
  0
LINE
  5
F72
330
1F
100
AcDbEntity
  8
0
100
AcDbLine
 10
29.59999943563842
 20
301.1338137935946
 30
0.0
 11
29.59999943563842
 21
300.1338137935946
 31
0.0
  0
LINE
  5
F73
330
1F
100
AcDbEntity
  8
0
100
AcDbLine
 10
29.59999943563842
 20
301.1338137935946
 30
0.0
 11
30.59999943563842
 21
301.1338137935946
 31
0.0
  0
CIRCLE
  5
F74
330
1F
100
AcDbEntity
  8
0
100
AcDbCircle
 10
31.59999943563843
 20
309.463813793595
 30
0.0
 40
1.0
  0
CIRCLE
  5
F75
330
1F
100
AcDbEntity
  8
0
100
AcDbCircle
 10
31.59999943563843
 20
319.963813793595
 30
0.0
 40
1.0
  0
CIRCLE
  5
F76
330
1F
100
AcDbEntity
  8
0
100
AcDbCircle
 10
31.59999943563843
 20
316.463813793595
 30
0.0
 40
1.0
  0
CIRCLE
  5
F77
330
1F
100
AcDbEntity
  8
0
100
AcDbCircle
 10
31.59999943563843
 20
312.963813793595
 30
0.0
 40
1.0
  0
LINE
  5
F78
330
1F
100
AcDbEntity
  8
0
100
AcDbLine
 10
36.29999955755646
 20
322.8738136342509
 30
0.0
 11
36.29999955755646
 21
306.0738136342506
 31
0.0
  0
LINE
  5
F79
330
1F
100
AcDbEntity
  8
0
100
AcDbLine
 10
35.34999943563922
 20
307.0138137935947
 30
0.0
 11
35.34999943563922
 21
322.4138137935948
 31
0.0
  0
LINE
  5
F7A
330
1F
100
AcDbEntity
  8
0
100
AcDbLine
 10
38.08499943563845
 20
301.1338137935946
 30
0.0
 11
37.58499943563845
 21
301.1338137935946
 31
0.0
  0
LINE
  5
F7B
330
1F
100
AcDbEntity
  8
0
100
AcDbLine
 10
38.29999943563939
 20
324.8638137935945
 30
0.0
 11
35.29999943563939
 21
324.8638137935945
 31
0.0
  0
LINE
  5
F7C
330
1F
100
AcDbEntity
  8
0
100
AcDbLine
 10
38.29999943563939
 20
326.0638137935949
 30
0.0
 11
35.29999943563939
 21
326.0638137935949
 31
0.0
  0
LINE
  5
F7D
330
1F
100
AcDbEntity
  8
0
100
AcDbLine
 10
38.29999943563939
 20
327.4038137935946
 30
0.0
 11
35.29999943563939
 21
327.4038137935946
 31
0.0
  0
LINE
  5
F7E
330
1F
100
AcDbEntity
  8
0
100
AcDbLine
 10
36.29999955755646
 20
322.8738136342509
 30
0.0
 11
39.89999955755638
 21
322.8738136342509
 31
0.0
  0
LINE
  5
F7F
330
1F
100
AcDbEntity
  8
0
100
AcDbLine
 10
37.29999943563928
 20
324.8638137935945
 30
0.0
 11
37.29999943563928
 21
326.0638137935949
 31
0.0
  0
LINE
  5
F80
330
1F
100
AcDbEntity
  8
0
100
AcDbLine
 10
36.79999943563927
 20
326.0638137935949
 30
0.0
 11
36.79999943563927
 21
327.4038137935946
 31
0.0
  0
LINE
  5
F81
330
1F
100
AcDbEntity
  8
0
100
AcDbLine
 10
35.29999943563939
 20
324.8638137935945
 30
0.0
 11
35.29999943563939
 21
326.0638137935949
 31
0.0
  0
LINE
  5
F82
330
1F
100
AcDbEntity
  8
0
100
AcDbLine
 10
17.99999943563942
 20
364.9738137935948
 30
0.0
 11
0.9738224873312899
 21
364.5279676594037
 31
0.0
  0
LINE
  5
F83
330
1F
100
AcDbEntity
  8
0
100
AcDbLine
 10
0.4869109614852505
 20
354.5152174323766
 30
0.0
 11
17.99999943563942
 21
354.9738137935948
 31
0.0
  0
ARC
  5
F84
330
1F
100
AcDbEntity
  8
0
100
AcDbCircle
 10
0.4999994356394384
 20
354.015388769889
 30
0.0
 40
0.5
100
AcDbArc
 50
91.50000000000273
 51
180.0
  0
ARC
  5
F85
330
1F
100
AcDbEntity
  8
0
100
AcDbCircle
 10
0.9999994356394379
 20
363.5283103344277
 30
0.0
 40
1.0
100
AcDbArc
 50
91.50000000000273
 51
180.0
  0
ARC
  5
F86
330
1F
100
AcDbEntity
  8
0
100
AcDbCircle
 10
42.99999943563954
 20
359.9738137935946
 30
0.0
 40
5.5
100
AcDbArc
 50
180.0
 51
245.3800226713513
  0
CIRCLE
  5
F87
330
1F
100
AcDbEntity
  8
0
100
AcDbCircle
 10
42.99999943563954
 20
359.9738137935946
 30
0.0
 40
2.1
  0
ARC
  5
F88
330
1F
100
AcDbEntity
  8
0
100
AcDbCircle
 10
42.99999943563954
 20
359.9738137935946
 30
0.0
 40
5.5
100
AcDbArc
 50
294.6199773286483
 51
0.0
  0
LINE
  5
F89
330
1F
100
AcDbEntity
  8
1
100
AcDbLine
 10
42.9999994356392
 20
352.4738137935948
 30
0.0
 11
42.9999994356392
 21
367.4738137935948
 31
0.0
  0
LINE
  5
F8A
330
1F
100
AcDbEntity
  8
0
100
AcDbLine
 10
38.29999943563939
 20
328.6038137935948
 30
0.0
 11
33.52450450664742
 21
328.6038137935948
 31
0.0
  0
LINE
  5
F8B
330
1F
100
AcDbEntity
  8
0
100
AcDbLine
 10
38.29999943563939
 20
330.0538137935947
 30
0.0
 11
28.09999943563946
 21
330.0538137935947
 31
0.0
  0
LINE
  5
F8C
330
1F
100
AcDbEntity
  8
0
100
AcDbLine
 10
35.9999994356384
 20
331.053813793596
 30
0.0
 11
28.09999943563843
 21
331.053813793596
 31
0.0
  0
LINE
  5
F8D
330
1F
100
AcDbEntity
  8
0
100
AcDbLine
 10
35.9999994356384
 20
338.5538137935947
 30
0.0
 11
28.09999943563843
 21
338.5538137935947
 31
0.0
  0
LINE
  5
F8E
330
1F
100
AcDbEntity
  8
0
100
AcDbLine
 10
36.89999955755627
 20
339.0738136342506
 30
0.0
 11
26.9999995575564
 21
339.0738136342506
 31
0.0
  0
CIRCLE
  5
F8F
330
1F
100
AcDbEntity
  8
0
100
AcDbCircle
 10
30.59999955755642
 20
342.9738136342507
 30
0.0
 40
1.399999999999999
  0
CIRCLE
  5
F90
330
1F
100
AcDbEntity
  8
0
100
AcDbCircle
 10
32.2499994356384
 20
334.8038137935947
 30
0.0
 40
1.290290050200999
  0
LINE
  5
F91
330
1F
100
AcDbEntity
  8
0
100
AcDbLine
 10
28.4999994356384
 20
331.053813793596
 30
0.0
 11
28.4999994356384
 21
338.5538137935947
 31
0.0
  0
LINE
  5
F92
330
1F
100
AcDbEntity
  8
0
100
AcDbLine
 10
28.09999943563843
 20
331.053813793596
 30
0.0
 11
28.09999943563843
 21
331.9638137935958
 31
0.0
  0
LINE
  5
F93
330
1F
100
AcDbEntity
  8
0
100
AcDbLine
 10
28.09999943563946
 20
332.5638137935956
 30
0.0
 11
28.4999994356384
 21
332.5638137935956
 31
0.0
  0
LINE
  5
F94
330
1F
100
AcDbEntity
  8
0
100
AcDbLine
 10
28.09999943563946
 20
331.9638137935958
 30
0.0
 11
28.4999994356384
 21
331.9638137935958
 31
0.0
  0
LINE
  5
F95
330
1F
100
AcDbEntity
  8
0
100
AcDbLine
 10
28.09999943563946
 20
334.5038137935948
 30
0.0
 11
28.4999994356384
 21
334.5038137935948
 31
0.0
  0
LINE
  5
F96
330
1F
100
AcDbEntity
  8
0
100
AcDbLine
 10
28.09999943563946
 20
335.1038137935962
 30
0.0
 11
28.4999994356384
 21
335.1038137935962
 31
0.0
  0
LINE
  5
F97
330
1F
100
AcDbEntity
  8
0
100
AcDbLine
 10
28.09999943563843
 20
337.6438137935948
 30
0.0
 11
28.09999943563843
 21
338.5538137935947
 31
0.0
  0
LINE
  5
F98
330
1F
100
AcDbEntity
  8
0
100
AcDbLine
 10
28.09999943563946
 20
337.0438137935958
 30
0.0
 11
28.4999994356384
 21
337.0438137935958
 31
0.0
  0
LINE
  5
F99
330
1F
100
AcDbEntity
  8
0
100
AcDbLine
 10
28.09999943563946
 20
337.6438137935961
 30
0.0
 11
28.4999994356384
 21
337.6438137935961
 31
0.0
  0
LINE
  5
F9A
330
1F
100
AcDbEntity
  8
0
100
AcDbLine
 10
18.99999943563942
 20
350.9738137935948
 30
0.0
 11
19.01308790979237
 21
350.9741565273531
 31
0.0
  0
LINE
  5
F9B
330
1F
100
AcDbEntity
  8
0
100
AcDbLine
 10
19.99999943563942
 20
354.4738137935946
 30
0.0
 11
18.99999943563942
 21
354.4738137935946
 31
0.0
  0
LINE
  5
F9C
330
1F
100
AcDbEntity
  8
0
100
AcDbLine
 10
17.99999943563942
 20
354.9738137935948
 30
0.0
 11
18.99999943563942
 21
354.9476278720259
 31
0.0
  0
CIRCLE
  5
F9D
330
1F
100
AcDbEntity
  8
0
100
AcDbCircle
 10
30.59999955755642
 20
347.773813634251
 30
0.0
 40
1.399999999999999
  0
CIRCLE
  5
F9E
330
1F
100
AcDbEntity
  8
0
100
AcDbCircle
 10
35.69999955755633
 20
342.9738136342507
 30
0.0
 40
1.399999999999999
  0
LINE
  5
F9F
330
1F
100
AcDbEntity
  8
0
100
AcDbLine
 10
35.9999994356384
 20
331.053813793596
 30
0.0
 11
35.9999994356384
 21
338.5538137935947
 31
0.0
  0
LINE
  5
FA0
330
1F
100
AcDbEntity
  8
0
100
AcDbLine
 10
36.89999955755627
 20
339.0738136342506
 30
0.0
 11
36.89999955755627
 21
331.0738136342506
 31
0.0
  0
LINE
  5
FA1
330
1F
100
AcDbEntity
  8
0
100
AcDbLine
 10
36.89999955755627
 20
331.0738136342506
 30
0.0
 11
39.89999955755638
 21
331.0738136342506
 31
0.0
  0
CIRCLE
  5
FA2
330
1F
100
AcDbEntity
  8
0
100
AcDbCircle
 10
35.69999955755633
 20
347.773813634251
 30
0.0
 40
1.399999999999999
  0
LINE
  5
FA3
330
1F
100
AcDbEntity
  8
0
100
AcDbLine
 10
37.49999943563944
 20
359.9738137935946
 30
0.0
 11
37.49999943563944
 21
364.9738137935948
 31
0.0
  0
LINE
  5
FA4
330
1F
100
AcDbEntity
  8
0
100
AcDbLine
 10
48.49999943563943
 20
359.9738137935946
 30
0.0
 11
48.49999943563943
 21
364.9738137935948
 31
0.0
  0
LINE
  5
FA5
330
1F
100
AcDbEntity
  8
0
100
AcDbLine
 10
63.09999943563844
 20
262.0738137935946
 30
0.0
 11
63.09999943563844
 21
267.0738137935947
 31
0.0
  0
LINE
  5
FA6
330
1F
100
AcDbEntity
  8
0
100
AcDbLine
 10
55.19999943563846
 20
267.0738137935947
 30
0.0
 11
55.19999943563846
 21
262.0738137935946
 31
0.0
  0
LINE
  5
FA7
330
1F
100
AcDbEntity
  8
0
100
AcDbLine
 10
56.14999943563839
 20
266.0738137935946
 30
0.0
 11
56.14999943563839
 21
263.0738137935947
 31
0.0
  0
LINE
  5
FA8
330
1F
100
AcDbEntity
  8
0
100
AcDbLine
 10
57.14999943563839
 20
266.0738137935946
 30
0.0
 11
57.14999943563839
 21
263.0738137935947
 31
0.0
  0
LINE
  5
FA9
330
1F
100
AcDbEntity
  8
0
100
AcDbLine
 10
58.14999943563829
 20
263.0738137935947
 30
0.0
 11
58.14999943563829
 21
266.0738137935946
 31
0.0
  0
LINE
  5
FAA
330
1F
100
AcDbEntity
  8
0
100
AcDbLine
 10
58.94999943563846
 20
263.0738137935947
 30
0.0
 11
58.94999943563846
 21
266.0738137935946
 31
0.0
  0
LINE
  5
FAB
330
1F
100
AcDbEntity
  8
0
100
AcDbLine
 10
62.14999943563828
 20
263.0738137935947
 30
0.0
 11
62.14999943563828
 21
266.0738137935946
 31
0.0
  0
LINE
  5
FAC
330
1F
100
AcDbEntity
  8
0
100
AcDbLine
 10
52.59999955755643
 20
263.0738136342506
 30
0.0
 11
52.59999955755643
 21
267.5738136342506
 31
0.0
  0
LINE
  5
FAD
330
1F
100
AcDbEntity
  8
0
100
AcDbLine
 10
63.09999943563923
 20
267.5738136342506
 30
0.0
 11
63.09999943563923
 21
232.6738136342511
 31
0.0
  0
LINE
  5
FAE
330
1F
100
AcDbEntity
  8
0
100
AcDbLine
 10
63.99999955755743
 20
267.5738136342506
 30
0.0
 11
63.99999955755743
 21
232.6738136342511
 31
0.0
  0
LINE
  5
FAF
330
1F
100
AcDbEntity
  8
0
100
AcDbLine
 10
52.59999955755643
 20
247.0738136342506
 30
0.0
 11
52.59999955755643
 21
232.6738136342511
 31
0.0
  0
LINE
  5
FB0
330
1F
100
AcDbEntity
  8
0
100
AcDbLine
 10
59.8999994356394
 20
202.9738137935948
 30
0.0
 11
59.8999994356394
 21
220.1738137935949
 31
0.0
  0
LINE
  5
FB1
330
1F
100
AcDbEntity
  8
0
100
AcDbLine
 10
56.6999994356396
 20
220.1738137935949
 30
0.0
 11
56.6999994356396
 21
202.9738137935948
 31
0.0
  0
LINE
  5
FB2
330
1F
100
AcDbEntity
  8
0
100
AcDbLine
 10
55.14999943563942
 20
219.673813793595
 30
0.0
 11
55.14999943563942
 21
203.4738137935947
 31
0.0
  0
LINE
  5
FB3
330
1F
100
AcDbEntity
  8
0
100
AcDbLine
 10
61.44999943563937
 20
204.0900969361869
 30
0.0
 11
61.44999943563937
 21
219.0575306510036
 31
0.0
  0
LINE
  5
FB4
330
1F
100
AcDbEntity
  8
0
100
AcDbLine
 10
56.6999994356396
 20
202.9738137935948
 30
0.0
 11
59.8999994356394
 21
202.9738137935948
 31
0.0
  0
LINE
  5
FB5
330
1F
100
AcDbEntity
  8
0
100
AcDbLine
 10
57.66763752584427
 20
201.5419621410165
 30
0.0
 11
59.96763752584445
 21
202.1582452836069
 31
0.0
  0
LINE
  5
FB6
330
1F
100
AcDbEntity
  8
0
100
AcDbLine
 10
62.79999943563939
 20
203.9538137935958
 30
0.0
 11
63.09999943563923
 21
203.9538137935958
 31
0.0
  0
LINE
  5
FB7
330
1F
100
AcDbEntity
  8
0
100
AcDbLine
 10
62.79999943563939
 20
205.2238137935959
 30
0.0
 11
63.09999943563923
 21
205.2238137935959
 31
0.0
  0
LINE
  5
FB8
330
1F
100
AcDbEntity
  8
0
100
AcDbLine
 10
62.79999943563939
 20
206.493813793596
 30
0.0
 11
63.09999943563923
 21
206.493813793596
 31
0.0
  0
LINE
  5
FB9
330
1F
100
AcDbEntity
  8
0
100
AcDbLine
 10
62.79999943563939
 20
207.7638137935958
 30
0.0
 11
63.09999943563923
 21
207.7638137935958
 31
0.0
  0
LINE
  5
FBA
330
1F
100
AcDbEntity
  8
0
100
AcDbLine
 10
62.79999943563939
 20
207.7638137935958
 30
0.0
 11
63.09999943563923
 21
207.7638137935958
 31
0.0
  0
LINE
  5
FBB
330
1F
100
AcDbEntity
  8
0
100
AcDbLine
 10
62.79999943563939
 20
209.033813793596
 30
0.0
 11
63.09999943563923
 21
209.033813793596
 31
0.0
  0
ARC
  5
FBC
330
1F
100
AcDbEntity
  8
0
100
AcDbCircle
 10
59.4499994356396
 20
204.0900969361869
 30
0.0
 40
2.0
100
AcDbArc
 50
284.9999999999943
 51
0.0
  0
LINE
  5
FBD
330
1F
100
AcDbEntity
  8
0
100
AcDbLine
 10
62.79999943563939
 20
211.5738137935958
 30
0.0
 11
63.09999943563923
 21
211.5738137935958
 31
0.0
  0
LINE
  5
FBE
330
1F
100
AcDbEntity
  8
0
100
AcDbLine
 10
62.79999943563939
 20
212.843813793596
 30
0.0
 11
63.09999943563923
 21
212.843813793596
 31
0.0
  0
LINE
  5
FBF
330
1F
100
AcDbEntity
  8
0
100
AcDbLine
 10
62.79999943563939
 20
215.3838137935959
 30
0.0
 11
63.09999943563923
 21
215.3838137935959
 31
0.0
  0
LINE
  5
FC0
330
1F
100
AcDbEntity
  8
0
100
AcDbLine
 10
62.79999943563939
 20
216.653813793596
 30
0.0
 11
63.09999943563923
 21
216.653813793596
 31
0.0
  0
LINE
  5
FC1
330
1F
100
AcDbEntity
  8
0
100
AcDbLine
 10
62.79999943563939
 20
214.113813793596
 30
0.0
 11
63.09999943563923
 21
214.113813793596
 31
0.0
  0
LINE
  5
FC2
330
1F
100
AcDbEntity
  8
0
100
AcDbLine
 10
62.79999943563939
 20
215.3838137935959
 30
0.0
 11
63.09999943563923
 21
215.3838137935959
 31
0.0
  0
LINE
  5
FC3
330
1F
100
AcDbEntity
  8
0
100
AcDbLine
 10
62.79999943563939
 20
210.303813793596
 30
0.0
 11
63.09999943563923
 21
210.303813793596
 31
0.0
  0
CIRCLE
  5
FC4
330
1F
100
AcDbEntity
  8
0
100
AcDbCircle
 10
58.29999943563928
 20
227.2038137935948
 30
0.0
 40
1.399999999999999
  0
LINE
  5
FC5
330
1F
100
AcDbEntity
  8
0
100
AcDbLine
 10
59.8999994356394
 20
220.1738137935949
 30
0.0
 11
56.6999994356396
 21
220.1738137935959
 31
0.0
  0
LINE
  5
FC6
330
1F
100
AcDbEntity
  8
0
100
AcDbLine
 10
55.14999943563942
 20
225.173813793595
 30
0.0
 11
61.44999943563937
 21
225.173813793595
 31
0.0
  0
LINE
  5
FC7
330
1F
100
AcDbEntity
  8
0
100
AcDbLine
 10
55.14999943563942
 20
224.6738137935949
 30
0.0
 11
61.44999943563937
 21
224.6738137935949
 31
0.0
  0
LINE
  5
FC8
330
1F
100
AcDbEntity
  8
0
100
AcDbLine
 10
55.14999943563942
 20
222.7738137935948
 30
0.0
 11
61.44999943563937
 21
222.7738137935948
 31
0.0
  0
LINE
  5
FC9
330
1F
100
AcDbEntity
  8
0
100
AcDbLine
 10
57.66763752584427
 20
221.6056654461727
 30
0.0
 11
59.96763752584445
 21
220.9893823035819
 31
0.0
  0
LINE
  5
FCA
330
1F
100
AcDbEntity
  8
0
100
AcDbLine
 10
53.6999994356396
 20
229.173813793595
 30
0.0
 11
62.79999943563939
 21
229.173813793595
 31
0.0
  0
LINE
  5
FCB
330
1F
100
AcDbEntity
  8
0
100
AcDbLine
 10
54.49999943563944
 20
230.173813793595
 30
0.0
 11
62.79999943563939
 21
230.1738137935959
 31
0.0
  0
LINE
  5
FCC
330
1F
100
AcDbEntity
  8
0
100
AcDbLine
 10
63.99999955755743
 20
230.6738136342511
 30
0.0
 11
52.59999955755643
 21
230.6738136342511
 31
0.0
  0
LINE
  5
FCD
330
1F
100
AcDbEntity
  8
0
100
AcDbLine
 10
63.99999955755743
 20
232.6738136342511
 30
0.0
 11
52.59999955755643
 21
232.6738136342511
 31
0.0
  0
LINE
  5
FCE
330
1F
100
AcDbEntity
  8
0
100
AcDbLine
 10
55.14999943563942
 20
225.1738137935959
 30
0.0
 11
55.14999943563942
 21
222.7738137935948
 31
0.0
  0
ARC
  5
FCF
330
1F
100
AcDbEntity
  8
0
100
AcDbCircle
 10
57.14999943563942
 20
219.673813793595
 30
0.0
 40
2.0
100
AcDbArc
 50
75.00000000000555
 51
180.0
  0
LINE
  5
FD0
330
1F
100
AcDbEntity
  8
0
100
AcDbLine
 10
53.99999943563944
 20
229.673813793595
 30
0.0
 11
53.99999943563944
 21
229.173813793595
 31
0.0
  0
ARC
  5
FD1
330
1F
100
AcDbEntity
  8
0
100
AcDbCircle
 10
54.49999943563944
 20
229.673813793595
 30
0.0
 40
0.5
100
AcDbArc
 50
90.0
 51
180.0
  0
LINE
  5
FD2
330
1F
100
AcDbEntity
  8
0
100
AcDbLine
 10
63.09999943563923
 20
229.873813793596
 30
0.0
 11
63.09999943563923
 21
222.7738137935948
 31
0.0
  0
LINE
  5
FD3
330
1F
100
AcDbEntity
  8
0
100
AcDbLine
 10
61.44999943563937
 20
222.7738137935948
 30
0.0
 11
61.44999943563937
 21
225.1738137935959
 31
0.0
  0
LINE
  5
FD4
330
1F
100
AcDbEntity
  8
0
100
AcDbLine
 10
62.79999943563939
 20
217.9238137935959
 30
0.0
 11
63.09999943563923
 21
217.9238137935959
 31
0.0
  0
LINE
  5
FD5
330
1F
100
AcDbEntity
  8
0
100
AcDbLine
 10
62.79999943563939
 20
219.193813793595
 30
0.0
 11
63.09999943563923
 21
219.193813793595
 31
0.0
  0
LINE
  5
FD6
330
1F
100
AcDbEntity
  8
0
100
AcDbLine
 10
62.79999943563939
 20
217.9238137935959
 30
0.0
 11
63.09999943563923
 21
217.9238137935959
 31
0.0
  0
LINE
  5
FD7
330
1F
100
AcDbEntity
  8
0
100
AcDbLine
 10
62.79999943563939
 20
222.7738137935948
 30
0.0
 11
63.09999943563923
 21
222.7738137935948
 31
0.0
  0
ARC
  5
FD8
330
1F
100
AcDbEntity
  8
0
100
AcDbCircle
 10
59.4499994356396
 20
219.0575306510036
 30
0.0
 40
2.0
100
AcDbArc
 50
0.0
 51
75.00000000000555
  0
ARC
  5
FD9
330
1F
100
AcDbEntity
  8
0
100
AcDbCircle
 10
62.79999943563939
 20
229.873813793596
 30
0.0
 40
0.3
100
AcDbArc
 50
0.0
 51
90.0
  0
LINE
  5
FDA
330
1F
100
AcDbEntity
  8
0
100
AcDbLine
 10
63.09999943563923
 20
247.5738137935945
 30
0.0
 11
63.09999943563923
 21
253.4738137935947
 31
0.0
  0
LINE
  5
FDB
330
1F
100
AcDbEntity
  8
0
100
AcDbLine
 10
56.14999943563839
 20
243.0738137935946
 30
0.0
 11
62.14999943563828
 21
243.0738137935946
 31
0.0
  0
CIRCLE
  5
FDC
330
1F
100
AcDbEntity
  8
0
100
AcDbCircle
 10
59.59999943563843
 20
239.1238137935948
 30
0.0
 40
1.0
  0
CIRCLE
  5
FDD
330
1F
100
AcDbEntity
  8
0
100
AcDbCircle
 10
59.59999943563843
 20
235.6238137935948
 30
0.0
 40
1.0
  0
LINE
  5
FDE
330
1F
100
AcDbEntity
  8
0
100
AcDbLine
 10
62.14999943563828
 20
246.0738137935947
 30
0.0
 11
56.14999943563839
 21
246.0738137935947
 31
0.0
  0
LINE
  5
FDF
330
1F
100
AcDbEntity
  8
0
100
AcDbLine
 10
55.84999943563843
 20
233.1738137935948
 30
0.0
 11
63.09999943563844
 21
233.1738137935948
 31
0.0
  0
LINE
  5
FE0
330
1F
100
AcDbEntity
  8
0
100
AcDbLine
 10
55.19999943563846
 20
242.0738137935947
 30
0.0
 11
63.09999943563844
 21
242.0738137935947
 31
0.0
  0
LINE
  5
FE1
330
1F
100
AcDbEntity
  8
0
100
AcDbLine
 10
63.09999943563844
 20
241.5738137935945
 30
0.0
 11
55.84999943563843
 21
241.5738137935945
 31
0.0
  0
LINE
  5
FE2
330
1F
100
AcDbEntity
  8
0
100
AcDbLine
 10
63.09999943563844
 20
247.0738137935945
 30
0.0
 11
55.19999943563846
 21
247.0738137935945
 31
0.0
  0
LINE
  5
FE3
330
1F
100
AcDbEntity
  8
0
100
AcDbLine
 10
55.84999943563843
 20
241.5738137935945
 30
0.0
 11
55.84999943563843
 21
233.1738137935948
 31
0.0
  0
LINE
  5
FE4
330
1F
100
AcDbEntity
  8
0
100
AcDbLine
 10
55.19999943563846
 20
247.0738137935945
 30
0.0
 11
55.19999943563846
 21
242.0738137935947
 31
0.0
  0
LINE
  5
FE5
330
1F
100
AcDbEntity
  8
0
100
AcDbLine
 10
57.14999943563839
 20
246.0738137935947
 30
0.0
 11
57.14999943563839
 21
243.0738137935946
 31
0.0
  0
LINE
  5
FE6
330
1F
100
AcDbEntity
  8
0
100
AcDbLine
 10
58.14999943563829
 20
243.0738137935946
 30
0.0
 11
58.14999943563829
 21
246.0738137935947
 31
0.0
  0
LINE
  5
FE7
330
1F
100
AcDbEntity
  8
0
100
AcDbLine
 10
56.14999943563839
 20
246.0738137935947
 30
0.0
 11
56.14999943563839
 21
243.0738137935946
 31
0.0
  0
LINE
  5
FE8
330
1F
100
AcDbEntity
  8
0
100
AcDbLine
 10
57.14999943563839
 20
243.0738137935946
 30
0.0
 11
58.14999943563829
 21
243.0738137935946
 31
0.0
  0
LINE
  5
FE9
330
1F
100
AcDbEntity
  8
0
100
AcDbLine
 10
58.14999943563829
 20
246.0738137935947
 30
0.0
 11
57.14999943563839
 21
246.0738137935947
 31
0.0
  0
LINE
  5
FEA
330
1F
100
AcDbEntity
  8
0
100
AcDbLine
 10
63.09999943563844
 20
233.1738137935948
 30
0.0
 11
63.09999943563844
 21
241.5738137935945
 31
0.0
  0
LINE
  5
FEB
330
1F
100
AcDbEntity
  8
0
100
AcDbLine
 10
62.14999943563828
 20
243.0738137935946
 30
0.0
 11
62.14999943563828
 21
246.0738137935947
 31
0.0
  0
LINE
  5
FEC
330
1F
100
AcDbEntity
  8
0
100
AcDbLine
 10
58.94999943563846
 20
243.0738137935946
 30
0.0
 11
58.94999943563846
 21
246.0738137935947
 31
0.0
  0
LINE
  5
FED
330
1F
100
AcDbEntity
  8
0
100
AcDbLine
 10
63.09999943563844
 20
242.0738137935947
 30
0.0
 11
63.09999943563844
 21
247.0738137935945
 31
0.0
  0
LINE
  5
FEE
330
1F
100
AcDbEntity
  8
0
100
AcDbLine
 10
56.14999943563839
 20
263.0738137935947
 30
0.0
 11
62.14999943563828
 21
263.0738137935947
 31
0.0
  0
CIRCLE
  5
FEF
330
1F
100
AcDbEntity
  8
0
100
AcDbCircle
 10
56.59999943563922
 20
254.5738137935947
 30
0.0
 40
5.5
  0
LINE
  5
FF0
330
1F
100
AcDbEntity
  8
0
100
AcDbLine
 10
55.19999943563846
 20
262.0738137935946
 30
0.0
 11
63.09999943563844
 21
262.0738137935946
 31
0.0
  0
LINE
  5
FF1
330
1F
100
AcDbEntity
  8
0
100
AcDbLine
 10
57.14999943563839
 20
263.0738137935947
 30
0.0
 11
58.14999943563829
 21
263.0738137935947
 31
0.0
  0
LINE
  5
FF2
330
1F
100
AcDbEntity
  8
0
100
AcDbLine
 10
63.09999943563923
 20
255.6738137935949
 30
0.0
 11
63.09999943563923
 21
261.5738137935947
 31
0.0
  0
LINE
  5
FF3
330
1F
100
AcDbEntity
  8
0
  6
Continuous
100
AcDbLine
 10
62.34028176108608
 20
301.0481508831968
 30
0.0
 11
62.34028176108688
 21
282.9481504570236
 31
0.0
  0
LINE
  5
FF4
330
1F
100
AcDbEntity
  8
0
100
AcDbLine
 10
63.99999955755743
 20
267.5738136342506
 30
0.0
 11
52.59999955755745
 21
267.5738136342506
 31
0.0
  0
LINE
  5
FF5
330
1F
100
AcDbEntity
  8
0
100
AcDbLine
 10
62.14999943563828
 20
266.0738137935946
 30
0.0
 11
56.14999943563839
 21
266.0738137935946
 31
0.0
  0
LINE
  5
FF6
330
1F
100
AcDbEntity
  8
0
100
AcDbLine
 10
63.09999943563844
 20
267.0738137935947
 30
0.0
 11
55.19999943563846
 21
267.0738137935947
 31
0.0
  0
LINE
  5
FF7
330
1F
100
AcDbEntity
  8
0
100
AcDbLine
 10
63.99999955755743
 20
267.5738136342506
 30
0.0
 11
52.59999955755643
 21
267.5738136342506
 31
0.0
  0
LINE
  5
FF8
330
1F
100
AcDbEntity
  8
0
100
AcDbLine
 10
58.14999943563829
 20
266.0738137935946
 30
0.0
 11
57.14999943563839
 21
266.0738137935946
 31
0.0
  0
LWPOLYLINE
  5
FF9
330
1F
100
AcDbEntity
  8
0
 62
     0
100
AcDbPolyline
 90
        4
 70
     1
 43
0.0
 10
61.49999943563921
 20
312.9488145272862
 10
63.09999943563957
 20
312.9488145272862
 10
63.09999943563957
 20
310.248814527286
 10
61.49999943563921
 20
310.248814527286
  0
INSERT
  5
FFA
330
1F
100
AcDbEntity
  8
0
 62
     0
 48
5.0
100
AcDbBlockReference
  2
A$C5CFD6E8C
 10
61.50000222461915
 20
310.2488120476401
 30
0.0
  0
LWPOLYLINE
  5
FFB
330
1F
100
AcDbEntity
  8
0
 62
     0
100
AcDbPolyline
 90
        4
 70
     1
 43
0.0
 10
61.49999943563921
 20
318.4488145272863
 10
63.09999943563957
 20
318.4488145272863
 10
63.09999943563957
 20
315.748814527285
 10
61.49999943563921
 20
315.748814527285
  0
INSERT
  5
FFC
330
1F
100
AcDbEntity
  8
0
 62
     0
 48
5.0
100
AcDbBlockReference
  2
A$C5CFD6E8C
 10
61.50000222461915
 20
315.7488120476401
 30
0.0
  0
ARC
  5
FFD
330
1F
100
AcDbEntity
  8
0
100
AcDbCircle
 10
70.99999943563943
 20
363.9738137935946
 30
0.0
 40
1.0
100
AcDbArc
 50
0.0
 51
90.0
  0
ARC
  5
FFE
330
1F
100
AcDbEntity
  8
0
100
AcDbCircle
 10
70.99999943563943
 20
363.9738137935946
 30
0.0
 40
1.0
100
AcDbArc
 50
0.0
 51
90.0
  0
MTEXT
  5
102D
330
1F
100
AcDbEntity
  8
0
100
AcDbMText
 10
-3.690009519033308
 20
427.4889312748843
 30
0.0
 40
10.0
 41
0.0
 71
     1
 72
     5
  1
SCON-CA-400A~750A-EP/PRT-*-1/2\PSCON-CA-100SA~750SA-EP/PRT-*-1/2
 73
     1
 44
1.0
1001
ACAD
1000
MTEXTBEGIN
1070
    73
1070
     1
1070
    44
1040
1.0
1070
    74
1070
     0
1000
MTEXTEND
1000
MTEXTBEGIN
1070
    73
1070
     1
1070
    44
1040
1.0
1070
    74
1070
     0
1000
MTEXTEND
1000
MTEXTBEGIN
1070
    73
1070
     1
1070
    44
1040
1.0
1070
    74
1070
     0
1000
MTEXTEND
  0
ENDSEC
  0
SECTION
  2
OBJECTS
  0
DICTIONARY
  5
C
330
0
100
AcDbDictionary
281
     1
  3
ACAD_GROUP
350
D
  3
ACAD_LAYOUT
350
1A
  3
ACAD_MLINESTYLE
350
17
  3
ACAD_PLOTSETTINGS
350
19
  3
ACAD_PLOTSTYLENAME
350
E
  3
ACDBHEADERROUNDTRIPXREC
350
10CF
  3
ACDBVARIABLEDICTIONARY
350
7CA
  0
DICTIONARY
  5
480
330
2
100
AcDbDictionary
280
     1
281
     1
  3
ACAD_LAYERSTATES
360
481
  0
DICTIONARY
  5
7F0
330
1F
100
AcDbDictionary
280
     1
281
     1
  3
ACAD_LAYOUTSELFREF
360
10C7
  0
DICTIONARY
  5
7EE
330
1B
100
AcDbDictionary
280
     1
281
     1
  3
ACAD_LAYOUTSELFREF
360
10C6
  0
DICTIONARY
  5
D
102
{ACAD_REACTORS
330
C
102
}
330
C
100
AcDbDictionary
281
     1
  0
DICTIONARY
  5
1A
102
{ACAD_REACTORS
330
C
102
}
330
C
100
AcDbDictionary
281
     1
  3
Model
350
10CA
  3
ﾚｲｱｳﾄ1
350
10CB
  0
DICTIONARY
  5
17
102
{ACAD_REACTORS
330
C
102
}
330
C
100
AcDbDictionary
281
     1
  3
STANDARD
350
18
  0
DICTIONARY
  5
19
102
{ACAD_REACTORS
330
C
102
}
330
C
100
AcDbDictionary
281
     1
  0
ACDBDICTIONARYWDFLT
  5
E
102
{ACAD_REACTORS
330
C
102
}
330
C
100
AcDbDictionary
281
     1
  3
Normal
350
F
100
AcDbDictionaryWithDefault
340
F
  0
DICTIONARY
  5
10CF
102
{ACAD_REACTORS
330
C
102
}
330
C
100
AcDbDictionary
281
     1
  3
CEPSNTYPE
350
10D9
  3
FINGERPRINTGUID
350
10DA
  3
HYPERLINKBASE
350
10D2
  3
INSUNITS
350
10D8
  3
LAYOUTDICT
350
10D4
  3
LWETCUNION
350
10D7
  3
PLOTSETDICT
350
10D5
  3
PLOTSTYLNAMDICT
350
10D6
  3
PSVPSCALE
350
10DC
  3
PUCSBASE
350
10DF
  3
PUCSORGBACK
350
10E5
  3
PUCSORGBOTTOM
350
10E1
  3
PUCSORGFRONT
350
10E4
  3
PUCSORGLEFT
350
10E2
  3
PUCSORGRIGHT
350
10E3
  3
PUCSORGTOP
350
10E0
  3
PUCSORTHOREF
350
10DD
  3
PUCSORTHOVIEW
350
10DE
  3
STYLESHEET
350
10D3
  3
TSTACKALIGN
350
10D0
  3
TSTACKSIZE
350
10D1
  3
UCSBASE
350
10E8
  3
UCSORGBACK
350
10EE
  3
UCSORGBOTTOM
350
10EA
  3
UCSORGFRONT
350
10ED
  3
UCSORGLEFT
350
10EB
  3
UCSORGRIGHT
350
10EC
  3
UCSORGTOP
350
10E9
  3
UCSORTHOREF
350
10E6
  3
UCSORTHOVIEW
350
10E7
  3
VERSIONGUID
350
10DB
  0
DICTIONARY
  5
7CA
102
{ACAD_REACTORS
330
C
102
}
330
C
100
AcDbDictionary
281
     1
  3
DIMASSOC
350
7CC
  3
HIDETEXT
350
7CB
  0
DICTIONARY
  5
481
102
{ACAD_REACTORS
330
480
102
}
330
480
100
AcDbDictionary
281
     1
  0
XRECORD
  5
10C7
102
{ACAD_REACTORS
330
7F0
102
}
330
7F0
100
AcDbXrecord
280
     1
340
1F
  0
XRECORD
  5
10C6
102
{ACAD_REACTORS
330
7EE
102
}
330
7EE
100
AcDbXrecord
280
     1
340
1B
  0
LAYOUT
  5
10CA
102
{ACAD_REACTORS
330
1A
102
}
330
1A
100
AcDbPlotSettings
  1

  2
8F大型複合機B_C7780
  4

  6

 40
0.0
 41
0.0
 42
0.0
 43
0.0
 44
0.0
 45
0.0
 46
0.0
 47
0.0
 48
0.0
 49
0.0
140
0.0
141
0.0
142
1.0
143
1.0
 70
  1712
 72
     0
 73
     0
 74
     0
  7

 75
     0
147
1.0
148
0.0
149
0.0
100
AcDbLayout
  1
Model
 70
     1
 71
     0
 10
0.0
 20
0.0
 11
12.0
 21
9.0
 12
0.0
 22
0.0
 32
0.0
 14
0.0
 24
0.0
 34
0.0
 15
0.0
 25
0.0
 35
0.0
146
0.0
 13
0.0
 23
0.0
 33
0.0
 16
1.0
 26
0.0
 36
0.0
 17
0.0
 27
1.0
 37
0.0
 76
     0
330
1F
  0
LAYOUT
  5
10CB
102
{ACAD_REACTORS
330
1A
102
}
330
1A
100
AcDbPlotSettings
  1

  2
8F大型複合機B_C7780
  4

  6

 40
0.0
 41
0.0
 42
0.0
 43
0.0
 44
0.0
 45
0.0
 46
0.0
 47
0.0
 48
0.0
 49
0.0
140
0.0
141
0.0
142
1.0
143
1.0
 70
   688
 72
     0
 73
     0
 74
     5
  7

 75
    16
147
1.0
148
0.0
149
0.0
100
AcDbLayout
  1
ﾚｲｱｳﾄ1
 70
     1
 71
     1
 10
0.0
 20
0.0
 11
420.0
 21
297.0
 12
0.0
 22
0.0
 32
0.0
 14
1.000000000000000E+20
 24
1.000000000000000E+20
 34
1.000000000000000E+20
 15
-1.000000000000000E+20
 25
-1.000000000000000E+20
 35
-1.000000000000000E+20
146
0.0
 13
0.0
 23
0.0
 33
0.0
 16
1.0
 26
0.0
 36
0.0
 17
0.0
 27
1.0
 37
0.0
 76
     0
330
1B
  0
MLINESTYLE
  5
18
102
{ACAD_REACTORS
330
17
102
}
330
17
100
AcDbMlineStyle
  2
STANDARD
 70
     0
  3

 62
   256
 51
90.0
 52
90.0
 71
     2
 49
0.5
 62
   256
  6
BYLAYER
 49
-0.5
 62
   256
  6
BYLAYER
  0
ACDBPLACEHOLDER
  5
F
102
{ACAD_REACTORS
330
E
102
}
330
E
  0
XRECORD
  5
10D9
102
{ACAD_REACTORS
330
10CF
102
}
330
10CF
100
AcDbXrecord
280
     1
 90
        0
  0
XRECORD
  5
10DA
102
{ACAD_REACTORS
330
10CF
102
}
330
10CF
100
AcDbXrecord
280
     1
  1
{59234AB0-AE73-4C98-BD35-D00B5BF71858}
  0
XRECORD
  5
10D2
102
{ACAD_REACTORS
330
10CF
102
}
330
10CF
100
AcDbXrecord
280
     1
  1

  0
XRECORD
  5
10D8
102
{ACAD_REACTORS
330
10CF
102
}
330
10CF
100
AcDbXrecord
280
     1
 90
        4
  0
XRECORD
  5
10D4
102
{ACAD_REACTORS
330
10CF
102
}
330
10CF
100
AcDbXrecord
280
     1
340
1A
  0
XRECORD
  5
10D7
102
{ACAD_REACTORS
330
10CF
102
}
330
10CF
100
AcDbXrecord
280
     1
 90
    10781
  0
XRECORD
  5
10D5
102
{ACAD_REACTORS
330
10CF
102
}
330
10CF
100
AcDbXrecord
280
     1
340
19
  0
XRECORD
  5
10D6
102
{ACAD_REACTORS
330
10CF
102
}
330
10CF
100
AcDbXrecord
280
     1
340
E
  0
XRECORD
  5
10DC
102
{ACAD_REACTORS
330
10CF
102
}
330
10CF
100
AcDbXrecord
280
     1
 40
0.0
  0
XRECORD
  5
10DF
102
{ACAD_REACTORS
330
10CF
102
}
330
10CF
100
AcDbXrecord
280
     1
340
0
  0
XRECORD
  5
10E5
102
{ACAD_REACTORS
330
10CF
102
}
330
10CF
100
AcDbXrecord
280
     1
 10
0.0
 20
0.0
 30
0.0
  0
XRECORD
  5
10E1
102
{ACAD_REACTORS
330
10CF
102
}
330
10CF
100
AcDbXrecord
280
     1
 10
0.0
 20
0.0
 30
0.0
  0
XRECORD
  5
10E4
102
{ACAD_REACTORS
330
10CF
102
}
330
10CF
100
AcDbXrecord
280
     1
 10
0.0
 20
0.0
 30
0.0
  0
XRECORD
  5
10E2
102
{ACAD_REACTORS
330
10CF
102
}
330
10CF
100
AcDbXrecord
280
     1
 10
0.0
 20
0.0
 30
0.0
  0
XRECORD
  5
10E3
102
{ACAD_REACTORS
330
10CF
102
}
330
10CF
100
AcDbXrecord
280
     1
 10
0.0
 20
0.0
 30
0.0
  0
XRECORD
  5
10E0
102
{ACAD_REACTORS
330
10CF
102
}
330
10CF
100
AcDbXrecord
280
     1
 10
0.0
 20
0.0
 30
0.0
  0
XRECORD
  5
10DD
102
{ACAD_REACTORS
330
10CF
102
}
330
10CF
100
AcDbXrecord
280
     1
340
0
  0
XRECORD
  5
10DE
102
{ACAD_REACTORS
330
10CF
102
}
330
10CF
100
AcDbXrecord
280
     1
 70
     0
  0
XRECORD
  5
10D3
102
{ACAD_REACTORS
330
10CF
102
}
330
10CF
100
AcDbXrecord
280
     1
  1

  0
XRECORD
  5
10D0
102
{ACAD_REACTORS
330
10CF
102
}
330
10CF
100
AcDbXrecord
280
     1
 90
        1
  0
XRECORD
  5
10D1
102
{ACAD_REACTORS
330
10CF
102
}
330
10CF
100
AcDbXrecord
280
     1
 90
       70
  0
XRECORD
  5
10E8
102
{ACAD_REACTORS
330
10CF
102
}
330
10CF
100
AcDbXrecord
280
     1
340
0
  0
XRECORD
  5
10EE
102
{ACAD_REACTORS
330
10CF
102
}
330
10CF
100
AcDbXrecord
280
     1
 10
0.0
 20
0.0
 30
0.0
  0
XRECORD
  5
10EA
102
{ACAD_REACTORS
330
10CF
102
}
330
10CF
100
AcDbXrecord
280
     1
 10
0.0
 20
0.0
 30
0.0
  0
XRECORD
  5
10ED
102
{ACAD_REACTORS
330
10CF
102
}
330
10CF
100
AcDbXrecord
280
     1
 10
0.0
 20
0.0
 30
0.0
  0
XRECORD
  5
10EB
102
{ACAD_REACTORS
330
10CF
102
}
330
10CF
100
AcDbXrecord
280
     1
 10
0.0
 20
0.0
 30
0.0
  0
XRECORD
  5
10EC
102
{ACAD_REACTORS
330
10CF
102
}
330
10CF
100
AcDbXrecord
280
     1
 10
0.0
 20
0.0
 30
0.0
  0
XRECORD
  5
10E9
102
{ACAD_REACTORS
330
10CF
102
}
330
10CF
100
AcDbXrecord
280
     1
 10
0.0
 20
0.0
 30
0.0
  0
XRECORD
  5
10E6
102
{ACAD_REACTORS
330
10CF
102
}
330
10CF
100
AcDbXrecord
280
     1
340
0
  0
XRECORD
  5
10E7
102
{ACAD_REACTORS
330
10CF
102
}
330
10CF
100
AcDbXrecord
280
     1
 70
     0
  0
XRECORD
  5
10DB
102
{ACAD_REACTORS
330
10CF
102
}
330
10CF
100
AcDbXrecord
280
     1
  1
{4CB9B5B5-7FBD-4E4A-B693-FCFA8779232A}
  0
DICTIONARYVAR
  5
7CC
102
{ACAD_REACTORS
330
7CA
102
}
330
7CA
100
DictionaryVariables
280
     0
  1
2
  0
DICTIONARYVAR
  5
7CB
102
{ACAD_REACTORS
330
7CA
102
}
330
7CA
100
DictionaryVariables
280
     0
  1
1
  0
ENDSEC
  0
EOF
