  0
SECTION
  2
HEADER
  9
$ACADVER
  1
AC1014
  9
$ACADMAINTVER
 70
     9
  9
$DWGCODEPAGE
  3
ANSI_932
  9
$INSBASE
 10
0.0
 20
0.0
 30
0.0
  9
$EXTMIN
 10
29.65008285917223
 20
-0.0000017314486059
 30
0.0
  9
$EXTMAX
 10
414.8627637589958
 20
412.9531608877652
 30
0.0
  9
$LIMMIN
 10
0.0
 20
0.0
  9
$LIMMAX
 10
420.0
 20
297.0
  9
$ORTHOMODE
 70
     0
  9
$REGENMODE
 70
     1
  9
$FILLMODE
 70
     1
  9
$QTEXTMODE
 70
     0
  9
$MIRRTEXT
 70
     1
  9
$DRAGMODE
 70
     2
  9
$LTSCALE
 40
1.0
  9
$OSMODE
 70
    55
  9
$ATTMODE
 70
     1
  9
$TEXTSIZE
 40
2.5
  9
$TRACEWID
 40
1.0
  9
$TEXTSTYLE
  7
STANDARD
  9
$CLAYER
  8
0
  9
$CELTYPE
  6
BYLAYER
  9
$CECOLOR
 62
   256
  9
$CELTSCALE
 40
1.0
  9
$DELOBJ
 70
     1
  9
$DISPSILH
 70
     0
  9
$DIMSCALE
 40
1.0
  9
$DIMASZ
 40
2.5
  9
$DIMEXO
 40
0.625
  9
$DIMDLI
 40
3.75
  9
$DIMRND
 40
0.0
  9
$DIMDLE
 40
0.0
  9
$DIMEXE
 40
1.25
  9
$DIMTP
 40
0.0
  9
$DIMTM
 40
0.0
  9
$DIMTXT
 40
2.5
  9
$DIMCEN
 40
2.5
  9
$DIMTSZ
 40
0.0
  9
$DIMTOL
 70
     0
  9
$DIMLIM
 70
     0
  9
$DIMTIH
 70
     0
  9
$DIMTOH
 70
     0
  9
$DIMSE1
 70
     0
  9
$DIMSE2
 70
     0
  9
$DIMTAD
 70
     1
  9
$DIMZIN
 70
     8
  9
$DIMBLK
  1

  9
$DIMASO
 70
     1
  9
$DIMSHO
 70
     1
  9
$DIMPOST
  1

  9
$DIMAPOST
  1

  9
$DIMALT
 70
     0
  9
$DIMALTD
 70
     3
  9
$DIMALTF
 40
0.03937007874016
  9
$DIMLFAC
 40
1.0
  9
$DIMTOFL
 70
     1
  9
$DIMTVP
 40
0.0
  9
$DIMTIX
 70
     0
  9
$DIMSOXD
 70
     0
  9
$DIMSAH
 70
     0
  9
$DIMBLK1
  1

  9
$DIMBLK2
  1

  9
$DIMSTYLE
  2
ISO-25
  9
$DIMCLRD
 70
     0
  9
$DIMCLRE
 70
     0
  9
$DIMCLRT
 70
     0
  9
$DIMTFAC
 40
1.0
  9
$DIMGAP
 40
0.625
  9
$DIMJUST
 70
     0
  9
$DIMSD1
 70
     0
  9
$DIMSD2
 70
     0
  9
$DIMTOLJ
 70
     0
  9
$DIMTZIN
 70
     8
  9
$DIMALTZ
 70
     0
  9
$DIMALTTZ
 70
     0
  9
$DIMFIT
 70
     3
  9
$DIMUPT
 70
     0
  9
$DIMUNIT
 70
     2
  9
$DIMDEC
 70
     2
  9
$DIMTDEC
 70
     2
  9
$DIMALTU
 70
     2
  9
$DIMALTTD
 70
     3
  9
$DIMTXSTY
  7
STANDARD
  9
$DIMAUNIT
 70
     0
  9
$LUNITS
 70
     2
  9
$LUPREC
 70
     4
  9
$SKETCHINC
 40
1.0
  9
$FILLETRAD
 40
10.0
  9
$AUNITS
 70
     0
  9
$AUPREC
 70
     0
  9
$MENU
  1
.
  9
$ELEVATION
 40
0.0
  9
$PELEVATION
 40
0.0
  9
$THICKNESS
 40
0.0
  9
$LIMCHECK
 70
     0
  9
$BLIPMODE
 70
     0
  9
$CHAMFERA
 40
10.0
  9
$CHAMFERB
 40
10.0
  9
$CHAMFERC
 40
20.0
  9
$CHAMFERD
 40
0.0
  9
$SKPOLY
 70
     0
  9
$TDCREATE
 40
2455874.713246505
  9
$TDUPDATE
 40
2456013.758776678
  9
$TDINDWG
 40
0.0023580324
  9
$TDUSRTIMER
 40
0.0023576852
  9
$USRTIMER
 70
     1
  9
$ANGBASE
 50
0.0
  9
$ANGDIR
 70
     0
  9
$PDMODE
 70
     0
  9
$PDSIZE
 40
0.0
  9
$PLINEWID
 40
0.0
  9
$COORDS
 70
     1
  9
$SPLFRAME
 70
     0
  9
$SPLINETYPE
 70
     6
  9
$SPLINESEGS
 70
     8
  9
$ATTDIA
 70
     0
  9
$ATTREQ
 70
     1
  9
$HANDLING
 70
 22529
  9
$HANDSEED
  5
877
  9
$SURFTAB1
 70
     6
  9
$SURFTAB2
 70
     6
  9
$SURFTYPE
 70
     6
  9
$SURFU
 70
     6
  9
$SURFV
 70
     6
  9
$UCSNAME
  2

  9
$UCSORG
 10
0.0
 20
0.0
 30
0.0
  9
$UCSXDIR
 10
1.0
 20
0.0
 30
0.0
  9
$UCSYDIR
 10
0.0
 20
1.0
 30
0.0
  9
$PUCSNAME
  2

  9
$PUCSORG
 10
0.0
 20
0.0
 30
0.0
  9
$PUCSXDIR
 10
1.0
 20
0.0
 30
0.0
  9
$PUCSYDIR
 10
0.0
 20
1.0
 30
0.0
  9
$USERI1
 70
     0
  9
$USERI2
 70
     0
  9
$USERI3
 70
     0
  9
$USERI4
 70
     0
  9
$USERI5
 70
     0
  9
$USERR1
 40
0.0
  9
$USERR2
 40
0.0
  9
$USERR3
 40
0.0
  9
$USERR4
 40
0.0
  9
$USERR5
 40
0.0
  9
$WORLDVIEW
 70
     1
  9
$SHADEDGE
 70
     3
  9
$SHADEDIF
 70
    70
  9
$TILEMODE
 70
     1
  9
$MAXACTVP
 70
    64
  9
$PINSBASE
 10
0.0
 20
0.0
 30
0.0
  9
$PLIMCHECK
 70
     0
  9
$PEXTMIN
 10
1.000000000000000E+20
 20
1.000000000000000E+20
 30
1.000000000000000E+20
  9
$PEXTMAX
 10
-1.000000000000000E+20
 20
-1.000000000000000E+20
 30
-1.000000000000000E+20
  9
$PLIMMIN
 10
0.0
 20
0.0
  9
$PLIMMAX
 10
420.0
 20
297.0
  9
$UNITMODE
 70
     0
  9
$VISRETAIN
 70
     1
  9
$PLINEGEN
 70
     0
  9
$PSLTSCALE
 70
     1
  9
$TREEDEPTH
 70
  3020
  9
$PICKSTYLE
 70
     1
  9
$CMLSTYLE
  2
STANDARD
  9
$CMLJUST
 70
     0
  9
$CMLSCALE
 40
20.0
  9
$PROXYGRAPHICS
 70
     1
  9
$MEASUREMENT
 70
     1
  0
ENDSEC
  0
SECTION
  2
CLASSES
  0
CLASS
  1
ACDBDICTIONARYWDFLT
  2
AcDbDictionaryWithDefault
  3
AutoCAD 2000
 90
        0
280
     0
281
     0
  0
CLASS
  1
ACDBPLACEHOLDER
  2
AcDbPlaceHolder
  3
AutoCAD 2000
 90
        0
280
     0
281
     0
  0
CLASS
  1
LAYOUT
  2
AcDbLayout
  3
AutoCAD 2000
 90
        0
280
     0
281
     0
  0
CLASS
  1
DICTIONARYVAR
  2
AcDbDictionaryVar
  3
AutoCAD 2000
 90
        0
280
     0
281
     0
  0
CLASS
  1
LONG_TRANSACTION
  2
AcDbLongTransaction
  3
AutoCAD 2000
 90
        0
280
     0
281
     0
  0
CLASS
  1
LWPOLYLINE
  2
AcDbPolyline
  3
AutoCAD 2000
 90
        0
280
     0
281
     1
  0
CLASS
  1
HATCH
  2
AcDbHatch
  3
AutoCAD 2000
 90
        0
280
     0
281
     1
  0
CLASS
  1
XRECORD
  2
AcDbXrecord
  3
AutoCAD 2000
 90
        0
280
     0
281
     0
  0
CLASS
  1
LONG_TRANSACTION
  2
AcDbLongTransaction
  3
AutoCAD 2000
 90
        0
280
     0
281
     0
  0
CLASS
  1
LWPOLYLINE
  2
AcDbPolyline
  3
AutoCAD 2000
 90
        0
280
     0
281
     1
  0
CLASS
  1
HATCH
  2
AcDbHatch
  3
AutoCAD 2000
 90
        0
280
     0
281
     1
  0
CLASS
  1
XRECORD
  2
AcDbXrecord
  3
AutoCAD 2000
 90
        0
280
     0
281
     0
  0
CLASS
  1
LONG_TRANSACTION
  2
AcDbLongTransaction
  3
AutoCAD 2000
 90
        0
280
     0
281
     0
  0
CLASS
  1
LWPOLYLINE
  2
AcDbPolyline
  3
AutoCAD 2000
 90
        0
280
     0
281
     1
  0
CLASS
  1
HATCH
  2
AcDbHatch
  3
AutoCAD 2000
 90
        0
280
     0
281
     1
  0
CLASS
  1
XRECORD
  2
AcDbXrecord
  3
AutoCAD 2000
 90
        0
280
     0
281
     0
  0
CLASS
  1
LONG_TRANSACTION
  2
AcDbLongTransaction
  3
AutoCAD 2000
 90
        0
280
     0
281
     0
  0
CLASS
  1
LWPOLYLINE
  2
AcDbPolyline
  3
AutoCAD 2000
 90
        0
280
     0
281
     1
  0
CLASS
  1
HATCH
  2
AcDbHatch
  3
AutoCAD 2000
 90
        0
280
     0
281
     1
  0
CLASS
  1
XRECORD
  2
AcDbXrecord
  3
AutoCAD 2000
 90
        0
280
     0
281
     0
  0
ENDSEC
  0
SECTION
  2
TABLES
  0
TABLE
  2
VPORT
  5
8
330
0
100
AcDbSymbolTable
 70
     2
  0
VPORT
  5
854
330
8
100
AcDbSymbolTableRecord
100
AcDbViewportTableRecord
  2
*ACTIVE
 70
     0
 10
0.0
 20
0.0
 11
1.0
 21
1.0
 12
179.911194790517
 22
206.4738243063607
 13
0.0
 23
0.0
 14
10.0
 24
10.0
 15
10.0
 25
10.0
 16
0.0
 26
0.0
 36
1.0
 17
0.0
 27
0.0
 37
0.0
 40
415.9728070109731
 41
1.46415552855407
 42
50.0
 43
0.0
 44
0.0
 50
0.0
 51
0.0
 71
     0
 72
   100
 73
     1
 74
     3
 75
     0
 76
     0
 77
     0
 78
     0
  0
ENDTAB
  0
TABLE
  2
LTYPE
  5
5
330
0
100
AcDbSymbolTable
 70
     1
  0
LTYPE
  5
14
330
5
100
AcDbSymbolTableRecord
100
AcDbLinetypeTableRecord
  2
BYBLOCK
 70
     0
  3

 72
    65
 73
     0
 40
0.0
  0
LTYPE
  5
15
330
5
100
AcDbSymbolTableRecord
100
AcDbLinetypeTableRecord
  2
BYLAYER
 70
     0
  3

 72
    65
 73
     0
 40
0.0
  0
LTYPE
  5
16
330
5
100
AcDbSymbolTableRecord
100
AcDbLinetypeTableRecord
  2
CONTINUOUS
 70
     0
  3
Solid line
 72
    65
 73
     0
 40
0.0
  0
ENDTAB
  0
TABLE
  2
LAYER
  5
2
102
{ACAD_XDICTIONARY
360
2DB
102
}
330
0
100
AcDbSymbolTable
 70
     3
  0
LAYER
  5
10
330
2
100
AcDbSymbolTableRecord
100
AcDbLayerTableRecord
  2
0
 70
     0
 62
     7
  6
CONTINUOUS
  0
LAYER
  5
2D7
330
2
100
AcDbSymbolTableRecord
100
AcDbLayerTableRecord
  2
DEFPOINTS
 70
     0
 62
    -7
  6
CONTINUOUS
  0
LAYER
  5
2D8
330
2
100
AcDbSymbolTableRecord
100
AcDbLayerTableRecord
  2
1
 70
     0
 62
     3
  6
CONTINUOUS
  0
ENDTAB
  0
TABLE
  2
STYLE
  5
3
330
0
100
AcDbSymbolTable
 70
     1
  0
STYLE
  5
11
330
3
100
AcDbSymbolTableRecord
100
AcDbTextStyleTableRecord
  2
STANDARD
 70
     0
 40
0.0
 41
1.0
 50
0.0
 71
     0
 42
2.5
  3
txt
  4

  0
ENDTAB
  0
TABLE
  2
VIEW
  5
6
330
0
100
AcDbSymbolTable
 70
     0
  0
ENDTAB
  0
TABLE
  2
UCS
  5
7
330
0
100
AcDbSymbolTable
 70
     0
  0
ENDTAB
  0
TABLE
  2
APPID
  5
9
330
0
100
AcDbSymbolTable
 70
     1
  0
APPID
  5
12
330
9
100
AcDbSymbolTableRecord
100
AcDbRegAppTableRecord
  2
ACAD
 70
     0
  0
ENDTAB
  0
TABLE
  2
DIMSTYLE
  5
A
330
0
100
AcDbSymbolTable
 70
     2
  0
DIMSTYLE
105
27
330
A
100
AcDbSymbolTableRecord
100
AcDbDimStyleTableRecord
  2
ISO-25
 70
     0
  3

  4

  5

  6

  7

 40
1.0
 41
2.5
 42
0.625
 43
3.75
 44
1.25
 45
0.0
 46
0.0
 47
0.0
 48
0.0
140
2.5
141
2.5
142
0.0
143
0.03937007874016
144
1.0
145
0.0
146
1.0
147
0.625
 71
     0
 72
     0
 73
     0
 74
     0
 75
     0
 76
     0
 77
     1
 78
     8
170
     0
171
     3
172
     1
173
     0
174
     0
175
     0
176
     0
177
     0
178
     0
270
     2
271
     2
272
     2
273
     2
274
     3
340
11
275
     0
280
     0
281
     0
282
     0
283
     0
284
     8
285
     0
286
     0
287
     3
288
     0
  0
DIMSTYLE
105
2DA
330
A
100
AcDbSymbolTableRecord
100
AcDbDimStyleTableRecord
  2
STANDARD
 70
     0
  3

  4

  5

  6

  7

 40
1.0
 41
2.5
 42
0.625
 43
3.75
 44
1.25
 45
0.0
 46
0.0
 47
0.0
 48
0.0
140
2.5
141
2.5
142
0.0
143
0.0394
144
1.0
145
0.0
146
1.0
147
0.625
 71
     0
 72
     0
 73
     0
 74
     0
 75
     0
 76
     0
 77
     1
 78
     8
170
     0
171
     4
172
     1
173
     0
174
     0
175
     0
176
     0
177
     0
178
     0
270
     2
271
     4
272
     4
273
     8
274
     4
340
11
275
     0
280
     0
281
     0
282
     0
283
     1
284
     0
285
     0
286
     0
287
     3
288
     0
  0
ENDTAB
  0
TABLE
  2
BLOCK_RECORD
  5
1
330
0
100
AcDbSymbolTable
 70
     4
  0
BLOCK_RECORD
  5
1F
102
{ACAD_XDICTIONARY
360
7F2
102
}
330
1
100
AcDbSymbolTableRecord
100
AcDbBlockTableRecord
  2
*MODEL_SPACE
  0
BLOCK_RECORD
  5
1B
102
{ACAD_XDICTIONARY
360
7F0
102
}
330
1
100
AcDbSymbolTableRecord
100
AcDbBlockTableRecord
  2
*PAPER_SPACE
  0
BLOCK_RECORD
  5
2B
330
1
100
AcDbSymbolTableRecord
100
AcDbBlockTableRecord
  2
A$C7A762DB8
  0
BLOCK_RECORD
  5
191
330
1
100
AcDbSymbolTableRecord
100
AcDbBlockTableRecord
  2
A$C413B70EE
  0
BLOCK_RECORD
  5
263
330
1
100
AcDbSymbolTableRecord
100
AcDbBlockTableRecord
  2
A$C40301A48
  0
ENDTAB
  0
ENDSEC
  0
SECTION
  2
BLOCKS
  0
BLOCK
  5
20
330
1F
100
AcDbEntity
  8
0
100
AcDbBlockBegin
  2
*MODEL_SPACE
 70
     0
 10
0.0
 20
0.0
 30
0.0
  3
*MODEL_SPACE
  1

  0
ENDBLK
  5
21
330
1F
100
AcDbEntity
  8
0
100
AcDbBlockEnd
  0
BLOCK
  5
1C
330
1B
100
AcDbEntity
 67
     1
  8
0
100
AcDbBlockBegin
  2
*PAPER_SPACE
 70
     0
 10
0.0
 20
0.0
 30
0.0
  3
*PAPER_SPACE
  1

  0
ENDBLK
  5
1D
330
1B
100
AcDbEntity
 67
     1
  8
0
100
AcDbBlockEnd
  0
BLOCK
  5
18F
330
2B
100
AcDbEntity
  8
0
100
AcDbBlockBegin
  2
A$C7A762DB8
 70
     0
 10
0.0
 20
0.0
 30
0.0
  3
A$C7A762DB8
  1

  0
LINE
  5
2C
330
2B
100
AcDbEntity
  8
0
100
AcDbLine
 10
67.49999625813416
 20
49.99999727219666
 30
0.0
 11
48.49999625813413
 21
49.99999727219669
 31
0.0
  0
LINE
  5
2D
330
2B
100
AcDbEntity
  8
0
100
AcDbLine
 10
48.55277444428816
 20
101.9999972721965
 30
0.0
 11
67.44721807197925
 21
101.9999972721965
 31
0.0
  0
LINE
  5
2E
330
2B
100
AcDbEntity
  8
0
100
AcDbLine
 10
48.49999625813413
 20
91.99999727219669
 30
0.0
 11
67.49999625813416
 21
91.99999727219664
 31
0.0
  0
LINE
  5
2F
330
2B
100
AcDbEntity
  8
0
100
AcDbLine
 10
48.49999625813413
 20
89.99999727219664
 30
0.0
 11
67.49999625813416
 21
89.99999727219664
 31
0.0
  0
LINE
  5
30
330
2B
100
AcDbEntity
  8
0
100
AcDbLine
 10
67.49999625813416
 20
51.99999727219664
 30
0.0
 11
48.49999625813413
 21
51.99999727219664
 31
0.0
  0
LINE
  5
31
330
2B
100
AcDbEntity
  8
0
100
AcDbLine
 10
17.99999625813416
 20
4.999997272197671
 30
0.0
 11
71.99999625813416
 21
3.585957507460647
 31
0.0
  0
LINE
  5
32
330
2B
100
AcDbEntity
  8
0
100
AcDbLine
 10
71.99999625813416
 20
3.585957507460647
 30
0.0
 11
18.99999625813416
 21
4.97381135062869
 31
0.0
  0
LINE
  5
33
330
2B
100
AcDbEntity
  8
0
100
AcDbLine
 10
68.49999625813416
 20
48.97381135062869
 30
0.0
 11
47.49999625813415
 21
48.97381135062869
 31
0.0
  0
LINE
  5
34
330
2B
100
AcDbEntity
  8
0
100
AcDbLine
 10
29.99999625813416
 20
21.97381135062868
 30
0.0
 11
71.99999625813416
 21
21.97381135062868
 31
0.0
  0
LINE
  5
35
330
2B
100
AcDbEntity
  8
0
100
AcDbLine
 10
70.99999625813416
 20
42.97381135062869
 30
0.0
 11
29.99999625813416
 21
42.97381135062869
 31
0.0
  0
LINE
  5
36
330
2B
100
AcDbEntity
  8
0
100
AcDbLine
 10
70.99999625813416
 20
40.97381135062867
 30
0.0
 11
29.99999625813416
 21
40.97381135062867
 31
0.0
  0
LINE
  5
37
330
2B
100
AcDbEntity
  8
0
100
AcDbLine
 10
70.99999625813416
 20
35.97381135062867
 30
0.0
 11
29.99999625813416
 21
35.97381135062867
 31
0.0
  0
LINE
  5
38
330
2B
100
AcDbEntity
  8
0
100
AcDbLine
 10
70.99999625813416
 20
33.97381135062869
 30
0.0
 11
29.99999625813416
 21
33.97381135062869
 31
0.0
  0
LINE
  5
39
330
2B
100
AcDbEntity
  8
0
100
AcDbLine
 10
70.99999625813416
 20
28.97381135062869
 30
0.0
 11
29.99999625813416
 21
28.97381135062869
 31
0.0
  0
LINE
  5
3A
330
2B
100
AcDbEntity
  8
0
100
AcDbLine
 10
70.99999625813416
 20
26.97381135062869
 30
0.0
 11
29.99999625813416
 21
26.97381135062869
 31
0.0
  0
LINE
  5
3B
330
2B
100
AcDbEntity
  8
0
100
AcDbLine
 10
19.99999625813416
 20
120.9738113506287
 30
0.0
 11
71.99999625813416
 21
120.9738113506287
 31
0.0
  0
LINE
  5
3C
330
2B
100
AcDbEntity
  8
0
100
AcDbLine
 10
29.99999625813416
 20
103.9738113506285
 30
0.0
 11
71.99999625813416
 21
103.9738113506285
 31
0.0
  0
LINE
  5
3D
330
2B
100
AcDbEntity
  8
0
100
AcDbLine
 10
-0.0000037418658394
 20
-0.0000027278023111
 30
0.0
 11
71.99999625813416
 21
-0.0000027278023254
 31
0.0
  0
LINE
  5
3E
330
2B
100
AcDbEntity
  8
0
100
AcDbLine
 10
-0.0000037418658394
 20
78.99999727219769
 30
0.0
 11
-0.0000037418658394
 21
53.99999727219768
 31
0.0
  0
LINE
  5
3F
330
2B
100
AcDbEntity
  8
0
100
AcDbLine
 10
48.49999625813413
 20
49.99999727219669
 30
0.0
 11
48.49999625813413
 21
91.99999727219669
 31
0.0
  0
LINE
  5
40
330
2B
100
AcDbEntity
  8
0
100
AcDbLine
 10
18.99999625813416
 20
70.99999727219767
 30
0.0
 11
18.99999625813416
 21
32.99999727219766
 31
0.0
  0
LINE
  5
41
330
2B
100
AcDbEntity
  8
0
100
AcDbLine
 10
19.99999625813416
 20
32.97381135062966
 30
0.0
 11
19.99999625813416
 21
70.97381135062869
 31
0.0
  0
LINE
  5
42
330
2B
100
AcDbEntity
  8
0
100
AcDbLine
 10
29.99999625813416
 20
103.9738113506285
 30
0.0
 11
29.99999625813416
 21
21.97381135062868
 31
0.0
  0
ARC
  5
43
330
2B
100
AcDbEntity
  8
0
100
AcDbCircle
 10
0.9999962581341604
 20
56.05153804514964
 30
0.0
 40
1.0
100
AcDbArc
 50
93.03047684586102
 51
180.0
  0
LINE
  5
44
330
2B
100
AcDbEntity
  8
0
100
AcDbLine
 10
17.99999625813416
 20
4.999997272197671
 30
0.0
 11
-0.0000037418658394
 21
4.52865068395171
 31
0.0
  0
LINE
  5
45
330
2B
100
AcDbEntity
  8
0
100
AcDbLine
 10
-0.0000037418658394
 20
21.17551498883972
 30
0.0
 11
-0.0000037418658394
 21
-0.0000027278023111
 31
0.0
  0
LINE
  5
46
330
2B
100
AcDbEntity
  8
0
100
AcDbLine
 10
0.1464428675408271
 20
53.64644388160439
 30
0.0
 11
3.99999625813416
 21
51.99999727219767
 31
0.0
  0
LINE
  5
47
330
2B
100
AcDbEntity
  8
0
100
AcDbLine
 10
0.4738282800130948
 20
21.67482975621773
 30
0.0
 11
11.57850019249917
 21
22.2568009508177
 31
0.0
  0
LINE
  5
48
330
2B
100
AcDbEntity
  8
0
100
AcDbLine
 10
0.9471291169941196
 20
29.05013960001873
 30
0.0
 11
11.57929696984524
 21
29.61301907458164
 31
0.0
  0
LINE
  5
49
330
2B
100
AcDbEntity
  8
0
100
AcDbLine
 10
0.9471291169941196
 20
26.94985494437573
 30
0.0
 11
11.57929696984524
 21
26.38697546981267
 31
0.0
  0
LINE
  5
4A
330
2B
100
AcDbEntity
  8
0
100
AcDbLine
 10
0.9471291169941196
 20
54.94985494437571
 30
0.0
 11
11.57929696984524
 21
54.38697546981268
 31
0.0
  0
LINE
  5
4B
330
2B
100
AcDbEntity
  8
0
100
AcDbLine
 10
0.9471291169941196
 20
50.05013960001871
 30
0.0
 11
11.57929696984524
 21
50.61301907458164
 31
0.0
  0
LINE
  5
4C
330
2B
100
AcDbEntity
  8
0
100
AcDbLine
 10
0.9471291169941196
 20
47.94985494437571
 30
0.0
 11
11.57929696984524
 21
47.38697546981268
 31
0.0
  0
LINE
  5
4D
330
2B
100
AcDbEntity
  8
0
100
AcDbLine
 10
0.9471291169941196
 20
43.05013960001871
 30
0.0
 11
11.57929696984524
 21
43.61301907458164
 31
0.0
  0
LINE
  5
4E
330
2B
100
AcDbEntity
  8
0
100
AcDbLine
 10
0.9471291169941196
 20
40.94985494437572
 30
0.0
 11
11.57929696984524
 21
40.38697546981268
 31
0.0
  0
LINE
  5
4F
330
2B
100
AcDbEntity
  8
0
100
AcDbLine
 10
0.9471291169941196
 20
36.05013960001871
 30
0.0
 11
11.57929696984524
 21
36.61301907458164
 31
0.0
  0
LINE
  5
50
330
2B
100
AcDbEntity
  8
0
100
AcDbLine
 10
0.9471291169941196
 20
33.94985494437573
 30
0.0
 11
11.57929696984524
 21
33.38697546981268
 31
0.0
  0
POINT
  5
51
330
2B
100
AcDbEntity
  8
0
100
AcDbPoint
 10
-0.0000037418658394
 20
21.64999727219766
 30
0.0
  0
ARC
  5
52
330
2B
100
AcDbEntity
  8
0
100
AcDbCircle
 10
0.4999962581341606
 20
21.17551498883972
 30
0.0
 40
0.5
100
AcDbArc
 50
92.9999999999991
 51
180.0
  0
LINE
  5
53
330
2B
100
AcDbEntity
  8
0
100
AcDbLine
 10
-0.0000037418658394
 20
28.05153804514965
 30
0.0
 11
-0.0000037418658394
 21
27.9484564992447
 31
0.0
  0
ARC
  5
54
330
2B
100
AcDbEntity
  8
0
100
AcDbCircle
 10
0.9999962581341604
 20
28.05153804514965
 30
0.0
 40
1.0
100
AcDbArc
 50
93.03047684586102
 51
180.0
  0
ARC
  5
55
330
2B
100
AcDbEntity
  8
0
100
AcDbCircle
 10
0.9999962581341604
 20
27.9484564992447
 30
0.0
 40
1.0
100
AcDbArc
 50
180.0
 51
266.9695231541389
  0
LINE
  5
56
330
2B
100
AcDbEntity
  8
0
100
AcDbLine
 10
-0.0000037418658394
 20
35.05153804514964
 30
0.0
 11
-0.0000037418658394
 21
34.94845649924467
 31
0.0
  0
ARC
  5
57
330
2B
100
AcDbEntity
  8
0
100
AcDbCircle
 10
0.9999962581341604
 20
35.05153804514964
 30
0.0
 40
1.0
100
AcDbArc
 50
93.03047684586102
 51
180.0
  0
ARC
  5
58
330
2B
100
AcDbEntity
  8
0
100
AcDbCircle
 10
0.9999962581341604
 20
34.94845649924469
 30
0.0
 40
1.0
100
AcDbArc
 50
180.0
 51
266.9695231541389
  0
ARC
  5
59
330
2B
100
AcDbEntity
  8
0
100
AcDbCircle
 10
0.4999962581341606
 20
53.99999727219768
 30
0.0
 40
0.5
100
AcDbArc
 50
180.0
 51
224.9999999999904
  0
LINE
  5
5A
330
2B
100
AcDbEntity
  8
0
100
AcDbLine
 10
-0.0000037418658394
 20
42.05153804514964
 30
0.0
 11
-0.0000037418658394
 21
41.94845649924467
 31
0.0
  0
ARC
  5
5B
330
2B
100
AcDbEntity
  8
0
100
AcDbCircle
 10
0.9999962581341604
 20
42.05153804514964
 30
0.0
 40
1.0
100
AcDbArc
 50
93.03047684586102
 51
180.0
  0
ARC
  5
5C
330
2B
100
AcDbEntity
  8
0
100
AcDbCircle
 10
0.9999962581341604
 20
41.94845649924467
 30
0.0
 40
1.0
100
AcDbArc
 50
180.0
 51
266.9695231541389
  0
LINE
  5
5D
330
2B
100
AcDbEntity
  8
0
100
AcDbLine
 10
-0.0000037418658394
 20
56.05153804514964
 30
0.0
 11
-0.0000037418658394
 21
55.94845649924469
 31
0.0
  0
ARC
  5
5E
330
2B
100
AcDbEntity
  8
0
100
AcDbCircle
 10
0.9999962581341604
 20
55.94845649924469
 30
0.0
 40
1.0
100
AcDbArc
 50
180.0
 51
266.9695231541389
  0
LINE
  5
5F
330
2B
100
AcDbEntity
  8
0
100
AcDbLine
 10
-0.0000037418658394
 20
49.05153804514964
 30
0.0
 11
-0.0000037418658394
 21
48.94845649924469
 31
0.0
  0
ARC
  5
60
330
2B
100
AcDbEntity
  8
0
100
AcDbCircle
 10
0.9999962581341604
 20
49.05153804514964
 30
0.0
 40
1.0
100
AcDbArc
 50
93.03047684586102
 51
180.0
  0
ARC
  5
61
330
2B
100
AcDbEntity
  8
0
100
AcDbCircle
 10
0.9999962581341604
 20
48.94845649924469
 30
0.0
 40
1.0
100
AcDbArc
 50
180.0
 51
266.9695231541389
  0
ARC
  5
62
330
2B
100
AcDbEntity
  8
0
100
AcDbCircle
 10
11.49999625813416
 20
38.11092140688574
 30
0.0
 40
1.5
100
AcDbArc
 50
273.030476845861
 51
0.0
  0
LINE
  5
63
330
2B
100
AcDbEntity
  8
0
100
AcDbLine
 10
12.99999625813416
 20
31.88907313750871
 30
0.0
 11
12.99999625813416
 21
31.11092140688572
 31
0.0
  0
ARC
  5
64
330
2B
100
AcDbEntity
  8
0
100
AcDbCircle
 10
11.49999625813416
 20
31.11092140688572
 30
0.0
 40
1.5
100
AcDbArc
 50
273.030476845861
 51
0.0
  0
LINE
  5
65
330
2B
100
AcDbEntity
  8
0
100
AcDbLine
 10
12.99999625813416
 20
24.88907313750871
 30
0.0
 11
12.99999625813416
 21
23.75474525294964
 31
0.0
  0
ARC
  5
66
330
2B
100
AcDbEntity
  8
0
100
AcDbCircle
 10
11.49999625813416
 20
24.88907313750873
 30
0.0
 40
1.5
100
AcDbArc
 50
0.0
 51
86.96952315413897
  0
ARC
  5
67
330
2B
100
AcDbEntity
  8
0
100
AcDbCircle
 10
11.49999625813416
 20
23.75474525294966
 30
0.0
 40
1.5
100
AcDbArc
 50
273.0000000000056
 51
0.0
  0
ARC
  5
68
330
2B
100
AcDbEntity
  8
0
100
AcDbCircle
 10
11.49999625813416
 20
31.88907313750873
 30
0.0
 40
1.5
100
AcDbArc
 50
0.0
 51
86.96952315413897
  0
LINE
  5
69
330
2B
100
AcDbEntity
  8
0
  6
CONTINUOUS
100
AcDbLine
 10
5.999996258134157
 20
46.49999727219767
 30
0.0
 11
12.86994943312026
 21
46.49999727219767
 31
0.0
  0
LINE
  5
6A
330
2B
100
AcDbEntity
  8
0
  6
CONTINUOUS
100
AcDbLine
 10
3.999996258134046
 20
54.78823256631528
 30
0.0
 11
3.99999625813416
 21
53.99999727219768
 31
0.0
  0
LINE
  5
6B
330
2B
100
AcDbEntity
  8
0
  6
CONTINUOUS
100
AcDbLine
 10
5.999996258134157
 20
54.68235021337403
 30
0.0
 11
5.999996258134157
 21
50.31764433102035
 31
0.0
  0
LINE
  5
6C
330
2B
100
AcDbEntity
  8
0
100
AcDbLine
 10
1.999996258134158
 20
54.8941149192565
 30
0.0
 11
1.999996258134158
 21
54.85450553640181
 31
0.0
  0
LINE
  5
6D
330
2B
100
AcDbEntity
  8
0
100
AcDbLine
 10
3.99999625813416
 20
47.78823256631528
 30
0.0
 11
3.99999625813416
 21
46.99999727219767
 31
0.0
  0
LINE
  5
6E
330
2B
100
AcDbEntity
  8
0
100
AcDbLine
 10
5.999996258134157
 20
50.31764433102035
 30
0.0
 11
5.999996258134157
 21
53.99999727219768
 31
0.0
  0
LINE
  5
6F
330
2B
100
AcDbEntity
  8
0
  6
CONTINUOUS
100
AcDbLine
 10
5.999996258134157
 20
47.68235021337403
 30
0.0
 11
5.999996258134157
 21
46.49999727219767
 31
0.0
  0
LINE
  5
70
330
2B
100
AcDbEntity
  8
0
100
AcDbLine
 10
1.999996258134158
 20
52.85450553640176
 30
0.0
 11
1.999996258134158
 21
51.99999727219767
 31
0.0
  0
LINE
  5
71
330
2B
100
AcDbEntity
  8
0
100
AcDbLine
 10
1.999996258134158
 20
54.85450553640181
 30
0.0
 11
3.99999625813416
 21
53.99999727219768
 31
0.0
  0
LINE
  5
72
330
2B
100
AcDbEntity
  8
0
100
AcDbLine
 10
1.999996258134158
 20
54.85450553640176
 30
0.0
 11
1.999996258134158
 21
54.8941149192565
 31
0.0
  0
ARC
  5
73
330
2B
100
AcDbEntity
  8
0
100
AcDbCircle
 10
2.49999625813416
 20
51.99999727219767
 30
0.0
 40
0.5
100
AcDbArc
 50
180.0
 51
270.0
  0
ARC
  5
74
330
2B
100
AcDbEntity
  8
0
100
AcDbCircle
 10
3.49999625813416
 20
51.99999727219767
 30
0.0
 40
0.5
100
AcDbArc
 50
270.0
 51
0.0
  0
LINE
  5
75
330
2B
100
AcDbEntity
  8
0
100
AcDbLine
 10
2.49999625813416
 20
51.49999727219768
 30
0.0
 11
3.49999625813416
 21
51.49999727219768
 31
0.0
  0
ARC
  5
76
330
2B
100
AcDbEntity
  8
0
100
AcDbCircle
 10
4.499996258134159
 20
46.99999727219767
 30
0.0
 40
0.5
100
AcDbArc
 50
180.0
 51
270.0
  0
ARC
  5
77
330
2B
100
AcDbEntity
  8
0
100
AcDbCircle
 10
5.499996258134386
 20
46.99999727219767
 30
0.0
 40
0.5
100
AcDbArc
 50
270.0
 51
0.0
  0
ARC
  5
78
330
2B
100
AcDbEntity
  8
0
100
AcDbCircle
 10
5.499996258134157
 20
53.99999727219768
 30
0.0
 40
0.5
100
AcDbArc
 50
0.0
 51
90.0
  0
ARC
  5
79
330
2B
100
AcDbEntity
  8
0
100
AcDbCircle
 10
4.499996258134159
 20
53.99999727219768
 30
0.0
 40
0.5
100
AcDbArc
 50
90.0
 51
180.0
  0
LINE
  5
7A
330
2B
100
AcDbEntity
  8
0
100
AcDbLine
 10
3.99999625813416
 20
51.9999972721978
 30
0.0
 11
3.99999625813416
 21
50.21176197807914
 31
0.0
  0
LINE
  5
7B
330
2B
100
AcDbEntity
  8
0
100
AcDbLine
 10
5.499996258134157
 20
54.49999727219767
 30
0.0
 11
4.499996258134159
 21
54.49999727219767
 31
0.0
  0
LINE
  5
7C
330
2B
100
AcDbEntity
  8
0
100
AcDbLine
 10
5.999996258134387
 20
46.99999727219767
 30
0.0
 11
5.999996258134387
 21
47.68235021337402
 31
0.0
  0
LINE
  5
7D
330
2B
100
AcDbEntity
  8
0
100
AcDbLine
 10
4.499996258134159
 20
46.49999727219767
 30
0.0
 11
5.499996258134386
 21
46.49999727219767
 31
0.0
  0
LINE
  5
7E
330
2B
100
AcDbEntity
  8
0
100
AcDbLine
 10
12.99999625813416
 20
38.88907313750872
 30
0.0
 11
12.99999625813416
 21
38.11092140688572
 31
0.0
  0
LINE
  5
7F
330
2B
100
AcDbEntity
  8
0
100
AcDbLine
 10
11.99999625813416
 20
43.69670784451272
 30
0.0
 11
11.99999625813416
 21
46.49999727219767
 31
0.0
  0
LINE
  5
80
330
2B
100
AcDbEntity
  8
0
100
AcDbLine
 10
12.99999625813416
 20
45.88907313750872
 30
0.0
 11
12.99999625813416
 21
45.11092140688572
 31
0.0
  0
ARC
  5
81
330
2B
100
AcDbEntity
  8
0
100
AcDbCircle
 10
11.49999625813416
 20
45.88907313750872
 30
0.0
 40
1.5
100
AcDbArc
 50
0.0
 51
86.96952315413897
  0
ARC
  5
82
330
2B
100
AcDbEntity
  8
0
100
AcDbCircle
 10
11.49999625813416
 20
45.11092140688572
 30
0.0
 40
1.5
100
AcDbArc
 50
273.030476845861
 51
0.0
  0
ARC
  5
83
330
2B
100
AcDbEntity
  8
0
100
AcDbCircle
 10
11.49999625813416
 20
38.88907313750872
 30
0.0
 40
1.5
100
AcDbArc
 50
0.0
 51
86.96952315413897
  0
LINE
  5
84
330
2B
100
AcDbEntity
  8
0
100
AcDbLine
 10
12.99999625813416
 20
52.88907313750872
 30
0.0
 11
12.99999625813416
 21
52.11092140688572
 31
0.0
  0
ARC
  5
85
330
2B
100
AcDbEntity
  8
0
100
AcDbCircle
 10
11.49999625813416
 20
52.88907313750872
 30
0.0
 40
1.5
100
AcDbArc
 50
0.0
 51
86.96952315413897
  0
ARC
  5
86
330
2B
100
AcDbEntity
  8
0
100
AcDbCircle
 10
11.49999625813416
 20
52.11092140688572
 30
0.0
 40
1.5
100
AcDbArc
 50
273.030476845861
 51
0.0
  0
LINE
  5
87
330
2B
100
AcDbEntity
  8
0
100
AcDbLine
 10
18.99999625813416
 20
20.99999727219767
 30
0.0
 11
18.99999625813416
 21
4.973811350627666
 31
0.0
  0
LINE
  5
88
330
2B
100
AcDbEntity
  8
0
100
AcDbLine
 10
19.99999625813416
 20
4.921439507490672
 30
0.0
 11
19.99999625813416
 21
20.97381135062869
 31
0.0
  0
LINE
  5
89
330
2B
100
AcDbEntity
  8
0
100
AcDbLine
 10
45.2912841056111
 20
4.259163827532685
 30
0.0
 11
45.2912841056111
 21
21.97381135062868
 31
0.0
  0
LINE
  5
8A
330
2B
100
AcDbEntity
  8
0
100
AcDbLine
 10
40.70870841065607
 20
4.37916279526564
 30
0.0
 11
40.70870841065607
 21
21.97381135062971
 31
0.0
  0
LINE
  5
8B
330
2B
100
AcDbEntity
  8
0
100
AcDbLine
 10
40.89999625813312
 20
3.799997272196661
 30
0.0
 11
40.89999625813312
 21
-0.0000027278023254
 31
0.0
  0
LINE
  5
8C
330
2B
100
AcDbEntity
  8
0
100
AcDbLine
 10
45.09999625813406
 20
3.799997272196661
 30
0.0
 11
45.09999625813406
 21
-0.0000027278023254
 31
0.0
  0
LINE
  5
8D
330
2B
100
AcDbEntity
  8
0
100
AcDbLine
 10
37.49999625813415
 20
3.799997272196661
 30
0.0
 11
48.49999625813413
 21
3.799997272196661
 31
0.0
  0
LINE
  5
8E
330
2B
100
AcDbEntity
  8
0
100
AcDbLine
 10
37.49999625813415
 20
4.489371801597711
 30
0.0
 11
37.49999625813415
 21
3.799997272196661
 31
0.0
  0
LINE
  5
8F
330
2B
100
AcDbEntity
  8
0
100
AcDbLine
 10
48.49999625813413
 20
4.20132666433767
 30
0.0
 11
48.49999625813413
 21
3.799997272196661
 31
0.0
  0
LINE
  5
90
330
2B
100
AcDbEntity
  8
0
100
AcDbLine
 10
48.49999625813413
 20
54.9738113506287
 30
0.0
 11
29.99999625813416
 21
54.9738113506287
 31
0.0
  0
LINE
  5
91
330
2B
100
AcDbEntity
  8
0
100
AcDbLine
 10
46.99999625813414
 20
49.9738113506287
 30
0.0
 11
29.99999625813416
 21
49.9738113506287
 31
0.0
  0
LINE
  5
92
330
2B
100
AcDbEntity
  8
0
100
AcDbLine
 10
46.99999625813414
 20
47.97381135062869
 30
0.0
 11
29.99999625813416
 21
47.97381135062869
 31
0.0
  0
LINE
  5
93
330
2B
100
AcDbEntity
  8
0
100
AcDbLine
 10
23.49999625813416
 20
22.99999727219767
 30
0.0
 11
21.99999625813313
 21
22.99999727219767
 31
0.0
  0
LINE
  5
94
330
2B
100
AcDbEntity
  8
0
100
AcDbLine
 10
23.69999625813306
 20
22.47381135062869
 30
0.0
 11
21.99999625813313
 21
22.47381135062869
 31
0.0
  0
LINE
  5
95
330
2B
100
AcDbEntity
  8
0
100
AcDbLine
 10
18.99999625813416
 20
20.99999727219767
 30
0.0
 11
17.6999962581342
 21
20.99999727219767
 31
0.0
  0
LINE
  5
96
330
2B
100
AcDbEntity
  8
0
100
AcDbLine
 10
19.99999625813416
 20
20.97381135062869
 30
0.0
 11
18.99999625813416
 21
20.97381135062869
 31
0.0
  0
LINE
  5
97
330
2B
100
AcDbEntity
  8
0
100
AcDbLine
 10
23.49999625813416
 20
30.99999727219767
 30
0.0
 11
21.99999625813313
 21
30.99999727219767
 31
0.0
  0
LINE
  5
98
330
2B
100
AcDbEntity
  8
0
100
AcDbLine
 10
18.99999625813416
 20
32.99999727219766
 30
0.0
 11
17.6999962581342
 21
32.99999727219766
 31
0.0
  0
LINE
  5
99
330
2B
100
AcDbEntity
  8
0
100
AcDbLine
 10
23.69999625813306
 20
31.47381135062869
 30
0.0
 11
21.99999625813313
 21
31.47381135062869
 31
0.0
  0
LINE
  5
9A
330
2B
100
AcDbEntity
  8
0
100
AcDbLine
 10
19.99999625813416
 20
32.97381135062966
 30
0.0
 11
18.99999625813416
 21
32.97381135062966
 31
0.0
  0
LINE
  5
9B
330
2B
100
AcDbEntity
  8
0
100
AcDbLine
 10
22.09999625813407
 20
30.99999727219767
 30
0.0
 11
22.09999625813407
 21
22.99999727219767
 31
0.0
  0
LINE
  5
9C
330
2B
100
AcDbEntity
  8
0
100
AcDbLine
 10
22.6999962581342
 20
30.99999727219767
 30
0.0
 11
22.6999962581342
 21
22.99999727219767
 31
0.0
  0
LINE
  5
9D
330
2B
100
AcDbEntity
  8
0
100
AcDbLine
 10
23.49999625813416
 20
30.99999727219767
 30
0.0
 11
23.49999625813416
 21
22.99999727219767
 31
0.0
  0
LINE
  5
9E
330
2B
100
AcDbEntity
  8
0
100
AcDbLine
 10
17.6999962581342
 20
32.99999727219766
 30
0.0
 11
17.6999962581342
 21
21.09999727219667
 31
0.0
  0
LINE
  5
9F
330
2B
100
AcDbEntity
  8
0
100
AcDbLine
 10
18.49999625813416
 20
32.99999727219766
 30
0.0
 11
18.49999625813416
 21
20.99999727219767
 31
0.0
  0
LINE
  5
A0
330
2B
100
AcDbEntity
  8
0
100
AcDbLine
 10
18.99999625813416
 20
32.99999727219766
 30
0.0
 11
18.99999625813416
 21
20.99999727219663
 31
0.0
  0
LINE
  5
A1
330
2B
100
AcDbEntity
  8
0
100
AcDbLine
 10
21.99999625813313
 20
31.47381135062869
 30
0.0
 11
21.99999625813313
 21
22.47381135062869
 31
0.0
  0
LINE
  5
A2
330
2B
100
AcDbEntity
  8
0
100
AcDbLine
 10
23.69999625813306
 20
31.47381135062869
 30
0.0
 11
23.69999625813306
 21
22.47381135062869
 31
0.0
  0
LINE
  5
A3
330
2B
100
AcDbEntity
  8
0
100
AcDbLine
 10
46.99999625813414
 20
47.97381135062869
 30
0.0
 11
46.99999625813414
 21
49.9738113506287
 31
0.0
  0
LINE
  5
A4
330
2B
100
AcDbEntity
  8
0
100
AcDbLine
 10
47.49999625813415
 20
48.97381135062869
 30
0.0
 11
47.49999625813415
 21
54.9738113506287
 31
0.0
  0
LINE
  5
A5
330
2B
100
AcDbEntity
  8
0
100
AcDbLine
 10
-0.0000037418658394
 20
120.5286506839515
 30
0.0
 11
17.9999962581371
 21
120.9999972721965
 31
0.0
  0
LINE
  5
A6
330
2B
100
AcDbEntity
  8
0
100
AcDbLine
 10
10.79999625813513
 20
96.42823256631473
 30
0.0
 11
10.79999625813513
 21
92.57176197807972
 31
0.0
  0
LINE
  5
A7
330
2B
100
AcDbEntity
  8
0
100
AcDbLine
 10
12.99999625813416
 20
94.88907313750871
 30
0.0
 11
12.99999625813416
 21
94.11092140688571
 31
0.0
  0
LINE
  5
A8
330
2B
100
AcDbEntity
  8
0
100
AcDbLine
 10
0.1464428675408271
 20
79.35355066279097
 30
0.0
 11
3.99999625813416
 21
80.99999727219769
 31
0.0
  0
LINE
  5
A9
330
2B
100
AcDbEntity
  8
0
100
AcDbLine
 10
0.9471291169941196
 20
64.05013960001872
 30
0.0
 11
11.57929696984524
 21
64.61301907458164
 31
0.0
  0
LINE
  5
AA
330
2B
100
AcDbEntity
  8
0
100
AcDbLine
 10
0.9471291169941196
 20
61.94985494437571
 30
0.0
 11
11.57929696984524
 21
61.38697546981268
 31
0.0
  0
LINE
  5
AB
330
2B
100
AcDbEntity
  8
0
100
AcDbLine
 10
0.9471291169941196
 20
57.0501396000187
 30
0.0
 11
11.57929696984524
 21
57.61301907458165
 31
0.0
  0
LINE
  5
AC
330
2B
100
AcDbEntity
  8
0
100
AcDbLine
 10
0.9471291169941196
 20
92.0501396000187
 30
0.0
 11
11.57929696984524
 21
92.61301907458165
 31
0.0
  0
LINE
  5
AD
330
2B
100
AcDbEntity
  8
0
100
AcDbLine
 10
0.9471291169941196
 20
89.94985494437569
 30
0.0
 11
11.57929696984524
 21
89.38697546981268
 31
0.0
  0
LINE
  5
AE
330
2B
100
AcDbEntity
  8
0
100
AcDbLine
 10
0.9471291169941196
 20
85.05013960001873
 30
0.0
 11
11.57929696984524
 21
85.61301907458163
 31
0.0
  0
LINE
  5
AF
330
2B
100
AcDbEntity
  8
0
100
AcDbLine
 10
0.9471291169941196
 20
82.94985494437572
 30
0.0
 11
11.57929696984524
 21
82.38697546981269
 31
0.0
  0
LINE
  5
B0
330
2B
100
AcDbEntity
  8
0
100
AcDbLine
 10
0.9471291169941196
 20
78.05013960001872
 30
0.0
 11
11.57929696984524
 21
78.61301907458164
 31
0.0
  0
LINE
  5
B1
330
2B
100
AcDbEntity
  8
0
100
AcDbLine
 10
0.9471291169941196
 20
75.94985494437572
 30
0.0
 11
11.57929696984524
 21
75.38697546981268
 31
0.0
  0
LINE
  5
B2
330
2B
100
AcDbEntity
  8
0
100
AcDbLine
 10
0.9471291169941196
 20
71.05013960001873
 30
0.0
 11
11.57929696984524
 21
71.61301907458164
 31
0.0
  0
LINE
  5
B3
330
2B
100
AcDbEntity
  8
0
100
AcDbLine
 10
0.9471291169941196
 20
68.94985494437571
 30
0.0
 11
11.57929696984524
 21
68.38697546981268
 31
0.0
  0
LINE
  5
B4
330
2B
100
AcDbEntity
  8
0
100
AcDbLine
 10
-0.0000037418658394
 20
63.05153804514964
 30
0.0
 11
-0.0000037418658394
 21
62.94845649924468
 31
0.0
  0
ARC
  5
B5
330
2B
100
AcDbEntity
  8
0
100
AcDbCircle
 10
0.9999962581341604
 20
63.05153804514964
 30
0.0
 40
1.0
100
AcDbArc
 50
93.03047684586102
 51
180.0
  0
ARC
  5
B6
330
2B
100
AcDbEntity
  8
0
100
AcDbCircle
 10
0.9999962581341604
 20
62.94845649924468
 30
0.0
 40
1.0
100
AcDbArc
 50
180.0
 51
266.9695231541389
  0
LINE
  5
B7
330
2B
100
AcDbEntity
  8
0
100
AcDbLine
 10
-0.0000037418658394
 20
70.05153804514964
 30
0.0
 11
-0.0000037418658394
 21
69.94845649924468
 31
0.0
  0
ARC
  5
B8
330
2B
100
AcDbEntity
  8
0
100
AcDbCircle
 10
0.9999962581341604
 20
70.05153804514964
 30
0.0
 40
1.0
100
AcDbArc
 50
93.03047684586102
 51
180.0
  0
ARC
  5
B9
330
2B
100
AcDbEntity
  8
0
100
AcDbCircle
 10
0.9999962581341604
 20
69.94845649924468
 30
0.0
 40
1.0
100
AcDbArc
 50
180.0
 51
266.9695231541389
  0
ARC
  5
BA
330
2B
100
AcDbEntity
  8
0
100
AcDbCircle
 10
0.4999962581341606
 20
78.99999727219769
 30
0.0
 40
0.5
100
AcDbArc
 50
134.9999999999726
 51
180.0
  0
LINE
  5
BB
330
2B
100
AcDbEntity
  8
0
100
AcDbLine
 10
-0.0000037418658394
 20
77.05153804514964
 30
0.0
 11
-0.0000037418658394
 21
76.94845649924468
 31
0.0
  0
ARC
  5
BC
330
2B
100
AcDbEntity
  8
0
100
AcDbCircle
 10
0.9999962581341604
 20
77.05153804514964
 30
0.0
 40
1.0
100
AcDbArc
 50
93.03047684586102
 51
180.0
  0
ARC
  5
BD
330
2B
100
AcDbEntity
  8
0
100
AcDbCircle
 10
0.9999962581341604
 20
76.94845649924468
 30
0.0
 40
1.0
100
AcDbArc
 50
180.0
 51
266.9695231541389
  0
LINE
  5
BE
330
2B
100
AcDbEntity
  8
0
100
AcDbLine
 10
-0.0000037418658394
 20
84.05153804514965
 30
0.0
 11
-0.0000037418658394
 21
83.94845649924468
 31
0.0
  0
ARC
  5
BF
330
2B
100
AcDbEntity
  8
0
100
AcDbCircle
 10
0.9999962581341604
 20
84.05153804514965
 30
0.0
 40
1.0
100
AcDbArc
 50
93.03047684586102
 51
180.0
  0
ARC
  5
C0
330
2B
100
AcDbEntity
  8
0
100
AcDbCircle
 10
0.9999962581341604
 20
83.94845649924468
 30
0.0
 40
1.0
100
AcDbArc
 50
180.0
 51
266.9695231541389
  0
LINE
  5
C1
330
2B
100
AcDbEntity
  8
0
100
AcDbLine
 10
-0.0000037418658394
 20
91.05153804514962
 30
0.0
 11
-0.0000037418658394
 21
90.94845649924469
 31
0.0
  0
ARC
  5
C2
330
2B
100
AcDbEntity
  8
0
100
AcDbCircle
 10
0.9999962581341604
 20
91.05153804514962
 30
0.0
 40
1.0
100
AcDbArc
 50
93.03047684586102
 51
180.0
  0
ARC
  5
C3
330
2B
100
AcDbEntity
  8
0
100
AcDbCircle
 10
0.9999962581341604
 20
90.94845649924469
 30
0.0
 40
1.0
100
AcDbArc
 50
180.0
 51
266.9695231541389
  0
LINE
  5
C4
330
2B
100
AcDbEntity
  8
0
  6
CONTINUOUS
100
AcDbLine
 10
3.99999625813416
 20
75.78823256631527
 30
0.0
 11
3.99999625813416
 21
71.21176197807912
 31
0.0
  0
LINE
  5
C5
330
2B
100
AcDbEntity
  8
0
  6
CONTINUOUS
100
AcDbLine
 10
5.999996258134157
 20
75.68235021337404
 30
0.0
 11
5.999996258134157
 21
71.31764433102034
 31
0.0
  0
LINE
  5
C6
330
2B
100
AcDbEntity
  8
0
100
AcDbLine
 10
1.999996258134158
 20
71.10587962513791
 30
0.0
 11
1.999996258134158
 21
75.89411491925651
 31
0.0
  0
LINE
  5
C7
330
2B
100
AcDbEntity
  8
0
100
AcDbLine
 10
1.9999962581345
 20
75.89411491925648
 30
0.0
 11
1.999996258134386
 21
71.10587962513794
 31
0.0
  0
ARC
  5
C8
330
2B
100
AcDbEntity
  8
0
100
AcDbCircle
 10
11.49999625813416
 20
73.88907313750872
 30
0.0
 40
1.5
100
AcDbArc
 50
0.0
 51
86.96952315413897
  0
LINE
  5
C9
330
2B
100
AcDbEntity
  8
0
  6
CONTINUOUS
100
AcDbLine
 10
3.99999625813416
 20
61.78823256631527
 30
0.0
 11
3.99999625813416
 21
57.21176197807913
 31
0.0
  0
LINE
  5
CA
330
2B
100
AcDbEntity
  8
0
  6
CONTINUOUS
100
AcDbLine
 10
3.99999625813416
 20
68.78823256631529
 30
0.0
 11
3.99999625813416
 21
64.21176197807914
 31
0.0
  0
LINE
  5
CB
330
2B
100
AcDbEntity
  8
0
  6
CONTINUOUS
100
AcDbLine
 10
5.999996258134157
 20
68.68235021337404
 30
0.0
 11
5.999996258134157
 21
64.31764433102036
 31
0.0
  0
LINE
  5
CC
330
2B
100
AcDbEntity
  8
0
100
AcDbLine
 10
1.999996258134158
 20
61.89411491925651
 30
0.0
 11
1.999996258134158
 21
57.10587962513793
 31
0.0
  0
LINE
  5
CD
330
2B
100
AcDbEntity
  8
0
100
AcDbLine
 10
1.999996258134158
 20
64.10587962513793
 30
0.0
 11
1.999996258134158
 21
68.89411491925651
 31
0.0
  0
LINE
  5
CE
330
2B
100
AcDbEntity
  8
0
  6
CONTINUOUS
100
AcDbLine
 10
5.999996258134157
 20
61.68235021337403
 30
0.0
 11
5.999996258134157
 21
57.31764433102036
 31
0.0
  0
LINE
  5
CF
330
2B
100
AcDbEntity
  8
0
100
AcDbLine
 10
1.999996258134158
 20
57.10587962513793
 30
0.0
 11
1.999996258134158
 21
61.89411491925651
 31
0.0
  0
LINE
  5
D0
330
2B
100
AcDbEntity
  8
0
100
AcDbLine
 10
1.999996258134386
 20
68.89411491925651
 30
0.0
 11
1.999996258134158
 21
64.10587962513793
 31
0.0
  0
LINE
  5
D1
330
2B
100
AcDbEntity
  8
0
100
AcDbLine
 10
12.99999625813416
 20
59.88907313750871
 30
0.0
 11
12.99999625813416
 21
59.11092140688572
 31
0.0
  0
ARC
  5
D2
330
2B
100
AcDbEntity
  8
0
100
AcDbCircle
 10
11.49999625813416
 20
59.88907313750871
 30
0.0
 40
1.5
100
AcDbArc
 50
0.0
 51
86.96952315413897
  0
ARC
  5
D3
330
2B
100
AcDbEntity
  8
0
100
AcDbCircle
 10
11.49999625813416
 20
59.11092140688572
 30
0.0
 40
1.5
100
AcDbArc
 50
273.030476845861
 51
0.0
  0
LINE
  5
D4
330
2B
100
AcDbEntity
  8
0
100
AcDbLine
 10
12.99999625813416
 20
66.8890731375087
 30
0.0
 11
12.99999625813416
 21
66.11092140688572
 31
0.0
  0
ARC
  5
D5
330
2B
100
AcDbEntity
  8
0
100
AcDbCircle
 10
11.49999625813416
 20
66.8890731375087
 30
0.0
 40
1.5
100
AcDbArc
 50
0.0
 51
86.96952315413897
  0
LINE
  5
D6
330
2B
100
AcDbEntity
  8
0
100
AcDbLine
 10
12.99999625813416
 20
73.88907313750872
 30
0.0
 11
12.99999625813416
 21
73.11092140688572
 31
0.0
  0
ARC
  5
D7
330
2B
100
AcDbEntity
  8
0
100
AcDbCircle
 10
11.49999625813416
 20
73.11092140688572
 30
0.0
 40
1.5
100
AcDbArc
 50
273.030476845861
 51
0.0
  0
ARC
  5
D8
330
2B
100
AcDbEntity
  8
0
100
AcDbCircle
 10
11.49999625813416
 20
66.11092140688572
 30
0.0
 40
1.5
100
AcDbArc
 50
273.030476845861
 51
0.0
  0
LWPOLYLINE
  5
D9
330
2B
100
AcDbEntity
  8
0
100
AcDbPolyline
 90
        3
 70
     0
 43
0.0
 10
12.86994943312071
 20
86.49999727219769
 10
5.999996258134157
 20
86.49999727219769
 10
5.999996258134157
 20
85.31764433102036
  0
LINE
  5
DA
330
2B
100
AcDbEntity
  8
0
  6
CONTINUOUS
100
AcDbLine
 10
3.99999625813416
 20
78.99999727219769
 30
0.0
 11
3.99999625813416
 21
78.21176197807914
 31
0.0
  0
LINE
  5
DB
330
2B
100
AcDbEntity
  8
0
  6
CONTINUOUS
100
AcDbLine
 10
5.999996258134157
 20
82.68235021337403
 30
0.0
 11
5.999996258134157
 21
78.31764433102034
 31
0.0
  0
LINE
  5
DC
330
2B
100
AcDbEntity
  8
0
100
AcDbLine
 10
1.999996258134158
 20
78.10587962513792
 30
0.0
 11
1.999996258134158
 21
78.14548900799362
 31
0.0
  0
LINE
  5
DD
330
2B
100
AcDbEntity
  8
0
100
AcDbLine
 10
3.99999625813416
 20
82.78823256631527
 30
0.0
 11
3.99999625813416
 21
80.99999727219769
 31
0.0
  0
LINE
  5
DE
330
2B
100
AcDbEntity
  8
0
100
AcDbLine
 10
5.999996258134157
 20
85.31764433102035
 30
0.0
 11
5.999996258134157
 21
85.99999727219769
 31
0.0
  0
LINE
  5
DF
330
2B
100
AcDbEntity
  8
0
100
AcDbLine
 10
1.999996258134615
 20
78.14548900799384
 30
0.0
 11
1.9999962581345
 21
78.10587962513794
 31
0.0
  0
LINE
  5
E0
330
2B
100
AcDbEntity
  8
0
100
AcDbLine
 10
1.999996258134615
 20
78.14548900799384
 30
0.0
 11
3.99999625813416
 21
78.99999727219769
 31
0.0
  0
ARC
  5
E1
330
2B
100
AcDbEntity
  8
0
100
AcDbCircle
 10
3.499996258134383
 20
80.99999727219769
 30
0.0
 40
0.5
100
AcDbArc
 50
0.0
 51
90.0
  0
ARC
  5
E2
330
2B
100
AcDbEntity
  8
0
100
AcDbCircle
 10
2.499996258134383
 20
80.99999727219769
 30
0.0
 40
0.5
100
AcDbArc
 50
90.0
 51
180.0
  0
LINE
  5
E3
330
2B
100
AcDbEntity
  8
0
100
AcDbLine
 10
1.999996258134386
 20
80.99999727219769
 30
0.0
 11
1.999996258134615
 21
80.14548900799384
 31
0.0
  0
LINE
  5
E4
330
2B
100
AcDbEntity
  8
0
100
AcDbLine
 10
3.499996258134383
 20
81.49999727219769
 30
0.0
 11
2.499996258134383
 21
81.49999727219769
 31
0.0
  0
ARC
  5
E5
330
2B
100
AcDbEntity
  8
0
100
AcDbCircle
 10
4.499996258134159
 20
78.99999727219769
 30
0.0
 40
0.5
100
AcDbArc
 50
180.0
 51
270.0
  0
ARC
  5
E6
330
2B
100
AcDbEntity
  8
0
100
AcDbCircle
 10
5.499996258134386
 20
78.99999727219769
 30
0.0
 40
0.5
100
AcDbArc
 50
270.0
 51
0.0
  0
ARC
  5
E7
330
2B
100
AcDbEntity
  8
0
100
AcDbCircle
 10
5.499996258134157
 20
85.99999727219769
 30
0.0
 40
0.5
100
AcDbArc
 50
0.0
 51
90.0
  0
ARC
  5
E8
330
2B
100
AcDbEntity
  8
0
100
AcDbCircle
 10
4.499996258134159
 20
85.99999727219769
 30
0.0
 40
0.5
100
AcDbArc
 50
90.0
 51
180.0
  0
LINE
  5
E9
330
2B
100
AcDbEntity
  8
0
100
AcDbLine
 10
3.99999625813416
 20
85.99999727219769
 30
0.0
 11
3.99999625813416
 21
85.21176197807914
 31
0.0
  0
LINE
  5
EA
330
2B
100
AcDbEntity
  8
0
100
AcDbLine
 10
5.499996258134157
 20
86.49999727219769
 30
0.0
 11
4.499996258134159
 21
86.49999727219769
 31
0.0
  0
LINE
  5
EB
330
2B
100
AcDbEntity
  8
0
100
AcDbLine
 10
5.999996258134387
 20
78.99999727219769
 30
0.0
 11
5.999996258134157
 21
82.68235021337401
 31
0.0
  0
LINE
  5
EC
330
2B
100
AcDbEntity
  8
0
100
AcDbLine
 10
4.499996258134159
 20
78.49999727219769
 30
0.0
 11
5.499996258134386
 21
78.49999727219769
 31
0.0
  0
LINE
  5
ED
330
2B
100
AcDbEntity
  8
0
  6
CONTINUOUS
100
AcDbLine
 10
5.999996258134157
 20
86.49999727219769
 30
0.0
 11
5.999996258134157
 21
85.31764433102036
 31
0.0
  0
LINE
  5
EE
330
2B
100
AcDbEntity
  8
0
100
AcDbLine
 10
12.99999625813416
 20
80.88907313750871
 30
0.0
 11
12.99999625813416
 21
80.11092140688573
 31
0.0
  0
ARC
  5
EF
330
2B
100
AcDbEntity
  8
0
100
AcDbCircle
 10
11.49999625813416
 20
80.11092140688573
 30
0.0
 40
1.5
100
AcDbArc
 50
273.030476845861
 51
0.0
  0
LINE
  5
F0
330
2B
100
AcDbEntity
  8
0
100
AcDbLine
 10
11.99999625813416
 20
86.49999727219769
 30
0.0
 11
11.99999625813416
 21
89.3032866998817
 31
0.0
  0
LINE
  5
F1
330
2B
100
AcDbEntity
  8
0
100
AcDbLine
 10
10.79999625813513
 20
89.0489597465187
 30
0.0
 11
11.99999625813416
 21
89.01753664063575
 31
0.0
  0
LINE
  5
F2
330
2B
100
AcDbEntity
  8
0
100
AcDbLine
 10
12.99999625813416
 20
87.88907313750872
 30
0.0
 11
12.99999625813416
 21
87.11092140688572
 31
0.0
  0
ARC
  5
F3
330
2B
100
AcDbEntity
  8
0
100
AcDbCircle
 10
11.49999625813416
 20
87.11092140688572
 30
0.0
 40
1.5
100
AcDbArc
 50
273.030476845861
 51
0.0
  0
ARC
  5
F4
330
2B
100
AcDbEntity
  8
0
100
AcDbCircle
 10
11.49999625813416
 20
94.11092140688571
 30
0.0
 40
1.5
100
AcDbArc
 50
273.030476845861
 51
0.0
  0
LINE
  5
F5
330
2B
100
AcDbEntity
  8
0
100
AcDbLine
 10
10.79999625813513
 20
89.42823256631468
 30
0.0
 11
10.79999625813513
 21
89.0489597465187
 31
0.0
  0
ARC
  5
F6
330
2B
100
AcDbEntity
  8
0
100
AcDbCircle
 10
11.49999625813416
 20
87.88907313750872
 30
0.0
 40
1.5
100
AcDbArc
 50
0.0
 51
86.96952315413897
  0
ARC
  5
F7
330
2B
100
AcDbEntity
  8
0
100
AcDbCircle
 10
11.49999625813416
 20
80.88907313750871
 30
0.0
 40
1.5
100
AcDbArc
 50
0.0
 51
86.96952315413897
  0
LINE
  5
F8
330
2B
100
AcDbEntity
  8
0
100
AcDbLine
 10
0.9471291169941196
 20
96.94985494437574
 30
0.0
 11
11.57929696984524
 21
96.38697546981269
 31
0.0
  0
LINE
  5
F9
330
2B
100
AcDbEntity
  8
0
100
AcDbLine
 10
0.4738282800130948
 20
104.3251647881775
 30
0.0
 11
11.57850019249917
 21
103.7431935935775
 31
0.0
  0
LINE
  5
FA
330
2B
100
AcDbEntity
  8
0
100
AcDbLine
 10
0.9471291169941196
 20
99.05013960001872
 30
0.0
 11
11.57929696984524
 21
99.61301907458164
 31
0.0
  0
LINE
  5
FB
330
2B
100
AcDbEntity
  8
0
100
AcDbLine
 10
-0.0000037418658394
 20
104.8244795555546
 30
0.0
 11
-0.0000037418658394
 21
120.5286506839515
 31
0.0
  0
LINE
  5
FC
330
2B
100
AcDbEntity
  8
0
100
AcDbLine
 10
-0.0000037418658394
 20
98.05153804514963
 30
0.0
 11
-0.0000037418658394
 21
97.94845649924468
 31
0.0
  0
POINT
  5
FD
330
2B
100
AcDbEntity
  8
0
100
AcDbPoint
 10
-0.0000037418658394
 20
104.3499972721966
 30
0.0
  0
ARC
  5
FE
330
2B
100
AcDbEntity
  8
0
100
AcDbCircle
 10
0.4999962581341606
 20
104.8244795555546
 30
0.0
 40
0.5
100
AcDbArc
 50
180.0
 51
266.9999999999943
  0
ARC
  5
FF
330
2B
100
AcDbEntity
  8
0
100
AcDbCircle
 10
0.9999962581341604
 20
98.05153804514963
 30
0.0
 40
1.0
100
AcDbArc
 50
93.03047684586102
 51
180.0
  0
ARC
  5
100
330
2B
100
AcDbEntity
  8
0
100
AcDbCircle
 10
0.9999962581341604
 20
97.94845649924468
 30
0.0
 40
1.0
100
AcDbArc
 50
180.0
 51
266.9695231541389
  0
ARC
  5
101
330
2B
100
AcDbEntity
  8
0
100
AcDbCircle
 10
11.49999625813416
 20
94.88907313750871
 30
0.0
 40
1.5
100
AcDbArc
 50
0.0
 51
86.96952315413897
  0
LINE
  5
102
330
2B
100
AcDbEntity
  8
0
100
AcDbLine
 10
10.79999625813513
 20
103.7839932559404
 30
0.0
 11
10.79999625813513
 21
99.56600128845366
 31
0.0
  0
LINE
  5
103
330
2B
100
AcDbEntity
  8
0
100
AcDbLine
 10
12.99999625813416
 20
102.2452492914456
 30
0.0
 11
12.99999625813416
 21
101.1109214068855
 31
0.0
  0
ARC
  5
104
330
2B
100
AcDbEntity
  8
0
100
AcDbCircle
 10
11.49999625813416
 20
102.2452492914456
 30
0.0
 40
1.5
100
AcDbArc
 50
0.0
 51
87.00000000000093
  0
ARC
  5
105
330
2B
100
AcDbEntity
  8
0
100
AcDbCircle
 10
11.49999625813416
 20
101.1109214068855
 30
0.0
 40
1.5
100
AcDbArc
 50
273.030476845861
 51
0.0
  0
LINE
  5
106
330
2B
100
AcDbEntity
  8
0
100
AcDbLine
 10
48.55277444428816
 20
101.9999972721965
 30
0.0
 11
48.55277444428816
 21
91.99999727219669
 31
0.0
  0
LINE
  5
107
330
2B
100
AcDbEntity
  8
0
100
AcDbLine
 10
18.99999625813416
 20
110.4710163300716
 30
0.0
 11
18.99999625813416
 21
82.99999727219768
 31
0.0
  0
LINE
  5
108
330
2B
100
AcDbEntity
  8
0
100
AcDbLine
 10
19.99999625813416
 20
82.97381135062966
 30
0.0
 11
19.99999625813416
 21
109.6057307773266
 31
0.0
  0
LINE
  5
109
330
2B
100
AcDbEntity
  8
0
100
AcDbLine
 10
47.49999625813415
 20
70.97381135062869
 30
0.0
 11
47.49999625813415
 21
96.97381135062869
 31
0.0
  0
LINE
  5
10A
330
2B
100
AcDbEntity
  8
0
100
AcDbLine
 10
48.49999625813413
 20
56.97381135062869
 30
0.0
 11
29.99999625813416
 21
56.97381135062869
 31
0.0
  0
LINE
  5
10B
330
2B
100
AcDbEntity
  8
0
100
AcDbLine
 10
48.49999625813413
 20
61.97381135062869
 30
0.0
 11
29.99999625813416
 21
61.97381135062869
 31
0.0
  0
LINE
  5
10C
330
2B
100
AcDbEntity
  8
0
100
AcDbLine
 10
48.49999625813413
 20
63.97381135062869
 30
0.0
 11
29.99999625813416
 21
63.97381135062869
 31
0.0
  0
LINE
  5
10D
330
2B
100
AcDbEntity
  8
0
100
AcDbLine
 10
48.49999625813413
 20
68.97381135062869
 30
0.0
 11
29.99999625813416
 21
68.97381135062869
 31
0.0
  0
LINE
  5
10E
330
2B
100
AcDbEntity
  8
0
100
AcDbLine
 10
48.49999625813413
 20
70.97381135062869
 30
0.0
 11
29.99999625813416
 21
70.97381135062869
 31
0.0
  0
LINE
  5
10F
330
2B
100
AcDbEntity
  8
0
100
AcDbLine
 10
46.99999625813414
 20
84.9738113506287
 30
0.0
 11
29.99999625813416
 21
84.9738113506287
 31
0.0
  0
LINE
  5
110
330
2B
100
AcDbEntity
  8
0
100
AcDbLine
 10
46.99999625813414
 20
82.97381135062869
 30
0.0
 11
29.99999625813416
 21
82.97381135062869
 31
0.0
  0
LINE
  5
111
330
2B
100
AcDbEntity
  8
0
100
AcDbLine
 10
46.99999625813414
 20
77.97381135062869
 30
0.0
 11
29.99999625813416
 21
77.97381135062869
 31
0.0
  0
LINE
  5
112
330
2B
100
AcDbEntity
  8
0
100
AcDbLine
 10
46.99999625813414
 20
75.97381135062869
 30
0.0
 11
29.99999625813416
 21
75.97381135062869
 31
0.0
  0
LINE
  5
113
330
2B
100
AcDbEntity
  8
0
100
AcDbLine
 10
46.99999625813414
 20
91.97381135062867
 30
0.0
 11
29.99999625813416
 21
91.97381135062867
 31
0.0
  0
LINE
  5
114
330
2B
100
AcDbEntity
  8
0
100
AcDbLine
 10
46.99999625813414
 20
89.9738113506287
 30
0.0
 11
29.99999625813416
 21
89.9738113506287
 31
0.0
  0
LINE
  5
115
330
2B
100
AcDbEntity
  8
0
100
AcDbLine
 10
22.09999625813407
 20
80.99999727219767
 30
0.0
 11
22.09999625813407
 21
72.99999727219767
 31
0.0
  0
LINE
  5
116
330
2B
100
AcDbEntity
  8
0
100
AcDbLine
 10
22.6999962581342
 20
80.99999727219767
 30
0.0
 11
22.6999962581342
 21
72.99999727219767
 31
0.0
  0
LINE
  5
117
330
2B
100
AcDbEntity
  8
0
100
AcDbLine
 10
23.49999625813416
 20
80.99999727219767
 30
0.0
 11
23.49999625813416
 21
72.99999727219767
 31
0.0
  0
LINE
  5
118
330
2B
100
AcDbEntity
  8
0
100
AcDbLine
 10
21.99999625813313
 20
81.4738113506287
 30
0.0
 11
21.99999625813313
 21
72.4738113506287
 31
0.0
  0
LINE
  5
119
330
2B
100
AcDbEntity
  8
0
100
AcDbLine
 10
23.69999625813306
 20
81.4738113506287
 30
0.0
 11
23.69999625813306
 21
72.4738113506287
 31
0.0
  0
LINE
  5
11A
330
2B
100
AcDbEntity
  8
0
100
AcDbLine
 10
17.6999962581342
 20
82.99999727219768
 30
0.0
 11
17.6999962581342
 21
71.09999727219667
 31
0.0
  0
LINE
  5
11B
330
2B
100
AcDbEntity
  8
0
100
AcDbLine
 10
18.49999625813416
 20
82.99999727219768
 30
0.0
 11
18.49999625813416
 21
70.99999727219767
 31
0.0
  0
LINE
  5
11C
330
2B
100
AcDbEntity
  8
0
100
AcDbLine
 10
18.99999625813416
 20
70.99999727219665
 30
0.0
 11
18.99999625813416
 21
82.99999727219768
 31
0.0
  0
LINE
  5
11D
330
2B
100
AcDbEntity
  8
0
100
AcDbLine
 10
18.99999625813416
 20
70.99999727219767
 30
0.0
 11
17.6999962581342
 21
70.99999727219767
 31
0.0
  0
LINE
  5
11E
330
2B
100
AcDbEntity
  8
0
100
AcDbLine
 10
19.99999625813416
 20
70.97381135062869
 30
0.0
 11
18.99999625813416
 21
70.97381135062869
 31
0.0
  0
LINE
  5
11F
330
2B
100
AcDbEntity
  8
0
100
AcDbLine
 10
23.49999625813416
 20
72.99999727219767
 30
0.0
 11
21.99999625813313
 21
72.99999727219767
 31
0.0
  0
LINE
  5
120
330
2B
100
AcDbEntity
  8
0
100
AcDbLine
 10
23.69999625813306
 20
72.4738113506287
 30
0.0
 11
21.99999625813313
 21
72.4738113506287
 31
0.0
  0
LINE
  5
121
330
2B
100
AcDbEntity
  8
0
100
AcDbLine
 10
23.49999625813416
 20
80.99999727219767
 30
0.0
 11
21.99999625813313
 21
80.99999727219767
 31
0.0
  0
LINE
  5
122
330
2B
100
AcDbEntity
  8
0
100
AcDbLine
 10
18.99999625813416
 20
82.99999727219768
 30
0.0
 11
17.6999962581342
 21
82.99999727219768
 31
0.0
  0
LINE
  5
123
330
2B
100
AcDbEntity
  8
0
100
AcDbLine
 10
23.69999625813306
 20
81.4738113506287
 30
0.0
 11
21.99999625813313
 21
81.4738113506287
 31
0.0
  0
LINE
  5
124
330
2B
100
AcDbEntity
  8
0
100
AcDbLine
 10
19.99999625813416
 20
82.97381135062966
 30
0.0
 11
18.99999625813416
 21
82.97381135062966
 31
0.0
  0
LINE
  5
125
330
2B
100
AcDbEntity
  8
0
100
AcDbLine
 10
47.49999625813415
 20
56.97381135062869
 30
0.0
 11
47.49999625813415
 21
61.97381135062869
 31
0.0
  0
LINE
  5
126
330
2B
100
AcDbEntity
  8
0
100
AcDbLine
 10
47.49999625813415
 20
63.97381135062869
 30
0.0
 11
47.49999625813415
 21
68.97381135062869
 31
0.0
  0
ARC
  5
127
330
2B
100
AcDbEntity
  8
0
100
AcDbCircle
 10
49.29999625813412
 20
81.99999727219667
 30
0.0
 40
1.05
100
AcDbArc
 50
139.6324064558195
 51
220.3675935441804
  0
LINE
  5
128
330
2B
100
AcDbEntity
  8
0
100
AcDbLine
 10
46.99999625813414
 20
75.97381135062869
 30
0.0
 11
46.99999625813414
 21
77.97381135062869
 31
0.0
  0
LINE
  5
129
330
2B
100
AcDbEntity
  8
0
100
AcDbLine
 10
46.99999625813414
 20
82.97381135062869
 30
0.0
 11
46.99999625813414
 21
84.9738113506287
 31
0.0
  0
LINE
  5
12A
330
2B
100
AcDbEntity
  8
0
100
AcDbLine
 10
46.99999625813414
 20
89.9738113506287
 30
0.0
 11
46.99999625813414
 21
91.97381135062867
 31
0.0
  0
LINE
  5
12B
330
2B
100
AcDbEntity
  8
0
100
AcDbLine
 10
48.55277444428816
 20
96.97381135062869
 30
0.0
 11
29.99999625813416
 21
96.97381135062869
 31
0.0
  0
LINE
  5
12C
330
2B
100
AcDbEntity
  8
0
100
AcDbLine
 10
48.55277444428816
 20
98.9738113506287
 30
0.0
 11
29.99999625813416
 21
98.9738113506287
 31
0.0
  0
LINE
  5
12D
330
2B
100
AcDbEntity
  8
0
100
AcDbLine
 10
28.09999625813407
 20
121.9738113506287
 30
0.0
 11
36.69999625813328
 21
121.9738113506287
 31
0.0
  0
LINE
  5
12E
330
2B
100
AcDbEntity
  8
0
100
AcDbLine
 10
29.19999625813318
 20
126.2738113506287
 30
0.0
 11
35.09999625813316
 21
126.2738113506287
 31
0.0
  0
LINE
  5
12F
330
2B
100
AcDbEntity
  8
0
100
AcDbLine
 10
29.59999625813316
 20
127.5738113506285
 30
0.0
 11
38.94499625813319
 21
127.5738113506285
 31
0.0
  0
LINE
  5
130
330
2B
100
AcDbEntity
  8
0
100
AcDbLine
 10
21.99999625813416
 20
110.9999972721974
 30
0.0
 11
21.99999625813416
 21
120.8952535859205
 31
0.0
  0
LINE
  5
131
330
2B
100
AcDbEntity
  8
0
100
AcDbLine
 10
22.99999625813416
 20
120.9738113506287
 30
0.0
 11
22.99999625813416
 21
110.1347117194515
 31
0.0
  0
LINE
  5
132
330
2B
100
AcDbEntity
  8
0
100
AcDbLine
 10
21.99999625813416
 20
120.4738113506285
 30
0.0
 11
21.99999625813416
 21
110.9738113506296
 31
0.0
  0
LINE
  5
133
330
2B
100
AcDbEntity
  8
0
100
AcDbLine
 10
21.99999625813416
 20
110.9999972721974
 30
0.0
 11
18.99999625813416
 21
110.4710163300716
 31
0.0
  0
LINE
  5
134
330
2B
100
AcDbEntity
  8
0
100
AcDbLine
 10
22.99999625813416
 20
110.1347117194515
 30
0.0
 11
19.99999625813416
 21
109.6057307773266
 31
0.0
  0
LINE
  5
135
330
2B
100
AcDbEntity
  8
0
100
AcDbLine
 10
18.99999625813416
 20
110.4448304085035
 30
0.0
 11
21.99999625813416
 21
110.9738113506296
 31
0.0
  0
LINE
  5
136
330
2B
100
AcDbEntity
  8
0
100
AcDbLine
 10
17.99999625813416
 20
120.9999972721975
 30
0.0
 11
21.99999625813416
 21
120.8952535859205
 31
0.0
  0
LINE
  5
137
330
2B
100
AcDbEntity
  8
0
100
AcDbLine
 10
21.99999625813416
 20
120.4738113506285
 30
0.0
 11
22.99999625813416
 21
120.4738113506285
 31
0.0
  0
LINE
  5
138
330
2B
100
AcDbEntity
  8
0
100
AcDbLine
 10
19.99999625813416
 20
120.9738113506287
 30
0.0
 11
19.99999625813416
 21
120.9476254290595
 31
0.0
  0
LINE
  5
139
330
2B
100
AcDbEntity
  8
0
100
AcDbLine
 10
19.99999625813416
 20
120.9738113506287
 30
0.0
 11
19.99999625813416
 21
120.9476254290589
 31
0.0
  0
LINE
  5
13A
330
2B
100
AcDbEntity
  8
0
100
AcDbLine
 10
28.09999625813407
 20
120.9738113506287
 30
0.0
 11
28.09999625813407
 21
121.9738113506287
 31
0.0
  0
LINE
  5
13B
330
2B
100
AcDbEntity
  8
0
100
AcDbLine
 10
29.19999625813318
 20
121.9738113506287
 30
0.0
 11
29.19999625813318
 21
126.2738113506287
 31
0.0
  0
LINE
  5
13C
330
2B
100
AcDbEntity
  8
0
100
AcDbLine
 10
29.59999625813316
 20
126.2738113506285
 30
0.0
 11
29.59999625813316
 21
127.5738113506285
 31
0.0
  0
LINE
  5
13D
330
2B
100
AcDbEntity
  8
0
100
AcDbLine
 10
39.1999962581342
 20
107.4738113506287
 30
0.0
 11
39.1999962581342
 21
115.4738113506285
 31
0.0
  0
LINE
  5
13E
330
2B
100
AcDbEntity
  8
0
100
AcDbLine
 10
42.19999625813421
 20
105.4738113506285
 30
0.0
 11
42.19999625813421
 21
117.4738113506285
 31
0.0
  0
LINE
  5
13F
330
2B
100
AcDbEntity
  8
0
100
AcDbLine
 10
42.19999625813421
 20
105.4738113506285
 30
0.0
 11
33.99999625813416
 21
105.4738113506285
 31
0.0
  0
LINE
  5
140
330
2B
100
AcDbEntity
  8
0
100
AcDbLine
 10
37.1999962581342
 20
109.4738113506287
 30
0.0
 11
37.1999962581342
 21
107.4738113506287
 31
0.0
  0
LINE
  5
141
330
2B
100
AcDbEntity
  8
0
100
AcDbLine
 10
37.1999962581342
 20
107.4738113506287
 30
0.0
 11
39.1999962581342
 21
107.4738113506287
 31
0.0
  0
LINE
  5
142
330
2B
100
AcDbEntity
  8
0
100
AcDbLine
 10
33.99999625813416
 20
109.4738113506287
 30
0.0
 11
33.99999625813416
 21
105.4738113506285
 31
0.0
  0
LINE
  5
143
330
2B
100
AcDbEntity
  8
0
100
AcDbLine
 10
33.99999625813416
 20
109.4738113506287
 30
0.0
 11
37.1999962581342
 21
109.4738113506287
 31
0.0
  0
LINE
  5
144
330
2B
100
AcDbEntity
  8
0
100
AcDbLine
 10
47.49999625813415
 20
98.9738113506287
 30
0.0
 11
47.49999625813415
 21
103.9738113506285
 31
0.0
  0
LINE
  5
145
330
2B
100
AcDbEntity
  8
0
100
AcDbLine
 10
33.99999625813416
 20
117.4738113506285
 30
0.0
 11
42.19999625813421
 21
117.4738113506285
 31
0.0
  0
LINE
  5
146
330
2B
100
AcDbEntity
  8
0
100
AcDbLine
 10
36.69999625813328
 20
121.9738113506287
 30
0.0
 11
36.69999625813328
 21
120.9738113506287
 31
0.0
  0
LINE
  5
147
330
2B
100
AcDbEntity
  8
0
100
AcDbLine
 10
35.09999625813316
 20
126.2738113506287
 30
0.0
 11
35.09999625813316
 21
121.9738113506287
 31
0.0
  0
LINE
  5
148
330
2B
100
AcDbEntity
  8
0
100
AcDbLine
 10
38.94499625813319
 20
127.5738113506285
 30
0.0
 11
38.94499625813319
 21
120.9738113506287
 31
0.0
  0
LINE
  5
149
330
2B
100
AcDbEntity
  8
0
100
AcDbLine
 10
37.1999962581342
 20
113.4738113506287
 30
0.0
 11
37.1999962581342
 21
115.4738113506285
 31
0.0
  0
LINE
  5
14A
330
2B
100
AcDbEntity
  8
0
100
AcDbLine
 10
37.1999962581342
 20
115.4738113506285
 30
0.0
 11
39.1999962581342
 21
115.4738113506285
 31
0.0
  0
LINE
  5
14B
330
2B
100
AcDbEntity
  8
0
100
AcDbLine
 10
33.99999625813416
 20
113.4738113506287
 30
0.0
 11
33.99999625813416
 21
117.4738113506285
 31
0.0
  0
LINE
  5
14C
330
2B
100
AcDbEntity
  8
0
100
AcDbLine
 10
33.99999625813416
 20
113.4738113506287
 30
0.0
 11
37.1999962581342
 21
113.4738113506287
 31
0.0
  0
LINE
  5
14D
330
2B
100
AcDbEntity
  8
0
100
AcDbLine
 10
67.49999625813416
 20
91.99999727219664
 30
0.0
 11
67.49999625813416
 21
49.99999727219666
 31
0.0
  0
LINE
  5
14E
330
2B
100
AcDbEntity
  8
0
100
AcDbLine
 10
68.99999625813416
 20
54.9738113506287
 30
0.0
 11
68.99999625813416
 21
56.97381135062869
 31
0.0
  0
LINE
  5
14F
330
2B
100
AcDbEntity
  8
0
100
AcDbLine
 10
69.99999625813416
 20
54.9738113506287
 30
0.0
 11
69.99999625813416
 21
56.97381135062869
 31
0.0
  0
LINE
  5
150
330
2B
100
AcDbEntity
  8
0
100
AcDbLine
 10
70.99999625813416
 20
21.97381135062868
 30
0.0
 11
70.99999625813416
 21
103.9738113506285
 31
0.0
  0
LINE
  5
151
330
2B
100
AcDbEntity
  8
0
100
AcDbLine
 10
71.99999625813416
 20
3.585957507460647
 30
0.0
 11
71.99999625813416
 21
120.9738113506287
 31
0.0
  0
LINE
  5
152
330
2B
100
AcDbEntity
  8
0
100
AcDbLine
 10
71.99999625813416
 20
-0.0000027278023254
 30
0.0
 11
71.99999625813416
 21
3.585957507460647
 31
0.0
  0
LINE
  5
153
330
2B
100
AcDbEntity
  8
0
100
AcDbLine
 10
62.99999625813414
 20
49.99999727219666
 30
0.0
 11
67.49999625813416
 21
49.99999727219666
 31
0.0
  0
LINE
  5
154
330
2B
100
AcDbEntity
  8
0
100
AcDbLine
 10
62.99999625813414
 20
49.99999727219666
 30
0.0
 11
52.99999625813414
 21
49.99999727219669
 31
0.0
  0
LINE
  5
155
330
2B
100
AcDbEntity
  8
0
100
AcDbLine
 10
52.99999625813414
 20
49.9738113506287
 30
0.0
 11
62.99999625813414
 21
49.9738113506287
 31
0.0
  0
LINE
  5
156
330
2B
100
AcDbEntity
  8
0
100
AcDbLine
 10
52.99999625813414
 20
51.99999727219664
 30
0.0
 11
52.99999625813414
 21
49.9738113506287
 31
0.0
  0
ARC
  5
157
330
2B
100
AcDbEntity
  8
0
100
AcDbCircle
 10
52.99999625813414
 20
50.47381135062869
 30
0.0
 40
0.5
100
AcDbArc
 50
251.374822272642
 51
270.0
  0
LINE
  5
158
330
2B
100
AcDbEntity
  8
0
100
AcDbLine
 10
62.99999625813414
 20
49.9738113506287
 30
0.0
 11
62.99999625813414
 21
51.99999727219664
 31
0.0
  0
ARC
  5
159
330
2B
100
AcDbEntity
  8
0
100
AcDbCircle
 10
62.99999625813414
 20
50.47381135062869
 30
0.0
 40
0.5
100
AcDbArc
 50
270.0
 51
288.6251777273578
  0
LINE
  5
15A
330
2B
100
AcDbEntity
  8
0
100
AcDbLine
 10
68.99999625813416
 20
33.97381135062869
 30
0.0
 11
68.99999625813416
 21
35.97381135062867
 31
0.0
  0
LINE
  5
15B
330
2B
100
AcDbEntity
  8
0
100
AcDbLine
 10
69.99999625813416
 20
33.97381135062869
 30
0.0
 11
69.99999625813416
 21
35.97381135062867
 31
0.0
  0
LINE
  5
15C
330
2B
100
AcDbEntity
  8
0
100
AcDbLine
 10
68.99999625813416
 20
26.97381135062869
 30
0.0
 11
68.99999625813416
 21
28.97381135062869
 31
0.0
  0
LINE
  5
15D
330
2B
100
AcDbEntity
  8
0
100
AcDbLine
 10
69.99999625813416
 20
26.97381135062869
 30
0.0
 11
69.99999625813416
 21
28.97381135062869
 31
0.0
  0
LINE
  5
15E
330
2B
100
AcDbEntity
  8
0
100
AcDbLine
 10
67.49999625813416
 20
49.99999727219666
 30
0.0
 11
67.49999625813416
 21
49.99999727219666
 31
0.0
  0
LINE
  5
15F
330
2B
100
AcDbEntity
  8
0
100
AcDbLine
 10
68.99999625813416
 20
40.97381135062867
 30
0.0
 11
68.99999625813416
 21
42.97381135062869
 31
0.0
  0
LINE
  5
160
330
2B
100
AcDbEntity
  8
0
100
AcDbLine
 10
69.99999625813416
 20
40.97381135062867
 30
0.0
 11
69.99999625813416
 21
42.97381135062869
 31
0.0
  0
LINE
  5
161
330
2B
100
AcDbEntity
  8
0
100
AcDbLine
 10
70.99999625813416
 20
49.9738113506287
 30
0.0
 11
68.99999625813416
 21
49.9738113506287
 31
0.0
  0
LINE
  5
162
330
2B
100
AcDbEntity
  8
0
100
AcDbLine
 10
70.99999625813416
 20
47.97381135062869
 30
0.0
 11
68.99999625813416
 21
47.97381135062869
 31
0.0
  0
LINE
  5
163
330
2B
100
AcDbEntity
  8
0
100
AcDbLine
 10
68.99999625813416
 20
47.97381135062869
 30
0.0
 11
68.99999625813416
 21
49.9738113506287
 31
0.0
  0
LINE
  5
164
330
2B
100
AcDbEntity
  8
0
100
AcDbLine
 10
69.99999625813416
 20
47.97381135062869
 30
0.0
 11
69.99999625813416
 21
49.9738113506287
 31
0.0
  0
LINE
  5
165
330
2B
100
AcDbEntity
  8
0
100
AcDbLine
 10
68.49999625813416
 20
54.9738113506287
 30
0.0
 11
68.49999625813416
 21
48.97381135062869
 31
0.0
  0
LINE
  5
166
330
2B
100
AcDbEntity
  8
0
100
AcDbLine
 10
70.99999625813416
 20
54.9738113506287
 30
0.0
 11
67.49999625813416
 21
54.9738113506287
 31
0.0
  0
LINE
  5
167
330
2B
100
AcDbEntity
  8
0
100
AcDbLine
 10
67.44721807197925
 20
101.9999972721965
 30
0.0
 11
67.44721807197925
 21
91.99999727219664
 31
0.0
  0
LINE
  5
168
330
2B
100
AcDbEntity
  8
0
100
AcDbLine
 10
68.49999625813416
 20
96.97381135062869
 30
0.0
 11
68.49999625813416
 21
70.97381135062869
 31
0.0
  0
LINE
  5
169
330
2B
100
AcDbEntity
  8
0
100
AcDbLine
 10
68.49999625813416
 20
61.97381135062869
 30
0.0
 11
68.49999625813416
 21
56.97381135062869
 31
0.0
  0
LINE
  5
16A
330
2B
100
AcDbEntity
  8
0
100
AcDbLine
 10
68.99999625813416
 20
68.97381135062869
 30
0.0
 11
68.99999625813416
 21
70.97381135062869
 31
0.0
  0
LINE
  5
16B
330
2B
100
AcDbEntity
  8
0
100
AcDbLine
 10
69.99999625813416
 20
68.97381135062869
 30
0.0
 11
69.99999625813416
 21
70.97381135062869
 31
0.0
  0
LINE
  5
16C
330
2B
100
AcDbEntity
  8
0
100
AcDbLine
 10
68.49999625813416
 20
68.97381135062869
 30
0.0
 11
68.49999625813416
 21
63.97381135062869
 31
0.0
  0
LINE
  5
16D
330
2B
100
AcDbEntity
  8
0
100
AcDbLine
 10
68.99999625813416
 20
61.97381135062869
 30
0.0
 11
68.99999625813416
 21
63.97381135062869
 31
0.0
  0
LINE
  5
16E
330
2B
100
AcDbEntity
  8
0
100
AcDbLine
 10
69.99999625813416
 20
61.97381135062869
 30
0.0
 11
69.99999625813416
 21
63.97381135062869
 31
0.0
  0
LINE
  5
16F
330
2B
100
AcDbEntity
  8
0
100
AcDbLine
 10
70.99999625813416
 20
70.97381135062869
 30
0.0
 11
67.49999625813416
 21
70.97381135062869
 31
0.0
  0
LINE
  5
170
330
2B
100
AcDbEntity
  8
0
100
AcDbLine
 10
70.99999625813416
 20
68.97381135062869
 30
0.0
 11
67.49999625813416
 21
68.97381135062869
 31
0.0
  0
LINE
  5
171
330
2B
100
AcDbEntity
  8
0
100
AcDbLine
 10
70.99999625813416
 20
63.97381135062869
 30
0.0
 11
67.49999625813416
 21
63.97381135062869
 31
0.0
  0
LINE
  5
172
330
2B
100
AcDbEntity
  8
0
100
AcDbLine
 10
70.99999625813416
 20
61.97381135062869
 30
0.0
 11
67.49999625813416
 21
61.97381135062869
 31
0.0
  0
LINE
  5
173
330
2B
100
AcDbEntity
  8
0
100
AcDbLine
 10
70.99999625813416
 20
56.97381135062869
 30
0.0
 11
67.49999625813416
 21
56.97381135062869
 31
0.0
  0
LINE
  5
174
330
2B
100
AcDbEntity
  8
0
100
AcDbLine
 10
70.99999625813416
 20
77.97381135062869
 30
0.0
 11
68.99999625813416
 21
77.97381135062869
 31
0.0
  0
LINE
  5
175
330
2B
100
AcDbEntity
  8
0
100
AcDbLine
 10
70.99999625813416
 20
75.97381135062869
 30
0.0
 11
68.99999625813416
 21
75.97381135062869
 31
0.0
  0
LINE
  5
176
330
2B
100
AcDbEntity
  8
0
100
AcDbLine
 10
68.99999625813416
 20
75.97381135062869
 30
0.0
 11
68.99999625813416
 21
77.97381135062869
 31
0.0
  0
LINE
  5
177
330
2B
100
AcDbEntity
  8
0
100
AcDbLine
 10
69.99999625813416
 20
75.97381135062869
 30
0.0
 11
69.99999625813416
 21
77.97381135062869
 31
0.0
  0
LINE
  5
178
330
2B
100
AcDbEntity
  8
0
100
AcDbLine
 10
70.99999625813416
 20
84.9738113506287
 30
0.0
 11
68.99999625813416
 21
84.9738113506287
 31
0.0
  0
LINE
  5
179
330
2B
100
AcDbEntity
  8
0
100
AcDbLine
 10
70.99999625813416
 20
82.97381135062869
 30
0.0
 11
68.99999625813416
 21
82.97381135062869
 31
0.0
  0
LINE
  5
17A
330
2B
100
AcDbEntity
  8
0
100
AcDbLine
 10
68.99999625813416
 20
82.97381135062869
 30
0.0
 11
68.99999625813416
 21
84.9738113506287
 31
0.0
  0
LINE
  5
17B
330
2B
100
AcDbEntity
  8
0
100
AcDbLine
 10
69.99999625813416
 20
82.97381135062869
 30
0.0
 11
69.99999625813416
 21
84.9738113506287
 31
0.0
  0
LINE
  5
17C
330
2B
100
AcDbEntity
  8
0
100
AcDbLine
 10
70.99999625813416
 20
91.97381135062867
 30
0.0
 11
68.99999625813416
 21
91.97381135062867
 31
0.0
  0
LINE
  5
17D
330
2B
100
AcDbEntity
  8
0
100
AcDbLine
 10
70.99999625813416
 20
89.9738113506287
 30
0.0
 11
68.99999625813416
 21
89.9738113506287
 31
0.0
  0
LINE
  5
17E
330
2B
100
AcDbEntity
  8
0
100
AcDbLine
 10
68.99999625813416
 20
89.9738113506287
 30
0.0
 11
68.99999625813416
 21
91.97381135062867
 31
0.0
  0
LINE
  5
17F
330
2B
100
AcDbEntity
  8
0
100
AcDbLine
 10
69.99999625813416
 20
89.9738113506287
 30
0.0
 11
69.99999625813416
 21
91.97381135062867
 31
0.0
  0
ARC
  5
180
330
2B
100
AcDbEntity
  8
0
100
AcDbCircle
 10
66.99999625813416
 20
91.97381135062867
 30
0.0
 40
0.5
100
AcDbArc
 50
0.0
 51
26.56294527600511
  0
LINE
  5
181
330
2B
100
AcDbEntity
  8
0
100
AcDbLine
 10
67.49999625813416
 20
86.97381135062867
 30
0.0
 11
67.49999625813416
 21
91.97381135062867
 31
0.0
  0
LINE
  5
182
330
2B
100
AcDbEntity
  8
0
100
AcDbLine
 10
65.49999625813416
 20
101.9999972721965
 30
0.0
 11
63.99999625813414
 21
101.9999972721965
 31
0.0
  0
LINE
  5
183
330
2B
100
AcDbEntity
  8
0
100
AcDbLine
 10
55.14999625813425
 20
124.3738113506287
 30
0.0
 11
61.4499962581342
 21
124.3738113506287
 31
0.0
  0
LINE
  5
184
330
2B
100
AcDbEntity
  8
0
100
AcDbLine
 10
55.14999625813425
 20
120.9738113506287
 30
0.0
 11
55.14999625813425
 21
124.3738113506287
 31
0.0
  0
LINE
  5
185
330
2B
100
AcDbEntity
  8
0
100
AcDbLine
 10
61.4499962581342
 20
124.3738113506287
 30
0.0
 11
61.4499962581342
 21
120.9738113506287
 31
0.0
  0
LINE
  5
186
330
2B
100
AcDbEntity
  8
0
100
AcDbLine
 10
68.49999625813416
 20
103.9738113506285
 30
0.0
 11
68.49999625813416
 21
98.9738113506287
 31
0.0
  0
LINE
  5
187
330
2B
100
AcDbEntity
  8
0
100
AcDbLine
 10
68.99999625813416
 20
96.97381135062869
 30
0.0
 11
68.99999625813416
 21
98.9738113506287
 31
0.0
  0
LINE
  5
188
330
2B
100
AcDbEntity
  8
0
100
AcDbLine
 10
69.99999625813416
 20
96.97381135062869
 30
0.0
 11
69.99999625813416
 21
98.9738113506287
 31
0.0
  0
LINE
  5
189
330
2B
100
AcDbEntity
  8
0
100
AcDbLine
 10
70.99999625813416
 20
98.9738113506287
 30
0.0
 11
67.44721807197925
 21
98.9738113506287
 31
0.0
  0
LINE
  5
18A
330
2B
100
AcDbEntity
  8
0
100
AcDbLine
 10
70.99999625813416
 20
96.97381135062869
 30
0.0
 11
67.44721807197925
 21
96.97381135062869
 31
0.0
  0
LINE
  5
18B
330
2B
100
AcDbEntity
  8
0
100
AcDbLine
 10
19.99999625813416
 20
120.9738113506287
 30
0.0
 11
71.99999625813416
 21
120.9738113506287
 31
0.0
  0
LINE
  5
18C
330
2B
100
AcDbEntity
  8
0
100
AcDbLine
 10
55.14999625813425
 20
120.9738113506287
 30
0.0
 11
55.14999625813425
 21
124.3738113506287
 31
0.0
  0
LINE
  5
18D
330
2B
100
AcDbEntity
  8
0
100
AcDbLine
 10
55.14999625813425
 20
124.3738113506287
 30
0.0
 11
61.4499962581342
 21
124.3738113506287
 31
0.0
  0
LINE
  5
18E
330
2B
100
AcDbEntity
  8
0
100
AcDbLine
 10
61.4499962581342
 20
124.3738113506287
 30
0.0
 11
61.4499962581342
 21
120.9738113506287
 31
0.0
  0
ENDBLK
  5
190
330
2B
100
AcDbEntity
  8
0
100
AcDbBlockEnd
  0
BLOCK
  5
261
330
191
100
AcDbEntity
  8
0
100
AcDbBlockBegin
  2
A$C413B70EE
 70
     0
 10
0.0
 20
0.0
 30
0.0
  3
A$C413B70EE
  1

  0
LINE
  5
192
330
191
100
AcDbEntity
  8
0
100
AcDbLine
 10
127.5999998339284
 20
200.3690727306389
 30
0.0
 11
127.5999998339284
 21
6.63093194633106
 31
0.0
  0
LINE
  5
193
330
191
100
AcDbEntity
  8
0
100
AcDbLine
 10
122.5999998339284
 20
6.500002338485045
 30
0.0
 11
122.5999998339284
 21
16.50000233848504
 31
0.0
  0
LINE
  5
194
330
191
100
AcDbEntity
  8
0
100
AcDbLine
 10
6.599999833929357
 20
16.50000233848504
 30
0.0
 11
6.599999833929357
 21
190.5000023384846
 31
0.0
  0
LINE
  5
195
330
191
100
AcDbEntity
  8
0
100
AcDbLine
 10
6.599999833929357
 20
190.5000023384846
 30
0.0
 11
122.5999998339284
 21
190.5000023384846
 31
0.0
  0
LINE
  5
196
330
191
100
AcDbEntity
  8
0
100
AcDbLine
 10
6.599999833929357
 20
16.50000233848504
 30
0.0
 11
122.5999998339284
 21
16.50000233848504
 31
0.0
  0
LINE
  5
197
330
191
100
AcDbEntity
  8
0
100
AcDbLine
 10
122.5999998339284
 20
200.5000023384849
 30
0.0
 11
127.5999998339284
 21
200.3690727306389
 31
0.0
  0
LINE
  5
198
330
191
100
AcDbEntity
  8
0
100
AcDbLine
 10
124.014039598665
 20
200.4629744041099
 30
0.0
 11
124.0140395986643
 21
6.537030272860023
 31
0.0
  0
LINE
  5
199
330
191
100
AcDbEntity
  8
0
100
AcDbLine
 10
122.5999998339284
 20
6.500002338485045
 30
0.0
 11
127.5999998339284
 21
6.63093194633106
 31
0.0
  0
LINE
  5
19A
330
191
100
AcDbEntity
  8
0
100
AcDbLine
 10
6.599999833929357
 20
16.50000233848504
 30
0.0
 11
6.599999833929357
 21
190.5000023384846
 31
0.0
  0
LINE
  5
19B
330
191
100
AcDbEntity
  8
0
100
AcDbLine
 10
6.599999833929357
 20
190.5000023384846
 30
0.0
 11
123.9878536770973
 21
190.5000023384846
 31
0.0
  0
LINE
  5
19C
330
191
100
AcDbEntity
  8
0
100
AcDbLine
 10
23.59999983392935
 20
16.50000233848504
 30
0.0
 11
23.59999983392935
 21
190.5000023384846
 31
0.0
  0
LINE
  5
19D
330
191
100
AcDbEntity
  8
0
100
AcDbLine
 10
105.5999998339291
 20
16.50000233848504
 30
0.0
 11
105.5999998339291
 21
190.5000023384846
 31
0.0
  0
LINE
  5
19E
330
191
100
AcDbEntity
  8
0
100
AcDbLine
 10
23.59999983392935
 20
189.5000023384849
 30
0.0
 11
105.5999998339291
 21
189.5000023384849
 31
0.0
  0
LINE
  5
19F
330
191
100
AcDbEntity
  8
0
100
AcDbLine
 10
28.59999983392935
 20
187.5000023384849
 30
0.0
 11
30.59999983392935
 21
187.5000023384849
 31
0.0
  0
LINE
  5
1A0
330
191
100
AcDbEntity
  8
0
100
AcDbLine
 10
28.59999983392935
 20
17.50000233848504
 30
0.0
 11
28.59999983392935
 21
70.75000233848505
 31
0.0
  0
LINE
  5
1A1
330
191
100
AcDbEntity
  8
0
100
AcDbLine
 10
30.59999983392935
 20
17.50000233848504
 30
0.0
 11
30.59999983392935
 21
70.75000233848505
 31
0.0
  0
LINE
  5
1A2
330
191
100
AcDbEntity
  8
0
100
AcDbLine
 10
28.59999983392935
 20
136.2500023384846
 30
0.0
 11
30.59999983392935
 21
136.2500023384846
 31
0.0
  0
LINE
  5
1A3
330
191
100
AcDbEntity
  8
0
100
AcDbLine
 10
28.59999983392935
 20
70.75000233848505
 30
0.0
 11
30.59999983392935
 21
70.75000233848505
 31
0.0
  0
LINE
  5
1A4
330
191
100
AcDbEntity
  8
0
100
AcDbLine
 10
23.59999983392935
 20
17.50000233848504
 30
0.0
 11
105.5999998339291
 21
17.50000233848504
 31
0.0
  0
LINE
  5
1A5
330
191
100
AcDbEntity
  8
0
100
AcDbLine
 10
28.59999983392935
 20
19.50000233848504
 30
0.0
 11
30.59999983392935
 21
19.50000233848504
 31
0.0
  0
LINE
  5
1A6
330
191
100
AcDbEntity
  8
0
100
AcDbLine
 10
28.59999983392935
 20
136.2500023384846
 30
0.0
 11
28.59999983392935
 21
189.5000023384849
 31
0.0
  0
LINE
  5
1A7
330
191
100
AcDbEntity
  8
0
100
AcDbLine
 10
30.59999983392935
 20
136.2500023384846
 30
0.0
 11
30.59999983392935
 21
189.5000023384849
 31
0.0
  0
LINE
  5
1A8
330
191
100
AcDbEntity
  8
0
100
AcDbLine
 10
35.59999983392936
 20
187.5000023384849
 30
0.0
 11
37.59999983392936
 21
187.5000023384849
 31
0.0
  0
LINE
  5
1A9
330
191
100
AcDbEntity
  8
0
100
AcDbLine
 10
35.59999983392936
 20
17.50000233848504
 30
0.0
 11
35.59999983392936
 21
70.75000233848505
 31
0.0
  0
LINE
  5
1AA
330
191
100
AcDbEntity
  8
0
100
AcDbLine
 10
37.59999983392936
 20
17.50000233848504
 30
0.0
 11
37.59999983392936
 21
70.75000233848505
 31
0.0
  0
LINE
  5
1AB
330
191
100
AcDbEntity
  8
0
100
AcDbLine
 10
35.59999983392936
 20
136.2500023384846
 30
0.0
 11
37.59999983392936
 21
136.2500023384846
 31
0.0
  0
LINE
  5
1AC
330
191
100
AcDbEntity
  8
0
100
AcDbLine
 10
35.59999983392936
 20
70.75000233848505
 30
0.0
 11
37.59999983392936
 21
70.75000233848505
 31
0.0
  0
LINE
  5
1AD
330
191
100
AcDbEntity
  8
0
100
AcDbLine
 10
35.59999983392936
 20
19.50000233848504
 30
0.0
 11
37.59999983392936
 21
19.50000233848504
 31
0.0
  0
LINE
  5
1AE
330
191
100
AcDbEntity
  8
0
100
AcDbLine
 10
35.59999983392936
 20
136.2500023384846
 30
0.0
 11
35.59999983392936
 21
189.5000023384849
 31
0.0
  0
LINE
  5
1AF
330
191
100
AcDbEntity
  8
0
100
AcDbLine
 10
37.59999983392936
 20
136.2500023384846
 30
0.0
 11
37.59999983392936
 21
189.5000023384849
 31
0.0
  0
LINE
  5
1B0
330
191
100
AcDbEntity
  8
0
100
AcDbLine
 10
42.59999983392936
 20
187.5000023384849
 30
0.0
 11
44.59999983392934
 21
187.5000023384849
 31
0.0
  0
LINE
  5
1B1
330
191
100
AcDbEntity
  8
0
100
AcDbLine
 10
42.59999983392936
 20
17.50000233848504
 30
0.0
 11
42.59999983392936
 21
70.75000233848505
 31
0.0
  0
LINE
  5
1B2
330
191
100
AcDbEntity
  8
0
100
AcDbLine
 10
44.59999983392934
 20
17.50000233848504
 30
0.0
 11
44.59999983392934
 21
70.75000233848505
 31
0.0
  0
LINE
  5
1B3
330
191
100
AcDbEntity
  8
0
100
AcDbLine
 10
42.59999983392936
 20
136.2500023384846
 30
0.0
 11
44.59999983392934
 21
136.2500023384846
 31
0.0
  0
LINE
  5
1B4
330
191
100
AcDbEntity
  8
0
100
AcDbLine
 10
42.59999983392936
 20
70.75000233848505
 30
0.0
 11
44.59999983392934
 21
70.75000233848505
 31
0.0
  0
LINE
  5
1B5
330
191
100
AcDbEntity
  8
0
100
AcDbLine
 10
42.59999983392936
 20
19.50000233848504
 30
0.0
 11
44.59999983392934
 21
19.50000233848504
 31
0.0
  0
LINE
  5
1B6
330
191
100
AcDbEntity
  8
0
100
AcDbLine
 10
42.59999983392936
 20
136.2500023384846
 30
0.0
 11
42.59999983392936
 21
189.5000023384849
 31
0.0
  0
LINE
  5
1B7
330
191
100
AcDbEntity
  8
0
100
AcDbLine
 10
44.59999983392934
 20
136.2500023384846
 30
0.0
 11
44.59999983392934
 21
189.5000023384849
 31
0.0
  0
LINE
  5
1B8
330
191
100
AcDbEntity
  8
0
100
AcDbLine
 10
49.59999983392936
 20
17.50000233848504
 30
0.0
 11
49.59999983392936
 21
70.75000233848505
 31
0.0
  0
LINE
  5
1B9
330
191
100
AcDbEntity
  8
0
100
AcDbLine
 10
51.59999983392935
 20
17.50000233848504
 30
0.0
 11
51.59999983392935
 21
70.75000233848505
 31
0.0
  0
LINE
  5
1BA
330
191
100
AcDbEntity
  8
0
100
AcDbLine
 10
49.59999983392936
 20
136.2500023384846
 30
0.0
 11
51.59999983392935
 21
136.2500023384846
 31
0.0
  0
LINE
  5
1BB
330
191
100
AcDbEntity
  8
0
100
AcDbLine
 10
49.59999983392936
 20
70.75000233848505
 30
0.0
 11
51.59999983392935
 21
70.75000233848505
 31
0.0
  0
LINE
  5
1BC
330
191
100
AcDbEntity
  8
0
100
AcDbLine
 10
49.59999983392936
 20
19.50000233848504
 30
0.0
 11
51.59999983392935
 21
19.50000233848504
 31
0.0
  0
LINE
  5
1BD
330
191
100
AcDbEntity
  8
0
100
AcDbLine
 10
49.59999983392936
 20
136.2500023384846
 30
0.0
 11
49.59999983392936
 21
189.5000023384849
 31
0.0
  0
LINE
  5
1BE
330
191
100
AcDbEntity
  8
0
100
AcDbLine
 10
51.59999983392935
 20
136.2500023384846
 30
0.0
 11
51.59999983392935
 21
189.5000023384849
 31
0.0
  0
LINE
  5
1BF
330
191
100
AcDbEntity
  8
0
100
AcDbLine
 10
56.59999983392935
 20
187.5000023384849
 30
0.0
 11
58.59999983392936
 21
187.5000023384849
 31
0.0
  0
LINE
  5
1C0
330
191
100
AcDbEntity
  8
0
100
AcDbLine
 10
56.59999983392935
 20
17.50000233848504
 30
0.0
 11
56.59999983392935
 21
70.75000233848505
 31
0.0
  0
LINE
  5
1C1
330
191
100
AcDbEntity
  8
0
100
AcDbLine
 10
58.59999983392936
 20
17.50000233848504
 30
0.0
 11
58.59999983392936
 21
70.75000233848505
 31
0.0
  0
LINE
  5
1C2
330
191
100
AcDbEntity
  8
0
100
AcDbLine
 10
56.59999983392935
 20
136.2500023384846
 30
0.0
 11
58.59999983392936
 21
136.2500023384846
 31
0.0
  0
LINE
  5
1C3
330
191
100
AcDbEntity
  8
0
100
AcDbLine
 10
56.59999983392935
 20
70.75000233848505
 30
0.0
 11
58.59999983392936
 21
70.75000233848505
 31
0.0
  0
LINE
  5
1C4
330
191
100
AcDbEntity
  8
0
100
AcDbLine
 10
56.59999983392935
 20
19.50000233848504
 30
0.0
 11
58.59999983392936
 21
19.50000233848504
 31
0.0
  0
LINE
  5
1C5
330
191
100
AcDbEntity
  8
0
100
AcDbLine
 10
56.59999983392935
 20
136.2500023384846
 30
0.0
 11
56.59999983392935
 21
189.5000023384849
 31
0.0
  0
LINE
  5
1C6
330
191
100
AcDbEntity
  8
0
100
AcDbLine
 10
58.59999983392936
 20
136.2500023384846
 30
0.0
 11
58.59999983392936
 21
189.5000023384849
 31
0.0
  0
LINE
  5
1C7
330
191
100
AcDbEntity
  8
0
100
AcDbLine
 10
63.59999983392936
 20
187.5000023384849
 30
0.0
 11
65.59999983392936
 21
187.5000023384849
 31
0.0
  0
LINE
  5
1C8
330
191
100
AcDbEntity
  8
0
100
AcDbLine
 10
63.59999983392936
 20
17.50000233848504
 30
0.0
 11
63.59999983392936
 21
70.75000233848505
 31
0.0
  0
LINE
  5
1C9
330
191
100
AcDbEntity
  8
0
100
AcDbLine
 10
65.59999983392936
 20
17.50000233848504
 30
0.0
 11
65.59999983392936
 21
70.75000233848505
 31
0.0
  0
LINE
  5
1CA
330
191
100
AcDbEntity
  8
0
100
AcDbLine
 10
63.59999983392936
 20
136.2500023384846
 30
0.0
 11
65.59999983392936
 21
136.2500023384846
 31
0.0
  0
LINE
  5
1CB
330
191
100
AcDbEntity
  8
0
100
AcDbLine
 10
63.59999983392936
 20
70.75000233848505
 30
0.0
 11
65.59999983392936
 21
70.75000233848505
 31
0.0
  0
LINE
  5
1CC
330
191
100
AcDbEntity
  8
0
100
AcDbLine
 10
63.59999983392936
 20
19.50000233848504
 30
0.0
 11
65.59999983392936
 21
19.50000233848504
 31
0.0
  0
LINE
  5
1CD
330
191
100
AcDbEntity
  8
0
100
AcDbLine
 10
63.59999983392936
 20
136.2500023384846
 30
0.0
 11
63.59999983392936
 21
189.5000023384849
 31
0.0
  0
LINE
  5
1CE
330
191
100
AcDbEntity
  8
0
100
AcDbLine
 10
65.59999983392936
 20
136.2500023384846
 30
0.0
 11
65.59999983392936
 21
189.5000023384849
 31
0.0
  0
LINE
  5
1CF
330
191
100
AcDbEntity
  8
0
100
AcDbLine
 10
70.59999983392936
 20
187.5000023384849
 30
0.0
 11
72.59999983392936
 21
187.5000023384849
 31
0.0
  0
LINE
  5
1D0
330
191
100
AcDbEntity
  8
0
100
AcDbLine
 10
70.59999983392936
 20
17.50000233848504
 30
0.0
 11
70.59999983392936
 21
70.75000233848505
 31
0.0
  0
LINE
  5
1D1
330
191
100
AcDbEntity
  8
0
100
AcDbLine
 10
72.59999983392936
 20
17.50000233848504
 30
0.0
 11
72.59999983392936
 21
70.75000233848505
 31
0.0
  0
LINE
  5
1D2
330
191
100
AcDbEntity
  8
0
100
AcDbLine
 10
70.59999983392936
 20
136.2500023384846
 30
0.0
 11
72.59999983392936
 21
136.2500023384846
 31
0.0
  0
LINE
  5
1D3
330
191
100
AcDbEntity
  8
0
100
AcDbLine
 10
70.59999983392936
 20
70.75000233848505
 30
0.0
 11
72.59999983392936
 21
70.75000233848505
 31
0.0
  0
LINE
  5
1D4
330
191
100
AcDbEntity
  8
0
100
AcDbLine
 10
70.59999983392936
 20
19.50000233848504
 30
0.0
 11
72.59999983392936
 21
19.50000233848504
 31
0.0
  0
LINE
  5
1D5
330
191
100
AcDbEntity
  8
0
100
AcDbLine
 10
70.59999983392936
 20
136.2500023384846
 30
0.0
 11
70.59999983392936
 21
189.5000023384849
 31
0.0
  0
LINE
  5
1D6
330
191
100
AcDbEntity
  8
0
100
AcDbLine
 10
72.59999983392936
 20
136.2500023384846
 30
0.0
 11
72.59999983392936
 21
189.5000023384849
 31
0.0
  0
LINE
  5
1D7
330
191
100
AcDbEntity
  8
0
100
AcDbLine
 10
77.59999983392936
 20
187.5000023384849
 30
0.0
 11
79.59999983392936
 21
187.5000023384849
 31
0.0
  0
LINE
  5
1D8
330
191
100
AcDbEntity
  8
0
100
AcDbLine
 10
77.59999983392936
 20
17.50000233848504
 30
0.0
 11
77.59999983392936
 21
70.75000233848505
 31
0.0
  0
LINE
  5
1D9
330
191
100
AcDbEntity
  8
0
100
AcDbLine
 10
79.59999983392936
 20
17.50000233848504
 30
0.0
 11
79.59999983392936
 21
70.75000233848505
 31
0.0
  0
LINE
  5
1DA
330
191
100
AcDbEntity
  8
0
100
AcDbLine
 10
77.59999983392936
 20
136.2500023384846
 30
0.0
 11
79.59999983392936
 21
136.2500023384846
 31
0.0
  0
LINE
  5
1DB
330
191
100
AcDbEntity
  8
0
100
AcDbLine
 10
77.59999983392936
 20
70.75000233848505
 30
0.0
 11
79.59999983392936
 21
70.75000233848505
 31
0.0
  0
LINE
  5
1DC
330
191
100
AcDbEntity
  8
0
100
AcDbLine
 10
77.59999983392936
 20
19.50000233848504
 30
0.0
 11
79.59999983392936
 21
19.50000233848504
 31
0.0
  0
LINE
  5
1DD
330
191
100
AcDbEntity
  8
0
100
AcDbLine
 10
77.59999983392936
 20
136.2500023384846
 30
0.0
 11
77.59999983392936
 21
189.5000023384849
 31
0.0
  0
LINE
  5
1DE
330
191
100
AcDbEntity
  8
0
100
AcDbLine
 10
79.59999983392936
 20
136.2500023384846
 30
0.0
 11
79.59999983392936
 21
189.5000023384849
 31
0.0
  0
LINE
  5
1DF
330
191
100
AcDbEntity
  8
0
100
AcDbLine
 10
84.59999983392936
 20
187.5000023384849
 30
0.0
 11
86.59999983392934
 21
187.5000023384849
 31
0.0
  0
LINE
  5
1E0
330
191
100
AcDbEntity
  8
0
100
AcDbLine
 10
84.59999983392936
 20
17.50000233848504
 30
0.0
 11
84.59999983392936
 21
70.75000233848505
 31
0.0
  0
LINE
  5
1E1
330
191
100
AcDbEntity
  8
0
100
AcDbLine
 10
86.59999983392934
 20
17.50000233848504
 30
0.0
 11
86.59999983392934
 21
70.75000233848505
 31
0.0
  0
LINE
  5
1E2
330
191
100
AcDbEntity
  8
0
100
AcDbLine
 10
84.59999983392936
 20
136.2500023384846
 30
0.0
 11
86.59999983392934
 21
136.2500023384846
 31
0.0
  0
LINE
  5
1E3
330
191
100
AcDbEntity
  8
0
100
AcDbLine
 10
84.59999983392936
 20
70.75000233848505
 30
0.0
 11
86.59999983392934
 21
70.75000233848505
 31
0.0
  0
LINE
  5
1E4
330
191
100
AcDbEntity
  8
0
100
AcDbLine
 10
84.59999983392936
 20
19.50000233848504
 30
0.0
 11
86.59999983392934
 21
19.50000233848504
 31
0.0
  0
LINE
  5
1E5
330
191
100
AcDbEntity
  8
0
100
AcDbLine
 10
84.59999983392936
 20
136.2500023384846
 30
0.0
 11
84.59999983392936
 21
189.5000023384849
 31
0.0
  0
LINE
  5
1E6
330
191
100
AcDbEntity
  8
0
100
AcDbLine
 10
86.59999983392934
 20
136.2500023384846
 30
0.0
 11
86.59999983392934
 21
189.5000023384849
 31
0.0
  0
LINE
  5
1E7
330
191
100
AcDbEntity
  8
0
100
AcDbLine
 10
91.59999983392937
 20
187.5000023384849
 30
0.0
 11
93.59999983392937
 21
187.5000023384849
 31
0.0
  0
LINE
  5
1E8
330
191
100
AcDbEntity
  8
0
100
AcDbLine
 10
91.59999983392937
 20
17.50000233848504
 30
0.0
 11
91.59999983392937
 21
70.75000233848505
 31
0.0
  0
LINE
  5
1E9
330
191
100
AcDbEntity
  8
0
100
AcDbLine
 10
93.59999983392937
 20
17.50000233848504
 30
0.0
 11
93.59999983392937
 21
70.75000233848505
 31
0.0
  0
LINE
  5
1EA
330
191
100
AcDbEntity
  8
0
100
AcDbLine
 10
91.59999983392937
 20
136.2500023384846
 30
0.0
 11
93.59999983392937
 21
136.2500023384846
 31
0.0
  0
LINE
  5
1EB
330
191
100
AcDbEntity
  8
0
100
AcDbLine
 10
91.59999983392937
 20
70.75000233848505
 30
0.0
 11
93.59999983392937
 21
70.75000233848505
 31
0.0
  0
LINE
  5
1EC
330
191
100
AcDbEntity
  8
0
100
AcDbLine
 10
91.59999983392937
 20
19.50000233848504
 30
0.0
 11
93.59999983392937
 21
19.50000233848504
 31
0.0
  0
LINE
  5
1ED
330
191
100
AcDbEntity
  8
0
100
AcDbLine
 10
91.59999983392937
 20
136.2500023384846
 30
0.0
 11
91.59999983392937
 21
189.5000023384849
 31
0.0
  0
LINE
  5
1EE
330
191
100
AcDbEntity
  8
0
100
AcDbLine
 10
93.59999983392937
 20
136.2500023384846
 30
0.0
 11
93.59999983392937
 21
189.5000023384849
 31
0.0
  0
LINE
  5
1EF
330
191
100
AcDbEntity
  8
0
100
AcDbLine
 10
98.59999983392938
 20
187.5000023384849
 30
0.0
 11
100.5999998339291
 21
187.5000023384849
 31
0.0
  0
LINE
  5
1F0
330
191
100
AcDbEntity
  8
0
100
AcDbLine
 10
98.59999983392938
 20
17.50000233848504
 30
0.0
 11
98.59999983392938
 21
70.75000233848505
 31
0.0
  0
LINE
  5
1F1
330
191
100
AcDbEntity
  8
0
100
AcDbLine
 10
100.5999998339291
 20
17.50000233848504
 30
0.0
 11
100.5999998339291
 21
70.75000233848505
 31
0.0
  0
LINE
  5
1F2
330
191
100
AcDbEntity
  8
0
100
AcDbLine
 10
98.59999983392938
 20
136.2500023384846
 30
0.0
 11
100.5999998339291
 21
136.2500023384846
 31
0.0
  0
LINE
  5
1F3
330
191
100
AcDbEntity
  8
0
100
AcDbLine
 10
98.59999983392938
 20
70.75000233848505
 30
0.0
 11
100.5999998339291
 21
70.75000233848505
 31
0.0
  0
LINE
  5
1F4
330
191
100
AcDbEntity
  8
0
100
AcDbLine
 10
98.59999983392938
 20
19.50000233848504
 30
0.0
 11
100.5999998339291
 21
19.50000233848504
 31
0.0
  0
LINE
  5
1F5
330
191
100
AcDbEntity
  8
0
100
AcDbLine
 10
98.59999983392938
 20
136.2500023384846
 30
0.0
 11
98.59999983392938
 21
189.5000023384849
 31
0.0
  0
LINE
  5
1F6
330
191
100
AcDbEntity
  8
0
100
AcDbLine
 10
100.5999998339291
 20
136.2500023384846
 30
0.0
 11
100.5999998339291
 21
189.5000023384849
 31
0.0
  0
LINE
  5
1F7
330
191
100
AcDbEntity
  8
0
100
AcDbLine
 10
28.59999983392935
 20
165.0000023384849
 30
0.0
 11
30.59999983392935
 21
165.0000023384849
 31
0.0
  0
LINE
  5
1F8
330
191
100
AcDbEntity
  8
0
100
AcDbLine
 10
28.59999983392935
 20
162.0000023384849
 30
0.0
 11
30.59999983392935
 21
162.0000023384849
 31
0.0
  0
LINE
  5
1F9
330
191
100
AcDbEntity
  8
0
100
AcDbLine
 10
28.59999983392935
 20
45.00000233848505
 30
0.0
 11
30.59999983392935
 21
45.00000233848505
 31
0.0
  0
LINE
  5
1FA
330
191
100
AcDbEntity
  8
0
100
AcDbLine
 10
28.59999983392935
 20
42.00000233848505
 30
0.0
 11
30.59999983392935
 21
42.00000233848505
 31
0.0
  0
LINE
  5
1FB
330
191
100
AcDbEntity
  8
0
100
AcDbLine
 10
35.59999983392936
 20
165.0000023384849
 30
0.0
 11
37.59999983392936
 21
165.0000023384849
 31
0.0
  0
LINE
  5
1FC
330
191
100
AcDbEntity
  8
0
100
AcDbLine
 10
35.59999983392936
 20
162.0000023384849
 30
0.0
 11
37.59999983392936
 21
162.0000023384849
 31
0.0
  0
LINE
  5
1FD
330
191
100
AcDbEntity
  8
0
100
AcDbLine
 10
35.59999983392936
 20
45.00000233848505
 30
0.0
 11
37.59999983392936
 21
45.00000233848505
 31
0.0
  0
LINE
  5
1FE
330
191
100
AcDbEntity
  8
0
100
AcDbLine
 10
35.59999983392936
 20
42.00000233848505
 30
0.0
 11
37.59999983392936
 21
42.00000233848505
 31
0.0
  0
LINE
  5
1FF
330
191
100
AcDbEntity
  8
0
100
AcDbLine
 10
42.59999983392936
 20
165.0000023384849
 30
0.0
 11
44.59999983392934
 21
165.0000023384849
 31
0.0
  0
LINE
  5
200
330
191
100
AcDbEntity
  8
0
100
AcDbLine
 10
42.59999983392936
 20
162.0000023384849
 30
0.0
 11
44.59999983392934
 21
162.0000023384849
 31
0.0
  0
LINE
  5
201
330
191
100
AcDbEntity
  8
0
100
AcDbLine
 10
42.59999983392936
 20
45.00000233848505
 30
0.0
 11
44.59999983392934
 21
45.00000233848505
 31
0.0
  0
LINE
  5
202
330
191
100
AcDbEntity
  8
0
100
AcDbLine
 10
42.59999983392936
 20
42.00000233848505
 30
0.0
 11
44.59999983392934
 21
42.00000233848505
 31
0.0
  0
LINE
  5
203
330
191
100
AcDbEntity
  8
0
100
AcDbLine
 10
49.59999983392936
 20
165.0000023384849
 30
0.0
 11
51.59999983392935
 21
165.0000023384849
 31
0.0
  0
LINE
  5
204
330
191
100
AcDbEntity
  8
0
100
AcDbLine
 10
49.59999983392936
 20
162.0000023384849
 30
0.0
 11
51.59999983392935
 21
162.0000023384849
 31
0.0
  0
LINE
  5
205
330
191
100
AcDbEntity
  8
0
100
AcDbLine
 10
49.59999983392936
 20
45.00000233848505
 30
0.0
 11
51.59999983392935
 21
45.00000233848505
 31
0.0
  0
LINE
  5
206
330
191
100
AcDbEntity
  8
0
100
AcDbLine
 10
49.59999983392936
 20
42.00000233848505
 30
0.0
 11
51.59999983392935
 21
42.00000233848505
 31
0.0
  0
LINE
  5
207
330
191
100
AcDbEntity
  8
0
100
AcDbLine
 10
56.59999983392935
 20
165.0000023384849
 30
0.0
 11
58.59999983392936
 21
165.0000023384849
 31
0.0
  0
LINE
  5
208
330
191
100
AcDbEntity
  8
0
100
AcDbLine
 10
56.59999983392935
 20
162.0000023384849
 30
0.0
 11
58.59999983392936
 21
162.0000023384849
 31
0.0
  0
LINE
  5
209
330
191
100
AcDbEntity
  8
0
100
AcDbLine
 10
56.59999983392935
 20
45.00000233848505
 30
0.0
 11
58.59999983392936
 21
45.00000233848505
 31
0.0
  0
LINE
  5
20A
330
191
100
AcDbEntity
  8
0
100
AcDbLine
 10
56.59999983392935
 20
42.00000233848505
 30
0.0
 11
58.59999983392936
 21
42.00000233848505
 31
0.0
  0
LINE
  5
20B
330
191
100
AcDbEntity
  8
0
100
AcDbLine
 10
63.59999983392936
 20
165.0000023384849
 30
0.0
 11
65.59999983392936
 21
165.0000023384849
 31
0.0
  0
LINE
  5
20C
330
191
100
AcDbEntity
  8
0
100
AcDbLine
 10
63.59999983392936
 20
162.0000023384849
 30
0.0
 11
65.59999983392936
 21
162.0000023384849
 31
0.0
  0
LINE
  5
20D
330
191
100
AcDbEntity
  8
0
100
AcDbLine
 10
63.59999983392936
 20
45.00000233848505
 30
0.0
 11
65.59999983392936
 21
45.00000233848505
 31
0.0
  0
LINE
  5
20E
330
191
100
AcDbEntity
  8
0
100
AcDbLine
 10
63.59999983392936
 20
42.00000233848505
 30
0.0
 11
65.59999983392936
 21
42.00000233848505
 31
0.0
  0
LINE
  5
20F
330
191
100
AcDbEntity
  8
0
100
AcDbLine
 10
70.59999983392936
 20
165.0000023384849
 30
0.0
 11
72.59999983392936
 21
165.0000023384849
 31
0.0
  0
LINE
  5
210
330
191
100
AcDbEntity
  8
0
100
AcDbLine
 10
70.59999983392936
 20
162.0000023384849
 30
0.0
 11
72.59999983392936
 21
162.0000023384849
 31
0.0
  0
LINE
  5
211
330
191
100
AcDbEntity
  8
0
100
AcDbLine
 10
70.59999983392936
 20
45.00000233848505
 30
0.0
 11
72.59999983392936
 21
45.00000233848505
 31
0.0
  0
LINE
  5
212
330
191
100
AcDbEntity
  8
0
100
AcDbLine
 10
70.59999983392936
 20
42.00000233848505
 30
0.0
 11
72.59999983392936
 21
42.00000233848505
 31
0.0
  0
LINE
  5
213
330
191
100
AcDbEntity
  8
0
100
AcDbLine
 10
77.59999983392936
 20
165.0000023384849
 30
0.0
 11
79.59999983392936
 21
165.0000023384849
 31
0.0
  0
LINE
  5
214
330
191
100
AcDbEntity
  8
0
100
AcDbLine
 10
77.59999983392936
 20
162.0000023384849
 30
0.0
 11
79.59999983392936
 21
162.0000023384849
 31
0.0
  0
LINE
  5
215
330
191
100
AcDbEntity
  8
0
100
AcDbLine
 10
77.59999983392936
 20
45.00000233848505
 30
0.0
 11
79.59999983392936
 21
45.00000233848505
 31
0.0
  0
LINE
  5
216
330
191
100
AcDbEntity
  8
0
100
AcDbLine
 10
77.59999983392936
 20
42.00000233848505
 30
0.0
 11
79.59999983392936
 21
42.00000233848505
 31
0.0
  0
LINE
  5
217
330
191
100
AcDbEntity
  8
0
100
AcDbLine
 10
84.59999983392936
 20
165.0000023384849
 30
0.0
 11
86.59999983392934
 21
165.0000023384849
 31
0.0
  0
LINE
  5
218
330
191
100
AcDbEntity
  8
0
100
AcDbLine
 10
84.59999983392936
 20
162.0000023384849
 30
0.0
 11
86.59999983392934
 21
162.0000023384849
 31
0.0
  0
LINE
  5
219
330
191
100
AcDbEntity
  8
0
100
AcDbLine
 10
84.59999983392936
 20
45.00000233848505
 30
0.0
 11
86.59999983392934
 21
45.00000233848505
 31
0.0
  0
LINE
  5
21A
330
191
100
AcDbEntity
  8
0
100
AcDbLine
 10
84.59999983392936
 20
42.00000233848505
 30
0.0
 11
86.59999983392934
 21
42.00000233848505
 31
0.0
  0
LINE
  5
21B
330
191
100
AcDbEntity
  8
0
100
AcDbLine
 10
91.59999983392937
 20
165.0000023384849
 30
0.0
 11
93.59999983392937
 21
165.0000023384849
 31
0.0
  0
LINE
  5
21C
330
191
100
AcDbEntity
  8
0
100
AcDbLine
 10
91.59999983392937
 20
162.0000023384849
 30
0.0
 11
93.59999983392937
 21
162.0000023384849
 31
0.0
  0
LINE
  5
21D
330
191
100
AcDbEntity
  8
0
100
AcDbLine
 10
91.59999983392937
 20
45.00000233848505
 30
0.0
 11
93.59999983392937
 21
45.00000233848505
 31
0.0
  0
LINE
  5
21E
330
191
100
AcDbEntity
  8
0
100
AcDbLine
 10
91.59999983392937
 20
42.00000233848505
 30
0.0
 11
93.59999983392937
 21
42.00000233848505
 31
0.0
  0
LINE
  5
21F
330
191
100
AcDbEntity
  8
0
100
AcDbLine
 10
98.59999983392938
 20
165.0000023384849
 30
0.0
 11
100.5999998339291
 21
165.0000023384849
 31
0.0
  0
LINE
  5
220
330
191
100
AcDbEntity
  8
0
100
AcDbLine
 10
98.59999983392938
 20
162.0000023384849
 30
0.0
 11
100.5999998339291
 21
162.0000023384849
 31
0.0
  0
LINE
  5
221
330
191
100
AcDbEntity
  8
0
100
AcDbLine
 10
98.59999983392938
 20
45.00000233848505
 30
0.0
 11
100.5999998339291
 21
45.00000233848505
 31
0.0
  0
LINE
  5
222
330
191
100
AcDbEntity
  8
0
100
AcDbLine
 10
98.59999983392938
 20
42.00000233848505
 30
0.0
 11
100.5999998339291
 21
42.00000233848505
 31
0.0
  0
LINE
  5
223
330
191
100
AcDbEntity
  8
0
100
AcDbLine
 10
78.59999983392936
 20
17.50000233848504
 30
0.0
 11
78.59999983392835
 21
17.00000233848504
 31
0.0
  0
LINE
  5
224
330
191
100
AcDbEntity
  8
0
100
AcDbLine
 10
23.59999983392935
 20
17.00000233848504
 30
0.0
 11
78.59999983392936
 21
17.00000233848504
 31
0.0
  0
LINE
  5
225
330
191
100
AcDbEntity
  8
0
100
AcDbLine
 10
123.9878536770963
 20
16.50000233848504
 30
0.0
 11
123.9878536770973
 21
190.5000023384846
 31
0.0
  0
LINE
  5
226
330
191
100
AcDbEntity
  8
0
100
AcDbLine
 10
3.199999833929495
 20
57.20000307217538
 30
0.0
 11
3.199999833929495
 21
37.00000307217532
 31
0.0
  0
LINE
  5
227
330
191
100
AcDbEntity
  8
0
100
AcDbLine
 10
4.099999833929357
 20
33.50000307217532
 30
0.0
 11
3.599999833929357
 21
34.00000307217532
 31
0.0
  0
LINE
  5
228
330
191
100
AcDbEntity
  8
0
100
AcDbLine
 10
3.599999833929472
 20
34.90000307217542
 30
0.0
 11
3.599999833929357
 21
34.00000307217532
 31
0.0
  0
LINE
  5
229
330
191
100
AcDbEntity
  8
0
100
AcDbLine
 10
4.899999833929538
 20
33.50000307217532
 30
0.0
 11
4.099999833929357
 21
33.50000307217532
 31
0.0
  0
ARC
  5
22A
330
191
100
AcDbEntity
  8
0
100
AcDbCircle
 10
4.599999833929471
 20
34.90000307217531
 30
0.0
 40
1.0
100
AcDbArc
 50
90.0
 51
180.0
  0
LINE
  5
22B
330
191
100
AcDbEntity
  8
0
100
AcDbLine
 10
6.599999833929357
 20
35.90000307217538
 30
0.0
 11
4.599999833929471
 21
35.90000307217531
 31
0.0
  0
LINE
  5
22C
330
191
100
AcDbEntity
  8
0
100
AcDbLine
 10
6.599999833929357
 20
34.70000307217537
 30
0.0
 11
4.899999833929655
 21
34.70000307217537
 31
0.0
  0
LINE
  5
22D
330
191
100
AcDbEntity
  8
0
100
AcDbLine
 10
6.599999833929357
 20
37.00000307217528
 30
0.0
 11
3.199999833929495
 21
37.00000307217532
 31
0.0
  0
LINE
  5
22E
330
191
100
AcDbEntity
  8
0
100
AcDbLine
 10
4.899999833929538
 20
33.50000307217532
 30
0.0
 11
4.899999833929538
 21
34.70000307217537
 31
0.0
  0
LINE
  5
22F
330
191
100
AcDbEntity
  8
0
100
AcDbLine
 10
4.099999833929587
 20
60.70000307217537
 30
0.0
 11
3.599999833929587
 21
60.20000307217538
 31
0.0
  0
LINE
  5
230
330
191
100
AcDbEntity
  8
0
100
AcDbLine
 10
3.599999833929587
 20
60.20000307217538
 30
0.0
 11
3.599999833929587
 21
59.30000307217529
 31
0.0
  0
LINE
  5
231
330
191
100
AcDbEntity
  8
0
100
AcDbLine
 10
4.899999833929538
 20
60.70000307217537
 30
0.0
 11
4.099999833929587
 21
60.70000307217537
 31
0.0
  0
ARC
  5
232
330
191
100
AcDbEntity
  8
0
100
AcDbCircle
 10
4.599999833929587
 20
59.3000030721754
 30
0.0
 40
1.0
100
AcDbArc
 50
180.0
 51
270.0
  0
LINE
  5
233
330
191
100
AcDbEntity
  8
0
100
AcDbLine
 10
6.599999833929357
 20
58.3000030721754
 30
0.0
 11
4.599999833929587
 21
58.3000030721754
 31
0.0
  0
LINE
  5
234
330
191
100
AcDbEntity
  8
0
100
AcDbLine
 10
3.199999833929495
 20
57.20000307217538
 30
0.0
 11
6.599999833929357
 21
57.20000307217538
 31
0.0
  0
LINE
  5
235
330
191
100
AcDbEntity
  8
0
100
AcDbLine
 10
6.599999833929357
 20
59.50000307217544
 30
0.0
 11
4.899999833929427
 21
59.50000307217544
 31
0.0
  0
LINE
  5
236
330
191
100
AcDbEntity
  8
0
100
AcDbLine
 10
4.899999833929538
 20
59.50000307217533
 30
0.0
 11
4.899999833929538
 21
60.70000307217537
 31
0.0
  0
LINE
  5
237
330
191
100
AcDbEntity
  8
0
100
AcDbLine
 10
6.599999833929357
 20
21.50000307217532
 30
0.0
 11
4.099999833929246
 21
21.50000307217532
 31
0.0
  0
LINE
  5
238
330
191
100
AcDbEntity
  8
0
100
AcDbLine
 10
4.099999833929246
 20
21.50000307217532
 30
0.0
 11
4.099999833929246
 21
27.00000307217532
 31
0.0
  0
LINE
  5
239
330
191
100
AcDbEntity
  8
0
100
AcDbLine
 10
4.099999833929246
 20
27.00000307217532
 30
0.0
 11
6.599999833929357
 21
27.00000307217532
 31
0.0
  0
LINE
  5
23A
330
191
100
AcDbEntity
  8
0
100
AcDbLine
 10
6.599999833929357
 20
62.14000233848515
 30
0.0
 11
5.599999833929358
 21
62.14000233848515
 31
0.0
  0
LINE
  5
23B
330
191
100
AcDbEntity
  8
0
100
AcDbLine
 10
5.599999833929358
 20
62.14000233848515
 30
0.0
 11
5.599999833929358
 21
59.50000307217544
 31
0.0
  0
LINE
  5
23C
330
191
100
AcDbEntity
  8
0
100
AcDbLine
 10
-0.000000166070663
 20
112.5000023384849
 30
0.0
 11
6.599999833929357
 21
112.5000023384849
 31
0.0
  0
LINE
  5
23D
330
191
100
AcDbEntity
  8
0
100
AcDbLine
 10
6.599999833929357
 20
136.6600023384848
 30
0.0
 11
-0.000000166070663
 21
136.6600023384848
 31
0.0
  0
LINE
  5
23E
330
191
100
AcDbEntity
  8
0
100
AcDbLine
 10
-0.000000166070663
 20
136.6600023384848
 30
0.0
 11
-0.000000166070663
 21
112.5000023384849
 31
0.0
  0
LINE
  5
23F
330
191
100
AcDbEntity
  8
0
100
AcDbLine
 10
1.299999833929404
 20
71.34000233848508
 30
0.0
 11
1.299999833929404
 21
99.80000233848514
 31
0.0
  0
LINE
  5
240
330
191
100
AcDbEntity
  8
0
100
AcDbLine
 10
1.299999833929404
 20
75.45000233848509
 30
0.0
 11
5.599999833929246
 21
75.45000233848509
 31
0.0
  0
LINE
  5
241
330
191
100
AcDbEntity
  8
0
100
AcDbLine
 10
5.599999833929358
 20
71.34000233848508
 30
0.0
 11
1.299999833929404
 21
71.34000233848508
 31
0.0
  0
LINE
  5
242
330
191
100
AcDbEntity
  8
0
100
AcDbLine
 10
1.299999833929404
 20
95.69000233848512
 30
0.0
 11
6.599999833929357
 21
95.69000233848512
 31
0.0
  0
LINE
  5
243
330
191
100
AcDbEntity
  8
0
100
AcDbLine
 10
1.299999833929404
 20
90.69000233848512
 30
0.0
 11
6.599999833929357
 21
90.69000233848512
 31
0.0
  0
LINE
  5
244
330
191
100
AcDbEntity
  8
0
100
AcDbLine
 10
1.299999833929404
 20
83.0700023384851
 30
0.0
 11
6.599999833929357
 21
83.0700023384851
 31
0.0
  0
LINE
  5
245
330
191
100
AcDbEntity
  8
0
100
AcDbLine
 10
1.299999833929404
 20
88.07000233848507
 30
0.0
 11
6.599999833929357
 21
88.07000233848507
 31
0.0
  0
LINE
  5
246
330
191
100
AcDbEntity
  8
0
100
AcDbLine
 10
1.299999833929404
 20
80.4500023384851
 30
0.0
 11
5.799999833929632
 21
80.4500023384851
 31
0.0
  0
LINE
  5
247
330
191
100
AcDbEntity
  8
0
100
AcDbLine
 10
5.799999833929632
 20
99.80000233848514
 30
0.0
 11
1.299999833929404
 21
99.80000233848514
 31
0.0
  0
LINE
  5
248
330
191
100
AcDbEntity
  8
0
100
AcDbLine
 10
49.59999983392936
 20
187.5000023384849
 30
0.0
 11
51.59999983392935
 21
187.5000023384849
 31
0.0
  0
LINE
  5
249
330
191
100
AcDbEntity
  8
0
100
AcDbLine
 10
122.5999998339284
 20
190.5000023384846
 30
0.0
 11
122.5999998339284
 21
200.5000023384849
 31
0.0
  0
LINE
  5
24A
330
191
100
AcDbEntity
  8
0
100
AcDbLine
 10
6.599999833929357
 20
16.50000233848504
 30
0.0
 11
123.9878536770973
 21
16.50000233848504
 31
0.0
  0
LINE
  5
24B
330
191
100
AcDbEntity
  8
0
100
AcDbLine
 10
25.59999983392935
 20
0.0000023384850465
 30
0.0
 11
25.59999983392935
 21
8.500002338485044
 31
0.0
  0
LINE
  5
24C
330
191
100
AcDbEntity
  8
0
100
AcDbLine
 10
77.59999983392835
 20
0.0000023384850465
 30
0.0
 11
77.59999983392835
 21
16.50000233848504
 31
0.0
  0
LINE
  5
24D
330
191
100
AcDbEntity
  8
0
100
AcDbLine
 10
25.59999983392935
 20
0.0000023384850465
 30
0.0
 11
77.59999983392835
 21
0.0000023384850465
 31
0.0
  0
LINE
  5
24E
330
191
100
AcDbEntity
  8
0
100
AcDbLine
 10
35.59999983392936
 20
0.0000023384850465
 30
0.0
 11
35.59999983392936
 21
16.50000233848504
 31
0.0
  0
LINE
  5
24F
330
191
100
AcDbEntity
  8
0
100
AcDbLine
 10
25.59999983392935
 20
8.500002338485044
 30
0.0
 11
35.59999983392936
 21
8.500002338485044
 31
0.0
  0
LINE
  5
250
330
191
100
AcDbEntity
  8
0
100
AcDbLine
 10
37.59999983392936
 20
9.500002338485046
 30
0.0
 11
37.59999983392936
 21
0.0000023384850465
 31
0.0
  0
LINE
  5
251
330
191
100
AcDbEntity
  8
0
100
AcDbLine
 10
75.59999983392835
 20
9.500002338485046
 30
0.0
 11
75.59999983392835
 21
0.0000023384850465
 31
0.0
  0
LINE
  5
252
330
191
100
AcDbEntity
  8
0
100
AcDbLine
 10
5.599999833929358
 20
58.3000030721754
 30
0.0
 11
5.599999833929358
 21
57.20000307217538
 31
0.0
  0
LINE
  5
253
330
191
100
AcDbEntity
  8
0
100
AcDbLine
 10
5.599999833929358
 20
37.00000307217532
 30
0.0
 11
5.599999833929358
 21
35.90000307217532
 31
0.0
  0
LINE
  5
254
330
191
100
AcDbEntity
  8
0
100
AcDbLine
 10
5.599999833929358
 20
34.70000307217537
 30
0.0
 11
5.599999833929358
 21
27.00000307217532
 31
0.0
  0
LINE
  5
255
330
191
100
AcDbEntity
  8
0
100
AcDbLine
 10
6.599999833929357
 20
157.9400023384851
 30
0.0
 11
5.595637893078333
 21
157.9400023384851
 31
0.0
  0
LINE
  5
256
330
191
100
AcDbEntity
  8
0
100
AcDbLine
 10
6.599999833929357
 20
68.70000307217536
 30
0.0
 11
5.599999833929358
 21
68.70000307217536
 31
0.0
  0
LINE
  5
257
330
191
100
AcDbEntity
  8
0
100
AcDbLine
 10
5.599999833929358
 20
68.70000307217536
 30
0.0
 11
5.599999833929246
 21
77.10000307217547
 31
0.0
  0
LINE
  5
258
330
191
100
AcDbEntity
  8
0
100
AcDbLine
 10
5.599999833929246
 20
77.10000307217547
 30
0.0
 11
6.599999833929357
 21
77.10000307217547
 31
0.0
  0
LINE
  5
259
330
191
100
AcDbEntity
  8
0
100
AcDbLine
 10
6.599999833929357
 20
78.60000307217545
 30
0.0
 11
5.799999833929632
 21
78.60000307217545
 31
0.0
  0
LINE
  5
25A
330
191
100
AcDbEntity
  8
0
100
AcDbLine
 10
5.799999833929632
 20
78.60000307217545
 30
0.0
 11
5.799999833929632
 21
81.60000307217547
 31
0.0
  0
LINE
  5
25B
330
191
100
AcDbEntity
  8
0
100
AcDbLine
 10
5.799999833929632
 20
81.60000307217547
 30
0.0
 11
6.599999833929357
 21
81.60000307217547
 31
0.0
  0
LINE
  5
25C
330
191
100
AcDbEntity
  8
0
100
AcDbLine
 10
6.599999833929357
 20
98.60000307217545
 30
0.0
 11
5.799999833929632
 21
98.60000307217545
 31
0.0
  0
LINE
  5
25D
330
191
100
AcDbEntity
  8
0
100
AcDbLine
 10
5.799999833929632
 20
98.60000307217545
 30
0.0
 11
5.799999833929632
 21
101.6000030721754
 31
0.0
  0
LINE
  5
25E
330
191
100
AcDbEntity
  8
0
100
AcDbLine
 10
5.799999833929632
 20
101.6000030721754
 30
0.0
 11
6.599999833929357
 21
101.6000030721754
 31
0.0
  0
LINE
  5
25F
330
191
100
AcDbEntity
  8
0
  6
CONTINUOUS
100
AcDbLine
 10
5.595637893078333
 20
157.9400023384851
 30
0.0
 11
5.595637893078333
 21
142.5400023384848
 31
0.0
  0
LINE
  5
260
330
191
100
AcDbEntity
  8
0
  6
CONTINUOUS
100
AcDbLine
 10
5.595637893078333
 20
142.5400023384848
 30
0.0
 11
6.599999833929357
 21
142.5400023384848
 31
0.0
  0
ENDBLK
  5
262
330
191
100
AcDbEntity
  8
0
100
AcDbBlockEnd
  0
BLOCK
  5
265
330
263
100
AcDbEntity
  8
0
100
AcDbBlockBegin
  2
A$C40301A48
 70
     0
 10
0.0
 20
0.0
 30
0.0
  3
A$C40301A48
  1

  0
INSERT
  5
264
330
263
100
AcDbEntity
  8
0
100
AcDbBlockReference
  2
A$C413B70EE
 10
-6.599999833929357
 20
-190.5000023384846
 30
0.0
  0
ENDBLK
  5
266
330
263
100
AcDbEntity
  8
0
100
AcDbBlockEnd
  0
ENDSEC
  0
SECTION
  2
ENTITIES
  0
LINE
  5
4ED
330
1F
100
AcDbEntity
  8
1
100
AcDbLine
 10
72.68454962301508
 20
175.9738123469826
 30
0.0
 11
87.68454962301495
 21
175.9738123469826
 31
0.0
  0
LINE
  5
4EE
330
1F
100
AcDbEntity
  8
1
100
AcDbLine
 10
80.18454962301508
 20
168.4738123469825
 30
0.0
 11
80.18454962301508
 21
183.4738123469826
 31
0.0
  0
LINE
  5
4EF
330
1F
100
AcDbEntity
  8
1
100
AcDbLine
 10
80.18454962301474
 20
352.4738123469826
 30
0.0
 11
80.18454962301474
 21
367.4738123469826
 31
0.0
  0
LINE
  5
4F0
330
1F
100
AcDbEntity
  8
1
100
AcDbLine
 10
72.68454962301508
 20
359.9738123469826
 30
0.0
 11
87.68454962301495
 21
359.9738123469826
 31
0.0
  0
INSERT
  5
4FD
330
1F
100
AcDbEntity
  8
0
100
AcDbBlockReference
  2
A$C7A762DB8
 10
37.1845533648808
 20
0.0000009963537195
 30
0.0
  0
INSERT
  5
4FE
330
1F
100
AcDbEntity
  8
0
100
AcDbBlockReference
  2
A$C40301A48
 10
209.184549623015
 20
354.9738123469826
 30
0.0
  0
LINE
  5
4FF
330
1F
100
AcDbEntity
  8
0
100
AcDbLine
 10
98.63454962301512
 20
204.0900954895746
 30
0.0
 11
98.63454962301512
 21
219.0575292043916
 31
0.0
  0
LINE
  5
500
330
1F
100
AcDbEntity
  8
0
100
AcDbLine
 10
92.33454962301491
 20
219.6738123469827
 30
0.0
 11
92.33454962301491
 21
203.4738123469826
 31
0.0
  0
LINE
  5
501
330
1F
100
AcDbEntity
  8
0
100
AcDbLine
 10
93.88454962301512
 20
220.1738123469827
 30
0.0
 11
93.88454962301512
 21
202.9738123469825
 31
0.0
  0
LINE
  5
502
330
1F
100
AcDbEntity
  8
0
100
AcDbLine
 10
97.08454962301516
 20
202.9738123469825
 30
0.0
 11
97.08454962301516
 21
220.1738123469827
 31
0.0
  0
LINE
  5
503
330
1F
100
AcDbEntity
  8
0
100
AcDbLine
 10
90.88454962301511
 20
229.1738123469825
 30
0.0
 11
90.88454962301511
 21
193.9738123469826
 31
0.0
  0
LINE
  5
504
330
1F
100
AcDbEntity
  8
0
100
AcDbLine
 10
99.98454962301515
 20
192.9738123469826
 30
0.0
 11
99.98454962301515
 21
230.1738123469827
 31
0.0
  0
LINE
  5
505
330
1F
100
AcDbEntity
  8
0
100
AcDbLine
 10
101.1845497449328
 20
230.6738121876385
 30
0.0
 11
101.1845497449328
 21
185.1738121876385
 31
0.0
  0
LINE
  5
506
330
1F
100
AcDbEntity
  8
0
100
AcDbLine
 10
89.78454974493207
 20
230.6738121876385
 30
0.0
 11
89.78454974493207
 21
185.1738121876385
 31
0.0
  0
LINE
  5
507
330
1F
100
AcDbEntity
  8
0
100
AcDbLine
 10
100.2845496230149
 20
230.6738121876385
 30
0.0
 11
100.2845496230149
 21
185.1738121876385
 31
0.0
  0
LINE
  5
508
330
1F
100
AcDbEntity
  8
0
100
AcDbLine
 10
74.78454974493195
 20
239.5738121876386
 30
0.0
 11
74.78454974493195
 21
185.1738121876385
 31
0.0
  0
LINE
  5
509
330
1F
100
AcDbEntity
  8
0
100
AcDbLine
 10
73.88454962301409
 20
185.9738123469826
 30
0.0
 11
73.88454962301409
 21
226.6138123469824
 31
0.0
  0
LINE
  5
50A
330
1F
100
AcDbEntity
  8
0
100
AcDbLine
 10
65.28454962301395
 20
226.6138123469824
 30
0.0
 11
65.28454962301395
 21
185.9738123469826
 31
0.0
  0
LINE
  5
50B
330
1F
100
AcDbEntity
  8
0
100
AcDbLine
 10
64.18454974493204
 20
271.4738121876385
 30
0.0
 11
64.18454974493204
 21
185.1738121876385
 31
0.0
  0
LINE
  5
50C
330
1F
100
AcDbEntity
  8
0
100
AcDbLine
 10
65.28454962301497
 20
185.1738121876385
 30
0.0
 11
65.28454962301497
 21
271.4738121876385
 31
0.0
  0
LINE
  5
50D
330
1F
100
AcDbEntity
  8
0
100
AcDbLine
 10
56.18454962301507
 20
201.6069927718954
 30
0.0
 11
56.18454962301507
 21
354.9476264254132
 31
0.0
  0
LINE
  5
50E
330
1F
100
AcDbEntity
  8
0
100
AcDbLine
 10
57.18454962301507
 20
354.9738123469826
 30
0.0
 11
57.18454962301405
 21
202.3555928070204
 31
0.0
  0
LINE
  5
50F
330
1F
100
AcDbEntity
  8
0
100
AcDbLine
 10
59.18454962301507
 20
352.9738123469826
 30
0.0
 11
59.18454962301392
 21
203.5595083644865
 31
0.0
  0
LINE
  5
510
330
1F
100
AcDbEntity
  8
0
100
AcDbLine
 10
56.18454962301507
 20
201.6069927718965
 30
0.0
 11
56.18454962301507
 21
354.4738123469826
 31
0.0
  0
LINE
  5
511
330
1F
100
AcDbEntity
  8
0
100
AcDbLine
 10
59.28454962301406
 20
352.7738123469826
 30
0.0
 11
59.28454962301406
 21
203.6659121352816
 31
0.0
  0
LINE
  5
512
330
1F
100
AcDbEntity
  8
0
100
AcDbLine
 10
109.184549623015
 20
363.9738123469826
 30
0.0
 11
109.184549623015
 21
171.9738123469826
 31
0.0
  0
LINE
  5
513
330
1F
100
AcDbEntity
  8
0
100
AcDbLine
 10
107.184549623015
 20
182.9738123469826
 30
0.0
 11
107.184549623015
 21
352.9738123469826
 31
0.0
  0
LINE
  5
514
330
1F
100
AcDbEntity
  8
0
100
AcDbLine
 10
109.184549623015
 20
180.9738123469826
 30
0.0
 11
109.184549623015
 21
354.9738123469826
 31
0.0
  0
LINE
  5
515
330
1F
100
AcDbEntity
  8
0
100
AcDbLine
 10
106.8845496230139
 20
352.7738123469826
 30
0.0
 11
106.8845496230139
 21
183.1738123469826
 31
0.0
  0
LINE
  5
516
330
1F
100
AcDbEntity
  8
0
100
AcDbLine
 10
37.18454962301496
 20
363.5283088878153
 30
0.0
 11
37.18454962301496
 21
172.4193158061494
 31
0.0
  0
ARC
  5
517
330
1F
100
AcDbEntity
  8
0
100
AcDbCircle
 10
80.18454962301508
 20
175.9738123469826
 30
0.0
 40
5.5
100
AcDbArc
 50
0.0
 51
65.38002267134597
  0
LINE
  5
518
330
1F
100
AcDbEntity
  8
0
100
AcDbLine
 10
82.28454962301498
 20
170.9738123469825
 30
0.0
 11
85.68454962301393
 21
170.9738123469825
 31
0.0
  0
LINE
  5
519
330
1F
100
AcDbEntity
  8
0
100
AcDbLine
 10
57.18454962301405
 20
180.9738123469826
 30
0.0
 11
109.184549623015
 21
180.9738123469826
 31
0.0
  0
LINE
  5
51A
330
1F
100
AcDbEntity
  8
0
100
AcDbLine
 10
107.184549623015
 20
182.9738123469826
 30
0.0
 11
62.18454962301007
 21
182.9738123469826
 31
0.0
  0
LINE
  5
51B
330
1F
100
AcDbEntity
  8
0
100
AcDbLine
 10
62.28454962300998
 20
183.1738123469826
 30
0.0
 11
106.8845496230139
 21
183.1738123469826
 31
0.0
  0
LINE
  5
51C
330
1F
100
AcDbEntity
  8
0
100
AcDbLine
 10
37.671461148861
 20
181.4324087082014
 30
0.0
 11
55.18454962301508
 21
180.9738123469826
 31
0.0
  0
LINE
  5
51D
330
1F
100
AcDbEntity
  8
0
100
AcDbLine
 10
55.18454962301508
 20
170.9738123469825
 30
0.0
 11
38.15837267470692
 21
171.4196584811745
 31
0.0
  0
ARC
  5
51E
330
1F
100
AcDbEntity
  8
0
100
AcDbCircle
 10
38.18454962301507
 20
172.4193158061494
 30
0.0
 40
1.0
100
AcDbArc
 50
180.0
 51
268.5000000000036
  0
ARC
  5
51F
330
1F
100
AcDbEntity
  8
0
100
AcDbCircle
 10
37.68454962301496
 20
181.9322373706895
 30
0.0
 40
0.5
100
AcDbArc
 50
180.0
 51
268.5000000000036
  0
LINE
  5
520
330
1F
100
AcDbEntity
  8
0
100
AcDbLine
 10
78.08454962301493
 20
175.9738123469826
 30
0.0
 11
78.08454962301493
 21
170.9738123469825
 31
0.0
  0
LINE
  5
521
330
1F
100
AcDbEntity
  8
0
100
AcDbLine
 10
82.28454962301498
 20
175.9738123469826
 30
0.0
 11
82.28454962301498
 21
170.9738123469825
 31
0.0
  0
LINE
  5
522
330
1F
100
AcDbEntity
  8
0
100
AcDbLine
 10
74.68454962301496
 20
175.9738123469826
 30
0.0
 11
74.68454962301496
 21
170.9738123469825
 31
0.0
  0
LINE
  5
523
330
1F
100
AcDbEntity
  8
0
100
AcDbLine
 10
55.18454962301508
 20
170.9738123469825
 30
0.0
 11
78.08454962301493
 21
170.9738123469825
 31
0.0
  0
LINE
  5
524
330
1F
100
AcDbEntity
  8
0
100
AcDbLine
 10
55.18454962301508
 20
170.9738123469825
 30
0.0
 11
77.93454962301506
 21
170.9738123469825
 31
0.0
  0
LINE
  5
525
330
1F
100
AcDbEntity
  8
0
100
AcDbLine
 10
74.78454974493195
 20
185.1738121876385
 30
0.0
 11
64.18454974493204
 21
185.1738121876385
 31
0.0
  0
LINE
  5
526
330
1F
100
AcDbEntity
  8
0
100
AcDbLine
 10
65.28454962301395
 20
185.9738123469826
 30
0.0
 11
73.88454962301409
 21
185.9738123469826
 31
0.0
  0
LINE
  5
527
330
1F
100
AcDbEntity
  8
0
100
AcDbLine
 10
59.18454962301087
 20
197.9738123469826
 30
0.0
 11
59.18454962300994
 21
181.0785560332593
 31
0.0
  0
LINE
  5
528
330
1F
100
AcDbEntity
  8
0
100
AcDbLine
 10
60.18454962301098
 20
197.9738123469826
 30
0.0
 11
60.18454962300996
 21
180.9738123469826
 31
0.0
  0
LINE
  5
529
330
1F
100
AcDbEntity
  8
0
100
AcDbLine
 10
62.18454962301098
 20
197.9738123469826
 30
0.0
 11
62.18454962301007
 21
182.9738123469826
 31
0.0
  0
LINE
  5
52A
330
1F
100
AcDbEntity
  8
0
100
AcDbLine
 10
59.18454962301087
 20
197.9738123469826
 30
0.0
 11
59.18454962300994
 21
181.4738123469826
 31
0.0
  0
LINE
  5
52B
330
1F
100
AcDbEntity
  8
0
100
AcDbLine
 10
62.28454962301089
 20
197.9738123469826
 30
0.0
 11
62.28454962300998
 21
183.1738123469826
 31
0.0
  0
LINE
  5
52C
330
1F
100
AcDbEntity
  8
0
100
AcDbLine
 10
55.18454962301508
 20
180.9738123469826
 30
0.0
 11
59.18454962300994
 21
181.0785560332593
 31
0.0
  0
LINE
  5
52D
330
1F
100
AcDbEntity
  8
0
100
AcDbLine
 10
55.18454962301508
 20
180.9738123469826
 30
0.0
 11
59.18454962301087
 21
181.0785560332593
 31
0.0
  0
CIRCLE
  5
52E
330
1F
100
AcDbEntity
  8
0
100
AcDbCircle
 10
55.18454962301508
 20
185.9738123469826
 30
0.0
 40
1.6
  0
CIRCLE
  5
52F
330
1F
100
AcDbEntity
  8
0
100
AcDbCircle
 10
55.18454962301508
 20
185.9738123469826
 30
0.0
 40
2.0
  0
LINE
  5
530
330
1F
100
AcDbEntity
  8
0
100
AcDbLine
 10
57.18454962301257
 20
181.0261841901203
 30
0.0
 11
57.18454962301405
 21
180.9738123469826
 31
0.0
  0
LINE
  5
531
330
1F
100
AcDbEntity
  8
0
100
AcDbLine
 10
60.18454962300996
 20
181.4738123469826
 30
0.0
 11
59.18454962300994
 21
181.4738123469815
 31
0.0
  0
ARC
  5
532
330
1F
100
AcDbEntity
  8
0
100
AcDbCircle
 10
55.48454962301502
 20
197.9738123469826
 30
0.0
 40
3.699999999995998
100
AcDbArc
 50
0.0
 51
79.09453000325759
  0
ARC
  5
533
330
1F
100
AcDbEntity
  8
0
100
AcDbCircle
 10
55.48454962301502
 20
197.9738123469826
 30
0.0
 40
4.699999999995998
100
AcDbArc
 50
0.0
 51
68.79523363710617
  0
ARC
  5
534
330
1F
100
AcDbEntity
  8
0
100
AcDbCircle
 10
55.48454962301502
 20
197.9738123469826
 30
0.0
 40
3.699999999995998
100
AcDbArc
 50
0.0
 51
79.09453000325759
  0
LINE
  5
535
330
1F
100
AcDbEntity
  8
0
100
AcDbLine
 10
53.53454962301498
 20
203.9738123469826
 30
0.0
 11
53.53454962301498
 21
205.3238123469824
 31
0.0
  0
LINE
  5
536
330
1F
100
AcDbEntity
  8
0
100
AcDbLine
 10
53.83454962301403
 20
203.9738123469826
 30
0.0
 11
53.83454962301403
 21
205.3238123469824
 31
0.0
  0
ARC
  5
537
330
1F
100
AcDbEntity
  8
0
100
AcDbCircle
 10
53.68454962301496
 20
205.3238123469824
 30
0.0
 40
0.15
100
AcDbArc
 50
0.0
 51
180.0
  0
ARC
  5
538
330
1F
100
AcDbEntity
  8
0
100
AcDbCircle
 10
55.03454962301496
 20
203.8238123469824
 30
0.0
 40
0.15
100
AcDbArc
 50
270.0
 51
90.0
  0
LINE
  5
539
330
1F
100
AcDbEntity
  8
0
100
AcDbLine
 10
53.83454962301403
 20
203.9738123469826
 30
0.0
 11
55.03454962301496
 21
203.9738123469826
 31
0.0
  0
LINE
  5
53A
330
1F
100
AcDbEntity
  8
0
100
AcDbLine
 10
52.73454962301503
 20
203.3238123469824
 30
0.0
 11
54.63454962301409
 21
203.3238123469824
 31
0.0
  0
LINE
  5
53B
330
1F
100
AcDbEntity
  8
0
100
AcDbLine
 10
52.73454962301503
 20
203.0238123469826
 30
0.0
 11
54.63454962301409
 21
203.0238123469826
 31
0.0
  0
LINE
  5
53C
330
1F
100
AcDbEntity
  8
0
100
AcDbLine
 10
53.13454962301512
 20
202.6738123469824
 30
0.0
 11
54.234549623014
 21
202.6738123469824
 31
0.0
  0
LINE
  5
53D
330
1F
100
AcDbEntity
  8
0
100
AcDbLine
 10
53.13454962301512
 20
202.3738123469825
 30
0.0
 11
54.234549623014
 21
202.3738123469825
 31
0.0
  0
ARC
  5
53E
330
1F
100
AcDbEntity
  8
0
100
AcDbCircle
 10
53.13454962301512
 20
202.5238123469825
 30
0.0
 40
0.15
100
AcDbArc
 50
90.0
 51
270.0
  0
ARC
  5
53F
330
1F
100
AcDbEntity
  8
0
100
AcDbCircle
 10
54.234549623014
 20
202.5238123469825
 30
0.0
 40
0.15
100
AcDbArc
 50
270.0
 51
90.0
  0
ARC
  5
540
330
1F
100
AcDbEntity
  8
0
100
AcDbCircle
 10
52.73454962301503
 20
203.1738123469827
 30
0.0
 40
0.15
100
AcDbArc
 50
90.0
 51
270.0
  0
ARC
  5
541
330
1F
100
AcDbEntity
  8
0
100
AcDbCircle
 10
54.63454962301409
 20
203.1738123469827
 30
0.0
 40
0.15
100
AcDbArc
 50
270.0
 51
90.0
  0
ARC
  5
542
330
1F
100
AcDbEntity
  8
0
100
AcDbCircle
 10
52.33454962301514
 20
203.8238123469824
 30
0.0
 40
0.15
100
AcDbArc
 50
90.0
 51
270.0
  0
CIRCLE
  5
543
330
1F
100
AcDbEntity
  8
0
100
AcDbCircle
 10
53.68454962301496
 20
203.9738123469826
 30
0.0
 40
2.149999999999999
  0
CIRCLE
  5
544
330
1F
100
AcDbEntity
  8
0
100
AcDbCircle
 10
53.68454962301496
 20
203.9738123469826
 30
0.0
 40
1.85
  0
LINE
  5
545
330
1F
100
AcDbEntity
  8
0
100
AcDbLine
 10
52.33454962301514
 20
203.6738123469826
 30
0.0
 11
55.03454962301496
 21
203.6738123469826
 31
0.0
  0
LINE
  5
546
330
1F
100
AcDbEntity
  8
0
100
AcDbLine
 10
52.33454962301514
 20
203.9738123469826
 30
0.0
 11
53.53454962301498
 21
203.9738123469826
 31
0.0
  0
CIRCLE
  5
547
330
1F
100
AcDbEntity
  8
0
100
AcDbCircle
 10
55.18454962301508
 20
195.9738123469826
 30
0.0
 40
2.0
  0
CIRCLE
  5
548
330
1F
100
AcDbEntity
  8
0
100
AcDbCircle
 10
55.18454962301508
 20
195.9738123469826
 30
0.0
 40
1.6
  0
ARC
  5
549
330
1F
100
AcDbEntity
  8
0
100
AcDbCircle
 10
55.48454962301502
 20
197.9738123469826
 30
0.0
 40
6.699999999996
100
AcDbArc
 50
0.0
 51
56.47925960398385
  0
ARC
  5
54A
330
1F
100
AcDbEntity
  8
0
100
AcDbCircle
 10
55.38454962301409
 20
197.9738123469826
 30
0.0
 40
6.899999999996
100
AcDbArc
 50
0.0
 51
55.58261128952961
  0
CIRCLE
  5
54B
330
1F
100
AcDbEntity
  8
0
100
AcDbCircle
 10
69.28454962301396
 20
193.5938123469824
 30
0.0
 40
2.0
  0
ARC
  5
54C
330
1F
100
AcDbEntity
  8
0
100
AcDbCircle
 10
80.18454962301508
 20
175.9738123469826
 30
0.0
 40
5.5
100
AcDbArc
 50
114.619977328654
 51
179.9999999999869
  0
CIRCLE
  5
54D
330
1F
100
AcDbEntity
  8
0
100
AcDbCircle
 10
69.28454962301396
 20
188.8438123469825
 30
0.0
 40
1.0
  0
CIRCLE
  5
54E
330
1F
100
AcDbEntity
  8
0
100
AcDbCircle
 10
69.28454962301396
 20
188.8438123469825
 30
0.0
 40
1.5
  0
ARC
  5
54F
330
1F
100
AcDbEntity
  8
0
100
AcDbCircle
 10
80.18454962301508
 20
175.9738123469826
 30
0.0
 40
2.1
100
AcDbArc
 50
0.0
 51
180.0
  0
CIRCLE
  5
550
330
1F
100
AcDbEntity
  8
0
100
AcDbCircle
 10
69.28454962301396
 20
203.7538123469833
 30
0.0
 40
2.0
  0
CIRCLE
  5
551
330
1F
100
AcDbEntity
  8
0
100
AcDbCircle
 10
69.28454962301396
 20
203.7538123469833
 30
0.0
 40
2.0
  0
CIRCLE
  5
552
330
1F
100
AcDbEntity
  8
0
100
AcDbCircle
 10
69.28454962301396
 20
198.6738123469826
 30
0.0
 40
2.0
  0
CIRCLE
  5
553
330
1F
100
AcDbEntity
  8
0
100
AcDbCircle
 10
69.28454962301396
 20
198.6738123469826
 30
0.0
 40
2.0
  0
CIRCLE
  5
554
330
1F
100
AcDbEntity
  8
0
100
AcDbCircle
 10
69.28454962301396
 20
208.8338123469825
 30
0.0
 40
2.0
  0
LINE
  5
555
330
1F
100
AcDbEntity
  8
0
100
AcDbLine
 10
104.6845496230139
 20
164.4738123469825
 30
0.0
 11
104.6845496230139
 21
180.9738123469826
 31
0.0
  0
LINE
  5
556
330
1F
100
AcDbEntity
  8
0
100
AcDbLine
 10
85.68454962301506
 20
175.9738123469826
 30
0.0
 11
85.68454962301506
 21
170.9738123469825
 31
0.0
  0
LINE
  5
557
330
1F
100
AcDbEntity
  8
0
100
AcDbLine
 10
85.68454962301393
 20
164.4738123469825
 30
0.0
 11
85.68454962301393
 21
180.9738123469826
 31
0.0
  0
ARC
  5
558
330
1F
100
AcDbEntity
  8
0
100
AcDbCircle
 10
95.18454962301404
 20
173.9738123469826
 30
0.0
 40
7.5
100
AcDbArc
 50
180.0
 51
0.0
  0
LINE
  5
559
330
1F
100
AcDbEntity
  8
0
100
AcDbLine
 10
104.6845496230139
 20
164.4738123469825
 30
0.0
 11
85.68454962301393
 21
164.4738123469825
 31
0.0
  0
ARC
  5
55A
330
1F
100
AcDbEntity
  8
0
100
AcDbCircle
 10
95.18454962301404
 20
173.9738123469826
 30
0.0
 40
9.5
100
AcDbArc
 50
186.0423284190578
 51
353.9576715809421
  0
LINE
  5
55B
330
1F
100
AcDbEntity
  8
0
100
AcDbLine
 10
87.75151524935495
 20
172.9738123469826
 30
0.0
 11
85.73732780916904
 21
172.9738123469826
 31
0.0
  0
LINE
  5
55C
330
1F
100
AcDbEntity
  8
0
100
AcDbLine
 10
104.6845496230139
 20
170.9738123469825
 30
0.0
 11
108.1845496230149
 21
170.9738123469825
 31
0.0
  0
LINE
  5
55D
330
1F
100
AcDbEntity
  8
0
100
AcDbLine
 10
104.6317714368599
 20
172.9738123469826
 30
0.0
 11
102.6175839966739
 21
172.9738123469826
 31
0.0
  0
ARC
  5
55E
330
1F
100
AcDbEntity
  8
0
100
AcDbCircle
 10
108.1845496230149
 20
171.9738123469826
 30
0.0
 40
1.0
100
AcDbArc
 50
270.0
 51
0.0
  0
LINE
  5
55F
330
1F
100
AcDbEntity
  8
0
100
AcDbLine
 10
100.2845496230138
 20
191.4738123469826
 30
0.0
 11
93.78454962301407
 21
191.4738123469826
 31
0.0
  0
LINE
  5
560
330
1F
100
AcDbEntity
  8
0
100
AcDbLine
 10
91.68454962301494
 20
192.9738123469826
 30
0.0
 11
99.98454962301515
 21
192.9738123469826
 31
0.0
  0
LINE
  5
561
330
1F
100
AcDbEntity
  8
0
100
AcDbLine
 10
90.88454962301511
 20
193.9738123469826
 30
0.0
 11
99.98454962301515
 21
193.9738123469826
 31
0.0
  0
LINE
  5
562
330
1F
100
AcDbEntity
  8
0
100
AcDbLine
 10
93.78454962301407
 20
185.9738123469826
 30
0.0
 11
100.2845496230138
 21
185.9738123469826
 31
0.0
  0
LINE
  5
563
330
1F
100
AcDbEntity
  8
0
100
AcDbLine
 10
101.1845497449328
 20
185.1738121876385
 30
0.0
 11
89.78454974493207
 21
185.1738121876385
 31
0.0
  0
LINE
  5
564
330
1F
100
AcDbEntity
  8
0
100
AcDbLine
 10
87.68454962301394
 20
180.9738123469826
 30
0.0
 11
87.68454962301404
 21
173.9738123469826
 31
0.0
  0
CIRCLE
  5
565
330
1F
100
AcDbEntity
  8
0
100
AcDbCircle
 10
96.85454962301399
 20
189.9738123469824
 30
0.0
 40
0.32
  0
LINE
  5
566
330
1F
100
AcDbEntity
  8
0
100
AcDbLine
 10
94.78454962301396
 20
189.4738123469826
 30
0.0
 11
93.78454962301407
 21
189.4738123469826
 31
0.0
  0
CIRCLE
  5
567
330
1F
100
AcDbEntity
  8
0
100
AcDbCircle
 10
96.85454962301399
 20
187.4738123469826
 30
0.0
 40
0.32
  0
LINE
  5
568
330
1F
100
AcDbEntity
  8
0
100
AcDbLine
 10
93.78454962301407
 20
187.9738123469826
 30
0.0
 11
94.78454962301396
 21
187.9738123469826
 31
0.0
  0
LINE
  5
569
330
1F
100
AcDbEntity
  8
0
100
AcDbLine
 10
93.78454962301407
 20
185.9738123469826
 30
0.0
 11
94.78454962301396
 21
185.9738123469826
 31
0.0
  0
LINE
  5
56A
330
1F
100
AcDbEntity
  8
0
100
AcDbLine
 10
94.78454962301396
 20
187.9738123469826
 30
0.0
 11
94.78454962301396
 21
189.4738123469826
 31
0.0
  0
LINE
  5
56B
330
1F
100
AcDbEntity
  8
0
100
AcDbLine
 10
93.78454962301407
 20
189.4738123469826
 30
0.0
 11
93.78454962301407
 21
187.9738123469826
 31
0.0
  0
LINE
  5
56C
330
1F
100
AcDbEntity
  8
0
100
AcDbLine
 10
94.78454962301396
 20
185.9738123469826
 30
0.0
 11
94.78454962301396
 21
191.4738123469826
 31
0.0
  0
LINE
  5
56D
330
1F
100
AcDbEntity
  8
0
100
AcDbLine
 10
93.78454962301407
 20
191.4738123469826
 30
0.0
 11
93.78454962301407
 21
185.9738123469826
 31
0.0
  0
ARC
  5
56E
330
1F
100
AcDbEntity
  8
0
100
AcDbCircle
 10
91.68454962301494
 20
193.4738123469826
 30
0.0
 40
0.5
100
AcDbArc
 50
180.0
 51
270.0
  0
LINE
  5
56F
330
1F
100
AcDbEntity
  8
0
100
AcDbLine
 10
91.18454962301495
 20
193.9738123469826
 30
0.0
 11
91.18454962301495
 21
193.4738123469826
 31
0.0
  0
ARC
  5
570
330
1F
100
AcDbEntity
  8
0
100
AcDbCircle
 10
96.63454962301512
 20
204.0900954895746
 30
0.0
 40
2.0
100
AcDbArc
 50
285.0000000000006
 51
0.0
  0
LINE
  5
571
330
1F
100
AcDbEntity
  8
0
100
AcDbLine
 10
98.63454962301512
 20
197.9738123469826
 30
0.0
 11
98.63454962301512
 21
200.3738123469825
 31
0.0
  0
ARC
  5
572
330
1F
100
AcDbEntity
  8
0
100
AcDbCircle
 10
94.33454962301516
 20
203.4738123469826
 30
0.0
 40
2.0
100
AcDbArc
 50
180.0
 51
285.0000000000006
  0
LINE
  5
573
330
1F
100
AcDbEntity
  8
0
100
AcDbLine
 10
92.33454962301491
 20
200.3738123469825
 30
0.0
 11
92.33454962301491
 21
197.9738123469826
 31
0.0
  0
LINE
  5
574
330
1F
100
AcDbEntity
  8
0
100
AcDbLine
 10
94.85218771322001
 20
201.5419606944044
 30
0.0
 11
97.15218771322
 21
202.1582438369953
 31
0.0
  0
LINE
  5
575
330
1F
100
AcDbEntity
  8
0
100
AcDbLine
 10
93.88454962301512
 20
202.9738123469825
 30
0.0
 11
97.08454962301516
 21
202.9738123469825
 31
0.0
  0
LINE
  5
576
330
1F
100
AcDbEntity
  8
0
100
AcDbLine
 10
92.33454962301491
 20
200.3738123469825
 30
0.0
 11
98.63454962301512
 21
200.3738123469825
 31
0.0
  0
LINE
  5
577
330
1F
100
AcDbEntity
  8
0
100
AcDbLine
 10
92.33454962301491
 20
198.4738123469826
 30
0.0
 11
98.63454962301512
 21
198.4738123469826
 31
0.0
  0
LINE
  5
578
330
1F
100
AcDbEntity
  8
0
100
AcDbLine
 10
92.33454962301491
 20
197.9738123469826
 30
0.0
 11
98.63454962301512
 21
197.9738123469826
 31
0.0
  0
CIRCLE
  5
579
330
1F
100
AcDbEntity
  8
0
100
AcDbCircle
 10
95.48454962301514
 20
195.9438123469826
 30
0.0
 40
1.399999999999999
  0
LINE
  5
57A
330
1F
100
AcDbEntity
  8
0
100
AcDbLine
 10
102.6845496230138
 20
180.9738123469826
 30
0.0
 11
102.6845496230138
 21
173.9738123469826
 31
0.0
  0
LINE
  5
57B
330
1F
100
AcDbEntity
  8
0
100
AcDbLine
 10
100.2845496230138
 20
185.9738123469826
 30
0.0
 11
100.2845496230138
 21
191.4738123469826
 31
0.0
  0
LINE
  5
57C
330
1F
100
AcDbEntity
  8
0
100
AcDbLine
 10
99.98454962301515
 20
210.3038123469825
 30
0.0
 11
100.2845496230149
 21
210.3038123469825
 31
0.0
  0
LINE
  5
57D
330
1F
100
AcDbEntity
  8
0
100
AcDbLine
 10
99.98454962301515
 20
209.0338123469833
 30
0.0
 11
100.2845496230149
 21
209.0338123469833
 31
0.0
  0
LINE
  5
57E
330
1F
100
AcDbEntity
  8
0
100
AcDbLine
 10
99.98454962301515
 20
207.7638123469834
 30
0.0
 11
100.2845496230149
 21
207.7638123469834
 31
0.0
  0
LINE
  5
57F
330
1F
100
AcDbEntity
  8
0
100
AcDbLine
 10
99.98454962301515
 20
207.7638123469834
 30
0.0
 11
100.2845496230149
 21
207.7638123469834
 31
0.0
  0
LINE
  5
580
330
1F
100
AcDbEntity
  8
0
100
AcDbLine
 10
99.98454962301515
 20
206.4938123469834
 30
0.0
 11
100.2845496230149
 21
206.4938123469834
 31
0.0
  0
LINE
  5
581
330
1F
100
AcDbEntity
  8
0
100
AcDbLine
 10
99.98454962301515
 20
205.2238123469833
 30
0.0
 11
100.2845496230149
 21
205.2238123469833
 31
0.0
  0
LINE
  5
582
330
1F
100
AcDbEntity
  8
0
100
AcDbLine
 10
99.98454962301515
 20
203.9538123469834
 30
0.0
 11
100.2845496230149
 21
203.9538123469834
 31
0.0
  0
LINE
  5
583
330
1F
100
AcDbEntity
  8
0
100
AcDbLine
 10
99.98454962301515
 20
200.3738123469825
 30
0.0
 11
100.2845496230149
 21
200.3738123469825
 31
0.0
  0
ARC
  5
584
330
1F
100
AcDbEntity
  8
0
100
AcDbCircle
 10
99.98454962301515
 20
193.2738123469825
 30
0.0
 40
0.3
100
AcDbArc
 50
270.0
 51
0.0
  0
LINE
  5
585
330
1F
100
AcDbEntity
  8
0
100
AcDbLine
 10
100.2845496230149
 20
200.3738123469825
 30
0.0
 11
100.2845496230149
 21
193.2738123469825
 31
0.0
  0
ARC
  5
586
330
1F
100
AcDbEntity
  8
0
100
AcDbCircle
 10
80.18454962301508
 20
359.9738123469826
 30
0.0
 40
5.5
100
AcDbArc
 50
294.619977328654
 51
0.0
  0
LINE
  5
587
330
1F
100
AcDbEntity
  8
0
100
AcDbLine
 10
55.18454962301508
 20
364.9738123469826
 30
0.0
 11
108.1845496230149
 21
364.9738123469826
 31
0.0
  0
LINE
  5
588
330
1F
100
AcDbEntity
  8
0
100
AcDbLine
 10
57.18454962301507
 20
354.9738123469826
 30
0.0
 11
109.184549623015
 21
354.9738123469826
 31
0.0
  0
LINE
  5
589
330
1F
100
AcDbEntity
  8
0
100
AcDbLine
 10
107.184549623015
 20
352.9738123469826
 30
0.0
 11
59.18454962301507
 21
352.9738123469826
 31
0.0
  0
LINE
  5
58A
330
1F
100
AcDbEntity
  8
0
100
AcDbLine
 10
106.8845496230139
 20
352.7738123469826
 30
0.0
 11
59.28454962301406
 21
352.7738123469826
 31
0.0
  0
LINE
  5
58B
330
1F
100
AcDbEntity
  8
0
100
AcDbLine
 10
55.18454962301508
 20
364.9738123469826
 30
0.0
 11
108.1845496230149
 21
364.9738123469826
 31
0.0
  0
CIRCLE
  5
58C
330
1F
100
AcDbEntity
  8
0
100
AcDbCircle
 10
80.18454962301508
 20
359.9738123469826
 30
0.0
 40
2.1
  0
LINE
  5
58D
330
1F
100
AcDbEntity
  8
0
100
AcDbLine
 10
74.68454962301496
 20
359.9738123469826
 30
0.0
 11
74.68454962301496
 21
364.9738123469826
 31
0.0
  0
LINE
  5
58E
330
1F
100
AcDbEntity
  8
0
100
AcDbLine
 10
76.1295496230141
 20
301.1338123469823
 30
0.0
 11
76.1295496230141
 21
276.9738123469826
 31
0.0
  0
LINE
  5
58F
330
1F
100
AcDbEntity
  8
0
100
AcDbLine
 10
76.5845497449319
 20
302.1738121876385
 30
0.0
 11
76.5845497449319
 21
275.9738121876385
 31
0.0
  0
LINE
  5
590
330
1F
100
AcDbEntity
  8
0
100
AcDbLine
 10
67.78454962301407
 20
301.1338123469823
 30
0.0
 11
67.78454962301407
 21
276.9738123469826
 31
0.0
  0
LINE
  5
591
330
1F
100
AcDbEntity
  8
0
100
AcDbLine
 10
74.76954962301397
 20
301.1338123469823
 30
0.0
 11
74.76954962301397
 21
276.9738123469826
 31
0.0
  0
LINE
  5
592
330
1F
100
AcDbEntity
  8
0
100
AcDbLine
 10
66.78454962301407
 20
301.1338123469823
 30
0.0
 11
66.78454962301407
 21
276.9738123469826
 31
0.0
  0
LINE
  5
593
330
1F
100
AcDbEntity
  8
0
100
AcDbLine
 10
64.18454974493204
 20
302.1738121876385
 30
0.0
 11
64.18454974493204
 21
275.9738121876385
 31
0.0
  0
LINE
  5
594
330
1F
100
AcDbEntity
  8
0
100
AcDbLine
 10
65.28454962301497
 20
275.9738121876385
 30
0.0
 11
65.28454962301497
 21
302.1738121876385
 31
0.0
  0
LINE
  5
595
330
1F
100
AcDbEntity
  8
0
100
AcDbLine
 10
72.28454962301404
 20
252.5438123469824
 30
0.0
 11
72.28454962301404
 21
247.5438123469825
 31
0.0
  0
LINE
  5
596
330
1F
100
AcDbEntity
  8
0
100
AcDbLine
 10
67.28454962301407
 20
251.7538123469825
 30
0.0
 11
67.28454962301407
 21
248.3338123469825
 31
0.0
  0
LINE
  5
597
330
1F
100
AcDbEntity
  8
0
100
AcDbLine
 10
74.78454974493195
 20
256.5738121876385
 30
0.0
 11
74.78454974493195
 21
243.1738121876385
 31
0.0
  0
LINE
  5
598
330
1F
100
AcDbEntity
  8
0
100
AcDbLine
 10
73.78454962301396
 20
234.6138123469824
 30
0.0
 11
73.78454962301396
 21
265.1138123469825
 31
0.0
  0
LINE
  5
599
330
1F
100
AcDbEntity
  8
0
100
AcDbLine
 10
65.28454962301395
 20
270.4738123469826
 30
0.0
 11
65.28454962301395
 21
229.6138123469825
 31
0.0
  0
ARC
  5
59A
330
1F
100
AcDbEntity
  8
0
100
AcDbCircle
 10
69.28454962301396
 20
238.6138123469824
 30
0.0
 40
2.9
100
AcDbArc
 50
133.6028189726939
 51
226.3971810273058
  0
LINE
  5
59B
330
1F
100
AcDbEntity
  8
0
100
AcDbLine
 10
65.28454962301395
 20
229.6138123469825
 30
0.0
 11
72.28454962301404
 21
229.6138123469825
 31
0.0
  0
LINE
  5
59C
330
1F
100
AcDbEntity
  8
0
100
AcDbLine
 10
65.28454962301395
 20
229.6138123469825
 30
0.0
 11
72.28454962301404
 21
229.6138123469825
 31
0.0
  0
LINE
  5
59D
330
1F
100
AcDbEntity
  8
0
100
AcDbLine
 10
73.88454962301409
 20
226.6138123469824
 30
0.0
 11
65.28454962301395
 21
226.6138123469824
 31
0.0
  0
ARC
  5
59E
330
1F
100
AcDbEntity
  8
0
100
AcDbCircle
 10
69.28454962301396
 20
246.2338123469826
 30
0.0
 40
2.9
100
AcDbArc
 50
133.6028189726939
 51
226.3971810273058
  0
LINE
  5
59F
330
1F
100
AcDbEntity
  8
0
100
AcDbLine
 10
65.28454962301395
 20
234.8538123469825
 30
0.0
 11
65.28454962301395
 21
229.6138123469825
 31
0.0
  0
LINE
  5
5A0
330
1F
100
AcDbEntity
  8
0
100
AcDbLine
 10
72.28454962301404
 20
229.6138123469825
 30
0.0
 11
72.28454962301404
 21
234.6138123469824
 31
0.0
  0
LINE
  5
5A1
330
1F
100
AcDbEntity
  8
0
100
AcDbLine
 10
72.28454962301404
 20
229.6138123469825
 30
0.0
 11
72.28454962301404
 21
234.8538123469825
 31
0.0
  0
CIRCLE
  5
5A2
330
1F
100
AcDbEntity
  8
0
100
AcDbCircle
 10
69.28454962301396
 20
223.7438123469835
 30
0.0
 40
1.0
  0
CIRCLE
  5
5A3
330
1F
100
AcDbEntity
  8
0
100
AcDbCircle
 10
69.28454962301396
 20
223.7438123469835
 30
0.0
 40
1.5
  0
CIRCLE
  5
5A4
330
1F
100
AcDbEntity
  8
0
100
AcDbCircle
 10
69.28454962301396
 20
213.9138123469824
 30
0.0
 40
2.0
  0
CIRCLE
  5
5A5
330
1F
100
AcDbEntity
  8
0
100
AcDbCircle
 10
69.28454962301396
 20
213.9138123469824
 30
0.0
 40
2.0
  0
CIRCLE
  5
5A6
330
1F
100
AcDbEntity
  8
0
100
AcDbCircle
 10
69.28454962301396
 20
218.9938123469834
 30
0.0
 40
2.0
  0
LINE
  5
5A7
330
1F
100
AcDbEntity
  8
0
100
AcDbLine
 10
74.78454974493195
 20
243.1738121876385
 30
0.0
 11
76.38454974493196
 21
243.1738121876385
 31
0.0
  0
LINE
  5
5A8
330
1F
100
AcDbEntity
  8
0
100
AcDbLine
 10
73.78454962301396
 20
242.1638123469824
 30
0.0
 11
75.48454962301423
 21
242.1638123469824
 31
0.0
  0
LINE
  5
5A9
330
1F
100
AcDbEntity
  8
0
100
AcDbLine
 10
75.48454962301423
 20
240.5638123469825
 30
0.0
 11
73.78454962301396
 21
240.5638123469825
 31
0.0
  0
LINE
  5
5AA
330
1F
100
AcDbEntity
  8
0
100
AcDbLine
 10
74.78454974493195
 20
239.5738121876386
 30
0.0
 11
76.38454974493196
 21
239.5738121876386
 31
0.0
  0
LINE
  5
5AB
330
1F
100
AcDbEntity
  8
0
100
AcDbLine
 10
71.48454962301423
 20
247.5438123469825
 30
0.0
 11
72.28454962301404
 21
247.5438123469825
 31
0.0
  0
LINE
  5
5AC
330
1F
100
AcDbEntity
  8
0
100
AcDbLine
 10
71.48454962301423
 20
244.9238123469827
 30
0.0
 11
72.28454962301404
 21
244.9238123469827
 31
0.0
  0
LINE
  5
5AD
330
1F
100
AcDbEntity
  8
0
100
AcDbLine
 10
71.48454962301423
 20
247.5438123469825
 30
0.0
 11
71.48454962301423
 21
244.9238123469827
 31
0.0
  0
CIRCLE
  5
5AE
330
1F
100
AcDbEntity
  8
0
100
AcDbCircle
 10
69.28454962301396
 20
246.2338123469826
 30
0.0
 40
0.75
  0
LINE
  5
5AF
330
1F
100
AcDbEntity
  8
0
100
AcDbLine
 10
71.48454962301423
 20
239.9238123469825
 30
0.0
 11
72.28454962301404
 21
239.9238123469825
 31
0.0
  0
LINE
  5
5B0
330
1F
100
AcDbEntity
  8
0
100
AcDbLine
 10
72.28454962301404
 20
234.6138123469824
 30
0.0
 11
73.78454962301396
 21
234.6138123469824
 31
0.0
  0
LINE
  5
5B1
330
1F
100
AcDbEntity
  8
0
100
AcDbLine
 10
71.48454962301423
 20
237.3038123469825
 30
0.0
 11
72.28454962301404
 21
237.3038123469825
 31
0.0
  0
LINE
  5
5B2
330
1F
100
AcDbEntity
  8
0
100
AcDbLine
 10
72.28454962301404
 20
237.3038123469825
 30
0.0
 11
72.28454962301404
 21
235.6138123469825
 31
0.0
  0
LINE
  5
5B3
330
1F
100
AcDbEntity
  8
0
100
AcDbLine
 10
71.48454962301423
 20
239.9238123469825
 30
0.0
 11
71.48454962301423
 21
237.3038123469825
 31
0.0
  0
LINE
  5
5B4
330
1F
100
AcDbEntity
  8
0
100
AcDbLine
 10
67.28454962301407
 20
244.1338123469825
 30
0.0
 11
67.28454962301407
 21
240.7138123469826
 31
0.0
  0
LINE
  5
5B5
330
1F
100
AcDbEntity
  8
0
100
AcDbLine
 10
67.28454962301407
 20
236.5138123469824
 30
0.0
 11
67.28454962301407
 21
235.6138123469825
 31
0.0
  0
CIRCLE
  5
5B6
330
1F
100
AcDbEntity
  8
0
100
AcDbCircle
 10
69.28454962301396
 20
238.6138123469824
 30
0.0
 40
0.75
  0
CIRCLE
  5
5B7
330
1F
100
AcDbEntity
  8
0
100
AcDbCircle
 10
69.24816356261101
 20
232.5138123469826
 30
0.0
 40
0.9
  0
LINE
  5
5B8
330
1F
100
AcDbEntity
  8
0
100
AcDbLine
 10
67.28454962301407
 20
235.6138123469825
 30
0.0
 11
72.28454962301404
 21
235.6138123469825
 31
0.0
  0
CIRCLE
  5
5B9
330
1F
100
AcDbEntity
  8
0
100
AcDbCircle
 10
69.28454962301396
 20
238.6138123469824
 30
0.0
 40
1.5
  0
CIRCLE
  5
5BA
330
1F
100
AcDbEntity
  8
0
100
AcDbCircle
 10
69.24816356261101
 20
232.5138123469826
 30
0.0
 40
2.0
  0
LINE
  5
5BB
330
1F
100
AcDbEntity
  8
0
100
AcDbLine
 10
72.28454962301404
 20
244.9238123469827
 30
0.0
 11
72.28454962301404
 21
239.9238123469825
 31
0.0
  0
CIRCLE
  5
5BC
330
1F
100
AcDbEntity
  8
0
100
AcDbCircle
 10
69.28454962301396
 20
246.2338123469826
 30
0.0
 40
1.5
  0
LINE
  5
5BD
330
1F
100
AcDbEntity
  8
0
100
AcDbLine
 10
75.48454962301423
 20
242.1638123469824
 30
0.0
 11
75.48454962301423
 21
240.5638123469825
 31
0.0
  0
LINE
  5
5BE
330
1F
100
AcDbEntity
  8
0
100
AcDbLine
 10
76.38454974493196
 20
243.1738121876385
 30
0.0
 11
76.38454974493196
 21
239.5738121876386
 31
0.0
  0
LINE
  5
5BF
330
1F
100
AcDbEntity
  8
0
100
AcDbLine
 10
66.78454962301407
 20
276.9738123469826
 30
0.0
 11
76.1295496230141
 21
276.9738123469826
 31
0.0
  0
LINE
  5
5C0
330
1F
100
AcDbEntity
  8
0
100
AcDbLine
 10
64.18454974493204
 20
271.4738121876385
 30
0.0
 11
74.78454974493195
 21
271.4738121876385
 31
0.0
  0
LINE
  5
5C1
330
1F
100
AcDbEntity
  8
0
100
AcDbLine
 10
65.28454962301395
 20
270.4738123469826
 30
0.0
 11
72.28454962301404
 21
270.4738123469826
 31
0.0
  0
LINE
  5
5C2
330
1F
100
AcDbEntity
  8
0
100
AcDbLine
 10
65.28454962301395
 20
270.4738123469826
 30
0.0
 11
72.28454962301404
 21
270.4738123469826
 31
0.0
  0
ARC
  5
5C3
330
1F
100
AcDbEntity
  8
0
100
AcDbCircle
 10
69.28454962301396
 20
253.8538123469824
 30
0.0
 40
2.9
100
AcDbArc
 50
133.6028189726939
 51
226.3971810273058
  0
ARC
  5
5C4
330
1F
100
AcDbEntity
  8
0
100
AcDbCircle
 10
69.28454962301396
 20
261.4738123469826
 30
0.0
 40
2.9
100
AcDbArc
 50
133.6028189726939
 51
226.3971810273058
  0
LINE
  5
5C5
330
1F
100
AcDbEntity
  8
0
100
AcDbLine
 10
64.18454974493204
 20
275.9738121876385
 30
0.0
 11
76.5845497449319
 21
275.9738121876385
 31
0.0
  0
LINE
  5
5C6
330
1F
100
AcDbEntity
  8
0
100
AcDbLine
 10
65.28454962301395
 20
265.2338123469826
 30
0.0
 11
65.28454962301395
 21
270.4738123469826
 31
0.0
  0
LINE
  5
5C7
330
1F
100
AcDbEntity
  8
0
100
AcDbLine
 10
66.78454962301407
 20
284.4738123469826
 30
0.0
 11
65.28454962301497
 21
284.4738123469826
 31
0.0
  0
LINE
  5
5C8
330
1F
100
AcDbEntity
  8
0
100
AcDbLine
 10
65.28454962301497
 20
283.4738123469826
 30
0.0
 11
66.78454962301407
 21
283.4738123469826
 31
0.0
  0
LINE
  5
5C9
330
1F
100
AcDbEntity
  8
0
100
AcDbLine
 10
66.78454962301407
 20
283.4738123469826
 30
0.0
 11
66.78454962301407
 21
284.4738123469826
 31
0.0
  0
LINE
  5
5CA
330
1F
100
AcDbEntity
  8
0
100
AcDbLine
 10
66.78454962301407
 20
279.9738123469826
 30
0.0
 11
65.28454962301395
 21
279.9738123469826
 31
0.0
  0
LINE
  5
5CB
330
1F
100
AcDbEntity
  8
0
100
AcDbLine
 10
65.28454962301395
 20
276.9738123469826
 30
0.0
 11
66.78454962301407
 21
276.9738123469826
 31
0.0
  0
LINE
  5
5CC
330
1F
100
AcDbEntity
  8
0
100
AcDbLine
 10
66.78454962301407
 20
276.9738123469826
 30
0.0
 11
66.78454962301407
 21
277.9738123469826
 31
0.0
  0
LINE
  5
5CD
330
1F
100
AcDbEntity
  8
0
100
AcDbLine
 10
66.78454962301407
 20
276.9738123469826
 30
0.0
 11
66.78454962301407
 21
279.9738123469826
 31
0.0
  0
LINE
  5
5CE
330
1F
100
AcDbEntity
  8
0
100
AcDbLine
 10
65.28454962301395
 20
279.9738123469826
 30
0.0
 11
65.28454962301395
 21
276.9738123469826
 31
0.0
  0
LINE
  5
5CF
330
1F
100
AcDbEntity
  8
0
100
AcDbLine
 10
72.28454962301404
 20
265.4738123469826
 30
0.0
 11
72.28454962301404
 21
270.4738123469826
 31
0.0
  0
LINE
  5
5D0
330
1F
100
AcDbEntity
  8
0
100
AcDbLine
 10
72.28454962301404
 20
270.4738123469826
 30
0.0
 11
72.28454962301404
 21
265.2338123469826
 31
0.0
  0
CIRCLE
  5
5D1
330
1F
100
AcDbEntity
  8
0
100
AcDbCircle
 10
69.28454962301396
 20
267.5738123469824
 30
0.0
 40
0.9
  0
CIRCLE
  5
5D2
330
1F
100
AcDbEntity
  8
0
100
AcDbCircle
 10
69.28454962301396
 20
267.5738123469824
 30
0.0
 40
2.0
  0
LINE
  5
5D3
330
1F
100
AcDbEntity
  8
0
100
AcDbLine
 10
74.78454974493195
 20
271.4738121876385
 30
0.0
 11
74.78454974493195
 21
260.1738121876385
 31
0.0
  0
LINE
  5
5D4
330
1F
100
AcDbEntity
  8
0
100
AcDbLine
 10
74.78454974493195
 20
260.1738121876385
 30
0.0
 11
76.38454974493196
 21
260.1738121876385
 31
0.0
  0
LINE
  5
5D5
330
1F
100
AcDbEntity
  8
0
100
AcDbLine
 10
75.48454962301423
 20
259.1638123469824
 30
0.0
 11
73.78454962301396
 21
259.1638123469824
 31
0.0
  0
LINE
  5
5D6
330
1F
100
AcDbEntity
  8
0
100
AcDbLine
 10
74.78454974493195
 20
256.5738121876385
 30
0.0
 11
76.38454974493196
 21
256.5738121876385
 31
0.0
  0
LINE
  5
5D7
330
1F
100
AcDbEntity
  8
0
100
AcDbLine
 10
75.48454962301423
 20
257.5638123469825
 30
0.0
 11
73.78454962301396
 21
257.5638123469825
 31
0.0
  0
LINE
  5
5D8
330
1F
100
AcDbEntity
  8
0
100
AcDbLine
 10
72.28454962301404
 20
265.4738123469826
 30
0.0
 11
73.78454962301396
 21
265.4738123469826
 31
0.0
  0
LINE
  5
5D9
330
1F
100
AcDbEntity
  8
0
100
AcDbLine
 10
73.78454962301396
 20
265.4738123469826
 30
0.0
 11
73.78454962301396
 21
265.1138123469825
 31
0.0
  0
LINE
  5
5DA
330
1F
100
AcDbEntity
  8
0
100
AcDbLine
 10
67.28454962301407
 20
264.1138123469825
 30
0.0
 11
67.28454962301407
 21
263.5738123469824
 31
0.0
  0
LINE
  5
5DB
330
1F
100
AcDbEntity
  8
0
100
AcDbLine
 10
72.28454962301404
 20
264.1138123469825
 30
0.0
 11
67.28454962301407
 21
264.1138123469825
 31
0.0
  0
LINE
  5
5DC
330
1F
100
AcDbEntity
  8
0
100
AcDbLine
 10
71.48454962301423
 20
262.7838123469826
 30
0.0
 11
72.28454962301404
 21
262.7838123469826
 31
0.0
  0
LINE
  5
5DD
330
1F
100
AcDbEntity
  8
0
100
AcDbLine
 10
71.48454962301423
 20
260.1638123469824
 30
0.0
 11
72.28454962301404
 21
260.1638123469824
 31
0.0
  0
LINE
  5
5DE
330
1F
100
AcDbEntity
  8
0
100
AcDbLine
 10
71.48454962301423
 20
262.7838123469826
 30
0.0
 11
71.48454962301423
 21
260.1638123469824
 31
0.0
  0
LINE
  5
5DF
330
1F
100
AcDbEntity
  8
0
100
AcDbLine
 10
71.48454962301423
 20
255.1638123469824
 30
0.0
 11
72.28454962301404
 21
255.1638123469824
 31
0.0
  0
LINE
  5
5E0
330
1F
100
AcDbEntity
  8
0
100
AcDbLine
 10
71.48454962301423
 20
252.5438123469824
 30
0.0
 11
72.28454962301404
 21
252.5438123469824
 31
0.0
  0
LINE
  5
5E1
330
1F
100
AcDbEntity
  8
0
100
AcDbLine
 10
71.48454962301423
 20
255.1638123469824
 30
0.0
 11
71.48454962301423
 21
252.5438123469824
 31
0.0
  0
LINE
  5
5E2
330
1F
100
AcDbEntity
  8
0
100
AcDbLine
 10
72.28454962301404
 20
260.1638123469824
 30
0.0
 11
72.28454962301404
 21
255.1638123469824
 31
0.0
  0
CIRCLE
  5
5E3
330
1F
100
AcDbEntity
  8
0
100
AcDbCircle
 10
69.28454962301396
 20
261.4738123469826
 30
0.0
 40
0.75
  0
CIRCLE
  5
5E4
330
1F
100
AcDbEntity
  8
0
100
AcDbCircle
 10
69.28454962301396
 20
253.8538123469824
 30
0.0
 40
0.75
  0
LINE
  5
5E5
330
1F
100
AcDbEntity
  8
0
100
AcDbLine
 10
67.28454962301407
 20
259.3738123469825
 30
0.0
 11
67.28454962301407
 21
255.9538123469826
 31
0.0
  0
CIRCLE
  5
5E6
330
1F
100
AcDbEntity
  8
0
100
AcDbCircle
 10
69.28454962301396
 20
261.4738123469826
 30
0.0
 40
1.5
  0
CIRCLE
  5
5E7
330
1F
100
AcDbEntity
  8
0
100
AcDbCircle
 10
69.28454962301396
 20
253.8538123469824
 30
0.0
 40
1.5
  0
LINE
  5
5E8
330
1F
100
AcDbEntity
  8
0
100
AcDbLine
 10
72.28454962301404
 20
264.1138123469825
 30
0.0
 11
72.28454962301404
 21
262.7838123469826
 31
0.0
  0
LINE
  5
5E9
330
1F
100
AcDbEntity
  8
0
100
AcDbLine
 10
76.38454974493196
 20
260.1738121876385
 30
0.0
 11
76.38454974493196
 21
256.5738121876385
 31
0.0
  0
LINE
  5
5EA
330
1F
100
AcDbEntity
  8
0
100
AcDbLine
 10
75.48454962301423
 20
259.1638123469824
 30
0.0
 11
75.48454962301423
 21
257.5638123469825
 31
0.0
  0
LINE
  5
5EB
330
1F
100
AcDbEntity
  8
0
100
AcDbLine
 10
71.78454962301406
 20
284.9738123469826
 30
0.0
 11
70.78454962301406
 21
284.9738123469826
 31
0.0
  0
LINE
  5
5EC
330
1F
100
AcDbEntity
  8
0
100
AcDbLine
 10
70.78454962301406
 20
282.9738123469826
 30
0.0
 11
71.78454962301406
 21
282.9738123469826
 31
0.0
  0
LINE
  5
5ED
330
1F
100
AcDbEntity
  8
0
100
AcDbLine
 10
71.78454962301406
 20
282.9738123469826
 30
0.0
 11
71.78454962301406
 21
284.9738123469826
 31
0.0
  0
LINE
  5
5EE
330
1F
100
AcDbEntity
  8
0
100
AcDbLine
 10
70.78454962301406
 20
284.9738123469826
 30
0.0
 11
70.78454962301406
 21
282.9738123469826
 31
0.0
  0
LINE
  5
5EF
330
1F
100
AcDbEntity
  8
0
100
AcDbLine
 10
67.78454962301407
 20
277.9738123469826
 30
0.0
 11
74.76954962301397
 21
277.9738123469826
 31
0.0
  0
LINE
  5
5F0
330
1F
100
AcDbEntity
  8
0
100
AcDbLine
 10
37.671461148861
 20
354.5152159857643
 30
0.0
 11
55.18454962301508
 21
354.9738123469826
 31
0.0
  0
ARC
  5
5F1
330
1F
100
AcDbEntity
  8
0
100
AcDbCircle
 10
37.68454962301496
 20
354.0153873232765
 30
0.0
 40
0.5
100
AcDbArc
 50
91.49999999999627
 51
180.0
  0
LINE
  5
5F2
330
1F
100
AcDbEntity
  8
0
100
AcDbLine
 10
77.0845497449319
 20
331.0738121876386
 30
0.0
 11
77.0845497449319
 21
322.8738121876385
 31
0.0
  0
LINE
  5
5F3
330
1F
100
AcDbEntity
  8
0
100
AcDbLine
 10
75.48454962301502
 20
323.4138123469824
 30
0.0
 11
75.48454962301502
 21
330.0538123469825
 31
0.0
  0
LINE
  5
5F4
330
1F
100
AcDbEntity
  8
0
100
AcDbLine
 10
65.28454962301497
 20
323.4138123469824
 30
0.0
 11
65.28454962301497
 21
330.0538123469825
 31
0.0
  0
LINE
  5
5F5
330
1F
100
AcDbEntity
  8
0
100
AcDbLine
 10
64.18454974493204
 20
339.0738121876386
 30
0.0
 11
64.18454974493204
 21
306.0738121876386
 31
0.0
  0
LINE
  5
5F6
330
1F
100
AcDbEntity
  8
0
100
AcDbLine
 10
65.28454962301509
 20
306.0738121876386
 30
0.0
 11
65.28454962301497
 21
339.0738121876386
 31
0.0
  0
LINE
  5
5F7
330
1F
100
AcDbEntity
  8
0
100
AcDbLine
 10
72.53454962301498
 20
322.4138123469824
 30
0.0
 11
65.28454962301395
 21
322.4138123469824
 31
0.0
  0
LINE
  5
5F8
330
1F
100
AcDbEntity
  8
0
100
AcDbLine
 10
75.48454962301502
 20
323.4138123469824
 30
0.0
 11
65.28454962301497
 21
323.4138123469824
 31
0.0
  0
LINE
  5
5F9
330
1F
100
AcDbEntity
  8
0
100
AcDbLine
 10
66.78454962301407
 20
301.1338123469823
 30
0.0
 11
67.78454962301407
 21
301.1338123469823
 31
0.0
  0
LINE
  5
5FA
330
1F
100
AcDbEntity
  8
0
100
AcDbLine
 10
65.28454962301395
 20
307.0138123469825
 30
0.0
 11
72.53454962301498
 21
307.0138123469825
 31
0.0
  0
LINE
  5
5FB
330
1F
100
AcDbEntity
  8
0
100
AcDbLine
 10
64.18454974493204
 20
306.0738121876386
 30
0.0
 11
73.48454974493211
 21
306.0738121876386
 31
0.0
  0
LINE
  5
5FC
330
1F
100
AcDbEntity
  8
0
100
AcDbLine
 10
76.1295496230141
 20
301.1338123469823
 30
0.0
 11
66.78454962301407
 21
301.1338123469823
 31
0.0
  0
LINE
  5
5FD
330
1F
100
AcDbEntity
  8
0
100
AcDbLine
 10
64.18454974493204
 20
302.1738121876385
 30
0.0
 11
76.5845497449319
 21
302.1738121876385
 31
0.0
  0
LINE
  5
5FE
330
1F
100
AcDbEntity
  8
0
100
AcDbLine
 10
66.78454962301407
 20
301.1338123469823
 30
0.0
 11
65.28454962301395
 21
301.1338123469823
 31
0.0
  0
LINE
  5
5FF
330
1F
100
AcDbEntity
  8
0
100
AcDbLine
 10
65.28454962301395
 20
298.1338123469825
 30
0.0
 11
66.78454962301407
 21
298.1338123469825
 31
0.0
  0
LINE
  5
600
330
1F
100
AcDbEntity
  8
0
100
AcDbLine
 10
66.78454962301407
 20
293.6338123469825
 30
0.0
 11
66.78454962301407
 21
294.6338123469825
 31
0.0
  0
LINE
  5
601
330
1F
100
AcDbEntity
  8
0
100
AcDbLine
 10
65.28454962301497
 20
293.6338123469825
 30
0.0
 11
66.78454962301407
 21
293.6338123469825
 31
0.0
  0
LINE
  5
602
330
1F
100
AcDbEntity
  8
0
100
AcDbLine
 10
66.78454962301407
 20
294.6338123469825
 30
0.0
 11
65.28454962301497
 21
294.6338123469825
 31
0.0
  0
LINE
  5
603
330
1F
100
AcDbEntity
  8
0
100
AcDbLine
 10
66.78454962301407
 20
288.5538123469824
 30
0.0
 11
66.78454962301407
 21
289.5538123469825
 31
0.0
  0
LINE
  5
604
330
1F
100
AcDbEntity
  8
0
100
AcDbLine
 10
65.28454962301497
 20
288.5538123469824
 30
0.0
 11
66.78454962301407
 21
288.5538123469824
 31
0.0
  0
LINE
  5
605
330
1F
100
AcDbEntity
  8
0
100
AcDbLine
 10
66.78454962301407
 20
289.5538123469825
 30
0.0
 11
65.28454962301497
 21
289.5538123469825
 31
0.0
  0
LINE
  5
606
330
1F
100
AcDbEntity
  8
0
100
AcDbLine
 10
66.78454962301407
 20
301.1338123469823
 30
0.0
 11
66.78454962301407
 21
300.1338123469825
 31
0.0
  0
LINE
  5
607
330
1F
100
AcDbEntity
  8
0
100
AcDbLine
 10
66.78454962301407
 20
298.1338123469825
 30
0.0
 11
66.78454962301407
 21
301.1338123469823
 31
0.0
  0
LINE
  5
608
330
1F
100
AcDbEntity
  8
0
100
AcDbLine
 10
65.28454962301395
 20
301.1338123469823
 30
0.0
 11
65.28454962301395
 21
298.1338123469825
 31
0.0
  0
LINE
  5
609
330
1F
100
AcDbEntity
  8
0
100
AcDbLine
 10
65.28454962301395
 20
322.4138123469824
 30
0.0
 11
65.28454962301395
 21
307.0138123469825
 31
0.0
  0
LINE
  5
60A
330
1F
100
AcDbEntity
  8
0
100
AcDbLine
 10
75.2695496230141
 20
301.1338123469823
 30
0.0
 11
74.76954962301397
 21
301.1338123469823
 31
0.0
  0
LINE
  5
60B
330
1F
100
AcDbEntity
  8
0
100
AcDbLine
 10
70.78454962301406
 20
293.1338123469823
 30
0.0
 11
71.78454962301406
 21
293.1338123469823
 31
0.0
  0
LINE
  5
60C
330
1F
100
AcDbEntity
  8
0
100
AcDbLine
 10
71.78454962301406
 20
293.1338123469823
 30
0.0
 11
71.78454962301406
 21
295.1338123469824
 31
0.0
  0
LINE
  5
60D
330
1F
100
AcDbEntity
  8
0
100
AcDbLine
 10
71.78454962301406
 20
295.1338123469824
 30
0.0
 11
70.78454962301406
 21
295.1338123469824
 31
0.0
  0
LINE
  5
60E
330
1F
100
AcDbEntity
  8
0
100
AcDbLine
 10
70.78454962301406
 20
295.1338123469824
 30
0.0
 11
70.78454962301406
 21
293.1338123469823
 31
0.0
  0
LINE
  5
60F
330
1F
100
AcDbEntity
  8
0
100
AcDbLine
 10
71.78454962301406
 20
290.0538123469825
 30
0.0
 11
70.78454962301406
 21
290.0538123469825
 31
0.0
  0
LINE
  5
610
330
1F
100
AcDbEntity
  8
0
100
AcDbLine
 10
70.78454962301406
 20
288.0538123469825
 30
0.0
 11
71.78454962301406
 21
288.0538123469825
 31
0.0
  0
LINE
  5
611
330
1F
100
AcDbEntity
  8
0
100
AcDbLine
 10
71.78454962301406
 20
288.0538123469825
 30
0.0
 11
71.78454962301406
 21
290.0538123469825
 31
0.0
  0
LINE
  5
612
330
1F
100
AcDbEntity
  8
0
100
AcDbLine
 10
70.78454962301406
 20
290.0538123469825
 30
0.0
 11
70.78454962301406
 21
288.0538123469825
 31
0.0
  0
LINE
  5
613
330
1F
100
AcDbEntity
  8
0
100
AcDbLine
 10
67.78454962301407
 20
300.1338123469825
 30
0.0
 11
74.76954962301397
 21
300.1338123469825
 31
0.0
  0
LINE
  5
614
330
1F
100
AcDbEntity
  8
0
100
AcDbLine
 10
73.48454974493211
 20
322.8738121876385
 30
0.0
 11
77.0845497449319
 21
322.8738121876385
 31
0.0
  0
CIRCLE
  5
615
330
1F
100
AcDbEntity
  8
0
100
AcDbCircle
 10
68.78454962301407
 20
312.9638123469823
 30
0.0
 40
1.0
  0
CIRCLE
  5
616
330
1F
100
AcDbEntity
  8
0
100
AcDbCircle
 10
68.78454962301407
 20
316.4638123469823
 30
0.0
 40
1.0
  0
CIRCLE
  5
617
330
1F
100
AcDbEntity
  8
0
100
AcDbCircle
 10
68.78454962301407
 20
309.4638123469826
 30
0.0
 40
1.0
  0
CIRCLE
  5
618
330
1F
100
AcDbEntity
  8
0
100
AcDbCircle
 10
68.78454962301407
 20
319.9638123469826
 30
0.0
 40
1.0
  0
LINE
  5
619
330
1F
100
AcDbEntity
  8
0
100
AcDbLine
 10
72.53454962301498
 20
307.0138123469825
 30
0.0
 11
72.53454962301498
 21
322.4138123469824
 31
0.0
  0
LINE
  5
61A
330
1F
100
AcDbEntity
  8
0
100
AcDbLine
 10
73.48454974493211
 20
322.8738121876385
 30
0.0
 11
73.48454974493211
 21
306.0738121876386
 31
0.0
  0
CIRCLE
  5
61B
330
1F
100
AcDbEntity
  8
0
100
AcDbCircle
 10
67.78454974493206
 20
347.7738121876384
 30
0.0
 40
1.399999999999999
  0
CIRCLE
  5
61C
330
1F
100
AcDbEntity
  8
0
100
AcDbCircle
 10
67.78454974493206
 20
342.9738121876383
 30
0.0
 40
1.399999999999999
  0
LINE
  5
61D
330
1F
100
AcDbEntity
  8
0
100
AcDbLine
 10
74.0845497449319
 20
339.0738121876386
 30
0.0
 11
64.18454974493204
 21
339.0738121876386
 31
0.0
  0
LINE
  5
61E
330
1F
100
AcDbEntity
  8
0
100
AcDbLine
 10
73.18454962301394
 20
338.5538123469824
 30
0.0
 11
65.28454962301395
 21
338.5538123469824
 31
0.0
  0
LINE
  5
61F
330
1F
100
AcDbEntity
  8
0
100
AcDbLine
 10
73.18454962301394
 20
331.0538123469835
 30
0.0
 11
65.28454962301395
 21
331.0538123469835
 31
0.0
  0
LINE
  5
620
330
1F
100
AcDbEntity
  8
0
100
AcDbLine
 10
75.48454962301502
 20
330.0538123469825
 30
0.0
 11
65.28454962301497
 21
330.0538123469825
 31
0.0
  0
LINE
  5
621
330
1F
100
AcDbEntity
  8
0
100
AcDbLine
 10
65.28454962301497
 20
337.6438123469834
 30
0.0
 11
65.68454962301405
 21
337.6438123469834
 31
0.0
  0
LINE
  5
622
330
1F
100
AcDbEntity
  8
0
100
AcDbLine
 10
65.28454962301497
 20
337.0438123469833
 30
0.0
 11
65.68454962301405
 21
337.0438123469833
 31
0.0
  0
LINE
  5
623
330
1F
100
AcDbEntity
  8
0
100
AcDbLine
 10
65.28454962301497
 20
335.1038123469833
 30
0.0
 11
65.68454962301405
 21
335.1038123469833
 31
0.0
  0
LINE
  5
624
330
1F
100
AcDbEntity
  8
0
100
AcDbLine
 10
65.28454962301497
 20
334.5038123469833
 30
0.0
 11
65.68454962301405
 21
334.5038123469833
 31
0.0
  0
LINE
  5
625
330
1F
100
AcDbEntity
  8
0
100
AcDbLine
 10
65.28454962301497
 20
331.9638123469835
 30
0.0
 11
65.68454962301405
 21
331.9638123469835
 31
0.0
  0
LINE
  5
626
330
1F
100
AcDbEntity
  8
0
100
AcDbLine
 10
65.28454962301497
 20
332.5638123469833
 30
0.0
 11
65.68454962301405
 21
332.5638123469833
 31
0.0
  0
LINE
  5
627
330
1F
100
AcDbEntity
  8
0
100
AcDbLine
 10
65.28454962301395
 20
331.0538123469835
 30
0.0
 11
65.28454962301395
 21
331.9638123469835
 31
0.0
  0
LINE
  5
628
330
1F
100
AcDbEntity
  8
0
100
AcDbLine
 10
65.28454962301395
 20
337.6438123469823
 30
0.0
 11
65.28454962301395
 21
338.5538123469824
 31
0.0
  0
LINE
  5
629
330
1F
100
AcDbEntity
  8
0
100
AcDbLine
 10
65.68454962301405
 20
331.0538123469835
 30
0.0
 11
65.68454962301405
 21
338.5538123469824
 31
0.0
  0
LINE
  5
62A
330
1F
100
AcDbEntity
  8
0
100
AcDbLine
 10
55.18454962301508
 20
354.9738123469826
 30
0.0
 11
56.18454962301507
 21
354.9476264254132
 31
0.0
  0
LINE
  5
62B
330
1F
100
AcDbEntity
  8
0
100
AcDbLine
 10
56.18454962301507
 20
350.9738123469826
 30
0.0
 11
56.19763809716801
 21
350.9741550807405
 31
0.0
  0
LINE
  5
62C
330
1F
100
AcDbEntity
  8
0
100
AcDbLine
 10
57.18454962301507
 20
354.4738123469826
 30
0.0
 11
56.18454962301507
 21
354.4738123469826
 31
0.0
  0
CIRCLE
  5
62D
330
1F
100
AcDbEntity
  8
0
100
AcDbCircle
 10
72.88454974493186
 20
342.9738121876383
 30
0.0
 40
1.399999999999999
  0
LINE
  5
62E
330
1F
100
AcDbEntity
  8
0
100
AcDbLine
 10
75.48454962301502
 20
324.8638123469825
 30
0.0
 11
70.70905469402316
 21
324.8638123469825
 31
0.0
  0
LINE
  5
62F
330
1F
100
AcDbEntity
  8
0
100
AcDbLine
 10
75.48454962301502
 20
328.6038123469825
 30
0.0
 11
70.70905469402316
 21
328.6038123469825
 31
0.0
  0
LINE
  5
630
330
1F
100
AcDbEntity
  8
0
100
AcDbLine
 10
75.48454962301502
 20
327.4038123469825
 30
0.0
 11
72.48454962301503
 21
327.4038123469825
 31
0.0
  0
LINE
  5
631
330
1F
100
AcDbEntity
  8
0
100
AcDbLine
 10
75.48454962301502
 20
326.0638123469825
 30
0.0
 11
72.48454962301503
 21
326.0638123469825
 31
0.0
  0
LINE
  5
632
330
1F
100
AcDbEntity
  8
0
100
AcDbLine
 10
75.48454962301502
 20
324.8638123469825
 30
0.0
 11
72.48454962301503
 21
324.8638123469825
 31
0.0
  0
LINE
  5
633
330
1F
100
AcDbEntity
  8
0
100
AcDbLine
 10
74.0845497449319
 20
331.0738121876386
 30
0.0
 11
77.0845497449319
 21
331.0738121876386
 31
0.0
  0
LINE
  5
634
330
1F
100
AcDbEntity
  8
0
100
AcDbLine
 10
72.48454962301503
 20
327.4038123469825
 30
0.0
 11
72.48454962301503
 21
328.6038123469825
 31
0.0
  0
LINE
  5
635
330
1F
100
AcDbEntity
  8
0
100
AcDbLine
 10
72.48454962301503
 20
324.8638123469825
 30
0.0
 11
72.48454962301503
 21
326.0638123469825
 31
0.0
  0
LINE
  5
636
330
1F
100
AcDbEntity
  8
0
100
AcDbLine
 10
73.98454962301503
 20
326.0638123469825
 30
0.0
 11
73.98454962301503
 21
327.4038123469825
 31
0.0
  0
LINE
  5
637
330
1F
100
AcDbEntity
  8
0
100
AcDbLine
 10
74.48454962301514
 20
327.4038123469825
 30
0.0
 11
74.48454962301514
 21
328.6038123469825
 31
0.0
  0
LINE
  5
638
330
1F
100
AcDbEntity
  8
0
100
AcDbLine
 10
74.48454962301514
 20
324.8638123469825
 30
0.0
 11
74.48454962301514
 21
326.0638123469825
 31
0.0
  0
LINE
  5
639
330
1F
100
AcDbEntity
  8
0
100
AcDbLine
 10
70.70905469402316
 20
328.6038123469825
 30
0.0
 11
70.70905469402316
 21
324.8638123469825
 31
0.0
  0
CIRCLE
  5
63A
330
1F
100
AcDbEntity
  8
0
100
AcDbCircle
 10
69.43454962301394
 20
334.8038123469825
 30
0.0
 40
1.290290050200999
  0
LINE
  5
63B
330
1F
100
AcDbEntity
  8
0
100
AcDbLine
 10
74.0845497449319
 20
339.0738121876386
 30
0.0
 11
74.0845497449319
 21
331.0738121876386
 31
0.0
  0
LINE
  5
63C
330
1F
100
AcDbEntity
  8
0
100
AcDbLine
 10
73.18454962301394
 20
331.0538123469835
 30
0.0
 11
73.18454962301394
 21
338.5538123469824
 31
0.0
  0
ARC
  5
63D
330
1F
100
AcDbEntity
  8
0
100
AcDbCircle
 10
80.18454962301508
 20
359.9738123469826
 30
0.0
 40
5.5
100
AcDbArc
 50
180.0
 51
245.3800226713459
  0
CIRCLE
  5
63E
330
1F
100
AcDbEntity
  8
0
100
AcDbCircle
 10
72.88454974493186
 20
347.7738121876384
 30
0.0
 40
1.399999999999999
  0
LINE
  5
63F
330
1F
100
AcDbEntity
  8
0
100
AcDbLine
 10
55.18454962301508
 20
364.9738123469826
 30
0.0
 11
38.15837267470692
 21
364.5279662127915
 31
0.0
  0
ARC
  5
640
330
1F
100
AcDbEntity
  8
0
100
AcDbCircle
 10
38.18454962301507
 20
363.5283088878153
 30
0.0
 40
1.0
100
AcDbArc
 50
91.49999999999627
 51
180.0
  0
LINE
  5
641
330
1F
100
AcDbEntity
  8
0
100
AcDbLine
 10
85.68454962301506
 20
359.9738123469826
 30
0.0
 11
85.68454962301506
 21
364.9738123469826
 31
0.0
  0
LINE
  5
642
330
1F
100
AcDbEntity
  8
0
100
AcDbLine
 10
100.2845496230149
 20
247.5738123469824
 30
0.0
 11
100.2845496230149
 21
253.4738123469826
 31
0.0
  0
LINE
  5
643
330
1F
100
AcDbEntity
  8
0
100
AcDbLine
 10
101.1845497449328
 20
267.5738121876384
 30
0.0
 11
101.1845497449328
 21
232.6738121876385
 31
0.0
  0
LINE
  5
644
330
1F
100
AcDbEntity
  8
0
100
AcDbLine
 10
100.2845496230149
 20
267.5738121876384
 30
0.0
 11
100.2845496230149
 21
232.6738121876385
 31
0.0
  0
LINE
  5
645
330
1F
100
AcDbEntity
  8
0
100
AcDbLine
 10
86.38454974493198
 20
263.0738121876385
 30
0.0
 11
86.38454974493198
 21
247.0738121876386
 31
0.0
  0
LINE
  5
646
330
1F
100
AcDbEntity
  8
0
100
AcDbLine
 10
87.484549623014
 20
247.5738123469824
 30
0.0
 11
87.484549623014
 21
261.5738123469824
 31
0.0
  0
LINE
  5
647
330
1F
100
AcDbEntity
  8
0
100
AcDbLine
 10
100.2845496230138
 20
247.0738123469824
 30
0.0
 11
92.38454962301407
 21
247.0738123469824
 31
0.0
  0
LINE
  5
648
330
1F
100
AcDbEntity
  8
0
100
AcDbLine
 10
100.2845496230138
 20
241.5738123469825
 30
0.0
 11
93.03454962301406
 21
241.5738123469825
 31
0.0
  0
LINE
  5
649
330
1F
100
AcDbEntity
  8
0
100
AcDbLine
 10
92.38454962301407
 20
242.0738123469825
 30
0.0
 11
100.2845496230138
 21
242.0738123469825
 31
0.0
  0
LINE
  5
64A
330
1F
100
AcDbEntity
  8
0
100
AcDbLine
 10
93.03454962301406
 20
233.1738123469826
 30
0.0
 11
100.2845496230138
 21
233.1738123469826
 31
0.0
  0
LINE
  5
64B
330
1F
100
AcDbEntity
  8
0
100
AcDbLine
 10
101.1845497449328
 20
232.6738121876385
 30
0.0
 11
89.78454974493207
 21
232.6738121876385
 31
0.0
  0
LINE
  5
64C
330
1F
100
AcDbEntity
  8
0
100
AcDbLine
 10
101.1845497449328
 20
230.6738121876385
 30
0.0
 11
89.78454974493207
 21
230.6738121876385
 31
0.0
  0
LINE
  5
64D
330
1F
100
AcDbEntity
  8
0
100
AcDbLine
 10
91.68454962301494
 20
230.1738123469827
 30
0.0
 11
99.98454962301515
 21
230.1738123469835
 31
0.0
  0
LINE
  5
64E
330
1F
100
AcDbEntity
  8
0
100
AcDbLine
 10
90.88454962301511
 20
229.1738123469825
 30
0.0
 11
99.98454962301515
 21
229.1738123469825
 31
0.0
  0
LINE
  5
64F
330
1F
100
AcDbEntity
  8
0
100
AcDbLine
 10
100.2845496230149
 20
247.5738123469824
 30
0.0
 11
87.484549623014
 21
247.5738123469824
 31
0.0
  0
ARC
  5
650
330
1F
100
AcDbEntity
  8
0
100
AcDbCircle
 10
91.68454962301494
 20
229.6738123469824
 30
0.0
 40
0.5
100
AcDbArc
 50
90.0
 51
180.0
  0
LINE
  5
651
330
1F
100
AcDbEntity
  8
0
100
AcDbLine
 10
91.18454962301495
 20
229.6738123469824
 30
0.0
 11
91.18454962301495
 21
229.1738123469825
 31
0.0
  0
LINE
  5
652
330
1F
100
AcDbEntity
  8
0
100
AcDbLine
 10
98.63454962301512
 20
222.7738123469825
 30
0.0
 11
98.63454962301512
 21
225.1738123469836
 31
0.0
  0
ARC
  5
653
330
1F
100
AcDbEntity
  8
0
100
AcDbCircle
 10
96.63454962301512
 20
219.0575292043916
 30
0.0
 40
2.0
100
AcDbArc
 50
0.0
 51
74.99999999999926
  0
LINE
  5
654
330
1F
100
AcDbEntity
  8
0
100
AcDbLine
 10
92.33454962301491
 20
225.1738123469836
 30
0.0
 11
92.33454962301491
 21
222.7738123469825
 31
0.0
  0
ARC
  5
655
330
1F
100
AcDbEntity
  8
0
100
AcDbCircle
 10
94.33454962301516
 20
219.6738123469827
 30
0.0
 40
2.0
100
AcDbArc
 50
74.99999999999926
 51
180.0
  0
LINE
  5
656
330
1F
100
AcDbEntity
  8
0
100
AcDbLine
 10
94.85218771322001
 20
221.6056639995604
 30
0.0
 11
97.15218771322
 21
220.9893808569693
 31
0.0
  0
LINE
  5
657
330
1F
100
AcDbEntity
  8
0
100
AcDbLine
 10
92.33454962301491
 20
222.7738123469825
 30
0.0
 11
98.63454962301512
 21
222.7738123469825
 31
0.0
  0
LINE
  5
658
330
1F
100
AcDbEntity
  8
0
100
AcDbLine
 10
92.33454962301491
 20
224.6738123469826
 30
0.0
 11
98.63454962301512
 21
224.6738123469826
 31
0.0
  0
LINE
  5
659
330
1F
100
AcDbEntity
  8
0
100
AcDbLine
 10
92.33454962301491
 20
225.1738123469825
 30
0.0
 11
98.63454962301512
 21
225.1738123469825
 31
0.0
  0
LINE
  5
65A
330
1F
100
AcDbEntity
  8
0
100
AcDbLine
 10
97.08454962301516
 20
220.1738123469827
 30
0.0
 11
93.88454962301512
 21
220.1738123469834
 31
0.0
  0
CIRCLE
  5
65B
330
1F
100
AcDbEntity
  8
0
100
AcDbCircle
 10
95.48454962301514
 20
227.2038123469826
 30
0.0
 40
1.399999999999999
  0
LINE
  5
65C
330
1F
100
AcDbEntity
  8
0
100
AcDbLine
 10
89.78454974493207
 20
247.0738121876386
 30
0.0
 11
89.78454974493207
 21
232.6738121876385
 31
0.0
  0
LINE
  5
65D
330
1F
100
AcDbEntity
  8
0
100
AcDbLine
 10
89.78454974493207
 20
247.0738121876386
 30
0.0
 11
86.38454974493198
 21
247.0738121876386
 31
0.0
  0
LINE
  5
65E
330
1F
100
AcDbEntity
  8
0
100
AcDbLine
 10
95.33454962301405
 20
246.0738123469825
 30
0.0
 11
94.33454962301402
 21
246.0738123469825
 31
0.0
  0
LINE
  5
65F
330
1F
100
AcDbEntity
  8
0
100
AcDbLine
 10
99.33454962301405
 20
246.0738123469825
 30
0.0
 11
93.334549623014
 21
246.0738123469825
 31
0.0
  0
CIRCLE
  5
660
330
1F
100
AcDbEntity
  8
0
100
AcDbCircle
 10
96.78454962301408
 20
235.6238123469825
 30
0.0
 40
1.0
  0
CIRCLE
  5
661
330
1F
100
AcDbEntity
  8
0
100
AcDbCircle
 10
96.78454962301408
 20
239.1238123469825
 30
0.0
 40
1.0
  0
LINE
  5
662
330
1F
100
AcDbEntity
  8
0
100
AcDbLine
 10
94.33454962301402
 20
243.0738123469824
 30
0.0
 11
95.33454962301405
 21
243.0738123469824
 31
0.0
  0
LINE
  5
663
330
1F
100
AcDbEntity
  8
0
100
AcDbLine
 10
93.03454962301406
 20
241.5738123469825
 30
0.0
 11
93.03454962301406
 21
233.1738123469826
 31
0.0
  0
LINE
  5
664
330
1F
100
AcDbEntity
  8
0
100
AcDbLine
 10
93.334549623014
 20
243.0738123469824
 30
0.0
 11
99.33454962301405
 21
243.0738123469824
 31
0.0
  0
LINE
  5
665
330
1F
100
AcDbEntity
  8
0
100
AcDbLine
 10
96.13454962301407
 20
243.0738123469824
 30
0.0
 11
96.13454962301407
 21
246.0738123469825
 31
0.0
  0
LINE
  5
666
330
1F
100
AcDbEntity
  8
0
100
AcDbLine
 10
99.33454962301405
 20
243.0738123469824
 30
0.0
 11
99.33454962301405
 21
246.0738123469825
 31
0.0
  0
LINE
  5
667
330
1F
100
AcDbEntity
  8
0
100
AcDbLine
 10
93.334549623014
 20
246.0738123469825
 30
0.0
 11
93.334549623014
 21
243.0738123469824
 31
0.0
  0
LINE
  5
668
330
1F
100
AcDbEntity
  8
0
100
AcDbLine
 10
95.33454962301405
 20
243.0738123469824
 30
0.0
 11
95.33454962301405
 21
246.0738123469825
 31
0.0
  0
LINE
  5
669
330
1F
100
AcDbEntity
  8
0
100
AcDbLine
 10
94.33454962301402
 20
246.0738123469825
 30
0.0
 11
94.33454962301402
 21
243.0738123469824
 31
0.0
  0
LINE
  5
66A
330
1F
100
AcDbEntity
  8
0
100
AcDbLine
 10
92.38454962301407
 20
247.0738123469824
 30
0.0
 11
92.38454962301407
 21
242.0738123469825
 31
0.0
  0
LINE
  5
66B
330
1F
100
AcDbEntity
  8
0
100
AcDbLine
 10
100.2845496230149
 20
229.8738123469834
 30
0.0
 11
100.2845496230149
 21
222.7738123469825
 31
0.0
  0
LINE
  5
66C
330
1F
100
AcDbEntity
  8
0
100
AcDbLine
 10
99.98454962301515
 20
222.7738123469825
 30
0.0
 11
100.2845496230149
 21
222.7738123469825
 31
0.0
  0
LINE
  5
66D
330
1F
100
AcDbEntity
  8
0
100
AcDbLine
 10
99.98454962301515
 20
215.3838123469834
 30
0.0
 11
100.2845496230149
 21
215.3838123469834
 31
0.0
  0
LINE
  5
66E
330
1F
100
AcDbEntity
  8
0
100
AcDbLine
 10
99.98454962301515
 20
214.1138123469834
 30
0.0
 11
100.2845496230149
 21
214.1138123469834
 31
0.0
  0
LINE
  5
66F
330
1F
100
AcDbEntity
  8
0
100
AcDbLine
 10
99.98454962301515
 20
217.9238123469835
 30
0.0
 11
100.2845496230149
 21
217.9238123469835
 31
0.0
  0
LINE
  5
670
330
1F
100
AcDbEntity
  8
0
100
AcDbLine
 10
99.98454962301515
 20
216.6538123469833
 30
0.0
 11
100.2845496230149
 21
216.6538123469833
 31
0.0
  0
LINE
  5
671
330
1F
100
AcDbEntity
  8
0
100
AcDbLine
 10
99.98454962301515
 20
215.3838123469834
 30
0.0
 11
100.2845496230149
 21
215.3838123469834
 31
0.0
  0
LINE
  5
672
330
1F
100
AcDbEntity
  8
0
100
AcDbLine
 10
99.98454962301515
 20
219.1938123469826
 30
0.0
 11
100.2845496230149
 21
219.1938123469826
 31
0.0
  0
LINE
  5
673
330
1F
100
AcDbEntity
  8
0
100
AcDbLine
 10
99.98454962301515
 20
217.9238123469835
 30
0.0
 11
100.2845496230149
 21
217.9238123469835
 31
0.0
  0
LINE
  5
674
330
1F
100
AcDbEntity
  8
0
100
AcDbLine
 10
99.98454962301515
 20
212.8438123469833
 30
0.0
 11
100.2845496230149
 21
212.8438123469833
 31
0.0
  0
LINE
  5
675
330
1F
100
AcDbEntity
  8
0
100
AcDbLine
 10
99.98454962301515
 20
211.5738123469834
 30
0.0
 11
100.2845496230149
 21
211.5738123469834
 31
0.0
  0
ARC
  5
676
330
1F
100
AcDbEntity
  8
0
100
AcDbCircle
 10
99.98454962301515
 20
229.8738123469834
 30
0.0
 40
0.3
100
AcDbArc
 50
0.0
 51
90.0
  0
LINE
  5
677
330
1F
100
AcDbEntity
  8
0
100
AcDbLine
 10
100.2845496230138
 20
233.1738123469826
 30
0.0
 11
100.2845496230138
 21
241.5738123469825
 31
0.0
  0
LINE
  5
678
330
1F
100
AcDbEntity
  8
0
100
AcDbLine
 10
100.2845496230138
 20
242.0738123469825
 30
0.0
 11
100.2845496230138
 21
247.0738123469824
 31
0.0
  0
LINE
  5
679
330
1F
100
AcDbEntity
  8
0
100
AcDbLine
 10
101.1845497449328
 20
267.5738121876384
 30
0.0
 11
89.78454974493207
 21
267.5738121876384
 31
0.0
  0
LINE
  5
67A
330
1F
100
AcDbEntity
  8
0
100
AcDbLine
 10
100.2845496230138
 20
267.0738123469825
 30
0.0
 11
92.38454962301407
 21
267.0738123469825
 31
0.0
  0
LINE
  5
67B
330
1F
100
AcDbEntity
  8
0
100
AcDbLine
 10
92.38454962301407
 20
262.0738123469824
 30
0.0
 11
100.2845496230138
 21
262.0738123469824
 31
0.0
  0
LINE
  5
67C
330
1F
100
AcDbEntity
  8
0
100
AcDbLine
 10
100.2845496230149
 20
261.5738123469824
 30
0.0
 11
87.484549623014
 21
261.5738123469824
 31
0.0
  0
LINE
  5
67D
330
1F
100
AcDbEntity
  8
0
100
AcDbLine
 10
89.78454974493207
 20
263.0738121876385
 30
0.0
 11
89.78454974493207
 21
267.5738121876384
 31
0.0
  0
CIRCLE
  5
67E
330
1F
100
AcDbEntity
  8
0
100
AcDbCircle
 10
93.78454962301487
 20
254.5738123469825
 30
0.0
 40
5.5
  0
LINE
  5
67F
330
1F
100
AcDbEntity
  8
0
100
AcDbLine
 10
89.78454974493207
 20
263.0738121876385
 30
0.0
 11
86.38454974493198
 21
263.0738121876385
 31
0.0
  0
LINE
  5
680
330
1F
100
AcDbEntity
  8
0
100
AcDbLine
 10
95.33454962301405
 20
266.0738123469824
 30
0.0
 11
94.33454962301402
 21
266.0738123469824
 31
0.0
  0
LINE
  5
681
330
1F
100
AcDbEntity
  8
0
100
AcDbLine
 10
99.33454962301405
 20
266.0738123469824
 30
0.0
 11
93.334549623014
 21
266.0738123469824
 31
0.0
  0
LINE
  5
682
330
1F
100
AcDbEntity
  8
0
100
AcDbLine
 10
94.33454962301402
 20
263.0738123469825
 30
0.0
 11
95.33454962301405
 21
263.0738123469825
 31
0.0
  0
LINE
  5
683
330
1F
100
AcDbEntity
  8
0
100
AcDbLine
 10
93.334549623014
 20
263.0738123469825
 30
0.0
 11
99.33454962301405
 21
263.0738123469825
 31
0.0
  0
LINE
  5
684
330
1F
100
AcDbEntity
  8
0
100
AcDbLine
 10
99.33454962301405
 20
263.0738123469825
 30
0.0
 11
99.33454962301405
 21
266.0738123469824
 31
0.0
  0
LINE
  5
685
330
1F
100
AcDbEntity
  8
0
100
AcDbLine
 10
96.13454962301407
 20
263.0738123469825
 30
0.0
 11
96.13454962301407
 21
266.0738123469824
 31
0.0
  0
LINE
  5
686
330
1F
100
AcDbEntity
  8
0
100
AcDbLine
 10
95.33454962301405
 20
263.0738123469825
 30
0.0
 11
95.33454962301405
 21
266.0738123469824
 31
0.0
  0
LINE
  5
687
330
1F
100
AcDbEntity
  8
0
100
AcDbLine
 10
94.33454962301402
 20
266.0738123469824
 30
0.0
 11
94.33454962301402
 21
263.0738123469825
 31
0.0
  0
LINE
  5
688
330
1F
100
AcDbEntity
  8
0
100
AcDbLine
 10
93.334549623014
 20
266.0738123469824
 30
0.0
 11
93.334549623014
 21
263.0738123469825
 31
0.0
  0
LINE
  5
689
330
1F
100
AcDbEntity
  8
0
100
AcDbLine
 10
92.38454962301407
 20
267.0738123469825
 30
0.0
 11
92.38454962301407
 21
262.0738123469824
 31
0.0
  0
LINE
  5
68A
330
1F
100
AcDbEntity
  8
0
100
AcDbLine
 10
100.2845496230149
 20
255.6738123469826
 30
0.0
 11
100.2845496230149
 21
261.5738123469824
 31
0.0
  0
LINE
  5
68B
330
1F
100
AcDbEntity
  8
0
100
AcDbLine
 10
100.2845496230138
 20
262.0738123469824
 30
0.0
 11
100.2845496230138
 21
267.0738123469825
 31
0.0
  0
ARC
  5
68C
330
1F
100
AcDbEntity
  8
0
100
AcDbCircle
 10
108.1845496230149
 20
363.9738123469826
 30
0.0
 40
1.0
100
AcDbArc
 50
0.0
 51
90.0
  0
ARC
  5
68D
330
1F
100
AcDbEntity
  8
0
100
AcDbCircle
 10
108.1845496230149
 20
363.9738123469826
 30
0.0
 40
1.0
100
AcDbArc
 50
0.0
 51
90.0
  0
LINE
  5
68E
330
1F
100
AcDbEntity
  8
0
100
AcDbLine
 10
101.1845497449328
 20
267.5738121876384
 30
0.0
 11
89.78454974493297
 21
267.5738121876384
 31
0.0
  0
LINE
  5
68F
330
1F
100
AcDbEntity
  8
0
  6
CONTINUOUS
 62
     0
100
AcDbLine
 10
99.37454962301512
 20
299.1488123469835
 30
0.0
 11
99.37454962301512
 21
286.6488123469823
 31
0.0
  0
LINE
  5
690
330
1F
100
AcDbEntity
  8
0
  6
CONTINUOUS
 62
     0
100
AcDbLine
 10
99.37454962301512
 20
286.6488123469823
 30
0.0
 11
94.25454962301477
 21
286.6488123469823
 31
0.0
  0
LINE
  5
691
330
1F
100
AcDbEntity
  8
0
  6
CONTINUOUS
 62
     0
100
AcDbLine
 10
94.25454962301477
 20
286.6488123469823
 30
0.0
 11
94.25454962301477
 21
299.1488123469835
 31
0.0
  0
LINE
  5
692
330
1F
100
AcDbEntity
  8
0
  6
CONTINUOUS
 62
     0
100
AcDbLine
 10
94.25454962301477
 20
299.1488123469835
 30
0.0
 11
99.37454962301512
 21
299.1488123469835
 31
0.0
  0
LINE
  5
693
330
1F
100
AcDbEntity
  8
0
  6
CONTINUOUS
 62
     0
100
AcDbLine
 10
90.87454962301512
 20
299.1488123469835
 30
0.0
 11
90.87454962301512
 21
286.6488123469823
 31
0.0
  0
LINE
  5
694
330
1F
100
AcDbEntity
  8
0
  6
CONTINUOUS
 62
     0
100
AcDbLine
 10
90.87454962301512
 20
286.6488123469823
 30
0.0
 11
85.75454962301478
 21
286.6488123469823
 31
0.0
  0
LINE
  5
695
330
1F
100
AcDbEntity
  8
0
  6
CONTINUOUS
 62
     0
100
AcDbLine
 10
85.75454962301478
 20
286.6488123469823
 30
0.0
 11
85.75454962301478
 21
299.1488123469835
 31
0.0
  0
LINE
  5
696
330
1F
100
AcDbEntity
  8
0
  6
CONTINUOUS
 62
     0
100
AcDbLine
 10
85.75454962301478
 20
299.1488123469835
 30
0.0
 11
90.87454962301512
 21
299.1488123469835
 31
0.0
  0
LINE
  5
697
330
1F
100
AcDbEntity
  8
0
  6
CONTINUOUS
 62
     0
100
AcDbLine
 10
84.75454962301478
 20
299.5488123469826
 30
0.0
 11
84.75454962301478
 21
293.8988123469826
 31
0.0
  0
LINE
  5
698
330
1F
100
AcDbEntity
  8
0
  6
CONTINUOUS
 62
     0
100
AcDbLine
 10
100.3745496230151
 20
299.5488123469826
 30
0.0
 11
84.75454962301478
 21
299.5488123469826
 31
0.0
  0
LINE
  5
699
330
1F
100
AcDbEntity
  8
0
  6
CONTINUOUS
 62
     0
100
AcDbLine
 10
84.75454962301478
 20
286.2488123469832
 30
0.0
 11
100.3745496230151
 21
286.2488123469832
 31
0.0
  0
LINE
  5
69A
330
1F
100
AcDbEntity
  8
0
  6
CONTINUOUS
 62
     0
100
AcDbLine
 10
99.774549623015
 20
300.1488123469826
 30
0.0
 11
99.774549623015
 21
285.6488123469826
 31
0.0
  0
LINE
  5
69B
330
1F
100
AcDbEntity
  8
0
  6
CONTINUOUS
 62
     0
100
AcDbLine
 10
85.35454962301512
 20
300.1488123469826
 30
0.0
 11
85.35454962301512
 21
285.6488123469826
 31
0.0
  0
LINE
  5
69C
330
1F
100
AcDbEntity
  8
0
  6
CONTINUOUS
 62
     0
100
AcDbLine
 10
84.18454962301508
 20
286.6488123469823
 30
0.0
 11
84.18454962301508
 21
299.1488123469835
 31
0.0
  0
LINE
  5
69D
330
1F
100
AcDbEntity
  8
0
  6
CONTINUOUS
 62
     0
100
AcDbLine
 10
84.18454962301508
 20
300.6188123469833
 30
0.0
 11
84.18454962301508
 21
298.3188123469833
 31
0.0
  0
LINE
  5
69E
330
1F
100
AcDbEntity
  8
0
  6
CONTINUOUS
 62
     0
100
AcDbLine
 10
84.18454962301508
 20
287.4788123469833
 30
0.0
 11
84.18454962301508
 21
285.1788123469832
 31
0.0
  0
LINE
  5
69F
330
1F
100
AcDbEntity
  8
0
  6
CONTINUOUS
 62
     0
100
AcDbLine
 10
84.18454962301508
 20
297.5188123469823
 30
0.0
 11
84.18454962301508
 21
288.2788123469834
 31
0.0
  0
LINE
  5
6A0
330
1F
100
AcDbEntity
  8
0
  6
CONTINUOUS
 62
     0
100
AcDbLine
 10
96.81454962301494
 20
299.1488123469835
 30
0.0
 11
96.81454962301494
 21
286.6488123469823
 31
0.0
  0
LINE
  5
6A1
330
1F
100
AcDbEntity
  8
0
  6
CONTINUOUS
 62
     0
100
AcDbLine
 10
88.31454962301494
 20
299.1488123469835
 30
0.0
 11
88.31454962301494
 21
286.6488123469823
 31
0.0
  0
LINE
  5
6A2
330
1F
100
AcDbEntity
  8
0
  6
CONTINUOUS
 62
     0
100
AcDbLine
 10
88.31454962301494
 20
296.8588123469826
 30
0.0
 11
87.91454962301513
 21
296.8588123469826
 31
0.0
  0
LINE
  5
6A3
330
1F
100
AcDbEntity
  8
0
  6
CONTINUOUS
 62
     0
100
AcDbLine
 10
87.91454962301513
 20
296.8588123469826
 30
0.0
 11
87.91454962301513
 21
295.9388123469825
 31
0.0
  0
LINE
  5
6A4
330
1F
100
AcDbEntity
  8
0
  6
CONTINUOUS
 62
     0
100
AcDbLine
 10
87.91454962301513
 20
294.3588123469826
 30
0.0
 11
87.91454962301513
 21
293.4388123469825
 31
0.0
  0
LINE
  5
6A5
330
1F
100
AcDbEntity
  8
0
  6
CONTINUOUS
 62
     0
100
AcDbLine
 10
87.91454962301513
 20
292.3588123469826
 30
0.0
 11
87.91454962301513
 21
291.4388123469825
 31
0.0
  0
LINE
  5
6A6
330
1F
100
AcDbEntity
  8
0
  6
CONTINUOUS
 62
     0
100
AcDbLine
 10
87.91454962301513
 20
289.8588123469835
 30
0.0
 11
87.91454962301513
 21
288.9388123469823
 31
0.0
  0
LINE
  5
6A7
330
1F
100
AcDbEntity
  8
0
  6
CONTINUOUS
 62
     0
100
AcDbLine
 10
87.91454962301513
 20
295.9388123469825
 30
0.0
 11
88.31454962301494
 21
295.9388123469825
 31
0.0
  0
LINE
  5
6A8
330
1F
100
AcDbEntity
  8
0
  6
CONTINUOUS
 62
     0
100
AcDbLine
 10
87.91454962301513
 20
294.3588123469826
 30
0.0
 11
88.31454962301494
 21
294.3588123469826
 31
0.0
  0
LINE
  5
6A9
330
1F
100
AcDbEntity
  8
0
  6
CONTINUOUS
 62
     0
100
AcDbLine
 10
87.91454962301513
 20
293.4388123469825
 30
0.0
 11
88.31454962301494
 21
293.4388123469825
 31
0.0
  0
LINE
  5
6AA
330
1F
100
AcDbEntity
  8
0
  6
CONTINUOUS
 62
     0
100
AcDbLine
 10
87.91454962301513
 20
292.3588123469826
 30
0.0
 11
88.31454962301494
 21
292.3588123469826
 31
0.0
  0
LINE
  5
6AB
330
1F
100
AcDbEntity
  8
0
  6
CONTINUOUS
 62
     0
100
AcDbLine
 10
87.91454962301513
 20
291.4388123469825
 30
0.0
 11
88.31454962301494
 21
291.4388123469825
 31
0.0
  0
LINE
  5
6AC
330
1F
100
AcDbEntity
  8
0
  6
CONTINUOUS
 62
     0
100
AcDbLine
 10
87.91454962301513
 20
289.8588123469835
 30
0.0
 11
88.31454962301494
 21
289.8588123469835
 31
0.0
  0
LINE
  5
6AD
330
1F
100
AcDbEntity
  8
0
  6
CONTINUOUS
 62
     0
100
AcDbLine
 10
87.91454962301513
 20
288.9388123469823
 30
0.0
 11
88.31454962301494
 21
288.9388123469823
 31
0.0
  0
LINE
  5
6AE
330
1F
100
AcDbEntity
  8
0
  6
CONTINUOUS
 62
     0
100
AcDbLine
 10
96.31454962301495
 20
296.8588123469826
 30
0.0
 11
96.31454962301495
 21
295.9388123469825
 31
0.0
  0
LINE
  5
6AF
330
1F
100
AcDbEntity
  8
0
  6
CONTINUOUS
 62
     0
100
AcDbLine
 10
96.31454962301495
 20
294.3588123469826
 30
0.0
 11
96.31454962301495
 21
293.4388123469825
 31
0.0
  0
LINE
  5
6B0
330
1F
100
AcDbEntity
  8
0
  6
CONTINUOUS
 62
     0
100
AcDbLine
 10
96.31454962301495
 20
292.3588123469826
 30
0.0
 11
96.31454962301495
 21
291.4388123469825
 31
0.0
  0
LINE
  5
6B1
330
1F
100
AcDbEntity
  8
0
  6
CONTINUOUS
 62
     0
100
AcDbLine
 10
96.31454962301495
 20
289.8588123469835
 30
0.0
 11
96.31454962301495
 21
288.9388123469823
 31
0.0
  0
LINE
  5
6B2
330
1F
100
AcDbEntity
  8
0
  6
CONTINUOUS
 62
     0
100
AcDbLine
 10
96.31454962301495
 20
296.8588123469826
 30
0.0
 11
96.81454962301494
 21
296.8588123469826
 31
0.0
  0
LINE
  5
6B3
330
1F
100
AcDbEntity
  8
0
  6
CONTINUOUS
 62
     0
100
AcDbLine
 10
96.31454962301495
 20
295.9388123469825
 30
0.0
 11
96.81454962301494
 21
295.9388123469825
 31
0.0
  0
LINE
  5
6B4
330
1F
100
AcDbEntity
  8
0
  6
CONTINUOUS
 62
     0
100
AcDbLine
 10
96.31454962301495
 20
294.3588123469826
 30
0.0
 11
96.81454962301494
 21
294.3588123469826
 31
0.0
  0
LINE
  5
6B5
330
1F
100
AcDbEntity
  8
0
  6
CONTINUOUS
 62
     0
100
AcDbLine
 10
96.31454962301495
 20
293.4388123469825
 30
0.0
 11
96.81454962301494
 21
293.4388123469825
 31
0.0
  0
LINE
  5
6B6
330
1F
100
AcDbEntity
  8
0
  6
CONTINUOUS
 62
     0
100
AcDbLine
 10
96.31454962301495
 20
292.3588123469826
 30
0.0
 11
96.81454962301494
 21
292.3588123469826
 31
0.0
  0
LINE
  5
6B7
330
1F
100
AcDbEntity
  8
0
  6
CONTINUOUS
 62
     0
100
AcDbLine
 10
96.31454962301495
 20
291.4388123469825
 30
0.0
 11
96.81454962301494
 21
291.4388123469825
 31
0.0
  0
LINE
  5
6B8
330
1F
100
AcDbEntity
  8
0
  6
CONTINUOUS
 62
     0
100
AcDbLine
 10
96.31454962301495
 20
289.8588123469835
 30
0.0
 11
96.81454962301494
 21
289.8588123469835
 31
0.0
  0
LINE
  5
6B9
330
1F
100
AcDbEntity
  8
0
  6
CONTINUOUS
 62
     0
100
AcDbLine
 10
96.31454962301495
 20
288.9388123469823
 30
0.0
 11
96.81454962301494
 21
288.9388123469823
 31
0.0
  0
LINE
  5
6BA
330
1F
100
AcDbEntity
  8
0
  6
CONTINUOUS
 62
     0
100
AcDbLine
 10
99.774549623015
 20
299.5488123469826
 30
0.0
 11
99.774549623015
 21
300.1488123469826
 31
0.0
  0
LINE
  5
6BB
330
1F
100
AcDbEntity
  8
0
  6
CONTINUOUS
 62
     0
100
AcDbLine
 10
85.35454962301512
 20
300.1488123469826
 30
0.0
 11
85.35454962301512
 21
299.5488123469826
 31
0.0
  0
LINE
  5
6BC
330
1F
100
AcDbEntity
  8
0
  6
CONTINUOUS
 62
     0
100
AcDbLine
 10
85.35454962301512
 20
299.5488123469826
 30
0.0
 11
84.75454962301478
 21
299.5488123469826
 31
0.0
  0
LINE
  5
6BD
330
1F
100
AcDbEntity
  8
0
  6
CONTINUOUS
 62
     0
100
AcDbLine
 10
85.35454962301512
 20
286.2488123469832
 30
0.0
 11
84.75454962301478
 21
286.2488123469832
 31
0.0
  0
LINE
  5
6BE
330
1F
100
AcDbEntity
  8
0
  6
CONTINUOUS
 62
     0
100
AcDbLine
 10
85.35454962301512
 20
286.2488123469832
 30
0.0
 11
85.35454962301512
 21
285.6488123469826
 31
0.0
  0
LINE
  5
6BF
330
1F
100
AcDbEntity
  8
0
  6
CONTINUOUS
 62
     0
100
AcDbLine
 10
99.774549623015
 20
286.2488123469832
 30
0.0
 11
99.774549623015
 21
285.6488123469826
 31
0.0
  0
LINE
  5
6C0
330
1F
100
AcDbEntity
  8
0
  6
CONTINUOUS
 62
     0
100
AcDbLine
 10
99.774549623015
 20
286.2488123469832
 30
0.0
 11
100.3745496230151
 21
286.2488123469832
 31
0.0
  0
LINE
  5
6C1
330
1F
100
AcDbEntity
  8
0
  6
CONTINUOUS
 62
     0
100
AcDbLine
 10
100.3745496230151
 20
299.5488123469826
 30
0.0
 11
99.774549623015
 21
299.5488123469826
 31
0.0
  0
LINE
  5
6C2
330
1F
100
AcDbEntity
  8
0
  6
CONTINUOUS
 62
     0
100
AcDbLine
 10
100.0745496230146
 20
299.5488123469826
 30
0.0
 11
100.0745496230146
 21
286.2488123469832
 31
0.0
  0
LINE
  5
6C3
330
1F
100
AcDbEntity
  8
0
  6
CONTINUOUS
 62
     0
100
AcDbLine
 10
99.774549623015
 20
285.9488123469834
 30
0.0
 11
85.35454962301512
 21
285.9488123469834
 31
0.0
  0
LINE
  5
6C4
330
1F
100
AcDbEntity
  8
0
  6
CONTINUOUS
 62
     0
100
AcDbLine
 10
85.35454962301512
 20
285.9488123469834
 30
0.0
 11
85.25454962301479
 21
285.9488123469834
 31
0.0
  0
LINE
  5
6C5
330
1F
100
AcDbEntity
  8
0
  6
CONTINUOUS
 62
     0
100
AcDbLine
 10
85.05454962301483
 20
286.2488123469832
 30
0.0
 11
85.05454962301483
 21
299.5488123469826
 31
0.0
  0
LINE
  5
6C6
330
1F
100
AcDbEntity
  8
0
  6
CONTINUOUS
 62
     0
100
AcDbLine
 10
85.35454962301512
 20
299.8488123469833
 30
0.0
 11
85.25454962301479
 21
299.8488123469833
 31
0.0
  0
LINE
  5
6C7
330
1F
100
AcDbEntity
  8
0
  6
CONTINUOUS
 62
     0
100
AcDbLine
 10
85.35454962301512
 20
299.8488123469833
 30
0.0
 11
99.774549623015
 21
299.8488123469833
 31
0.0
  0
LINE
  5
6C8
330
1F
100
AcDbEntity
  8
0
  6
CONTINUOUS
 62
     0
100
AcDbLine
 10
100.0745496230146
 20
299.5488123469826
 30
0.0
 11
100.0745496230146
 21
299.6488123469826
 31
0.0
  0
LINE
  5
6C9
330
1F
100
AcDbEntity
  8
0
  6
CONTINUOUS
 62
     0
100
AcDbLine
 10
100.0745496230146
 20
286.2488123469832
 30
0.0
 11
100.0745496230146
 21
286.1488123469835
 31
0.0
  0
LINE
  5
6CA
330
1F
100
AcDbEntity
  8
0
  6
CONTINUOUS
 62
     0
100
AcDbLine
 10
99.774549623015
 20
285.9488123469834
 30
0.0
 11
99.87454962301512
 21
285.9488123469834
 31
0.0
  0
LINE
  5
6CB
330
1F
100
AcDbEntity
  8
0
  6
CONTINUOUS
 62
     0
100
AcDbLine
 10
99.774549623015
 20
299.8488123469833
 30
0.0
 11
99.87454962301512
 21
299.8488123469833
 31
0.0
  0
LINE
  5
6CC
330
1F
100
AcDbEntity
  8
0
  6
CONTINUOUS
 62
     0
100
AcDbLine
 10
85.05454962301483
 20
299.5488123469826
 30
0.0
 11
85.05454962301483
 21
299.6488123469826
 31
0.0
  0
LINE
  5
6CD
330
1F
100
AcDbEntity
  8
0
  6
CONTINUOUS
 62
     0
100
AcDbLine
 10
85.05454962301483
 20
286.2488123469832
 30
0.0
 11
85.05454962301483
 21
286.1488123469835
 31
0.0
  0
LINE
  5
6CE
330
1F
100
AcDbEntity
  8
0
  6
CONTINUOUS
 62
     0
100
AcDbLine
 10
84.75454962301478
 20
297.3588123469833
 30
0.0
 11
84.18454962301508
 21
297.3588123469833
 31
0.0
  0
LINE
  5
6CF
330
1F
100
AcDbEntity
  8
0
  6
CONTINUOUS
 62
     0
100
AcDbLine
 10
84.75454962301478
 20
288.4388123469824
 30
0.0
 11
84.18454962301508
 21
288.4388123469824
 31
0.0
  0
LINE
  5
6D0
330
1F
100
AcDbEntity
  8
0
  6
CONTINUOUS
 62
     0
100
AcDbLine
 10
84.18454962301508
 20
296.8588123469826
 30
0.0
 11
84.18454962301508
 21
295.9388123469825
 31
0.0
  0
LINE
  5
6D1
330
1F
100
AcDbEntity
  8
0
  6
CONTINUOUS
 62
     0
100
AcDbLine
 10
84.18454962301508
 20
294.3588123469826
 30
0.0
 11
84.18454962301508
 21
293.4388123469825
 31
0.0
  0
LINE
  5
6D2
330
1F
100
AcDbEntity
  8
0
  6
CONTINUOUS
 62
     0
100
AcDbLine
 10
84.18454962301508
 20
292.3588123469826
 30
0.0
 11
84.18454962301508
 21
291.4388123469825
 31
0.0
  0
LINE
  5
6D3
330
1F
100
AcDbEntity
  8
0
  6
CONTINUOUS
 62
     0
100
AcDbLine
 10
84.18454962301508
 20
289.8588123469835
 30
0.0
 11
84.18454962301508
 21
288.9388123469823
 31
0.0
  0
LINE
  5
6D4
330
1F
100
AcDbEntity
  8
0
  6
CONTINUOUS
 62
     0
100
AcDbLine
 10
84.18454962301508
 20
300.1200269218825
 30
0.0
 11
85.05454962301483
 21
299.8488123469833
 31
0.0
  0
LINE
  5
6D5
330
1F
100
AcDbEntity
  8
0
  6
CONTINUOUS
 62
     0
100
AcDbLine
 10
84.18454962301508
 20
285.6775977720845
 30
0.0
 11
85.05454962301483
 21
285.9488123469834
 31
0.0
  0
ARC
  5
6D6
330
1F
100
AcDbEntity
  8
0
  6
CONTINUOUS
 62
     0
100
AcDbCircle
 10
99.87454962301512
 20
299.6488123469826
 30
0.0
 40
0.2
100
AcDbArc
 50
0.0
 51
90.0
  0
ARC
  5
6D7
330
1F
100
AcDbEntity
  8
0
  6
CONTINUOUS
 62
     0
100
AcDbCircle
 10
99.87454962301512
 20
286.1488123469835
 30
0.0
 40
0.2
100
AcDbArc
 50
270.0
 51
0.0
  0
ARC
  5
6D8
330
1F
100
AcDbEntity
  8
0
  6
CONTINUOUS
 62
     0
100
AcDbCircle
 10
85.25454962301479
 20
286.1488123469835
 30
0.0
 40
0.2
100
AcDbArc
 50
180.0
 51
270.0
  0
ARC
  5
6D9
330
1F
100
AcDbEntity
  8
0
  6
CONTINUOUS
 62
     0
100
AcDbCircle
 10
85.25454962301479
 20
299.6488123469826
 30
0.0
 40
0.2
100
AcDbArc
 50
90.0
 51
180.0
  0
LINE
  5
6DA
330
1F
100
AcDbEntity
  8
0
  6
CONTINUOUS
 62
     0
100
AcDbLine
 10
87.91454962301513
 20
293.8988123469826
 30
0.0
 11
84.75454962301478
 21
293.8988123469826
 31
0.0
  0
LINE
  5
6DB
330
1F
100
AcDbEntity
  8
0
  6
CONTINUOUS
 62
     0
100
AcDbLine
 10
87.91454962301513
 20
291.8988123469834
 30
0.0
 11
84.75454962301478
 21
291.8988123469834
 31
0.0
  0
LINE
  5
6DC
330
1F
100
AcDbEntity
  8
0
  6
CONTINUOUS
 62
     0
100
AcDbLine
 10
96.31454962301495
 20
293.8988123469826
 30
0.0
 11
100.3745496230151
 21
293.8988123469826
 31
0.0
  0
LINE
  5
6DD
330
1F
100
AcDbEntity
  8
0
  6
CONTINUOUS
 62
     0
100
AcDbLine
 10
96.31454962301495
 20
291.8988123469834
 30
0.0
 11
100.3745496230151
 21
291.8988123469834
 31
0.0
  0
LINE
  5
6DE
330
1F
100
AcDbEntity
  8
0
  6
CONTINUOUS
 62
     0
100
AcDbLine
 10
99.774549623015
 20
300.1488123469826
 30
0.0
 11
85.35454962301512
 21
300.1488123469826
 31
0.0
  0
LINE
  5
6DF
330
1F
100
AcDbEntity
  8
0
  6
CONTINUOUS
 62
     0
100
AcDbLine
 10
85.35454962301512
 20
285.6488123469826
 30
0.0
 11
99.774549623015
 21
285.6488123469826
 31
0.0
  0
LINE
  5
6E0
330
1F
100
AcDbEntity
  8
0
  6
CONTINUOUS
 62
     0
100
AcDbLine
 10
100.3745496230151
 20
293.8988123469826
 30
0.0
 11
100.3745496230151
 21
299.5488123469826
 31
0.0
  0
LINE
  5
6E1
330
1F
100
AcDbEntity
  8
0
  6
CONTINUOUS
 62
     0
100
AcDbLine
 10
100.3745496230151
 20
291.8988123469834
 30
0.0
 11
100.3745496230151
 21
286.2488123469832
 31
0.0
  0
LINE
  5
6E2
330
1F
100
AcDbEntity
  8
0
  6
CONTINUOUS
 62
     0
100
AcDbLine
 10
84.75454962301478
 20
291.8988123469834
 30
0.0
 11
84.75454962301478
 21
286.2488123469832
 31
0.0
  0
LINE
  5
6E3
330
1F
100
AcDbEntity
  8
0
 62
     0
100
AcDbLine
 10
100.2845496230149
 20
318.4488083469395
 30
0.0
 11
100.2845496230149
 21
315.7488083469383
 31
0.0
  0
LINE
  5
6E4
330
1F
100
AcDbEntity
  8
0
 62
     0
100
AcDbLine
 10
98.68454962301465
 20
315.7488083469383
 30
0.0
 11
98.68454962301465
 21
318.4488083469395
 31
0.0
  0
LINE
  5
6E5
330
1F
100
AcDbEntity
  8
0
 62
     0
100
AcDbLine
 10
100.2845496230149
 20
318.4488083469395
 30
0.0
 11
98.68454962301465
 21
318.4488083469395
 31
0.0
  0
LINE
  5
6E6
330
1F
100
AcDbEntity
  8
0
 62
     0
100
AcDbLine
 10
100.2845496230149
 20
315.7488083469383
 30
0.0
 11
98.68454962301465
 21
315.7488083469383
 31
0.0
  0
LINE
  5
6E7
330
1F
100
AcDbEntity
  8
0
 62
     0
100
AcDbLine
 10
100.2845496230149
 20
312.9488123469793
 30
0.0
 11
100.2845496230149
 21
310.2488123469786
 31
0.0
  0
LINE
  5
6E8
330
1F
100
AcDbEntity
  8
0
 62
     0
100
AcDbLine
 10
98.68454962301465
 20
310.2488123469786
 30
0.0
 11
98.68454962301465
 21
312.9488123469793
 31
0.0
  0
LINE
  5
6E9
330
1F
100
AcDbEntity
  8
0
 62
     0
100
AcDbLine
 10
100.2845496230149
 20
312.9488123469793
 30
0.0
 11
98.68454962301465
 21
312.9488123469793
 31
0.0
  0
LINE
  5
6EA
330
1F
100
AcDbEntity
  8
0
 62
     0
100
AcDbLine
 10
100.2845496230149
 20
310.2488123469786
 30
0.0
 11
98.68454962301465
 21
310.2488123469786
 31
0.0
  0
LINE
  5
6EB
330
1F
100
AcDbEntity
  8
0
 62
     0
100
AcDbLine
 10
83.18454962301496
 20
303.3988123469814
 30
0.0
 11
101.2846234316075
 21
303.3988123469823
 31
0.0
  0
LINE
  5
6EC
330
1F
100
AcDbEntity
  8
0
 62
     0
100
AcDbLine
 10
83.18454962301599
 20
282.3988123469811
 30
0.0
 11
101.2846234316075
 21
282.3988123469823
 31
0.0
  0
LINE
  5
6ED
330
1F
100
AcDbEntity
  8
0
 62
     0
100
AcDbLine
 10
101.2846234316075
 20
303.3988123469823
 30
0.0
 11
101.2846234316075
 21
282.3988123469823
 31
0.0
  0
LINE
  5
6EE
330
1F
100
AcDbEntity
  8
0
 62
     0
 48
5.0
100
AcDbLine
 10
83.18454962301496
 20
303.3988123469814
 30
0.0
 11
83.18454962301656
 21
282.3988123469811
 31
0.0
  0
LINE
  5
6EF
330
1F
100
AcDbEntity
  8
0
 62
     0
100
AcDbLine
 10
84.18454962301508
 20
303.3988123469814
 30
0.0
 11
84.18454962301508
 21
282.3988123469823
 31
0.0
  0
LINE
  5
6F0
330
1F
100
AcDbEntity
  8
0
 62
     0
100
AcDbLine
 10
96.18454962301495
 20
300.1488123469826
 30
0.0
 11
96.18454962301495
 21
303.3988123469823
 31
0.0
  0
LINE
  5
6F1
330
1F
100
AcDbEntity
  8
0
 62
     0
100
AcDbLine
 10
96.18454962301495
 20
303.3988123469823
 30
0.0
 11
97.78454962301488
 21
303.3988123469823
 31
0.0
  0
LINE
  5
6F2
330
1F
100
AcDbEntity
  8
0
 62
     0
100
AcDbLine
 10
97.78454962301488
 20
303.3988123469823
 30
0.0
 11
97.78454962301488
 21
300.1488123469826
 31
0.0
  0
LINE
  5
6F3
330
1F
100
AcDbEntity
  8
0
 62
     0
100
AcDbLine
 10
96.18454962301495
 20
285.6488123469826
 30
0.0
 11
96.18454962301495
 21
282.3988123469823
 31
0.0
  0
LINE
  5
6F4
330
1F
100
AcDbEntity
  8
0
 62
     0
100
AcDbLine
 10
96.18454962301495
 20
282.3988123469823
 30
0.0
 11
97.78454962301488
 21
282.3988123469823
 31
0.0
  0
LINE
  5
6F5
330
1F
100
AcDbEntity
  8
0
 62
     0
100
AcDbLine
 10
97.78454962301488
 20
282.3988123469823
 30
0.0
 11
97.78454962301488
 21
285.6488123469826
 31
0.0
  0
MTEXT
  5
853
330
1F
100
AcDbEntity
  8
0
100
AcDbMText
 10
34.21417762315513
 20
402.5080605999844
 30
0.0
 40
10.0
 41
0.0
 71
     1
 72
     5
  1
SCON-CA-400A~750A-ML-*-1/2\PSCON-CA-100SA~750SA-ML-*-1/2
1001
ACAD
1000
MTEXTBEGIN
1070
    73
1070
     1
1070
    44
1040
1.0
1070
    74
1070
     0
1000
MTEXTEND
  0
ENDSEC
  0
SECTION
  2
OBJECTS
  0
DICTIONARY
  5
C
330
0
100
AcDbDictionary
  3
ACAD_GROUP
350
D
  3
ACAD_LAYOUT
350
1A
  3
ACAD_MLINESTYLE
350
17
  3
ACAD_PLOTSETTINGS
350
19
  3
ACAD_PLOTSTYLENAME
350
E
  3
ACDBHEADERROUNDTRIPXREC
350
855
  3
ACDBVARIABLEDICTIONARY
350
7CC
  0
DICTIONARY
  5
2DB
330
2
100
AcDbDictionary
280
     1
  3
ACAD_LAYERSTATES
360
2DC
  0
DICTIONARY
  5
7F2
330
1F
100
AcDbDictionary
280
     1
  3
ACAD_LAYOUTSELFREF
360
876
  0
DICTIONARY
  5
7F0
330
1B
100
AcDbDictionary
280
     1
  3
ACAD_LAYOUTSELFREF
360
875
  0
DICTIONARY
  5
D
102
{ACAD_REACTORS
330
C
102
}
330
C
100
AcDbDictionary
  0
DICTIONARY
  5
1A
102
{ACAD_REACTORS
330
C
102
}
330
C
100
AcDbDictionary
  0
DICTIONARY
  5
17
102
{ACAD_REACTORS
330
C
102
}
330
C
100
AcDbDictionary
  3
STANDARD
350
18
  0
DICTIONARY
  5
19
102
{ACAD_REACTORS
330
C
102
}
330
C
100
AcDbDictionary
  0
ACDBDICTIONARYWDFLT
  5
E
102
{ACAD_REACTORS
330
C
102
}
330
C
100
AcDbDictionary
281
     1
  3
Normal
350
F
100
AcDbDictionaryWithDefault
340
F
  0
DICTIONARY
  5
855
102
{ACAD_REACTORS
330
C
102
}
330
C
100
AcDbDictionary
  3
CEPSNTYPE
350
85F
  3
FINGERPRINTGUID
350
860
  3
HYPERLINKBASE
350
858
  3
INSUNITS
350
85E
  3
LAYOUTDICT
350
85A
  3
LWETCUNION
350
85D
  3
PLOTSETDICT
350
85B
  3
PLOTSTYLNAMDICT
350
85C
  3
PSVPSCALE
350
862
  3
PUCSBASE
350
865
  3
PUCSORGBACK
350
86B
  3
PUCSORGBOTTOM
350
867
  3
PUCSORGFRONT
350
86A
  3
PUCSORGLEFT
350
868
  3
PUCSORGRIGHT
350
869
  3
PUCSORGTOP
350
866
  3
PUCSORTHOREF
350
863
  3
PUCSORTHOVIEW
350
864
  3
STYLESHEET
350
859
  3
TSTACKALIGN
350
856
  3
TSTACKSIZE
350
857
  3
UCSBASE
350
86E
  3
UCSORGBACK
350
874
  3
UCSORGBOTTOM
350
870
  3
UCSORGFRONT
350
873
  3
UCSORGLEFT
350
871
  3
UCSORGRIGHT
350
872
  3
UCSORGTOP
350
86F
  3
UCSORTHOREF
350
86C
  3
UCSORTHOVIEW
350
86D
  3
VERSIONGUID
350
861
  0
DICTIONARY
  5
7CC
102
{ACAD_REACTORS
330
C
102
}
330
C
100
AcDbDictionary
  3
DIMASSOC
350
7CE
  3
HIDETEXT
350
7CD
  0
DICTIONARY
  5
2DC
102
{ACAD_REACTORS
330
2DB
102
}
330
2DB
100
AcDbDictionary
  0
XRECORD
  5
876
102
{ACAD_REACTORS
330
7F2
102
}
330
7F2
100
AcDbXrecord
340
1F
  0
XRECORD
  5
875
102
{ACAD_REACTORS
330
7F0
102
}
330
7F0
100
AcDbXrecord
340
1B
  0
MLINESTYLE
  5
18
102
{ACAD_REACTORS
330
17
102
}
330
17
100
AcDbMlineStyle
  2
STANDARD
 70
     0
  3

 62
   256
 51
90.0
 52
90.0
 71
     2
 49
0.5
 62
   256
  6
BYLAYER
 49
-0.5
 62
   256
  6
BYLAYER
  0
ACDBPLACEHOLDER
  5
F
102
{ACAD_REACTORS
330
E
102
}
330
E
100
AcDbPlaceHolder
280
     0
  0
XRECORD
  5
85F
102
{ACAD_REACTORS
330
855
102
}
330
855
100
AcDbXrecord
 90
        0
  0
XRECORD
  5
860
102
{ACAD_REACTORS
330
855
102
}
330
855
100
AcDbXrecord
  1
{D80111D1-C122-4016-BADA-EC375832170F}
  0
XRECORD
  5
858
102
{ACAD_REACTORS
330
855
102
}
330
855
100
AcDbXrecord
  1

  0
XRECORD
  5
85E
102
{ACAD_REACTORS
330
855
102
}
330
855
100
AcDbXrecord
 90
        4
  0
XRECORD
  5
85A
102
{ACAD_REACTORS
330
855
102
}
330
855
100
AcDbXrecord
340
1A
  0
XRECORD
  5
85D
102
{ACAD_REACTORS
330
855
102
}
330
855
100
AcDbXrecord
 90
    10781
  0
XRECORD
  5
85B
102
{ACAD_REACTORS
330
855
102
}
330
855
100
AcDbXrecord
340
19
  0
XRECORD
  5
85C
102
{ACAD_REACTORS
330
855
102
}
330
855
100
AcDbXrecord
340
E
  0
XRECORD
  5
862
102
{ACAD_REACTORS
330
855
102
}
330
855
100
AcDbXrecord
 40
0.0
  0
XRECORD
  5
865
102
{ACAD_REACTORS
330
855
102
}
330
855
100
AcDbXrecord
340
0
  0
XRECORD
  5
86B
102
{ACAD_REACTORS
330
855
102
}
330
855
100
AcDbXrecord
 10
0.0
 20
0.0
 30
0.0
  0
XRECORD
  5
867
102
{ACAD_REACTORS
330
855
102
}
330
855
100
AcDbXrecord
 10
0.0
 20
0.0
 30
0.0
  0
XRECORD
  5
86A
102
{ACAD_REACTORS
330
855
102
}
330
855
100
AcDbXrecord
 10
0.0
 20
0.0
 30
0.0
  0
XRECORD
  5
868
102
{ACAD_REACTORS
330
855
102
}
330
855
100
AcDbXrecord
 10
0.0
 20
0.0
 30
0.0
  0
XRECORD
  5
869
102
{ACAD_REACTORS
330
855
102
}
330
855
100
AcDbXrecord
 10
0.0
 20
0.0
 30
0.0
  0
XRECORD
  5
866
102
{ACAD_REACTORS
330
855
102
}
330
855
100
AcDbXrecord
 10
0.0
 20
0.0
 30
0.0
  0
XRECORD
  5
863
102
{ACAD_REACTORS
330
855
102
}
330
855
100
AcDbXrecord
340
0
  0
XRECORD
  5
864
102
{ACAD_REACTORS
330
855
102
}
330
855
100
AcDbXrecord
 70
     0
  0
XRECORD
  5
859
102
{ACAD_REACTORS
330
855
102
}
330
855
100
AcDbXrecord
  1

  0
XRECORD
  5
856
102
{ACAD_REACTORS
330
855
102
}
330
855
100
AcDbXrecord
 90
        1
  0
XRECORD
  5
857
102
{ACAD_REACTORS
330
855
102
}
330
855
100
AcDbXrecord
 90
       70
  0
XRECORD
  5
86E
102
{ACAD_REACTORS
330
855
102
}
330
855
100
AcDbXrecord
340
0
  0
XRECORD
  5
874
102
{ACAD_REACTORS
330
855
102
}
330
855
100
AcDbXrecord
 10
0.0
 20
0.0
 30
0.0
  0
XRECORD
  5
870
102
{ACAD_REACTORS
330
855
102
}
330
855
100
AcDbXrecord
 10
0.0
 20
0.0
 30
0.0
  0
XRECORD
  5
873
102
{ACAD_REACTORS
330
855
102
}
330
855
100
AcDbXrecord
 10
0.0
 20
0.0
 30
0.0
  0
XRECORD
  5
871
102
{ACAD_REACTORS
330
855
102
}
330
855
100
AcDbXrecord
 10
0.0
 20
0.0
 30
0.0
  0
XRECORD
  5
872
102
{ACAD_REACTORS
330
855
102
}
330
855
100
AcDbXrecord
 10
0.0
 20
0.0
 30
0.0
  0
XRECORD
  5
86F
102
{ACAD_REACTORS
330
855
102
}
330
855
100
AcDbXrecord
 10
0.0
 20
0.0
 30
0.0
  0
XRECORD
  5
86C
102
{ACAD_REACTORS
330
855
102
}
330
855
100
AcDbXrecord
340
0
  0
XRECORD
  5
86D
102
{ACAD_REACTORS
330
855
102
}
330
855
100
AcDbXrecord
 70
     0
  0
XRECORD
  5
861
102
{ACAD_REACTORS
330
855
102
}
330
855
100
AcDbXrecord
  1
{A79855B8-32D4-4A5E-BC4E-517699088510}
  0
DICTIONARYVAR
  5
7CE
102
{ACAD_REACTORS
330
7CC
102
}
330
7CC
100
DictionaryVariables
280
     0
  1
2
  0
DICTIONARYVAR
  5
7CD
102
{ACAD_REACTORS
330
7CC
102
}
330
7CC
100
DictionaryVariables
280
     0
  1
1
  0
ENDSEC
  0
EOF
